  0
SECTION
  2
HEADER
  9
$ACADVER
  1
AC1024
  9
$ACADMAINTVER
 70
   226
  9
$DWGCODEPAGE
  3
ANSI_932
  9
$INSBASE
 10
0.0
 20
0.0
 30
0.0
  9
$EXTMIN
 10
1.000000000000000E+20
 20
1.000000000000000E+20
 30
1.000000000000000E+20
  9
$EXTMAX
 10
-1.000000000000000E+20
 20
-1.000000000000000E+20
 30
-1.000000000000000E+20
  9
$LIMMIN
 10
0.0
 20
0.0
  9
$LIMMAX
 10
12.0
 20
9.0
  9
$ORTHOMODE
 70
     0
  9
$REGENMODE
 70
     1
  9
$FILLMODE
 70
     1
  9
$QTEXTMODE
 70
     0
  9
$MIRRTEXT
 70
     0
  9
$LTSCALE
 40
1.0
  9
$ATTMODE
 70
     1
  9
$TEXTSIZE
 40
0.2
  9
$TRACEWID
 40
0.05
  9
$TEXTSTYLE
  7
Standard
  9
$CLAYER
  8
0
  9
$CELTYPE
  6
ByLayer
  9
$CECOLOR
 62
   256
  9
$CELTSCALE
 40
1.0
  9
$DISPSILH
 70
     0
  9
$DIMSCALE
 40
1.0
  9
$DIMASZ
 40
0.18
  9
$DIMEXO
 40
0.0625
  9
$DIMDLI
 40
0.38
  9
$DIMRND
 40
0.0
  9
$DIMDLE
 40
0.0
  9
$DIMEXE
 40
0.18
  9
$DIMTP
 40
0.0
  9
$DIMTM
 40
0.0
  9
$DIMTXT
 40
0.18
  9
$DIMCEN
 40
0.09
  9
$DIMTSZ
 40
0.0
  9
$DIMTOL
 70
     0
  9
$DIMLIM
 70
     0
  9
$DIMTIH
 70
     1
  9
$DIMTOH
 70
     1
  9
$DIMSE1
 70
     0
  9
$DIMSE2
 70
     0
  9
$DIMTAD
 70
     0
  9
$DIMZIN
 70
     0
  9
$DIMBLK
  1

  9
$DIMASO
 70
     1
  9
$DIMSHO
 70
     1
  9
$DIMPOST
  1

  9
$DIMAPOST
  1

  9
$DIMALT
 70
     0
  9
$DIMALTD
 70
     2
  9
$DIMALTF
 40
25.4
  9
$DIMLFAC
 40
1.0
  9
$DIMTOFL
 70
     0
  9
$DIMTVP
 40
0.0
  9
$DIMTIX
 70
     0
  9
$DIMSOXD
 70
     0
  9
$DIMSAH
 70
     0
  9
$DIMBLK1
  1

  9
$DIMBLK2
  1

  9
$DIMSTYLE
  2
Standard
  9
$DIMCLRD
 70
     0
  9
$DIMCLRE
 70
     0
  9
$DIMCLRT
 70
     0
  9
$DIMTFAC
 40
1.0
  9
$DIMGAP
 40
0.09
  9
$DIMJUST
 70
     0
  9
$DIMSD1
 70
     0
  9
$DIMSD2
 70
     0
  9
$DIMTOLJ
 70
     1
  9
$DIMTZIN
 70
     0
  9
$DIMALTZ
 70
     0
  9
$DIMALTTZ
 70
     0
  9
$DIMUPT
 70
     0
  9
$DIMDEC
 70
     4
  9
$DIMTDEC
 70
     4
  9
$DIMALTU
 70
     2
  9
$DIMALTTD
 70
     2
  9
$DIMTXSTY
  7
Standard
  9
$DIMAUNIT
 70
     0
  9
$DIMADEC
 70
     0
  9
$DIMALTRND
 40
0.0
  9
$DIMAZIN
 70
     0
  9
$DIMDSEP
 70
    46
  9
$DIMATFIT
 70
     3
  9
$DIMFRAC
 70
     0
  9
$DIMLDRBLK
  1

  9
$DIMLUNIT
 70
     2
  9
$DIMLWD
 70
    -2
  9
$DIMLWE
 70
    -2
  9
$DIMTMOVE
 70
     0
  9
$DIMFXL
 40
1.0
  9
$DIMFXLON
 70
     0
  9
$DIMJOGANG
 40
0.7853981633974483
  9
$DIMTFILL
 70
     0
  9
$DIMTFILLCLR
 70
     0
  9
$DIMARCSYM
 70
     0
  9
$DIMLTYPE
  6

  9
$DIMLTEX1
  6

  9
$DIMLTEX2
  6

  9
$DIMTXTDIRECTION
 70
     0
  9
$LUNITS
 70
     2
  9
$LUPREC
 70
     4
  9
$SKETCHINC
 40
0.1
  9
$FILLETRAD
 40
0.0
  9
$AUNITS
 70
     0
  9
$AUPREC
 70
     0
  9
$MENU
  1
.
  9
$ELEVATION
 40
0.0
  9
$PELEVATION
 40
0.0
  9
$THICKNESS
 40
0.0
  9
$LIMCHECK
 70
     0
  9
$CHAMFERA
 40
0.0
  9
$CHAMFERB
 40
0.0
  9
$CHAMFERC
 40
0.0
  9
$CHAMFERD
 40
0.0
  9
$SKPOLY
 70
     0
  9
$TDCREATE
 40
2459569.489826389
  9
$TDUCREATE
 40
2459569.114826389
  9
$TDUPDATE
 40
2459569.489826389
  9
$TDUUPDATE
 40
2459569.114826389
  9
$TDINDWG
 40
0.0000000000
  9
$TDUSRTIMER
 40
0.0000000000
  9
$USRTIMER
 70
     1
  9
$ANGBASE
 50
0.0
  9
$ANGDIR
 70
     0
  9
$PDMODE
 70
     0
  9
$PDSIZE
 40
0.0
  9
$PLINEWID
 40
0.0
  9
$SPLFRAME
 70
     0
  9
$SPLINETYPE
 70
     6
  9
$SPLINESEGS
 70
     8
  9
$HANDSEED
  5
14E
  9
$SURFTAB1
 70
     6
  9
$SURFTAB2
 70
     6
  9
$SURFTYPE
 70
     6
  9
$SURFU
 70
     6
  9
$SURFV
 70
     6
  9
$UCSBASE
  2

  9
$UCSNAME
  2

  9
$UCSORG
 10
0.0
 20
0.0
 30
0.0
  9
$UCSXDIR
 10
1.0
 20
0.0
 30
0.0
  9
$UCSYDIR
 10
0.0
 20
1.0
 30
0.0
  9
$UCSORTHOREF
  2

  9
$UCSORTHOVIEW
 70
     0
  9
$UCSORGTOP
 10
0.0
 20
0.0
 30
0.0
  9
$UCSORGBOTTOM
 10
0.0
 20
0.0
 30
0.0
  9
$UCSORGLEFT
 10
0.0
 20
0.0
 30
0.0
  9
$UCSORGRIGHT
 10
0.0
 20
0.0
 30
0.0
  9
$UCSORGFRONT
 10
0.0
 20
0.0
 30
0.0
  9
$UCSORGBACK
 10
0.0
 20
0.0
 30
0.0
  9
$PUCSBASE
  2

  9
$PUCSNAME
  2

  9
$PUCSORG
 10
0.0
 20
0.0
 30
0.0
  9
$PUCSXDIR
 10
1.0
 20
0.0
 30
0.0
  9
$PUCSYDIR
 10
0.0
 20
1.0
 30
0.0
  9
$PUCSORTHOREF
  2

  9
$PUCSORTHOVIEW
 70
     0
  9
$PUCSORGTOP
 10
0.0
 20
0.0
 30
0.0
  9
$PUCSORGBOTTOM
 10
0.0
 20
0.0
 30
0.0
  9
$PUCSORGLEFT
 10
0.0
 20
0.0
 30
0.0
  9
$PUCSORGRIGHT
 10
0.0
 20
0.0
 30
0.0
  9
$PUCSORGFRONT
 10
0.0
 20
0.0
 30
0.0
  9
$PUCSORGBACK
 10
0.0
 20
0.0
 30
0.0
  9
$USERI1
 70
     0
  9
$USERI2
 70
     0
  9
$USERI3
 70
     0
  9
$USERI4
 70
     0
  9
$USERI5
 70
     0
  9
$USERR1
 40
0.0
  9
$USERR2
 40
0.0
  9
$USERR3
 40
0.0
  9
$USERR4
 40
0.0
  9
$USERR5
 40
0.0
  9
$WORLDVIEW
 70
     1
  9
$SHADEDGE
 70
     3
  9
$SHADEDIF
 70
    70
  9
$TILEMODE
 70
     1
  9
$MAXACTVP
 70
    64
  9
$PINSBASE
 10
0.0
 20
0.0
 30
0.0
  9
$PLIMCHECK
 70
     0
  9
$PEXTMIN
 10
1.000000000000000E+20
 20
1.000000000000000E+20
 30
1.000000000000000E+20
  9
$PEXTMAX
 10
-1.000000000000000E+20
 20
-1.000000000000000E+20
 30
-1.000000000000000E+20
  9
$PLIMMIN
 10
0.0
 20
0.0
  9
$PLIMMAX
 10
12.0
 20
9.0
  9
$UNITMODE
 70
     0
  9
$VISRETAIN
 70
     1
  9
$PLINEGEN
 70
     0
  9
$PSLTSCALE
 70
     1
  9
$TREEDEPTH
 70
  3020
  9
$CMLSTYLE
  2
Standard
  9
$CMLJUST
 70
     0
  9
$CMLSCALE
 40
1.0
  9
$PROXYGRAPHICS
 70
     1
  9
$MEASUREMENT
 70
     0
  9
$CELWEIGHT
370
    -1
  9
$ENDCAPS
280
     0
  9
$JOINSTYLE
280
     0
  9
$LWDISPLAY
290
     1
  9
$INSUNITS
 70
     4
  9
$HYPERLINKBASE
  1

  9
$STYLESHEET
  1

  9
$XEDIT
290
     1
  9
$CEPSNTYPE
380
     0
  9
$PSTYLEMODE
290
     1
  9
$FINGERPRINTGUID
  2
{6770493A-A96B-E74C-9DA5-3962506990FC}
  9
$VERSIONGUID
  2
{53DB3AD1-03E4-794E-982F-459CEBE33017}
  9
$EXTNAMES
290
     1
  9
$PSVPSCALE
 40
0.0
  9
$OLESTARTUP
290
     0
  9
$SORTENTS
280
   127
  9
$INDEXCTL
280
     0
  9
$HIDETEXT
280
     1
  9
$XCLIPFRAME
280
     2
  9
$HALOGAP
280
     0
  9
$OBSCOLOR
 70
   257
  9
$OBSLTYPE
280
     0
  9
$INTERSECTIONDISPLAY
280
     0
  9
$INTERSECTIONCOLOR
 70
   257
  9
$DIMASSOC
280
     2
  9
$PROJECTNAME
  1

  9
$CAMERADISPLAY
290
     0
  9
$LENSLENGTH
 40
50.0
  9
$CAMERAHEIGHT
 40
0.0
  9
$STEPSPERSEC
 40
2.0
  9
$STEPSIZE
 40
6.0
  9
$3DDWFPREC
 40
2.0
  9
$PSOLWIDTH
 40
0.25
  9
$PSOLHEIGHT
 40
4.0
  9
$LOFTANG1
 40
1.570796326794896
  9
$LOFTANG2
 40
1.570796326794896
  9
$LOFTMAG1
 40
0.0
  9
$LOFTMAG2
 40
0.0
  9
$LOFTPARAM
 70
     7
  9
$LOFTNORMALS
280
     1
  9
$LATITUDE
 40
37.795
  9
$LONGITUDE
 40
-122.394
  9
$NORTHDIRECTION
 40
0.0
  9
$TIMEZONE
 70
 -8000
  9
$LIGHTGLYPHDISPLAY
280
     1
  9
$TILEMODELIGHTSYNCH
280
     1
  9
$CMATERIAL
347
11
  9
$SOLIDHIST
280
     0
  9
$SHOWHIST
280
     1
  9
$DWFFRAME
280
     2
  9
$DGNFRAME
280
     0
  9
$REALWORLDSCALE
290
     1
  9
$INTERFERECOLOR
 62
     1
  9
$INTERFEREOBJVS
345
33
  9
$INTERFEREVPVS
346
30
  9
$CSHADOW
280
     0
  9
$SHADOWPLANELOCATION
 40
0.0
  0
ENDSEC
  0
SECTION
  2
CLASSES
  0
CLASS
  1
ACDBDICTIONARYWDFLT
  2
AcDbDictionaryWithDefault
  3
ObjectDBX Classes
 90
        0
 91
        1
280
     0
281
     0
  0
CLASS
  1
MATERIAL
  2
AcDbMaterial
  3
ObjectDBX Classes
 90
     1153
 91
        3
280
     0
281
     0
  0
CLASS
  1
VISUALSTYLE
  2
AcDbVisualStyle
  3
ObjectDBX Classes
 90
     4095
 91
       24
280
     0
281
     0
  0
CLASS
  1
SCALE
  2
AcDbScale
  3
ObjectDBX Classes
 90
     1153
 91
       17
280
     0
281
     0
  0
CLASS
  1
TABLESTYLE
  2
AcDbTableStyle
  3
ObjectDBX Classes
 90
     4095
 91
        1
280
     0
281
     0
  0
CLASS
  1
MLEADERSTYLE
  2
AcDbMLeaderStyle
  3
ACDB_MLEADERSTYLE_CLASS
 90
     4095
 91
        1
280
     0
281
     0
  0
CLASS
  1
ACDBSECTIONVIEWSTYLE
  2
AcDbSectionViewStyle
  3
ObjectDBX Classes
 90
     1025
 91
        1
280
     0
281
     0
  0
CLASS
  1
ACDBDETAILVIEWSTYLE
  2
AcDbDetailViewStyle
  3
ObjectDBX Classes
 90
     1025
 91
        1
280
     0
281
     0
  0
CLASS
  1
DICTIONARYVAR
  2
AcDbDictionaryVar
  3
ObjectDBX Classes
 90
        0
 91
        5
280
     0
281
     0
  0
CLASS
  1
CELLSTYLEMAP
  2
AcDbCellStyleMap
  3
ObjectDBX Classes
 90
     1152
 91
        1
280
     0
281
     0
  0
ENDSEC
  0
SECTION
  2
TABLES
  0
TABLE
  2
VPORT
  5
8
330
0
100
AcDbSymbolTable
 70
     1
  0
VPORT
  5
57
330
8
100
AcDbSymbolTableRecord
100
AcDbViewportTableRecord
  2
*Active
 70
     0
 10
0.0
 20
0.0
 11
1.0
 21
1.0
 12
0.0
 22
0.0
 13
0.0
 23
0.0
 14
1.0
 24
1.0
 15
0.0
 25
0.0
 16
0.0
 26
0.0
 36
1.0
 17
104.9999999737534
 27
-148.4999999628701
 37
0.0
 40
302.939999924255
 41
0.7070707070707534
 42
50.0
 43
0.0
 44
0.0
 50
0.0
 51
0.0
 71
     0
 72
   100
 73
     1
 74
     0
 75
     1
 76
     0
 77
     0
 78
     0
281
     0
 65
     1
110
0.0
120
0.0
130
0.0
111
1.0
121
0.0
131
0.0
112
0.0
122
1.0
132
0.0
 79
     0
146
0.0
 60
     3
 61
     5
292
     1
282
     1
141
0.0
142
0.0
 63
   250
421
  3355443
  0
ENDTAB
  0
TABLE
  2
LTYPE
  5
5
330
0
100
AcDbSymbolTable
 70
     1
  0
LTYPE
  5
5B
330
5
100
AcDbSymbolTableRecord
100
AcDbLinetypeTableRecord
  2
ByBlock
 70
     0
  3

 72
    65
 73
     0
 40
0.0
  0
LTYPE
  5
5C
330
5
100
AcDbSymbolTableRecord
100
AcDbLinetypeTableRecord
  2
ByLayer
 70
     0
  3

 72
    65
 73
     0
 40
0.0
  0
LTYPE
  5
5D
330
5
100
AcDbSymbolTableRecord
100
AcDbLinetypeTableRecord
  2
Continuous
 70
     0
  3
Solid line
 72
    65
 73
     0
 40
0.0
  0
ENDTAB
  0
TABLE
  2
LAYER
  5
2
330
0
100
AcDbSymbolTable
 70
     2
  0
LAYER
  5
54
330
2
100
AcDbSymbolTableRecord
100
AcDbLayerTableRecord
  2
0
 70
     0
 62
     7
  6
Continuous
370
    -3
390
F
347
21
  0
LAYER
  5
78
330
2
100
AcDbSymbolTableRecord
100
AcDbLayerTableRecord
  2
レイヤー 1
 70
     0
 62
     7
  6
Continuous
370
     0
390
F
347
21
  0
ENDTAB
  0
TABLE
  2
STYLE
  5
3
330
0
100
AcDbSymbolTable
 70
     2
  0
STYLE
  5
55
330
3
100
AcDbSymbolTableRecord
100
AcDbTextStyleTableRecord
  2
Standard
 70
     0
 40
0.0
 41
1.0
 50
0.0
 71
     0
 42
0.2
  3
txt
  4

  0
STYLE
  5
5A
330
3
100
AcDbSymbolTableRecord
100
AcDbTextStyleTableRecord
  2
Annotative
 70
     0
 40
0.0
 41
1.0
 50
0.0
 71
     0
 42
0.2
  3
txt
  4

1001
AcadAnnotative
1000
AnnotativeData
1002
{
1070
     1
1070
     1
1002
}
  0
ENDTAB
  0
TABLE
  2
VIEW
  5
6
330
0
100
AcDbSymbolTable
 70
     0
  0
ENDTAB
  0
TABLE
  2
UCS
  5
7
330
0
100
AcDbSymbolTable
 70
     0
  0
ENDTAB
  0
TABLE
  2
APPID
  5
9
330
0
100
AcDbSymbolTable
 70
     2
  0
APPID
  5
56
330
9
100
AcDbSymbolTableRecord
100
AcDbRegAppTableRecord
  2
ACAD
 70
     0
  0
APPID
  5
5E
330
9
100
AcDbSymbolTableRecord
100
AcDbRegAppTableRecord
  2
AcadAnnotative
 70
     0
  0
ENDTAB
  0
TABLE
  2
DIMSTYLE
  5
A
330
0
100
AcDbSymbolTable
 70
     2
100
AcDbDimStyleTable
 71
     0
  0
DIMSTYLE
105
58
330
A
100
AcDbSymbolTableRecord
100
AcDbDimStyleTableRecord
  2
Standard
 70
     0
340
55
  0
DIMSTYLE
105
59
330
A
100
AcDbSymbolTableRecord
100
AcDbDimStyleTableRecord
  2
Annotative
 70
     0
340
55
1001
AcadAnnotative
1000
AnnotativeData
1002
{
1070
     1
1070
     1
1002
}
  0
ENDTAB
  0
TABLE
  2
BLOCK_RECORD
  5
1
330
0
100
AcDbSymbolTable
 70
    17
  0
BLOCK_RECORD
  5
70
330
1
100
AcDbSymbolTableRecord
100
AcDbBlockTableRecord
  2
*Model_Space
340
73
 70
     0
280
     1
281
     0
  0
BLOCK_RECORD
  5
6C
330
1
100
AcDbSymbolTableRecord
100
AcDbBlockTableRecord
  2
*Paper_Space
340
6F
 70
     0
280
     1
281
     0
  0
BLOCK_RECORD
  5
74
330
1
100
AcDbSymbolTableRecord
100
AcDbBlockTableRecord
  2
*Paper_Space0
340
77
 70
     0
280
     1
281
     0
  0
BLOCK_RECORD
  5
88
330
1
100
AcDbSymbolTableRecord
100
AcDbBlockTableRecord
  2
Block_0
340
0
102
{BLKREFS
331
89
102
}
 70
     0
280
     1
281
     0
  0
BLOCK_RECORD
  5
8C
330
1
100
AcDbSymbolTableRecord
100
AcDbBlockTableRecord
  2
Block_1
340
0
102
{BLKREFS
331
8D
102
}
 70
     0
280
     1
281
     0
  0
BLOCK_RECORD
  5
9D
330
1
100
AcDbSymbolTableRecord
100
AcDbBlockTableRecord
  2
Block_2
340
0
102
{BLKREFS
331
9E
102
}
 70
     0
280
     1
281
     0
  0
BLOCK_RECORD
  5
A8
330
1
100
AcDbSymbolTableRecord
100
AcDbBlockTableRecord
  2
Block_3
340
0
102
{BLKREFS
331
A9
102
}
 70
     0
280
     1
281
     0
  0
BLOCK_RECORD
  5
AC
330
1
100
AcDbSymbolTableRecord
100
AcDbBlockTableRecord
  2
Block_4
340
0
102
{BLKREFS
331
AD
102
}
 70
     0
280
     1
281
     0
  0
BLOCK_RECORD
  5
B4
330
1
100
AcDbSymbolTableRecord
100
AcDbBlockTableRecord
  2
Block_5
340
0
102
{BLKREFS
331
B5
102
}
 70
     0
280
     1
281
     0
  0
BLOCK_RECORD
  5
B8
330
1
100
AcDbSymbolTableRecord
100
AcDbBlockTableRecord
  2
Block_6
340
0
102
{BLKREFS
331
B9
102
}
 70
     0
280
     1
281
     0
  0
BLOCK_RECORD
  5
C2
330
1
100
AcDbSymbolTableRecord
100
AcDbBlockTableRecord
  2
Block_7
340
0
102
{BLKREFS
331
C3
102
}
 70
     0
280
     1
281
     0
  0
BLOCK_RECORD
  5
C6
330
1
100
AcDbSymbolTableRecord
100
AcDbBlockTableRecord
  2
Block_8
340
0
102
{BLKREFS
331
C7
102
}
 70
     0
280
     1
281
     0
  0
BLOCK_RECORD
  5
D2
330
1
100
AcDbSymbolTableRecord
100
AcDbBlockTableRecord
  2
Block_9
340
0
102
{BLKREFS
331
D3
102
}
 70
     0
280
     1
281
     0
  0
BLOCK_RECORD
  5
D6
330
1
100
AcDbSymbolTableRecord
100
AcDbBlockTableRecord
  2
Block_10
340
0
102
{BLKREFS
331
D7
102
}
 70
     0
280
     1
281
     0
  0
BLOCK_RECORD
  5
E3
330
1
100
AcDbSymbolTableRecord
100
AcDbBlockTableRecord
  2
Block_11
340
0
102
{BLKREFS
331
E4
102
}
 70
     0
280
     1
281
     0
  0
BLOCK_RECORD
  5
E7
330
1
100
AcDbSymbolTableRecord
100
AcDbBlockTableRecord
  2
Block_12
340
0
102
{BLKREFS
331
E8
102
}
 70
     0
280
     1
281
     0
  0
BLOCK_RECORD
  5
F4
330
1
100
AcDbSymbolTableRecord
100
AcDbBlockTableRecord
  2
Block_13
340
0
102
{BLKREFS
331
F5
102
}
 70
     0
280
     1
281
     0
  0
BLOCK_RECORD
  5
F8
330
1
100
AcDbSymbolTableRecord
100
AcDbBlockTableRecord
  2
Block_14
340
0
102
{BLKREFS
331
F9
102
}
 70
     0
280
     1
281
     0
  0
BLOCK_RECORD
  5
102
330
1
100
AcDbSymbolTableRecord
100
AcDbBlockTableRecord
  2
Block_15
340
0
102
{BLKREFS
331
103
102
}
 70
     0
280
     1
281
     0
  0
ENDTAB
  0
ENDSEC
  0
SECTION
  2
BLOCKS
  0
BLOCK
  5
71
330
70
100
AcDbEntity
  8
0
100
AcDbBlockBegin
  2
*Model_Space
 70
     0
 10
0.0
 20
0.0
 30
0.0
  3
*Model_Space
  1

  0
ENDBLK
  5
72
330
70
100
AcDbEntity
  8
0
100
AcDbBlockEnd
  0
BLOCK
  5
6D
330
6C
100
AcDbEntity
 67
     1
  8
0
100
AcDbBlockBegin
  2
*Paper_Space
 70
     0
 10
0.0
 20
0.0
 30
0.0
  3
*Paper_Space
  1

  0
ENDBLK
  5
6E
330
6C
100
AcDbEntity
 67
     1
  8
0
100
AcDbBlockEnd
  0
BLOCK
  5
75
330
74
100
AcDbEntity
 67
     1
  8
0
100
AcDbBlockBegin
  2
*Paper_Space0
 70
     0
 10
0.0
 20
0.0
 30
0.0
  3
*Paper_Space0
  1

  0
ENDBLK
  5
76
330
74
100
AcDbEntity
 67
     1
  8
0
100
AcDbBlockEnd
  0
BLOCK
  5
8A
330
88
100
AcDbEntity
  8
0
100
AcDbBlockBegin
  2
Block_0
 70
     0
 10
0.0
 20
0.0
 30
0.0
  3
Block_0
  1

  0
INSERT
  5
8D
330
88
100
AcDbEntity
  8
レイヤー 1
100
AcDbBlockReference
  2
Block_1
 10
0.0
 20
0.0
 30
0.0
  0
ENDBLK
  5
8B
330
88
100
AcDbEntity
  8
0
100
AcDbBlockEnd
  0
BLOCK
  5
8E
330
8C
100
AcDbEntity
  8
0
100
AcDbBlockBegin
  2
Block_1
 70
     0
 10
0.0
 20
0.0
 30
0.0
  3
Block_1
  1

  0
SPLINE
  5
90
330
8C
100
AcDbEntity
  8
レイヤー 1
100
AcDbSpline
210
0.0
220
0.0
230
1.0
 70
     9
 71
     3
 72
    44
 73
    40
 74
     0
 42
0.0000000001
 43
0.0000000001
 40
0.0
 40
0.0
 40
0.0
 40
0.0
 40
1.0
 40
1.0
 40
1.0
 40
2.0
 40
2.0
 40
2.0
 40
3.0
 40
3.0
 40
3.0
 40
4.0
 40
4.0
 40
4.0
 40
5.0
 40
5.0
 40
5.0
 40
6.0
 40
6.0
 40
6.0
 40
7.0
 40
7.0
 40
7.0
 40
8.0
 40
8.0
 40
8.0
 40
9.0
 40
9.0
 40
9.0
 40
10.0
 40
10.0
 40
10.0
 40
11.0
 40
11.0
 40
11.0
 40
12.0
 40
12.0
 40
12.0
 40
13.0
 40
13.0
 40
13.0
 40
13.0
 10
72.54819876658517
 20
-174.559543142124
 30
0.0
 10
72.70684541368094
 20
-174.7924315969269
 30
0.0
 10
72.78091496661381
 20
-174.8919948564506
 30
0.0
 10
72.92474770312299
 20
-174.9440157982779
 30
0.0
 10
72.92474770312299
 20
-174.9440157982779
 30
0.0
 10
72.92474770312299
 20
-174.1116807290415
 30
0.0
 10
72.92474770312299
 20
-174.1116807290415
 30
0.0
 10
72.92474770312299
 20
-174.1116807290415
 30
0.0
 10
73.12990313926961
 20
-174.1116807290415
 30
0.0
 10
73.12990313926961
 20
-174.1116807290415
 30
0.0
 10
73.12990313926961
 20
-174.1116807290415
 30
0.0
 10
73.12990313926961
 20
-175.2106661888362
 30
0.0
 10
73.12990313926961
 20
-175.2106661888362
 30
0.0
 10
72.77230222790068
 20
-175.1765597435323
 30
0.0
 10
72.69409856038551
 20
-175.1066243051817
 30
0.0
 10
72.39575329136286
 20
-174.6952799042428
 30
0.0
 10
72.19697128186395
 20
-174.421739322714
 30
0.0
 10
72.12927515557879
 20
-174.3514593748149
 30
0.0
 10
71.99181584571732
 20
-174.3514593748149
 30
0.0
 10
71.87330456102474
 20
-174.3514593748149
 30
0.0
 10
71.74221867781098
 20
-174.428285004136
 30
0.0
 10
71.74221867781098
 20
-174.6387803382847
 30
0.0
 10
71.74221867781098
 20
-174.9167995439444
 30
0.0
 10
71.97269556577419
 20
-174.925756792206
 30
0.0
 10
72.08913979317563
 20
-174.9302354163369
 30
0.0
 10
72.08913979317563
 20
-174.9302354163369
 30
0.0
 10
72.08913979317563
 20
-175.1700140621102
 30
0.0
 10
72.08913979317563
 20
-175.1700140621102
 30
0.0
 10
71.96218802454417
 20
-175.1610568138486
 30
0.0
 10
71.8500501664993
 20
-175.1496879987473
 30
0.0
 10
71.7315388818067
 20
-175.063560611616
 30
0.0
 10
71.57082517741979
 20
-174.946082855569
 30
0.0
 10
71.53689098689008
 20
-174.7473008460701
 30
0.0
 10
71.53689098689008
 20
-174.6229328990526
 30
0.0
 10
71.53689098689008
 20
-174.3266546873211
 30
0.0
 10
71.72103134057668
 20
-174.1051350476196
 30
0.0
 10
71.99388290300849
 20
-174.1051350476196
 30
0.0
 10
72.22229273368054
 20
-174.1051350476196
 30
0.0
 10
72.32185599320427
 20
-174.2295029946371
 30
0.0
 10
72.54819876658517
 20
-174.559543142124
 30
0.0
  0
HATCH
  5
91
330
8C
100
AcDbEntity
  8
レイヤー 1
 62
   250
420
  2299925
440
 33554687
100
AcDbHatch
 10
0.0
 20
0.0
 30
0.0
210
0.0
220
0.0
230
1.0
  2
SOLID
 70
     1
 71
     1
 91
        1
 92
        1
 93
        1
 72
     4
 94
        3
 73
     0
 74
     0
 95
       44
 96
       40
 40
0.0
 40
0.0
 40
0.0
 40
0.0
 40
1.0
 40
1.0
 40
1.0
 40
2.0
 40
2.0
 40
2.0
 40
3.0
 40
3.0
 40
3.0
 40
4.0
 40
4.0
 40
4.0
 40
5.0
 40
5.0
 40
5.0
 40
6.0
 40
6.0
 40
6.0
 40
7.0
 40
7.0
 40
7.0
 40
8.0
 40
8.0
 40
8.0
 40
9.0
 40
9.0
 40
9.0
 40
10.0
 40
10.0
 40
10.0
 40
11.0
 40
11.0
 40
11.0
 40
12.0
 40
12.0
 40
12.0
 40
13.0
 40
13.0
 40
13.0
 40
13.0
 10
72.54819876658517
 20
-174.559543142124
 10
72.70684541368094
 20
-174.7924315969269
 10
72.78091496661381
 20
-174.8919948564506
 10
72.92474770312299
 20
-174.9440157982779
 10
72.92474770312299
 20
-174.9440157982779
 10
72.92474770312299
 20
-174.1116807290415
 10
72.92474770312299
 20
-174.1116807290415
 10
72.92474770312299
 20
-174.1116807290415
 10
73.12990313926961
 20
-174.1116807290415
 10
73.12990313926961
 20
-174.1116807290415
 10
73.12990313926961
 20
-174.1116807290415
 10
73.12990313926961
 20
-175.2106661888362
 10
73.12990313926961
 20
-175.2106661888362
 10
72.77230222790068
 20
-175.1765597435323
 10
72.69409856038551
 20
-175.1066243051817
 10
72.39575329136286
 20
-174.6952799042428
 10
72.19697128186395
 20
-174.421739322714
 10
72.12927515557879
 20
-174.3514593748149
 10
71.99181584571732
 20
-174.3514593748149
 10
71.87330456102474
 20
-174.3514593748149
 10
71.74221867781098
 20
-174.428285004136
 10
71.74221867781098
 20
-174.6387803382847
 10
71.74221867781098
 20
-174.9167995439444
 10
71.97269556577419
 20
-174.925756792206
 10
72.08913979317563
 20
-174.9302354163369
 10
72.08913979317563
 20
-174.9302354163369
 10
72.08913979317563
 20
-175.1700140621102
 10
72.08913979317563
 20
-175.1700140621102
 10
71.96218802454417
 20
-175.1610568138486
 10
71.8500501664993
 20
-175.1496879987473
 10
71.7315388818067
 20
-175.063560611616
 10
71.57082517741979
 20
-174.946082855569
 10
71.53689098689008
 20
-174.7473008460701
 10
71.53689098689008
 20
-174.6229328990526
 10
71.53689098689008
 20
-174.3266546873211
 10
71.72103134057668
 20
-174.1051350476196
 10
71.99388290300849
 20
-174.1051350476196
 10
72.22229273368054
 20
-174.1051350476196
 10
72.32185599320427
 20
-174.2295029946371
 10
72.54819876658517
 20
-174.559543142124
 97
        0
 97
        1
330
90
 75
     2
 76
     1
 98
        1
 10
0.0
 20
0.0
450
        0
451
        0
460
0.0
461
0.0
452
        0
462
0.0
453
        0
470

  0
SPLINE
  5
92
330
8C
100
AcDbEntity
  8
レイヤー 1
100
AcDbSpline
210
0.0
220
0.0
230
1.0
 70
     9
 71
     3
 72
    17
 73
    13
 74
     0
 42
0.0000000001
 43
0.0000000001
 40
0.0
 40
0.0
 40
0.0
 40
0.0
 40
1.0
 40
1.0
 40
1.0
 40
2.0
 40
2.0
 40
2.0
 40
3.0
 40
3.0
 40
3.0
 40
4.0
 40
4.0
 40
4.0
 40
4.0
 10
72.38955211948942
 20
-173.401302039983
 30
0.0
 10
72.38955211948942
 20
-173.5549532986251
 30
0.0
 10
72.47619627094346
 20
-173.7175618055289
 30
0.0
 10
72.67928464979893
 20
-173.7175618055289
 30
0.0
 10
72.88444008594556
 20
-173.7175618055289
 30
0.0
 10
72.98607040276043
 20
-173.5821695529586
 30
0.0
 10
72.98607040276043
 20
-173.401302039983
 30
0.0
 10
72.98607040276043
 20
-173.2021755209356
 30
0.0
 10
72.86342500348553
 20
-173.0846977648885
 30
0.0
 10
72.68565807644664
 20
-173.0846977648885
 30
0.0
 10
72.46344941764803
 20
-173.0846977648885
 30
0.0
 10
72.38955211948942
 20
-173.2586750868937
 30
0.0
 10
72.38955211948942
 20
-173.401302039983
 30
0.0
  0
SPLINE
  5
93
330
8C
100
AcDbEntity
  8
レイヤー 1
100
AcDbSpline
210
0.0
220
0.0
230
1.0
 70
     9
 71
     3
 72
    17
 73
    13
 74
     0
 42
0.0000000001
 43
0.0000000001
 40
0.0
 40
0.0
 40
0.0
 40
0.0
 40
1.0
 40
1.0
 40
1.0
 40
2.0
 40
2.0
 40
2.0
 40
3.0
 40
3.0
 40
3.0
 40
4.0
 40
4.0
 40
4.0
 40
4.0
 10
71.72947182451555
 20
-173.401302039983
 30
0.0
 10
71.72947182451555
 20
-173.5776909288278
 30
0.0
 10
71.82455645990845
 20
-173.6679524305413
 30
0.0
 10
71.95994871247876
 20
-173.6679524305413
 30
0.0
 10
72.08276636652792
 20
-173.6679524305413
 30
0.0
 10
72.20127765122052
 20
-173.5911268012202
 30
0.0
 10
72.20127765122052
 20
-173.401302039983
 30
0.0
 10
72.20127765122052
 20
-173.2111327691972
 30
0.0
 10
72.08276636652792
 20
-173.1343071398761
 30
0.0
 10
71.95994871247876
 20
-173.1343071398761
 30
0.0
 10
71.82455645990845
 20
-173.1343071398761
 30
0.0
 10
71.72947182451555
 20
-173.2269802084294
 30
0.0
 10
71.72947182451555
 20
-173.401302039983
 30
0.0
  0
SPLINE
  5
94
330
8C
100
AcDbEntity
  8
レイヤー 1
100
AcDbSpline
210
0.0
220
0.0
230
1.0
 70
     9
 71
     3
 72
    29
 73
    25
 74
     0
 42
0.0000000001
 43
0.0000000001
 40
0.0
 40
0.0
 40
0.0
 40
0.0
 40
1.0
 40
1.0
 40
1.0
 40
2.0
 40
2.0
 40
2.0
 40
3.0
 40
3.0
 40
3.0
 40
4.0
 40
4.0
 40
4.0
 40
5.0
 40
5.0
 40
5.0
 40
6.0
 40
6.0
 40
6.0
 40
7.0
 40
7.0
 40
7.0
 40
8.0
 40
8.0
 40
8.0
 40
8.0
 10
73.18071829767704
 20
-173.401302039983
 30
0.0
 10
73.18071829767704
 20
-173.6858669270646
 30
0.0
 10
73.04308673304132
 20
-173.9573404513023
 30
0.0
 10
72.69409856038551
 20
-173.9573404513023
 30
0.0
 10
72.43812796583144
 20
-173.9573404513023
 30
0.0
 10
72.34287107566429
 20
-173.8057562499513
 30
0.0
 10
72.28154837602684
 20
-173.6927571180351
 30
0.0
 10
72.22229273368054
 20
-173.8260823133143
 30
0.0
 10
72.10808781834451
 20
-173.9077310763147
 30
0.0
 10
71.9473741139576
 20
-173.9077310763147
 30
0.0
 10
71.6722832394604
 20
-173.9077310763147
 30
0.0
 10
71.53689098689008
 20
-173.6951686848748
 30
0.0
 10
71.53689098689008
 20
-173.401302039983
 30
0.0
 10
71.53689098689008
 20
-173.098133637281
 30
0.0
 10
71.68072372339927
 20
-172.8948730036513
 30
0.0
 10
71.9473741139576
 20
-172.8948730036513
 30
0.0
 10
72.10808781834451
 20
-172.8948730036513
 30
0.0
 10
72.22229273368054
 20
-172.9782443143943
 30
0.0
 10
72.28154837602684
 20
-173.111914019222
 30
0.0
 10
72.33236353443428
 20
-173.0168293838291
 30
0.0
 10
72.42762042460142
 20
-172.8473306859548
 30
0.0
 10
72.68996444580321
 20
-172.8473306859548
 30
0.0
 10
73.0642740702756
 20
-172.8473306859548
 30
0.0
 10
73.18071829767704
 20
-173.1456759549775
 30
0.0
 10
73.18071829767704
 20
-173.401302039983
 30
0.0
  0
HATCH
  5
95
330
8C
100
AcDbEntity
  8
レイヤー 1
 62
   250
420
  2299925
440
 33554687
100
AcDbHatch
 10
0.0
 20
0.0
 30
0.0
210
0.0
220
0.0
230
1.0
  2
SOLID
 70
     1
 71
     1
 91
        3
 92
        1
 93
        1
 72
     4
 94
        3
 73
     0
 74
     0
 95
       17
 96
       13
 40
0.0
 40
0.0
 40
0.0
 40
0.0
 40
1.0
 40
1.0
 40
1.0
 40
2.0
 40
2.0
 40
2.0
 40
3.0
 40
3.0
 40
3.0
 40
4.0
 40
4.0
 40
4.0
 40
4.0
 10
72.38955211948942
 20
-173.401302039983
 10
72.38955211948942
 20
-173.5549532986251
 10
72.47619627094346
 20
-173.7175618055289
 10
72.67928464979893
 20
-173.7175618055289
 10
72.88444008594556
 20
-173.7175618055289
 10
72.98607040276043
 20
-173.5821695529586
 10
72.98607040276043
 20
-173.401302039983
 10
72.98607040276043
 20
-173.2021755209356
 10
72.86342500348553
 20
-173.0846977648885
 10
72.68565807644664
 20
-173.0846977648885
 10
72.46344941764803
 20
-173.0846977648885
 10
72.38955211948942
 20
-173.2586750868937
 10
72.38955211948942
 20
-173.401302039983
 97
        0
 97
        1
330
92
 92
        1
 93
        1
 72
     4
 94
        3
 73
     0
 74
     0
 95
       17
 96
       13
 40
0.0
 40
0.0
 40
0.0
 40
0.0
 40
1.0
 40
1.0
 40
1.0
 40
2.0
 40
2.0
 40
2.0
 40
3.0
 40
3.0
 40
3.0
 40
4.0
 40
4.0
 40
4.0
 40
4.0
 10
71.72947182451555
 20
-173.401302039983
 10
71.72947182451555
 20
-173.5776909288278
 10
71.82455645990845
 20
-173.6679524305413
 10
71.95994871247876
 20
-173.6679524305413
 10
72.08276636652792
 20
-173.6679524305413
 10
72.20127765122052
 20
-173.5911268012202
 10
72.20127765122052
 20
-173.401302039983
 10
72.20127765122052
 20
-173.2111327691972
 10
72.08276636652792
 20
-173.1343071398761
 10
71.95994871247876
 20
-173.1343071398761
 10
71.82455645990845
 20
-173.1343071398761
 10
71.72947182451555
 20
-173.2269802084294
 10
71.72947182451555
 20
-173.401302039983
 97
        0
 97
        1
330
93
 92
        1
 93
        1
 72
     4
 94
        3
 73
     0
 74
     0
 95
       29
 96
       25
 40
0.0
 40
0.0
 40
0.0
 40
0.0
 40
1.0
 40
1.0
 40
1.0
 40
2.0
 40
2.0
 40
2.0
 40
3.0
 40
3.0
 40
3.0
 40
4.0
 40
4.0
 40
4.0
 40
5.0
 40
5.0
 40
5.0
 40
6.0
 40
6.0
 40
6.0
 40
7.0
 40
7.0
 40
7.0
 40
8.0
 40
8.0
 40
8.0
 40
8.0
 10
73.18071829767704
 20
-173.401302039983
 10
73.18071829767704
 20
-173.6858669270646
 10
73.04308673304132
 20
-173.9573404513023
 10
72.69409856038551
 20
-173.9573404513023
 10
72.43812796583144
 20
-173.9573404513023
 10
72.34287107566429
 20
-173.8057562499513
 10
72.28154837602684
 20
-173.6927571180351
 10
72.22229273368054
 20
-173.8260823133143
 10
72.10808781834451
 20
-173.9077310763147
 10
71.9473741139576
 20
-173.9077310763147
 10
71.6722832394604
 20
-173.9077310763147
 10
71.53689098689008
 20
-173.6951686848748
 10
71.53689098689008
 20
-173.401302039983
 10
71.53689098689008
 20
-173.098133637281
 10
71.68072372339927
 20
-172.8948730036513
 10
71.9473741139576
 20
-172.8948730036513
 10
72.10808781834451
 20
-172.8948730036513
 10
72.22229273368054
 20
-172.9782443143943
 10
72.28154837602684
 20
-173.111914019222
 10
72.33236353443428
 20
-173.0168293838291
 10
72.42762042460142
 20
-172.8473306859548
 10
72.68996444580321
 20
-172.8473306859548
 10
73.0642740702756
 20
-172.8473306859548
 10
73.18071829767704
 20
-173.1456759549775
 10
73.18071829767704
 20
-173.401302039983
 97
        0
 97
        1
330
94
 75
     2
 76
     1
 98
        1
 10
0.0
 20
0.0
450
        0
451
        0
460
0.0
461
0.0
452
        0
462
0.0
453
        0
470

  0
SPLINE
  5
96
330
8C
100
AcDbEntity
  8
レイヤー 1
100
AcDbSpline
210
0.0
220
0.0
230
1.0
 70
    11
 71
     3
 72
    17
 73
    13
 74
     0
 42
0.0000000001
 43
0.0000000001
 40
0.0
 40
0.0
 40
0.0
 40
0.0
 40
1.0
 40
1.0
 40
1.0
 40
2.0
 40
2.0
 40
2.0
 40
3.0
 40
3.0
 40
3.0
 40
4.0
 40
4.0
 40
4.0
 40
4.0
 10
73.12990313926961
 20
-172.6137532120549
 30
0.0
 10
73.12990313926961
 20
-172.6137532120549
 30
0.0
 10
72.87823891407211
 20
-172.6137532120549
 30
0.0
 10
72.87823891407211
 20
-172.6137532120549
 30
0.0
 10
72.87823891407211
 20
-172.6137532120549
 30
0.0
 10
72.87823891407211
 20
-172.3446912546569
 30
0.0
 10
72.87823891407211
 20
-172.3446912546569
 30
0.0
 10
72.87823891407211
 20
-172.3446912546569
 30
0.0
 10
73.12990313926961
 20
-172.3446912546569
 30
0.0
 10
73.12990313926961
 20
-172.3446912546569
 30
0.0
 10
73.12990313926961
 20
-172.3446912546569
 30
0.0
 10
73.12990313926961
 20
-172.6137532120549
 30
0.0
 10
73.12990313926961
 20
-172.6137532120549
 30
0.0
  0
HATCH
  5
97
330
8C
100
AcDbEntity
  8
レイヤー 1
 62
   250
420
  2299925
440
 33554687
100
AcDbHatch
 10
0.0
 20
0.0
 30
0.0
210
0.0
220
0.0
230
1.0
  2
SOLID
 70
     1
 71
     1
 91
        1
 92
        1
 93
        1
 72
     4
 94
        3
 73
     0
 74
     0
 95
       17
 96
       13
 40
0.0
 40
0.0
 40
0.0
 40
0.0
 40
1.0
 40
1.0
 40
1.0
 40
2.0
 40
2.0
 40
2.0
 40
3.0
 40
3.0
 40
3.0
 40
4.0
 40
4.0
 40
4.0
 40
4.0
 10
73.12990313926961
 20
-172.6137532120549
 10
73.12990313926961
 20
-172.6137532120549
 10
72.87823891407211
 20
-172.6137532120549
 10
72.87823891407211
 20
-172.6137532120549
 10
72.87823891407211
 20
-172.6137532120549
 10
72.87823891407211
 20
-172.3446912546569
 10
72.87823891407211
 20
-172.3446912546569
 10
72.87823891407211
 20
-172.3446912546569
 10
73.12990313926961
 20
-172.3446912546569
 10
73.12990313926961
 20
-172.3446912546569
 10
73.12990313926961
 20
-172.3446912546569
 10
73.12990313926961
 20
-172.6137532120549
 10
73.12990313926961
 20
-172.6137532120549
 97
        0
 97
        1
330
96
 75
     2
 76
     1
 98
        1
 10
0.0
 20
0.0
450
        0
451
        0
460
0.0
461
0.0
452
        0
462
0.0
453
        0
470

  0
SPLINE
  5
98
330
8C
100
AcDbEntity
  8
レイヤー 1
100
AcDbSpline
210
0.0
220
0.0
230
1.0
 70
     9
 71
     3
 72
    53
 73
    49
 74
     0
 42
0.0000000001
 43
0.0000000001
 40
0.0
 40
0.0
 40
0.0
 40
0.0
 40
1.0
 40
1.0
 40
1.0
 40
2.0
 40
2.0
 40
2.0
 40
3.0
 40
3.0
 40
3.0
 40
4.0
 40
4.0
 40
4.0
 40
5.0
 40
5.0
 40
5.0
 40
6.0
 40
6.0
 40
6.0
 40
7.0
 40
7.0
 40
7.0
 40
8.0
 40
8.0
 40
8.0
 40
9.0
 40
9.0
 40
9.0
 40
10.0
 40
10.0
 40
10.0
 40
11.0
 40
11.0
 40
11.0
 40
12.0
 40
12.0
 40
12.0
 40
13.0
 40
13.0
 40
13.0
 40
14.0
 40
14.0
 40
14.0
 40
15.0
 40
15.0
 40
15.0
 40
16.0
 40
16.0
 40
16.0
 40
16.0
 10
73.18071829767704
 20
-171.5778129996403
 30
0.0
 10
73.18071829767704
 20
-171.6615288199318
 30
0.0
 10
73.16366507502507
 20
-171.7697048181687
 30
0.0
 10
73.10027531809646
 20
-171.8785698355025
 30
0.0
 10
72.99020451734273
 20
-172.063915972609
 30
0.0
 10
72.85911863412898
 20
-172.0863090932631
 30
0.0
 10
72.75128714544066
 20
-172.1066351566261
 30
0.0
 10
72.75128714544066
 20
-172.1066351566261
 30
0.0
 10
72.75128714544066
 20
-171.8692680776924
 30
0.0
 10
72.75128714544066
 20
-171.8692680776924
 30
0.0
 10
72.95006915493956
 20
-171.8107014544431
 30
0.0
 10
72.97969697611272
 20
-171.6749646923243
 30
0.0
 10
72.97969697611272
 20
-171.5754014328006
 30
0.0
 10
72.97969697611272
 20
-171.4262287982893
 30
0.0
 10
72.88030597136326
 20
-171.2632757818369
 30
0.0
 10
72.64758977133464
 20
-171.2632757818369
 30
0.0
 10
72.39161917678057
 20
-171.2632757818369
 30
0.0
 10
72.32185599320427
 20
-171.4555121099139
 30
0.0
 10
72.32185599320427
 20
-171.5843586810622
 30
0.0
 10
72.32185599320427
 20
-171.6184651263662
 30
0.0
 10
72.32185599320427
 20
-171.7697048181687
 30
0.0
 10
72.45087481912687
 20
-171.8647894535616
 30
0.0
 10
72.45087481912687
 20
-171.8647894535616
 30
0.0
 10
72.43175453918373
 20
-172.0525471575077
 30
0.0
 10
72.43175453918373
 20
-172.0525471575077
 30
0.0
 10
72.43175453918373
 20
-172.0525471575077
 30
0.0
 10
71.58563908800637
 20
-171.9237005863593
 30
0.0
 10
71.58563908800637
 20
-171.9237005863593
 30
0.0
 10
71.58563908800637
 20
-171.9237005863593
 30
0.0
 10
71.58563908800637
 20
-171.0917100266715
 30
0.0
 10
71.58563908800637
 20
-171.0917100266715
 30
0.0
 10
71.58563908800637
 20
-171.0917100266715
 30
0.0
 10
71.78028698292298
 20
-171.0917100266715
 30
0.0
 10
71.78028698292298
 20
-171.0917100266715
 30
0.0
 10
71.78028698292298
 20
-171.0917100266715
 30
0.0
 10
71.78028698292298
 20
-171.7493787548057
 30
0.0
 10
71.78028698292298
 20
-171.7493787548057
 30
0.0
 10
71.78028698292298
 20
-171.7493787548057
 30
0.0
 10
72.20334470851167
 20
-171.8196587027048
 30
0.0
 10
72.20334470851167
 20
-171.8196587027048
 30
0.0
 10
72.16941051798196
 20
-171.754201888485
 30
0.0
 10
72.12927515557879
 20
-171.6660074440627
 30
0.0
 10
72.12927515557879
 20
-171.5392279302055
 30
0.0
 10
72.12927515557879
 20
-171.2680989155163
 30
0.0
 10
72.31548256655655
 20
-171.0148843973504
 30
0.0
 10
72.6284694913915
 20
-171.0148843973504
 30
0.0
 10
72.94593504035727
 20
-171.0148843973504
 30
0.0
 10
73.18071829767704
 20
-171.2543185335753
 30
0.0
 10
73.18071829767704
 20
-171.5778129996403
 30
0.0
  0
HATCH
  5
99
330
8C
100
AcDbEntity
  8
レイヤー 1
 62
   250
420
  2299925
440
 33554687
100
AcDbHatch
 10
0.0
 20
0.0
 30
0.0
210
0.0
220
0.0
230
1.0
  2
SOLID
 70
     1
 71
     1
 91
        1
 92
        1
 93
        1
 72
     4
 94
        3
 73
     0
 74
     0
 95
       53
 96
       49
 40
0.0
 40
0.0
 40
0.0
 40
0.0
 40
1.0
 40
1.0
 40
1.0
 40
2.0
 40
2.0
 40
2.0
 40
3.0
 40
3.0
 40
3.0
 40
4.0
 40
4.0
 40
4.0
 40
5.0
 40
5.0
 40
5.0
 40
6.0
 40
6.0
 40
6.0
 40
7.0
 40
7.0
 40
7.0
 40
8.0
 40
8.0
 40
8.0
 40
9.0
 40
9.0
 40
9.0
 40
10.0
 40
10.0
 40
10.0
 40
11.0
 40
11.0
 40
11.0
 40
12.0
 40
12.0
 40
12.0
 40
13.0
 40
13.0
 40
13.0
 40
14.0
 40
14.0
 40
14.0
 40
15.0
 40
15.0
 40
15.0
 40
16.0
 40
16.0
 40
16.0
 40
16.0
 10
73.18071829767704
 20
-171.5778129996403
 10
73.18071829767704
 20
-171.6615288199318
 10
73.16366507502507
 20
-171.7697048181687
 10
73.10027531809646
 20
-171.8785698355025
 10
72.99020451734273
 20
-172.063915972609
 10
72.85911863412898
 20
-172.0863090932631
 10
72.75128714544066
 20
-172.1066351566261
 10
72.75128714544066
 20
-172.1066351566261
 10
72.75128714544066
 20
-171.8692680776924
 10
72.75128714544066
 20
-171.8692680776924
 10
72.95006915493956
 20
-171.8107014544431
 10
72.97969697611272
 20
-171.6749646923243
 10
72.97969697611272
 20
-171.5754014328006
 10
72.97969697611272
 20
-171.4262287982893
 10
72.88030597136326
 20
-171.2632757818369
 10
72.64758977133464
 20
-171.2632757818369
 10
72.39161917678057
 20
-171.2632757818369
 10
72.32185599320427
 20
-171.4555121099139
 10
72.32185599320427
 20
-171.5843586810622
 10
72.32185599320427
 20
-171.6184651263662
 10
72.32185599320427
 20
-171.7697048181687
 10
72.45087481912687
 20
-171.8647894535616
 10
72.45087481912687
 20
-171.8647894535616
 10
72.43175453918373
 20
-172.0525471575077
 10
72.43175453918373
 20
-172.0525471575077
 10
72.43175453918373
 20
-172.0525471575077
 10
71.58563908800637
 20
-171.9237005863593
 10
71.58563908800637
 20
-171.9237005863593
 10
71.58563908800637
 20
-171.9237005863593
 10
71.58563908800637
 20
-171.0917100266715
 10
71.58563908800637
 20
-171.0917100266715
 10
71.58563908800637
 20
-171.0917100266715
 10
71.78028698292298
 20
-171.0917100266715
 10
71.78028698292298
 20
-171.0917100266715
 10
71.78028698292298
 20
-171.0917100266715
 10
71.78028698292298
 20
-171.7493787548057
 10
71.78028698292298
 20
-171.7493787548057
 10
71.78028698292298
 20
-171.7493787548057
 10
72.20334470851167
 20
-171.8196587027048
 10
72.20334470851167
 20
-171.8196587027048
 10
72.16941051798196
 20
-171.754201888485
 10
72.12927515557879
 20
-171.6660074440627
 10
72.12927515557879
 20
-171.5392279302055
 10
72.12927515557879
 20
-171.2680989155163
 10
72.31548256655655
 20
-171.0148843973504
 10
72.6284694913915
 20
-171.0148843973504
 10
72.94593504035727
 20
-171.0148843973504
 10
73.18071829767704
 20
-171.2543185335753
 10
73.18071829767704
 20
-171.5778129996403
 97
        0
 97
        1
330
98
 75
     2
 76
     1
 98
        1
 10
0.0
 20
0.0
450
        0
451
        0
460
0.0
461
0.0
452
        0
462
0.0
453
        0
470

  0
ENDBLK
  5
8F
330
8C
100
AcDbEntity
  8
0
100
AcDbBlockEnd
  0
BLOCK
  5
9F
330
9D
100
AcDbEntity
  8
0
100
AcDbBlockBegin
  2
Block_2
 70
     0
 10
0.0
 20
0.0
 30
0.0
  3
Block_2
  1

  0
SPLINE
  5
A1
330
9D
100
AcDbEntity
  8
レイヤー 1
100
AcDbSpline
210
0.0
220
0.0
230
1.0
 70
     9
 71
     3
 72
    44
 73
    40
 74
     0
 42
0.0000000001
 43
0.0000000001
 40
0.0
 40
0.0
 40
0.0
 40
0.0
 40
1.0
 40
1.0
 40
1.0
 40
2.0
 40
2.0
 40
2.0
 40
3.0
 40
3.0
 40
3.0
 40
4.0
 40
4.0
 40
4.0
 40
5.0
 40
5.0
 40
5.0
 40
6.0
 40
6.0
 40
6.0
 40
7.0
 40
7.0
 40
7.0
 40
8.0
 40
8.0
 40
8.0
 40
9.0
 40
9.0
 40
9.0
 40
10.0
 40
10.0
 40
10.0
 40
11.0
 40
11.0
 40
11.0
 40
12.0
 40
12.0
 40
12.0
 40
13.0
 40
13.0
 40
13.0
 40
13.0
 10
133.6386989683264
 20
-186.2925048362393
 30
0.0
 10
133.7975178701964
 20
-186.5253932910422
 30
0.0
 10
133.8715874231293
 20
-186.624956550566
 30
0.0
 10
134.0152479048642
 20
-186.6769774923932
 30
0.0
 10
134.0152479048642
 20
-186.6769774923932
 30
0.0
 10
134.0152479048642
 20
-185.8449869327054
 30
0.0
 10
134.0152479048642
 20
-185.8449869327054
 30
0.0
 10
134.0152479048642
 20
-185.8449869327054
 30
0.0
 10
134.2205755957851
 20
-185.8449869327054
 30
0.0
 10
134.2205755957851
 20
-185.8449869327054
 30
0.0
 10
134.2205755957851
 20
-185.8449869327054
 30
0.0
 10
134.2205755957851
 20
-186.9436278829516
 30
0.0
 10
134.2205755957851
 20
-186.9436278829516
 30
0.0
 10
133.8629746844162
 20
-186.9098659471961
 30
0.0
 10
133.784771016901
 20
-186.8399305088456
 30
0.0
 10
133.4864257478784
 20
-186.4282415983582
 30
0.0
 10
133.2876437383794
 20
-186.1547010168294
 30
0.0
 10
133.21977535732
 20
-186.0847655784788
 30
0.0
 10
133.0823160474586
 20
-186.0847655784788
 30
0.0
 10
132.963804762766
 20
-186.0847655784788
 30
0.0
 10
132.8328911343265
 20
-186.1615912077999
 30
0.0
 10
132.8328911343265
 20
-186.3717420324001
 30
0.0
 10
132.8328911343265
 20
-186.6497612380598
 30
0.0
 10
133.0633680222897
 20
-186.6590629958699
 30
0.0
 10
133.1798122496911
 20
-186.6635416200008
 30
0.0
 10
133.1798122496911
 20
-186.6635416200008
 30
0.0
 10
133.1798122496911
 20
-186.9029757562256
 30
0.0
 10
133.1798122496911
 20
-186.9029757562256
 30
0.0
 10
133.0526882262854
 20
-186.894018507964
 30
0.0
 10
132.9407226230148
 20
-186.8826496928626
 30
0.0
 10
132.8222113383222
 20
-186.79686681528
 30
0.0
 10
132.661325379161
 20
-186.6793890592329
 30
0.0
 10
132.6275634434056
 20
-186.4802625401855
 30
0.0
 10
132.6275634434056
 20
-186.355894593168
 30
0.0
 10
132.6275634434056
 20
-186.0596163814365
 30
0.0
 10
132.8115315423179
 20
-185.8380967417349
 30
0.0
 10
133.0843831047497
 20
-185.8380967417349
 30
0.0
 10
133.3131374449703
 20
-185.8380967417349
 30
0.0
 10
133.4123561949455
 20
-185.9624646887524
 30
0.0
 10
133.6386989683264
 20
-186.2925048362393
 30
0.0
  0
HATCH
  5
A2
330
9D
100
AcDbEntity
  8
レイヤー 1
 62
   250
420
  2299925
440
 33554687
100
AcDbHatch
 10
0.0
 20
0.0
 30
0.0
210
0.0
220
0.0
230
1.0
  2
SOLID
 70
     1
 71
     1
 91
        1
 92
        1
 93
        1
 72
     4
 94
        3
 73
     0
 74
     0
 95
       44
 96
       40
 40
0.0
 40
0.0
 40
0.0
 40
0.0
 40
1.0
 40
1.0
 40
1.0
 40
2.0
 40
2.0
 40
2.0
 40
3.0
 40
3.0
 40
3.0
 40
4.0
 40
4.0
 40
4.0
 40
5.0
 40
5.0
 40
5.0
 40
6.0
 40
6.0
 40
6.0
 40
7.0
 40
7.0
 40
7.0
 40
8.0
 40
8.0
 40
8.0
 40
9.0
 40
9.0
 40
9.0
 40
10.0
 40
10.0
 40
10.0
 40
11.0
 40
11.0
 40
11.0
 40
12.0
 40
12.0
 40
12.0
 40
13.0
 40
13.0
 40
13.0
 40
13.0
 10
133.6386989683264
 20
-186.2925048362393
 10
133.7975178701964
 20
-186.5253932910422
 10
133.8715874231293
 20
-186.624956550566
 10
134.0152479048642
 20
-186.6769774923932
 10
134.0152479048642
 20
-186.6769774923932
 10
134.0152479048642
 20
-185.8449869327054
 10
134.0152479048642
 20
-185.8449869327054
 10
134.0152479048642
 20
-185.8449869327054
 10
134.2205755957851
 20
-185.8449869327054
 10
134.2205755957851
 20
-185.8449869327054
 10
134.2205755957851
 20
-185.8449869327054
 10
134.2205755957851
 20
-186.9436278829516
 10
134.2205755957851
 20
-186.9436278829516
 10
133.8629746844162
 20
-186.9098659471961
 10
133.784771016901
 20
-186.8399305088456
 10
133.4864257478784
 20
-186.4282415983582
 10
133.2876437383794
 20
-186.1547010168294
 10
133.21977535732
 20
-186.0847655784788
 10
133.0823160474586
 20
-186.0847655784788
 10
132.963804762766
 20
-186.0847655784788
 10
132.8328911343265
 20
-186.1615912077999
 10
132.8328911343265
 20
-186.3717420324001
 10
132.8328911343265
 20
-186.6497612380598
 10
133.0633680222897
 20
-186.6590629958699
 10
133.1798122496911
 20
-186.6635416200008
 10
133.1798122496911
 20
-186.6635416200008
 10
133.1798122496911
 20
-186.9029757562256
 10
133.1798122496911
 20
-186.9029757562256
 10
133.0526882262854
 20
-186.894018507964
 10
132.9407226230148
 20
-186.8826496928626
 10
132.8222113383222
 20
-186.79686681528
 10
132.661325379161
 20
-186.6793890592329
 10
132.6275634434056
 20
-186.4802625401855
 10
132.6275634434056
 20
-186.355894593168
 10
132.6275634434056
 20
-186.0596163814365
 10
132.8115315423179
 20
-185.8380967417349
 10
133.0843831047497
 20
-185.8380967417349
 10
133.3131374449703
 20
-185.8380967417349
 10
133.4123561949455
 20
-185.9624646887524
 10
133.6386989683264
 20
-186.2925048362393
 97
        0
 97
        1
330
A1
 75
     2
 76
     1
 98
        1
 10
0.0
 20
0.0
450
        0
451
        0
460
0.0
461
0.0
452
        0
462
0.0
453
        0
470

  0
ENDBLK
  5
A0
330
9D
100
AcDbEntity
  8
0
100
AcDbBlockEnd
  0
BLOCK
  5
AA
330
A8
100
AcDbEntity
  8
0
100
AcDbBlockBegin
  2
Block_3
 70
     0
 10
0.0
 20
0.0
 30
0.0
  3
Block_3
  1

  0
INSERT
  5
AD
330
A8
100
AcDbEntity
  8
レイヤー 1
100
AcDbBlockReference
  2
Block_4
 10
0.0
 20
0.0
 30
0.0
  0
ENDBLK
  5
AB
330
A8
100
AcDbEntity
  8
0
100
AcDbBlockEnd
  0
BLOCK
  5
AE
330
AC
100
AcDbEntity
  8
0
100
AcDbBlockBegin
  2
Block_4
 70
     0
 10
0.0
 20
0.0
 30
0.0
  3
Block_4
  1

  0
SPLINE
  5
B0
330
AC
100
AcDbEntity
  8
レイヤー 1
100
AcDbSpline
210
0.0
220
0.0
230
1.0
 70
    11
 71
     3
 72
    26
 73
    22
 74
     0
 42
0.0000000001
 43
0.0000000001
 40
0.0
 40
0.0
 40
0.0
 40
0.0
 40
1.0
 40
1.0
 40
1.0
 40
2.0
 40
2.0
 40
2.0
 40
3.0
 40
3.0
 40
3.0
 40
4.0
 40
4.0
 40
4.0
 40
5.0
 40
5.0
 40
5.0
 40
6.0
 40
6.0
 40
6.0
 40
7.0
 40
7.0
 40
7.0
 40
7.0
 10
134.2205755957851
 20
-178.7536023858671
 30
0.0
 10
134.2205755957851
 20
-178.7536023858671
 30
0.0
 10
133.1164224927626
 20
-178.7536023858671
 30
0.0
 10
133.1164224927626
 20
-178.7536023858671
 30
0.0
 10
133.1164224927626
 20
-178.7536023858671
 30
0.0
 10
133.1164224927626
 20
-179.1060356540082
 30
0.0
 10
133.1164224927626
 20
-179.1060356540082
 30
0.0
 10
133.1164224927626
 20
-179.1060356540082
 30
0.0
 10
132.9682833868968
 20
-179.1060356540082
 30
0.0
 10
132.9682833868968
 20
-179.1060356540082
 30
0.0
 10
132.9534694763102
 20
-178.7511908190275
 30
0.0
 10
132.7905164598579
 20
-178.7015814440399
 30
0.0
 10
132.6761392897476
 20
-178.6698865655756
 30
0.0
 10
132.6761392897476
 20
-178.6698865655756
 30
0.0
 10
132.6761392897476
 20
-178.5138237400938
 30
0.0
 10
132.6761392897476
 20
-178.5138237400938
 30
0.0
 10
132.6761392897476
 20
-178.5138237400938
 30
0.0
 10
134.2205755957851
 20
-178.5138237400938
 30
0.0
 10
134.2205755957851
 20
-178.5138237400938
 30
0.0
 10
134.2205755957851
 20
-178.5138237400938
 30
0.0
 10
134.2205755957851
 20
-178.7536023858671
 30
0.0
 10
134.2205755957851
 20
-178.7536023858671
 30
0.0
  0
HATCH
  5
B1
330
AC
100
AcDbEntity
  8
レイヤー 1
 62
   250
420
  2299925
440
 33554687
100
AcDbHatch
 10
0.0
 20
0.0
 30
0.0
210
0.0
220
0.0
230
1.0
  2
SOLID
 70
     1
 71
     1
 91
        1
 92
        1
 93
        1
 72
     4
 94
        3
 73
     0
 74
     0
 95
       26
 96
       22
 40
0.0
 40
0.0
 40
0.0
 40
0.0
 40
1.0
 40
1.0
 40
1.0
 40
2.0
 40
2.0
 40
2.0
 40
3.0
 40
3.0
 40
3.0
 40
4.0
 40
4.0
 40
4.0
 40
5.0
 40
5.0
 40
5.0
 40
6.0
 40
6.0
 40
6.0
 40
7.0
 40
7.0
 40
7.0
 40
7.0
 10
134.2205755957851
 20
-178.7536023858671
 10
134.2205755957851
 20
-178.7536023858671
 10
133.1164224927626
 20
-178.7536023858671
 10
133.1164224927626
 20
-178.7536023858671
 10
133.1164224927626
 20
-178.7536023858671
 10
133.1164224927626
 20
-179.1060356540082
 10
133.1164224927626
 20
-179.1060356540082
 10
133.1164224927626
 20
-179.1060356540082
 10
132.9682833868968
 20
-179.1060356540082
 10
132.9682833868968
 20
-179.1060356540082
 10
132.9534694763102
 20
-178.7511908190275
 10
132.7905164598579
 20
-178.7015814440399
 10
132.6761392897476
 20
-178.6698865655756
 10
132.6761392897476
 20
-178.6698865655756
 10
132.6761392897476
 20
-178.5138237400938
 10
132.6761392897476
 20
-178.5138237400938
 10
132.6761392897476
 20
-178.5138237400938
 10
134.2205755957851
 20
-178.5138237400938
 10
134.2205755957851
 20
-178.5138237400938
 10
134.2205755957851
 20
-178.5138237400938
 10
134.2205755957851
 20
-178.7536023858671
 10
134.2205755957851
 20
-178.7536023858671
 97
        0
 97
        1
330
B0
 75
     2
 76
     1
 98
        1
 10
0.0
 20
0.0
450
        0
451
        0
460
0.0
461
0.0
452
        0
462
0.0
453
        0
470

  0
SPLINE
  5
B2
330
AC
100
AcDbEntity
  8
レイヤー 1
100
AcDbSpline
210
0.0
220
0.0
230
1.0
 70
     9
 71
     3
 72
    62
 73
    58
 74
     0
 42
0.0000000001
 43
0.0000000001
 40
0.0
 40
0.0
 40
0.0
 40
0.0
 40
1.0
 40
1.0
 40
1.0
 40
2.0
 40
2.0
 40
2.0
 40
3.0
 40
3.0
 40
3.0
 40
4.0
 40
4.0
 40
4.0
 40
5.0
 40
5.0
 40
5.0
 40
6.0
 40
6.0
 40
6.0
 40
7.0
 40
7.0
 40
7.0
 40
8.0
 40
8.0
 40
8.0
 40
9.0
 40
9.0
 40
9.0
 40
10.0
 40
10.0
 40
10.0
 40
11.0
 40
11.0
 40
11.0
 40
12.0
 40
12.0
 40
12.0
 40
13.0
 40
13.0
 40
13.0
 40
14.0
 40
14.0
 40
14.0
 40
15.0
 40
15.0
 40
15.0
 40
16.0
 40
16.0
 40
16.0
 40
17.0
 40
17.0
 40
17.0
 40
18.0
 40
18.0
 40
18.0
 40
19.0
 40
19.0
 40
19.0
 40
19.0
 10
134.2712184994183
 20
-177.4527343306368
 30
0.0
 10
134.2712184994183
 20
-177.5543646474517
 30
0.0
 10
134.2502034169583
 20
-177.7872531022546
 30
0.0
 10
134.0641682607548
 20
-177.9205782975337
 30
0.0
 10
133.9518581479356
 20
-177.9998154936945
 30
0.0
 10
133.8526393979604
 20
-178.0042941178253
 30
0.0
 10
133.7678900490233
 20
-178.0087727419561
 30
0.0
 10
133.7678900490233
 20
-178.0087727419561
 30
0.0
 10
133.7678900490233
 20
-177.7738172298621
 30
0.0
 10
133.7678900490233
 20
-177.7738172298621
 30
0.0
 10
133.8419596019561
 20
-177.7714056630224
 30
0.0
 10
134.0765706045017
 20
-177.7600368479211
 30
0.0
 10
134.0765706045017
 20
-177.4572129547676
 30
0.0
 10
134.0765706045017
 20
-177.3101073775474
 30
0.0
 10
134.0069796756996
 20
-177.1474988706437
 30
0.0
 10
133.7785698450276
 20
-177.1474988706437
 30
0.0
 10
133.6621256176261
 20
-177.1474988706437
 30
0.0
 10
133.6135497712841
 20
-177.1881509973696
 30
0.0
 10
133.5818548928198
 20
-177.2219129331251
 30
0.0
 10
133.5077853398869
 20
-177.3011501292858
 30
0.0
 10
133.4950384865915
 20
-177.4255180763033
 30
0.0
 10
133.4950384865915
 20
-177.4844292091011
 30
0.0
 10
133.4950384865915
 20
-177.5047552724641
 30
0.0
 10
133.4971055438826
 20
-177.5429958323503
 30
0.0
 10
133.501239658465
 20
-177.5726236535235
 30
0.0
 10
133.501239658465
 20
-177.5726236535235
 30
0.0
 10
133.3065917635483
 20
-177.5726236535235
 30
0.0
 10
133.3065917635483
 20
-177.5726236535235
 30
0.0
 10
133.3131374449703
 20
-177.5319715267976
 30
0.0
 10
133.3152045022615
 20
-177.4864962663922
 30
0.0
 10
133.3152045022615
 20
-177.4799505849703
 30
0.0
 10
133.3152045022615
 20
-177.4096706370712
 30
0.0
 10
133.2938449102529
 20
-177.1971082456313
 30
0.0
 10
133.0571668504163
 20
-177.1971082456313
 30
0.0
 10
132.8793999233774
 20
-177.1971082456313
 30
0.0
 10
132.8242783956134
 20
-177.3373236318809
 30
0.0
 10
132.8242783956134
 20
-177.454801387928
 30
0.0
 10
132.8242783956134
 20
-177.737643727267
 30
0.0
 10
133.0571668504163
 20
-177.7466009755286
 30
0.0
 10
133.1288248365094
 20
-177.7510795996594
 30
0.0
 10
133.1288248365094
 20
-177.7510795996594
 30
0.0
 10
133.1288248365094
 20
-177.9681206152302
 30
0.0
 10
133.1288248365094
 20
-177.9681206152302
 30
0.0
 10
133.0041123799434
 20
-177.9591633669685
 30
0.0
 10
132.6275634434056
 20
-177.9298800553439
 30
0.0
 10
132.6275634434056
 20
-177.4413655155355
 30
0.0
 10
132.6275634434056
 20
-177.2015868697621
 30
0.0
 10
132.7546874668113
 20
-176.9438937274654
 30
0.0
 10
133.0506211689943
 20
-176.9438937274654
 30
0.0
 10
133.2370008347463
 20
-176.9438937274654
 30
0.0
 10
133.3193386168438
 20
-177.0458685538288
 30
0.0
 10
133.3806613164812
 20
-177.1519774947745
 30
0.0
 10
133.4082220803632
 20
-177.0865206805547
 30
0.0
 10
133.4884928051695
 20
-176.8918727856381
 30
0.0
 10
133.7658229917321
 20
-176.8918727856381
 30
0.0
 10
134.1041313683837
 20
-176.8918727856381
 30
0.0
 10
134.2712184994183
 20
-177.1564561189053
 30
0.0
 10
134.2712184994183
 20
-177.4527343306368
 30
0.0
  0
HATCH
  5
B3
330
AC
100
AcDbEntity
  8
レイヤー 1
 62
   250
420
  2299925
440
 33554687
100
AcDbHatch
 10
0.0
 20
0.0
 30
0.0
210
0.0
220
0.0
230
1.0
  2
SOLID
 70
     1
 71
     1
 91
        1
 92
        1
 93
        1
 72
     4
 94
        3
 73
     0
 74
     0
 95
       62
 96
       58
 40
0.0
 40
0.0
 40
0.0
 40
0.0
 40
1.0
 40
1.0
 40
1.0
 40
2.0
 40
2.0
 40
2.0
 40
3.0
 40
3.0
 40
3.0
 40
4.0
 40
4.0
 40
4.0
 40
5.0
 40
5.0
 40
5.0
 40
6.0
 40
6.0
 40
6.0
 40
7.0
 40
7.0
 40
7.0
 40
8.0
 40
8.0
 40
8.0
 40
9.0
 40
9.0
 40
9.0
 40
10.0
 40
10.0
 40
10.0
 40
11.0
 40
11.0
 40
11.0
 40
12.0
 40
12.0
 40
12.0
 40
13.0
 40
13.0
 40
13.0
 40
14.0
 40
14.0
 40
14.0
 40
15.0
 40
15.0
 40
15.0
 40
16.0
 40
16.0
 40
16.0
 40
17.0
 40
17.0
 40
17.0
 40
18.0
 40
18.0
 40
18.0
 40
19.0
 40
19.0
 40
19.0
 40
19.0
 10
134.2712184994183
 20
-177.4527343306368
 10
134.2712184994183
 20
-177.5543646474517
 10
134.2502034169583
 20
-177.7872531022546
 10
134.0641682607548
 20
-177.9205782975337
 10
133.9518581479356
 20
-177.9998154936945
 10
133.8526393979604
 20
-178.0042941178253
 10
133.7678900490233
 20
-178.0087727419561
 10
133.7678900490233
 20
-178.0087727419561
 10
133.7678900490233
 20
-177.7738172298621
 10
133.7678900490233
 20
-177.7738172298621
 10
133.8419596019561
 20
-177.7714056630224
 10
134.0765706045017
 20
-177.7600368479211
 10
134.0765706045017
 20
-177.4572129547676
 10
134.0765706045017
 20
-177.3101073775474
 10
134.0069796756996
 20
-177.1474988706437
 10
133.7785698450276
 20
-177.1474988706437
 10
133.6621256176261
 20
-177.1474988706437
 10
133.6135497712841
 20
-177.1881509973696
 10
133.5818548928198
 20
-177.2219129331251
 10
133.5077853398869
 20
-177.3011501292858
 10
133.4950384865915
 20
-177.4255180763033
 10
133.4950384865915
 20
-177.4844292091011
 10
133.4950384865915
 20
-177.5047552724641
 10
133.4971055438826
 20
-177.5429958323503
 10
133.501239658465
 20
-177.5726236535235
 10
133.501239658465
 20
-177.5726236535235
 10
133.3065917635483
 20
-177.5726236535235
 10
133.3065917635483
 20
-177.5726236535235
 10
133.3131374449703
 20
-177.5319715267976
 10
133.3152045022615
 20
-177.4864962663922
 10
133.3152045022615
 20
-177.4799505849703
 10
133.3152045022615
 20
-177.4096706370712
 10
133.2938449102529
 20
-177.1971082456313
 10
133.0571668504163
 20
-177.1971082456313
 10
132.8793999233774
 20
-177.1971082456313
 10
132.8242783956134
 20
-177.3373236318809
 10
132.8242783956134
 20
-177.454801387928
 10
132.8242783956134
 20
-177.737643727267
 10
133.0571668504163
 20
-177.7466009755286
 10
133.1288248365094
 20
-177.7510795996594
 10
133.1288248365094
 20
-177.7510795996594
 10
133.1288248365094
 20
-177.9681206152302
 10
133.1288248365094
 20
-177.9681206152302
 10
133.0041123799434
 20
-177.9591633669685
 10
132.6275634434056
 20
-177.9298800553439
 10
132.6275634434056
 20
-177.4413655155355
 10
132.6275634434056
 20
-177.2015868697621
 10
132.7546874668113
 20
-176.9438937274654
 10
133.0506211689943
 20
-176.9438937274654
 10
133.2370008347463
 20
-176.9438937274654
 10
133.3193386168438
 20
-177.0458685538288
 10
133.3806613164812
 20
-177.1519774947745
 10
133.4082220803632
 20
-177.0865206805547
 10
133.4884928051695
 20
-176.8918727856381
 10
133.7658229917321
 20
-176.8918727856381
 10
134.1041313683837
 20
-176.8918727856381
 10
134.2712184994183
 20
-177.1564561189053
 10
134.2712184994183
 20
-177.4527343306368
 97
        0
 97
        1
330
B2
 75
     2
 76
     1
 98
        1
 10
0.0
 20
0.0
450
        0
451
        0
460
0.0
461
0.0
452
        0
462
0.0
453
        0
470

  0
ENDBLK
  5
AF
330
AC
100
AcDbEntity
  8
0
100
AcDbBlockEnd
  0
BLOCK
  5
B6
330
B4
100
AcDbEntity
  8
0
100
AcDbBlockBegin
  2
Block_5
 70
     0
 10
0.0
 20
0.0
 30
0.0
  3
Block_5
  1

  0
INSERT
  5
B9
330
B4
100
AcDbEntity
  8
レイヤー 1
100
AcDbBlockReference
  2
Block_6
 10
0.0
 20
0.0
 30
0.0
  0
ENDBLK
  5
B7
330
B4
100
AcDbEntity
  8
0
100
AcDbBlockEnd
  0
BLOCK
  5
BA
330
B8
100
AcDbEntity
  8
0
100
AcDbBlockBegin
  2
Block_6
 70
     0
 10
0.0
 20
0.0
 30
0.0
  3
Block_6
  1

  0
SPLINE
  5
BC
330
B8
100
AcDbEntity
  8
レイヤー 1
100
AcDbSpline
210
0.0
220
0.0
230
1.0
 70
     9
 71
     3
 72
    17
 73
    13
 74
     0
 42
0.0000000001
 43
0.0000000001
 40
0.0
 40
0.0
 40
0.0
 40
0.0
 40
1.0
 40
1.0
 40
1.0
 40
2.0
 40
2.0
 40
2.0
 40
3.0
 40
3.0
 40
3.0
 40
4.0
 40
4.0
 40
4.0
 40
4.0
 10
133.4123561949455
 20
-141.8135660452758
 30
0.0
 10
133.4123561949455
 20
-142.0939968177751
 30
0.0
 10
133.6238850577398
 20
-142.134648944501
 30
0.0
 10
133.7403292851413
 20
-142.134648944501
 30
0.0
 10
133.916029154889
 20
-142.134648944501
 30
0.0
 10
134.0789821713413
 20
-142.0330186276862
 30
0.0
 10
134.0789821713413
 20
-141.8363036754784
 30
0.0
 10
134.0789821713413
 20
-141.7074571043301
 30
0.0
 10
134.019726528995
 20
-141.5196994003839
 30
0.0
 10
133.7341281132679
 20
-141.5196994003839
 30
0.0
 10
133.5098523971781
 20
-141.5196994003839
 30
0.0
 10
133.4123561949455
 20
-141.6688720348953
 30
0.0
 10
133.4123561949455
 20
-141.8135660452758
 30
0.0
  0
SPLINE
  5
BD
330
B8
100
AcDbEntity
  8
レイヤー 1
100
AcDbSpline
210
0.0
220
0.0
230
1.0
 70
     9
 71
     3
 72
    32
 73
    28
 74
     0
 42
0.0000000001
 43
0.0000000001
 40
0.0
 40
0.0
 40
0.0
 40
0.0
 40
1.0
 40
1.0
 40
1.0
 40
2.0
 40
2.0
 40
2.0
 40
3.0
 40
3.0
 40
3.0
 40
4.0
 40
4.0
 40
4.0
 40
5.0
 40
5.0
 40
5.0
 40
6.0
 40
6.0
 40
6.0
 40
7.0
 40
7.0
 40
7.0
 40
8.0
 40
8.0
 40
8.0
 40
9.0
 40
9.0
 40
9.0
 40
9.0
 10
134.2712184994183
 20
-141.8318250513476
 30
0.0
 10
134.2712184994183
 20
-142.3833848385361
 30
0.0
 10
133.7172471453901
 20
-142.3923420867977
 30
0.0
 10
133.5033067157561
 20
-142.3923420867977
 30
0.0
 10
133.2728298277929
 20
-142.3923420867977
 30
0.0
 10
132.6254963861144
 20
-142.3720160234348
 30
0.0
 10
132.6254963861144
 20
-141.7908284150731
 30
0.0
 10
132.6254963861144
 20
-141.6054822779667
 30
0.0
 10
132.695431824465
 20
-141.3433105115392
 30
0.0
 10
133.0275390292431
 20
-141.3026583848132
 30
0.0
 10
133.0275390292431
 20
-141.3026583848132
 30
0.0
 10
133.0275390292431
 20
-141.5310682154853
 30
0.0
 10
133.0275390292431
 20
-141.5310682154853
 30
0.0
 10
132.9703504441879
 20
-141.5424370305866
 30
0.0
 10
132.8222113383222
 20
-141.5761989663421
 30
0.0
 10
132.8222113383222
 20
-141.7932399819128
 30
0.0
 10
132.8222113383222
 20
-142.1053656328764
 30
0.0
 10
133.150184428518
 20
-142.1480848168935
 30
0.0
 10
133.3551676098903
 20
-142.1618651988345
 30
0.0
 10
133.2769639423752
 20
-142.0623019393108
 30
0.0
 10
133.2177083000289
 20
-141.9899549341205
 30
0.0
 10
133.2177083000289
 20
-141.7953070392039
 30
0.0
 10
133.2177083000289
 20
-141.6034152206755
 30
0.0
 10
133.3258842982657
 20
-141.2799207546106
 30
0.0
 10
133.7320610559767
 20
-141.2799207546106
 30
0.0
 10
134.0514214074594
 20
-141.2799207546106
 30
0.0
 10
134.2712184994183
 20
-141.4924831460505
 30
0.0
 10
134.2712184994183
 20
-141.8318250513476
 30
0.0
  0
HATCH
  5
BE
330
B8
100
AcDbEntity
  8
レイヤー 1
 62
   250
420
  2299925
440
 33554687
100
AcDbHatch
 10
0.0
 20
0.0
 30
0.0
210
0.0
220
0.0
230
1.0
  2
SOLID
 70
     1
 71
     1
 91
        2
 92
        1
 93
        1
 72
     4
 94
        3
 73
     0
 74
     0
 95
       17
 96
       13
 40
0.0
 40
0.0
 40
0.0
 40
0.0
 40
1.0
 40
1.0
 40
1.0
 40
2.0
 40
2.0
 40
2.0
 40
3.0
 40
3.0
 40
3.0
 40
4.0
 40
4.0
 40
4.0
 40
4.0
 10
133.4123561949455
 20
-141.8135660452758
 10
133.4123561949455
 20
-142.0939968177751
 10
133.6238850577398
 20
-142.134648944501
 10
133.7403292851413
 20
-142.134648944501
 10
133.916029154889
 20
-142.134648944501
 10
134.0789821713413
 20
-142.0330186276862
 10
134.0789821713413
 20
-141.8363036754784
 10
134.0789821713413
 20
-141.7074571043301
 10
134.019726528995
 20
-141.5196994003839
 10
133.7341281132679
 20
-141.5196994003839
 10
133.5098523971781
 20
-141.5196994003839
 10
133.4123561949455
 20
-141.6688720348953
 10
133.4123561949455
 20
-141.8135660452758
 97
        0
 97
        1
330
BC
 92
        1
 93
        1
 72
     4
 94
        3
 73
     0
 74
     0
 95
       32
 96
       28
 40
0.0
 40
0.0
 40
0.0
 40
0.0
 40
1.0
 40
1.0
 40
1.0
 40
2.0
 40
2.0
 40
2.0
 40
3.0
 40
3.0
 40
3.0
 40
4.0
 40
4.0
 40
4.0
 40
5.0
 40
5.0
 40
5.0
 40
6.0
 40
6.0
 40
6.0
 40
7.0
 40
7.0
 40
7.0
 40
8.0
 40
8.0
 40
8.0
 40
9.0
 40
9.0
 40
9.0
 40
9.0
 10
134.2712184994183
 20
-141.8318250513476
 10
134.2712184994183
 20
-142.3833848385361
 10
133.7172471453901
 20
-142.3923420867977
 10
133.5033067157561
 20
-142.3923420867977
 10
133.2728298277929
 20
-142.3923420867977
 10
132.6254963861144
 20
-142.3720160234348
 10
132.6254963861144
 20
-141.7908284150731
 10
132.6254963861144
 20
-141.6054822779667
 10
132.695431824465
 20
-141.3433105115392
 10
133.0275390292431
 20
-141.3026583848132
 10
133.0275390292431
 20
-141.3026583848132
 10
133.0275390292431
 20
-141.5310682154853
 10
133.0275390292431
 20
-141.5310682154853
 10
132.9703504441879
 20
-141.5424370305866
 10
132.8222113383222
 20
-141.5761989663421
 10
132.8222113383222
 20
-141.7932399819128
 10
132.8222113383222
 20
-142.1053656328764
 10
133.150184428518
 20
-142.1480848168935
 10
133.3551676098903
 20
-142.1618651988345
 10
133.2769639423752
 20
-142.0623019393108
 10
133.2177083000289
 20
-141.9899549341205
 10
133.2177083000289
 20
-141.7953070392039
 10
133.2177083000289
 20
-141.6034152206755
 10
133.3258842982657
 20
-141.2799207546106
 10
133.7320610559767
 20
-141.2799207546106
 10
134.0514214074594
 20
-141.2799207546106
 10
134.2712184994183
 20
-141.4924831460505
 10
134.2712184994183
 20
-141.8318250513476
 97
        0
 97
        1
330
BD
 75
     2
 76
     1
 98
        1
 10
0.0
 20
0.0
450
        0
451
        0
460
0.0
461
0.0
452
        0
462
0.0
453
        0
470

  0
SPLINE
  5
BF
330
B8
100
AcDbEntity
  8
レイヤー 1
100
AcDbSpline
210
0.0
220
0.0
230
1.0
 70
     9
 71
     3
 72
    17
 73
    13
 74
     0
 42
0.0000000001
 43
0.0000000001
 40
0.0
 40
0.0
 40
0.0
 40
0.0
 40
1.0
 40
1.0
 40
1.0
 40
2.0
 40
2.0
 40
2.0
 40
3.0
 40
3.0
 40
3.0
 40
4.0
 40
4.0
 40
4.0
 40
4.0
 10
132.8201442810311
 20
-140.5784993138137
 30
0.0
 10
132.8201442810311
 20
-140.8451497043721
 30
0.0
 10
133.1036756394671
 20
-140.8947590793596
 30
0.0
 10
133.4485296975406
 20
-140.8947590793596
 30
0.0
 10
133.7678900490233
 20
-140.8947590793596
 30
0.0
 10
134.0765706045017
 20
-140.8565185194734
 30
0.0
 10
134.0765706045017
 20
-140.5784993138137
 30
0.0
 10
134.0765706045017
 20
-140.3139159805465
 30
0.0
 10
133.7954508129053
 20
-140.2618950387192
 30
0.0
 10
133.4485296975406
 20
-140.2618950387192
 30
0.0
 10
133.1288248365094
 20
-140.2618950387192
 30
0.0
 10
132.8201442810311
 20
-140.3025471654452
 30
0.0
 10
132.8201442810311
 20
-140.5784993138137
 30
0.0
  0
SPLINE
  5
C0
330
B8
100
AcDbEntity
  8
レイヤー 1
100
AcDbSpline
210
0.0
220
0.0
230
1.0
 70
     9
 71
     3
 72
    29
 73
    25
 74
     0
 42
0.0000000001
 43
0.0000000001
 40
0.0
 40
0.0
 40
0.0
 40
0.0
 40
1.0
 40
1.0
 40
1.0
 40
2.0
 40
2.0
 40
2.0
 40
3.0
 40
3.0
 40
3.0
 40
4.0
 40
4.0
 40
4.0
 40
5.0
 40
5.0
 40
5.0
 40
6.0
 40
6.0
 40
6.0
 40
7.0
 40
7.0
 40
7.0
 40
8.0
 40
8.0
 40
8.0
 40
8.0
 10
134.0428086687462
 20
-140.1533745309339
 30
0.0
 10
134.2522704742494
 20
-140.2687852296897
 30
0.0
 10
134.2712184994183
 20
-140.4541313667962
 30
0.0
 10
134.2712184994183
 20
-140.5784993138137
 30
0.0
 10
134.2712184994183
 20
-140.7500650689791
 30
0.0
 10
134.2247097103674
 20
-140.9016492703301
 30
0.0
 10
134.0428086687462
 20
-141.003279587145
 30
0.0
 10
133.8481607738296
 20
-141.11421166177
 30
0.0
 10
133.6111382044444
 20
-141.134537725133
 30
0.0
 10
133.4485296975406
 20
-141.134537725133
 30
0.0
 10
133.3045247062572
 20
-141.134537725133
 30
0.0
 10
133.0526882262854
 20
-141.1166232286097
 30
0.0
 10
132.8539062167865
 20
-141.003279587145
 30
0.0
 10
132.6509900927053
 20
-140.8882133979377
 30
0.0
 10
132.6275634434056
 20
-140.7163031332237
 30
0.0
 10
132.6275634434056
 20
-140.5784993138137
 30
0.0
 10
132.6275634434056
 20
-140.4086561063909
 30
0.0
 10
132.6720051751653
 20
-140.2550048477487
 30
0.0
 10
132.8539062167865
 20
-140.1533745309339
 30
0.0
 10
133.0464870544119
 20
-140.0469210804396
 30
0.0
 10
133.274896885084
 20
-140.0221163929458
 30
0.0
 10
133.4485296975406
 20
-140.0221163929458
 30
0.0
 10
133.6197509431575
 20
-140.0221163929458
 30
0.0
 10
133.8502278311207
 20
-140.0448540231485
 30
0.0
 10
134.0428086687462
 20
-140.1533745309339
 30
0.0
  0
HATCH
  5
C1
330
B8
100
AcDbEntity
  8
レイヤー 1
 62
   250
420
  2299925
440
 33554687
100
AcDbHatch
 10
0.0
 20
0.0
 30
0.0
210
0.0
220
0.0
230
1.0
  2
SOLID
 70
     1
 71
     1
 91
        2
 92
        1
 93
        1
 72
     4
 94
        3
 73
     0
 74
     0
 95
       17
 96
       13
 40
0.0
 40
0.0
 40
0.0
 40
0.0
 40
1.0
 40
1.0
 40
1.0
 40
2.0
 40
2.0
 40
2.0
 40
3.0
 40
3.0
 40
3.0
 40
4.0
 40
4.0
 40
4.0
 40
4.0
 10
132.8201442810311
 20
-140.5784993138137
 10
132.8201442810311
 20
-140.8451497043721
 10
133.1036756394671
 20
-140.8947590793596
 10
133.4485296975406
 20
-140.8947590793596
 10
133.7678900490233
 20
-140.8947590793596
 10
134.0765706045017
 20
-140.8565185194734
 10
134.0765706045017
 20
-140.5784993138137
 10
134.0765706045017
 20
-140.3139159805465
 10
133.7954508129053
 20
-140.2618950387192
 10
133.4485296975406
 20
-140.2618950387192
 10
133.1288248365094
 20
-140.2618950387192
 10
132.8201442810311
 20
-140.3025471654452
 10
132.8201442810311
 20
-140.5784993138137
 97
        0
 97
        1
330
BF
 92
        1
 93
        1
 72
     4
 94
        3
 73
     0
 74
     0
 95
       29
 96
       25
 40
0.0
 40
0.0
 40
0.0
 40
0.0
 40
1.0
 40
1.0
 40
1.0
 40
2.0
 40
2.0
 40
2.0
 40
3.0
 40
3.0
 40
3.0
 40
4.0
 40
4.0
 40
4.0
 40
5.0
 40
5.0
 40
5.0
 40
6.0
 40
6.0
 40
6.0
 40
7.0
 40
7.0
 40
7.0
 40
8.0
 40
8.0
 40
8.0
 40
8.0
 10
134.0428086687462
 20
-140.1533745309339
 10
134.2522704742494
 20
-140.2687852296897
 10
134.2712184994183
 20
-140.4541313667962
 10
134.2712184994183
 20
-140.5784993138137
 10
134.2712184994183
 20
-140.7500650689791
 10
134.2247097103674
 20
-140.9016492703301
 10
134.0428086687462
 20
-141.003279587145
 10
133.8481607738296
 20
-141.11421166177
 10
133.6111382044444
 20
-141.134537725133
 10
133.4485296975406
 20
-141.134537725133
 10
133.3045247062572
 20
-141.134537725133
 10
133.0526882262854
 20
-141.1166232286097
 10
132.8539062167865
 20
-141.003279587145
 10
132.6509900927053
 20
-140.8882133979377
 10
132.6275634434056
 20
-140.7163031332237
 10
132.6275634434056
 20
-140.5784993138137
 10
132.6275634434056
 20
-140.4086561063909
 10
132.6720051751653
 20
-140.2550048477487
 10
132.8539062167865
 20
-140.1533745309339
 10
133.0464870544119
 20
-140.0469210804396
 10
133.274896885084
 20
-140.0221163929458
 10
133.4485296975406
 20
-140.0221163929458
 10
133.6197509431575
 20
-140.0221163929458
 10
133.8502278311207
 20
-140.0448540231485
 10
134.0428086687462
 20
-140.1533745309339
 97
        0
 97
        1
330
C0
 75
     2
 76
     1
 98
        1
 10
0.0
 20
0.0
450
        0
451
        0
460
0.0
461
0.0
452
        0
462
0.0
453
        0
470

  0
ENDBLK
  5
BB
330
B8
100
AcDbEntity
  8
0
100
AcDbBlockEnd
  0
BLOCK
  5
C4
330
C2
100
AcDbEntity
  8
0
100
AcDbBlockBegin
  2
Block_7
 70
     0
 10
0.0
 20
0.0
 30
0.0
  3
Block_7
  1

  0
INSERT
  5
C7
330
C2
100
AcDbEntity
  8
レイヤー 1
100
AcDbBlockReference
  2
Block_8
 10
0.0
 20
0.0
 30
0.0
  0
ENDBLK
  5
C5
330
C2
100
AcDbEntity
  8
0
100
AcDbBlockEnd
  0
BLOCK
  5
C8
330
C6
100
AcDbEntity
  8
0
100
AcDbBlockBegin
  2
Block_8
 70
     0
 10
0.0
 20
0.0
 30
0.0
  3
Block_8
  1

  0
SPLINE
  5
CA
330
C6
100
AcDbEntity
  8
レイヤー 1
100
AcDbSpline
210
0.0
220
0.0
230
1.0
 70
    11
 71
     3
 72
    26
 73
    22
 74
     0
 42
0.0000000001
 43
0.0000000001
 40
0.0
 40
0.0
 40
0.0
 40
0.0
 40
1.0
 40
1.0
 40
1.0
 40
2.0
 40
2.0
 40
2.0
 40
3.0
 40
3.0
 40
3.0
 40
4.0
 40
4.0
 40
4.0
 40
5.0
 40
5.0
 40
5.0
 40
6.0
 40
6.0
 40
6.0
 40
7.0
 40
7.0
 40
7.0
 40
7.0
 10
138.3894856424859
 20
-172.7091823569963
 30
0.0
 10
138.3894856424859
 20
-172.7091823569963
 30
0.0
 10
137.2853325394634
 20
-172.7091823569963
 30
0.0
 10
137.2853325394634
 20
-172.7091823569963
 30
0.0
 10
137.2853325394634
 20
-172.7091823569963
 30
0.0
 10
137.2853325394634
 20
-173.0616156251374
 30
0.0
 10
137.2853325394634
 20
-173.0616156251374
 30
0.0
 10
137.2853325394634
 20
-173.0616156251374
 30
0.0
 10
137.1371934335976
 20
-173.0616156251374
 30
0.0
 10
137.1371934335976
 20
-173.0616156251374
 30
0.0
 10
137.1223795230111
 20
-172.7067707901566
 30
0.0
 10
136.9594265065587
 20
-172.657161415169
 30
0.0
 10
136.8450493364484
 20
-172.6254665367047
 30
0.0
 10
136.8450493364484
 20
-172.6254665367047
 30
0.0
 10
136.8450493364484
 20
-172.4694037112229
 30
0.0
 10
136.8450493364484
 20
-172.4694037112229
 30
0.0
 10
136.8450493364484
 20
-172.4694037112229
 30
0.0
 10
138.3894856424859
 20
-172.4694037112229
 30
0.0
 10
138.3894856424859
 20
-172.4694037112229
 30
0.0
 10
138.3894856424859
 20
-172.4694037112229
 30
0.0
 10
138.3894856424859
 20
-172.7091823569963
 30
0.0
 10
138.3894856424859
 20
-172.7091823569963
 30
0.0
  0
HATCH
  5
CB
330
C6
100
AcDbEntity
  8
レイヤー 1
 62
   250
420
  2299925
440
 33554687
100
AcDbHatch
 10
0.0
 20
0.0
 30
0.0
210
0.0
220
0.0
230
1.0
  2
SOLID
 70
     1
 71
     1
 91
        1
 92
        1
 93
        1
 72
     4
 94
        3
 73
     0
 74
     0
 95
       26
 96
       22
 40
0.0
 40
0.0
 40
0.0
 40
0.0
 40
1.0
 40
1.0
 40
1.0
 40
2.0
 40
2.0
 40
2.0
 40
3.0
 40
3.0
 40
3.0
 40
4.0
 40
4.0
 40
4.0
 40
5.0
 40
5.0
 40
5.0
 40
6.0
 40
6.0
 40
6.0
 40
7.0
 40
7.0
 40
7.0
 40
7.0
 10
138.3894856424859
 20
-172.7091823569963
 10
138.3894856424859
 20
-172.7091823569963
 10
137.2853325394634
 20
-172.7091823569963
 10
137.2853325394634
 20
-172.7091823569963
 10
137.2853325394634
 20
-172.7091823569963
 10
137.2853325394634
 20
-173.0616156251374
 10
137.2853325394634
 20
-173.0616156251374
 10
137.2853325394634
 20
-173.0616156251374
 10
137.1371934335976
 20
-173.0616156251374
 10
137.1371934335976
 20
-173.0616156251374
 10
137.1223795230111
 20
-172.7067707901566
 10
136.9594265065587
 20
-172.657161415169
 10
136.8450493364484
 20
-172.6254665367047
 10
136.8450493364484
 20
-172.6254665367047
 10
136.8450493364484
 20
-172.4694037112229
 10
136.8450493364484
 20
-172.4694037112229
 10
136.8450493364484
 20
-172.4694037112229
 10
138.3894856424859
 20
-172.4694037112229
 10
138.3894856424859
 20
-172.4694037112229
 10
138.3894856424859
 20
-172.4694037112229
 10
138.3894856424859
 20
-172.7091823569963
 10
138.3894856424859
 20
-172.7091823569963
 97
        0
 97
        1
330
CA
 75
     2
 76
     1
 98
        1
 10
0.0
 20
0.0
450
        0
451
        0
460
0.0
461
0.0
452
        0
462
0.0
453
        0
470

  0
SPLINE
  5
CC
330
C6
100
AcDbEntity
  8
レイヤー 1
100
AcDbSpline
210
0.0
220
0.0
230
1.0
 70
    11
 71
     3
 72
    17
 73
    13
 74
     0
 42
0.0000000001
 43
0.0000000001
 40
0.0
 40
0.0
 40
0.0
 40
0.0
 40
1.0
 40
1.0
 40
1.0
 40
2.0
 40
2.0
 40
2.0
 40
3.0
 40
3.0
 40
3.0
 40
4.0
 40
4.0
 40
4.0
 40
4.0
 10
138.3894856424859
 20
-171.8696125872409
 30
0.0
 10
138.3894856424859
 20
-171.8696125872409
 30
0.0
 10
138.1376491625142
 20
-171.8696125872409
 30
0.0
 10
138.1376491625142
 20
-171.8696125872409
 30
0.0
 10
138.1376491625142
 20
-171.8696125872409
 30
0.0
 10
138.1376491625142
 20
-171.6005506298429
 30
0.0
 10
138.1376491625142
 20
-171.6005506298429
 30
0.0
 10
138.1376491625142
 20
-171.6005506298429
 30
0.0
 10
138.3894856424859
 20
-171.6005506298429
 30
0.0
 10
138.3894856424859
 20
-171.6005506298429
 30
0.0
 10
138.3894856424859
 20
-171.6005506298429
 30
0.0
 10
138.3894856424859
 20
-171.8696125872409
 30
0.0
 10
138.3894856424859
 20
-171.8696125872409
 30
0.0
  0
HATCH
  5
CD
330
C6
100
AcDbEntity
  8
レイヤー 1
 62
   250
420
  2299925
440
 33554687
100
AcDbHatch
 10
0.0
 20
0.0
 30
0.0
210
0.0
220
0.0
230
1.0
  2
SOLID
 70
     1
 71
     1
 91
        1
 92
        1
 93
        1
 72
     4
 94
        3
 73
     0
 74
     0
 95
       17
 96
       13
 40
0.0
 40
0.0
 40
0.0
 40
0.0
 40
1.0
 40
1.0
 40
1.0
 40
2.0
 40
2.0
 40
2.0
 40
3.0
 40
3.0
 40
3.0
 40
4.0
 40
4.0
 40
4.0
 40
4.0
 10
138.3894856424859
 20
-171.8696125872409
 10
138.3894856424859
 20
-171.8696125872409
 10
138.1376491625142
 20
-171.8696125872409
 10
138.1376491625142
 20
-171.8696125872409
 10
138.1376491625142
 20
-171.8696125872409
 10
138.1376491625142
 20
-171.6005506298429
 10
138.1376491625142
 20
-171.6005506298429
 10
138.1376491625142
 20
-171.6005506298429
 10
138.3894856424859
 20
-171.6005506298429
 10
138.3894856424859
 20
-171.6005506298429
 10
138.3894856424859
 20
-171.6005506298429
 10
138.3894856424859
 20
-171.8696125872409
 10
138.3894856424859
 20
-171.8696125872409
 97
        0
 97
        1
330
CC
 75
     2
 76
     1
 98
        1
 10
0.0
 20
0.0
450
        0
451
        0
460
0.0
461
0.0
452
        0
462
0.0
453
        0
470

  0
SPLINE
  5
CE
330
C6
100
AcDbEntity
  8
レイヤー 1
100
AcDbSpline
210
0.0
220
0.0
230
1.0
 70
     9
 71
     3
 72
    44
 73
    40
 74
     0
 42
0.0000000001
 43
0.0000000001
 40
0.0
 40
0.0
 40
0.0
 40
0.0
 40
1.0
 40
1.0
 40
1.0
 40
2.0
 40
2.0
 40
2.0
 40
3.0
 40
3.0
 40
3.0
 40
4.0
 40
4.0
 40
4.0
 40
5.0
 40
5.0
 40
5.0
 40
6.0
 40
6.0
 40
6.0
 40
7.0
 40
7.0
 40
7.0
 40
8.0
 40
8.0
 40
8.0
 40
9.0
 40
9.0
 40
9.0
 40
10.0
 40
10.0
 40
10.0
 40
11.0
 40
11.0
 40
11.0
 40
12.0
 40
12.0
 40
12.0
 40
13.0
 40
13.0
 40
13.0
 40
13.0
 10
137.8076090150273
 20
-170.7137830519396
 30
0.0
 10
137.9664279168973
 20
-170.9466715067425
 30
0.0
 10
138.0404974698302
 20
-171.0462347662662
 30
0.0
 10
138.1841579515651
 20
-171.0982557080935
 30
0.0
 10
138.1841579515651
 20
-171.0982557080935
 30
0.0
 10
138.1841579515651
 20
-170.2659206388571
 30
0.0
 10
138.1841579515651
 20
-170.2659206388571
 30
0.0
 10
138.1841579515651
 20
-170.2659206388571
 30
0.0
 10
138.3894856424859
 20
-170.2659206388571
 30
0.0
 10
138.3894856424859
 20
-170.2659206388571
 30
0.0
 10
138.3894856424859
 20
-170.2659206388571
 30
0.0
 10
138.3894856424859
 20
-171.3649060986518
 30
0.0
 10
138.3894856424859
 20
-171.3649060986518
 30
0.0
 10
138.031884731117
 20
-171.3307996533479
 30
0.0
 10
137.9536810636018
 20
-171.2608642149973
 30
0.0
 10
137.6553357945792
 20
-170.8495198140584
 30
0.0
 10
137.4565537850803
 20
-170.5759792325296
 30
0.0
 10
137.3886854040209
 20
-170.5056992846305
 30
0.0
 10
137.2512260941594
 20
-170.5056992846305
 30
0.0
 10
137.1327148094668
 20
-170.5056992846305
 30
0.0
 10
137.0018011810273
 20
-170.5825249139516
 30
0.0
 10
137.0018011810273
 20
-170.7930202481003
 30
0.0
 10
137.0018011810273
 20
-171.07103945376
 30
0.0
 10
137.2322780689905
 20
-171.0799967020216
 30
0.0
 10
137.348722296392
 20
-171.0844753261525
 30
0.0
 10
137.348722296392
 20
-171.0844753261525
 30
0.0
 10
137.348722296392
 20
-171.3242539719258
 30
0.0
 10
137.348722296392
 20
-171.3242539719258
 30
0.0
 10
137.2215982729863
 20
-171.3152967236642
 30
0.0
 10
137.1096326697156
 20
-171.3039279085629
 30
0.0
 10
136.991121385023
 20
-171.2178005214316
 30
0.0
 10
136.8302354258619
 20
-171.1003227653846
 30
0.0
 10
136.7964734901064
 20
-170.9015407558857
 30
0.0
 10
136.7964734901064
 20
-170.7771728088682
 30
0.0
 10
136.7964734901064
 20
-170.4808945971367
 30
0.0
 10
136.9804415890188
 20
-170.2593749574351
 30
0.0
 10
137.2532931514506
 20
-170.2593749574351
 30
0.0
 10
137.4820474916711
 20
-170.2593749574351
 30
0.0
 10
137.5812662416463
 20
-170.3837429044527
 30
0.0
 10
137.8076090150273
 20
-170.7137830519396
 30
0.0
  0
HATCH
  5
CF
330
C6
100
AcDbEntity
  8
レイヤー 1
 62
   250
420
  2299925
440
 33554687
100
AcDbHatch
 10
0.0
 20
0.0
 30
0.0
210
0.0
220
0.0
230
1.0
  2
SOLID
 70
     1
 71
     1
 91
        1
 92
        1
 93
        1
 72
     4
 94
        3
 73
     0
 74
     0
 95
       44
 96
       40
 40
0.0
 40
0.0
 40
0.0
 40
0.0
 40
1.0
 40
1.0
 40
1.0
 40
2.0
 40
2.0
 40
2.0
 40
3.0
 40
3.0
 40
3.0
 40
4.0
 40
4.0
 40
4.0
 40
5.0
 40
5.0
 40
5.0
 40
6.0
 40
6.0
 40
6.0
 40
7.0
 40
7.0
 40
7.0
 40
8.0
 40
8.0
 40
8.0
 40
9.0
 40
9.0
 40
9.0
 40
10.0
 40
10.0
 40
10.0
 40
11.0
 40
11.0
 40
11.0
 40
12.0
 40
12.0
 40
12.0
 40
13.0
 40
13.0
 40
13.0
 40
13.0
 10
137.8076090150273
 20
-170.7137830519396
 10
137.9664279168973
 20
-170.9466715067425
 10
138.0404974698302
 20
-171.0462347662662
 10
138.1841579515651
 20
-171.0982557080935
 10
138.1841579515651
 20
-171.0982557080935
 10
138.1841579515651
 20
-170.2659206388571
 10
138.1841579515651
 20
-170.2659206388571
 10
138.1841579515651
 20
-170.2659206388571
 10
138.3894856424859
 20
-170.2659206388571
 10
138.3894856424859
 20
-170.2659206388571
 10
138.3894856424859
 20
-170.2659206388571
 10
138.3894856424859
 20
-171.3649060986518
 10
138.3894856424859
 20
-171.3649060986518
 10
138.031884731117
 20
-171.3307996533479
 10
137.9536810636018
 20
-171.2608642149973
 10
137.6553357945792
 20
-170.8495198140584
 10
137.4565537850803
 20
-170.5759792325296
 10
137.3886854040209
 20
-170.5056992846305
 10
137.2512260941594
 20
-170.5056992846305
 10
137.1327148094668
 20
-170.5056992846305
 10
137.0018011810273
 20
-170.5825249139516
 10
137.0018011810273
 20
-170.7930202481003
 10
137.0018011810273
 20
-171.07103945376
 10
137.2322780689905
 20
-171.0799967020216
 10
137.348722296392
 20
-171.0844753261525
 10
137.348722296392
 20
-171.0844753261525
 10
137.348722296392
 20
-171.3242539719258
 10
137.348722296392
 20
-171.3242539719258
 10
137.2215982729863
 20
-171.3152967236642
 10
137.1096326697156
 20
-171.3039279085629
 10
136.991121385023
 20
-171.2178005214316
 10
136.8302354258619
 20
-171.1003227653846
 10
136.7964734901064
 20
-170.9015407558857
 10
136.7964734901064
 20
-170.7771728088682
 10
136.7964734901064
 20
-170.4808945971367
 10
136.9804415890188
 20
-170.2593749574351
 10
137.2532931514506
 20
-170.2593749574351
 10
137.4820474916711
 20
-170.2593749574351
 10
137.5812662416463
 20
-170.3837429044527
 10
137.8076090150273
 20
-170.7137830519396
 97
        0
 97
        1
330
CE
 75
     2
 76
     1
 98
        1
 10
0.0
 20
0.0
450
        0
451
        0
460
0.0
461
0.0
452
        0
462
0.0
453
        0
470

  0
ENDBLK
  5
C9
330
C6
100
AcDbEntity
  8
0
100
AcDbBlockEnd
  0
BLOCK
  5
D4
330
D2
100
AcDbEntity
  8
0
100
AcDbBlockBegin
  2
Block_9
 70
     0
 10
0.0
 20
0.0
 30
0.0
  3
Block_9
  1

  0
INSERT
  5
D7
330
D2
100
AcDbEntity
  8
レイヤー 1
100
AcDbBlockReference
  2
Block_10
 10
0.0
 20
0.0
 30
0.0
  0
ENDBLK
  5
D5
330
D2
100
AcDbEntity
  8
0
100
AcDbBlockEnd
  0
BLOCK
  5
D8
330
D6
100
AcDbEntity
  8
0
100
AcDbBlockBegin
  2
Block_10
 70
     0
 10
0.0
 20
0.0
 30
0.0
  3
Block_10
  1

  0
SPLINE
  5
DA
330
D6
100
AcDbEntity
  8
レイヤー 1
100
AcDbSpline
210
0.0
220
0.0
230
1.0
 70
     9
 71
     3
 72
    44
 73
    40
 74
     0
 42
0.0000000001
 43
0.0000000001
 40
0.0
 40
0.0
 40
0.0
 40
0.0
 40
1.0
 40
1.0
 40
1.0
 40
2.0
 40
2.0
 40
2.0
 40
3.0
 40
3.0
 40
3.0
 40
4.0
 40
4.0
 40
4.0
 40
5.0
 40
5.0
 40
5.0
 40
6.0
 40
6.0
 40
6.0
 40
7.0
 40
7.0
 40
7.0
 40
8.0
 40
8.0
 40
8.0
 40
9.0
 40
9.0
 40
9.0
 40
10.0
 40
10.0
 40
10.0
 40
11.0
 40
11.0
 40
11.0
 40
12.0
 40
12.0
 40
12.0
 40
13.0
 40
13.0
 40
13.0
 40
13.0
 10
92.25776229247376
 20
-106.551291206001
 30
0.0
 10
92.02487383767087
 20
-106.7101101078711
 30
0.0
 10
91.92548283292142
 20
-106.7841796608039
 30
0.0
 10
91.87346189109414
 20
-106.9278401425389
 30
0.0
 10
91.87346189109414
 20
-106.9278401425389
 30
0.0
 10
92.70545245078197
 20
-106.9278401425389
 30
0.0
 10
92.70545245078197
 20
-106.9278401425389
 30
0.0
 10
92.70545245078197
 20
-106.9278401425389
 30
0.0
 10
92.70545245078197
 20
-107.1331678334597
 30
0.0
 10
92.70545245078197
 20
-107.1331678334597
 30
0.0
 10
92.70545245078197
 20
-107.1331678334597
 30
0.0
 10
91.60663924576153
 20
-107.1331678334597
 30
0.0
 10
91.60663924576153
 20
-107.1331678334597
 30
0.0
 10
91.64057343629124
 20
-106.7755669220908
 30
0.0
 10
91.71068112941609
 20
-106.6973632545756
 30
0.0
 10
92.12219778512917
 20
-106.399017985553
 30
0.0
 10
92.39573836665801
 20
-106.2002359760541
 30
0.0
 10
92.46584605978284
 20
-106.1323675949947
 30
0.0
 10
92.46584605978284
 20
-105.9949082851332
 30
0.0
 10
92.46584605978284
 20
-105.8765692552149
 30
0.0
 10
92.38902043046179
 20
-105.7454833720011
 30
0.0
 10
92.17869735108727
 20
-105.7454833720011
 30
0.0
 10
91.90050589065334
 20
-105.7454833720011
 30
0.0
 10
91.89154864239169
 20
-105.9759602599643
 30
0.0
 10
91.88707001826086
 20
-106.0924044873658
 30
0.0
 10
91.88707001826086
 20
-106.0924044873658
 30
0.0
 10
91.64729137248748
 20
-106.0924044873658
 30
0.0
 10
91.64729137248748
 20
-106.0924044873658
 30
0.0
 10
91.6564208755234
 20
-105.9654527187343
 30
0.0
 10
91.66778969062473
 20
-105.8533148606894
 30
0.0
 10
91.75357256820744
 20
-105.7348035759968
 30
0.0
 10
91.87122257902872
 20
-105.5740898716099
 30
0.0
 10
92.07017684330191
 20
-105.5401556810802
 30
0.0
 10
92.19454479031943
 20
-105.5401556810802
 30
0.0
 10
92.49065074727665
 20
-105.5401556810802
 30
0.0
 10
92.71217038697821
 20
-105.7242960347668
 30
0.0
 10
92.71217038697821
 20
-105.9969753424244
 30
0.0
 10
92.71217038697821
 20
-106.2257296826449
 30
0.0
 10
92.58780243996069
 20
-106.3249484326201
 30
0.0
 10
92.25776229247376
 20
-106.551291206001
 30
0.0
  0
HATCH
  5
DB
330
D6
100
AcDbEntity
  8
レイヤー 1
 62
   250
420
  2299925
440
 33554687
100
AcDbHatch
 10
0.0
 20
0.0
 30
0.0
210
0.0
220
0.0
230
1.0
  2
SOLID
 70
     1
 71
     1
 91
        1
 92
        1
 93
        1
 72
     4
 94
        3
 73
     0
 74
     0
 95
       44
 96
       40
 40
0.0
 40
0.0
 40
0.0
 40
0.0
 40
1.0
 40
1.0
 40
1.0
 40
2.0
 40
2.0
 40
2.0
 40
3.0
 40
3.0
 40
3.0
 40
4.0
 40
4.0
 40
4.0
 40
5.0
 40
5.0
 40
5.0
 40
6.0
 40
6.0
 40
6.0
 40
7.0
 40
7.0
 40
7.0
 40
8.0
 40
8.0
 40
8.0
 40
9.0
 40
9.0
 40
9.0
 40
10.0
 40
10.0
 40
10.0
 40
11.0
 40
11.0
 40
11.0
 40
12.0
 40
12.0
 40
12.0
 40
13.0
 40
13.0
 40
13.0
 40
13.0
 10
92.25776229247376
 20
-106.551291206001
 10
92.02487383767087
 20
-106.7101101078711
 10
91.92548283292142
 20
-106.7841796608039
 10
91.87346189109414
 20
-106.9278401425389
 10
91.87346189109414
 20
-106.9278401425389
 10
92.70545245078197
 20
-106.9278401425389
 10
92.70545245078197
 20
-106.9278401425389
 10
92.70545245078197
 20
-106.9278401425389
 10
92.70545245078197
 20
-107.1331678334597
 10
92.70545245078197
 20
-107.1331678334597
 10
92.70545245078197
 20
-107.1331678334597
 10
91.60663924576153
 20
-107.1331678334597
 10
91.60663924576153
 20
-107.1331678334597
 10
91.64057343629124
 20
-106.7755669220908
 10
91.71068112941609
 20
-106.6973632545756
 10
92.12219778512917
 20
-106.399017985553
 10
92.39573836665801
 20
-106.2002359760541
 10
92.46584605978284
 20
-106.1323675949947
 10
92.46584605978284
 20
-105.9949082851332
 10
92.46584605978284
 20
-105.8765692552149
 10
92.38902043046179
 20
-105.7454833720011
 10
92.17869735108727
 20
-105.7454833720011
 10
91.90050589065334
 20
-105.7454833720011
 10
91.89154864239169
 20
-105.9759602599643
 10
91.88707001826086
 20
-106.0924044873658
 10
91.88707001826086
 20
-106.0924044873658
 10
91.64729137248748
 20
-106.0924044873658
 10
91.64729137248748
 20
-106.0924044873658
 10
91.6564208755234
 20
-105.9654527187343
 10
91.66778969062473
 20
-105.8533148606894
 10
91.75357256820744
 20
-105.7348035759968
 10
91.87122257902872
 20
-105.5740898716099
 10
92.07017684330191
 20
-105.5401556810802
 10
92.19454479031943
 20
-105.5401556810802
 10
92.49065074727665
 20
-105.5401556810802
 10
92.71217038697821
 20
-105.7242960347668
 10
92.71217038697821
 20
-105.9969753424244
 10
92.71217038697821
 20
-106.2257296826449
 10
92.58780243996069
 20
-106.3249484326201
 10
92.25776229247376
 20
-106.551291206001
 97
        0
 97
        1
330
DA
 75
     2
 76
     1
 98
        1
 10
0.0
 20
0.0
450
        0
451
        0
460
0.0
461
0.0
452
        0
462
0.0
453
        0
470

  0
SPLINE
  5
DC
330
D6
100
AcDbEntity
  8
レイヤー 1
100
AcDbSpline
210
0.0
220
0.0
230
1.0
 70
     9
 71
     3
 72
    62
 73
    58
 74
     0
 42
0.0000000001
 43
0.0000000001
 40
0.0
 40
0.0
 40
0.0
 40
0.0
 40
1.0
 40
1.0
 40
1.0
 40
2.0
 40
2.0
 40
2.0
 40
3.0
 40
3.0
 40
3.0
 40
4.0
 40
4.0
 40
4.0
 40
5.0
 40
5.0
 40
5.0
 40
6.0
 40
6.0
 40
6.0
 40
7.0
 40
7.0
 40
7.0
 40
8.0
 40
8.0
 40
8.0
 40
9.0
 40
9.0
 40
9.0
 40
10.0
 40
10.0
 40
10.0
 40
11.0
 40
11.0
 40
11.0
 40
12.0
 40
12.0
 40
12.0
 40
13.0
 40
13.0
 40
13.0
 40
14.0
 40
14.0
 40
14.0
 40
15.0
 40
15.0
 40
15.0
 40
16.0
 40
16.0
 40
16.0
 40
17.0
 40
17.0
 40
17.0
 40
18.0
 40
18.0
 40
18.0
 40
19.0
 40
19.0
 40
19.0
 40
19.0
 10
93.40704614635312
 20
-107.1838107370929
 30
0.0
 10
93.30541582953824
 20
-107.1838107370929
 30
0.0
 10
93.07252737473534
 20
-107.1627956546329
 30
0.0
 10
92.93920217945617
 20
-106.9767604984294
 30
0.0
 10
92.85996498329543
 20
-106.8644503856102
 30
0.0
 10
92.85548635916461
 20
-106.7652316356351
 30
0.0
 10
92.85100773503378
 20
-106.6804822866979
 30
0.0
 10
92.85100773503378
 20
-106.6804822866979
 30
0.0
 10
93.08596324712782
 20
-106.6804822866979
 30
0.0
 10
93.08596324712782
 20
-106.6804822866979
 30
0.0
 10
93.08837481396748
 20
-106.7545518396308
 30
0.0
 10
93.09974362906881
 20
-106.9891628421763
 30
0.0
 10
93.40256752222229
 20
-106.9891628421763
 30
0.0
 10
93.54967309944244
 20
-106.9891628421763
 30
0.0
 10
93.71228160634624
 20
-106.9195719133743
 30
0.0
 10
93.71228160634624
 20
-106.6911620827022
 30
0.0
 10
93.71228160634624
 20
-106.5747178553007
 30
0.0
 10
93.67162947962029
 20
-106.5261420089587
 30
0.0
 10
93.63752303431631
 20
-106.4944471304944
 30
0.0
 10
93.55863034770409
 20
-106.4203775775615
 30
0.0
 10
93.43426240068657
 20
-106.4076307242661
 30
0.0
 10
93.3753512678888
 20
-106.4076307242661
 30
0.0
 10
93.35502520452584
 20
-106.4076307242661
 30
0.0
 10
93.31678464463955
 20
-106.4096977815573
 30
0.0
 10
93.2871568234664
 20
-106.4138318961396
 30
0.0
 10
93.2871568234664
 20
-106.4138318961396
 30
0.0
 10
93.2871568234664
 20
-106.219184001223
 30
0.0
 10
93.2871568234664
 20
-106.219184001223
 30
0.0
 10
93.32780895019237
 20
-106.2257296826449
 30
0.0
 10
93.37328421059766
 20
-106.2277967399361
 30
0.0
 10
93.37982989201963
 20
-106.2277967399361
 30
0.0
 10
93.45010983991873
 20
-106.2277967399361
 30
0.0
 10
93.66267223135864
 20
-106.2064371479275
 30
0.0
 10
93.66267223135864
 20
-105.9695868333166
 30
0.0
 10
93.66267223135864
 20
-105.791992161052
 30
0.0
 10
93.52245684510897
 20
-105.736870633288
 30
0.0
 10
93.40497908906195
 20
-105.736870633288
 30
0.0
 10
93.12213674972294
 20
-105.736870633288
 30
0.0
 10
93.11317950146129
 20
-105.9695868333166
 30
0.0
 10
93.10870087733047
 20
-106.0414170741841
 30
0.0
 10
93.10870087733047
 20
-106.0414170741841
 30
0.0
 10
92.89165986175973
 20
-106.0414170741841
 30
0.0
 10
92.89165986175973
 20
-106.0414170741841
 30
0.0
 10
92.90061711002136
 20
-105.916704617618
 30
0.0
 10
92.93007267642027
 20
-105.5401556810802
 30
0.0
 10
93.41841496145443
 20
-105.5401556810802
 30
0.0
 10
93.65819360722781
 20
-105.5401556810802
 30
0.0
 10
93.91588674952449
 20
-105.6671074497117
 30
0.0
 10
93.91588674952449
 20
-105.9632134066689
 30
0.0
 10
93.91588674952449
 20
-106.1495930724209
 30
0.0
 10
93.81391192316112
 20
-106.2319308545184
 30
0.0
 10
93.70780298221541
 20
-106.2932535541558
 30
0.0
 10
93.77325979643515
 20
-106.3208143180378
 30
0.0
 10
93.96790769135177
 20
-106.4010850428442
 30
0.0
 10
93.96790769135177
 20
-106.6784152294068
 30
0.0
 10
93.96790769135177
 20
-107.0167236060583
 30
0.0
 10
93.70332435808458
 20
-107.1838107370929
 30
0.0
 10
93.40704614635312
 20
-107.1838107370929
 30
0.0
  0
HATCH
  5
DD
330
D6
100
AcDbEntity
  8
レイヤー 1
 62
   250
420
  2299925
440
 33554687
100
AcDbHatch
 10
0.0
 20
0.0
 30
0.0
210
0.0
220
0.0
230
1.0
  2
SOLID
 70
     1
 71
     1
 91
        1
 92
        1
 93
        1
 72
     4
 94
        3
 73
     0
 74
     0
 95
       62
 96
       58
 40
0.0
 40
0.0
 40
0.0
 40
0.0
 40
1.0
 40
1.0
 40
1.0
 40
2.0
 40
2.0
 40
2.0
 40
3.0
 40
3.0
 40
3.0
 40
4.0
 40
4.0
 40
4.0
 40
5.0
 40
5.0
 40
5.0
 40
6.0
 40
6.0
 40
6.0
 40
7.0
 40
7.0
 40
7.0
 40
8.0
 40
8.0
 40
8.0
 40
9.0
 40
9.0
 40
9.0
 40
10.0
 40
10.0
 40
10.0
 40
11.0
 40
11.0
 40
11.0
 40
12.0
 40
12.0
 40
12.0
 40
13.0
 40
13.0
 40
13.0
 40
14.0
 40
14.0
 40
14.0
 40
15.0
 40
15.0
 40
15.0
 40
16.0
 40
16.0
 40
16.0
 40
17.0
 40
17.0
 40
17.0
 40
18.0
 40
18.0
 40
18.0
 40
19.0
 40
19.0
 40
19.0
 40
19.0
 10
93.40704614635312
 20
-107.1838107370929
 10
93.30541582953824
 20
-107.1838107370929
 10
93.07252737473534
 20
-107.1627956546329
 10
92.93920217945617
 20
-106.9767604984294
 10
92.85996498329543
 20
-106.8644503856102
 10
92.85548635916461
 20
-106.7652316356351
 10
92.85100773503378
 20
-106.6804822866979
 10
92.85100773503378
 20
-106.6804822866979
 10
93.08596324712782
 20
-106.6804822866979
 10
93.08596324712782
 20
-106.6804822866979
 10
93.08837481396748
 20
-106.7545518396308
 10
93.09974362906881
 20
-106.9891628421763
 10
93.40256752222229
 20
-106.9891628421763
 10
93.54967309944244
 20
-106.9891628421763
 10
93.71228160634624
 20
-106.9195719133743
 10
93.71228160634624
 20
-106.6911620827022
 10
93.71228160634624
 20
-106.5747178553007
 10
93.67162947962029
 20
-106.5261420089587
 10
93.63752303431631
 20
-106.4944471304944
 10
93.55863034770409
 20
-106.4203775775615
 10
93.43426240068657
 20
-106.4076307242661
 10
93.3753512678888
 20
-106.4076307242661
 10
93.35502520452584
 20
-106.4076307242661
 10
93.31678464463955
 20
-106.4096977815573
 10
93.2871568234664
 20
-106.4138318961396
 10
93.2871568234664
 20
-106.4138318961396
 10
93.2871568234664
 20
-106.219184001223
 10
93.2871568234664
 20
-106.219184001223
 10
93.32780895019237
 20
-106.2257296826449
 10
93.37328421059766
 20
-106.2277967399361
 10
93.37982989201963
 20
-106.2277967399361
 10
93.45010983991873
 20
-106.2277967399361
 10
93.66267223135864
 20
-106.2064371479275
 10
93.66267223135864
 20
-105.9695868333166
 10
93.66267223135864
 20
-105.791992161052
 10
93.52245684510897
 20
-105.736870633288
 10
93.40497908906195
 20
-105.736870633288
 10
93.12213674972294
 20
-105.736870633288
 10
93.11317950146129
 20
-105.9695868333166
 10
93.10870087733047
 20
-106.0414170741841
 10
93.10870087733047
 20
-106.0414170741841
 10
92.89165986175973
 20
-106.0414170741841
 10
92.89165986175973
 20
-106.0414170741841
 10
92.90061711002136
 20
-105.916704617618
 10
92.93007267642027
 20
-105.5401556810802
 10
93.41841496145443
 20
-105.5401556810802
 10
93.65819360722781
 20
-105.5401556810802
 10
93.91588674952449
 20
-105.6671074497117
 10
93.91588674952449
 20
-105.9632134066689
 10
93.91588674952449
 20
-106.1495930724209
 10
93.81391192316112
 20
-106.2319308545184
 10
93.70780298221541
 20
-106.2932535541558
 10
93.77325979643515
 20
-106.3208143180378
 10
93.96790769135177
 20
-106.4010850428442
 10
93.96790769135177
 20
-106.6784152294068
 10
93.96790769135177
 20
-107.0167236060583
 10
93.70332435808458
 20
-107.1838107370929
 10
93.40704614635312
 20
-107.1838107370929
 97
        0
 97
        1
330
DC
 75
     2
 76
     1
 98
        1
 10
0.0
 20
0.0
450
        0
451
        0
460
0.0
461
0.0
452
        0
462
0.0
453
        0
470

  0
ENDBLK
  5
D9
330
D6
100
AcDbEntity
  8
0
100
AcDbBlockEnd
  0
BLOCK
  5
E5
330
E3
100
AcDbEntity
  8
0
100
AcDbBlockBegin
  2
Block_11
 70
     0
 10
0.0
 20
0.0
 30
0.0
  3
Block_11
  1

  0
INSERT
  5
E8
330
E3
100
AcDbEntity
  8
レイヤー 1
100
AcDbBlockReference
  2
Block_12
 10
0.0
 20
0.0
 30
0.0
  0
ENDBLK
  5
E6
330
E3
100
AcDbEntity
  8
0
100
AcDbBlockEnd
  0
BLOCK
  5
E9
330
E7
100
AcDbEntity
  8
0
100
AcDbBlockBegin
  2
Block_12
 70
     0
 10
0.0
 20
0.0
 30
0.0
  3
Block_12
  1

  0
SPLINE
  5
EB
330
E7
100
AcDbEntity
  8
レイヤー 1
100
AcDbSpline
210
0.0
220
0.0
230
1.0
 70
     9
 71
     3
 72
    62
 73
    58
 74
     0
 42
0.0000000001
 43
0.0000000001
 40
0.0
 40
0.0
 40
0.0
 40
0.0
 40
1.0
 40
1.0
 40
1.0
 40
2.0
 40
2.0
 40
2.0
 40
3.0
 40
3.0
 40
3.0
 40
4.0
 40
4.0
 40
4.0
 40
5.0
 40
5.0
 40
5.0
 40
6.0
 40
6.0
 40
6.0
 40
7.0
 40
7.0
 40
7.0
 40
8.0
 40
8.0
 40
8.0
 40
9.0
 40
9.0
 40
9.0
 40
10.0
 40
10.0
 40
10.0
 40
11.0
 40
11.0
 40
11.0
 40
12.0
 40
12.0
 40
12.0
 40
13.0
 40
13.0
 40
13.0
 40
14.0
 40
14.0
 40
14.0
 40
15.0
 40
15.0
 40
15.0
 40
16.0
 40
16.0
 40
16.0
 40
17.0
 40
17.0
 40
17.0
 40
18.0
 40
18.0
 40
18.0
 40
19.0
 40
19.0
 40
19.0
 40
19.0
 10
78.50786944651886
 20
-107.1843275014157
 30
0.0
 10
78.406239129704
 20
-107.1843275014157
 30
0.0
 10
78.17335067490112
 20
-107.1631401641814
 30
0.0
 10
78.04002547962195
 20
-106.9769327532037
 30
0.0
 10
77.9607882834612
 20
-106.8647948951588
 30
0.0
 10
77.95630965933037
 20
-106.7654038904093
 30
0.0
 10
77.95183103519955
 20
-106.6808267962464
 30
0.0
 10
77.95183103519955
 20
-106.6808267962464
 30
0.0
 10
78.18695880206785
 20
-106.6808267962464
 30
0.0
 10
78.18695880206785
 20
-106.6808267962464
 30
0.0
 10
78.18919811413326
 20
-106.7548963491793
 30
0.0
 10
78.20039467446033
 20
-106.9896796064991
 30
0.0
 10
78.50339082238804
 20
-106.9896796064991
 30
0.0
 10
78.65032414483394
 20
-106.9896796064991
 30
0.0
 10
78.81310490651201
 20
-106.9199164229228
 30
0.0
 10
78.81310490651201
 20
-106.6913343374765
 30
0.0
 10
78.81310490651201
 20
-106.5750623648493
 30
0.0
 10
78.77245277978605
 20
-106.526314263733
 30
0.0
 10
78.73851858925634
 20
-106.4946193852687
 30
0.0
 10
78.65945364786987
 20
-106.4205498323358
 30
0.0
 10
78.53508570085235
 20
-106.4079752338147
 30
0.0
 10
78.47634682282883
 20
-106.4079752338147
 30
0.0
 10
78.45602075946586
 20
-106.4079752338147
 30
0.0
 10
78.41743569003106
 20
-106.4100422911058
 30
0.0
 10
78.38815237840643
 20
-106.4141764056881
 30
0.0
 10
78.38815237840643
 20
-106.4141764056881
 30
0.0
 10
78.38815237840643
 20
-106.2195285107715
 30
0.0
 10
78.38815237840643
 20
-106.2195285107715
 30
0.0
 10
78.42880450513239
 20
-106.2259019374192
 30
0.0
 10
78.47410751076342
 20
-106.2281412494846
 30
0.0
 10
78.48082544695966
 20
-106.2281412494846
 30
0.0
 10
78.55093314008449
 20
-106.2281412494846
 30
0.0
 10
78.76349553152441
 20
-106.2069539122503
 30
0.0
 10
78.76349553152441
 20
-105.9699313428651
 30
0.0
 10
78.76349553152441
 20
-105.7923366706005
 30
0.0
 10
78.62328014527474
 20
-105.7372151428365
 30
0.0
 10
78.50563013445345
 20
-105.7372151428365
 30
0.0
 10
78.22313230466297
 20
-105.7372151428365
 30
0.0
 10
78.21400280162706
 20
-105.9699313428651
 30
0.0
 10
78.20952417749623
 20
-106.0419338385069
 30
0.0
 10
78.20952417749623
 20
-106.0419338385069
 30
0.0
 10
77.99248316192549
 20
-106.0419338385069
 30
0.0
 10
77.99248316192549
 20
-106.0419338385069
 30
0.0
 10
78.00144041018715
 20
-105.9170491271665
 30
0.0
 10
78.03089597658602
 20
-105.5405001906287
 30
0.0
 10
78.51923826162019
 20
-105.5405001906287
 30
0.0
 10
78.75884465261932
 20
-105.5405001906287
 30
0.0
 10
79.01671004969028
 20
-105.6674519592602
 30
0.0
 10
79.01671004969028
 20
-105.9635579162174
 30
0.0
 10
79.01671004969028
 20
-106.1497653271952
 30
0.0
 10
78.91490747810114
 20
-106.2322753640669
 30
0.0
 10
78.80862628238118
 20
-106.2935980637043
 30
0.0
 10
78.87425535137518
 20
-106.3211588275864
 30
0.0
 10
79.06855873674328
 20
-106.401601807167
 30
0.0
 10
79.06855873674328
 20
-106.6787597389553
 30
0.0
 10
79.06855873674328
 20
-107.0172403703811
 30
0.0
 10
78.80414765825036
 20
-107.1843275014157
 30
0.0
 10
78.50786944651886
 20
-107.1843275014157
 30
0.0
  0
HATCH
  5
EC
330
E7
100
AcDbEntity
  8
レイヤー 1
 62
   250
420
  2299925
440
 33554687
100
AcDbHatch
 10
0.0
 20
0.0
 30
0.0
210
0.0
220
0.0
230
1.0
  2
SOLID
 70
     1
 71
     1
 91
        1
 92
        1
 93
        1
 72
     4
 94
        3
 73
     0
 74
     0
 95
       62
 96
       58
 40
0.0
 40
0.0
 40
0.0
 40
0.0
 40
1.0
 40
1.0
 40
1.0
 40
2.0
 40
2.0
 40
2.0
 40
3.0
 40
3.0
 40
3.0
 40
4.0
 40
4.0
 40
4.0
 40
5.0
 40
5.0
 40
5.0
 40
6.0
 40
6.0
 40
6.0
 40
7.0
 40
7.0
 40
7.0
 40
8.0
 40
8.0
 40
8.0
 40
9.0
 40
9.0
 40
9.0
 40
10.0
 40
10.0
 40
10.0
 40
11.0
 40
11.0
 40
11.0
 40
12.0
 40
12.0
 40
12.0
 40
13.0
 40
13.0
 40
13.0
 40
14.0
 40
14.0
 40
14.0
 40
15.0
 40
15.0
 40
15.0
 40
16.0
 40
16.0
 40
16.0
 40
17.0
 40
17.0
 40
17.0
 40
18.0
 40
18.0
 40
18.0
 40
19.0
 40
19.0
 40
19.0
 40
19.0
 10
78.50786944651886
 20
-107.1843275014157
 10
78.406239129704
 20
-107.1843275014157
 10
78.17335067490112
 20
-107.1631401641814
 10
78.04002547962195
 20
-106.9769327532037
 10
77.9607882834612
 20
-106.8647948951588
 10
77.95630965933037
 20
-106.7654038904093
 10
77.95183103519955
 20
-106.6808267962464
 10
77.95183103519955
 20
-106.6808267962464
 10
78.18695880206785
 20
-106.6808267962464
 10
78.18695880206785
 20
-106.6808267962464
 10
78.18919811413326
 20
-106.7548963491793
 10
78.20039467446033
 20
-106.9896796064991
 10
78.50339082238804
 20
-106.9896796064991
 10
78.65032414483394
 20
-106.9896796064991
 10
78.81310490651201
 20
-106.9199164229228
 10
78.81310490651201
 20
-106.6913343374765
 10
78.81310490651201
 20
-106.5750623648493
 10
78.77245277978605
 20
-106.526314263733
 10
78.73851858925634
 20
-106.4946193852687
 10
78.65945364786987
 20
-106.4205498323358
 10
78.53508570085235
 20
-106.4079752338147
 10
78.47634682282883
 20
-106.4079752338147
 10
78.45602075946586
 20
-106.4079752338147
 10
78.41743569003106
 20
-106.4100422911058
 10
78.38815237840643
 20
-106.4141764056881
 10
78.38815237840643
 20
-106.4141764056881
 10
78.38815237840643
 20
-106.2195285107715
 10
78.38815237840643
 20
-106.2195285107715
 10
78.42880450513239
 20
-106.2259019374192
 10
78.47410751076342
 20
-106.2281412494846
 10
78.48082544695966
 20
-106.2281412494846
 10
78.55093314008449
 20
-106.2281412494846
 10
78.76349553152441
 20
-106.2069539122503
 10
78.76349553152441
 20
-105.9699313428651
 10
78.76349553152441
 20
-105.7923366706005
 10
78.62328014527474
 20
-105.7372151428365
 10
78.50563013445345
 20
-105.7372151428365
 10
78.22313230466297
 20
-105.7372151428365
 10
78.21400280162706
 20
-105.9699313428651
 10
78.20952417749623
 20
-106.0419338385069
 10
78.20952417749623
 20
-106.0419338385069
 10
77.99248316192549
 20
-106.0419338385069
 10
77.99248316192549
 20
-106.0419338385069
 10
78.00144041018715
 20
-105.9170491271665
 10
78.03089597658602
 20
-105.5405001906287
 10
78.51923826162019
 20
-105.5405001906287
 10
78.75884465261932
 20
-105.5405001906287
 10
79.01671004969028
 20
-105.6674519592602
 10
79.01671004969028
 20
-105.9635579162174
 10
79.01671004969028
 20
-106.1497653271952
 10
78.91490747810114
 20
-106.2322753640669
 10
78.80862628238118
 20
-106.2935980637043
 10
78.87425535137518
 20
-106.3211588275864
 10
79.06855873674328
 20
-106.401601807167
 10
79.06855873674328
 20
-106.6787597389553
 10
79.06855873674328
 20
-107.0172403703811
 10
78.80414765825036
 20
-107.1843275014157
 10
78.50786944651886
 20
-107.1843275014157
 97
        0
 97
        1
330
EB
 75
     2
 76
     1
 98
        1
 10
0.0
 20
0.0
450
        0
451
        0
460
0.0
461
0.0
452
        0
462
0.0
453
        0
470

  0
SPLINE
  5
ED
330
E7
100
AcDbEntity
  8
レイヤー 1
100
AcDbSpline
210
0.0
220
0.0
230
1.0
 70
    11
 71
     3
 72
    17
 73
    13
 74
     0
 42
0.0000000001
 43
0.0000000001
 40
0.0
 40
0.0
 40
0.0
 40
0.0
 40
1.0
 40
1.0
 40
1.0
 40
2.0
 40
2.0
 40
2.0
 40
3.0
 40
3.0
 40
3.0
 40
4.0
 40
4.0
 40
4.0
 40
4.0
 10
79.30454777748289
 20
-107.1335123430083
 30
0.0
 10
79.30454777748289
 20
-107.1335123430083
 30
0.0
 10
79.30454777748289
 20
-106.8818481178108
 30
0.0
 10
79.30454777748289
 20
-106.8818481178108
 30
0.0
 10
79.30454777748289
 20
-106.8818481178108
 30
0.0
 10
79.5736097348809
 20
-106.8818481178108
 30
0.0
 10
79.5736097348809
 20
-106.8818481178108
 30
0.0
 10
79.5736097348809
 20
-106.8818481178108
 30
0.0
 10
79.5736097348809
 20
-107.1335123430083
 30
0.0
 10
79.5736097348809
 20
-107.1335123430083
 30
0.0
 10
79.5736097348809
 20
-107.1335123430083
 30
0.0
 10
79.30454777748289
 20
-107.1335123430083
 30
0.0
 10
79.30454777748289
 20
-107.1335123430083
 30
0.0
  0
HATCH
  5
EE
330
E7
100
AcDbEntity
  8
レイヤー 1
 62
   250
420
  2299925
440
 33554687
100
AcDbHatch
 10
0.0
 20
0.0
 30
0.0
210
0.0
220
0.0
230
1.0
  2
SOLID
 70
     1
 71
     1
 91
        1
 92
        1
 93
        1
 72
     4
 94
        3
 73
     0
 74
     0
 95
       17
 96
       13
 40
0.0
 40
0.0
 40
0.0
 40
0.0
 40
1.0
 40
1.0
 40
1.0
 40
2.0
 40
2.0
 40
2.0
 40
3.0
 40
3.0
 40
3.0
 40
4.0
 40
4.0
 40
4.0
 40
4.0
 10
79.30454777748289
 20
-107.1335123430083
 10
79.30454777748289
 20
-107.1335123430083
 10
79.30454777748289
 20
-106.8818481178108
 10
79.30454777748289
 20
-106.8818481178108
 10
79.30454777748289
 20
-106.8818481178108
 10
79.5736097348809
 20
-106.8818481178108
 10
79.5736097348809
 20
-106.8818481178108
 10
79.5736097348809
 20
-106.8818481178108
 10
79.5736097348809
 20
-107.1335123430083
 10
79.5736097348809
 20
-107.1335123430083
 10
79.5736097348809
 20
-107.1335123430083
 10
79.30454777748289
 20
-107.1335123430083
 10
79.30454777748289
 20
-107.1335123430083
 97
        0
 97
        1
330
ED
 75
     2
 76
     1
 98
        1
 10
0.0
 20
0.0
450
        0
451
        0
460
0.0
461
0.0
452
        0
462
0.0
453
        0
470

  0
SPLINE
  5
EF
330
E7
100
AcDbEntity
  8
レイヤー 1
100
AcDbSpline
210
0.0
220
0.0
230
1.0
 70
     9
 71
     3
 72
    53
 73
    49
 74
     0
 42
0.0000000001
 43
0.0000000001
 40
0.0
 40
0.0
 40
0.0
 40
0.0
 40
1.0
 40
1.0
 40
1.0
 40
2.0
 40
2.0
 40
2.0
 40
3.0
 40
3.0
 40
3.0
 40
4.0
 40
4.0
 40
4.0
 40
5.0
 40
5.0
 40
5.0
 40
6.0
 40
6.0
 40
6.0
 40
7.0
 40
7.0
 40
7.0
 40
8.0
 40
8.0
 40
8.0
 40
9.0
 40
9.0
 40
9.0
 40
10.0
 40
10.0
 40
10.0
 40
11.0
 40
11.0
 40
11.0
 40
12.0
 40
12.0
 40
12.0
 40
13.0
 40
13.0
 40
13.0
 40
14.0
 40
14.0
 40
14.0
 40
15.0
 40
15.0
 40
15.0
 40
16.0
 40
16.0
 40
16.0
 40
16.0
 10
80.34031573512326
 20
-107.1843275014157
 30
0.0
 10
80.25677216960595
 20
-107.1843275014157
 30
0.0
 10
80.14825166182058
 20
-107.1672742787637
 30
0.0
 10
80.03973115403521
 20
-107.1038845218351
 30
0.0
 10
79.85421276215451
 20
-106.9938137210814
 30
0.0
 10
79.83164738672612
 20
-106.8627278378676
 30
0.0
 10
79.81132132336314
 20
-106.7548963491793
 30
0.0
 10
79.81132132336314
 20
-106.7548963491793
 30
0.0
 10
80.04868840229686
 20
-106.7548963491793
 30
0.0
 10
80.04868840229686
 20
-106.7548963491793
 30
0.0
 10
80.10742728032036
 20
-106.9536783586782
 30
0.0
 10
80.24316404243922
 20
-106.9833061798514
 30
0.0
 10
80.34255504718867
 20
-106.9833061798514
 30
0.0
 10
80.49189993647425
 20
-106.9833061798514
 30
0.0
 10
80.6546806981523
 20
-106.8839151751019
 30
0.0
 10
80.6546806981523
 20
-106.6511989750733
 30
0.0
 10
80.6546806981523
 20
-106.3952283805192
 30
0.0
 10
80.46244437007535
 20
-106.3254651969429
 30
0.0
 10
80.33359779892702
 20
-106.3254651969429
 30
0.0
 10
80.29966360839731
 20
-106.3254651969429
 30
0.0
 10
80.14825166182058
 20
-106.3254651969429
 30
0.0
 10
80.05316702642769
 20
-106.4544840228655
 30
0.0
 10
80.05316702642769
 20
-106.4544840228655
 30
0.0
 10
79.86558157725582
 20
-106.4353637429224
 30
0.0
 10
79.86558157725582
 20
-106.4353637429224
 30
0.0
 10
79.86558157725582
 20
-106.4353637429224
 30
0.0
 10
79.99442814840417
 20
-105.589248291745
 30
0.0
 10
79.99442814840417
 20
-105.589248291745
 30
0.0
 10
79.99442814840417
 20
-105.589248291745
 30
0.0
 10
80.82641870809201
 20
-105.589248291745
 30
0.0
 10
80.82641870809201
 20
-105.589248291745
 30
0.0
 10
80.82641870809201
 20
-105.589248291745
 30
0.0
 10
80.82641870809201
 20
-105.7838961866616
 30
0.0
 10
80.82641870809201
 20
-105.7838961866616
 30
0.0
 10
80.82641870809201
 20
-105.7838961866616
 30
0.0
 10
80.16857772518354
 20
-105.7838961866616
 30
0.0
 10
80.16857772518354
 20
-105.7838961866616
 30
0.0
 10
80.16857772518354
 20
-105.7838961866616
 30
0.0
 10
80.09847003205871
 20
-106.2069539122503
 30
0.0
 10
80.09847003205871
 20
-106.2069539122503
 30
0.0
 10
80.16409910105272
 20
-106.1730197217206
 30
0.0
 10
80.25212129070085
 20
-106.1328843593174
 30
0.0
 10
80.37872854978379
 20
-106.1328843593174
 30
0.0
 10
80.65002981924722
 20
-106.1328843593174
 30
0.0
 10
80.90324433741308
 20
-106.3190917702952
 30
0.0
 10
80.90324433741308
 20
-106.6320786951302
 30
0.0
 10
80.90324433741308
 20
-106.9495442440959
 30
0.0
 10
80.66363794641395
 20
-107.1843275014157
 30
0.0
 10
80.34031573512326
 20
-107.1843275014157
 30
0.0
  0
HATCH
  5
F0
330
E7
100
AcDbEntity
  8
レイヤー 1
 62
   250
420
  2299925
440
 33554687
100
AcDbHatch
 10
0.0
 20
0.0
 30
0.0
210
0.0
220
0.0
230
1.0
  2
SOLID
 70
     1
 71
     1
 91
        1
 92
        1
 93
        1
 72
     4
 94
        3
 73
     0
 74
     0
 95
       53
 96
       49
 40
0.0
 40
0.0
 40
0.0
 40
0.0
 40
1.0
 40
1.0
 40
1.0
 40
2.0
 40
2.0
 40
2.0
 40
3.0
 40
3.0
 40
3.0
 40
4.0
 40
4.0
 40
4.0
 40
5.0
 40
5.0
 40
5.0
 40
6.0
 40
6.0
 40
6.0
 40
7.0
 40
7.0
 40
7.0
 40
8.0
 40
8.0
 40
8.0
 40
9.0
 40
9.0
 40
9.0
 40
10.0
 40
10.0
 40
10.0
 40
11.0
 40
11.0
 40
11.0
 40
12.0
 40
12.0
 40
12.0
 40
13.0
 40
13.0
 40
13.0
 40
14.0
 40
14.0
 40
14.0
 40
15.0
 40
15.0
 40
15.0
 40
16.0
 40
16.0
 40
16.0
 40
16.0
 10
80.34031573512326
 20
-107.1843275014157
 10
80.25677216960595
 20
-107.1843275014157
 10
80.14825166182058
 20
-107.1672742787637
 10
80.03973115403521
 20
-107.1038845218351
 10
79.85421276215451
 20
-106.9938137210814
 10
79.83164738672612
 20
-106.8627278378676
 10
79.81132132336314
 20
-106.7548963491793
 10
79.81132132336314
 20
-106.7548963491793
 10
80.04868840229686
 20
-106.7548963491793
 10
80.04868840229686
 20
-106.7548963491793
 10
80.10742728032036
 20
-106.9536783586782
 10
80.24316404243922
 20
-106.9833061798514
 10
80.34255504718867
 20
-106.9833061798514
 10
80.49189993647425
 20
-106.9833061798514
 10
80.6546806981523
 20
-106.8839151751019
 10
80.6546806981523
 20
-106.6511989750733
 10
80.6546806981523
 20
-106.3952283805192
 10
80.46244437007535
 20
-106.3254651969429
 10
80.33359779892702
 20
-106.3254651969429
 10
80.29966360839731
 20
-106.3254651969429
 10
80.14825166182058
 20
-106.3254651969429
 10
80.05316702642769
 20
-106.4544840228655
 10
80.05316702642769
 20
-106.4544840228655
 10
79.86558157725582
 20
-106.4353637429224
 10
79.86558157725582
 20
-106.4353637429224
 10
79.86558157725582
 20
-106.4353637429224
 10
79.99442814840417
 20
-105.589248291745
 10
79.99442814840417
 20
-105.589248291745
 10
79.99442814840417
 20
-105.589248291745
 10
80.82641870809201
 20
-105.589248291745
 10
80.82641870809201
 20
-105.589248291745
 10
80.82641870809201
 20
-105.589248291745
 10
80.82641870809201
 20
-105.7838961866616
 10
80.82641870809201
 20
-105.7838961866616
 10
80.82641870809201
 20
-105.7838961866616
 10
80.16857772518354
 20
-105.7838961866616
 10
80.16857772518354
 20
-105.7838961866616
 10
80.16857772518354
 20
-105.7838961866616
 10
80.09847003205871
 20
-106.2069539122503
 10
80.09847003205871
 20
-106.2069539122503
 10
80.16409910105272
 20
-106.1730197217206
 10
80.25212129070085
 20
-106.1328843593174
 10
80.37872854978379
 20
-106.1328843593174
 10
80.65002981924722
 20
-106.1328843593174
 10
80.90324433741308
 20
-106.3190917702952
 10
80.90324433741308
 20
-106.6320786951302
 10
80.90324433741308
 20
-106.9495442440959
 10
80.66363794641395
 20
-107.1843275014157
 10
80.34031573512326
 20
-107.1843275014157
 97
        0
 97
        1
330
EF
 75
     2
 76
     1
 98
        1
 10
0.0
 20
0.0
450
        0
451
        0
460
0.0
461
0.0
452
        0
462
0.0
453
        0
470

  0
ENDBLK
  5
EA
330
E7
100
AcDbEntity
  8
0
100
AcDbBlockEnd
  0
BLOCK
  5
F6
330
F4
100
AcDbEntity
  8
0
100
AcDbBlockBegin
  2
Block_13
 70
     0
 10
0.0
 20
0.0
 30
0.0
  3
Block_13
  1

  0
INSERT
  5
F9
330
F4
100
AcDbEntity
  8
レイヤー 1
100
AcDbBlockReference
  2
Block_14
 10
0.0
 20
0.0
 30
0.0
  0
ENDBLK
  5
F7
330
F4
100
AcDbEntity
  8
0
100
AcDbBlockEnd
  0
BLOCK
  5
FA
330
F8
100
AcDbEntity
  8
0
100
AcDbBlockBegin
  2
Block_14
 70
     0
 10
0.0
 20
0.0
 30
0.0
  3
Block_14
  1

  0
SPLINE
  5
FC
330
F8
100
AcDbEntity
  8
レイヤー 1
100
AcDbSpline
210
0.0
220
0.0
230
1.0
 70
    11
 71
     3
 72
    14
 73
    10
 74
     0
 42
0.0000000001
 43
0.0000000001
 40
0.0
 40
0.0
 40
0.0
 40
0.0
 40
1.0
 40
1.0
 40
1.0
 40
2.0
 40
2.0
 40
2.0
 40
3.0
 40
3.0
 40
3.0
 40
3.0
 10
106.2805067008604
 20
-189.521592834564
 30
0.0
 10
106.2805067008604
 20
-189.521592834564
 30
0.0
 10
105.791992161052
 20
-190.1775390149556
 30
0.0
 10
105.791992161052
 20
-190.1775390149556
 30
0.0
 10
105.791992161052
 20
-190.1775390149556
 30
0.0
 10
106.2805067008604
 20
-190.1775390149556
 30
0.0
 10
106.2805067008604
 20
-190.1775390149556
 30
0.0
 10
106.2805067008604
 20
-190.1775390149556
 30
0.0
 10
106.2805067008604
 20
-189.521592834564
 30
0.0
 10
106.2805067008604
 20
-189.521592834564
 30
0.0
  0
SPLINE
  5
FD
330
F8
100
AcDbEntity
  8
レイヤー 1
100
AcDbSpline
210
0.0
220
0.0
230
1.0
 70
    11
 71
     3
 72
    38
 73
    34
 74
     0
 42
0.0000000001
 43
0.0000000001
 40
0.0
 40
0.0
 40
0.0
 40
0.0
 40
1.0
 40
1.0
 40
1.0
 40
2.0
 40
2.0
 40
2.0
 40
3.0
 40
3.0
 40
3.0
 40
4.0
 40
4.0
 40
4.0
 40
5.0
 40
5.0
 40
5.0
 40
6.0
 40
6.0
 40
6.0
 40
7.0
 40
7.0
 40
7.0
 40
8.0
 40
8.0
 40
8.0
 40
9.0
 40
9.0
 40
9.0
 40
10.0
 40
10.0
 40
10.0
 40
11.0
 40
11.0
 40
11.0
 40
11.0
 10
106.5133951556633
 20
-190.3763210244545
 30
0.0
 10
106.5133951556633
 20
-190.3763210244545
 30
0.0
 10
106.5133951556633
 20
-190.7232421398192
 30
0.0
 10
106.5133951556633
 20
-190.7232421398192
 30
0.0
 10
106.5133951556633
 20
-190.7232421398192
 30
0.0
 10
106.2805067008604
 20
-190.7232421398192
 30
0.0
 10
106.2805067008604
 20
-190.7232421398192
 30
0.0
 10
106.2805067008604
 20
-190.7232421398192
 30
0.0
 10
106.2805067008604
 20
-190.3763210244545
 30
0.0
 10
106.2805067008604
 20
-190.3763210244545
 30
0.0
 10
106.2805067008604
 20
-190.3763210244545
 30
0.0
 10
105.5797742791606
 20
-190.3763210244545
 30
0.0
 10
105.5797742791606
 20
-190.3763210244545
 30
0.0
 10
105.5797742791606
 20
-190.3763210244545
 30
0.0
 10
105.5797742791606
 20
-190.1520453083647
 30
0.0
 10
105.5797742791606
 20
-190.1520453083647
 30
0.0
 10
105.5797742791606
 20
-190.1520453083647
 30
0.0
 10
106.3053113883542
 20
-189.1788058337817
 30
0.0
 10
106.3053113883542
 20
-189.1788058337817
 30
0.0
 10
106.3053113883542
 20
-189.1788058337817
 30
0.0
 10
106.5133951556633
 20
-189.1788058337817
 30
0.0
 10
106.5133951556633
 20
-189.1788058337817
 30
0.0
 10
106.5133951556633
 20
-189.1788058337817
 30
0.0
 10
106.5133951556633
 20
-190.1775390149556
 30
0.0
 10
106.5133951556633
 20
-190.1775390149556
 30
0.0
 10
106.5133951556633
 20
-190.1775390149556
 30
0.0
 10
106.7349147953649
 20
-190.1775390149556
 30
0.0
 10
106.7349147953649
 20
-190.1775390149556
 30
0.0
 10
106.7349147953649
 20
-190.1775390149556
 30
0.0
 10
106.7349147953649
 20
-190.3763210244545
 30
0.0
 10
106.7349147953649
 20
-190.3763210244545
 30
0.0
 10
106.7349147953649
 20
-190.3763210244545
 30
0.0
 10
106.5133951556633
 20
-190.3763210244545
 30
0.0
 10
106.5133951556633
 20
-190.3763210244545
 30
0.0
  0
HATCH
  5
FE
330
F8
100
AcDbEntity
  8
レイヤー 1
 62
   250
420
  2299925
440
 33554687
100
AcDbHatch
 10
0.0
 20
0.0
 30
0.0
210
0.0
220
0.0
230
1.0
  2
SOLID
 70
     1
 71
     1
 91
        2
 92
        1
 93
        1
 72
     4
 94
        3
 73
     0
 74
     0
 95
       14
 96
       10
 40
0.0
 40
0.0
 40
0.0
 40
0.0
 40
1.0
 40
1.0
 40
1.0
 40
2.0
 40
2.0
 40
2.0
 40
3.0
 40
3.0
 40
3.0
 40
3.0
 10
106.2805067008604
 20
-189.521592834564
 10
106.2805067008604
 20
-189.521592834564
 10
105.791992161052
 20
-190.1775390149556
 10
105.791992161052
 20
-190.1775390149556
 10
105.791992161052
 20
-190.1775390149556
 10
106.2805067008604
 20
-190.1775390149556
 10
106.2805067008604
 20
-190.1775390149556
 10
106.2805067008604
 20
-190.1775390149556
 10
106.2805067008604
 20
-189.521592834564
 10
106.2805067008604
 20
-189.521592834564
 97
        0
 97
        1
330
FC
 92
        1
 93
        1
 72
     4
 94
        3
 73
     0
 74
     0
 95
       38
 96
       34
 40
0.0
 40
0.0
 40
0.0
 40
0.0
 40
1.0
 40
1.0
 40
1.0
 40
2.0
 40
2.0
 40
2.0
 40
3.0
 40
3.0
 40
3.0
 40
4.0
 40
4.0
 40
4.0
 40
5.0
 40
5.0
 40
5.0
 40
6.0
 40
6.0
 40
6.0
 40
7.0
 40
7.0
 40
7.0
 40
8.0
 40
8.0
 40
8.0
 40
9.0
 40
9.0
 40
9.0
 40
10.0
 40
10.0
 40
10.0
 40
11.0
 40
11.0
 40
11.0
 40
11.0
 10
106.5133951556633
 20
-190.3763210244545
 10
106.5133951556633
 20
-190.3763210244545
 10
106.5133951556633
 20
-190.7232421398192
 10
106.5133951556633
 20
-190.7232421398192
 10
106.5133951556633
 20
-190.7232421398192
 10
106.2805067008604
 20
-190.7232421398192
 10
106.2805067008604
 20
-190.7232421398192
 10
106.2805067008604
 20
-190.7232421398192
 10
106.2805067008604
 20
-190.3763210244545
 10
106.2805067008604
 20
-190.3763210244545
 10
106.2805067008604
 20
-190.3763210244545
 10
105.5797742791606
 20
-190.3763210244545
 10
105.5797742791606
 20
-190.3763210244545
 10
105.5797742791606
 20
-190.3763210244545
 10
105.5797742791606
 20
-190.1520453083647
 10
105.5797742791606
 20
-190.1520453083647
 10
105.5797742791606
 20
-190.1520453083647
 10
106.3053113883542
 20
-189.1788058337817
 10
106.3053113883542
 20
-189.1788058337817
 10
106.3053113883542
 20
-189.1788058337817
 10
106.5133951556633
 20
-189.1788058337817
 10
106.5133951556633
 20
-189.1788058337817
 10
106.5133951556633
 20
-189.1788058337817
 10
106.5133951556633
 20
-190.1775390149556
 10
106.5133951556633
 20
-190.1775390149556
 10
106.5133951556633
 20
-190.1775390149556
 10
106.7349147953649
 20
-190.1775390149556
 10
106.7349147953649
 20
-190.1775390149556
 10
106.7349147953649
 20
-190.1775390149556
 10
106.7349147953649
 20
-190.3763210244545
 10
106.7349147953649
 20
-190.3763210244545
 10
106.7349147953649
 20
-190.3763210244545
 10
106.5133951556633
 20
-190.3763210244545
 10
106.5133951556633
 20
-190.3763210244545
 97
        0
 97
        1
330
FD
 75
     2
 76
     1
 98
        1
 10
0.0
 20
0.0
450
        0
451
        0
460
0.0
461
0.0
452
        0
462
0.0
453
        0
470

  0
SPLINE
  5
FF
330
F8
100
AcDbEntity
  8
レイヤー 1
100
AcDbSpline
210
0.0
220
0.0
230
1.0
 70
     9
 71
     3
 72
    17
 73
    13
 74
     0
 42
0.0000000001
 43
0.0000000001
 40
0.0
 40
0.0
 40
0.0
 40
0.0
 40
1.0
 40
1.0
 40
1.0
 40
2.0
 40
2.0
 40
2.0
 40
3.0
 40
3.0
 40
3.0
 40
4.0
 40
4.0
 40
4.0
 40
4.0
 10
107.4387478030014
 20
-189.9150227389796
 30
0.0
 10
107.1583170305021
 20
-189.9150227389796
 30
0.0
 10
107.1176649037761
 20
-190.1265516017739
 30
0.0
 10
107.1176649037761
 20
-190.2429958291754
 30
0.0
 10
107.1176649037761
 20
-190.4186956989231
 30
0.0
 10
107.2196397301395
 20
-190.5816487153754
 30
0.0
 10
107.4163546823473
 20
-190.5816487153754
 30
0.0
 10
107.5452012534956
 20
-190.5816487153754
 30
0.0
 10
107.7326144478932
 20
-190.5223930730291
 30
0.0
 10
107.7326144478932
 20
-190.2367946573019
 30
0.0
 10
107.7326144478932
 20
-190.0125189412121
 30
0.0
 10
107.5834418133819
 20
-189.9150227389796
 30
0.0
 10
107.4387478030014
 20
-189.9150227389796
 30
0.0
  0
SPLINE
  5
100
330
F8
100
AcDbEntity
  8
レイヤー 1
100
AcDbSpline
210
0.0
220
0.0
230
1.0
 70
     9
 71
     3
 72
    32
 73
    28
 74
     0
 42
0.0000000001
 43
0.0000000001
 40
0.0
 40
0.0
 40
0.0
 40
0.0
 40
1.0
 40
1.0
 40
1.0
 40
2.0
 40
2.0
 40
2.0
 40
3.0
 40
3.0
 40
3.0
 40
4.0
 40
4.0
 40
4.0
 40
5.0
 40
5.0
 40
5.0
 40
6.0
 40
6.0
 40
6.0
 40
7.0
 40
7.0
 40
7.0
 40
8.0
 40
8.0
 40
8.0
 40
9.0
 40
9.0
 40
9.0
 40
9.0
 10
107.4208333064781
 20
-190.7738850434523
 30
0.0
 10
106.8689290097411
 20
-190.7738850434523
 30
0.0
 10
106.8599717614794
 20
-190.2199136894242
 30
0.0
 10
106.8599717614794
 20
-190.0059732597902
 30
0.0
 10
106.8599717614794
 20
-189.7754963718269
 30
0.0
 10
106.8802978248424
 20
-189.1281629301485
 30
0.0
 10
107.4614854332041
 20
-189.1281629301485
 30
0.0
 10
107.6468315703105
 20
-189.1281629301485
 30
0.0
 10
107.909003336738
 20
-189.1980983684991
 30
0.0
 10
107.949655463464
 20
-189.5302055732772
 30
0.0
 10
107.949655463464
 20
-189.5302055732772
 30
0.0
 10
107.7215901423404
 20
-189.5302055732772
 30
0.0
 10
107.7215901423404
 20
-189.5302055732772
 30
0.0
 10
107.7102213272391
 20
-189.473016988222
 30
0.0
 10
107.6761148819351
 20
-189.3248778823562
 30
0.0
 10
107.4590738663644
 20
-189.3248778823562
 30
0.0
 10
107.1472927249493
 20
-189.3248778823562
 30
0.0
 10
107.1042290313837
 20
-189.652850972552
 30
0.0
 10
107.0907931589912
 20
-189.8578341539244
 30
0.0
 10
107.1900119089664
 20
-189.7796304864092
 30
0.0
 10
107.2623589141566
 20
-189.7203748440629
 30
0.0
 10
107.4570068090732
 20
-189.7203748440629
 30
0.0
 10
107.6492431371502
 20
-189.7203748440629
 30
0.0
 10
107.9723930936666
 20
-189.8285508422998
 30
0.0
 10
107.9723930936666
 20
-190.2347276000108
 30
0.0
 10
107.9723930936666
 20
-190.5540879514934
 30
0.0
 10
107.7598307022267
 20
-190.7738850434523
 30
0.0
 10
107.4208333064781
 20
-190.7738850434523
 30
0.0
  0
HATCH
  5
101
330
F8
100
AcDbEntity
  8
レイヤー 1
 62
   250
420
  2299925
440
 33554687
100
AcDbHatch
 10
0.0
 20
0.0
 30
0.0
210
0.0
220
0.0
230
1.0
  2
SOLID
 70
     1
 71
     1
 91
        2
 92
        1
 93
        1
 72
     4
 94
        3
 73
     0
 74
     0
 95
       17
 96
       13
 40
0.0
 40
0.0
 40
0.0
 40
0.0
 40
1.0
 40
1.0
 40
1.0
 40
2.0
 40
2.0
 40
2.0
 40
3.0
 40
3.0
 40
3.0
 40
4.0
 40
4.0
 40
4.0
 40
4.0
 10
107.4387478030014
 20
-189.9150227389796
 10
107.1583170305021
 20
-189.9150227389796
 10
107.1176649037761
 20
-190.1265516017739
 10
107.1176649037761
 20
-190.2429958291754
 10
107.1176649037761
 20
-190.4186956989231
 10
107.2196397301395
 20
-190.5816487153754
 10
107.4163546823473
 20
-190.5816487153754
 10
107.5452012534956
 20
-190.5816487153754
 10
107.7326144478932
 20
-190.5223930730291
 10
107.7326144478932
 20
-190.2367946573019
 10
107.7326144478932
 20
-190.0125189412121
 10
107.5834418133819
 20
-189.9150227389796
 10
107.4387478030014
 20
-189.9150227389796
 97
        0
 97
        1
330
FF
 92
        1
 93
        1
 72
     4
 94
        3
 73
     0
 74
     0
 95
       32
 96
       28
 40
0.0
 40
0.0
 40
0.0
 40
0.0
 40
1.0
 40
1.0
 40
1.0
 40
2.0
 40
2.0
 40
2.0
 40
3.0
 40
3.0
 40
3.0
 40
4.0
 40
4.0
 40
4.0
 40
5.0
 40
5.0
 40
5.0
 40
6.0
 40
6.0
 40
6.0
 40
7.0
 40
7.0
 40
7.0
 40
8.0
 40
8.0
 40
8.0
 40
9.0
 40
9.0
 40
9.0
 40
9.0
 10
107.4208333064781
 20
-190.7738850434523
 10
106.8689290097411
 20
-190.7738850434523
 10
106.8599717614794
 20
-190.2199136894242
 10
106.8599717614794
 20
-190.0059732597902
 10
106.8599717614794
 20
-189.7754963718269
 10
106.8802978248424
 20
-189.1281629301485
 10
107.4614854332041
 20
-189.1281629301485
 10
107.6468315703105
 20
-189.1281629301485
 10
107.909003336738
 20
-189.1980983684991
 10
107.949655463464
 20
-189.5302055732772
 10
107.949655463464
 20
-189.5302055732772
 10
107.7215901423404
 20
-189.5302055732772
 10
107.7215901423404
 20
-189.5302055732772
 10
107.7102213272391
 20
-189.473016988222
 10
107.6761148819351
 20
-189.3248778823562
 10
107.4590738663644
 20
-189.3248778823562
 10
107.1472927249493
 20
-189.3248778823562
 10
107.1042290313837
 20
-189.652850972552
 10
107.0907931589912
 20
-189.8578341539244
 10
107.1900119089664
 20
-189.7796304864092
 10
107.2623589141566
 20
-189.7203748440629
 10
107.4570068090732
 20
-189.7203748440629
 10
107.6492431371502
 20
-189.7203748440629
 10
107.9723930936666
 20
-189.8285508422998
 10
107.9723930936666
 20
-190.2347276000108
 10
107.9723930936666
 20
-190.5540879514934
 10
107.7598307022267
 20
-190.7738850434523
 10
107.4208333064781
 20
-190.7738850434523
 97
        0
 97
        1
330
100
 75
     2
 76
     1
 98
        1
 10
0.0
 20
0.0
450
        0
451
        0
460
0.0
461
0.0
452
        0
462
0.0
453
        0
470

  0
ENDBLK
  5
FB
330
F8
100
AcDbEntity
  8
0
100
AcDbBlockEnd
  0
BLOCK
  5
104
330
102
100
AcDbEntity
  8
0
100
AcDbBlockBegin
  2
Block_15
 70
     0
 10
0.0
 20
0.0
 30
0.0
  3
Block_15
  1

  0
SPLINE
  5
106
330
102
100
AcDbEntity
  8
レイヤー 1
100
AcDbSpline
210
0.0
220
0.0
230
1.0
 70
    11
 71
     3
 72
    14
 73
    10
 74
     0
 42
0.0000000001
 43
0.0000000001
 40
0.0
 40
0.0
 40
0.0
 40
0.0
 40
1.0
 40
1.0
 40
1.0
 40
2.0
 40
2.0
 40
2.0
 40
3.0
 40
3.0
 40
3.0
 40
3.0
 10
79.89210881249225
 20
-189.521592834564
 30
0.0
 10
79.89210881249225
 20
-189.521592834564
 30
0.0
 10
79.40393878223236
 20
-190.1775390149556
 30
0.0
 10
79.40393878223236
 20
-190.1775390149556
 30
0.0
 10
79.40393878223236
 20
-190.1775390149556
 30
0.0
 10
79.89210881249225
 20
-190.1775390149556
 30
0.0
 10
79.89210881249225
 20
-190.1775390149556
 30
0.0
 10
79.89210881249225
 20
-190.1775390149556
 30
0.0
 10
79.89210881249225
 20
-189.521592834564
 30
0.0
 10
79.89210881249225
 20
-189.521592834564
 30
0.0
  0
SPLINE
  5
107
330
102
100
AcDbEntity
  8
レイヤー 1
100
AcDbSpline
210
0.0
220
0.0
230
1.0
 70
    11
 71
     3
 72
    38
 73
    34
 74
     0
 42
0.0000000001
 43
0.0000000001
 40
0.0
 40
0.0
 40
0.0
 40
0.0
 40
1.0
 40
1.0
 40
1.0
 40
2.0
 40
2.0
 40
2.0
 40
3.0
 40
3.0
 40
3.0
 40
4.0
 40
4.0
 40
4.0
 40
5.0
 40
5.0
 40
5.0
 40
6.0
 40
6.0
 40
6.0
 40
7.0
 40
7.0
 40
7.0
 40
8.0
 40
8.0
 40
8.0
 40
9.0
 40
9.0
 40
9.0
 40
10.0
 40
10.0
 40
10.0
 40
11.0
 40
11.0
 40
11.0
 40
11.0
 10
80.12499726729513
 20
-190.3763210244545
 30
0.0
 10
80.12499726729513
 20
-190.3763210244545
 30
0.0
 10
80.12499726729513
 20
-190.7232421398192
 30
0.0
 10
80.12499726729513
 20
-190.7232421398192
 30
0.0
 10
80.12499726729513
 20
-190.7232421398192
 30
0.0
 10
79.89210881249225
 20
-190.7232421398192
 30
0.0
 10
79.89210881249225
 20
-190.7232421398192
 30
0.0
 10
79.89210881249225
 20
-190.7232421398192
 30
0.0
 10
79.89210881249225
 20
-190.3763210244545
 30
0.0
 10
79.89210881249225
 20
-190.3763210244545
 30
0.0
 10
79.89210881249225
 20
-190.3763210244545
 30
0.0
 10
79.19137639079244
 20
-190.3763210244545
 30
0.0
 10
79.19137639079244
 20
-190.3763210244545
 30
0.0
 10
79.19137639079244
 20
-190.3763210244545
 30
0.0
 10
79.19137639079244
 20
-190.1520453083647
 30
0.0
 10
79.19137639079244
 20
-190.1520453083647
 30
0.0
 10
79.19137639079244
 20
-190.1520453083647
 30
0.0
 10
79.91708575476032
 20
-189.1788058337817
 30
0.0
 10
79.91708575476032
 20
-189.1788058337817
 30
0.0
 10
79.91708575476032
 20
-189.1788058337817
 30
0.0
 10
80.12499726729513
 20
-189.1788058337817
 30
0.0
 10
80.12499726729513
 20
-189.1788058337817
 30
0.0
 10
80.12499726729513
 20
-189.1788058337817
 30
0.0
 10
80.12499726729513
 20
-190.1775390149556
 30
0.0
 10
80.12499726729513
 20
-190.1775390149556
 30
0.0
 10
80.12499726729513
 20
-190.1775390149556
 30
0.0
 10
80.34668916177096
 20
-190.1775390149556
 30
0.0
 10
80.34668916177096
 20
-190.1775390149556
 30
0.0
 10
80.34668916177096
 20
-190.1775390149556
 30
0.0
 10
80.34668916177096
 20
-190.3763210244545
 30
0.0
 10
80.34668916177096
 20
-190.3763210244545
 30
0.0
 10
80.34668916177096
 20
-190.3763210244545
 30
0.0
 10
80.12499726729513
 20
-190.3763210244545
 30
0.0
 10
80.12499726729513
 20
-190.3763210244545
 30
0.0
  0
HATCH
  5
108
330
102
100
AcDbEntity
  8
レイヤー 1
 62
   250
420
  2299925
440
 33554687
100
AcDbHatch
 10
0.0
 20
0.0
 30
0.0
210
0.0
220
0.0
230
1.0
  2
SOLID
 70
     1
 71
     1
 91
        2
 92
        1
 93
        1
 72
     4
 94
        3
 73
     0
 74
     0
 95
       14
 96
       10
 40
0.0
 40
0.0
 40
0.0
 40
0.0
 40
1.0
 40
1.0
 40
1.0
 40
2.0
 40
2.0
 40
2.0
 40
3.0
 40
3.0
 40
3.0
 40
3.0
 10
79.89210881249225
 20
-189.521592834564
 10
79.89210881249225
 20
-189.521592834564
 10
79.40393878223236
 20
-190.1775390149556
 10
79.40393878223236
 20
-190.1775390149556
 10
79.40393878223236
 20
-190.1775390149556
 10
79.89210881249225
 20
-190.1775390149556
 10
79.89210881249225
 20
-190.1775390149556
 10
79.89210881249225
 20
-190.1775390149556
 10
79.89210881249225
 20
-189.521592834564
 10
79.89210881249225
 20
-189.521592834564
 97
        0
 97
        1
330
106
 92
        1
 93
        1
 72
     4
 94
        3
 73
     0
 74
     0
 95
       38
 96
       34
 40
0.0
 40
0.0
 40
0.0
 40
0.0
 40
1.0
 40
1.0
 40
1.0
 40
2.0
 40
2.0
 40
2.0
 40
3.0
 40
3.0
 40
3.0
 40
4.0
 40
4.0
 40
4.0
 40
5.0
 40
5.0
 40
5.0
 40
6.0
 40
6.0
 40
6.0
 40
7.0
 40
7.0
 40
7.0
 40
8.0
 40
8.0
 40
8.0
 40
9.0
 40
9.0
 40
9.0
 40
10.0
 40
10.0
 40
10.0
 40
11.0
 40
11.0
 40
11.0
 40
11.0
 10
80.12499726729513
 20
-190.3763210244545
 10
80.12499726729513
 20
-190.3763210244545
 10
80.12499726729513
 20
-190.7232421398192
 10
80.12499726729513
 20
-190.7232421398192
 10
80.12499726729513
 20
-190.7232421398192
 10
79.89210881249225
 20
-190.7232421398192
 10
79.89210881249225
 20
-190.7232421398192
 10
79.89210881249225
 20
-190.7232421398192
 10
79.89210881249225
 20
-190.3763210244545
 10
79.89210881249225
 20
-190.3763210244545
 10
79.89210881249225
 20
-190.3763210244545
 10
79.19137639079244
 20
-190.3763210244545
 10
79.19137639079244
 20
-190.3763210244545
 10
79.19137639079244
 20
-190.3763210244545
 10
79.19137639079244
 20
-190.1520453083647
 10
79.19137639079244
 20
-190.1520453083647
 10
79.19137639079244
 20
-190.1520453083647
 10
79.91708575476032
 20
-189.1788058337817
 10
79.91708575476032
 20
-189.1788058337817
 10
79.91708575476032
 20
-189.1788058337817
 10
80.12499726729513
 20
-189.1788058337817
 10
80.12499726729513
 20
-189.1788058337817
 10
80.12499726729513
 20
-189.1788058337817
 10
80.12499726729513
 20
-190.1775390149556
 10
80.12499726729513
 20
-190.1775390149556
 10
80.12499726729513
 20
-190.1775390149556
 10
80.34668916177096
 20
-190.1775390149556
 10
80.34668916177096
 20
-190.1775390149556
 10
80.34668916177096
 20
-190.1775390149556
 10
80.34668916177096
 20
-190.3763210244545
 10
80.34668916177096
 20
-190.3763210244545
 10
80.34668916177096
 20
-190.3763210244545
 10
80.12499726729513
 20
-190.3763210244545
 10
80.12499726729513
 20
-190.3763210244545
 97
        0
 97
        1
330
107
 75
     2
 76
     1
 98
        1
 10
0.0
 20
0.0
450
        0
451
        0
460
0.0
461
0.0
452
        0
462
0.0
453
        0
470

  0
ENDBLK
  5
105
330
102
100
AcDbEntity
  8
0
100
AcDbBlockEnd
  0
ENDSEC
  0
SECTION
  2
ENTITIES
  0
CIRCLE
  5
79
330
70
100
AcDbEntity
  8
レイヤー 1
 62
   250
420
  2299925
370
     9
100
AcDbCircle
 10
134.8170883604681
 20
-172.3423249397475
 30
0.0
 40
0.0999066641178353
  0
CIRCLE
  5
7A
330
70
100
AcDbEntity
  8
レイヤー 1
 62
   250
420
  2299925
370
     9
100
AcDbCircle
 10
134.8170883604681
 20
-171.1423249234906
 30
0.0
 40
0.0999066641178353
  0
SPLINE
  5
7B
330
70
100
AcDbEntity
  8
レイヤー 1
 62
   250
420
  2299925
370
     9
100
AcDbSpline
210
0.0
220
0.0
230
1.0
 70
     9
 71
     3
 72
    17
 73
    13
 74
     0
 42
0.0000000001
 43
0.0000000001
 40
0.0
 40
0.0
 40
0.0
 40
0.0
 40
1.0
 40
1.0
 40
1.0
 40
2.0
 40
2.0
 40
2.0
 40
3.0
 40
3.0
 40
3.0
 40
4.0
 40
4.0
 40
4.0
 40
4.0
 10
104.3175756297272
 20
-108.6081096100662
 30
0.0
 10
104.3175756297272
 20
-108.5530025514381
 30
0.0
 10
104.2728081308693
 20
-108.5081997736716
 30
0.0
 10
104.2176689656093
 20
-108.5081997736716
 30
0.0
 10
104.1622123003575
 20
-108.5081997736716
 30
0.0
 10
104.1174095237227
 20
-108.5530025514381
 30
0.0
 10
104.1174095237227
 20
-108.6081096100662
 30
0.0
 10
104.1174095237227
 20
-108.6632487753262
 30
0.0
 10
104.1622123003575
 20
-108.7080162741841
 30
0.0
 10
104.2176689656093
 20
-108.7080162741841
 30
0.0
 10
104.2728081308693
 20
-108.7080162741841
 30
0.0
 10
104.3175756297272
 20
-108.6632487753262
 30
0.0
 10
104.3175756297272
 20
-108.6081096100662
 30
0.0
  0
SPLINE
  5
7C
330
70
100
AcDbEntity
  8
レイヤー 1
 62
   250
420
  2299925
370
     9
100
AcDbSpline
210
0.0
220
0.0
230
1.0
 70
     9
 71
     3
 72
    17
 73
    13
 74
     0
 42
0.0000000001
 43
0.0000000001
 40
0.0
 40
0.0
 40
0.0
 40
0.0
 40
1.0
 40
1.0
 40
1.0
 40
2.0
 40
2.0
 40
2.0
 40
3.0
 40
3.0
 40
3.0
 40
4.0
 40
4.0
 40
4.0
 40
4.0
 10
81.31948459483689
 20
-108.6081096100662
 30
0.0
 10
81.31948459483689
 20
-108.5530025514381
 30
0.0
 10
81.27471927866759
 20
-108.5081997736716
 30
0.0
 10
81.21922515295029
 20
-108.5081997736716
 30
0.0
 10
81.16412126546721
 20
-108.5081997736716
 30
0.0
 10
81.11931848883244
 20
-108.5530025514381
 30
0.0
 10
81.11931848883244
 20
-108.6081096100662
 30
0.0
 10
81.11931848883244
 20
-108.6632487753262
 30
0.0
 10
81.16412126546721
 20
-108.7080162741841
 30
0.0
 10
81.21922515295029
 20
-108.7080162741841
 30
0.0
 10
81.27471927866759
 20
-108.7080162741841
 30
0.0
 10
81.31948459483689
 20
-108.6632487753262
 30
0.0
 10
81.31948459483689
 20
-108.6081096100662
 30
0.0
  0
SPLINE
  5
7D
330
70
100
AcDbEntity
  8
レイヤー 1
 62
   250
420
  2299925
370
     9
100
AcDbSpline
210
0.0
220
0.0
230
1.0
 70
     9
 71
     3
 72
    17
 73
    13
 74
     0
 42
0.0000000001
 43
0.0000000001
 40
0.0
 40
0.0
 40
0.0
 40
0.0
 40
1.0
 40
1.0
 40
1.0
 40
2.0
 40
2.0
 40
2.0
 40
3.0
 40
3.0
 40
3.0
 40
4.0
 40
4.0
 40
4.0
 40
4.0
 10
77.81940804400375
 20
-108.6081096100662
 30
0.0
 10
77.81940804400375
 20
-108.5530025514381
 30
0.0
 10
77.77460526736867
 20
-108.5081997736716
 30
0.0
 10
77.7195013798856
 20
-108.5081997736716
 30
0.0
 10
77.66436221462566
 20
-108.5081997736716
 30
0.0
 10
77.61955943799056
 20
-108.5530025514381
 30
0.0
 10
77.61955943799056
 20
-108.6081096100662
 30
0.0
 10
77.61955943799056
 20
-108.6632487753262
 30
0.0
 10
77.66436221462566
 20
-108.7080162741841
 30
0.0
 10
77.7195013798856
 20
-108.7080162741841
 30
0.0
 10
77.77460526736867
 20
-108.7080162741841
 30
0.0
 10
77.81940804400375
 20
-108.6632487753262
 30
0.0
 10
77.81940804400375
 20
-108.6081096100662
 30
0.0
  0
SPLINE
  5
7E
330
70
100
AcDbEntity
  8
レイヤー 1
 62
   250
420
  2299925
370
     9
100
AcDbSpline
210
0.0
220
0.0
230
1.0
 70
     9
 71
     3
 72
    17
 73
    13
 74
     0
 42
0.0000000001
 43
0.0000000001
 40
0.0
 40
0.0
 40
0.0
 40
0.0
 40
1.0
 40
1.0
 40
1.0
 40
2.0
 40
2.0
 40
2.0
 40
3.0
 40
3.0
 40
3.0
 40
4.0
 40
4.0
 40
4.0
 40
4.0
 10
73.82676861909189
 20
-158.8198329750022
 30
0.0
 10
73.82676861909189
 20
-158.7647290875191
 30
0.0
 10
73.78196584245714
 20
-158.7199263108844
 30
0.0
 10
73.72686393417668
 20
-158.7199263108844
 30
0.0
 10
73.67137001194534
 20
-158.7199263108844
 30
0.0
 10
73.62660251308745
 20
-158.7647290875191
 30
0.0
 10
73.62660251308745
 20
-158.8198329750022
 30
0.0
 10
73.62660251308745
 20
-158.8749721402622
 30
0.0
 10
73.67137001194534
 20
-158.91973963912
 30
0.0
 10
73.72686393417668
 20
-158.91973963912
 30
0.0
 10
73.78196584245714
 20
-158.91973963912
 30
0.0
 10
73.82676861909189
 20
-158.8749721402622
 30
0.0
 10
73.82676861909189
 20
-158.8198329750022
 30
0.0
  0
SPLINE
  5
7F
330
70
100
AcDbEntity
  8
レイヤー 1
 62
   250
420
  2299925
370
     9
100
AcDbSpline
210
0.0
220
0.0
230
1.0
 70
     9
 71
     3
 72
    17
 73
    13
 74
     0
 42
0.0000000001
 43
0.0000000001
 40
0.0
 40
0.0
 40
0.0
 40
0.0
 40
1.0
 40
1.0
 40
1.0
 40
2.0
 40
2.0
 40
2.0
 40
3.0
 40
3.0
 40
3.0
 40
4.0
 40
4.0
 40
4.0
 40
4.0
 10
73.82676861909189
 20
-187.3198322694618
 30
0.0
 10
73.82676861909189
 20
-187.2646931042019
 30
0.0
 10
73.78196584245714
 20
-187.219925605344
 30
0.0
 10
73.72686393417668
 20
-187.219925605344
 30
0.0
 10
73.67137001194534
 20
-187.219925605344
 30
0.0
 10
73.62660251308745
 20
-187.2646931042019
 30
0.0
 10
73.62660251308745
 20
-187.3198322694618
 30
0.0
 10
73.62660251308745
 20
-187.3749361569449
 30
0.0
 10
73.67137001194534
 20
-187.4197389335797
 30
0.0
 10
73.72686393417668
 20
-187.4197389335797
 30
0.0
 10
73.78196584245714
 20
-187.4197389335797
 30
0.0
 10
73.82676861909189
 20
-187.3749361569449
 30
0.0
 10
73.82676861909189
 20
-187.3198322694618
 30
0.0
  0
SPLINE
  5
80
330
70
100
AcDbEntity
  8
レイヤー 1
 62
   250
420
  2299925
370
     9
100
AcDbSpline
210
0.0
220
0.0
230
1.0
 70
     9
 71
     3
 72
    17
 73
    13
 74
     0
 42
0.0000000001
 43
0.0000000001
 40
0.0
 40
0.0
 40
0.0
 40
0.0
 40
1.0
 40
1.0
 40
1.0
 40
2.0
 40
2.0
 40
2.0
 40
3.0
 40
3.0
 40
3.0
 40
4.0
 40
4.0
 40
4.0
 40
4.0
 10
77.82652768371621
 20
-191.3195913340862
 30
0.0
 10
77.82652768371621
 20
-191.2644497807978
 30
0.0
 10
77.78172490708145
 20
-191.2196846699683
 30
0.0
 10
77.7266210195987
 20
-191.2196846699683
 30
0.0
 10
77.67148185433843
 20
-191.2196846699683
 30
0.0
 10
77.62667907770365
 20
-191.2644497807978
 30
0.0
 10
77.62667907770365
 20
-191.3195913340862
 30
0.0
 10
77.62667907770365
 20
-191.3746952215692
 30
0.0
 10
77.67148185433843
 20
-191.419497998204
 30
0.0
 10
77.7266210195987
 20
-191.419497998204
 30
0.0
 10
77.78172490708145
 20
-191.419497998204
 30
0.0
 10
77.82652768371621
 20
-191.3746952215692
 30
0.0
 10
77.82652768371621
 20
-191.3195913340862
 30
0.0
  0
SPLINE
  5
81
330
70
100
AcDbEntity
  8
レイヤー 1
 62
   250
420
  2299925
370
     9
100
AcDbSpline
210
0.0
220
0.0
230
1.0
 70
     9
 71
     3
 72
    17
 73
    13
 74
     0
 42
0.0000000001
 43
0.0000000001
 40
0.0
 40
0.0
 40
0.0
 40
0.0
 40
1.0
 40
1.0
 40
1.0
 40
2.0
 40
2.0
 40
2.0
 40
3.0
 40
3.0
 40
3.0
 40
4.0
 40
4.0
 40
4.0
 40
4.0
 10
81.83221085578846
 20
-191.3195913340862
 30
0.0
 10
81.83221085578846
 20
-191.2644497807978
 30
0.0
 10
81.78740807915369
 20
-191.2196846699683
 30
0.0
 10
81.73230419167062
 20
-191.2196846699683
 30
0.0
 10
81.67716502641066
 20
-191.2196846699683
 30
0.0
 10
81.63236224977591
 20
-191.2644497807978
 30
0.0
 10
81.63236224977591
 20
-191.3195913340862
 30
0.0
 10
81.63236224977591
 20
-191.3746952215692
 30
0.0
 10
81.67716502641066
 20
-191.419497998204
 30
0.0
 10
81.73230419167062
 20
-191.419497998204
 30
0.0
 10
81.78740807915369
 20
-191.419497998204
 30
0.0
 10
81.83221085578846
 20
-191.3746952215692
 30
0.0
 10
81.83221085578846
 20
-191.3195913340862
 30
0.0
  0
CIRCLE
  5
82
330
70
100
AcDbEntity
  8
レイヤー 1
 62
   250
420
  2299925
370
     9
100
AcDbCircle
 10
134.8170883604681
 20
-187.3198322694618
 30
0.0
 40
0.0999066641178353
  0
SPLINE
  5
83
330
70
100
AcDbEntity
  8
レイヤー 1
 62
   250
420
  2299925
370
     9
100
AcDbSpline
210
0.0
220
0.0
230
1.0
 70
     9
 71
     3
 72
    17
 73
    13
 74
     0
 42
0.0000000001
 43
0.0000000001
 40
0.0
 40
0.0
 40
0.0
 40
0.0
 40
1.0
 40
1.0
 40
1.0
 40
2.0
 40
2.0
 40
2.0
 40
3.0
 40
3.0
 40
3.0
 40
4.0
 40
4.0
 40
4.0
 40
4.0
 10
134.916995024586
 20
-185.3200732599685
 30
0.0
 10
134.916995024586
 20
-185.2642638169479
 30
0.0
 10
134.8721922479512
 20
-185.2194610403131
 30
0.0
 10
134.8170883604681
 20
-185.2194610403131
 30
0.0
 10
134.7619491952082
 20
-185.2194610403131
 30
0.0
 10
134.7171816963503
 20
-185.2642638169479
 30
0.0
 10
134.7171816963503
 20
-185.3200732599685
 30
0.0
 10
134.7171816963503
 20
-185.3751771474516
 30
0.0
 10
134.7619491952082
 20
-185.4199799240864
 30
0.0
 10
134.8170883604681
 20
-185.4199799240864
 30
0.0
 10
134.8721922479512
 20
-185.4199799240864
 30
0.0
 10
134.916995024586
 20
-185.3751771474516
 30
0.0
 10
134.916995024586
 20
-185.3200732599685
 30
0.0
  0
SPLINE
  5
84
330
70
100
AcDbEntity
  8
レイヤー 1
 62
   250
420
  2299925
370
     9
100
AcDbSpline
210
0.0
220
0.0
230
1.0
 70
     9
 71
     3
 72
    17
 73
    13
 74
     0
 42
0.0000000001
 43
0.0000000001
 40
0.0
 40
0.0
 40
0.0
 40
0.0
 40
1.0
 40
1.0
 40
1.0
 40
2.0
 40
2.0
 40
2.0
 40
3.0
 40
3.0
 40
3.0
 40
4.0
 40
4.0
 40
4.0
 40
4.0
 10
127.8265300584215
 20
-191.3195913340862
 30
0.0
 10
127.8265300584215
 20
-191.2644497807978
 30
0.0
 10
127.7817272817867
 20
-191.2196846699683
 30
0.0
 10
127.7266233943037
 20
-191.2196846699683
 30
0.0
 10
127.6714867878777
 20
-191.2196846699683
 30
0.0
 10
127.626684010111
 20
-191.2644497807978
 30
0.0
 10
127.626684010111
 20
-191.3195913340862
 30
0.0
 10
127.626684010111
 20
-191.3746952215692
 30
0.0
 10
127.6714867878777
 20
-191.419497998204
 30
0.0
 10
127.7266233943037
 20
-191.419497998204
 30
0.0
 10
127.7817272817867
 20
-191.419497998204
 30
0.0
 10
127.8265300584215
 20
-191.3746952215692
 30
0.0
 10
127.8265300584215
 20
-191.3195913340862
 30
0.0
  0
LINE
  5
85
330
70
100
AcDbEntity
  8
レイヤー 1
 62
   250
420
  2299925
370
     9
100
AcDbLine
 10
73.72686393417668
 20
-158.8198330819118
 30
0.0
 11
73.72686393417668
 21
-187.3198322694618
 31
0.0
  0
LINE
  5
86
330
70
100
AcDbEntity
  8
レイヤー 1
 62
   250
420
  2299925
370
     9
100
AcDbLine
 10
75.18655052884541
 20
-158.8198329750022
 30
0.0
 11
72.72638615664925
 21
-158.8198329750022
 31
0.0
  0
LINE
  5
87
330
70
100
AcDbEntity
  8
レイヤー 1
 62
   250
420
  2299925
370
     9
100
AcDbLine
 10
75.18655052884541
 20
-187.3198322694618
 30
0.0
 11
72.72638615664925
 21
-187.3198322694618
 31
0.0
  0
INSERT
  5
89
330
70
100
AcDbEntity
  8
レイヤー 1
100
AcDbBlockReference
  2
Block_0
 10
0.0
 20
0.0
 30
0.0
  0
LINE
  5
9A
330
70
100
AcDbEntity
  8
レイヤー 1
 62
   250
420
  2299925
370
     9
100
AcDbLine
 10
134.8170883604681
 20
-185.3200732043371
 30
0.0
 11
134.8170883604681
 21
-187.3198322694618
 31
0.0
  0
LINE
  5
9B
330
70
100
AcDbEntity
  8
レイヤー 1
 62
   250
420
  2299925
370
     9
100
AcDbLine
 10
131.3571498376274
 20
-185.3200732599685
 30
0.0
 11
135.8171807942392
 21
-185.3200732599685
 31
0.0
  0
LINE
  5
9C
330
70
100
AcDbEntity
  8
レイヤー 1
 62
   250
420
  2299925
370
     9
100
AcDbLine
 10
131.3571498376274
 20
-187.3198322694618
 30
0.0
 11
135.8171807942392
 21
-187.3198322694618
 31
0.0
  0
INSERT
  5
9E
330
70
100
AcDbEntity
  8
レイヤー 1
100
AcDbBlockReference
  2
Block_2
 10
0.0
 20
0.0
 30
0.0
  0
LINE
  5
A3
330
70
100
AcDbEntity
  8
レイヤー 1
 62
   250
420
  2299925
370
     9
100
AcDbLine
 10
134.8170883604681
 20
-185.3200732043371
 30
0.0
 11
134.8170883604681
 21
-172.3423248613139
 31
0.0
  0
LINE
  5
A4
330
70
100
AcDbEntity
  8
レイヤー 1
 62
   250
420
  2299925
370
     9
100
AcDbLine
 10
130.3570601409196
 20
-172.3423249397475
 30
0.0
 11
135.8171807942392
 21
-172.3423249397475
 31
0.0
  0
LINE
  5
A5
330
70
100
AcDbEntity
  8
レイヤー 1
 62
   250
420
  2299925
370
     9
100
AcDbLine
 10
130.3570601409196
 20
-171.1423249234906
 30
0.0
 11
135.8171807942392
 21
-171.1423249234906
 31
0.0
  0
CIRCLE
  5
A6
330
70
100
AcDbEntity
  8
レイヤー 1
 62
   250
420
  2299925
370
     9
100
AcDbCircle
 10
134.8170883604681
 20
-111.1423266339116
 30
0.0
 40
0.0999066641178353
  0
LINE
  5
A7
330
70
100
AcDbEntity
  8
レイヤー 1
 62
   250
420
  2299925
370
     9
100
AcDbLine
 10
107.3880851069949
 20
-111.1423266339116
 30
0.0
 11
135.8171807942392
 21
-111.1423266339116
 31
0.0
  0
INSERT
  5
A9
330
70
100
AcDbEntity
  8
レイヤー 1
100
AcDbBlockReference
  2
Block_3
 10
0.0
 20
0.0
 30
0.0
  0
INSERT
  5
B5
330
70
100
AcDbEntity
  8
レイヤー 1
100
AcDbBlockReference
  2
Block_5
 10
0.0
 20
0.0
 30
0.0
  0
INSERT
  5
C3
330
70
100
AcDbEntity
  8
レイヤー 1
100
AcDbBlockReference
  2
Block_7
 10
0.0
 20
0.0
 30
0.0
  0
LINE
  5
D0
330
70
100
AcDbEntity
  8
レイヤー 1
 62
   250
420
  2299925
370
     9
100
AcDbLine
 10
134.8170883604681
 20
-171.1423249234906
 30
0.0
 11
134.8170883604681
 21
-111.1423266339116
 31
0.0
  0
LINE
  5
D1
330
70
100
AcDbEntity
  8
レイヤー 1
 62
   250
420
  2299925
370
     9
100
AcDbLine
 10
81.21922516685783
 20
-108.6081096100662
 30
0.0
 11
104.2176692360816
 21
-108.6081096100662
 31
0.0
  0
INSERT
  5
D3
330
70
100
AcDbEntity
  8
レイヤー 1
100
AcDbBlockReference
  2
Block_9
 10
0.0
 20
0.0
 30
0.0
  0
LINE
  5
DE
330
70
100
AcDbEntity
  8
レイヤー 1
 62
   250
420
  2299925
370
     9
100
AcDbLine
 10
77.7195013798856
 20
-108.6081096100662
 30
0.0
 11
81.21922516685783
 21
-108.6081096100662
 31
0.0
  0
LINE
  5
DF
330
70
100
AcDbEntity
  8
レイヤー 1
 62
   250
420
  2299925
370
     9
100
AcDbLine
 10
77.7195013798856
 20
-156.9830037844755
 30
0.0
 11
77.7195013798856
 21
-107.6076671355896
 31
0.0
  0
LINE
  5
E0
330
70
100
AcDbEntity
  8
レイヤー 1
 62
   250
420
  2299925
370
     9
100
AcDbLine
 10
81.21922515295029
 20
-156.9830037844755
 30
0.0
 11
81.21922515295029
 21
-107.6076671355896
 31
0.0
  0
LINE
  5
E1
330
70
100
AcDbEntity
  8
レイヤー 1
 62
   250
420
  2299925
370
     9
100
AcDbLine
 10
81.21922515295029
 20
-156.9830037844755
 30
0.0
 11
81.21922515295029
 21
-107.6076671355896
 31
0.0
  0
LINE
  5
E2
330
70
100
AcDbEntity
  8
レイヤー 1
 62
   250
420
  2299925
370
     9
100
AcDbLine
 10
104.2192262916094
 20
-110.0681509617064
 30
0.0
 11
104.2192262916094
 21
-107.6076671355896
 31
0.0
  0
INSERT
  5
E4
330
70
100
AcDbEntity
  8
レイヤー 1
100
AcDbBlockReference
  2
Block_11
 10
0.0
 20
0.0
 30
0.0
  0
LINE
  5
F1
330
70
100
AcDbEntity
  8
レイヤー 1
 62
   250
420
  2299925
370
     9
100
AcDbLine
 10
77.7266210195987
 20
-189.859549982446
 30
0.0
 11
77.7266210195987
 21
-192.3200338085627
 31
0.0
  0
LINE
  5
F2
330
70
100
AcDbEntity
  8
レイヤー 1
 62
   250
420
  2299925
370
     9
100
AcDbLine
 10
81.72662112986037
 20
-189.859549982446
 30
0.0
 11
81.72662112986037
 21
-192.3200338085627
 31
0.0
  0
LINE
  5
F3
330
70
100
AcDbEntity
  8
レイヤー 1
 62
   250
420
  2299925
370
     9
100
AcDbLine
 10
127.7266233943037
 20
-189.859549982446
 30
0.0
 11
127.7266233943037
 21
-192.3200338085627
 31
0.0
  0
INSERT
  5
F5
330
70
100
AcDbEntity
  8
レイヤー 1
100
AcDbBlockReference
  2
Block_13
 10
0.0
 20
0.0
 30
0.0
  0
INSERT
  5
103
330
70
100
AcDbEntity
  8
レイヤー 1
100
AcDbBlockReference
  2
Block_15
 10
0.0
 20
0.0
 30
0.0
  0
LWPOLYLINE
  5
109
330
70
100
AcDbEntity
  8
レイヤー 1
 62
   250
420
  2299925
370
    25
100
AcDbPolyline
 90
       20
 70
     1
 43
0.0
 10
127.718709368903
 20
-172.3423186650802
 10
127.718709368903
 20
-171.1423273120273
 10
105.3880851074954
 20
-171.1423273120273
 10
105.3880851074954
 20
-111.1434056147871
 10
104.1880722225957
 20
-111.1434056147871
 10
104.1880722225957
 20
-171.1423273120273
 10
78.89129590242255
 20
-171.1423273120273
 10
78.89129590242255
 20
-160.0357880759799
 10
81.18891620892281
 20
-160.0357880759799
 10
81.18891620892281
 20
-158.8357751910803
 10
77.68891451437679
 20
-158.8357751910803
 10
77.68891451437679
 20
-160.0357880759799
 10
77.69130454936969
 20
-159.0357880762301
 10
77.69130454936969
 20
-186.3367056312539
 10
77.69472811300815
 20
-187.3367056310036
 10
77.69472811300815
 20
-187.342325443014
 10
81.69474235354462
 20
-187.342325443014
 10
81.69474235354462
 20
-185.3423183227457
 10
78.89129590242255
 20
-185.3423183227457
 10
78.89129590242255
 20
-172.3423186650802
  0
LINE
  5
10A
330
70
100
AcDbEntity
  8
レイヤー 1
 62
   250
420
  2299925
370
    25
100
AcDbLine
 10
78.89129590242255
 20
-185.3423183227457
 30
0.0
 11
78.89129590242255
 21
-172.3423186650802
 31
0.0
  0
LWPOLYLINE
  5
10B
330
70
100
AcDbEntity
  8
レイヤー 1
 62
   250
420
  2299925
370
     9
100
AcDbPolyline
 90
        1
 70
     0
 43
0.0
 10
77.7266210195987
 20
-191.3195913340862
  0
LINE
  5
10C
330
70
100
AcDbEntity
  8
レイヤー 1
 62
   250
420
  2299925
370
     9
100
AcDbLine
 10
127.7266233943037
 20
-191.3195913340862
 30
0.0
 11
81.73230413896146
 21
-191.3195913340862
 31
0.0
  0
LINE
  5
10D
330
70
100
AcDbEntity
  8
レイヤー 1
 62
   250
420
  2299925
370
     9
100
AcDbLine
 10
81.73230413896146
 20
-191.3195913340862
 30
0.0
 11
77.7266210195987
 21
-191.3195913340862
 31
0.0
  0
LINE
  5
10E
330
70
100
AcDbEntity
  8
レイヤー 1
 62
   250
420
  2299925
370
     9
100
AcDbLine
 10
134.8170883604681
 20
-171.1423249234906
 30
0.0
 11
134.8170883604681
 21
-172.3423248613139
 31
0.0
  0
ENDSEC
  0
SECTION
  2
OBJECTS
  0
DICTIONARY
  5
C
330
0
100
AcDbDictionary
281
     1
  3
ACAD_COLOR
350
63
  3
ACAD_DETAILVIEWSTYLE
350
6A
  3
ACAD_GROUP
350
D
  3
ACAD_LAYOUT
350
62
  3
ACAD_MATERIAL
350
10
  3
ACAD_MLEADERSTYLE
350
66
  3
ACAD_MLINESTYLE
350
5F
  3
ACAD_PLOTSETTINGS
350
61
  3
ACAD_PLOTSTYLENAME
350
E
  3
ACAD_SCALELIST
350
42
  3
ACAD_SECTIONVIEWSTYLE
350
68
  3
ACAD_TABLESTYLE
350
64
  3
ACAD_VISUALSTYLE
350
29
  3
ACDB_RECOMPOSE_DATA
350
117
  3
AcDbVariableDictionary
350
10F
  0
DICTIONARY
  5
63
102
{ACAD_REACTORS
330
C
102
}
330
C
100
AcDbDictionary
281
     1
  0
DICTIONARY
  5
6A
102
{ACAD_REACTORS
330
C
102
}
330
C
100
AcDbDictionary
281
     1
  3
Imperial24
350
6B
  0
DICTIONARY
  5
D
102
{ACAD_REACTORS
330
C
102
}
330
C
100
AcDbDictionary
281
     1
  0
DICTIONARY
  5
62
102
{ACAD_REACTORS
330
C
102
}
330
C
100
AcDbDictionary
281
     1
  3
Layout1
350
6F
  3
Layout2
350
77
  3
Model
350
73
  0
DICTIONARY
  5
10
102
{ACAD_REACTORS
330
C
102
}
330
C
100
AcDbDictionary
281
     1
  3
ByBlock
350
19
  3
ByLayer
350
11
  3
Global
350
21
  0
DICTIONARY
  5
66
102
{ACAD_REACTORS
330
C
102
}
330
C
100
AcDbDictionary
281
     1
  3
Standard
350
67
  0
DICTIONARY
  5
5F
102
{ACAD_REACTORS
330
C
102
}
330
C
100
AcDbDictionary
281
     1
  3
Standard
350
60
  0
DICTIONARY
  5
61
102
{ACAD_REACTORS
330
C
102
}
330
C
100
AcDbDictionary
281
     1
  0
ACDBDICTIONARYWDFLT
  5
E
102
{ACAD_REACTORS
330
C
102
}
330
C
100
AcDbDictionary
281
     1
  3
Normal
350
F
100
AcDbDictionaryWithDefault
340
F
  0
DICTIONARY
  5
42
102
{ACAD_REACTORS
330
C
102
}
330
C
100
AcDbDictionary
281
     1
  3
A0
350
43
  3
A1
350
44
  3
A2
350
45
  3
A3
350
46
  3
A4
350
47
  3
A5
350
48
  3
A6
350
49
  3
A7
350
4A
  3
A8
350
4B
  3
A9
350
4C
  3
B0
350
4D
  3
B1
350
4E
  3
B2
350
4F
  3
B3
350
50
  3
B4
350
51
  3
B5
350
52
  3
B6
350
53
  0
DICTIONARY
  5
68
102
{ACAD_REACTORS
330
C
102
}
330
C
100
AcDbDictionary
281
     1
  3
Imperial24
350
69
  0
DICTIONARY
  5
64
102
{ACAD_REACTORS
330
C
102
}
330
C
100
AcDbDictionary
281
     1
  3
Standard
350
65
  0
DICTIONARY
  5
29
102
{ACAD_REACTORS
330
C
102
}
330
C
100
AcDbDictionary
281
     1
  3
2dWireframe
350
2F
  3
Basic
350
2E
  3
Brighten
350
35
  3
ColorChange
350
39
  3
Conceptual
350
32
  3
Dim
350
34
  3
EdgeColorOff
350
41
  3
Facepattern
350
38
  3
Flat
350
2A
  3
FlatWithEdges
350
2B
  3
Gouraud
350
2C
  3
GouraudWithEdges
350
2D
  3
Hidden
350
31
  3
JitterOff
350
3F
  3
Linepattern
350
37
  3
OverhangOff
350
40
  3
Realistic
350
33
  3
Shaded
350
3E
  3
Shaded with edges
350
3D
  3
Shades of Gray
350
3A
  3
Sketchy
350
3B
  3
Thicken
350
36
  3
Wireframe
350
30
  3
X-Ray
350
3C
  0
XRECORD
  5
117
102
{ACAD_REACTORS
330
C
102
}
330
C
100
AcDbXrecord
280
     1
 90
        1
330
65
  0
DICTIONARY
  5
10F
102
{ACAD_REACTORS
330
C
102
}
330
C
100
AcDbDictionary
281
     1
  3
CANNOSCALE
350
114
  3
CMLEADERSTYLE
350
111
  3
CTABLESTYLE
350
110
  3
CVIEWDETAILSTYLE
350
112
  3
CVIEWSECTIONSTYLE
350
113
  0
ACDBDETAILVIEWSTYLE
  5
6B
102
{ACAD_XDICTIONARY
360
14C
102
}
102
{ACAD_REACTORS
330
6A
102
}
330
6A
100
AcDbModelDocViewStyle
 70
     0
  3
Imperial24
290
     0
100
AcDbDetailViewStyle
 70
     0
 71
     0
 90
        3
 71
     1
340
55
 62
   256
 40
0.24
340
0
 62
   256
 40
0.24
300

 40
0.36
280
     3
 71
     2
340
5D
 90
       25
 62
   256
 71
     3
340
55
 62
   256
 40
0.24
 90
        1
 40
0.75
 90
        1
300
%<\AcVar ViewType \f "%tc1">% %<\AcVar ViewDetailId>%\PSCALE %<\AcVar ViewScale \f "%sn">%
 71
     4
340
5D
 90
       25
 62
   256
340
5D
 90
       25
 62
   256
280
     0
  0
LAYOUT
  5
6F
102
{ACAD_REACTORS
330
62
102
}
330
62
100
AcDbPlotSettings
  1

  2

  4

  6

 40
0.0
 41
0.0
 42
0.0
 43
0.0
 44
0.0
 45
0.0
 46
0.0
 47
0.0
 48
0.0
 49
0.0
140
0.0
141
0.0
142
1.0
143
1.0
 70
   688
 72
     0
 73
     0
 74
     5
  7

 75
    16
147
1.0
 76
     0
 77
     2
 78
   300
148
0.0
149
0.0
100
AcDbLayout
  1
Layout1
 70
     1
 71
     1
 10
0.0
 20
0.0
 11
12.0
 21
9.0
 12
0.0
 22
0.0
 32
0.0
 14
0.0
 24
0.0
 34
0.0
 15
0.0
 25
0.0
 35
0.0
146
0.0
 13
0.0
 23
0.0
 33
0.0
 16
1.0
 26
0.0
 36
0.0
 17
0.0
 27
1.0
 37
0.0
 76
     0
330
6C
  0
LAYOUT
  5
77
102
{ACAD_REACTORS
330
62
102
}
330
62
100
AcDbPlotSettings
  1

  2

  4

  6

 40
0.0
 41
0.0
 42
0.0
 43
0.0
 44
0.0
 45
0.0
 46
0.0
 47
0.0
 48
0.0
 49
0.0
140
0.0
141
0.0
142
1.0
143
1.0
 70
   688
 72
     0
 73
     0
 74
     5
  7

 75
    16
147
1.0
 76
     0
 77
     2
 78
   300
148
0.0
149
0.0
100
AcDbLayout
  1
Layout2
 70
     1
 71
     2
 10
0.0
 20
0.0
 11
12.0
 21
9.0
 12
0.0
 22
0.0
 32
0.0
 14
0.0
 24
0.0
 34
0.0
 15
0.0
 25
0.0
 35
0.0
146
0.0
 13
0.0
 23
0.0
 33
0.0
 16
1.0
 26
0.0
 36
0.0
 17
0.0
 27
1.0
 37
0.0
 76
     0
330
74
  0
LAYOUT
  5
73
102
{ACAD_REACTORS
330
62
102
}
330
62
100
AcDbPlotSettings
  1

  2

  4

  6

 40
0.0
 41
0.0
 42
0.0
 43
0.0
 44
0.0
 45
0.0
 46
0.0
 47
0.0
 48
0.0
 49
0.0
140
0.0
141
0.0
142
1.0
143
1.0
 70
  1712
 72
     0
 73
     0
 74
     0
  7

 75
     0
147
1.0
 76
     0
 77
     2
 78
   300
148
0.0
149
0.0
100
AcDbLayout
  1
Model
 70
     1
 71
     0
 10
0.0
 20
0.0
 11
12.0
 21
9.0
 12
0.0
 22
0.0
 32
0.0
 14
0.0
 24
0.0
 34
0.0
 15
0.0
 25
0.0
 35
0.0
146
0.0
 13
0.0
 23
0.0
 33
0.0
 16
1.0
 26
0.0
 36
0.0
 17
0.0
 27
1.0
 37
0.0
 76
     0
330
70
  0
MATERIAL
  5
19
102
{ACAD_XDICTIONARY
360
1A
102
}
102
{ACAD_REACTORS
330
10
102
}
330
10
100
AcDbMaterial
  1
ByBlock
 72
     0
 43
0.0208333333333333
 43
0.0
 43
0.0
 43
0.0
 43
0.0
 43
0.0208333333333333
 43
0.0
 43
0.0
 43
0.0
 43
0.0
 43
1.0
 43
0.0
 43
0.0
 43
0.0
 43
0.0
 43
1.0
 77
     0
 47
0.0208333333333333
 47
0.0
 47
0.0
 47
0.0
 47
0.0
 47
0.0208333333333333
 47
0.0
 47
0.0
 47
0.0
 47
0.0
 47
1.0
 47
0.0
 47
0.0
 47
0.0
 47
0.0
 47
1.0
171
     0
 49
0.0208333333333333
 49
0.0
 49
0.0
 49
0.0
 49
0.0
 49
0.0208333333333333
 49
0.0
 49
0.0
 49
0.0
 49
0.0
 49
1.0
 49
0.0
 49
0.0
 49
0.0
 49
0.0
 49
1.0
175
     0
142
0.0208333333333333
142
0.0
142
0.0
142
0.0
142
0.0
142
0.0208333333333333
142
0.0
142
0.0
142
0.0
142
0.0
142
1.0
142
0.0
142
0.0
142
0.0
142
0.0
142
1.0
179
     0
144
0.0208333333333333
144
0.0
144
0.0
144
0.0
144
0.0
144
0.0208333333333333
144
0.0
144
0.0
144
0.0
144
0.0
144
1.0
144
0.0
144
0.0
144
0.0
144
0.0
144
1.0
147
0.0208333333333333
147
0.0
147
0.0
147
0.0
147
0.0
147
0.0208333333333333
147
0.0
147
0.0
147
0.0
147
0.0
147
1.0
147
0.0
147
0.0
147
0.0
147
0.0
147
1.0
  0
MATERIAL
  5
11
102
{ACAD_XDICTIONARY
360
12
102
}
102
{ACAD_REACTORS
330
10
102
}
330
10
100
AcDbMaterial
  1
ByLayer
 72
     0
 43
0.0208333333333333
 43
0.0
 43
0.0
 43
0.0
 43
0.0
 43
0.0208333333333333
 43
0.0
 43
0.0
 43
0.0
 43
0.0
 43
1.0
 43
0.0
 43
0.0
 43
0.0
 43
0.0
 43
1.0
 77
     0
 47
0.0208333333333333
 47
0.0
 47
0.0
 47
0.0
 47
0.0
 47
0.0208333333333333
 47
0.0
 47
0.0
 47
0.0
 47
0.0
 47
1.0
 47
0.0
 47
0.0
 47
0.0
 47
0.0
 47
1.0
171
     0
 49
0.0208333333333333
 49
0.0
 49
0.0
 49
0.0
 49
0.0
 49
0.0208333333333333
 49
0.0
 49
0.0
 49
0.0
 49
0.0
 49
1.0
 49
0.0
 49
0.0
 49
0.0
 49
0.0
 49
1.0
175
     0
142
0.0208333333333333
142
0.0
142
0.0
142
0.0
142
0.0
142
0.0208333333333333
142
0.0
142
0.0
142
0.0
142
0.0
142
1.0
142
0.0
142
0.0
142
0.0
142
0.0
142
1.0
179
     0
144
0.0208333333333333
144
0.0
144
0.0
144
0.0
144
0.0
144
0.0208333333333333
144
0.0
144
0.0
144
0.0
144
0.0
144
1.0
144
0.0
144
0.0
144
0.0
144
0.0
144
1.0
147
0.0208333333333333
147
0.0
147
0.0
147
0.0
147
0.0
147
0.0208333333333333
147
0.0
147
0.0
147
0.0
147
0.0
147
1.0
147
0.0
147
0.0
147
0.0
147
0.0
147
1.0
  0
MATERIAL
  5
21
102
{ACAD_XDICTIONARY
360
22
102
}
102
{ACAD_REACTORS
330
10
102
}
330
10
100
AcDbMaterial
  1
Global
 72
     0
 43
0.0208333333333333
 43
0.0
 43
0.0
 43
0.0
 43
0.0
 43
0.0208333333333333
 43
0.0
 43
0.0
 43
0.0
 43
0.0
 43
1.0
 43
0.0
 43
0.0
 43
0.0
 43
0.0
 43
1.0
 77
     0
 47
0.0208333333333333
 47
0.0
 47
0.0
 47
0.0
 47
0.0
 47
0.0208333333333333
 47
0.0
 47
0.0
 47
0.0
 47
0.0
 47
1.0
 47
0.0
 47
0.0
 47
0.0
 47
0.0
 47
1.0
171
     0
 49
0.0208333333333333
 49
0.0
 49
0.0
 49
0.0
 49
0.0
 49
0.0208333333333333
 49
0.0
 49
0.0
 49
0.0
 49
0.0
 49
1.0
 49
0.0
 49
0.0
 49
0.0
 49
0.0
 49
1.0
175
     0
142
0.0208333333333333
142
0.0
142
0.0
142
0.0
142
0.0
142
0.0208333333333333
142
0.0
142
0.0
142
0.0
142
0.0
142
1.0
142
0.0
142
0.0
142
0.0
142
0.0
142
1.0
179
     0
144
0.0208333333333333
144
0.0
144
0.0
144
0.0
144
0.0
144
0.0208333333333333
144
0.0
144
0.0
144
0.0
144
0.0
144
1.0
144
0.0
144
0.0
144
0.0
144
0.0
144
1.0
147
0.0208333333333333
147
0.0
147
0.0
147
0.0
147
0.0
147
0.0208333333333333
147
0.0
147
0.0
147
0.0
147
0.0
147
1.0
147
0.0
147
0.0
147
0.0
147
0.0
147
1.0
  0
MLEADERSTYLE
  5
67
102
{ACAD_XDICTIONARY
360
148
102
}
102
{ACAD_REACTORS
330
66
102
}
330
66
100
AcDbMLeaderStyle
179
     2
170
     2
171
     1
172
     0
 90
        2
 40
0.0
 41
0.0
173
     1
 91
-1056964608
340
5B
 92
       -2
290
     1
 42
0.09
291
     1
 43
0.36
  3
Standard
 44
0.18
300

342
55
174
     1
178
     6
175
     1
176
     0
 93
-1056964608
 45
0.18
292
     0
297
     0
 46
0.18
 94
-1056964608
 47
1.0
 49
1.0
140
1.0
293
     1
141
0.0
294
     1
177
     0
142
1.0
295
     0
296
     0
143
0.125
271
     0
272
     9
273
     9
  0
MLINESTYLE
  5
60
102
{ACAD_REACTORS
330
5F
102
}
330
5F
100
AcDbMlineStyle
  2
STANDARD
 70
     0
  3

 62
   256
 51
90.0
 52
90.0
 71
     2
 49
0.5
 62
   256
  6
BYLAYER
 49
-0.5
 62
   256
  6
BYLAYER
  0
ACDBPLACEHOLDER
  5
F
102
{ACAD_REACTORS
330
E
102
}
330
E
  0
SCALE
  5
43
102
{ACAD_REACTORS
330
42
102
}
330
42
100
AcDbScale
 70
     0
300
1:1
140
1.0
141
1.0
290
     1
  0
SCALE
  5
44
102
{ACAD_REACTORS
330
42
102
}
330
42
100
AcDbScale
 70
     0
300
1/128" = 1'-0"
140
0.0078125
141
12.0
290
     0
  0
SCALE
  5
45
102
{ACAD_REACTORS
330
42
102
}
330
42
100
AcDbScale
 70
     0
300
1/64" = 1'-0"
140
0.015625
141
12.0
290
     0
  0
SCALE
  5
46
102
{ACAD_REACTORS
330
42
102
}
330
42
100
AcDbScale
 70
     0
300
1/32" = 1'-0"
140
0.03125
141
12.0
290
     0
  0
SCALE
  5
47
102
{ACAD_REACTORS
330
42
102
}
330
42
100
AcDbScale
 70
     0
300
1/16" = 1'-0"
140
0.0625
141
12.0
290
     0
  0
SCALE
  5
48
102
{ACAD_REACTORS
330
42
102
}
330
42
100
AcDbScale
 70
     0
300
3/32" = 1'-0"
140
0.09375
141
12.0
290
     0
  0
SCALE
  5
49
102
{ACAD_REACTORS
330
42
102
}
330
42
100
AcDbScale
 70
     0
300
1/8" = 1'-0"
140
0.125
141
12.0
290
     0
  0
SCALE
  5
4A
102
{ACAD_REACTORS
330
42
102
}
330
42
100
AcDbScale
 70
     0
300
3/16" = 1'-0"
140
0.1875
141
12.0
290
     0
  0
SCALE
  5
4B
102
{ACAD_REACTORS
330
42
102
}
330
42
100
AcDbScale
 70
     0
300
1/4" = 1'-0"
140
0.25
141
12.0
290
     0
  0
SCALE
  5
4C
102
{ACAD_REACTORS
330
42
102
}
330
42
100
AcDbScale
 70
     0
300
3/8" = 1'-0"
140
0.375
141
12.0
290
     0
  0
SCALE
  5
4D
102
{ACAD_REACTORS
330
42
102
}
330
42
100
AcDbScale
 70
     0
300
1/2" = 1'-0"
140
0.5
141
12.0
290
     0
  0
SCALE
  5
4E
102
{ACAD_REACTORS
330
42
102
}
330
42
100
AcDbScale
 70
     0
300
3/4" = 1'-0"
140
0.75
141
12.0
290
     0
  0
SCALE
  5
4F
102
{ACAD_REACTORS
330
42
102
}
330
42
100
AcDbScale
 70
     0
300
1" = 1'-0"
140
1.0
141
12.0
290
     0
  0
SCALE
  5
50
102
{ACAD_REACTORS
330
42
102
}
330
42
100
AcDbScale
 70
     0
300
1-1/2" = 1'-0"
140
1.5
141
12.0
290
     0
  0
SCALE
  5
51
102
{ACAD_REACTORS
330
42
102
}
330
42
100
AcDbScale
 70
     0
300
3" = 1'-0"
140
3.0
141
12.0
290
     0
  0
SCALE
  5
52
102
{ACAD_REACTORS
330
42
102
}
330
42
100
AcDbScale
 70
     0
300
6" = 1'-0"
140
6.0
141
12.0
290
     0
  0
SCALE
  5
53
102
{ACAD_REACTORS
330
42
102
}
330
42
100
AcDbScale
 70
     0
300
1'-0" = 1'-0"
140
12.0
141
12.0
290
     0
  0
ACDBSECTIONVIEWSTYLE
  5
69
102
{ACAD_XDICTIONARY
360
14A
102
}
102
{ACAD_REACTORS
330
68
102
}
330
68
100
AcDbModelDocViewStyle
 70
     0
  3
Imperial24
290
     0
100
AcDbSectionViewStyle
 70
     0
 71
     0
 90
       78
 71
     1
340
55
 62
   256
 40
0.24
340
0
340
0
 62
   256
 40
0.24
300
I, O, Q, S, X, Z
 40
0.48
 90
        3
 40
0.18
 90
        1
 71
     2
340
5D
 90
       25
 62
   256
340
5D
 90
       50
 62
   256
 40
0.24
 40
0.0
 40
0.24
 71
     3
340
55
 62
   256
 40
0.24
 90
        1
 40
0.75
 90
        1
300
%<\AcVar ViewType \f "%tc1">% %<\AcVar ViewSectionStartId>%-%<\AcVar ViewSectionEndId>%\PSCALE %<\AcVar ViewScale \f "%sn">%
 71
     4
 62
   256
 62
   257
300
ANSI31
 40
1.0
 90
        0
290
     0
290
     0
 90
        6
 40
0.0
 40
1.570796326794896
 40
0.2617993877991494
 40
1.308996938995747
 40
-0.2617993877991494
 40
1.832595714594046
  0
TABLESTYLE
  5
65
102
{ACAD_XDICTIONARY
360
115
102
}
102
{ACAD_REACTORS
330
64
102
}
330
64
100
AcDbTableStyle
280
     0
  3
Standard
 70
     0
 71
     0
 40
0.06
 41
0.06
280
     0
281
     0
  7
Standard
140
0.18
170
     2
 62
     0
 63
     7
283
     0
 90
      512
 91
        0
  1

274
    -2
284
     1
 64
     0
275
    -2
285
     1
 65
     0
276
    -2
286
     1
 66
     0
277
    -2
287
     1
 67
     0
278
    -2
288
     1
 68
     0
279
    -2
289
     1
 69
     0
  7
Standard
140
0.25
170
     5
 62
     0
 63
     7
283
     0
 90
      512
 91
        0
  1

274
    -2
284
     1
 64
     0
275
    -2
285
     1
 65
     0
276
    -2
286
     1
 66
     0
277
    -2
287
     1
 67
     0
278
    -2
288
     1
 68
     0
279
    -2
289
     1
 69
     0
  7
Standard
140
0.18
170
     5
 62
     0
 63
     7
283
     0
 90
      512
 91
        0
  1

274
    -2
284
     1
 64
     0
275
    -2
285
     1
 65
     0
276
    -2
286
     1
 66
     0
277
    -2
287
     1
 67
     0
278
    -2
288
     1
 68
     0
279
    -2
289
     1
 69
     0
  0
VISUALSTYLE
  5
2F
102
{ACAD_XDICTIONARY
360
122
102
}
102
{ACAD_REACTORS
330
29
102
}
330
29
100
AcDbVisualStyle
  2
2dWireframe
 70
     4
177
     2
291
     0
 71
     0
176
     1
 72
     2
176
     1
 73
     0
176
     1
 90
        0
176
     1
 40
0.6
176
     1
 41
30.0
176
     1
 63
     7
421
 16777215
176
     1
 74
     1
176
     1
 91
        4
176
     1
 64
     7
176
     1
 65
   257
176
     1
 75
     1
176
     1
175
     1
176
     1
 42
1.0
176
     1
 92
        0
176
     1
 66
   257
176
     1
 43
1.0
176
     1
 76
     1
176
     1
 77
     6
176
     1
 78
     2
176
     1
 67
     7
176
     1
 79
     5
176
     1
170
     0
176
     1
171
     0
176
     1
290
     0
176
     1
 93
        1
176
     1
 44
0.0
176
     1
173
     0
176
     1
1001
ACAD
1000
AcDbSavedByObjectVersion
1070
     0
  0
VISUALSTYLE
  5
2E
102
{ACAD_XDICTIONARY
360
120
102
}
102
{ACAD_REACTORS
330
29
102
}
330
29
100
AcDbVisualStyle
  2
Basic
 70
     7
177
     2
291
     1
 71
     1
176
     1
 72
     0
176
     1
 73
     1
176
     1
 90
        0
176
     1
 40
0.6
176
     1
 41
30.0
176
     1
 63
     7
421
 16777215
176
     1
 74
     0
176
     1
 91
        4
176
     1
 64
     7
176
     1
 65
   257
176
     1
 75
     1
176
     1
175
     1
176
     1
 42
1.0
176
     1
 92
        8
176
     1
 66
     7
176
     1
 43
1.0
176
     1
 76
     1
176
     1
 77
     6
176
     1
 78
     2
176
     1
 67
     7
176
     1
 79
     5
176
     1
170
     0
176
     1
171
     0
176
     1
290
     0
176
     1
 93
        1
176
     1
 44
0.0
176
     1
173
     0
176
     1
1001
ACAD
1000
AcDbSavedByObjectVersion
1070
     0
  0
VISUALSTYLE
  5
35
102
{ACAD_XDICTIONARY
360
12E
102
}
102
{ACAD_REACTORS
330
29
102
}
330
29
100
AcDbVisualStyle
  2
Brighten
 70
    12
177
     2
291
     1
 71
     2
176
     1
 72
     2
176
     1
 73
     0
176
     1
 90
        0
176
     1
 40
0.6
176
     1
 41
30.0
176
     1
 63
     7
421
 16777215
176
     1
 74
     1
176
     1
 91
        4
176
     1
 64
     7
176
     1
 65
   257
176
     1
 75
     1
176
     1
175
     1
176
     1
 42
1.0
176
     1
 92
        8
176
     1
 66
     7
176
     1
 43
1.0
176
     1
 76
     1
176
     1
 77
     6
176
     1
 78
     2
176
     1
 67
     7
176
     1
 79
     5
176
     1
170
     0
176
     1
171
     0
176
     1
290
     0
176
     1
 93
        1
176
     1
 44
50.0
176
     1
173
     0
176
     1
1001
ACAD
1000
AcDbSavedByObjectVersion
1070
     0
  0
VISUALSTYLE
  5
39
102
{ACAD_XDICTIONARY
360
136
102
}
102
{ACAD_REACTORS
330
29
102
}
330
29
100
AcDbVisualStyle
  2
ColorChange
 70
    16
177
     2
291
     1
 71
     2
176
     1
 72
     2
176
     1
 73
     3
176
     1
 90
        0
176
     1
 40
0.6
176
     1
 41
30.0
176
     1
 63
     8
421
  8421504
176
     1
 74
     1
176
     1
 91
        4
176
     1
 64
     7
176
     1
 65
   257
176
     1
 75
     1
176
     1
175
     1
176
     1
 42
1.0
176
     1
 92
        8
176
     1
 66
     8
424
  8421504
176
     1
 43
1.0
176
     1
 76
     1
176
     1
 77
     6
176
     1
 78
     2
176
     1
 67
     7
176
     1
 79
     5
176
     1
170
     0
176
     1
171
     0
176
     1
290
     0
176
     1
 93
        1
176
     1
 44
0.0
176
     1
173
     0
176
     1
1001
ACAD
1000
AcDbSavedByObjectVersion
1070
     0
  0
VISUALSTYLE
  5
32
102
{ACAD_XDICTIONARY
360
128
102
}
102
{ACAD_REACTORS
330
29
102
}
330
29
100
AcDbVisualStyle
  2
Conceptual
 70
     9
177
     2
291
     0
 71
     3
176
     1
 72
     2
176
     1
 73
     0
176
     1
 90
        0
176
     1
 40
0.6
176
     1
 41
30.0
176
     1
 63
     7
421
 16777215
176
     1
 74
     2
176
     1
 91
        2
176
     1
 64
     7
176
     1
 65
   257
176
     1
 75
     1
176
     1
175
     1
176
     1
 42
179.0
176
     1
 92
        8
176
     1
 66
     7
176
     1
 43
1.0
176
     1
 76
     1
176
     1
 77
     6
176
     1
 78
     2
176
     1
 67
     7
176
     1
 79
     3
176
     1
170
     0
176
     1
171
     0
176
     1
290
     0
176
     1
 93
        1
176
     1
 44
0.0
176
     1
173
     0
176
     1
1001
ACAD
1000
AcDbSavedByObjectVersion
1070
     0
  0
VISUALSTYLE
  5
34
102
{ACAD_XDICTIONARY
360
12C
102
}
102
{ACAD_REACTORS
330
29
102
}
330
29
100
AcDbVisualStyle
  2
Dim
 70
    11
177
     2
291
     1
 71
     2
176
     1
 72
     2
176
     1
 73
     0
176
     1
 90
        0
176
     1
 40
0.6
176
     1
 41
30.0
176
     1
 63
     7
421
 16777215
176
     1
 74
     1
176
     1
 91
        4
176
     1
 64
     7
176
     1
 65
   257
176
     1
 75
     1
176
     1
175
     1
176
     1
 42
1.0
176
     1
 92
        8
176
     1
 66
     7
176
     1
 43
1.0
176
     1
 76
     1
176
     1
 77
     6
176
     1
 78
     2
176
     1
 67
     7
176
     1
 79
     5
176
     1
170
     0
176
     1
171
     0
176
     1
290
     0
176
     1
 93
        1
176
     1
 44
-50.0
176
     1
173
     0
176
     1
1001
ACAD
1000
AcDbSavedByObjectVersion
1070
     0
  0
VISUALSTYLE
  5
41
102
{ACAD_XDICTIONARY
360
146
102
}
102
{ACAD_REACTORS
330
29
102
}
330
29
100
AcDbVisualStyle
  2
EdgeColorOff
 70
    22
177
     2
291
     1
 71
     2
176
     0
 72
     2
176
     0
 73
     0
176
     0
 90
        0
176
     0
 40
0.6
176
     0
 41
30.0
176
     0
 63
     7
421
 16777215
176
     0
 74
     1
176
     0
 91
        4
176
     0
 64
     7
176
     0
 65
   257
176
     0
 75
     1
176
     0
175
     1
176
     0
 42
1.0
176
     0
 92
        8
176
     2
 66
     7
176
     0
 43
1.0
176
     0
 76
     1
176
     0
 77
     6
176
     0
 78
     2
176
     0
 67
     7
176
     0
 79
     5
176
     0
170
     0
176
     0
171
     0
176
     0
290
     0
176
     0
 93
        1
176
     0
 44
0.0
176
     0
173
     0
176
     0
1001
ACAD
1000
AcDbSavedByObjectVersion
1070
     0
  0
VISUALSTYLE
  5
38
102
{ACAD_XDICTIONARY
360
134
102
}
102
{ACAD_REACTORS
330
29
102
}
330
29
100
AcDbVisualStyle
  2
Facepattern
 70
    15
177
     2
291
     1
 71
     2
176
     1
 72
     2
176
     1
 73
     0
176
     1
 90
        0
176
     1
 40
0.6
176
     1
 41
30.0
176
     1
 63
     7
421
 16777215
176
     1
 74
     1
176
     1
 91
        4
176
     1
 64
     7
176
     1
 65
   257
176
     1
 75
     1
176
     1
175
     1
176
     1
 42
1.0
176
     1
 92
        8
176
     1
 66
     7
176
     1
 43
1.0
176
     1
 76
     1
176
     1
 77
     6
176
     1
 78
     2
176
     1
 67
     7
176
     1
 79
     5
176
     1
170
     0
176
     1
171
     0
176
     1
290
     0
176
     1
 93
        1
176
     1
 44
0.0
176
     1
173
     0
176
     1
1001
ACAD
1000
AcDbSavedByObjectVersion
1070
     0
  0
VISUALSTYLE
  5
2A
102
{ACAD_XDICTIONARY
360
118
102
}
102
{ACAD_REACTORS
330
29
102
}
330
29
100
AcDbVisualStyle
  2
Flat
 70
     0
177
     2
291
     1
 71
     2
176
     1
 72
     1
176
     1
 73
     1
176
     1
 90
        2
176
     1
 40
0.6
176
     1
 41
30.0
176
     1
 63
     7
421
 16777215
176
     1
 74
     0
176
     1
 91
        0
176
     1
 64
     7
176
     1
 65
   257
176
     1
 75
     1
176
     1
175
     1
176
     1
 42
1.0
176
     1
 92
        8
176
     1
 66
     7
176
     1
 43
1.0
176
     1
 76
     1
176
     1
 77
     6
176
     1
 78
     2
176
     1
 67
     7
176
     1
 79
     5
176
     1
170
     0
176
     1
171
     0
176
     1
290
     0
176
     1
 93
       13
176
     1
 44
0.0
176
     1
173
     0
176
     1
1001
ACAD
1000
AcDbSavedByObjectVersion
1070
     0
  0
VISUALSTYLE
  5
2B
102
{ACAD_XDICTIONARY
360
11A
102
}
102
{ACAD_REACTORS
330
29
102
}
330
29
100
AcDbVisualStyle
  2
FlatWithEdges
 70
     1
177
     2
291
     1
 71
     2
176
     1
 72
     1
176
     1
 73
     1
176
     1
 90
        2
176
     1
 40
0.6
176
     1
 41
30.0
176
     1
 63
     7
421
 16777215
176
     1
 74
     1
176
     1
 91
        0
176
     1
 64
     7
176
     1
 65
   257
176
     1
 75
     1
176
     1
175
     1
176
     1
 42
1.0
176
     1
 92
        0
176
     1
 66
   257
176
     1
 43
1.0
176
     1
 76
     1
176
     1
 77
     6
176
     1
 78
     2
176
     1
 67
     7
176
     1
 79
     5
176
     1
170
     0
176
     1
171
     0
176
     1
290
     0
176
     1
 93
       13
176
     1
 44
0.0
176
     1
173
     0
176
     1
1001
ACAD
1000
AcDbSavedByObjectVersion
1070
     0
  0
VISUALSTYLE
  5
2C
102
{ACAD_XDICTIONARY
360
11C
102
}
102
{ACAD_REACTORS
330
29
102
}
330
29
100
AcDbVisualStyle
  2
Gouraud
 70
     2
177
     2
291
     1
 71
     2
176
     1
 72
     2
176
     1
 73
     1
176
     1
 90
        2
176
     1
 40
0.6
176
     1
 41
30.0
176
     1
 63
     7
421
 16777215
176
     1
 74
     0
176
     1
 91
        0
176
     1
 64
     7
176
     1
 65
   257
176
     1
 75
     1
176
     1
175
     1
176
     1
 42
1.0
176
     1
 92
        0
176
     1
 66
     7
176
     1
 43
1.0
176
     1
 76
     1
176
     1
 77
     6
176
     1
 78
     2
176
     1
 67
     7
176
     1
 79
     5
176
     1
170
     0
176
     1
171
     0
176
     1
290
     0
176
     1
 93
       13
176
     1
 44
0.0
176
     1
173
     0
176
     1
1001
ACAD
1000
AcDbSavedByObjectVersion
1070
     0
  0
VISUALSTYLE
  5
2D
102
{ACAD_XDICTIONARY
360
11E
102
}
102
{ACAD_REACTORS
330
29
102
}
330
29
100
AcDbVisualStyle
  2
GouraudWithEdges
 70
     3
177
     2
291
     1
 71
     2
176
     1
 72
     2
176
     1
 73
     1
176
     1
 90
        2
176
     1
 40
0.6
176
     1
 41
30.0
176
     1
 63
     7
421
 16777215
176
     1
 74
     1
176
     1
 91
        0
176
     1
 64
     7
176
     1
 65
   257
176
     1
 75
     1
176
     1
175
     1
176
     1
 42
1.0
176
     1
 92
        0
176
     1
 66
   257
176
     1
 43
1.0
176
     1
 76
     1
176
     1
 77
     6
176
     1
 78
     2
176
     1
 67
     7
176
     1
 79
     5
176
     1
170
     0
176
     1
171
     0
176
     1
290
     0
176
     1
 93
       13
176
     1
 44
0.0
176
     1
173
     0
176
     1
1001
ACAD
1000
AcDbSavedByObjectVersion
1070
     0
  0
VISUALSTYLE
  5
31
102
{ACAD_XDICTIONARY
360
126
102
}
102
{ACAD_REACTORS
330
29
102
}
330
29
100
AcDbVisualStyle
  2
Hidden
 70
     6
177
     2
291
     0
 71
     1
176
     1
 72
     2
176
     1
 73
     2
176
     1
 90
        0
176
     1
 40
0.6
176
     1
 41
30.0
176
     1
 63
     7
421
 16777215
176
     1
 74
     2
176
     1
 91
        2
176
     1
 64
     7
176
     1
 65
   257
176
     1
 75
     2
176
     1
175
     1
176
     1
 42
40.0
176
     1
 92
        0
176
     1
 66
   257
176
     1
 43
1.0
176
     1
 76
     1
176
     1
 77
     6
176
     1
 78
     2
176
     1
 67
     7
176
     1
 79
     3
176
     1
170
     0
176
     1
171
     0
176
     1
290
     0
176
     1
 93
        1
176
     1
 44
0.0
176
     1
173
     0
176
     1
1001
ACAD
1000
AcDbSavedByObjectVersion
1070
     0
  0
VISUALSTYLE
  5
3F
102
{ACAD_XDICTIONARY
360
142
102
}
102
{ACAD_REACTORS
330
29
102
}
330
29
100
AcDbVisualStyle
  2
JitterOff
 70
    20
177
     2
291
     1
 71
     2
176
     0
 72
     2
176
     0
 73
     0
176
     0
 90
        0
176
     0
 40
0.6
176
     0
 41
30.0
176
     0
 63
     7
421
 16777215
176
     0
 74
     1
176
     0
 91
        4
176
     0
 64
     7
176
     0
 65
   257
176
     0
 75
     1
176
     0
175
     1
176
     0
 42
1.0
176
     0
 92
       10
176
     2
 66
     7
176
     0
 43
1.0
176
     0
 76
     1
176
     0
 77
     6
176
     0
 78
     2
176
     0
 67
     7
176
     0
 79
     5
176
     0
170
     0
176
     0
171
     0
176
     0
290
     0
176
     0
 93
        1
176
     0
 44
0.0
176
     0
173
     0
176
     0
1001
ACAD
1000
AcDbSavedByObjectVersion
1070
     0
  0
VISUALSTYLE
  5
37
102
{ACAD_XDICTIONARY
360
132
102
}
102
{ACAD_REACTORS
330
29
102
}
330
29
100
AcDbVisualStyle
  2
Linepattern
 70
    14
177
     2
291
     1
 71
     2
176
     1
 72
     2
176
     1
 73
     0
176
     1
 90
        0
176
     1
 40
0.6
176
     1
 41
30.0
176
     1
 63
     7
421
 16777215
176
     1
 74
     1
176
     1
 91
        4
176
     1
 64
     7
176
     1
 65
   257
176
     1
 75
     7
176
     1
175
     7
176
     1
 42
1.0
176
     1
 92
        8
176
     1
 66
     7
176
     1
 43
1.0
176
     1
 76
     1
176
     1
 77
     6
176
     1
 78
     2
176
     1
 67
     7
176
     1
 79
     5
176
     1
170
     0
176
     1
171
     0
176
     1
290
     0
176
     1
 93
        1
176
     1
 44
0.0
176
     1
173
     0
176
     1
1001
ACAD
1000
AcDbSavedByObjectVersion
1070
     0
  0
VISUALSTYLE
  5
40
102
{ACAD_XDICTIONARY
360
144
102
}
102
{ACAD_REACTORS
330
29
102
}
330
29
100
AcDbVisualStyle
  2
OverhangOff
 70
    21
177
     2
291
     1
 71
     2
176
     0
 72
     2
176
     0
 73
     0
176
     0
 90
        0
176
     0
 40
0.6
176
     0
 41
30.0
176
     0
 63
     7
421
 16777215
176
     0
 74
     1
176
     0
 91
        4
176
     0
 64
     7
176
     0
 65
   257
176
     0
 75
     1
176
     0
175
     1
176
     0
 42
1.0
176
     0
 92
        9
176
     2
 66
     7
176
     0
 43
1.0
176
     0
 76
     1
176
     0
 77
     6
176
     0
 78
     2
176
     0
 67
     7
176
     0
 79
     5
176
     0
170
     0
176
     0
171
     0
176
     0
290
     0
176
     0
 93
        1
176
     0
 44
0.0
176
     0
173
     0
176
     0
1001
ACAD
1000
AcDbSavedByObjectVersion
1070
     0
  0
VISUALSTYLE
  5
33
102
{ACAD_XDICTIONARY
360
12A
102
}
102
{ACAD_REACTORS
330
29
102
}
330
29
100
AcDbVisualStyle
  2
Realistic
 70
     8
177
     2
291
     0
 71
     2
176
     1
 72
     3
176
     1
 73
     0
176
     1
 90
        2
176
     1
 40
0.6
176
     1
 41
30.0
176
     1
 63
     7
421
 16777215
176
     1
 74
     0
176
     1
 91
        0
176
     1
 64
     7
176
     1
 65
   257
176
     1
 75
     1
176
     1
175
     1
176
     1
 42
1.0
176
     1
 92
        8
176
     1
 66
   257
176
     1
 43
1.0
176
     1
 76
     1
176
     1
 77
     6
176
     1
 78
     2
176
     1
 67
     7
176
     1
 79
     3
176
     1
170
     0
176
     1
171
     0
176
     1
290
     0
176
     1
 93
       13
176
     1
 44
0.0
176
     1
173
     0
176
     1
1001
ACAD
1000
AcDbSavedByObjectVersion
1070
     0
  0
VISUALSTYLE
  5
3E
102
{ACAD_XDICTIONARY
360
140
102
}
102
{ACAD_REACTORS
330
29
102
}
330
29
100
AcDbVisualStyle
  2
Shaded
 70
    27
177
     2
291
     0
 71
     2
176
     1
 72
     2
176
     1
 73
     1
176
     1
 90
        2
176
     1
 40
0.6
176
     1
 41
30.0
176
     1
 63
     7
421
 16777215
176
     1
 74
     0
176
     1
 91
        4
176
     1
 64
     7
176
     1
 65
   257
176
     1
 75
     1
176
     1
175
     1
176
     1
 42
1.0
176
     1
 92
        8
176
     1
 66
   257
176
     1
 43
1.0
176
     1
 76
     1
176
     1
 77
     6
176
     1
 78
     2
176
     1
 67
     8
425
  7895160
176
     1
 79
     3
176
     1
170
     0
176
     1
171
     0
176
     1
290
     0
176
     1
 93
        5
176
     1
 44
0.0
176
     1
173
     0
176
     1
1001
ACAD
1000
AcDbSavedByObjectVersion
1070
     0
  0
VISUALSTYLE
  5
3D
102
{ACAD_XDICTIONARY
360
13E
102
}
102
{ACAD_REACTORS
330
29
102
}
330
29
100
AcDbVisualStyle
  2
Shaded with edges
 70
    26
177
     2
291
     0
 71
     2
176
     1
 72
     2
176
     1
 73
     1
176
     1
 90
        2
176
     1
 40
0.6
176
     1
 41
30.0
176
     1
 63
     7
421
 16777215
176
     1
 74
     1
176
     1
 91
        2
176
     1
 64
     7
176
     1
 65
   257
176
     1
 75
     2
176
     1
175
     1
176
     1
 42
1.0
176
     1
 92
        8
176
     1
 66
   257
176
     1
 43
1.0
176
     1
 76
     1
176
     1
 77
     6
176
     1
 78
     2
176
     1
 67
     7
176
     1
 79
     3
176
     1
170
     0
176
     1
171
     0
176
     1
290
     0
176
     1
 93
        5
176
     1
 44
0.0
176
     1
173
     0
176
     1
1001
ACAD
1000
AcDbSavedByObjectVersion
1070
     0
  0
VISUALSTYLE
  5
3A
102
{ACAD_XDICTIONARY
360
138
102
}
102
{ACAD_REACTORS
330
29
102
}
330
29
100
AcDbVisualStyle
  2
Shades of Gray
 70
    23
177
     2
291
     0
 71
     2
176
     1
 72
     2
176
     1
 73
     3
176
     1
 90
        0
176
     1
 40
0.6
176
     1
 41
30.0
176
     1
 63
     7
421
 16777215
176
     1
 74
     2
176
     1
 91
        2
176
     1
 64
     7
176
     1
 65
     7
176
     1
 75
     1
176
     1
175
     1
176
     1
 42
40.0
176
     1
 92
        8
176
     1
 66
     7
176
     1
 43
1.0
176
     1
 76
     1
176
     1
 77
     6
176
     1
 78
     2
176
     1
 67
     7
176
     1
 79
     3
176
     1
170
     0
176
     1
171
     0
176
     1
290
     0
176
     1
 93
        1
176
     1
 44
0.0
176
     1
173
     0
176
     1
1001
ACAD
1000
AcDbSavedByObjectVersion
1070
     0
  0
VISUALSTYLE
  5
3B
102
{ACAD_XDICTIONARY
360
13A
102
}
102
{ACAD_REACTORS
330
29
102
}
330
29
100
AcDbVisualStyle
  2
Sketchy
 70
    24
177
     2
291
     0
 71
     1
176
     1
 72
     2
176
     1
 73
     2
176
     1
 90
        0
176
     1
 40
0.6
176
     1
 41
30.0
176
     1
 63
     7
421
 16777215
176
     1
 74
     2
176
     1
 91
        2
176
     1
 64
     7
176
     1
 65
     7
176
     1
 75
     1
176
     1
175
     1
176
     1
 42
40.0
176
     1
 92
       11
176
     1
 66
     7
176
     1
 43
1.0
176
     1
 76
     1
176
     1
 77
     6
176
     1
 78
     2
176
     1
 67
     7
176
     1
 79
     6
176
     1
170
     0
176
     1
171
     0
176
     1
290
     0
176
     1
 93
        1
176
     1
 44
0.0
176
     1
173
     0
176
     1
1001
ACAD
1000
AcDbSavedByObjectVersion
1070
     0
  0
VISUALSTYLE
  5
36
102
{ACAD_XDICTIONARY
360
130
102
}
102
{ACAD_REACTORS
330
29
102
}
330
29
100
AcDbVisualStyle
  2
Thicken
 70
    13
177
     2
291
     1
 71
     2
176
     1
 72
     2
176
     1
 73
     0
176
     1
 90
        0
176
     1
 40
0.6
176
     1
 41
30.0
176
     1
 63
     7
421
 16777215
176
     1
 74
     1
176
     1
 91
        4
176
     1
 64
     7
176
     1
 65
   257
176
     1
 75
     1
176
     1
175
     1
176
     1
 42
1.0
176
     1
 92
       12
176
     1
 66
     7
176
     1
 43
1.0
176
     1
 76
     1
176
     1
 77
     6
176
     1
 78
     2
176
     1
 67
     7
176
     1
 79
     5
176
     1
170
     0
176
     1
171
     0
176
     1
290
     0
176
     1
 93
        1
176
     1
 44
0.0
176
     1
173
     0
176
     1
1001
ACAD
1000
AcDbSavedByObjectVersion
1070
     0
  0
VISUALSTYLE
  5
30
102
{ACAD_XDICTIONARY
360
124
102
}
102
{ACAD_REACTORS
330
29
102
}
330
29
100
AcDbVisualStyle
  2
Wireframe
 70
     5
177
     2
291
     0
 71
     0
176
     1
 72
     2
176
     1
 73
     0
176
     1
 90
        0
176
     1
 40
0.6
176
     1
 41
30.0
176
     1
 63
     7
421
 16777215
176
     1
 74
     1
176
     1
 91
        4
176
     1
 64
     7
176
     1
 65
   257
176
     1
 75
     1
176
     1
175
     1
176
     1
 42
1.0
176
     1
 92
        0
176
     1
 66
   257
176
     1
 43
1.0
176
     1
 76
     1
176
     1
 77
     6
176
     1
 78
     2
176
     1
 67
     7
176
     1
 79
     3
176
     1
170
     0
176
     1
171
     0
176
     1
290
     0
176
     1
 93
        1
176
     1
 44
0.0
176
     1
173
     0
176
     1
1001
ACAD
1000
AcDbSavedByObjectVersion
1070
     0
  0
VISUALSTYLE
  5
3C
102
{ACAD_XDICTIONARY
360
13C
102
}
102
{ACAD_REACTORS
330
29
102
}
330
29
100
AcDbVisualStyle
  2
X-Ray
 70
    25
177
     2
291
     0
 71
     2
176
     1
 72
     2
176
     1
 73
     1
176
     1
 90
        1
176
     1
 40
0.5
176
     1
 41
30.0
176
     1
 63
     7
421
 16777215
176
     1
 74
     1
176
     1
 91
        0
176
     1
 64
     7
176
     1
 65
   257
176
     1
 75
     1
176
     1
175
     1
176
     1
 42
1.0
176
     1
 92
        8
176
     1
 66
     7
176
     1
 43
1.0
176
     1
 76
     1
176
     1
 77
     6
176
     1
 78
     2
176
     1
 67
     7
176
     1
 79
     3
176
     1
170
     0
176
     1
171
     0
176
     1
290
     0
176
     1
 93
       13
176
     1
 44
0.0
176
     1
173
     0
176
     1
1001
ACAD
1000
AcDbSavedByObjectVersion
1070
     0
  0
DICTIONARYVAR
  5
114
102
{ACAD_REACTORS
330
10F
102
}
330
10F
100
DictionaryVariables
280
     0
  1
1:1
  0
DICTIONARYVAR
  5
111
102
{ACAD_REACTORS
330
10F
102
}
330
10F
100
DictionaryVariables
280
     0
  1
STANDARD
  0
DICTIONARYVAR
  5
110
102
{ACAD_REACTORS
330
10F
102
}
330
10F
100
DictionaryVariables
280
     0
  1
STANDARD
  0
DICTIONARYVAR
  5
112
102
{ACAD_REACTORS
330
10F
102
}
330
10F
100
DictionaryVariables
280
     0
  1
Imperial24
  0
DICTIONARYVAR
  5
113
102
{ACAD_REACTORS
330
10F
102
}
330
10F
100
DictionaryVariables
280
     0
  1
Imperial24
  0
DICTIONARY
  5
14C
330
6B
100
AcDbDictionary
280
     1
281
     1
  3
ACAD_XREC_ROUNDTRIP
360
14D
  0
DICTIONARY
  5
1A
330
19
100
AcDbDictionary
280
     1
281
     1
  3
BUMPTILE
360
1C
  3
DIFFUSETILE
360
1B
  3
OPACITYTILE
360
1F
  3
REFLECTIONTILE
360
1E
  3
REFRACTIONTILE
360
20
  3
SPECULARTILE
360
1D
  0
DICTIONARY
  5
12
330
11
100
AcDbDictionary
280
     1
281
     1
  3
BUMPTILE
360
14
  3
DIFFUSETILE
360
13
  3
OPACITYTILE
360
17
  3
REFLECTIONTILE
360
16
  3
REFRACTIONTILE
360
18
  3
SPECULARTILE
360
15
  0
DICTIONARY
  5
22
330
21
100
AcDbDictionary
280
     1
281
     1
  3
BUMPTILE
360
24
  3
DIFFUSETILE
360
23
  3
OPACITYTILE
360
27
  3
REFLECTIONTILE
360
26
  3
REFRACTIONTILE
360
28
  3
SPECULARTILE
360
25
  0
DICTIONARY
  5
148
330
67
100
AcDbDictionary
280
     1
281
     1
  3
ACAD_XREC_ROUNDTRIP
360
149
  0
DICTIONARY
  5
14A
330
69
100
AcDbDictionary
280
     1
281
     1
  3
ACAD_XREC_ROUNDTRIP
360
14B
  0
DICTIONARY
  5
115
330
65
100
AcDbDictionary
280
     1
281
     1
  3
ACAD_ROUNDTRIP_2008_TABLESTYLE_CELLSTYLEMAP
360
116
  0
DICTIONARY
  5
122
330
2F
100
AcDbDictionary
280
     1
281
     1
  3
ACAD_XREC_ROUNDTRIP
360
123
  0
DICTIONARY
  5
120
330
2E
100
AcDbDictionary
280
     1
281
     1
  3
ACAD_XREC_ROUNDTRIP
360
121
  0
DICTIONARY
  5
12E
330
35
100
AcDbDictionary
280
     1
281
     1
  3
ACAD_XREC_ROUNDTRIP
360
12F
  0
DICTIONARY
  5
136
330
39
100
AcDbDictionary
280
     1
281
     1
  3
ACAD_XREC_ROUNDTRIP
360
137
  0
DICTIONARY
  5
128
330
32
100
AcDbDictionary
280
     1
281
     1
  3
ACAD_XREC_ROUNDTRIP
360
129
  0
DICTIONARY
  5
12C
330
34
100
AcDbDictionary
280
     1
281
     1
  3
ACAD_XREC_ROUNDTRIP
360
12D
  0
DICTIONARY
  5
146
330
41
100
AcDbDictionary
280
     1
281
     1
  3
ACAD_XREC_ROUNDTRIP
360
147
  0
DICTIONARY
  5
134
330
38
100
AcDbDictionary
280
     1
281
     1
  3
ACAD_XREC_ROUNDTRIP
360
135
  0
DICTIONARY
  5
118
330
2A
100
AcDbDictionary
280
     1
281
     1
  3
ACAD_XREC_ROUNDTRIP
360
119
  0
DICTIONARY
  5
11A
330
2B
100
AcDbDictionary
280
     1
281
     1
  3
ACAD_XREC_ROUNDTRIP
360
11B
  0
DICTIONARY
  5
11C
330
2C
100
AcDbDictionary
280
     1
281
     1
  3
ACAD_XREC_ROUNDTRIP
360
11D
  0
DICTIONARY
  5
11E
330
2D
100
AcDbDictionary
280
     1
281
     1
  3
ACAD_XREC_ROUNDTRIP
360
11F
  0
DICTIONARY
  5
126
330
31
100
AcDbDictionary
280
     1
281
     1
  3
ACAD_XREC_ROUNDTRIP
360
127
  0
DICTIONARY
  5
142
330
3F
100
AcDbDictionary
280
     1
281
     1
  3
ACAD_XREC_ROUNDTRIP
360
143
  0
DICTIONARY
  5
132
330
37
100
AcDbDictionary
280
     1
281
     1
  3
ACAD_XREC_ROUNDTRIP
360
133
  0
DICTIONARY
  5
144
330
40
100
AcDbDictionary
280
     1
281
     1
  3
ACAD_XREC_ROUNDTRIP
360
145
  0
DICTIONARY
  5
12A
330
33
100
AcDbDictionary
280
     1
281
     1
  3
ACAD_XREC_ROUNDTRIP
360
12B
  0
DICTIONARY
  5
140
330
3E
100
AcDbDictionary
280
     1
281
     1
  3
ACAD_XREC_ROUNDTRIP
360
141
  0
DICTIONARY
  5
13E
330
3D
100
AcDbDictionary
280
     1
281
     1
  3
ACAD_XREC_ROUNDTRIP
360
13F
  0
DICTIONARY
  5
138
330
3A
100
AcDbDictionary
280
     1
281
     1
  3
ACAD_XREC_ROUNDTRIP
360
139
  0
DICTIONARY
  5
13A
330
3B
100
AcDbDictionary
280
     1
281
     1
  3
ACAD_XREC_ROUNDTRIP
360
13B
  0
DICTIONARY
  5
130
330
36
100
AcDbDictionary
280
     1
281
     1
  3
ACAD_XREC_ROUNDTRIP
360
131
  0
DICTIONARY
  5
124
330
30
100
AcDbDictionary
280
     1
281
     1
  3
ACAD_XREC_ROUNDTRIP
360
125
  0
DICTIONARY
  5
13C
330
3C
100
AcDbDictionary
280
     1
281
     1
  3
ACAD_XREC_ROUNDTRIP
360
13D
  0
XRECORD
  5
14D
102
{ACAD_REACTORS
330
14C
102
}
330
14C
100
AcDbXrecord
280
     1
102
DISPLAYNAME
  1
Imperial24
102
FLAGS
 90
        0
  0
XRECORD
  5
1C
102
{ACAD_REACTORS
330
1A
102
}
330
1A
100
AcDbXrecord
280
     1
270
     1
271
     1
  0
XRECORD
  5
1B
102
{ACAD_REACTORS
330
1A
102
}
330
1A
100
AcDbXrecord
280
     1
270
     1
271
     1
  0
XRECORD
  5
1F
102
{ACAD_REACTORS
330
1A
102
}
330
1A
100
AcDbXrecord
280
     1
270
     1
271
     1
  0
XRECORD
  5
1E
102
{ACAD_REACTORS
330
1A
102
}
330
1A
100
AcDbXrecord
280
     1
270
     1
271
     1
  0
XRECORD
  5
20
102
{ACAD_REACTORS
330
1A
102
}
330
1A
100
AcDbXrecord
280
     1
270
     1
271
     1
  0
XRECORD
  5
1D
102
{ACAD_REACTORS
330
1A
102
}
330
1A
100
AcDbXrecord
280
     1
270
     1
271
     1
  0
XRECORD
  5
14
102
{ACAD_REACTORS
330
12
102
}
330
12
100
AcDbXrecord
280
     1
270
     1
271
     1
  0
XRECORD
  5
13
102
{ACAD_REACTORS
330
12
102
}
330
12
100
AcDbXrecord
280
     1
270
     1
271
     1
  0
XRECORD
  5
17
102
{ACAD_REACTORS
330
12
102
}
330
12
100
AcDbXrecord
280
     1
270
     1
271
     1
  0
XRECORD
  5
16
102
{ACAD_REACTORS
330
12
102
}
330
12
100
AcDbXrecord
280
     1
270
     1
271
     1
  0
XRECORD
  5
18
102
{ACAD_REACTORS
330
12
102
}
330
12
100
AcDbXrecord
280
     1
270
     1
271
     1
  0
XRECORD
  5
15
102
{ACAD_REACTORS
330
12
102
}
330
12
100
AcDbXrecord
280
     1
270
     1
271
     1
  0
XRECORD
  5
24
102
{ACAD_REACTORS
330
22
102
}
330
22
100
AcDbXrecord
280
     1
270
     1
271
     1
  0
XRECORD
  5
23
102
{ACAD_REACTORS
330
22
102
}
330
22
100
AcDbXrecord
280
     1
270
     1
271
     1
  0
XRECORD
  5
27
102
{ACAD_REACTORS
330
22
102
}
330
22
100
AcDbXrecord
280
     1
270
     1
271
     1
  0
XRECORD
  5
26
102
{ACAD_REACTORS
330
22
102
}
330
22
100
AcDbXrecord
280
     1
270
     1
271
     1
  0
XRECORD
  5
28
102
{ACAD_REACTORS
330
22
102
}
330
22
100
AcDbXrecord
280
     1
270
     1
271
     1
  0
XRECORD
  5
25
102
{ACAD_REACTORS
330
22
102
}
330
22
100
AcDbXrecord
280
     1
270
     1
271
     1
  0
XRECORD
  5
149
102
{ACAD_REACTORS
330
148
102
}
330
148
100
AcDbXrecord
280
     1
102
ACAD_ROUNDTRIP_2012_MLEADER_STYLE
298
     1
  0
XRECORD
  5
14B
102
{ACAD_REACTORS
330
14A
102
}
330
14A
100
AcDbXrecord
280
     1
102
DISPLAYNAME
  1
Imperial24
102
FLAGS
 90
        0
  0
CELLSTYLEMAP
  5
116
102
{ACAD_REACTORS
330
115
102
}
330
115
100
AcDbCellStyleMap
 90
        3
300
CELLSTYLE
  1
TABLEFORMAT_BEGIN
 90
        5
170
     1
 91
        0
 92
    32768
 62
   257
 93
        1
300
CONTENTFORMAT
  1
CONTENTFORMAT_BEGIN
 90
        0
 91
        0
 92
      512
 93
        0
300

 40
0.0
140
1.0
 94
        5
 62
     0
340
55
144
0.25
309
CONTENTFORMAT_END
171
     0
 94
        0
309
TABLEFORMAT_END
  1
CELLSTYLE_BEGIN
 90
        1
 91
        1
300
_TITLE
309
CELLSTYLE_END
300
CELLSTYLE
  1
TABLEFORMAT_BEGIN
 90
        5
170
     1
 91
        0
 92
        0
 62
   257
 93
        1
300
CONTENTFORMAT
  1
CONTENTFORMAT_BEGIN
 90
        0
 91
        0
 92
      512
 93
        0
300

 40
0.0
140
1.0
 94
        5
 62
     0
340
55
144
0.18
309
CONTENTFORMAT_END
171
     0
 94
        0
309
TABLEFORMAT_END
  1
CELLSTYLE_BEGIN
 90
        2
 91
        1
300
_HEADER
309
CELLSTYLE_END
300
CELLSTYLE
  1
TABLEFORMAT_BEGIN
 90
        5
170
     1
 91
        0
 92
        0
 62
   257
 93
        1
300
CONTENTFORMAT
  1
CONTENTFORMAT_BEGIN
 90
        0
 91
        0
 92
      512
 93
        0
300

 40
0.0
140
1.0
 94
        2
 62
     0
340
55
144
0.18
309
CONTENTFORMAT_END
171
     0
 94
        0
309
TABLEFORMAT_END
  1
CELLSTYLE_BEGIN
 90
        3
 91
        2
300
_DATA
309
CELLSTYLE_END
  0
XRECORD
  5
123
102
{ACAD_REACTORS
330
122
102
}
330
122
100
AcDbXrecord
280
     1
102
RTVSPost2010Prop28
280
     1
102
RTVSPost2010PropOp28
 70
     1
102
RTVSPost2010Prop29
280
     1
102
RTVSPost2010PropOp29
 70
     1
102
RTVSPost2010Prop30
280
     0
102
RTVSPost2010PropOp30
 70
     1
102
RTVSPost2010Prop31
280
     0
102
RTVSPost2010PropOp31
 70
     1
102
RTVSPost2010Prop32
280
     0
102
RTVSPost2010PropOp32
 70
     1
102
RTVSPost2010Prop33
280
     0
102
RTVSPost2010PropOp33
 70
     1
102
RTVSPost2010Prop34
280
     0
102
RTVSPost2010PropOp34
 70
     1
102
RTVSPost2010Prop35
280
     0
102
RTVSPost2010PropOp35
 70
     1
102
RTVSPost2010Prop36
280
     0
102
RTVSPost2010PropOp36
 70
     1
102
RTVSPost2010Prop37
 90
       50
102
RTVSPost2010PropOp37
 70
     1
102
RTVSPost2010Prop38
140
0.0
102
RTVSPost2010PropOp38
 70
     1
102
RTVSPost2010Prop39
140
1.0
102
RTVSPost2010PropOp39
 70
     1
102
RTVSPost2010Prop40
 90
        0
102
RTVSPost2010PropOp40
 70
     1
102
RTVSPost2010Prop41ColorIndex
 90
       18
102
RTVSPost2010Prop41ColorRGB
 90
        0
102
RTVSPost2010PropOp41
 70
     1
102
RTVSPost2010Prop42
 90
       50
102
RTVSPost2010PropOp42
 70
     1
102
RTVSPost2010Prop43
 90
        3
102
RTVSPost2010PropOp43
 70
     1
102
RTVSPost2010Prop44ColorIndex
 90
        5
102
RTVSPost2010Prop44ColorRGB
 90
      255
102
RTVSPost2010PropOp44
 70
     1
102
RTVSPost2010Prop45
280
     0
102
RTVSPost2010PropOp45
 70
     1
102
RTVSPost2010Prop46
 90
       50
102
RTVSPost2010PropOp46
 70
     1
102
RTVSPost2010Prop47
 90
       50
102
RTVSPost2010PropOp47
 70
     1
102
RTVSPost2010Prop48
 90
       50
102
RTVSPost2010PropOp48
 70
     1
102
RTVSPost2010Prop49
280
     0
102
RTVSPost2010PropOp49
 70
     1
102
RTVSPost2010Prop50
 90
       50
102
RTVSPost2010PropOp50
 70
     1
102
RTVSPost2010Prop51ColorIndex
 90
      256
102
RTVSPost2010Prop51ColorRGB
 90
-16777216
102
RTVSPost2010PropOp51
 70
     0
102
RTVSPost2010Prop52
140
1.0
102
RTVSPost2010PropOp52
 70
     0
102
RTVSPost2010Prop53
 90
        2
102
RTVSPost2010PropOp53
 70
     1
102
RTVSPost2010Prop54
  1
strokes_ogs.tif
102
RTVSPost2010PropOp54
 70
     1
102
RTVSPost2010Prop55
280
     0
102
RTVSPost2010PropOp55
 70
     1
102
RTVSPost2010Prop56
140
1.0
102
RTVSPost2010PropOp56
 70
     1
102
RTVSPost2010Prop57
140
1.0
102
RTVSPost2010PropOp57
 70
     1
  0
XRECORD
  5
121
102
{ACAD_REACTORS
330
120
102
}
330
120
100
AcDbXrecord
280
     1
102
RTVSPost2010Prop28
280
     0
102
RTVSPost2010PropOp28
 70
     1
102
RTVSPost2010Prop29
280
     1
102
RTVSPost2010PropOp29
 70
     1
102
RTVSPost2010Prop30
280
     1
102
RTVSPost2010PropOp30
 70
     1
102
RTVSPost2010Prop31
280
     0
102
RTVSPost2010PropOp31
 70
     1
102
RTVSPost2010Prop32
280
     0
102
RTVSPost2010PropOp32
 70
     1
102
RTVSPost2010Prop33
280
     0
102
RTVSPost2010PropOp33
 70
     1
102
RTVSPost2010Prop34
280
     0
102
RTVSPost2010PropOp34
 70
     1
102
RTVSPost2010Prop35
280
     0
102
RTVSPost2010PropOp35
 70
     1
102
RTVSPost2010Prop36
280
     0
102
RTVSPost2010PropOp36
 70
     1
102
RTVSPost2010Prop37
 90
       50
102
RTVSPost2010PropOp37
 70
     1
102
RTVSPost2010Prop38
140
0.0
102
RTVSPost2010PropOp38
 70
     1
102
RTVSPost2010Prop39
140
1.0
102
RTVSPost2010PropOp39
 70
     1
102
RTVSPost2010Prop40
 90
        0
102
RTVSPost2010PropOp40
 70
     1
102
RTVSPost2010Prop41ColorIndex
 90
       18
102
RTVSPost2010Prop41ColorRGB
 90
        0
102
RTVSPost2010PropOp41
 70
     1
102
RTVSPost2010Prop42
 90
       50
102
RTVSPost2010PropOp42
 70
     1
102
RTVSPost2010Prop43
 90
        3
102
RTVSPost2010PropOp43
 70
     1
102
RTVSPost2010Prop44ColorIndex
 90
        5
102
RTVSPost2010Prop44ColorRGB
 90
      255
102
RTVSPost2010PropOp44
 70
     1
102
RTVSPost2010Prop45
280
     0
102
RTVSPost2010PropOp45
 70
     1
102
RTVSPost2010Prop46
 90
       50
102
RTVSPost2010PropOp46
 70
     1
102
RTVSPost2010Prop47
 90
       50
102
RTVSPost2010PropOp47
 70
     1
102
RTVSPost2010Prop48
 90
       50
102
RTVSPost2010PropOp48
 70
     1
102
RTVSPost2010Prop49
280
     0
102
RTVSPost2010PropOp49
 70
     1
102
RTVSPost2010Prop50
 90
       50
102
RTVSPost2010PropOp50
 70
     1
102
RTVSPost2010Prop51ColorIndex
 90
      256
102
RTVSPost2010Prop51ColorRGB
 90
-16777216
102
RTVSPost2010PropOp51
 70
     0
102
RTVSPost2010Prop52
140
1.0
102
RTVSPost2010PropOp52
 70
     0
102
RTVSPost2010Prop53
 90
        2
102
RTVSPost2010PropOp53
 70
     1
102
RTVSPost2010Prop54
  1
strokes_ogs.tif
102
RTVSPost2010PropOp54
 70
     1
102
RTVSPost2010Prop55
280
     0
102
RTVSPost2010PropOp55
 70
     1
102
RTVSPost2010Prop56
140
1.0
102
RTVSPost2010PropOp56
 70
     1
102
RTVSPost2010Prop57
140
1.0
102
RTVSPost2010PropOp57
 70
     1
  0
XRECORD
  5
12F
102
{ACAD_REACTORS
330
12E
102
}
330
12E
100
AcDbXrecord
280
     1
102
RTVSPost2010Prop28
280
     0
102
RTVSPost2010PropOp28
 70
     1
102
RTVSPost2010Prop29
280
     1
102
RTVSPost2010PropOp29
 70
     1
102
RTVSPost2010Prop30
280
     1
102
RTVSPost2010PropOp30
 70
     1
102
RTVSPost2010Prop31
280
     0
102
RTVSPost2010PropOp31
 70
     1
102
RTVSPost2010Prop32
280
     0
102
RTVSPost2010PropOp32
 70
     1
102
RTVSPost2010Prop33
280
     0
102
RTVSPost2010PropOp33
 70
     1
102
RTVSPost2010Prop34
280
     0
102
RTVSPost2010PropOp34
 70
     1
102
RTVSPost2010Prop35
280
     0
102
RTVSPost2010PropOp35
 70
     1
102
RTVSPost2010Prop36
280
     0
102
RTVSPost2010PropOp36
 70
     1
102
RTVSPost2010Prop37
 90
       50
102
RTVSPost2010PropOp37
 70
     1
102
RTVSPost2010Prop38
140
0.0
102
RTVSPost2010PropOp38
 70
     1
102
RTVSPost2010Prop39
140
1.0
102
RTVSPost2010PropOp39
 70
     1
102
RTVSPost2010Prop40
 90
        0
102
RTVSPost2010PropOp40
 70
     1
102
RTVSPost2010Prop41ColorIndex
 90
       18
102
RTVSPost2010Prop41ColorRGB
 90
        0
102
RTVSPost2010PropOp41
 70
     1
102
RTVSPost2010Prop42
 90
       50
102
RTVSPost2010PropOp42
 70
     1
102
RTVSPost2010Prop43
 90
        3
102
RTVSPost2010PropOp43
 70
     1
102
RTVSPost2010Prop44ColorIndex
 90
        5
102
RTVSPost2010Prop44ColorRGB
 90
      255
102
RTVSPost2010PropOp44
 70
     1
102
RTVSPost2010Prop45
280
     0
102
RTVSPost2010PropOp45
 70
     1
102
RTVSPost2010Prop46
 90
       50
102
RTVSPost2010PropOp46
 70
     1
102
RTVSPost2010Prop47
 90
       50
102
RTVSPost2010PropOp47
 70
     1
102
RTVSPost2010Prop48
 90
       50
102
RTVSPost2010PropOp48
 70
     1
102
RTVSPost2010Prop49
280
     0
102
RTVSPost2010PropOp49
 70
     1
102
RTVSPost2010Prop50
 90
       50
102
RTVSPost2010PropOp50
 70
     1
102
RTVSPost2010Prop51ColorIndex
 90
      256
102
RTVSPost2010Prop51ColorRGB
 90
-16777216
102
RTVSPost2010PropOp51
 70
     0
102
RTVSPost2010Prop52
140
1.0
102
RTVSPost2010PropOp52
 70
     0
102
RTVSPost2010Prop53
 90
        2
102
RTVSPost2010PropOp53
 70
     1
102
RTVSPost2010Prop54
  1
strokes_ogs.tif
102
RTVSPost2010PropOp54
 70
     1
102
RTVSPost2010Prop55
280
     0
102
RTVSPost2010PropOp55
 70
     1
102
RTVSPost2010Prop56
140
1.0
102
RTVSPost2010PropOp56
 70
     1
102
RTVSPost2010Prop57
140
1.0
102
RTVSPost2010PropOp57
 70
     1
  0
XRECORD
  5
137
102
{ACAD_REACTORS
330
136
102
}
330
136
100
AcDbXrecord
280
     1
102
RTVSPost2010Prop28
280
     0
102
RTVSPost2010PropOp28
 70
     1
102
RTVSPost2010Prop29
280
     1
102
RTVSPost2010PropOp29
 70
     1
102
RTVSPost2010Prop30
280
     1
102
RTVSPost2010PropOp30
 70
     1
102
RTVSPost2010Prop31
280
     0
102
RTVSPost2010PropOp31
 70
     1
102
RTVSPost2010Prop32
280
     0
102
RTVSPost2010PropOp32
 70
     1
102
RTVSPost2010Prop33
280
     0
102
RTVSPost2010PropOp33
 70
     1
102
RTVSPost2010Prop34
280
     0
102
RTVSPost2010PropOp34
 70
     1
102
RTVSPost2010Prop35
280
     0
102
RTVSPost2010PropOp35
 70
     1
102
RTVSPost2010Prop36
280
     0
102
RTVSPost2010PropOp36
 70
     1
102
RTVSPost2010Prop37
 90
       50
102
RTVSPost2010PropOp37
 70
     1
102
RTVSPost2010Prop38
140
0.0
102
RTVSPost2010PropOp38
 70
     1
102
RTVSPost2010Prop39
140
1.0
102
RTVSPost2010PropOp39
 70
     1
102
RTVSPost2010Prop40
 90
        0
102
RTVSPost2010PropOp40
 70
     1
102
RTVSPost2010Prop41ColorIndex
 90
       18
102
RTVSPost2010Prop41ColorRGB
 90
        0
102
RTVSPost2010PropOp41
 70
     1
102
RTVSPost2010Prop42
 90
       50
102
RTVSPost2010PropOp42
 70
     1
102
RTVSPost2010Prop43
 90
        3
102
RTVSPost2010PropOp43
 70
     1
102
RTVSPost2010Prop44ColorIndex
 90
        5
102
RTVSPost2010Prop44ColorRGB
 90
      255
102
RTVSPost2010PropOp44
 70
     1
102
RTVSPost2010Prop45
280
     0
102
RTVSPost2010PropOp45
 70
     1
102
RTVSPost2010Prop46
 90
       50
102
RTVSPost2010PropOp46
 70
     1
102
RTVSPost2010Prop47
 90
       50
102
RTVSPost2010PropOp47
 70
     1
102
RTVSPost2010Prop48
 90
       50
102
RTVSPost2010PropOp48
 70
     1
102
RTVSPost2010Prop49
280
     0
102
RTVSPost2010PropOp49
 70
     1
102
RTVSPost2010Prop50
 90
       50
102
RTVSPost2010PropOp50
 70
     1
102
RTVSPost2010Prop51ColorIndex
 90
      256
102
RTVSPost2010Prop51ColorRGB
 90
-16777216
102
RTVSPost2010PropOp51
 70
     0
102
RTVSPost2010Prop52
140
1.0
102
RTVSPost2010PropOp52
 70
     0
102
RTVSPost2010Prop53
 90
        2
102
RTVSPost2010PropOp53
 70
     1
102
RTVSPost2010Prop54
  1
strokes_ogs.tif
102
RTVSPost2010PropOp54
 70
     1
102
RTVSPost2010Prop55
280
     0
102
RTVSPost2010PropOp55
 70
     1
102
RTVSPost2010Prop56
140
1.0
102
RTVSPost2010PropOp56
 70
     1
102
RTVSPost2010Prop57
140
1.0
102
RTVSPost2010PropOp57
 70
     1
  0
XRECORD
  5
129
102
{ACAD_REACTORS
330
128
102
}
330
128
100
AcDbXrecord
280
     1
102
RTVSPost2010Prop28
280
     0
102
RTVSPost2010PropOp28
 70
     1
102
RTVSPost2010Prop29
280
     1
102
RTVSPost2010PropOp29
 70
     1
102
RTVSPost2010Prop30
280
     1
102
RTVSPost2010PropOp30
 70
     1
102
RTVSPost2010Prop31
280
     0
102
RTVSPost2010PropOp31
 70
     1
102
RTVSPost2010Prop32
280
     0
102
RTVSPost2010PropOp32
 70
     1
102
RTVSPost2010Prop33
280
     0
102
RTVSPost2010PropOp33
 70
     1
102
RTVSPost2010Prop34
280
     0
102
RTVSPost2010PropOp34
 70
     1
102
RTVSPost2010Prop35
280
     0
102
RTVSPost2010PropOp35
 70
     1
102
RTVSPost2010Prop36
280
     0
102
RTVSPost2010PropOp36
 70
     1
102
RTVSPost2010Prop37
 90
       50
102
RTVSPost2010PropOp37
 70
     1
102
RTVSPost2010Prop38
140
0.0
102
RTVSPost2010PropOp38
 70
     1
102
RTVSPost2010Prop39
140
1.0
102
RTVSPost2010PropOp39
 70
     1
102
RTVSPost2010Prop40
 90
        0
102
RTVSPost2010PropOp40
 70
     1
102
RTVSPost2010Prop41ColorIndex
 90
       18
102
RTVSPost2010Prop41ColorRGB
 90
        0
102
RTVSPost2010PropOp41
 70
     1
102
RTVSPost2010Prop42
 90
       50
102
RTVSPost2010PropOp42
 70
     1
102
RTVSPost2010Prop43
 90
        3
102
RTVSPost2010PropOp43
 70
     1
102
RTVSPost2010Prop44ColorIndex
 90
        5
102
RTVSPost2010Prop44ColorRGB
 90
      255
102
RTVSPost2010PropOp44
 70
     1
102
RTVSPost2010Prop45
280
     0
102
RTVSPost2010PropOp45
 70
     1
102
RTVSPost2010Prop46
 90
       50
102
RTVSPost2010PropOp46
 70
     1
102
RTVSPost2010Prop47
 90
       50
102
RTVSPost2010PropOp47
 70
     1
102
RTVSPost2010Prop48
 90
       50
102
RTVSPost2010PropOp48
 70
     1
102
RTVSPost2010Prop49
280
     0
102
RTVSPost2010PropOp49
 70
     1
102
RTVSPost2010Prop50
 90
       50
102
RTVSPost2010PropOp50
 70
     1
102
RTVSPost2010Prop51ColorIndex
 90
      256
102
RTVSPost2010Prop51ColorRGB
 90
-16777216
102
RTVSPost2010PropOp51
 70
     0
102
RTVSPost2010Prop52
140
1.0
102
RTVSPost2010PropOp52
 70
     0
102
RTVSPost2010Prop53
 90
        2
102
RTVSPost2010PropOp53
 70
     1
102
RTVSPost2010Prop54
  1
strokes_ogs.tif
102
RTVSPost2010PropOp54
 70
     1
102
RTVSPost2010Prop55
280
     0
102
RTVSPost2010PropOp55
 70
     1
102
RTVSPost2010Prop56
140
1.0
102
RTVSPost2010PropOp56
 70
     1
102
RTVSPost2010Prop57
140
1.0
102
RTVSPost2010PropOp57
 70
     1
  0
XRECORD
  5
12D
102
{ACAD_REACTORS
330
12C
102
}
330
12C
100
AcDbXrecord
280
     1
102
RTVSPost2010Prop28
280
     0
102
RTVSPost2010PropOp28
 70
     1
102
RTVSPost2010Prop29
280
     1
102
RTVSPost2010PropOp29
 70
     1
102
RTVSPost2010Prop30
280
     1
102
RTVSPost2010PropOp30
 70
     1
102
RTVSPost2010Prop31
280
     0
102
RTVSPost2010PropOp31
 70
     1
102
RTVSPost2010Prop32
280
     0
102
RTVSPost2010PropOp32
 70
     1
102
RTVSPost2010Prop33
280
     0
102
RTVSPost2010PropOp33
 70
     1
102
RTVSPost2010Prop34
280
     0
102
RTVSPost2010PropOp34
 70
     1
102
RTVSPost2010Prop35
280
     0
102
RTVSPost2010PropOp35
 70
     1
102
RTVSPost2010Prop36
280
     0
102
RTVSPost2010PropOp36
 70
     1
102
RTVSPost2010Prop37
 90
       50
102
RTVSPost2010PropOp37
 70
     1
102
RTVSPost2010Prop38
140
0.0
102
RTVSPost2010PropOp38
 70
     1
102
RTVSPost2010Prop39
140
1.0
102
RTVSPost2010PropOp39
 70
     1
102
RTVSPost2010Prop40
 90
        0
102
RTVSPost2010PropOp40
 70
     1
102
RTVSPost2010Prop41ColorIndex
 90
       18
102
RTVSPost2010Prop41ColorRGB
 90
        0
102
RTVSPost2010PropOp41
 70
     1
102
RTVSPost2010Prop42
 90
       50
102
RTVSPost2010PropOp42
 70
     1
102
RTVSPost2010Prop43
 90
        3
102
RTVSPost2010PropOp43
 70
     1
102
RTVSPost2010Prop44ColorIndex
 90
        5
102
RTVSPost2010Prop44ColorRGB
 90
      255
102
RTVSPost2010PropOp44
 70
     1
102
RTVSPost2010Prop45
280
     0
102
RTVSPost2010PropOp45
 70
     1
102
RTVSPost2010Prop46
 90
       50
102
RTVSPost2010PropOp46
 70
     1
102
RTVSPost2010Prop47
 90
       50
102
RTVSPost2010PropOp47
 70
     1
102
RTVSPost2010Prop48
 90
       50
102
RTVSPost2010PropOp48
 70
     1
102
RTVSPost2010Prop49
280
     0
102
RTVSPost2010PropOp49
 70
     1
102
RTVSPost2010Prop50
 90
       50
102
RTVSPost2010PropOp50
 70
     1
102
RTVSPost2010Prop51ColorIndex
 90
      256
102
RTVSPost2010Prop51ColorRGB
 90
-16777216
102
RTVSPost2010PropOp51
 70
     0
102
RTVSPost2010Prop52
140
1.0
102
RTVSPost2010PropOp52
 70
     0
102
RTVSPost2010Prop53
 90
        2
102
RTVSPost2010PropOp53
 70
     1
102
RTVSPost2010Prop54
  1
strokes_ogs.tif
102
RTVSPost2010PropOp54
 70
     1
102
RTVSPost2010Prop55
280
     0
102
RTVSPost2010PropOp55
 70
     1
102
RTVSPost2010Prop56
140
1.0
102
RTVSPost2010PropOp56
 70
     1
102
RTVSPost2010Prop57
140
1.0
102
RTVSPost2010PropOp57
 70
     1
  0
XRECORD
  5
147
102
{ACAD_REACTORS
330
146
102
}
330
146
100
AcDbXrecord
280
     1
102
RTVSPost2010Prop28
280
     0
102
RTVSPost2010PropOp28
 70
     0
102
RTVSPost2010Prop29
280
     1
102
RTVSPost2010PropOp29
 70
     0
102
RTVSPost2010Prop30
280
     1
102
RTVSPost2010PropOp30
 70
     0
102
RTVSPost2010Prop31
280
     0
102
RTVSPost2010PropOp31
 70
     0
102
RTVSPost2010Prop32
280
     0
102
RTVSPost2010PropOp32
 70
     0
102
RTVSPost2010Prop33
280
     0
102
RTVSPost2010PropOp33
 70
     0
102
RTVSPost2010Prop34
280
     0
102
RTVSPost2010PropOp34
 70
     0
102
RTVSPost2010Prop35
280
     0
102
RTVSPost2010PropOp35
 70
     0
102
RTVSPost2010Prop36
280
     0
102
RTVSPost2010PropOp36
 70
     0
102
RTVSPost2010Prop37
 90
       50
102
RTVSPost2010PropOp37
 70
     0
102
RTVSPost2010Prop38
140
0.0
102
RTVSPost2010PropOp38
 70
     0
102
RTVSPost2010Prop39
140
1.0
102
RTVSPost2010PropOp39
 70
     0
102
RTVSPost2010Prop40
 90
        0
102
RTVSPost2010PropOp40
 70
     0
102
RTVSPost2010Prop41ColorIndex
 90
       18
102
RTVSPost2010Prop41ColorRGB
 90
        0
102
RTVSPost2010PropOp41
 70
     0
102
RTVSPost2010Prop42
 90
       50
102
RTVSPost2010PropOp42
 70
     0
102
RTVSPost2010Prop43
 90
        3
102
RTVSPost2010PropOp43
 70
     0
102
RTVSPost2010Prop44ColorIndex
 90
        5
102
RTVSPost2010Prop44ColorRGB
 90
      255
102
RTVSPost2010PropOp44
 70
     0
102
RTVSPost2010Prop45
280
     0
102
RTVSPost2010PropOp45
 70
     0
102
RTVSPost2010Prop46
 90
       50
102
RTVSPost2010PropOp46
 70
     0
102
RTVSPost2010Prop47
 90
       50
102
RTVSPost2010PropOp47
 70
     0
102
RTVSPost2010Prop48
 90
       50
102
RTVSPost2010PropOp48
 70
     0
102
RTVSPost2010Prop49
280
     0
102
RTVSPost2010PropOp49
 70
     0
102
RTVSPost2010Prop50
 90
       50
102
RTVSPost2010PropOp50
 70
     0
102
RTVSPost2010Prop51ColorIndex
 90
      256
102
RTVSPost2010Prop51ColorRGB
 90
-16777216
102
RTVSPost2010PropOp51
 70
     0
102
RTVSPost2010Prop52
140
1.0
102
RTVSPost2010PropOp52
 70
     0
102
RTVSPost2010Prop53
 90
        2
102
RTVSPost2010PropOp53
 70
     0
102
RTVSPost2010Prop54
  1
strokes_ogs.tif
102
RTVSPost2010PropOp54
 70
     0
102
RTVSPost2010Prop55
280
     0
102
RTVSPost2010PropOp55
 70
     0
102
RTVSPost2010Prop56
140
1.0
102
RTVSPost2010PropOp56
 70
     0
102
RTVSPost2010Prop57
140
1.0
102
RTVSPost2010PropOp57
 70
     0
  0
XRECORD
  5
135
102
{ACAD_REACTORS
330
134
102
}
330
134
100
AcDbXrecord
280
     1
102
RTVSPost2010Prop28
280
     0
102
RTVSPost2010PropOp28
 70
     1
102
RTVSPost2010Prop29
280
     1
102
RTVSPost2010PropOp29
 70
     1
102
RTVSPost2010Prop30
280
     1
102
RTVSPost2010PropOp30
 70
     1
102
RTVSPost2010Prop31
280
     0
102
RTVSPost2010PropOp31
 70
     1
102
RTVSPost2010Prop32
280
     0
102
RTVSPost2010PropOp32
 70
     1
102
RTVSPost2010Prop33
280
     0
102
RTVSPost2010PropOp33
 70
     1
102
RTVSPost2010Prop34
280
     0
102
RTVSPost2010PropOp34
 70
     1
102
RTVSPost2010Prop35
280
     0
102
RTVSPost2010PropOp35
 70
     1
102
RTVSPost2010Prop36
280
     0
102
RTVSPost2010PropOp36
 70
     1
102
RTVSPost2010Prop37
 90
       50
102
RTVSPost2010PropOp37
 70
     1
102
RTVSPost2010Prop38
140
0.0
102
RTVSPost2010PropOp38
 70
     1
102
RTVSPost2010Prop39
140
1.0
102
RTVSPost2010PropOp39
 70
     1
102
RTVSPost2010Prop40
 90
        0
102
RTVSPost2010PropOp40
 70
     1
102
RTVSPost2010Prop41ColorIndex
 90
       18
102
RTVSPost2010Prop41ColorRGB
 90
        0
102
RTVSPost2010PropOp41
 70
     1
102
RTVSPost2010Prop42
 90
       50
102
RTVSPost2010PropOp42
 70
     1
102
RTVSPost2010Prop43
 90
        3
102
RTVSPost2010PropOp43
 70
     1
102
RTVSPost2010Prop44ColorIndex
 90
        5
102
RTVSPost2010Prop44ColorRGB
 90
      255
102
RTVSPost2010PropOp44
 70
     1
102
RTVSPost2010Prop45
280
     0
102
RTVSPost2010PropOp45
 70
     1
102
RTVSPost2010Prop46
 90
       50
102
RTVSPost2010PropOp46
 70
     1
102
RTVSPost2010Prop47
 90
       50
102
RTVSPost2010PropOp47
 70
     1
102
RTVSPost2010Prop48
 90
       50
102
RTVSPost2010PropOp48
 70
     1
102
RTVSPost2010Prop49
280
     0
102
RTVSPost2010PropOp49
 70
     1
102
RTVSPost2010Prop50
 90
       50
102
RTVSPost2010PropOp50
 70
     1
102
RTVSPost2010Prop51ColorIndex
 90
      256
102
RTVSPost2010Prop51ColorRGB
 90
-16777216
102
RTVSPost2010PropOp51
 70
     0
102
RTVSPost2010Prop52
140
1.0
102
RTVSPost2010PropOp52
 70
     0
102
RTVSPost2010Prop53
 90
        2
102
RTVSPost2010PropOp53
 70
     1
102
RTVSPost2010Prop54
  1
strokes_ogs.tif
102
RTVSPost2010PropOp54
 70
     1
102
RTVSPost2010Prop55
280
     0
102
RTVSPost2010PropOp55
 70
     1
102
RTVSPost2010Prop56
140
1.0
102
RTVSPost2010PropOp56
 70
     1
102
RTVSPost2010Prop57
140
1.0
102
RTVSPost2010PropOp57
 70
     1
  0
XRECORD
  5
119
102
{ACAD_REACTORS
330
118
102
}
330
118
100
AcDbXrecord
280
     1
102
RTVSPost2010Prop28
280
     0
102
RTVSPost2010PropOp28
 70
     1
102
RTVSPost2010Prop29
280
     1
102
RTVSPost2010PropOp29
 70
     1
102
RTVSPost2010Prop30
280
     1
102
RTVSPost2010PropOp30
 70
     1
102
RTVSPost2010Prop31
280
     0
102
RTVSPost2010PropOp31
 70
     1
102
RTVSPost2010Prop32
280
     0
102
RTVSPost2010PropOp32
 70
     1
102
RTVSPost2010Prop33
280
     0
102
RTVSPost2010PropOp33
 70
     1
102
RTVSPost2010Prop34
280
     0
102
RTVSPost2010PropOp34
 70
     1
102
RTVSPost2010Prop35
280
     0
102
RTVSPost2010PropOp35
 70
     1
102
RTVSPost2010Prop36
280
     0
102
RTVSPost2010PropOp36
 70
     1
102
RTVSPost2010Prop37
 90
       50
102
RTVSPost2010PropOp37
 70
     1
102
RTVSPost2010Prop38
140
0.0
102
RTVSPost2010PropOp38
 70
     1
102
RTVSPost2010Prop39
140
1.0
102
RTVSPost2010PropOp39
 70
     1
102
RTVSPost2010Prop40
 90
        0
102
RTVSPost2010PropOp40
 70
     1
102
RTVSPost2010Prop41ColorIndex
 90
       18
102
RTVSPost2010Prop41ColorRGB
 90
        0
102
RTVSPost2010PropOp41
 70
     1
102
RTVSPost2010Prop42
 90
       50
102
RTVSPost2010PropOp42
 70
     1
102
RTVSPost2010Prop43
 90
        3
102
RTVSPost2010PropOp43
 70
     1
102
RTVSPost2010Prop44ColorIndex
 90
        5
102
RTVSPost2010Prop44ColorRGB
 90
      255
102
RTVSPost2010PropOp44
 70
     1
102
RTVSPost2010Prop45
280
     0
102
RTVSPost2010PropOp45
 70
     1
102
RTVSPost2010Prop46
 90
       50
102
RTVSPost2010PropOp46
 70
     1
102
RTVSPost2010Prop47
 90
       50
102
RTVSPost2010PropOp47
 70
     1
102
RTVSPost2010Prop48
 90
       50
102
RTVSPost2010PropOp48
 70
     1
102
RTVSPost2010Prop49
280
     0
102
RTVSPost2010PropOp49
 70
     1
102
RTVSPost2010Prop50
 90
       50
102
RTVSPost2010PropOp50
 70
     1
102
RTVSPost2010Prop51ColorIndex
 90
      256
102
RTVSPost2010Prop51ColorRGB
 90
-16777216
102
RTVSPost2010PropOp51
 70
     0
102
RTVSPost2010Prop52
140
1.0
102
RTVSPost2010PropOp52
 70
     0
102
RTVSPost2010Prop53
 90
        2
102
RTVSPost2010PropOp53
 70
     1
102
RTVSPost2010Prop54
  1
strokes_ogs.tif
102
RTVSPost2010PropOp54
 70
     1
102
RTVSPost2010Prop55
280
     0
102
RTVSPost2010PropOp55
 70
     1
102
RTVSPost2010Prop56
140
1.0
102
RTVSPost2010PropOp56
 70
     1
102
RTVSPost2010Prop57
140
1.0
102
RTVSPost2010PropOp57
 70
     1
  0
XRECORD
  5
11B
102
{ACAD_REACTORS
330
11A
102
}
330
11A
100
AcDbXrecord
280
     1
102
RTVSPost2010Prop28
280
     0
102
RTVSPost2010PropOp28
 70
     1
102
RTVSPost2010Prop29
280
     1
102
RTVSPost2010PropOp29
 70
     1
102
RTVSPost2010Prop30
280
     1
102
RTVSPost2010PropOp30
 70
     1
102
RTVSPost2010Prop31
280
     0
102
RTVSPost2010PropOp31
 70
     1
102
RTVSPost2010Prop32
280
     0
102
RTVSPost2010PropOp32
 70
     1
102
RTVSPost2010Prop33
280
     0
102
RTVSPost2010PropOp33
 70
     1
102
RTVSPost2010Prop34
280
     0
102
RTVSPost2010PropOp34
 70
     1
102
RTVSPost2010Prop35
280
     0
102
RTVSPost2010PropOp35
 70
     1
102
RTVSPost2010Prop36
280
     0
102
RTVSPost2010PropOp36
 70
     1
102
RTVSPost2010Prop37
 90
       50
102
RTVSPost2010PropOp37
 70
     1
102
RTVSPost2010Prop38
140
0.0
102
RTVSPost2010PropOp38
 70
     1
102
RTVSPost2010Prop39
140
1.0
102
RTVSPost2010PropOp39
 70
     1
102
RTVSPost2010Prop40
 90
        0
102
RTVSPost2010PropOp40
 70
     1
102
RTVSPost2010Prop41ColorIndex
 90
       18
102
RTVSPost2010Prop41ColorRGB
 90
        0
102
RTVSPost2010PropOp41
 70
     1
102
RTVSPost2010Prop42
 90
       50
102
RTVSPost2010PropOp42
 70
     1
102
RTVSPost2010Prop43
 90
        3
102
RTVSPost2010PropOp43
 70
     1
102
RTVSPost2010Prop44ColorIndex
 90
        5
102
RTVSPost2010Prop44ColorRGB
 90
      255
102
RTVSPost2010PropOp44
 70
     1
102
RTVSPost2010Prop45
280
     0
102
RTVSPost2010PropOp45
 70
     1
102
RTVSPost2010Prop46
 90
       50
102
RTVSPost2010PropOp46
 70
     1
102
RTVSPost2010Prop47
 90
       50
102
RTVSPost2010PropOp47
 70
     1
102
RTVSPost2010Prop48
 90
       50
102
RTVSPost2010PropOp48
 70
     1
102
RTVSPost2010Prop49
280
     0
102
RTVSPost2010PropOp49
 70
     1
102
RTVSPost2010Prop50
 90
       50
102
RTVSPost2010PropOp50
 70
     1
102
RTVSPost2010Prop51ColorIndex
 90
      256
102
RTVSPost2010Prop51ColorRGB
 90
-16777216
102
RTVSPost2010PropOp51
 70
     0
102
RTVSPost2010Prop52
140
1.0
102
RTVSPost2010PropOp52
 70
     0
102
RTVSPost2010Prop53
 90
        2
102
RTVSPost2010PropOp53
 70
     1
102
RTVSPost2010Prop54
  1
strokes_ogs.tif
102
RTVSPost2010PropOp54
 70
     1
102
RTVSPost2010Prop55
280
     0
102
RTVSPost2010PropOp55
 70
     1
102
RTVSPost2010Prop56
140
1.0
102
RTVSPost2010PropOp56
 70
     1
102
RTVSPost2010Prop57
140
1.0
102
RTVSPost2010PropOp57
 70
     1
  0
XRECORD
  5
11D
102
{ACAD_REACTORS
330
11C
102
}
330
11C
100
AcDbXrecord
280
     1
102
RTVSPost2010Prop28
280
     0
102
RTVSPost2010PropOp28
 70
     1
102
RTVSPost2010Prop29
280
     1
102
RTVSPost2010PropOp29
 70
     1
102
RTVSPost2010Prop30
280
     1
102
RTVSPost2010PropOp30
 70
     1
102
RTVSPost2010Prop31
280
     0
102
RTVSPost2010PropOp31
 70
     1
102
RTVSPost2010Prop32
280
     0
102
RTVSPost2010PropOp32
 70
     1
102
RTVSPost2010Prop33
280
     0
102
RTVSPost2010PropOp33
 70
     1
102
RTVSPost2010Prop34
280
     0
102
RTVSPost2010PropOp34
 70
     1
102
RTVSPost2010Prop35
280
     0
102
RTVSPost2010PropOp35
 70
     1
102
RTVSPost2010Prop36
280
     0
102
RTVSPost2010PropOp36
 70
     1
102
RTVSPost2010Prop37
 90
       50
102
RTVSPost2010PropOp37
 70
     1
102
RTVSPost2010Prop38
140
0.0
102
RTVSPost2010PropOp38
 70
     1
102
RTVSPost2010Prop39
140
1.0
102
RTVSPost2010PropOp39
 70
     1
102
RTVSPost2010Prop40
 90
        0
102
RTVSPost2010PropOp40
 70
     1
102
RTVSPost2010Prop41ColorIndex
 90
       18
102
RTVSPost2010Prop41ColorRGB
 90
        0
102
RTVSPost2010PropOp41
 70
     1
102
RTVSPost2010Prop42
 90
       50
102
RTVSPost2010PropOp42
 70
     1
102
RTVSPost2010Prop43
 90
        3
102
RTVSPost2010PropOp43
 70
     1
102
RTVSPost2010Prop44ColorIndex
 90
        5
102
RTVSPost2010Prop44ColorRGB
 90
      255
102
RTVSPost2010PropOp44
 70
     1
102
RTVSPost2010Prop45
280
     0
102
RTVSPost2010PropOp45
 70
     1
102
RTVSPost2010Prop46
 90
       50
102
RTVSPost2010PropOp46
 70
     1
102
RTVSPost2010Prop47
 90
       50
102
RTVSPost2010PropOp47
 70
     1
102
RTVSPost2010Prop48
 90
       50
102
RTVSPost2010PropOp48
 70
     1
102
RTVSPost2010Prop49
280
     0
102
RTVSPost2010PropOp49
 70
     1
102
RTVSPost2010Prop50
 90
       50
102
RTVSPost2010PropOp50
 70
     1
102
RTVSPost2010Prop51ColorIndex
 90
      256
102
RTVSPost2010Prop51ColorRGB
 90
-16777216
102
RTVSPost2010PropOp51
 70
     0
102
RTVSPost2010Prop52
140
1.0
102
RTVSPost2010PropOp52
 70
     0
102
RTVSPost2010Prop53
 90
        2
102
RTVSPost2010PropOp53
 70
     1
102
RTVSPost2010Prop54
  1
strokes_ogs.tif
102
RTVSPost2010PropOp54
 70
     1
102
RTVSPost2010Prop55
280
     0
102
RTVSPost2010PropOp55
 70
     1
102
RTVSPost2010Prop56
140
1.0
102
RTVSPost2010PropOp56
 70
     1
102
RTVSPost2010Prop57
140
1.0
102
RTVSPost2010PropOp57
 70
     1
  0
XRECORD
  5
11F
102
{ACAD_REACTORS
330
11E
102
}
330
11E
100
AcDbXrecord
280
     1
102
RTVSPost2010Prop28
280
     0
102
RTVSPost2010PropOp28
 70
     1
102
RTVSPost2010Prop29
280
     1
102
RTVSPost2010PropOp29
 70
     1
102
RTVSPost2010Prop30
280
     1
102
RTVSPost2010PropOp30
 70
     1
102
RTVSPost2010Prop31
280
     0
102
RTVSPost2010PropOp31
 70
     1
102
RTVSPost2010Prop32
280
     0
102
RTVSPost2010PropOp32
 70
     1
102
RTVSPost2010Prop33
280
     0
102
RTVSPost2010PropOp33
 70
     1
102
RTVSPost2010Prop34
280
     0
102
RTVSPost2010PropOp34
 70
     1
102
RTVSPost2010Prop35
280
     0
102
RTVSPost2010PropOp35
 70
     1
102
RTVSPost2010Prop36
280
     0
102
RTVSPost2010PropOp36
 70
     1
102
RTVSPost2010Prop37
 90
       50
102
RTVSPost2010PropOp37
 70
     1
102
RTVSPost2010Prop38
140
0.0
102
RTVSPost2010PropOp38
 70
     1
102
RTVSPost2010Prop39
140
1.0
102
RTVSPost2010PropOp39
 70
     1
102
RTVSPost2010Prop40
 90
        0
102
RTVSPost2010PropOp40
 70
     1
102
RTVSPost2010Prop41ColorIndex
 90
       18
102
RTVSPost2010Prop41ColorRGB
 90
        0
102
RTVSPost2010PropOp41
 70
     1
102
RTVSPost2010Prop42
 90
       50
102
RTVSPost2010PropOp42
 70
     1
102
RTVSPost2010Prop43
 90
        3
102
RTVSPost2010PropOp43
 70
     1
102
RTVSPost2010Prop44ColorIndex
 90
        5
102
RTVSPost2010Prop44ColorRGB
 90
      255
102
RTVSPost2010PropOp44
 70
     1
102
RTVSPost2010Prop45
280
     0
102
RTVSPost2010PropOp45
 70
     1
102
RTVSPost2010Prop46
 90
       50
102
RTVSPost2010PropOp46
 70
     1
102
RTVSPost2010Prop47
 90
       50
102
RTVSPost2010PropOp47
 70
     1
102
RTVSPost2010Prop48
 90
       50
102
RTVSPost2010PropOp48
 70
     1
102
RTVSPost2010Prop49
280
     0
102
RTVSPost2010PropOp49
 70
     1
102
RTVSPost2010Prop50
 90
       50
102
RTVSPost2010PropOp50
 70
     1
102
RTVSPost2010Prop51ColorIndex
 90
      256
102
RTVSPost2010Prop51ColorRGB
 90
-16777216
102
RTVSPost2010PropOp51
 70
     0
102
RTVSPost2010Prop52
140
1.0
102
RTVSPost2010PropOp52
 70
     0
102
RTVSPost2010Prop53
 90
        2
102
RTVSPost2010PropOp53
 70
     1
102
RTVSPost2010Prop54
  1
strokes_ogs.tif
102
RTVSPost2010PropOp54
 70
     1
102
RTVSPost2010Prop55
280
     0
102
RTVSPost2010PropOp55
 70
     1
102
RTVSPost2010Prop56
140
1.0
102
RTVSPost2010PropOp56
 70
     1
102
RTVSPost2010Prop57
140
1.0
102
RTVSPost2010PropOp57
 70
     1
  0
XRECORD
  5
127
102
{ACAD_REACTORS
330
126
102
}
330
126
100
AcDbXrecord
280
     1
102
RTVSPost2010Prop28
280
     0
102
RTVSPost2010PropOp28
 70
     1
102
RTVSPost2010Prop29
280
     1
102
RTVSPost2010PropOp29
 70
     1
102
RTVSPost2010Prop30
280
     1
102
RTVSPost2010PropOp30
 70
     1
102
RTVSPost2010Prop31
280
     0
102
RTVSPost2010PropOp31
 70
     1
102
RTVSPost2010Prop32
280
     0
102
RTVSPost2010PropOp32
 70
     1
102
RTVSPost2010Prop33
280
     0
102
RTVSPost2010PropOp33
 70
     1
102
RTVSPost2010Prop34
280
     0
102
RTVSPost2010PropOp34
 70
     1
102
RTVSPost2010Prop35
280
     0
102
RTVSPost2010PropOp35
 70
     1
102
RTVSPost2010Prop36
280
     0
102
RTVSPost2010PropOp36
 70
     1
102
RTVSPost2010Prop37
 90
       50
102
RTVSPost2010PropOp37
 70
     1
102
RTVSPost2010Prop38
140
0.0
102
RTVSPost2010PropOp38
 70
     1
102
RTVSPost2010Prop39
140
1.0
102
RTVSPost2010PropOp39
 70
     1
102
RTVSPost2010Prop40
 90
        0
102
RTVSPost2010PropOp40
 70
     1
102
RTVSPost2010Prop41ColorIndex
 90
       18
102
RTVSPost2010Prop41ColorRGB
 90
        0
102
RTVSPost2010PropOp41
 70
     1
102
RTVSPost2010Prop42
 90
       50
102
RTVSPost2010PropOp42
 70
     1
102
RTVSPost2010Prop43
 90
        3
102
RTVSPost2010PropOp43
 70
     1
102
RTVSPost2010Prop44ColorIndex
 90
        5
102
RTVSPost2010Prop44ColorRGB
 90
      255
102
RTVSPost2010PropOp44
 70
     1
102
RTVSPost2010Prop45
280
     0
102
RTVSPost2010PropOp45
 70
     1
102
RTVSPost2010Prop46
 90
       50
102
RTVSPost2010PropOp46
 70
     1
102
RTVSPost2010Prop47
 90
       50
102
RTVSPost2010PropOp47
 70
     1
102
RTVSPost2010Prop48
 90
       50
102
RTVSPost2010PropOp48
 70
     1
102
RTVSPost2010Prop49
280
     0
102
RTVSPost2010PropOp49
 70
     1
102
RTVSPost2010Prop50
 90
       50
102
RTVSPost2010PropOp50
 70
     1
102
RTVSPost2010Prop51ColorIndex
 90
      256
102
RTVSPost2010Prop51ColorRGB
 90
-16777216
102
RTVSPost2010PropOp51
 70
     0
102
RTVSPost2010Prop52
140
1.0
102
RTVSPost2010PropOp52
 70
     0
102
RTVSPost2010Prop53
 90
        2
102
RTVSPost2010PropOp53
 70
     1
102
RTVSPost2010Prop54
  1
strokes_ogs.tif
102
RTVSPost2010PropOp54
 70
     1
102
RTVSPost2010Prop55
280
     0
102
RTVSPost2010PropOp55
 70
     1
102
RTVSPost2010Prop56
140
1.0
102
RTVSPost2010PropOp56
 70
     1
102
RTVSPost2010Prop57
140
1.0
102
RTVSPost2010PropOp57
 70
     1
  0
XRECORD
  5
143
102
{ACAD_REACTORS
330
142
102
}
330
142
100
AcDbXrecord
280
     1
102
RTVSPost2010Prop28
280
     0
102
RTVSPost2010PropOp28
 70
     0
102
RTVSPost2010Prop29
280
     1
102
RTVSPost2010PropOp29
 70
     0
102
RTVSPost2010Prop30
280
     1
102
RTVSPost2010PropOp30
 70
     0
102
RTVSPost2010Prop31
280
     0
102
RTVSPost2010PropOp31
 70
     0
102
RTVSPost2010Prop32
280
     0
102
RTVSPost2010PropOp32
 70
     0
102
RTVSPost2010Prop33
280
     0
102
RTVSPost2010PropOp33
 70
     0
102
RTVSPost2010Prop34
280
     0
102
RTVSPost2010PropOp34
 70
     0
102
RTVSPost2010Prop35
280
     0
102
RTVSPost2010PropOp35
 70
     0
102
RTVSPost2010Prop36
280
     0
102
RTVSPost2010PropOp36
 70
     0
102
RTVSPost2010Prop37
 90
       50
102
RTVSPost2010PropOp37
 70
     0
102
RTVSPost2010Prop38
140
0.0
102
RTVSPost2010PropOp38
 70
     0
102
RTVSPost2010Prop39
140
1.0
102
RTVSPost2010PropOp39
 70
     0
102
RTVSPost2010Prop40
 90
        0
102
RTVSPost2010PropOp40
 70
     0
102
RTVSPost2010Prop41ColorIndex
 90
       18
102
RTVSPost2010Prop41ColorRGB
 90
        0
102
RTVSPost2010PropOp41
 70
     0
102
RTVSPost2010Prop42
 90
       50
102
RTVSPost2010PropOp42
 70
     0
102
RTVSPost2010Prop43
 90
        3
102
RTVSPost2010PropOp43
 70
     0
102
RTVSPost2010Prop44ColorIndex
 90
        5
102
RTVSPost2010Prop44ColorRGB
 90
      255
102
RTVSPost2010PropOp44
 70
     0
102
RTVSPost2010Prop45
280
     0
102
RTVSPost2010PropOp45
 70
     0
102
RTVSPost2010Prop46
 90
       50
102
RTVSPost2010PropOp46
 70
     0
102
RTVSPost2010Prop47
 90
       50
102
RTVSPost2010PropOp47
 70
     0
102
RTVSPost2010Prop48
 90
       50
102
RTVSPost2010PropOp48
 70
     0
102
RTVSPost2010Prop49
280
     0
102
RTVSPost2010PropOp49
 70
     0
102
RTVSPost2010Prop50
 90
       50
102
RTVSPost2010PropOp50
 70
     0
102
RTVSPost2010Prop51ColorIndex
 90
      256
102
RTVSPost2010Prop51ColorRGB
 90
-16777216
102
RTVSPost2010PropOp51
 70
     0
102
RTVSPost2010Prop52
140
1.0
102
RTVSPost2010PropOp52
 70
     0
102
RTVSPost2010Prop53
 90
        2
102
RTVSPost2010PropOp53
 70
     0
102
RTVSPost2010Prop54
  1
strokes_ogs.tif
102
RTVSPost2010PropOp54
 70
     0
102
RTVSPost2010Prop55
280
     0
102
RTVSPost2010PropOp55
 70
     0
102
RTVSPost2010Prop56
140
1.0
102
RTVSPost2010PropOp56
 70
     0
102
RTVSPost2010Prop57
140
1.0
102
RTVSPost2010PropOp57
 70
     0
  0
XRECORD
  5
133
102
{ACAD_REACTORS
330
132
102
}
330
132
100
AcDbXrecord
280
     1
102
RTVSPost2010Prop28
280
     0
102
RTVSPost2010PropOp28
 70
     1
102
RTVSPost2010Prop29
280
     1
102
RTVSPost2010PropOp29
 70
     1
102
RTVSPost2010Prop30
280
     1
102
RTVSPost2010PropOp30
 70
     1
102
RTVSPost2010Prop31
280
     0
102
RTVSPost2010PropOp31
 70
     1
102
RTVSPost2010Prop32
280
     0
102
RTVSPost2010PropOp32
 70
     1
102
RTVSPost2010Prop33
280
     0
102
RTVSPost2010PropOp33
 70
     1
102
RTVSPost2010Prop34
280
     0
102
RTVSPost2010PropOp34
 70
     1
102
RTVSPost2010Prop35
280
     0
102
RTVSPost2010PropOp35
 70
     1
102
RTVSPost2010Prop36
280
     0
102
RTVSPost2010PropOp36
 70
     1
102
RTVSPost2010Prop37
 90
       50
102
RTVSPost2010PropOp37
 70
     1
102
RTVSPost2010Prop38
140
0.0
102
RTVSPost2010PropOp38
 70
     1
102
RTVSPost2010Prop39
140
1.0
102
RTVSPost2010PropOp39
 70
     1
102
RTVSPost2010Prop40
 90
        0
102
RTVSPost2010PropOp40
 70
     1
102
RTVSPost2010Prop41ColorIndex
 90
       18
102
RTVSPost2010Prop41ColorRGB
 90
        0
102
RTVSPost2010PropOp41
 70
     1
102
RTVSPost2010Prop42
 90
       50
102
RTVSPost2010PropOp42
 70
     1
102
RTVSPost2010Prop43
 90
        3
102
RTVSPost2010PropOp43
 70
     1
102
RTVSPost2010Prop44ColorIndex
 90
        5
102
RTVSPost2010Prop44ColorRGB
 90
      255
102
RTVSPost2010PropOp44
 70
     1
102
RTVSPost2010Prop45
280
     0
102
RTVSPost2010PropOp45
 70
     1
102
RTVSPost2010Prop46
 90
       50
102
RTVSPost2010PropOp46
 70
     1
102
RTVSPost2010Prop47
 90
       50
102
RTVSPost2010PropOp47
 70
     1
102
RTVSPost2010Prop48
 90
       50
102
RTVSPost2010PropOp48
 70
     1
102
RTVSPost2010Prop49
280
     0
102
RTVSPost2010PropOp49
 70
     1
102
RTVSPost2010Prop50
 90
       50
102
RTVSPost2010PropOp50
 70
     1
102
RTVSPost2010Prop51ColorIndex
 90
      256
102
RTVSPost2010Prop51ColorRGB
 90
-16777216
102
RTVSPost2010PropOp51
 70
     0
102
RTVSPost2010Prop52
140
1.0
102
RTVSPost2010PropOp52
 70
     0
102
RTVSPost2010Prop53
 90
        2
102
RTVSPost2010PropOp53
 70
     1
102
RTVSPost2010Prop54
  1
strokes_ogs.tif
102
RTVSPost2010PropOp54
 70
     1
102
RTVSPost2010Prop55
280
     0
102
RTVSPost2010PropOp55
 70
     1
102
RTVSPost2010Prop56
140
1.0
102
RTVSPost2010PropOp56
 70
     1
102
RTVSPost2010Prop57
140
1.0
102
RTVSPost2010PropOp57
 70
     1
  0
XRECORD
  5
145
102
{ACAD_REACTORS
330
144
102
}
330
144
100
AcDbXrecord
280
     1
102
RTVSPost2010Prop28
280
     0
102
RTVSPost2010PropOp28
 70
     0
102
RTVSPost2010Prop29
280
     1
102
RTVSPost2010PropOp29
 70
     0
102
RTVSPost2010Prop30
280
     1
102
RTVSPost2010PropOp30
 70
     0
102
RTVSPost2010Prop31
280
     0
102
RTVSPost2010PropOp31
 70
     0
102
RTVSPost2010Prop32
280
     0
102
RTVSPost2010PropOp32
 70
     0
102
RTVSPost2010Prop33
280
     0
102
RTVSPost2010PropOp33
 70
     0
102
RTVSPost2010Prop34
280
     0
102
RTVSPost2010PropOp34
 70
     0
102
RTVSPost2010Prop35
280
     0
102
RTVSPost2010PropOp35
 70
     0
102
RTVSPost2010Prop36
280
     0
102
RTVSPost2010PropOp36
 70
     0
102
RTVSPost2010Prop37
 90
       50
102
RTVSPost2010PropOp37
 70
     0
102
RTVSPost2010Prop38
140
0.0
102
RTVSPost2010PropOp38
 70
     0
102
RTVSPost2010Prop39
140
1.0
102
RTVSPost2010PropOp39
 70
     0
102
RTVSPost2010Prop40
 90
        0
102
RTVSPost2010PropOp40
 70
     0
102
RTVSPost2010Prop41ColorIndex
 90
       18
102
RTVSPost2010Prop41ColorRGB
 90
        0
102
RTVSPost2010PropOp41
 70
     0
102
RTVSPost2010Prop42
 90
       50
102
RTVSPost2010PropOp42
 70
     0
102
RTVSPost2010Prop43
 90
        3
102
RTVSPost2010PropOp43
 70
     0
102
RTVSPost2010Prop44ColorIndex
 90
        5
102
RTVSPost2010Prop44ColorRGB
 90
      255
102
RTVSPost2010PropOp44
 70
     0
102
RTVSPost2010Prop45
280
     0
102
RTVSPost2010PropOp45
 70
     0
102
RTVSPost2010Prop46
 90
       50
102
RTVSPost2010PropOp46
 70
     0
102
RTVSPost2010Prop47
 90
       50
102
RTVSPost2010PropOp47
 70
     0
102
RTVSPost2010Prop48
 90
       50
102
RTVSPost2010PropOp48
 70
     0
102
RTVSPost2010Prop49
280
     0
102
RTVSPost2010PropOp49
 70
     0
102
RTVSPost2010Prop50
 90
       50
102
RTVSPost2010PropOp50
 70
     0
102
RTVSPost2010Prop51ColorIndex
 90
      256
102
RTVSPost2010Prop51ColorRGB
 90
-16777216
102
RTVSPost2010PropOp51
 70
     0
102
RTVSPost2010Prop52
140
1.0
102
RTVSPost2010PropOp52
 70
     0
102
RTVSPost2010Prop53
 90
        2
102
RTVSPost2010PropOp53
 70
     0
102
RTVSPost2010Prop54
  1
strokes_ogs.tif
102
RTVSPost2010PropOp54
 70
     0
102
RTVSPost2010Prop55
280
     0
102
RTVSPost2010PropOp55
 70
     0
102
RTVSPost2010Prop56
140
1.0
102
RTVSPost2010PropOp56
 70
     0
102
RTVSPost2010Prop57
140
1.0
102
RTVSPost2010PropOp57
 70
     0
  0
XRECORD
  5
12B
102
{ACAD_REACTORS
330
12A
102
}
330
12A
100
AcDbXrecord
280
     1
102
RTVSPost2010Prop28
280
     0
102
RTVSPost2010PropOp28
 70
     1
102
RTVSPost2010Prop29
280
     1
102
RTVSPost2010PropOp29
 70
     1
102
RTVSPost2010Prop30
280
     1
102
RTVSPost2010PropOp30
 70
     1
102
RTVSPost2010Prop31
280
     0
102
RTVSPost2010PropOp31
 70
     1
102
RTVSPost2010Prop32
280
     0
102
RTVSPost2010PropOp32
 70
     1
102
RTVSPost2010Prop33
280
     0
102
RTVSPost2010PropOp33
 70
     1
102
RTVSPost2010Prop34
280
     0
102
RTVSPost2010PropOp34
 70
     1
102
RTVSPost2010Prop35
280
     0
102
RTVSPost2010PropOp35
 70
     1
102
RTVSPost2010Prop36
280
     0
102
RTVSPost2010PropOp36
 70
     1
102
RTVSPost2010Prop37
 90
       50
102
RTVSPost2010PropOp37
 70
     1
102
RTVSPost2010Prop38
140
0.0
102
RTVSPost2010PropOp38
 70
     1
102
RTVSPost2010Prop39
140
1.0
102
RTVSPost2010PropOp39
 70
     1
102
RTVSPost2010Prop40
 90
        0
102
RTVSPost2010PropOp40
 70
     1
102
RTVSPost2010Prop41ColorIndex
 90
       18
102
RTVSPost2010Prop41ColorRGB
 90
        0
102
RTVSPost2010PropOp41
 70
     1
102
RTVSPost2010Prop42
 90
       50
102
RTVSPost2010PropOp42
 70
     1
102
RTVSPost2010Prop43
 90
        3
102
RTVSPost2010PropOp43
 70
     1
102
RTVSPost2010Prop44ColorIndex
 90
        5
102
RTVSPost2010Prop44ColorRGB
 90
      255
102
RTVSPost2010PropOp44
 70
     1
102
RTVSPost2010Prop45
280
     0
102
RTVSPost2010PropOp45
 70
     1
102
RTVSPost2010Prop46
 90
       50
102
RTVSPost2010PropOp46
 70
     1
102
RTVSPost2010Prop47
 90
       50
102
RTVSPost2010PropOp47
 70
     1
102
RTVSPost2010Prop48
 90
       50
102
RTVSPost2010PropOp48
 70
     1
102
RTVSPost2010Prop49
280
     0
102
RTVSPost2010PropOp49
 70
     1
102
RTVSPost2010Prop50
 90
       50
102
RTVSPost2010PropOp50
 70
     1
102
RTVSPost2010Prop51ColorIndex
 90
      256
102
RTVSPost2010Prop51ColorRGB
 90
-16777216
102
RTVSPost2010PropOp51
 70
     0
102
RTVSPost2010Prop52
140
1.0
102
RTVSPost2010PropOp52
 70
     0
102
RTVSPost2010Prop53
 90
        2
102
RTVSPost2010PropOp53
 70
     1
102
RTVSPost2010Prop54
  1
strokes_ogs.tif
102
RTVSPost2010PropOp54
 70
     1
102
RTVSPost2010Prop55
280
     0
102
RTVSPost2010PropOp55
 70
     1
102
RTVSPost2010Prop56
140
1.0
102
RTVSPost2010PropOp56
 70
     1
102
RTVSPost2010Prop57
140
1.0
102
RTVSPost2010PropOp57
 70
     1
  0
XRECORD
  5
141
102
{ACAD_REACTORS
330
140
102
}
330
140
100
AcDbXrecord
280
     1
102
RTVSPost2010Prop28
280
     0
102
RTVSPost2010PropOp28
 70
     1
102
RTVSPost2010Prop29
280
     1
102
RTVSPost2010PropOp29
 70
     1
102
RTVSPost2010Prop30
280
     1
102
RTVSPost2010PropOp30
 70
     1
102
RTVSPost2010Prop31
280
     0
102
RTVSPost2010PropOp31
 70
     1
102
RTVSPost2010Prop32
280
     0
102
RTVSPost2010PropOp32
 70
     1
102
RTVSPost2010Prop33
280
     0
102
RTVSPost2010PropOp33
 70
     1
102
RTVSPost2010Prop34
280
     0
102
RTVSPost2010PropOp34
 70
     1
102
RTVSPost2010Prop35
280
     0
102
RTVSPost2010PropOp35
 70
     1
102
RTVSPost2010Prop36
280
     0
102
RTVSPost2010PropOp36
 70
     1
102
RTVSPost2010Prop37
 90
       50
102
RTVSPost2010PropOp37
 70
     1
102
RTVSPost2010Prop38
140
0.0
102
RTVSPost2010PropOp38
 70
     1
102
RTVSPost2010Prop39
140
1.0
102
RTVSPost2010PropOp39
 70
     1
102
RTVSPost2010Prop40
 90
        0
102
RTVSPost2010PropOp40
 70
     1
102
RTVSPost2010Prop41ColorIndex
 90
       18
102
RTVSPost2010Prop41ColorRGB
 90
        0
102
RTVSPost2010PropOp41
 70
     1
102
RTVSPost2010Prop42
 90
       50
102
RTVSPost2010PropOp42
 70
     1
102
RTVSPost2010Prop43
 90
        3
102
RTVSPost2010PropOp43
 70
     1
102
RTVSPost2010Prop44ColorIndex
 90
        5
102
RTVSPost2010Prop44ColorRGB
 90
      255
102
RTVSPost2010PropOp44
 70
     1
102
RTVSPost2010Prop45
280
     0
102
RTVSPost2010PropOp45
 70
     1
102
RTVSPost2010Prop46
 90
       50
102
RTVSPost2010PropOp46
 70
     1
102
RTVSPost2010Prop47
 90
       50
102
RTVSPost2010PropOp47
 70
     1
102
RTVSPost2010Prop48
 90
       50
102
RTVSPost2010PropOp48
 70
     1
102
RTVSPost2010Prop49
280
     0
102
RTVSPost2010PropOp49
 70
     1
102
RTVSPost2010Prop50
 90
       50
102
RTVSPost2010PropOp50
 70
     1
102
RTVSPost2010Prop51ColorIndex
 90
      256
102
RTVSPost2010Prop51ColorRGB
 90
-16777216
102
RTVSPost2010PropOp51
 70
     0
102
RTVSPost2010Prop52
140
1.0
102
RTVSPost2010PropOp52
 70
     0
102
RTVSPost2010Prop53
 90
        2
102
RTVSPost2010PropOp53
 70
     1
102
RTVSPost2010Prop54
  1
strokes_ogs.tif
102
RTVSPost2010PropOp54
 70
     1
102
RTVSPost2010Prop55
280
     0
102
RTVSPost2010PropOp55
 70
     1
102
RTVSPost2010Prop56
140
1.0
102
RTVSPost2010PropOp56
 70
     1
102
RTVSPost2010Prop57
140
1.0
102
RTVSPost2010PropOp57
 70
     1
  0
XRECORD
  5
13F
102
{ACAD_REACTORS
330
13E
102
}
330
13E
100
AcDbXrecord
280
     1
102
RTVSPost2010Prop28
280
     0
102
RTVSPost2010PropOp28
 70
     1
102
RTVSPost2010Prop29
280
     1
102
RTVSPost2010PropOp29
 70
     1
102
RTVSPost2010Prop30
280
     1
102
RTVSPost2010PropOp30
 70
     1
102
RTVSPost2010Prop31
280
     0
102
RTVSPost2010PropOp31
 70
     1
102
RTVSPost2010Prop32
280
     0
102
RTVSPost2010PropOp32
 70
     1
102
RTVSPost2010Prop33
280
     0
102
RTVSPost2010PropOp33
 70
     1
102
RTVSPost2010Prop34
280
     0
102
RTVSPost2010PropOp34
 70
     1
102
RTVSPost2010Prop35
280
     0
102
RTVSPost2010PropOp35
 70
     1
102
RTVSPost2010Prop36
280
     0
102
RTVSPost2010PropOp36
 70
     1
102
RTVSPost2010Prop37
 90
       50
102
RTVSPost2010PropOp37
 70
     1
102
RTVSPost2010Prop38
140
0.0
102
RTVSPost2010PropOp38
 70
     1
102
RTVSPost2010Prop39
140
1.0
102
RTVSPost2010PropOp39
 70
     1
102
RTVSPost2010Prop40
 90
        0
102
RTVSPost2010PropOp40
 70
     1
102
RTVSPost2010Prop41ColorIndex
 90
       18
102
RTVSPost2010Prop41ColorRGB
 90
        0
102
RTVSPost2010PropOp41
 70
     1
102
RTVSPost2010Prop42
 90
       50
102
RTVSPost2010PropOp42
 70
     1
102
RTVSPost2010Prop43
 90
        3
102
RTVSPost2010PropOp43
 70
     1
102
RTVSPost2010Prop44ColorIndex
 90
        5
102
RTVSPost2010Prop44ColorRGB
 90
      255
102
RTVSPost2010PropOp44
 70
     1
102
RTVSPost2010Prop45
280
     0
102
RTVSPost2010PropOp45
 70
     1
102
RTVSPost2010Prop46
 90
       50
102
RTVSPost2010PropOp46
 70
     1
102
RTVSPost2010Prop47
 90
       50
102
RTVSPost2010PropOp47
 70
     1
102
RTVSPost2010Prop48
 90
       50
102
RTVSPost2010PropOp48
 70
     1
102
RTVSPost2010Prop49
280
     0
102
RTVSPost2010PropOp49
 70
     1
102
RTVSPost2010Prop50
 90
       50
102
RTVSPost2010PropOp50
 70
     1
102
RTVSPost2010Prop51ColorIndex
 90
      256
102
RTVSPost2010Prop51ColorRGB
 90
-16777216
102
RTVSPost2010PropOp51
 70
     0
102
RTVSPost2010Prop52
140
1.0
102
RTVSPost2010PropOp52
 70
     0
102
RTVSPost2010Prop53
 90
        2
102
RTVSPost2010PropOp53
 70
     1
102
RTVSPost2010Prop54
  1
strokes_ogs.tif
102
RTVSPost2010PropOp54
 70
     1
102
RTVSPost2010Prop55
280
     0
102
RTVSPost2010PropOp55
 70
     1
102
RTVSPost2010Prop56
140
1.0
102
RTVSPost2010PropOp56
 70
     1
102
RTVSPost2010Prop57
140
1.0
102
RTVSPost2010PropOp57
 70
     1
  0
XRECORD
  5
139
102
{ACAD_REACTORS
330
138
102
}
330
138
100
AcDbXrecord
280
     1
102
RTVSPost2010Prop28
280
     0
102
RTVSPost2010PropOp28
 70
     1
102
RTVSPost2010Prop29
280
     1
102
RTVSPost2010PropOp29
 70
     1
102
RTVSPost2010Prop30
280
     1
102
RTVSPost2010PropOp30
 70
     1
102
RTVSPost2010Prop31
280
     0
102
RTVSPost2010PropOp31
 70
     1
102
RTVSPost2010Prop32
280
     0
102
RTVSPost2010PropOp32
 70
     1
102
RTVSPost2010Prop33
280
     0
102
RTVSPost2010PropOp33
 70
     1
102
RTVSPost2010Prop34
280
     0
102
RTVSPost2010PropOp34
 70
     1
102
RTVSPost2010Prop35
280
     0
102
RTVSPost2010PropOp35
 70
     1
102
RTVSPost2010Prop36
280
     0
102
RTVSPost2010PropOp36
 70
     1
102
RTVSPost2010Prop37
 90
       50
102
RTVSPost2010PropOp37
 70
     1
102
RTVSPost2010Prop38
140
0.0
102
RTVSPost2010PropOp38
 70
     1
102
RTVSPost2010Prop39
140
1.0
102
RTVSPost2010PropOp39
 70
     1
102
RTVSPost2010Prop40
 90
        0
102
RTVSPost2010PropOp40
 70
     1
102
RTVSPost2010Prop41ColorIndex
 90
       18
102
RTVSPost2010Prop41ColorRGB
 90
        0
102
RTVSPost2010PropOp41
 70
     1
102
RTVSPost2010Prop42
 90
       50
102
RTVSPost2010PropOp42
 70
     1
102
RTVSPost2010Prop43
 90
        3
102
RTVSPost2010PropOp43
 70
     1
102
RTVSPost2010Prop44ColorIndex
 90
        5
102
RTVSPost2010Prop44ColorRGB
 90
      255
102
RTVSPost2010PropOp44
 70
     1
102
RTVSPost2010Prop45
280
     0
102
RTVSPost2010PropOp45
 70
     1
102
RTVSPost2010Prop46
 90
       50
102
RTVSPost2010PropOp46
 70
     1
102
RTVSPost2010Prop47
 90
       50
102
RTVSPost2010PropOp47
 70
     1
102
RTVSPost2010Prop48
 90
       50
102
RTVSPost2010PropOp48
 70
     1
102
RTVSPost2010Prop49
280
     0
102
RTVSPost2010PropOp49
 70
     1
102
RTVSPost2010Prop50
 90
       50
102
RTVSPost2010PropOp50
 70
     1
102
RTVSPost2010Prop51ColorIndex
 90
      256
102
RTVSPost2010Prop51ColorRGB
 90
-16777216
102
RTVSPost2010PropOp51
 70
     0
102
RTVSPost2010Prop52
140
1.0
102
RTVSPost2010PropOp52
 70
     0
102
RTVSPost2010Prop53
 90
        2
102
RTVSPost2010PropOp53
 70
     1
102
RTVSPost2010Prop54
  1
strokes_ogs.tif
102
RTVSPost2010PropOp54
 70
     1
102
RTVSPost2010Prop55
280
     0
102
RTVSPost2010PropOp55
 70
     1
102
RTVSPost2010Prop56
140
1.0
102
RTVSPost2010PropOp56
 70
     1
102
RTVSPost2010Prop57
140
1.0
102
RTVSPost2010PropOp57
 70
     1
  0
XRECORD
  5
13B
102
{ACAD_REACTORS
330
13A
102
}
330
13A
100
AcDbXrecord
280
     1
102
RTVSPost2010Prop28
280
     0
102
RTVSPost2010PropOp28
 70
     1
102
RTVSPost2010Prop29
280
     1
102
RTVSPost2010PropOp29
 70
     1
102
RTVSPost2010Prop30
280
     1
102
RTVSPost2010PropOp30
 70
     1
102
RTVSPost2010Prop31
280
     0
102
RTVSPost2010PropOp31
 70
     1
102
RTVSPost2010Prop32
280
     0
102
RTVSPost2010PropOp32
 70
     1
102
RTVSPost2010Prop33
280
     0
102
RTVSPost2010PropOp33
 70
     1
102
RTVSPost2010Prop34
280
     0
102
RTVSPost2010PropOp34
 70
     1
102
RTVSPost2010Prop35
280
     0
102
RTVSPost2010PropOp35
 70
     1
102
RTVSPost2010Prop36
280
     0
102
RTVSPost2010PropOp36
 70
     1
102
RTVSPost2010Prop37
 90
       50
102
RTVSPost2010PropOp37
 70
     1
102
RTVSPost2010Prop38
140
0.0
102
RTVSPost2010PropOp38
 70
     1
102
RTVSPost2010Prop39
140
1.0
102
RTVSPost2010PropOp39
 70
     1
102
RTVSPost2010Prop40
 90
        0
102
RTVSPost2010PropOp40
 70
     1
102
RTVSPost2010Prop41ColorIndex
 90
       18
102
RTVSPost2010Prop41ColorRGB
 90
        0
102
RTVSPost2010PropOp41
 70
     1
102
RTVSPost2010Prop42
 90
       50
102
RTVSPost2010PropOp42
 70
     1
102
RTVSPost2010Prop43
 90
        3
102
RTVSPost2010PropOp43
 70
     1
102
RTVSPost2010Prop44ColorIndex
 90
        5
102
RTVSPost2010Prop44ColorRGB
 90
      255
102
RTVSPost2010PropOp44
 70
     1
102
RTVSPost2010Prop45
280
     0
102
RTVSPost2010PropOp45
 70
     1
102
RTVSPost2010Prop46
 90
       50
102
RTVSPost2010PropOp46
 70
     1
102
RTVSPost2010Prop47
 90
       50
102
RTVSPost2010PropOp47
 70
     1
102
RTVSPost2010Prop48
 90
       50
102
RTVSPost2010PropOp48
 70
     1
102
RTVSPost2010Prop49
280
     0
102
RTVSPost2010PropOp49
 70
     1
102
RTVSPost2010Prop50
 90
       50
102
RTVSPost2010PropOp50
 70
     1
102
RTVSPost2010Prop51ColorIndex
 90
      256
102
RTVSPost2010Prop51ColorRGB
 90
-16777216
102
RTVSPost2010PropOp51
 70
     0
102
RTVSPost2010Prop52
140
1.0
102
RTVSPost2010PropOp52
 70
     0
102
RTVSPost2010Prop53
 90
        2
102
RTVSPost2010PropOp53
 70
     1
102
RTVSPost2010Prop54
  1
strokes_ogs.tif
102
RTVSPost2010PropOp54
 70
     1
102
RTVSPost2010Prop55
280
     0
102
RTVSPost2010PropOp55
 70
     1
102
RTVSPost2010Prop56
140
1.0
102
RTVSPost2010PropOp56
 70
     1
102
RTVSPost2010Prop57
140
1.0
102
RTVSPost2010PropOp57
 70
     1
  0
XRECORD
  5
131
102
{ACAD_REACTORS
330
130
102
}
330
130
100
AcDbXrecord
280
     1
102
RTVSPost2010Prop28
280
     0
102
RTVSPost2010PropOp28
 70
     1
102
RTVSPost2010Prop29
280
     1
102
RTVSPost2010PropOp29
 70
     1
102
RTVSPost2010Prop30
280
     1
102
RTVSPost2010PropOp30
 70
     1
102
RTVSPost2010Prop31
280
     0
102
RTVSPost2010PropOp31
 70
     1
102
RTVSPost2010Prop32
280
     0
102
RTVSPost2010PropOp32
 70
     1
102
RTVSPost2010Prop33
280
     0
102
RTVSPost2010PropOp33
 70
     1
102
RTVSPost2010Prop34
280
     0
102
RTVSPost2010PropOp34
 70
     1
102
RTVSPost2010Prop35
280
     0
102
RTVSPost2010PropOp35
 70
     1
102
RTVSPost2010Prop36
280
     0
102
RTVSPost2010PropOp36
 70
     1
102
RTVSPost2010Prop37
 90
       50
102
RTVSPost2010PropOp37
 70
     1
102
RTVSPost2010Prop38
140
0.0
102
RTVSPost2010PropOp38
 70
     1
102
RTVSPost2010Prop39
140
1.0
102
RTVSPost2010PropOp39
 70
     1
102
RTVSPost2010Prop40
 90
        0
102
RTVSPost2010PropOp40
 70
     1
102
RTVSPost2010Prop41ColorIndex
 90
       18
102
RTVSPost2010Prop41ColorRGB
 90
        0
102
RTVSPost2010PropOp41
 70
     1
102
RTVSPost2010Prop42
 90
       50
102
RTVSPost2010PropOp42
 70
     1
102
RTVSPost2010Prop43
 90
        3
102
RTVSPost2010PropOp43
 70
     1
102
RTVSPost2010Prop44ColorIndex
 90
        5
102
RTVSPost2010Prop44ColorRGB
 90
      255
102
RTVSPost2010PropOp44
 70
     1
102
RTVSPost2010Prop45
280
     0
102
RTVSPost2010PropOp45
 70
     1
102
RTVSPost2010Prop46
 90
       50
102
RTVSPost2010PropOp46
 70
     1
102
RTVSPost2010Prop47
 90
       50
102
RTVSPost2010PropOp47
 70
     1
102
RTVSPost2010Prop48
 90
       50
102
RTVSPost2010PropOp48
 70
     1
102
RTVSPost2010Prop49
280
     0
102
RTVSPost2010PropOp49
 70
     1
102
RTVSPost2010Prop50
 90
       50
102
RTVSPost2010PropOp50
 70
     1
102
RTVSPost2010Prop51ColorIndex
 90
      256
102
RTVSPost2010Prop51ColorRGB
 90
-16777216
102
RTVSPost2010PropOp51
 70
     0
102
RTVSPost2010Prop52
140
1.0
102
RTVSPost2010PropOp52
 70
     0
102
RTVSPost2010Prop53
 90
        2
102
RTVSPost2010PropOp53
 70
     1
102
RTVSPost2010Prop54
  1
strokes_ogs.tif
102
RTVSPost2010PropOp54
 70
     1
102
RTVSPost2010Prop55
280
     0
102
RTVSPost2010PropOp55
 70
     1
102
RTVSPost2010Prop56
140
1.0
102
RTVSPost2010PropOp56
 70
     1
102
RTVSPost2010Prop57
140
1.0
102
RTVSPost2010PropOp57
 70
     1
  0
XRECORD
  5
125
102
{ACAD_REACTORS
330
124
102
}
330
124
100
AcDbXrecord
280
     1
102
RTVSPost2010Prop28
280
     0
102
RTVSPost2010PropOp28
 70
     1
102
RTVSPost2010Prop29
280
     1
102
RTVSPost2010PropOp29
 70
     1
102
RTVSPost2010Prop30
280
     1
102
RTVSPost2010PropOp30
 70
     1
102
RTVSPost2010Prop31
280
     0
102
RTVSPost2010PropOp31
 70
     1
102
RTVSPost2010Prop32
280
     0
102
RTVSPost2010PropOp32
 70
     1
102
RTVSPost2010Prop33
280
     0
102
RTVSPost2010PropOp33
 70
     1
102
RTVSPost2010Prop34
280
     0
102
RTVSPost2010PropOp34
 70
     1
102
RTVSPost2010Prop35
280
     0
102
RTVSPost2010PropOp35
 70
     1
102
RTVSPost2010Prop36
280
     0
102
RTVSPost2010PropOp36
 70
     1
102
RTVSPost2010Prop37
 90
       50
102
RTVSPost2010PropOp37
 70
     1
102
RTVSPost2010Prop38
140
0.0
102
RTVSPost2010PropOp38
 70
     1
102
RTVSPost2010Prop39
140
1.0
102
RTVSPost2010PropOp39
 70
     1
102
RTVSPost2010Prop40
 90
        0
102
RTVSPost2010PropOp40
 70
     1
102
RTVSPost2010Prop41ColorIndex
 90
       18
102
RTVSPost2010Prop41ColorRGB
 90
        0
102
RTVSPost2010PropOp41
 70
     1
102
RTVSPost2010Prop42
 90
       50
102
RTVSPost2010PropOp42
 70
     1
102
RTVSPost2010Prop43
 90
        3
102
RTVSPost2010PropOp43
 70
     1
102
RTVSPost2010Prop44ColorIndex
 90
        5
102
RTVSPost2010Prop44ColorRGB
 90
      255
102
RTVSPost2010PropOp44
 70
     1
102
RTVSPost2010Prop45
280
     0
102
RTVSPost2010PropOp45
 70
     1
102
RTVSPost2010Prop46
 90
       50
102
RTVSPost2010PropOp46
 70
     1
102
RTVSPost2010Prop47
 90
       50
102
RTVSPost2010PropOp47
 70
     1
102
RTVSPost2010Prop48
 90
       50
102
RTVSPost2010PropOp48
 70
     1
102
RTVSPost2010Prop49
280
     0
102
RTVSPost2010PropOp49
 70
     1
102
RTVSPost2010Prop50
 90
       50
102
RTVSPost2010PropOp50
 70
     1
102
RTVSPost2010Prop51ColorIndex
 90
      256
102
RTVSPost2010Prop51ColorRGB
 90
-16777216
102
RTVSPost2010PropOp51
 70
     0
102
RTVSPost2010Prop52
140
1.0
102
RTVSPost2010PropOp52
 70
     0
102
RTVSPost2010Prop53
 90
        2
102
RTVSPost2010PropOp53
 70
     1
102
RTVSPost2010Prop54
  1
strokes_ogs.tif
102
RTVSPost2010PropOp54
 70
     1
102
RTVSPost2010Prop55
280
     0
102
RTVSPost2010PropOp55
 70
     1
102
RTVSPost2010Prop56
140
1.0
102
RTVSPost2010PropOp56
 70
     1
102
RTVSPost2010Prop57
140
1.0
102
RTVSPost2010PropOp57
 70
     1
  0
XRECORD
  5
13D
102
{ACAD_REACTORS
330
13C
102
}
330
13C
100
AcDbXrecord
280
     1
102
RTVSPost2010Prop28
280
     0
102
RTVSPost2010PropOp28
 70
     1
102
RTVSPost2010Prop29
280
     1
102
RTVSPost2010PropOp29
 70
     1
102
RTVSPost2010Prop30
280
     1
102
RTVSPost2010PropOp30
 70
     1
102
RTVSPost2010Prop31
280
     0
102
RTVSPost2010PropOp31
 70
     1
102
RTVSPost2010Prop32
280
     0
102
RTVSPost2010PropOp32
 70
     1
102
RTVSPost2010Prop33
280
     0
102
RTVSPost2010PropOp33
 70
     1
102
RTVSPost2010Prop34
280
     0
102
RTVSPost2010PropOp34
 70
     1
102
RTVSPost2010Prop35
280
     0
102
RTVSPost2010PropOp35
 70
     1
102
RTVSPost2010Prop36
280
     0
102
RTVSPost2010PropOp36
 70
     1
102
RTVSPost2010Prop37
 90
       50
102
RTVSPost2010PropOp37
 70
     1
102
RTVSPost2010Prop38
140
0.0
102
RTVSPost2010PropOp38
 70
     1
102
RTVSPost2010Prop39
140
1.0
102
RTVSPost2010PropOp39
 70
     1
102
RTVSPost2010Prop40
 90
        0
102
RTVSPost2010PropOp40
 70
     1
102
RTVSPost2010Prop41ColorIndex
 90
       18
102
RTVSPost2010Prop41ColorRGB
 90
        0
102
RTVSPost2010PropOp41
 70
     1
102
RTVSPost2010Prop42
 90
       50
102
RTVSPost2010PropOp42
 70
     1
102
RTVSPost2010Prop43
 90
        3
102
RTVSPost2010PropOp43
 70
     1
102
RTVSPost2010Prop44ColorIndex
 90
        5
102
RTVSPost2010Prop44ColorRGB
 90
      255
102
RTVSPost2010PropOp44
 70
     1
102
RTVSPost2010Prop45
280
     0
102
RTVSPost2010PropOp45
 70
     1
102
RTVSPost2010Prop46
 90
       50
102
RTVSPost2010PropOp46
 70
     1
102
RTVSPost2010Prop47
 90
       50
102
RTVSPost2010PropOp47
 70
     1
102
RTVSPost2010Prop48
 90
       50
102
RTVSPost2010PropOp48
 70
     1
102
RTVSPost2010Prop49
280
     0
102
RTVSPost2010PropOp49
 70
     1
102
RTVSPost2010Prop50
 90
       50
102
RTVSPost2010PropOp50
 70
     1
102
RTVSPost2010Prop51ColorIndex
 90
      256
102
RTVSPost2010Prop51ColorRGB
 90
-16777216
102
RTVSPost2010PropOp51
 70
     0
102
RTVSPost2010Prop52
140
1.0
102
RTVSPost2010PropOp52
 70
     0
102
RTVSPost2010Prop53
 90
        2
102
RTVSPost2010PropOp53
 70
     1
102
RTVSPost2010Prop54
  1
strokes_ogs.tif
102
RTVSPost2010PropOp54
 70
     1
102
RTVSPost2010Prop55
280
     0
102
RTVSPost2010PropOp55
 70
     1
102
RTVSPost2010Prop56
140
1.0
102
RTVSPost2010PropOp56
 70
     1
102
RTVSPost2010Prop57
140
1.0
102
RTVSPost2010PropOp57
 70
     1
  0
ENDSEC
  0
EOF
