  0
SECTION
  2
HEADER
  9
$ACADVER
  1
AC1024
  9
$ACADMAINTVER
 70
   226
  9
$DWGCODEPAGE
  3
ANSI_932
  9
$INSBASE
 10
0.0
 20
0.0
 30
0.0
  9
$EXTMIN
 10
1.000000000000000E+20
 20
1.000000000000000E+20
 30
1.000000000000000E+20
  9
$EXTMAX
 10
-1.000000000000000E+20
 20
-1.000000000000000E+20
 30
-1.000000000000000E+20
  9
$LIMMIN
 10
0.0
 20
0.0
  9
$LIMMAX
 10
12.0
 20
9.0
  9
$ORTHOMODE
 70
     0
  9
$REGENMODE
 70
     1
  9
$FILLMODE
 70
     1
  9
$QTEXTMODE
 70
     0
  9
$MIRRTEXT
 70
     0
  9
$LTSCALE
 40
1.0
  9
$ATTMODE
 70
     1
  9
$TEXTSIZE
 40
0.2
  9
$TRACEWID
 40
0.05
  9
$TEXTSTYLE
  7
Standard
  9
$CLAYER
  8
0
  9
$CELTYPE
  6
ByLayer
  9
$CECOLOR
 62
   256
  9
$CELTSCALE
 40
1.0
  9
$DISPSILH
 70
     0
  9
$DIMSCALE
 40
1.0
  9
$DIMASZ
 40
0.18
  9
$DIMEXO
 40
0.0625
  9
$DIMDLI
 40
0.38
  9
$DIMRND
 40
0.0
  9
$DIMDLE
 40
0.0
  9
$DIMEXE
 40
0.18
  9
$DIMTP
 40
0.0
  9
$DIMTM
 40
0.0
  9
$DIMTXT
 40
0.18
  9
$DIMCEN
 40
0.09
  9
$DIMTSZ
 40
0.0
  9
$DIMTOL
 70
     0
  9
$DIMLIM
 70
     0
  9
$DIMTIH
 70
     1
  9
$DIMTOH
 70
     1
  9
$DIMSE1
 70
     0
  9
$DIMSE2
 70
     0
  9
$DIMTAD
 70
     0
  9
$DIMZIN
 70
     0
  9
$DIMBLK
  1

  9
$DIMASO
 70
     1
  9
$DIMSHO
 70
     1
  9
$DIMPOST
  1

  9
$DIMAPOST
  1

  9
$DIMALT
 70
     0
  9
$DIMALTD
 70
     2
  9
$DIMALTF
 40
25.4
  9
$DIMLFAC
 40
1.0
  9
$DIMTOFL
 70
     0
  9
$DIMTVP
 40
0.0
  9
$DIMTIX
 70
     0
  9
$DIMSOXD
 70
     0
  9
$DIMSAH
 70
     0
  9
$DIMBLK1
  1

  9
$DIMBLK2
  1

  9
$DIMSTYLE
  2
Standard
  9
$DIMCLRD
 70
     0
  9
$DIMCLRE
 70
     0
  9
$DIMCLRT
 70
     0
  9
$DIMTFAC
 40
1.0
  9
$DIMGAP
 40
0.09
  9
$DIMJUST
 70
     0
  9
$DIMSD1
 70
     0
  9
$DIMSD2
 70
     0
  9
$DIMTOLJ
 70
     1
  9
$DIMTZIN
 70
     0
  9
$DIMALTZ
 70
     0
  9
$DIMALTTZ
 70
     0
  9
$DIMUPT
 70
     0
  9
$DIMDEC
 70
     4
  9
$DIMTDEC
 70
     4
  9
$DIMALTU
 70
     2
  9
$DIMALTTD
 70
     2
  9
$DIMTXSTY
  7
Standard
  9
$DIMAUNIT
 70
     0
  9
$DIMADEC
 70
     0
  9
$DIMALTRND
 40
0.0
  9
$DIMAZIN
 70
     0
  9
$DIMDSEP
 70
    46
  9
$DIMATFIT
 70
     3
  9
$DIMFRAC
 70
     0
  9
$DIMLDRBLK
  1

  9
$DIMLUNIT
 70
     2
  9
$DIMLWD
 70
    -2
  9
$DIMLWE
 70
    -2
  9
$DIMTMOVE
 70
     0
  9
$DIMFXL
 40
1.0
  9
$DIMFXLON
 70
     0
  9
$DIMJOGANG
 40
0.7853981633974483
  9
$DIMTFILL
 70
     0
  9
$DIMTFILLCLR
 70
     0
  9
$DIMARCSYM
 70
     0
  9
$DIMLTYPE
  6

  9
$DIMLTEX1
  6

  9
$DIMLTEX2
  6

  9
$DIMTXTDIRECTION
 70
     0
  9
$LUNITS
 70
     2
  9
$LUPREC
 70
     4
  9
$SKETCHINC
 40
0.1
  9
$FILLETRAD
 40
0.0
  9
$AUNITS
 70
     0
  9
$AUPREC
 70
     0
  9
$MENU
  1
.
  9
$ELEVATION
 40
0.0
  9
$PELEVATION
 40
0.0
  9
$THICKNESS
 40
0.0
  9
$LIMCHECK
 70
     0
  9
$CHAMFERA
 40
0.0
  9
$CHAMFERB
 40
0.0
  9
$CHAMFERC
 40
0.0
  9
$CHAMFERD
 40
0.0
  9
$SKPOLY
 70
     0
  9
$TDCREATE
 40
2459569.489907407
  9
$TDUCREATE
 40
2459569.114907407
  9
$TDUPDATE
 40
2459569.489907407
  9
$TDUUPDATE
 40
2459569.114907407
  9
$TDINDWG
 40
0.0000000000
  9
$TDUSRTIMER
 40
0.0000000000
  9
$USRTIMER
 70
     1
  9
$ANGBASE
 50
0.0
  9
$ANGDIR
 70
     0
  9
$PDMODE
 70
     0
  9
$PDSIZE
 40
0.0
  9
$PLINEWID
 40
0.0
  9
$SPLFRAME
 70
     0
  9
$SPLINETYPE
 70
     6
  9
$SPLINESEGS
 70
     8
  9
$HANDSEED
  5
125
  9
$SURFTAB1
 70
     6
  9
$SURFTAB2
 70
     6
  9
$SURFTYPE
 70
     6
  9
$SURFU
 70
     6
  9
$SURFV
 70
     6
  9
$UCSBASE
  2

  9
$UCSNAME
  2

  9
$UCSORG
 10
0.0
 20
0.0
 30
0.0
  9
$UCSXDIR
 10
1.0
 20
0.0
 30
0.0
  9
$UCSYDIR
 10
0.0
 20
1.0
 30
0.0
  9
$UCSORTHOREF
  2

  9
$UCSORTHOVIEW
 70
     0
  9
$UCSORGTOP
 10
0.0
 20
0.0
 30
0.0
  9
$UCSORGBOTTOM
 10
0.0
 20
0.0
 30
0.0
  9
$UCSORGLEFT
 10
0.0
 20
0.0
 30
0.0
  9
$UCSORGRIGHT
 10
0.0
 20
0.0
 30
0.0
  9
$UCSORGFRONT
 10
0.0
 20
0.0
 30
0.0
  9
$UCSORGBACK
 10
0.0
 20
0.0
 30
0.0
  9
$PUCSBASE
  2

  9
$PUCSNAME
  2

  9
$PUCSORG
 10
0.0
 20
0.0
 30
0.0
  9
$PUCSXDIR
 10
1.0
 20
0.0
 30
0.0
  9
$PUCSYDIR
 10
0.0
 20
1.0
 30
0.0
  9
$PUCSORTHOREF
  2

  9
$PUCSORTHOVIEW
 70
     0
  9
$PUCSORGTOP
 10
0.0
 20
0.0
 30
0.0
  9
$PUCSORGBOTTOM
 10
0.0
 20
0.0
 30
0.0
  9
$PUCSORGLEFT
 10
0.0
 20
0.0
 30
0.0
  9
$PUCSORGRIGHT
 10
0.0
 20
0.0
 30
0.0
  9
$PUCSORGFRONT
 10
0.0
 20
0.0
 30
0.0
  9
$PUCSORGBACK
 10
0.0
 20
0.0
 30
0.0
  9
$USERI1
 70
     0
  9
$USERI2
 70
     0
  9
$USERI3
 70
     0
  9
$USERI4
 70
     0
  9
$USERI5
 70
     0
  9
$USERR1
 40
0.0
  9
$USERR2
 40
0.0
  9
$USERR3
 40
0.0
  9
$USERR4
 40
0.0
  9
$USERR5
 40
0.0
  9
$WORLDVIEW
 70
     1
  9
$SHADEDGE
 70
     3
  9
$SHADEDIF
 70
    70
  9
$TILEMODE
 70
     1
  9
$MAXACTVP
 70
    64
  9
$PINSBASE
 10
0.0
 20
0.0
 30
0.0
  9
$PLIMCHECK
 70
     0
  9
$PEXTMIN
 10
1.000000000000000E+20
 20
1.000000000000000E+20
 30
1.000000000000000E+20
  9
$PEXTMAX
 10
-1.000000000000000E+20
 20
-1.000000000000000E+20
 30
-1.000000000000000E+20
  9
$PLIMMIN
 10
0.0
 20
0.0
  9
$PLIMMAX
 10
12.0
 20
9.0
  9
$UNITMODE
 70
     0
  9
$VISRETAIN
 70
     1
  9
$PLINEGEN
 70
     0
  9
$PSLTSCALE
 70
     1
  9
$TREEDEPTH
 70
  3020
  9
$CMLSTYLE
  2
Standard
  9
$CMLJUST
 70
     0
  9
$CMLSCALE
 40
1.0
  9
$PROXYGRAPHICS
 70
     1
  9
$MEASUREMENT
 70
     0
  9
$CELWEIGHT
370
    -1
  9
$ENDCAPS
280
     0
  9
$JOINSTYLE
280
     0
  9
$LWDISPLAY
290
     1
  9
$INSUNITS
 70
     4
  9
$HYPERLINKBASE
  1

  9
$STYLESHEET
  1

  9
$XEDIT
290
     1
  9
$CEPSNTYPE
380
     0
  9
$PSTYLEMODE
290
     1
  9
$FINGERPRINTGUID
  2
{6B7A080C-D174-7446-BA05-5C0728522715}
  9
$VERSIONGUID
  2
{13B76A50-015E-A046-914E-FCAD65DF1D14}
  9
$EXTNAMES
290
     1
  9
$PSVPSCALE
 40
0.0
  9
$OLESTARTUP
290
     0
  9
$SORTENTS
280
   127
  9
$INDEXCTL
280
     0
  9
$HIDETEXT
280
     1
  9
$XCLIPFRAME
280
     2
  9
$HALOGAP
280
     0
  9
$OBSCOLOR
 70
   257
  9
$OBSLTYPE
280
     0
  9
$INTERSECTIONDISPLAY
280
     0
  9
$INTERSECTIONCOLOR
 70
   257
  9
$DIMASSOC
280
     2
  9
$PROJECTNAME
  1

  9
$CAMERADISPLAY
290
     0
  9
$LENSLENGTH
 40
50.0
  9
$CAMERAHEIGHT
 40
0.0
  9
$STEPSPERSEC
 40
2.0
  9
$STEPSIZE
 40
6.0
  9
$3DDWFPREC
 40
2.0
  9
$PSOLWIDTH
 40
0.25
  9
$PSOLHEIGHT
 40
4.0
  9
$LOFTANG1
 40
1.570796326794896
  9
$LOFTANG2
 40
1.570796326794896
  9
$LOFTMAG1
 40
0.0
  9
$LOFTMAG2
 40
0.0
  9
$LOFTPARAM
 70
     7
  9
$LOFTNORMALS
280
     1
  9
$LATITUDE
 40
37.795
  9
$LONGITUDE
 40
-122.394
  9
$NORTHDIRECTION
 40
0.0
  9
$TIMEZONE
 70
 -8000
  9
$LIGHTGLYPHDISPLAY
280
     1
  9
$TILEMODELIGHTSYNCH
280
     1
  9
$CMATERIAL
347
11
  9
$SOLIDHIST
280
     0
  9
$SHOWHIST
280
     1
  9
$DWFFRAME
280
     2
  9
$DGNFRAME
280
     0
  9
$REALWORLDSCALE
290
     1
  9
$INTERFERECOLOR
 62
     1
  9
$INTERFEREOBJVS
345
33
  9
$INTERFEREVPVS
346
30
  9
$CSHADOW
280
     0
  9
$SHADOWPLANELOCATION
 40
0.0
  0
ENDSEC
  0
SECTION
  2
CLASSES
  0
CLASS
  1
ACDBDICTIONARYWDFLT
  2
AcDbDictionaryWithDefault
  3
ObjectDBX Classes
 90
        0
 91
        1
280
     0
281
     0
  0
CLASS
  1
MATERIAL
  2
AcDbMaterial
  3
ObjectDBX Classes
 90
     1153
 91
        3
280
     0
281
     0
  0
CLASS
  1
VISUALSTYLE
  2
AcDbVisualStyle
  3
ObjectDBX Classes
 90
     4095
 91
       24
280
     0
281
     0
  0
CLASS
  1
SCALE
  2
AcDbScale
  3
ObjectDBX Classes
 90
     1153
 91
       17
280
     0
281
     0
  0
CLASS
  1
TABLESTYLE
  2
AcDbTableStyle
  3
ObjectDBX Classes
 90
     4095
 91
        1
280
     0
281
     0
  0
CLASS
  1
MLEADERSTYLE
  2
AcDbMLeaderStyle
  3
ACDB_MLEADERSTYLE_CLASS
 90
     4095
 91
        1
280
     0
281
     0
  0
CLASS
  1
ACDBSECTIONVIEWSTYLE
  2
AcDbSectionViewStyle
  3
ObjectDBX Classes
 90
     1025
 91
        1
280
     0
281
     0
  0
CLASS
  1
ACDBDETAILVIEWSTYLE
  2
AcDbDetailViewStyle
  3
ObjectDBX Classes
 90
     1025
 91
        1
280
     0
281
     0
  0
CLASS
  1
DICTIONARYVAR
  2
AcDbDictionaryVar
  3
ObjectDBX Classes
 90
        0
 91
        5
280
     0
281
     0
  0
CLASS
  1
CELLSTYLEMAP
  2
AcDbCellStyleMap
  3
ObjectDBX Classes
 90
     1152
 91
        1
280
     0
281
     0
  0
ENDSEC
  0
SECTION
  2
TABLES
  0
TABLE
  2
VPORT
  5
8
330
0
100
AcDbSymbolTable
 70
     1
  0
VPORT
  5
57
330
8
100
AcDbSymbolTableRecord
100
AcDbViewportTableRecord
  2
*Active
 70
     0
 10
0.0
 20
0.0
 11
1.0
 21
1.0
 12
0.0
 22
0.0
 13
0.0
 23
0.0
 14
1.0
 24
1.0
 15
0.0
 25
0.0
 16
0.0
 26
0.0
 36
1.0
 17
104.9999999737534
 27
-148.4999999628701
 37
0.0
 40
302.939999924255
 41
0.7070707070707534
 42
50.0
 43
0.0
 44
0.0
 50
0.0
 51
0.0
 71
     0
 72
   100
 73
     1
 74
     0
 75
     1
 76
     0
 77
     0
 78
     0
281
     0
 65
     1
110
0.0
120
0.0
130
0.0
111
1.0
121
0.0
131
0.0
112
0.0
122
1.0
132
0.0
 79
     0
146
0.0
 60
     3
 61
     5
292
     1
282
     1
141
0.0
142
0.0
 63
   250
421
  3355443
  0
ENDTAB
  0
TABLE
  2
LTYPE
  5
5
330
0
100
AcDbSymbolTable
 70
     2
  0
LTYPE
  5
5B
330
5
100
AcDbSymbolTableRecord
100
AcDbLinetypeTableRecord
  2
ByBlock
 70
     0
  3

 72
    65
 73
     0
 40
0.0
  0
LTYPE
  5
5C
330
5
100
AcDbSymbolTableRecord
100
AcDbLinetypeTableRecord
  2
ByLayer
 70
     0
  3

 72
    65
 73
     0
 40
0.0
  0
LTYPE
  5
5D
330
5
100
AcDbSymbolTableRecord
100
AcDbLinetypeTableRecord
  2
Continuous
 70
     0
  3
Solid line
 72
    65
 73
     0
 40
0.0
  0
LTYPE
  5
E5
330
5
100
AcDbSymbolTableRecord
100
AcDbLinetypeTableRecord
  2
AI-Linetype-0
 70
     0
  3
Adobe Illustrator Linetype No. 0
 72
    65
 73
     2
 40
1.411111110758333
 49
0.7055555553791667
 74
     0
 49
-0.7055555553791667
 74
     0
  0
ENDTAB
  0
TABLE
  2
LAYER
  5
2
330
0
100
AcDbSymbolTable
 70
     2
  0
LAYER
  5
54
330
2
100
AcDbSymbolTableRecord
100
AcDbLayerTableRecord
  2
0
 70
     0
 62
     7
  6
Continuous
370
    -3
390
F
347
21
  0
LAYER
  5
78
330
2
100
AcDbSymbolTableRecord
100
AcDbLayerTableRecord
  2
レイヤー 1
 70
     0
 62
     7
  6
Continuous
370
     0
390
F
347
21
  0
ENDTAB
  0
TABLE
  2
STYLE
  5
3
330
0
100
AcDbSymbolTable
 70
     2
  0
STYLE
  5
55
330
3
100
AcDbSymbolTableRecord
100
AcDbTextStyleTableRecord
  2
Standard
 70
     0
 40
0.0
 41
1.0
 50
0.0
 71
     0
 42
0.2
  3
txt
  4

  0
STYLE
  5
5A
330
3
100
AcDbSymbolTableRecord
100
AcDbTextStyleTableRecord
  2
Annotative
 70
     0
 40
0.0
 41
1.0
 50
0.0
 71
     0
 42
0.2
  3
txt
  4

1001
AcadAnnotative
1000
AnnotativeData
1002
{
1070
     1
1070
     1
1002
}
  0
ENDTAB
  0
TABLE
  2
VIEW
  5
6
330
0
100
AcDbSymbolTable
 70
     0
  0
ENDTAB
  0
TABLE
  2
UCS
  5
7
330
0
100
AcDbSymbolTable
 70
     0
  0
ENDTAB
  0
TABLE
  2
APPID
  5
9
330
0
100
AcDbSymbolTable
 70
     2
  0
APPID
  5
56
330
9
100
AcDbSymbolTableRecord
100
AcDbRegAppTableRecord
  2
ACAD
 70
     0
  0
APPID
  5
5E
330
9
100
AcDbSymbolTableRecord
100
AcDbRegAppTableRecord
  2
AcadAnnotative
 70
     0
  0
ENDTAB
  0
TABLE
  2
DIMSTYLE
  5
A
330
0
100
AcDbSymbolTable
 70
     2
100
AcDbDimStyleTable
 71
     0
  0
DIMSTYLE
105
58
330
A
100
AcDbSymbolTableRecord
100
AcDbDimStyleTableRecord
  2
Standard
 70
     0
340
55
  0
DIMSTYLE
105
59
330
A
100
AcDbSymbolTableRecord
100
AcDbDimStyleTableRecord
  2
Annotative
 70
     0
340
55
1001
AcadAnnotative
1000
AnnotativeData
1002
{
1070
     1
1070
     1
1002
}
  0
ENDTAB
  0
TABLE
  2
BLOCK_RECORD
  5
1
330
0
100
AcDbSymbolTable
 70
    11
  0
BLOCK_RECORD
  5
70
330
1
100
AcDbSymbolTableRecord
100
AcDbBlockTableRecord
  2
*Model_Space
340
73
 70
     0
280
     1
281
     0
  0
BLOCK_RECORD
  5
6C
330
1
100
AcDbSymbolTableRecord
100
AcDbBlockTableRecord
  2
*Paper_Space
340
6F
 70
     0
280
     1
281
     0
  0
BLOCK_RECORD
  5
74
330
1
100
AcDbSymbolTableRecord
100
AcDbBlockTableRecord
  2
*Paper_Space0
340
77
 70
     0
280
     1
281
     0
  0
BLOCK_RECORD
  5
91
330
1
100
AcDbSymbolTableRecord
100
AcDbBlockTableRecord
  2
Block_0
340
0
102
{BLKREFS
331
92
102
}
 70
     0
280
     1
281
     0
  0
BLOCK_RECORD
  5
95
330
1
100
AcDbSymbolTableRecord
100
AcDbBlockTableRecord
  2
Block_1
340
0
102
{BLKREFS
331
96
102
}
 70
     0
280
     1
281
     0
  0
BLOCK_RECORD
  5
A2
330
1
100
AcDbSymbolTableRecord
100
AcDbBlockTableRecord
  2
Block_2
340
0
102
{BLKREFS
331
A3
102
}
 70
     0
280
     1
281
     0
  0
BLOCK_RECORD
  5
A8
330
1
100
AcDbSymbolTableRecord
100
AcDbBlockTableRecord
  2
Block_3
340
0
102
{BLKREFS
331
A9
102
}
 70
     0
280
     1
281
     0
  0
BLOCK_RECORD
  5
AF
330
1
100
AcDbSymbolTableRecord
100
AcDbBlockTableRecord
  2
Block_4
340
0
102
{BLKREFS
331
B0
102
}
 70
     0
280
     1
281
     0
  0
BLOCK_RECORD
  5
B3
330
1
100
AcDbSymbolTableRecord
100
AcDbBlockTableRecord
  2
Block_5
340
0
102
{BLKREFS
331
B4
102
}
 70
     0
280
     1
281
     0
  0
BLOCK_RECORD
  5
BB
330
1
100
AcDbSymbolTableRecord
100
AcDbBlockTableRecord
  2
Block_6
340
0
102
{BLKREFS
331
BC
102
}
 70
     0
280
     1
281
     0
  0
BLOCK_RECORD
  5
BF
330
1
100
AcDbSymbolTableRecord
100
AcDbBlockTableRecord
  2
Block_7
340
0
102
{BLKREFS
331
C0
102
}
 70
     0
280
     1
281
     0
  0
BLOCK_RECORD
  5
CA
330
1
100
AcDbSymbolTableRecord
100
AcDbBlockTableRecord
  2
Block_8
340
0
102
{BLKREFS
331
CB
102
}
 70
     0
280
     1
281
     0
  0
BLOCK_RECORD
  5
CE
330
1
100
AcDbSymbolTableRecord
100
AcDbBlockTableRecord
  2
Block_9
340
0
102
{BLKREFS
331
CF
102
}
 70
     0
280
     1
281
     0
  0
ENDTAB
  0
ENDSEC
  0
SECTION
  2
BLOCKS
  0
BLOCK
  5
71
330
70
100
AcDbEntity
  8
0
100
AcDbBlockBegin
  2
*Model_Space
 70
     0
 10
0.0
 20
0.0
 30
0.0
  3
*Model_Space
  1

  0
ENDBLK
  5
72
330
70
100
AcDbEntity
  8
0
100
AcDbBlockEnd
  0
BLOCK
  5
6D
330
6C
100
AcDbEntity
 67
     1
  8
0
100
AcDbBlockBegin
  2
*Paper_Space
 70
     0
 10
0.0
 20
0.0
 30
0.0
  3
*Paper_Space
  1

  0
ENDBLK
  5
6E
330
6C
100
AcDbEntity
 67
     1
  8
0
100
AcDbBlockEnd
  0
BLOCK
  5
75
330
74
100
AcDbEntity
 67
     1
  8
0
100
AcDbBlockBegin
  2
*Paper_Space0
 70
     0
 10
0.0
 20
0.0
 30
0.0
  3
*Paper_Space0
  1

  0
ENDBLK
  5
76
330
74
100
AcDbEntity
 67
     1
  8
0
100
AcDbBlockEnd
  0
BLOCK
  5
93
330
91
100
AcDbEntity
  8
0
100
AcDbBlockBegin
  2
Block_0
 70
     0
 10
0.0
 20
0.0
 30
0.0
  3
Block_0
  1

  0
INSERT
  5
96
330
91
100
AcDbEntity
  8
レイヤー 1
100
AcDbBlockReference
  2
Block_1
 10
0.0
 20
0.0
 30
0.0
  0
ENDBLK
  5
94
330
91
100
AcDbEntity
  8
0
100
AcDbBlockEnd
  0
BLOCK
  5
97
330
95
100
AcDbEntity
  8
0
100
AcDbBlockBegin
  2
Block_1
 70
     0
 10
0.0
 20
0.0
 30
0.0
  3
Block_1
  1

  0
SPLINE
  5
99
330
95
100
AcDbEntity
  8
レイヤー 1
100
AcDbSpline
210
0.0
220
0.0
230
1.0
 70
     9
 71
     3
 72
    17
 73
    13
 74
     0
 42
0.0000000001
 43
0.0000000001
 40
0.0
 40
0.0
 40
0.0
 40
0.0
 40
1.0
 40
1.0
 40
1.0
 40
2.0
 40
2.0
 40
2.0
 40
3.0
 40
3.0
 40
3.0
 40
4.0
 40
4.0
 40
4.0
 40
4.0
 10
116.9103488205988
 20
-140.7173366618693
 30
0.0
 10
116.9103488205988
 20
-140.9671060845499
 30
0.0
 10
117.1938801790348
 20
-141.0136148736008
 30
0.0
 10
117.5387342371083
 20
-141.0136148736008
 30
0.0
 10
117.858094588591
 20
-141.0136148736008
 30
0.0
 10
118.1667751440694
 20
-140.9774413710056
 30
0.0
 10
118.1667751440694
 20
-140.7173366618693
 30
0.0
 10
118.1667751440694
 20
-140.4696342964798
 30
0.0
 10
117.885655352473
 20
-140.4210584501378
 30
0.0
 10
117.5387342371083
 20
-140.4210584501378
 30
0.0
 10
117.2190293760772
 20
-140.4210584501378
 30
0.0
 10
116.9103488205988
 20
-140.459299010024
 30
0.0
 10
116.9103488205988
 20
-140.7173366618693
 30
0.0
  0
SPLINE
  5
9A
330
95
100
AcDbEntity
  8
レイヤー 1
100
AcDbSpline
210
0.0
220
0.0
230
1.0
 70
     9
 71
     3
 72
    29
 73
    25
 74
     0
 42
0.0000000001
 43
0.0000000001
 40
0.0
 40
0.0
 40
0.0
 40
0.0
 40
1.0
 40
1.0
 40
1.0
 40
2.0
 40
2.0
 40
2.0
 40
3.0
 40
3.0
 40
3.0
 40
4.0
 40
4.0
 40
4.0
 40
5.0
 40
5.0
 40
5.0
 40
6.0
 40
6.0
 40
6.0
 40
7.0
 40
7.0
 40
7.0
 40
8.0
 40
8.0
 40
8.0
 40
8.0
 10
118.1330132083139
 20
-140.3194281333229
 30
0.0
 10
118.3424750138171
 20
-140.4276041315597
 30
0.0
 10
118.361423038986
 20
-140.6008924344678
 30
0.0
 10
118.361423038986
 20
-140.7173366618693
 30
0.0
 10
118.361423038986
 20
-140.8782226210304
 30
0.0
 10
118.3149142499351
 20
-141.0198160454742
 30
0.0
 10
118.1330132083139
 20
-141.1149006808671
 30
0.0
 10
117.9383653133973
 20
-141.2185980549731
 30
0.0
 10
117.7016872535607
 20
-141.2378905896905
 30
0.0
 10
117.5387342371083
 20
-141.2378905896905
 30
0.0
 10
117.3947292458249
 20
-141.2378905896905
 30
0.0
 10
117.1428927658531
 20
-141.2206651122643
 30
0.0
 10
116.9441107563542
 20
-141.1149006808671
 30
0.0
 10
116.741194632273
 20
-141.0070691921788
 30
0.0
 10
116.7177679829733
 20
-140.8461832330176
 30
0.0
 10
116.7177679829733
 20
-140.7173366618693
 30
0.0
 10
116.7177679829733
 20
-140.5585177599992
 30
0.0
 10
116.762209714733
 20
-140.4148572782643
 30
0.0
 10
116.9441107563542
 20
-140.3194281333229
 30
0.0
 10
117.1366915939797
 20
-140.2202093833477
 30
0.0
 10
117.3651014246518
 20
-140.196782734048
 30
0.0
 10
117.5387342371083
 20
-140.196782734048
 30
0.0
 10
117.7099554827253
 20
-140.196782734048
 30
0.0
 10
117.9404323706885
 20
-140.2181423260566
 30
0.0
 10
118.1330132083139
 20
-140.3194281333229
 30
0.0
  0
HATCH
  5
9B
330
95
100
AcDbEntity
  8
レイヤー 1
 62
    18
420
        0
440
 33554687
100
AcDbHatch
 10
0.0
 20
0.0
 30
0.0
210
0.0
220
0.0
230
1.0
  2
SOLID
 70
     1
 71
     1
 91
        2
 92
        1
 93
        1
 72
     4
 94
        3
 73
     0
 74
     0
 95
       17
 96
       13
 40
0.0
 40
0.0
 40
0.0
 40
0.0
 40
1.0
 40
1.0
 40
1.0
 40
2.0
 40
2.0
 40
2.0
 40
3.0
 40
3.0
 40
3.0
 40
4.0
 40
4.0
 40
4.0
 40
4.0
 10
116.9103488205988
 20
-140.7173366618693
 10
116.9103488205988
 20
-140.9671060845499
 10
117.1938801790348
 20
-141.0136148736008
 10
117.5387342371083
 20
-141.0136148736008
 10
117.858094588591
 20
-141.0136148736008
 10
118.1667751440694
 20
-140.9774413710056
 10
118.1667751440694
 20
-140.7173366618693
 10
118.1667751440694
 20
-140.4696342964798
 10
117.885655352473
 20
-140.4210584501378
 10
117.5387342371083
 20
-140.4210584501378
 10
117.2190293760772
 20
-140.4210584501378
 10
116.9103488205988
 20
-140.459299010024
 10
116.9103488205988
 20
-140.7173366618693
 97
        0
 97
        1
330
99
 92
        1
 93
        1
 72
     4
 94
        3
 73
     0
 74
     0
 95
       29
 96
       25
 40
0.0
 40
0.0
 40
0.0
 40
0.0
 40
1.0
 40
1.0
 40
1.0
 40
2.0
 40
2.0
 40
2.0
 40
3.0
 40
3.0
 40
3.0
 40
4.0
 40
4.0
 40
4.0
 40
5.0
 40
5.0
 40
5.0
 40
6.0
 40
6.0
 40
6.0
 40
7.0
 40
7.0
 40
7.0
 40
8.0
 40
8.0
 40
8.0
 40
8.0
 10
118.1330132083139
 20
-140.3194281333229
 10
118.3424750138171
 20
-140.4276041315597
 10
118.361423038986
 20
-140.6008924344678
 10
118.361423038986
 20
-140.7173366618693
 10
118.361423038986
 20
-140.8782226210304
 10
118.3149142499351
 20
-141.0198160454742
 10
118.1330132083139
 20
-141.1149006808671
 10
117.9383653133973
 20
-141.2185980549731
 10
117.7016872535607
 20
-141.2378905896905
 10
117.5387342371083
 20
-141.2378905896905
 10
117.3947292458249
 20
-141.2378905896905
 10
117.1428927658531
 20
-141.2206651122643
 10
116.9441107563542
 20
-141.1149006808671
 10
116.741194632273
 20
-141.0070691921788
 10
116.7177679829733
 20
-140.8461832330176
 10
116.7177679829733
 20
-140.7173366618693
 10
116.7177679829733
 20
-140.5585177599992
 10
116.762209714733
 20
-140.4148572782643
 10
116.9441107563542
 20
-140.3194281333229
 10
117.1366915939797
 20
-140.2202093833477
 10
117.3651014246518
 20
-140.196782734048
 10
117.5387342371083
 20
-140.196782734048
 10
117.7099554827253
 20
-140.196782734048
 10
117.9404323706885
 20
-140.2181423260566
 10
118.1330132083139
 20
-140.3194281333229
 97
        0
 97
        1
330
9A
 75
     2
 76
     1
 98
        1
 10
0.0
 20
0.0
450
        0
451
        0
460
0.0
461
0.0
452
        0
462
0.0
453
        0
470

  0
SPLINE
  5
9C
330
95
100
AcDbEntity
  8
レイヤー 1
100
AcDbSpline
210
0.0
220
0.0
230
1.0
 70
    11
 71
     3
 72
    17
 73
    13
 74
     0
 42
0.0000000001
 43
0.0000000001
 40
0.0
 40
0.0
 40
0.0
 40
0.0
 40
1.0
 40
1.0
 40
1.0
 40
2.0
 40
2.0
 40
2.0
 40
3.0
 40
3.0
 40
3.0
 40
4.0
 40
4.0
 40
4.0
 40
4.0
 10
118.3107801353528
 20
-139.9804307375743
 30
0.0
 10
118.3107801353528
 20
-139.9804307375743
 30
0.0
 10
118.0589436553811
 20
-139.9804307375743
 30
0.0
 10
118.0589436553811
 20
-139.9804307375743
 30
0.0
 10
118.0589436553811
 20
-139.9804307375743
 30
0.0
 10
118.0589436553811
 20
-139.7285942576026
 30
0.0
 10
118.0589436553811
 20
-139.7285942576026
 30
0.0
 10
118.0589436553811
 20
-139.7285942576026
 30
0.0
 10
118.3107801353528
 20
-139.7285942576026
 30
0.0
 10
118.3107801353528
 20
-139.7285942576026
 30
0.0
 10
118.3107801353528
 20
-139.7285942576026
 30
0.0
 10
118.3107801353528
 20
-139.9804307375743
 30
0.0
 10
118.3107801353528
 20
-139.9804307375743
 30
0.0
  0
HATCH
  5
9D
330
95
100
AcDbEntity
  8
レイヤー 1
 62
    18
420
        0
440
 33554687
100
AcDbHatch
 10
0.0
 20
0.0
 30
0.0
210
0.0
220
0.0
230
1.0
  2
SOLID
 70
     1
 71
     1
 91
        1
 92
        1
 93
        1
 72
     4
 94
        3
 73
     0
 74
     0
 95
       17
 96
       13
 40
0.0
 40
0.0
 40
0.0
 40
0.0
 40
1.0
 40
1.0
 40
1.0
 40
2.0
 40
2.0
 40
2.0
 40
3.0
 40
3.0
 40
3.0
 40
4.0
 40
4.0
 40
4.0
 40
4.0
 10
118.3107801353528
 20
-139.9804307375743
 10
118.3107801353528
 20
-139.9804307375743
 10
118.0589436553811
 20
-139.9804307375743
 10
118.0589436553811
 20
-139.9804307375743
 10
118.0589436553811
 20
-139.9804307375743
 10
118.0589436553811
 20
-139.7285942576026
 10
118.0589436553811
 20
-139.7285942576026
 10
118.0589436553811
 20
-139.7285942576026
 10
118.3107801353528
 20
-139.7285942576026
 10
118.3107801353528
 20
-139.7285942576026
 10
118.3107801353528
 20
-139.7285942576026
 10
118.3107801353528
 20
-139.9804307375743
 10
118.3107801353528
 20
-139.9804307375743
 97
        0
 97
        1
330
9C
 75
     2
 76
     1
 98
        1
 10
0.0
 20
0.0
450
        0
451
        0
460
0.0
461
0.0
452
        0
462
0.0
453
        0
470

  0
SPLINE
  5
9E
330
95
100
AcDbEntity
  8
レイヤー 1
100
AcDbSpline
210
0.0
220
0.0
230
1.0
 70
     9
 71
     3
 72
    17
 73
    13
 74
     0
 42
0.0000000001
 43
0.0000000001
 40
0.0
 40
0.0
 40
0.0
 40
0.0
 40
1.0
 40
1.0
 40
1.0
 40
2.0
 40
2.0
 40
2.0
 40
3.0
 40
3.0
 40
3.0
 40
4.0
 40
4.0
 40
4.0
 40
4.0
 10
117.5704291155726
 20
-138.9923773524047
 30
0.0
 10
117.5704291155726
 20
-139.1360378341396
 30
0.0
 10
117.6572455218009
 20
-139.2886555641362
 30
0.0
 10
117.8601616458822
 20
-139.2886555641362
 30
0.0
 10
118.065489336803
 20
-139.2886555641362
 30
0.0
 10
118.1667751440694
 20
-139.1615315407304
 30
0.0
 10
118.1667751440694
 20
-138.9923773524047
 30
0.0
 10
118.1667751440694
 20
-138.8063421962012
 30
0.0
 10
118.0441297447945
 20
-138.6960991406732
 30
0.0
 10
117.8663628177556
 20
-138.6960991406732
 30
0.0
 10
117.6444986685055
 20
-138.6960991406732
 30
0.0
 10
117.5704291155726
 20
-138.8590521571255
 30
0.0
 10
117.5704291155726
 20
-138.9923773524047
 30
0.0
  0
SPLINE
  5
9F
330
95
100
AcDbEntity
  8
レイヤー 1
100
AcDbSpline
210
0.0
220
0.0
230
1.0
 70
     9
 71
     3
 72
    17
 73
    13
 74
     0
 42
0.0000000001
 43
0.0000000001
 40
0.0
 40
0.0
 40
0.0
 40
0.0
 40
1.0
 40
1.0
 40
1.0
 40
2.0
 40
2.0
 40
2.0
 40
3.0
 40
3.0
 40
3.0
 40
4.0
 40
4.0
 40
4.0
 40
4.0
 10
116.9103488205988
 20
-138.9923773524047
 30
0.0
 10
116.9103488205988
 20
-139.1573974261481
 30
0.0
 10
117.0054334559917
 20
-139.2418022655368
 30
0.0
 10
117.140825708562
 20
-139.2418022655368
 30
0.0
 10
117.2634711078369
 20
-139.2418022655368
 30
0.0
 10
117.3819823925295
 20
-139.1701442794436
 30
0.0
 10
117.3819823925295
 20
-138.9923773524047
 30
0.0
 10
117.3819823925295
 20
-138.8146104253658
 30
0.0
 10
117.2634711078369
 20
-138.7426079297241
 30
0.0
 10
117.140825708562
 20
-138.7426079297241
 30
0.0
 10
117.0054334559917
 20
-138.7426079297241
 30
0.0
 10
116.9103488205988
 20
-138.8294243359523
 30
0.0
 10
116.9103488205988
 20
-138.9923773524047
 30
0.0
  0
SPLINE
  5
A0
330
95
100
AcDbEntity
  8
レイヤー 1
100
AcDbSpline
210
0.0
220
0.0
230
1.0
 70
     9
 71
     3
 72
    29
 73
    25
 74
     0
 42
0.0000000001
 43
0.0000000001
 40
0.0
 40
0.0
 40
0.0
 40
0.0
 40
1.0
 40
1.0
 40
1.0
 40
2.0
 40
2.0
 40
2.0
 40
3.0
 40
3.0
 40
3.0
 40
4.0
 40
4.0
 40
4.0
 40
5.0
 40
5.0
 40
5.0
 40
6.0
 40
6.0
 40
6.0
 40
7.0
 40
7.0
 40
7.0
 40
8.0
 40
8.0
 40
8.0
 40
8.0
 10
118.361423038986
 20
-138.9923773524047
 30
0.0
 10
118.361423038986
 20
-139.259027742963
 30
0.0
 10
118.2239637291246
 20
-139.5125867706774
 30
0.0
 10
117.8749755564687
 20
-139.5125867706774
 30
0.0
 10
117.6190049619147
 20
-139.5125867706774
 30
0.0
 10
117.5239203265218
 20
-139.3709933462336
 30
0.0
 10
117.4625976268843
 20
-139.2652289148365
 30
0.0
 10
117.403341984538
 20
-139.3899413714025
 30
0.0
 10
117.2889648144277
 20
-139.4660779816265
 30
0.0
 10
117.1280788552666
 20
-139.4660779816265
 30
0.0
 10
116.8531602355436
 20
-139.4660779816265
 30
0.0
 10
116.7177679829733
 20
-139.2672959721276
 30
0.0
 10
116.7177679829733
 20
-138.9923773524047
 30
0.0
 10
116.7177679829733
 20
-138.7088459939686
 30
0.0
 10
116.8617729742567
 20
-138.5183322136343
 30
0.0
 10
117.1280788552666
 20
-138.5183322136343
 30
0.0
 10
117.2889648144277
 20
-138.5183322136343
 30
0.0
 10
117.403341984538
 20
-138.596880390698
 30
0.0
 10
117.4625976268843
 20
-138.721592847264
 30
0.0
 10
117.5132405305175
 20
-138.6327093837446
 30
0.0
 10
117.6083251659104
 20
-138.4738904818745
 30
0.0
 10
117.8708414418864
 20
-138.4738904818745
 30
0.0
 10
118.2453233211331
 20
-138.4738904818745
 30
0.0
 10
118.361423038986
 20
-138.7532877257283
 30
0.0
 10
118.361423038986
 20
-138.9923773524047
 30
0.0
  0
HATCH
  5
A1
330
95
100
AcDbEntity
  8
レイヤー 1
 62
    18
420
        0
440
 33554687
100
AcDbHatch
 10
0.0
 20
0.0
 30
0.0
210
0.0
220
0.0
230
1.0
  2
SOLID
 70
     1
 71
     1
 91
        3
 92
        1
 93
        1
 72
     4
 94
        3
 73
     0
 74
     0
 95
       17
 96
       13
 40
0.0
 40
0.0
 40
0.0
 40
0.0
 40
1.0
 40
1.0
 40
1.0
 40
2.0
 40
2.0
 40
2.0
 40
3.0
 40
3.0
 40
3.0
 40
4.0
 40
4.0
 40
4.0
 40
4.0
 10
117.5704291155726
 20
-138.9923773524047
 10
117.5704291155726
 20
-139.1360378341396
 10
117.6572455218009
 20
-139.2886555641362
 10
117.8601616458822
 20
-139.2886555641362
 10
118.065489336803
 20
-139.2886555641362
 10
118.1667751440694
 20
-139.1615315407304
 10
118.1667751440694
 20
-138.9923773524047
 10
118.1667751440694
 20
-138.8063421962012
 10
118.0441297447945
 20
-138.6960991406732
 10
117.8663628177556
 20
-138.6960991406732
 10
117.6444986685055
 20
-138.6960991406732
 10
117.5704291155726
 20
-138.8590521571255
 10
117.5704291155726
 20
-138.9923773524047
 97
        0
 97
        1
330
9E
 92
        1
 93
        1
 72
     4
 94
        3
 73
     0
 74
     0
 95
       17
 96
       13
 40
0.0
 40
0.0
 40
0.0
 40
0.0
 40
1.0
 40
1.0
 40
1.0
 40
2.0
 40
2.0
 40
2.0
 40
3.0
 40
3.0
 40
3.0
 40
4.0
 40
4.0
 40
4.0
 40
4.0
 10
116.9103488205988
 20
-138.9923773524047
 10
116.9103488205988
 20
-139.1573974261481
 10
117.0054334559917
 20
-139.2418022655368
 10
117.140825708562
 20
-139.2418022655368
 10
117.2634711078369
 20
-139.2418022655368
 10
117.3819823925295
 20
-139.1701442794436
 10
117.3819823925295
 20
-138.9923773524047
 10
117.3819823925295
 20
-138.8146104253658
 10
117.2634711078369
 20
-138.7426079297241
 10
117.140825708562
 20
-138.7426079297241
 10
117.0054334559917
 20
-138.7426079297241
 10
116.9103488205988
 20
-138.8294243359523
 10
116.9103488205988
 20
-138.9923773524047
 97
        0
 97
        1
330
9F
 92
        1
 93
        1
 72
     4
 94
        3
 73
     0
 74
     0
 95
       29
 96
       25
 40
0.0
 40
0.0
 40
0.0
 40
0.0
 40
1.0
 40
1.0
 40
1.0
 40
2.0
 40
2.0
 40
2.0
 40
3.0
 40
3.0
 40
3.0
 40
4.0
 40
4.0
 40
4.0
 40
5.0
 40
5.0
 40
5.0
 40
6.0
 40
6.0
 40
6.0
 40
7.0
 40
7.0
 40
7.0
 40
8.0
 40
8.0
 40
8.0
 40
8.0
 10
118.361423038986
 20
-138.9923773524047
 10
118.361423038986
 20
-139.259027742963
 10
118.2239637291246
 20
-139.5125867706774
 10
117.8749755564687
 20
-139.5125867706774
 10
117.6190049619147
 20
-139.5125867706774
 10
117.5239203265218
 20
-139.3709933462336
 10
117.4625976268843
 20
-139.2652289148365
 10
117.403341984538
 20
-139.3899413714025
 10
117.2889648144277
 20
-139.4660779816265
 10
117.1280788552666
 20
-139.4660779816265
 10
116.8531602355436
 20
-139.4660779816265
 10
116.7177679829733
 20
-139.2672959721276
 10
116.7177679829733
 20
-138.9923773524047
 10
116.7177679829733
 20
-138.7088459939686
 10
116.8617729742567
 20
-138.5183322136343
 10
117.1280788552666
 20
-138.5183322136343
 10
117.2889648144277
 20
-138.5183322136343
 10
117.403341984538
 20
-138.596880390698
 10
117.4625976268843
 20
-138.721592847264
 10
117.5132405305175
 20
-138.6327093837446
 10
117.6083251659104
 20
-138.4738904818745
 10
117.8708414418864
 20
-138.4738904818745
 10
118.2453233211331
 20
-138.4738904818745
 10
118.361423038986
 20
-138.7532877257283
 10
118.361423038986
 20
-138.9923773524047
 97
        0
 97
        1
330
A0
 75
     2
 76
     1
 98
        1
 10
0.0
 20
0.0
450
        0
451
        0
460
0.0
461
0.0
452
        0
462
0.0
453
        0
470

  0
ENDBLK
  5
98
330
95
100
AcDbEntity
  8
0
100
AcDbBlockEnd
  0
BLOCK
  5
A4
330
A2
100
AcDbEntity
  8
0
100
AcDbBlockBegin
  2
Block_2
 70
     0
 10
0.0
 20
0.0
 30
0.0
  3
Block_2
  1

  0
SPLINE
  5
A6
330
A2
100
AcDbEntity
  8
レイヤー 1
100
AcDbSpline
210
0.0
220
0.0
230
1.0
 70
     9
 71
     3
 72
    44
 73
    40
 74
     0
 42
0.0000000001
 43
0.0000000001
 40
0.0
 40
0.0
 40
0.0
 40
0.0
 40
1.0
 40
1.0
 40
1.0
 40
2.0
 40
2.0
 40
2.0
 40
3.0
 40
3.0
 40
3.0
 40
4.0
 40
4.0
 40
4.0
 40
5.0
 40
5.0
 40
5.0
 40
6.0
 40
6.0
 40
6.0
 40
7.0
 40
7.0
 40
7.0
 40
8.0
 40
8.0
 40
8.0
 40
9.0
 40
9.0
 40
9.0
 40
10.0
 40
10.0
 40
10.0
 40
11.0
 40
11.0
 40
11.0
 40
12.0
 40
12.0
 40
12.0
 40
13.0
 40
13.0
 40
13.0
 40
13.0
 10
117.7289035078942
 20
-157.5610975083528
 30
0.0
 10
117.8877224097641
 20
-157.7788275430206
 30
0.0
 10
117.961791962697
 20
-157.8718451211223
 30
0.0
 10
118.105452444432
 20
-157.9207654770129
 30
0.0
 10
118.105452444432
 20
-157.9207654770129
 30
0.0
 10
118.105452444432
 20
-157.1421738973464
 30
0.0
 10
118.105452444432
 20
-157.1421738973464
 30
0.0
 10
118.105452444432
 20
-157.1421738973464
 30
0.0
 10
118.3107801353528
 20
-157.1421738973464
 30
0.0
 10
118.3107801353528
 20
-157.1421738973464
 30
0.0
 10
118.3107801353528
 20
-157.1421738973464
 30
0.0
 10
118.3107801353528
 20
-158.1701903901449
 30
0.0
 10
118.3107801353528
 20
-158.1701903901449
 30
0.0
 10
117.9531792239839
 20
-158.1384955116807
 30
0.0
 10
117.8749755564687
 20
-158.0730386974609
 30
0.0
 10
117.5766302874461
 20
-157.68787702221
 30
0.0
 10
117.3778482779472
 20
-157.4319064276559
 30
0.0
 10
117.3099798968878
 20
-157.3664496134361
 30
0.0
 10
117.1725205870263
 20
-157.3664496134361
 30
0.0
 10
117.0540093023337
 20
-157.3664496134361
 30
0.0
 10
116.9230956738942
 20
-157.4384521090779
 30
0.0
 10
116.9230956738942
 20
-157.6351670612856
 30
0.0
 10
116.9230956738942
 20
-157.895271770422
 30
0.0
 10
117.1535725618574
 20
-157.9038845091351
 30
0.0
 10
117.2700167892589
 20
-157.9080186237174
 30
0.0
 10
117.2700167892589
 20
-157.9080186237174
 30
0.0
 10
117.2700167892589
 20
-158.1322943398072
 30
0.0
 10
117.2700167892589
 20
-158.1322943398072
 30
0.0
 10
117.1428927658531
 20
-158.1236816010941
 30
0.0
 10
117.0309271625825
 20
-158.1130018050898
 30
0.0
 10
116.9124158778899
 20
-158.0327310802835
 30
0.0
 10
116.7515299187288
 20
-157.922832534304
 30
0.0
 10
116.7177679829733
 20
-157.736452868552
 30
0.0
 10
116.7177679829733
 20
-157.6203531506991
 30
0.0
 10
116.7177679829733
 20
-157.3430229641365
 30
0.0
 10
116.9017360818857
 20
-157.1356282159244
 30
0.0
 10
117.1745876443174
 20
-157.1356282159244
 30
0.0
 10
117.403341984538
 20
-157.1356282159244
 30
0.0
 10
117.5025607345132
 20
-157.2520724433259
 30
0.0
 10
117.7289035078942
 20
-157.5610975083528
 30
0.0
  0
HATCH
  5
A7
330
A2
100
AcDbEntity
  8
レイヤー 1
 62
    18
420
        0
440
 33554687
100
AcDbHatch
 10
0.0
 20
0.0
 30
0.0
210
0.0
220
0.0
230
1.0
  2
SOLID
 70
     1
 71
     1
 91
        1
 92
        1
 93
        1
 72
     4
 94
        3
 73
     0
 74
     0
 95
       44
 96
       40
 40
0.0
 40
0.0
 40
0.0
 40
0.0
 40
1.0
 40
1.0
 40
1.0
 40
2.0
 40
2.0
 40
2.0
 40
3.0
 40
3.0
 40
3.0
 40
4.0
 40
4.0
 40
4.0
 40
5.0
 40
5.0
 40
5.0
 40
6.0
 40
6.0
 40
6.0
 40
7.0
 40
7.0
 40
7.0
 40
8.0
 40
8.0
 40
8.0
 40
9.0
 40
9.0
 40
9.0
 40
10.0
 40
10.0
 40
10.0
 40
11.0
 40
11.0
 40
11.0
 40
12.0
 40
12.0
 40
12.0
 40
13.0
 40
13.0
 40
13.0
 40
13.0
 10
117.7289035078942
 20
-157.5610975083528
 10
117.8877224097641
 20
-157.7788275430206
 10
117.961791962697
 20
-157.8718451211223
 10
118.105452444432
 20
-157.9207654770129
 10
118.105452444432
 20
-157.9207654770129
 10
118.105452444432
 20
-157.1421738973464
 10
118.105452444432
 20
-157.1421738973464
 10
118.105452444432
 20
-157.1421738973464
 10
118.3107801353528
 20
-157.1421738973464
 10
118.3107801353528
 20
-157.1421738973464
 10
118.3107801353528
 20
-157.1421738973464
 10
118.3107801353528
 20
-158.1701903901449
 10
118.3107801353528
 20
-158.1701903901449
 10
117.9531792239839
 20
-158.1384955116807
 10
117.8749755564687
 20
-158.0730386974609
 10
117.5766302874461
 20
-157.68787702221
 10
117.3778482779472
 20
-157.4319064276559
 10
117.3099798968878
 20
-157.3664496134361
 10
117.1725205870263
 20
-157.3664496134361
 10
117.0540093023337
 20
-157.3664496134361
 10
116.9230956738942
 20
-157.4384521090779
 10
116.9230956738942
 20
-157.6351670612856
 10
116.9230956738942
 20
-157.895271770422
 10
117.1535725618574
 20
-157.9038845091351
 10
117.2700167892589
 20
-157.9080186237174
 10
117.2700167892589
 20
-157.9080186237174
 10
117.2700167892589
 20
-158.1322943398072
 10
117.2700167892589
 20
-158.1322943398072
 10
117.1428927658531
 20
-158.1236816010941
 10
117.0309271625825
 20
-158.1130018050898
 10
116.9124158778899
 20
-158.0327310802835
 10
116.7515299187288
 20
-157.922832534304
 10
116.7177679829733
 20
-157.736452868552
 10
116.7177679829733
 20
-157.6203531506991
 10
116.7177679829733
 20
-157.3430229641365
 10
116.9017360818857
 20
-157.1356282159244
 10
117.1745876443174
 20
-157.1356282159244
 10
117.403341984538
 20
-157.1356282159244
 10
117.5025607345132
 20
-157.2520724433259
 10
117.7289035078942
 20
-157.5610975083528
 97
        0
 97
        1
330
A6
 75
     2
 76
     1
 98
        1
 10
0.0
 20
0.0
450
        0
451
        0
460
0.0
461
0.0
452
        0
462
0.0
453
        0
470

  0
ENDBLK
  5
A5
330
A2
100
AcDbEntity
  8
0
100
AcDbBlockEnd
  0
BLOCK
  5
AA
330
A8
100
AcDbEntity
  8
0
100
AcDbBlockBegin
  2
Block_3
 70
     0
 10
0.0
 20
0.0
 30
0.0
  3
Block_3
  1

  0
SPLINE
  5
AC
330
A8
100
AcDbEntity
  8
レイヤー 1
100
AcDbSpline
210
0.0
220
0.0
230
1.0
 70
    11
 71
     3
 72
    14
 73
    10
 74
     0
 42
0.0000000001
 43
0.0000000001
 40
0.0
 40
0.0
 40
0.0
 40
0.0
 40
1.0
 40
1.0
 40
1.0
 40
2.0
 40
2.0
 40
2.0
 40
3.0
 40
3.0
 40
3.0
 40
3.0
 10
102.7765000828128
 20
-160.101510919176
 30
0.0
 10
102.7765000828128
 20
-160.101510919176
 30
0.0
 10
102.3196804214687
 20
-160.7574570995675
 30
0.0
 10
102.3196804214687
 20
-160.7574570995675
 30
0.0
 10
102.3196804214687
 20
-160.7574570995675
 30
0.0
 10
102.7765000828128
 20
-160.7574570995675
 30
0.0
 10
102.7765000828128
 20
-160.7574570995675
 30
0.0
 10
102.7765000828128
 20
-160.7574570995675
 30
0.0
 10
102.7765000828128
 20
-160.101510919176
 30
0.0
 10
102.7765000828128
 20
-160.101510919176
 30
0.0
  0
SPLINE
  5
AD
330
A8
100
AcDbEntity
  8
レイヤー 1
100
AcDbSpline
210
0.0
220
0.0
230
1.0
 70
    11
 71
     3
 72
    38
 73
    34
 74
     0
 42
0.0000000001
 43
0.0000000001
 40
0.0
 40
0.0
 40
0.0
 40
0.0
 40
1.0
 40
1.0
 40
1.0
 40
2.0
 40
2.0
 40
2.0
 40
3.0
 40
3.0
 40
3.0
 40
4.0
 40
4.0
 40
4.0
 40
5.0
 40
5.0
 40
5.0
 40
6.0
 40
6.0
 40
6.0
 40
7.0
 40
7.0
 40
7.0
 40
8.0
 40
8.0
 40
8.0
 40
9.0
 40
9.0
 40
9.0
 40
10.0
 40
10.0
 40
10.0
 40
11.0
 40
11.0
 40
11.0
 40
11.0
 10
102.9944023722549
 20
-160.9562391090665
 30
0.0
 10
102.9944023722549
 20
-160.9562391090665
 30
0.0
 10
102.9944023722549
 20
-161.3031602244311
 30
0.0
 10
102.9944023722549
 20
-161.3031602244311
 30
0.0
 10
102.9944023722549
 20
-161.3031602244311
 30
0.0
 10
102.7765000828128
 20
-161.3031602244311
 30
0.0
 10
102.7765000828128
 20
-161.3031602244311
 30
0.0
 10
102.7765000828128
 20
-161.3031602244311
 30
0.0
 10
102.7765000828128
 20
-160.9562391090665
 30
0.0
 10
102.7765000828128
 20
-160.9562391090665
 30
0.0
 10
102.7765000828128
 20
-160.9562391090665
 30
0.0
 10
102.1207261571955
 20
-160.9562391090665
 30
0.0
 10
102.1207261571955
 20
-160.9562391090665
 30
0.0
 10
102.1207261571955
 20
-160.9562391090665
 30
0.0
 10
102.1207261571955
 20
-160.7319633929767
 30
0.0
 10
102.1207261571955
 20
-160.7319633929767
 30
0.0
 10
102.1207261571955
 20
-160.7319633929767
 30
0.0
 10
102.7997544773382
 20
-159.7587239183936
 30
0.0
 10
102.7997544773382
 20
-159.7587239183936
 30
0.0
 10
102.7997544773382
 20
-159.7587239183936
 30
0.0
 10
102.9944023722549
 20
-159.7587239183936
 30
0.0
 10
102.9944023722549
 20
-159.7587239183936
 30
0.0
 10
102.9944023722549
 20
-159.7587239183936
 30
0.0
 10
102.9944023722549
 20
-160.7574570995675
 30
0.0
 10
102.9944023722549
 20
-160.7574570995675
 30
0.0
 10
102.9944023722549
 20
-160.7574570995675
 30
0.0
 10
103.2017971204669
 20
-160.7574570995675
 30
0.0
 10
103.2017971204669
 20
-160.7574570995675
 30
0.0
 10
103.2017971204669
 20
-160.7574570995675
 30
0.0
 10
103.2017971204669
 20
-160.9562391090665
 30
0.0
 10
103.2017971204669
 20
-160.9562391090665
 30
0.0
 10
103.2017971204669
 20
-160.9562391090665
 30
0.0
 10
102.9944023722549
 20
-160.9562391090665
 30
0.0
 10
102.9944023722549
 20
-160.9562391090665
 30
0.0
  0
HATCH
  5
AE
330
A8
100
AcDbEntity
  8
レイヤー 1
 62
    18
420
        0
440
 33554687
100
AcDbHatch
 10
0.0
 20
0.0
 30
0.0
210
0.0
220
0.0
230
1.0
  2
SOLID
 70
     1
 71
     1
 91
        2
 92
        1
 93
        1
 72
     4
 94
        3
 73
     0
 74
     0
 95
       14
 96
       10
 40
0.0
 40
0.0
 40
0.0
 40
0.0
 40
1.0
 40
1.0
 40
1.0
 40
2.0
 40
2.0
 40
2.0
 40
3.0
 40
3.0
 40
3.0
 40
3.0
 10
102.7765000828128
 20
-160.101510919176
 10
102.7765000828128
 20
-160.101510919176
 10
102.3196804214687
 20
-160.7574570995675
 10
102.3196804214687
 20
-160.7574570995675
 10
102.3196804214687
 20
-160.7574570995675
 10
102.7765000828128
 20
-160.7574570995675
 10
102.7765000828128
 20
-160.7574570995675
 10
102.7765000828128
 20
-160.7574570995675
 10
102.7765000828128
 20
-160.101510919176
 10
102.7765000828128
 20
-160.101510919176
 97
        0
 97
        1
330
AC
 92
        1
 93
        1
 72
     4
 94
        3
 73
     0
 74
     0
 95
       38
 96
       34
 40
0.0
 40
0.0
 40
0.0
 40
0.0
 40
1.0
 40
1.0
 40
1.0
 40
2.0
 40
2.0
 40
2.0
 40
3.0
 40
3.0
 40
3.0
 40
4.0
 40
4.0
 40
4.0
 40
5.0
 40
5.0
 40
5.0
 40
6.0
 40
6.0
 40
6.0
 40
7.0
 40
7.0
 40
7.0
 40
8.0
 40
8.0
 40
8.0
 40
9.0
 40
9.0
 40
9.0
 40
10.0
 40
10.0
 40
10.0
 40
11.0
 40
11.0
 40
11.0
 40
11.0
 10
102.9944023722549
 20
-160.9562391090665
 10
102.9944023722549
 20
-160.9562391090665
 10
102.9944023722549
 20
-161.3031602244311
 10
102.9944023722549
 20
-161.3031602244311
 10
102.9944023722549
 20
-161.3031602244311
 10
102.7765000828128
 20
-161.3031602244311
 10
102.7765000828128
 20
-161.3031602244311
 10
102.7765000828128
 20
-161.3031602244311
 10
102.7765000828128
 20
-160.9562391090665
 10
102.7765000828128
 20
-160.9562391090665
 10
102.7765000828128
 20
-160.9562391090665
 10
102.1207261571955
 20
-160.9562391090665
 10
102.1207261571955
 20
-160.9562391090665
 10
102.1207261571955
 20
-160.9562391090665
 10
102.1207261571955
 20
-160.7319633929767
 10
102.1207261571955
 20
-160.7319633929767
 10
102.1207261571955
 20
-160.7319633929767
 10
102.7997544773382
 20
-159.7587239183936
 10
102.7997544773382
 20
-159.7587239183936
 10
102.7997544773382
 20
-159.7587239183936
 10
102.9944023722549
 20
-159.7587239183936
 10
102.9944023722549
 20
-159.7587239183936
 10
102.9944023722549
 20
-159.7587239183936
 10
102.9944023722549
 20
-160.7574570995675
 10
102.9944023722549
 20
-160.7574570995675
 10
102.9944023722549
 20
-160.7574570995675
 10
103.2017971204669
 20
-160.7574570995675
 10
103.2017971204669
 20
-160.7574570995675
 10
103.2017971204669
 20
-160.7574570995675
 10
103.2017971204669
 20
-160.9562391090665
 10
103.2017971204669
 20
-160.9562391090665
 10
103.2017971204669
 20
-160.9562391090665
 10
102.9944023722549
 20
-160.9562391090665
 10
102.9944023722549
 20
-160.9562391090665
 97
        0
 97
        1
330
AD
 75
     2
 76
     1
 98
        1
 10
0.0
 20
0.0
450
        0
451
        0
460
0.0
461
0.0
452
        0
462
0.0
453
        0
470

  0
ENDBLK
  5
AB
330
A8
100
AcDbEntity
  8
0
100
AcDbBlockEnd
  0
BLOCK
  5
B1
330
AF
100
AcDbEntity
  8
0
100
AcDbBlockBegin
  2
Block_4
 70
     0
 10
0.0
 20
0.0
 30
0.0
  3
Block_4
  1

  0
INSERT
  5
B4
330
AF
100
AcDbEntity
  8
レイヤー 1
100
AcDbBlockReference
  2
Block_5
 10
0.0
 20
0.0
 30
0.0
  0
ENDBLK
  5
B2
330
AF
100
AcDbEntity
  8
0
100
AcDbBlockEnd
  0
BLOCK
  5
B5
330
B3
100
AcDbEntity
  8
0
100
AcDbBlockBegin
  2
Block_5
 70
     0
 10
0.0
 20
0.0
 30
0.0
  3
Block_5
  1

  0
SPLINE
  5
B7
330
B3
100
AcDbEntity
  8
レイヤー 1
100
AcDbSpline
210
0.0
220
0.0
230
1.0
 70
    11
 71
     3
 72
    26
 73
    22
 74
     0
 42
0.0000000001
 43
0.0000000001
 40
0.0
 40
0.0
 40
0.0
 40
0.0
 40
1.0
 40
1.0
 40
1.0
 40
2.0
 40
2.0
 40
2.0
 40
3.0
 40
3.0
 40
3.0
 40
4.0
 40
4.0
 40
4.0
 40
5.0
 40
5.0
 40
5.0
 40
6.0
 40
6.0
 40
6.0
 40
7.0
 40
7.0
 40
7.0
 40
7.0
 10
107.5252196996812
 20
-137.5030625741312
 30
0.0
 10
107.5252196996812
 20
-137.5030625741312
 30
0.0
 10
107.5252196996812
 20
-136.3987372163343
 30
0.0
 10
107.5252196996812
 20
-136.3987372163343
 30
0.0
 10
107.5252196996812
 20
-136.3987372163343
 30
0.0
 10
107.1951795521942
 20
-136.3987372163343
 30
0.0
 10
107.1951795521942
 20
-136.3987372163343
 30
0.0
 10
107.1951795521942
 20
-136.3987372163343
 30
0.0
 10
107.1951795521942
 20
-136.2507703652428
 30
0.0
 10
107.1951795521942
 20
-136.2507703652428
 30
0.0
 10
107.5272867569723
 20
-136.2359564546563
 30
0.0
 10
107.5737955460232
 20
-136.073003438204
 30
0.0
 10
107.6034233671963
 20
-135.9587985228679
 30
0.0
 10
107.6034233671963
 20
-135.9587985228679
 30
0.0
 10
107.7494954157709
 20
-135.9587985228679
 30
0.0
 10
107.7494954157709
 20
-135.9587985228679
 30
0.0
 10
107.7494954157709
 20
-135.9587985228679
 30
0.0
 10
107.7494954157709
 20
-137.5030625741312
 30
0.0
 10
107.7494954157709
 20
-137.5030625741312
 30
0.0
 10
107.7494954157709
 20
-137.5030625741312
 30
0.0
 10
107.5252196996812
 20
-137.5030625741312
 30
0.0
 10
107.5252196996812
 20
-137.5030625741312
 30
0.0
  0
HATCH
  5
B8
330
B3
100
AcDbEntity
  8
レイヤー 1
 62
    18
420
        0
440
 33554687
100
AcDbHatch
 10
0.0
 20
0.0
 30
0.0
210
0.0
220
0.0
230
1.0
  2
SOLID
 70
     1
 71
     1
 91
        1
 92
        1
 93
        1
 72
     4
 94
        3
 73
     0
 74
     0
 95
       26
 96
       22
 40
0.0
 40
0.0
 40
0.0
 40
0.0
 40
1.0
 40
1.0
 40
1.0
 40
2.0
 40
2.0
 40
2.0
 40
3.0
 40
3.0
 40
3.0
 40
4.0
 40
4.0
 40
4.0
 40
5.0
 40
5.0
 40
5.0
 40
6.0
 40
6.0
 40
6.0
 40
7.0
 40
7.0
 40
7.0
 40
7.0
 10
107.5252196996812
 20
-137.5030625741312
 10
107.5252196996812
 20
-137.5030625741312
 10
107.5252196996812
 20
-136.3987372163343
 10
107.5252196996812
 20
-136.3987372163343
 10
107.5252196996812
 20
-136.3987372163343
 10
107.1951795521942
 20
-136.3987372163343
 10
107.1951795521942
 20
-136.3987372163343
 10
107.1951795521942
 20
-136.3987372163343
 10
107.1951795521942
 20
-136.2507703652428
 10
107.1951795521942
 20
-136.2507703652428
 10
107.5272867569723
 20
-136.2359564546563
 10
107.5737955460232
 20
-136.073003438204
 10
107.6034233671963
 20
-135.9587985228679
 10
107.6034233671963
 20
-135.9587985228679
 10
107.7494954157709
 20
-135.9587985228679
 10
107.7494954157709
 20
-135.9587985228679
 10
107.7494954157709
 20
-135.9587985228679
 10
107.7494954157709
 20
-137.5030625741312
 10
107.7494954157709
 20
-137.5030625741312
 10
107.7494954157709
 20
-137.5030625741312
 10
107.5252196996812
 20
-137.5030625741312
 10
107.5252196996812
 20
-137.5030625741312
 97
        0
 97
        1
330
B7
 75
     2
 76
     1
 98
        1
 10
0.0
 20
0.0
450
        0
451
        0
460
0.0
461
0.0
452
        0
462
0.0
453
        0
470

  0
SPLINE
  5
B9
330
B3
100
AcDbEntity
  8
レイヤー 1
100
AcDbSpline
210
0.0
220
0.0
230
1.0
 70
     9
 71
     3
 72
    53
 73
    49
 74
     0
 42
0.0000000001
 43
0.0000000001
 40
0.0
 40
0.0
 40
0.0
 40
0.0
 40
1.0
 40
1.0
 40
1.0
 40
2.0
 40
2.0
 40
2.0
 40
3.0
 40
3.0
 40
3.0
 40
4.0
 40
4.0
 40
4.0
 40
5.0
 40
5.0
 40
5.0
 40
6.0
 40
6.0
 40
6.0
 40
7.0
 40
7.0
 40
7.0
 40
8.0
 40
8.0
 40
8.0
 40
9.0
 40
9.0
 40
9.0
 40
10.0
 40
10.0
 40
10.0
 40
11.0
 40
11.0
 40
11.0
 40
12.0
 40
12.0
 40
12.0
 40
13.0
 40
13.0
 40
13.0
 40
14.0
 40
14.0
 40
14.0
 40
15.0
 40
15.0
 40
15.0
 40
16.0
 40
16.0
 40
16.0
 40
16.0
 10
108.7316921386157
 20
-137.5538777325386
 30
0.0
 10
108.6534884711005
 20
-137.5538777325386
 30
0.0
 10
108.5518581542856
 20
-137.5368245098866
 30
0.0
 10
108.4502278374708
 20
-137.473434752958
 30
0.0
 10
108.2769395345627
 20
-137.3633639522043
 30
0.0
 10
108.2555799425541
 20
-137.2322780689905
 30
0.0
 10
108.2366319173853
 20
-137.1244465803022
 30
0.0
 10
108.2366319173853
 20
-137.1244465803022
 30
0.0
 10
108.4588405761839
 20
-137.1244465803022
 30
0.0
 10
108.4588405761839
 20
-137.1244465803022
 30
0.0
 10
108.5136175943993
 20
-137.3232285898011
 30
0.0
 10
108.6407416178051
 20
-137.3528564109742
 30
0.0
 10
108.7337591959068
 20
-137.3528564109742
 30
0.0
 10
108.8732855630594
 20
-137.3528564109742
 30
0.0
 10
109.0255587835075
 20
-137.2534654062248
 30
0.0
 10
109.0255587835075
 20
-137.0207492061962
 30
0.0
 10
109.0255587835075
 20
-136.7647786116421
 30
0.0
 10
108.8457247991774
 20
-136.6950154280658
 30
0.0
 10
108.7251464571937
 20
-136.6950154280658
 30
0.0
 10
108.6934515787294
 20
-136.6950154280658
 30
0.0
 10
108.5518581542856
 20
-136.6950154280658
 30
0.0
 10
108.4629746907662
 20
-136.8240342539884
 30
0.0
 10
108.4629746907662
 20
-136.8240342539884
 30
0.0
 10
108.2872748210184
 20
-136.8049139740453
 30
0.0
 10
108.2872748210184
 20
-136.8049139740453
 30
0.0
 10
108.2872748210184
 20
-136.8049139740453
 30
0.0
 10
108.4078531630022
 20
-135.9587985228679
 30
0.0
 10
108.4078531630022
 20
-135.9587985228679
 30
0.0
 10
108.4078531630022
 20
-135.9587985228679
 30
0.0
 10
109.1864447426686
 20
-135.9587985228679
 30
0.0
 10
109.1864447426686
 20
-135.9587985228679
 30
0.0
 10
109.1864447426686
 20
-135.9587985228679
 30
0.0
 10
109.1864447426686
 20
-136.1534464177845
 30
0.0
 10
109.1864447426686
 20
-136.1534464177845
 30
0.0
 10
109.1864447426686
 20
-136.1534464177845
 30
0.0
 10
108.5708061794545
 20
-136.1534464177845
 30
0.0
 10
108.5708061794545
 20
-136.1534464177845
 30
0.0
 10
108.5708061794545
 20
-136.1534464177845
 30
0.0
 10
108.5053493652347
 20
-136.5765041433732
 30
0.0
 10
108.5053493652347
 20
-136.5765041433732
 30
0.0
 10
108.5666720648722
 20
-136.5425699528435
 30
0.0
 10
108.6490098469697
 20
-136.5024345904404
 30
0.0
 10
108.7675211316623
 20
-136.5024345904404
 30
0.0
 10
109.0214246689252
 20
-136.5024345904404
 30
0.0
 10
109.2584472383104
 20
-136.6886420014181
 30
0.0
 10
109.2584472383104
 20
-137.001628926253
 30
0.0
 10
109.2584472383104
 20
-137.3190944752188
 30
0.0
 10
109.0341715222206
 20
-137.5538777325386
 30
0.0
 10
108.7316921386157
 20
-137.5538777325386
 30
0.0
  0
HATCH
  5
BA
330
B3
100
AcDbEntity
  8
レイヤー 1
 62
    18
420
        0
440
 33554687
100
AcDbHatch
 10
0.0
 20
0.0
 30
0.0
210
0.0
220
0.0
230
1.0
  2
SOLID
 70
     1
 71
     1
 91
        1
 92
        1
 93
        1
 72
     4
 94
        3
 73
     0
 74
     0
 95
       53
 96
       49
 40
0.0
 40
0.0
 40
0.0
 40
0.0
 40
1.0
 40
1.0
 40
1.0
 40
2.0
 40
2.0
 40
2.0
 40
3.0
 40
3.0
 40
3.0
 40
4.0
 40
4.0
 40
4.0
 40
5.0
 40
5.0
 40
5.0
 40
6.0
 40
6.0
 40
6.0
 40
7.0
 40
7.0
 40
7.0
 40
8.0
 40
8.0
 40
8.0
 40
9.0
 40
9.0
 40
9.0
 40
10.0
 40
10.0
 40
10.0
 40
11.0
 40
11.0
 40
11.0
 40
12.0
 40
12.0
 40
12.0
 40
13.0
 40
13.0
 40
13.0
 40
14.0
 40
14.0
 40
14.0
 40
15.0
 40
15.0
 40
15.0
 40
16.0
 40
16.0
 40
16.0
 40
16.0
 10
108.7316921386157
 20
-137.5538777325386
 10
108.6534884711005
 20
-137.5538777325386
 10
108.5518581542856
 20
-137.5368245098866
 10
108.4502278374708
 20
-137.473434752958
 10
108.2769395345627
 20
-137.3633639522043
 10
108.2555799425541
 20
-137.2322780689905
 10
108.2366319173853
 20
-137.1244465803022
 10
108.2366319173853
 20
-137.1244465803022
 10
108.4588405761839
 20
-137.1244465803022
 10
108.4588405761839
 20
-137.1244465803022
 10
108.5136175943993
 20
-137.3232285898011
 10
108.6407416178051
 20
-137.3528564109742
 10
108.7337591959068
 20
-137.3528564109742
 10
108.8732855630594
 20
-137.3528564109742
 10
109.0255587835075
 20
-137.2534654062248
 10
109.0255587835075
 20
-137.0207492061962
 10
109.0255587835075
 20
-136.7647786116421
 10
108.8457247991774
 20
-136.6950154280658
 10
108.7251464571937
 20
-136.6950154280658
 10
108.6934515787294
 20
-136.6950154280658
 10
108.5518581542856
 20
-136.6950154280658
 10
108.4629746907662
 20
-136.8240342539884
 10
108.4629746907662
 20
-136.8240342539884
 10
108.2872748210184
 20
-136.8049139740453
 10
108.2872748210184
 20
-136.8049139740453
 10
108.2872748210184
 20
-136.8049139740453
 10
108.4078531630022
 20
-135.9587985228679
 10
108.4078531630022
 20
-135.9587985228679
 10
108.4078531630022
 20
-135.9587985228679
 10
109.1864447426686
 20
-135.9587985228679
 10
109.1864447426686
 20
-135.9587985228679
 10
109.1864447426686
 20
-135.9587985228679
 10
109.1864447426686
 20
-136.1534464177845
 10
109.1864447426686
 20
-136.1534464177845
 10
109.1864447426686
 20
-136.1534464177845
 10
108.5708061794545
 20
-136.1534464177845
 10
108.5708061794545
 20
-136.1534464177845
 10
108.5708061794545
 20
-136.1534464177845
 10
108.5053493652347
 20
-136.5765041433732
 10
108.5053493652347
 20
-136.5765041433732
 10
108.5666720648722
 20
-136.5425699528435
 10
108.6490098469697
 20
-136.5024345904404
 10
108.7675211316623
 20
-136.5024345904404
 10
109.0214246689252
 20
-136.5024345904404
 10
109.2584472383104
 20
-136.6886420014181
 10
109.2584472383104
 20
-137.001628926253
 10
109.2584472383104
 20
-137.3190944752188
 10
109.0341715222206
 20
-137.5538777325386
 10
108.7316921386157
 20
-137.5538777325386
 97
        0
 97
        1
330
B9
 75
     2
 76
     1
 98
        1
 10
0.0
 20
0.0
450
        0
451
        0
460
0.0
461
0.0
452
        0
462
0.0
453
        0
470

  0
ENDBLK
  5
B6
330
B3
100
AcDbEntity
  8
0
100
AcDbBlockEnd
  0
BLOCK
  5
BD
330
BB
100
AcDbEntity
  8
0
100
AcDbBlockBegin
  2
Block_6
 70
     0
 10
0.0
 20
0.0
 30
0.0
  3
Block_6
  1

  0
INSERT
  5
C0
330
BB
100
AcDbEntity
  8
レイヤー 1
100
AcDbBlockReference
  2
Block_7
 10
0.0
 20
0.0
 30
0.0
  0
ENDBLK
  5
BE
330
BB
100
AcDbEntity
  8
0
100
AcDbBlockEnd
  0
BLOCK
  5
C1
330
BF
100
AcDbEntity
  8
0
100
AcDbBlockBegin
  2
Block_7
 70
     0
 10
0.0
 20
0.0
 30
0.0
  3
Block_7
  1

  0
SPLINE
  5
C3
330
BF
100
AcDbEntity
  8
レイヤー 1
100
AcDbSpline
210
0.0
220
0.0
230
1.0
 70
    11
 71
     3
 72
    26
 73
    22
 74
     0
 42
0.0000000001
 43
0.0000000001
 40
0.0
 40
0.0
 40
0.0
 40
0.0
 40
1.0
 40
1.0
 40
1.0
 40
2.0
 40
2.0
 40
2.0
 40
3.0
 40
3.0
 40
3.0
 40
4.0
 40
4.0
 40
4.0
 40
5.0
 40
5.0
 40
5.0
 40
6.0
 40
6.0
 40
6.0
 40
7.0
 40
7.0
 40
7.0
 40
7.0
 10
118.3107801353528
 20
-150.7918293893854
 30
0.0
 10
118.3107801353528
 20
-150.7918293893854
 30
0.0
 10
117.2066270323303
 20
-150.7918293893854
 30
0.0
 10
117.2066270323303
 20
-150.7918293893854
 30
0.0
 10
117.2066270323303
 20
-150.7918293893854
 30
0.0
 10
117.2066270323303
 20
-151.1218695368723
 30
0.0
 10
117.2066270323303
 20
-151.1218695368723
 30
0.0
 10
117.2066270323303
 20
-151.1218695368723
 30
0.0
 10
117.0584879264645
 20
-151.1218695368723
 30
0.0
 10
117.0584879264645
 20
-151.1218695368723
 30
0.0
 10
117.043674015878
 20
-150.7897623320942
 30
0.0
 10
116.8807209994256
 20
-150.7432535430433
 30
0.0
 10
116.7663438293153
 20
-150.7136257218702
 30
0.0
 10
116.7663438293153
 20
-150.7136257218702
 30
0.0
 10
116.7663438293153
 20
-150.5675536732956
 30
0.0
 10
116.7663438293153
 20
-150.5675536732956
 30
0.0
 10
116.7663438293153
 20
-150.5675536732956
 30
0.0
 10
118.3107801353528
 20
-150.5675536732956
 30
0.0
 10
118.3107801353528
 20
-150.5675536732956
 30
0.0
 10
118.3107801353528
 20
-150.5675536732956
 30
0.0
 10
118.3107801353528
 20
-150.7918293893854
 30
0.0
 10
118.3107801353528
 20
-150.7918293893854
 30
0.0
  0
HATCH
  5
C4
330
BF
100
AcDbEntity
  8
レイヤー 1
 62
    18
420
        0
440
 33554687
100
AcDbHatch
 10
0.0
 20
0.0
 30
0.0
210
0.0
220
0.0
230
1.0
  2
SOLID
 70
     1
 71
     1
 91
        1
 92
        1
 93
        1
 72
     4
 94
        3
 73
     0
 74
     0
 95
       26
 96
       22
 40
0.0
 40
0.0
 40
0.0
 40
0.0
 40
1.0
 40
1.0
 40
1.0
 40
2.0
 40
2.0
 40
2.0
 40
3.0
 40
3.0
 40
3.0
 40
4.0
 40
4.0
 40
4.0
 40
5.0
 40
5.0
 40
5.0
 40
6.0
 40
6.0
 40
6.0
 40
7.0
 40
7.0
 40
7.0
 40
7.0
 10
118.3107801353528
 20
-150.7918293893854
 10
118.3107801353528
 20
-150.7918293893854
 10
117.2066270323303
 20
-150.7918293893854
 10
117.2066270323303
 20
-150.7918293893854
 10
117.2066270323303
 20
-150.7918293893854
 10
117.2066270323303
 20
-151.1218695368723
 10
117.2066270323303
 20
-151.1218695368723
 10
117.2066270323303
 20
-151.1218695368723
 10
117.0584879264645
 20
-151.1218695368723
 10
117.0584879264645
 20
-151.1218695368723
 10
117.043674015878
 20
-150.7897623320942
 10
116.8807209994256
 20
-150.7432535430433
 10
116.7663438293153
 20
-150.7136257218702
 10
116.7663438293153
 20
-150.7136257218702
 10
116.7663438293153
 20
-150.5675536732956
 10
116.7663438293153
 20
-150.5675536732956
 10
116.7663438293153
 20
-150.5675536732956
 10
118.3107801353528
 20
-150.5675536732956
 10
118.3107801353528
 20
-150.5675536732956
 10
118.3107801353528
 20
-150.5675536732956
 10
118.3107801353528
 20
-150.7918293893854
 10
118.3107801353528
 20
-150.7918293893854
 97
        0
 97
        1
330
C3
 75
     2
 76
     1
 98
        1
 10
0.0
 20
0.0
450
        0
451
        0
460
0.0
461
0.0
452
        0
462
0.0
453
        0
470

  0
SPLINE
  5
C5
330
BF
100
AcDbEntity
  8
レイヤー 1
100
AcDbSpline
210
0.0
220
0.0
230
1.0
 70
     9
 71
     3
 72
    62
 73
    58
 74
     0
 42
0.0000000001
 43
0.0000000001
 40
0.0
 40
0.0
 40
0.0
 40
0.0
 40
1.0
 40
1.0
 40
1.0
 40
2.0
 40
2.0
 40
2.0
 40
3.0
 40
3.0
 40
3.0
 40
4.0
 40
4.0
 40
4.0
 40
5.0
 40
5.0
 40
5.0
 40
6.0
 40
6.0
 40
6.0
 40
7.0
 40
7.0
 40
7.0
 40
8.0
 40
8.0
 40
8.0
 40
9.0
 40
9.0
 40
9.0
 40
10.0
 40
10.0
 40
10.0
 40
11.0
 40
11.0
 40
11.0
 40
12.0
 40
12.0
 40
12.0
 40
13.0
 40
13.0
 40
13.0
 40
14.0
 40
14.0
 40
14.0
 40
15.0
 40
15.0
 40
15.0
 40
16.0
 40
16.0
 40
16.0
 40
17.0
 40
17.0
 40
17.0
 40
18.0
 40
18.0
 40
18.0
 40
19.0
 40
19.0
 40
19.0
 40
19.0
 10
118.361423038986
 20
-149.5746771544466
 30
0.0
 10
118.361423038986
 20
-149.670106299388
 30
0.0
 10
118.340407956526
 20
-149.8878363340558
 30
0.0
 10
118.1543728003225
 20
-150.0128933001704
 30
0.0
 10
118.0420626875033
 20
-150.0869628531033
 30
0.0
 10
117.9428439375282
 20
-150.0910969676855
 30
0.0
 10
117.858094588591
 20
-150.0952310822678
 30
0.0
 10
117.858094588591
 20
-150.0952310822678
 30
0.0
 10
117.858094588591
 20
-149.8750894807604
 30
0.0
 10
117.858094588591
 20
-149.8750894807604
 30
0.0
 10
117.9321641415239
 20
-149.8730224234692
 30
0.0
 10
118.1667751440694
 20
-149.8626871370135
 30
0.0
 10
118.1667751440694
 20
-149.5791557785774
 30
0.0
 10
118.1667751440694
 20
-149.4416964687159
 30
0.0
 10
118.0971842152674
 20
-149.2890787387194
 30
0.0
 10
117.8687743845953
 20
-149.2890787387194
 30
0.0
 10
117.7523301571938
 20
-149.2890787387194
 30
0.0
 10
117.7037543108518
 20
-149.3273192986057
 30
0.0
 10
117.6720594323875
 20
-149.35901417707
 30
0.0
 10
117.5979898794546
 20
-149.4330837300028
 30
0.0
 10
117.5852430261592
 20
-149.5495279574043
 30
0.0
 10
117.5852430261592
 20
-149.6043049756197
 30
0.0
 10
117.5852430261592
 20
-149.6235975103371
 30
0.0
 10
117.5873100834504
 20
-149.6594265033837
 30
0.0
 10
117.5914441980327
 20
-149.6869872672657
 30
0.0
 10
117.5914441980327
 20
-149.6869872672657
 30
0.0
 10
117.3967963031161
 20
-149.6869872672657
 30
0.0
 10
117.3967963031161
 20
-149.6869872672657
 30
0.0
 10
117.403341984538
 20
-149.6487467073795
 30
0.0
 10
117.4054090418292
 20
-149.6067165424594
 30
0.0
 10
117.4054090418292
 20
-149.6001708610374
 30
0.0
 10
117.4054090418292
 20
-149.5347140468177
 30
0.0
 10
117.3840494498206
 20
-149.3359320373188
 30
0.0
 10
117.147371389984
 20
-149.3359320373188
 30
0.0
 10
116.9696044629451
 20
-149.3359320373188
 30
0.0
 10
116.9144829351811
 20
-149.4668456657583
 30
0.0
 10
116.9144829351811
 20
-149.5770887212863
 30
0.0
 10
116.9144829351811
 20
-149.8413275450049
 30
0.0
 10
117.147371389984
 20
-149.8499402837181
 30
0.0
 10
117.2190293760772
 20
-149.8540743983004
 30
0.0
 10
117.2190293760772
 20
-149.8540743983004
 30
0.0
 10
117.2190293760772
 20
-150.0573350319301
 30
0.0
 10
117.2190293760772
 20
-150.0573350319301
 30
0.0
 10
117.0943169195111
 20
-150.048722293217
 30
0.0
 10
116.7177679829733
 20
-150.021161529335
 30
0.0
 10
116.7177679829733
 20
-149.5643418679908
 30
0.0
 10
116.7177679829733
 20
-149.3400661519011
 30
0.0
 10
116.844892006379
 20
-149.0989094679336
 30
0.0
 10
117.140825708562
 20
-149.0989094679336
 30
0.0
 10
117.327205374314
 20
-149.0989094679336
 30
0.0
 10
117.4095431564115
 20
-149.1939941033265
 30
0.0
 10
117.4708658560489
 20
-149.2935573628502
 30
0.0
 10
117.4984266199309
 20
-149.2322346632128
 30
0.0
 10
117.5786973447372
 20
-149.0503336215916
 30
0.0
 10
117.8560275312999
 20
-149.0503336215916
 30
0.0
 10
118.1943359079514
 20
-149.0503336215916
 30
0.0
 10
118.361423038986
 20
-149.2976914774325
 30
0.0
 10
118.361423038986
 20
-149.5746771544466
 30
0.0
  0
HATCH
  5
C6
330
BF
100
AcDbEntity
  8
レイヤー 1
 62
    18
420
        0
440
 33554687
100
AcDbHatch
 10
0.0
 20
0.0
 30
0.0
210
0.0
220
0.0
230
1.0
  2
SOLID
 70
     1
 71
     1
 91
        1
 92
        1
 93
        1
 72
     4
 94
        3
 73
     0
 74
     0
 95
       62
 96
       58
 40
0.0
 40
0.0
 40
0.0
 40
0.0
 40
1.0
 40
1.0
 40
1.0
 40
2.0
 40
2.0
 40
2.0
 40
3.0
 40
3.0
 40
3.0
 40
4.0
 40
4.0
 40
4.0
 40
5.0
 40
5.0
 40
5.0
 40
6.0
 40
6.0
 40
6.0
 40
7.0
 40
7.0
 40
7.0
 40
8.0
 40
8.0
 40
8.0
 40
9.0
 40
9.0
 40
9.0
 40
10.0
 40
10.0
 40
10.0
 40
11.0
 40
11.0
 40
11.0
 40
12.0
 40
12.0
 40
12.0
 40
13.0
 40
13.0
 40
13.0
 40
14.0
 40
14.0
 40
14.0
 40
15.0
 40
15.0
 40
15.0
 40
16.0
 40
16.0
 40
16.0
 40
17.0
 40
17.0
 40
17.0
 40
18.0
 40
18.0
 40
18.0
 40
19.0
 40
19.0
 40
19.0
 40
19.0
 10
118.361423038986
 20
-149.5746771544466
 10
118.361423038986
 20
-149.670106299388
 10
118.340407956526
 20
-149.8878363340558
 10
118.1543728003225
 20
-150.0128933001704
 10
118.0420626875033
 20
-150.0869628531033
 10
117.9428439375282
 20
-150.0910969676855
 10
117.858094588591
 20
-150.0952310822678
 10
117.858094588591
 20
-150.0952310822678
 10
117.858094588591
 20
-149.8750894807604
 10
117.858094588591
 20
-149.8750894807604
 10
117.9321641415239
 20
-149.8730224234692
 10
118.1667751440694
 20
-149.8626871370135
 10
118.1667751440694
 20
-149.5791557785774
 10
118.1667751440694
 20
-149.4416964687159
 10
118.0971842152674
 20
-149.2890787387194
 10
117.8687743845953
 20
-149.2890787387194
 10
117.7523301571938
 20
-149.2890787387194
 10
117.7037543108518
 20
-149.3273192986057
 10
117.6720594323875
 20
-149.35901417707
 10
117.5979898794546
 20
-149.4330837300028
 10
117.5852430261592
 20
-149.5495279574043
 10
117.5852430261592
 20
-149.6043049756197
 10
117.5852430261592
 20
-149.6235975103371
 10
117.5873100834504
 20
-149.6594265033837
 10
117.5914441980327
 20
-149.6869872672657
 10
117.5914441980327
 20
-149.6869872672657
 10
117.3967963031161
 20
-149.6869872672657
 10
117.3967963031161
 20
-149.6869872672657
 10
117.403341984538
 20
-149.6487467073795
 10
117.4054090418292
 20
-149.6067165424594
 10
117.4054090418292
 20
-149.6001708610374
 10
117.4054090418292
 20
-149.5347140468177
 10
117.3840494498206
 20
-149.3359320373188
 10
117.147371389984
 20
-149.3359320373188
 10
116.9696044629451
 20
-149.3359320373188
 10
116.9144829351811
 20
-149.4668456657583
 10
116.9144829351811
 20
-149.5770887212863
 10
116.9144829351811
 20
-149.8413275450049
 10
117.147371389984
 20
-149.8499402837181
 10
117.2190293760772
 20
-149.8540743983004
 10
117.2190293760772
 20
-149.8540743983004
 10
117.2190293760772
 20
-150.0573350319301
 10
117.2190293760772
 20
-150.0573350319301
 10
117.0943169195111
 20
-150.048722293217
 10
116.7177679829733
 20
-150.021161529335
 10
116.7177679829733
 20
-149.5643418679908
 10
116.7177679829733
 20
-149.3400661519011
 10
116.844892006379
 20
-149.0989094679336
 10
117.140825708562
 20
-149.0989094679336
 10
117.327205374314
 20
-149.0989094679336
 10
117.4095431564115
 20
-149.1939941033265
 10
117.4708658560489
 20
-149.2935573628502
 10
117.4984266199309
 20
-149.2322346632128
 10
117.5786973447372
 20
-149.0503336215916
 10
117.8560275312999
 20
-149.0503336215916
 10
118.1943359079514
 20
-149.0503336215916
 10
118.361423038986
 20
-149.2976914774325
 10
118.361423038986
 20
-149.5746771544466
 97
        0
 97
        1
330
C5
 75
     2
 76
     1
 98
        1
 10
0.0
 20
0.0
450
        0
451
        0
460
0.0
461
0.0
452
        0
462
0.0
453
        0
470

  0
ENDBLK
  5
C2
330
BF
100
AcDbEntity
  8
0
100
AcDbBlockEnd
  0
BLOCK
  5
CC
330
CA
100
AcDbEntity
  8
0
100
AcDbBlockBegin
  2
Block_8
 70
     0
 10
0.0
 20
0.0
 30
0.0
  3
Block_8
  1

  0
INSERT
  5
CF
330
CA
100
AcDbEntity
  8
レイヤー 1
100
AcDbBlockReference
  2
Block_9
 10
0.0
 20
0.0
 30
0.0
  0
ENDBLK
  5
CD
330
CA
100
AcDbEntity
  8
0
100
AcDbBlockEnd
  0
BLOCK
  5
D0
330
CE
100
AcDbEntity
  8
0
100
AcDbBlockBegin
  2
Block_9
 70
     0
 10
0.0
 20
0.0
 30
0.0
  3
Block_9
  1

  0
SPLINE
  5
D2
330
CE
100
AcDbEntity
  8
レイヤー 1
100
AcDbSpline
210
0.0
220
0.0
230
1.0
 70
     9
 71
     3
 72
    17
 73
    13
 74
     0
 42
0.0000000001
 43
0.0000000001
 40
0.0
 40
0.0
 40
0.0
 40
0.0
 40
1.0
 40
1.0
 40
1.0
 40
2.0
 40
2.0
 40
2.0
 40
3.0
 40
3.0
 40
3.0
 40
4.0
 40
4.0
 40
4.0
 40
4.0
 10
90.59757077813186
 20
-158.3596706418337
 30
0.0
 10
90.58068981025414
 20
-158.3889539534583
 30
0.0
 10
90.53004690662097
 20
-158.4823160411086
 30
0.0
 10
90.51936711061669
 20
-158.5012640662774
 30
0.0
 10
90.709880890951
 20
-158.5605197086237
 30
0.0
 10
90.73089597341102
 20
-158.5667208804972
 30
0.0
 10
90.80289846905275
 20
-158.5942816443792
 30
0.0
 10
90.85801999681676
 20
-158.5074652381509
 30
0.0
 10
90.88110213656792
 20
-158.433395685218
 30
0.0
 10
90.89591604715449
 20
-158.3596706418337
 30
0.0
 10
90.89591604715449
 20
-158.3596706418337
 30
0.0
 10
90.59757077813186
 20
-158.3596706418337
 30
0.0
 10
90.59757077813186
 20
-158.3596706418337
 30
0.0
  0
SPLINE
  5
D3
330
CE
100
AcDbEntity
  8
レイヤー 1
100
AcDbSpline
210
0.0
220
0.0
230
1.0
 70
    11
 71
     3
 72
    20
 73
    16
 74
     0
 42
0.0000000001
 43
0.0000000001
 40
0.0
 40
0.0
 40
0.0
 40
0.0
 40
1.0
 40
1.0
 40
1.0
 40
2.0
 40
2.0
 40
2.0
 40
3.0
 40
3.0
 40
3.0
 40
4.0
 40
4.0
 40
4.0
 40
5.0
 40
5.0
 40
5.0
 40
5.0
 10
90.53418102120327
 20
-157.5090765665255
 30
0.0
 10
90.53418102120327
 20
-157.5090765665255
 30
0.0
 10
90.50248614273895
 20
-157.5090765665255
 30
0.0
 10
90.50248614273895
 20
-157.5090765665255
 30
0.0
 10
90.54899493178984
 20
-157.6086398260492
 30
0.0
 10
90.58068981025414
 20
-157.6889105508555
 30
0.0
 10
90.6144517460096
 20
-157.8156900647127
 30
0.0
 10
90.6144517460096
 20
-157.8156900647127
 30
0.0
 10
90.82184649422163
 20
-157.8156900647127
 30
0.0
 10
90.82184649422163
 20
-157.8156900647127
 30
0.0
 10
90.85354137268593
 20
-157.722672486611
 30
0.0
 10
90.87696802198562
 20
-157.6382676472224
 30
0.0
 10
90.9000501617368
 20
-157.5090765665255
 30
0.0
 10
90.9000501617368
 20
-157.5090765665255
 30
0.0
 10
90.53418102120327
 20
-157.5090765665255
 30
0.0
 10
90.53418102120327
 20
-157.5090765665255
 30
0.0
  0
SPLINE
  5
D4
330
CE
100
AcDbEntity
  8
レイヤー 1
100
AcDbSpline
210
0.0
220
0.0
230
1.0
 70
     9
 71
     3
 72
   242
 73
   238
 74
     0
 42
0.0000000001
 43
0.0000000001
 40
0.0
 40
0.0
 40
0.0
 40
0.0
 40
1.0
 40
1.0
 40
1.0
 40
2.0
 40
2.0
 40
2.0
 40
3.0
 40
3.0
 40
3.0
 40
4.0
 40
4.0
 40
4.0
 40
5.0
 40
5.0
 40
5.0
 40
6.0
 40
6.0
 40
6.0
 40
7.0
 40
7.0
 40
7.0
 40
8.0
 40
8.0
 40
8.0
 40
9.0
 40
9.0
 40
9.0
 40
10.0
 40
10.0
 40
10.0
 40
11.0
 40
11.0
 40
11.0
 40
12.0
 40
12.0
 40
12.0
 40
13.0
 40
13.0
 40
13.0
 40
14.0
 40
14.0
 40
14.0
 40
15.0
 40
15.0
 40
15.0
 40
16.0
 40
16.0
 40
16.0
 40
17.0
 40
17.0
 40
17.0
 40
18.0
 40
18.0
 40
18.0
 40
19.0
 40
19.0
 40
19.0
 40
20.0
 40
20.0
 40
20.0
 40
21.0
 40
21.0
 40
21.0
 40
22.0
 40
22.0
 40
22.0
 40
23.0
 40
23.0
 40
23.0
 40
24.0
 40
24.0
 40
24.0
 40
25.0
 40
25.0
 40
25.0
 40
26.0
 40
26.0
 40
26.0
 40
27.0
 40
27.0
 40
27.0
 40
28.0
 40
28.0
 40
28.0
 40
29.0
 40
29.0
 40
29.0
 40
30.0
 40
30.0
 40
30.0
 40
31.0
 40
31.0
 40
31.0
 40
32.0
 40
32.0
 40
32.0
 40
33.0
 40
33.0
 40
33.0
 40
34.0
 40
34.0
 40
34.0
 40
35.0
 40
35.0
 40
35.0
 40
36.0
 40
36.0
 40
36.0
 40
37.0
 40
37.0
 40
37.0
 40
38.0
 40
38.0
 40
38.0
 40
39.0
 40
39.0
 40
39.0
 40
40.0
 40
40.0
 40
40.0
 40
41.0
 40
41.0
 40
41.0
 40
42.0
 40
42.0
 40
42.0
 40
43.0
 40
43.0
 40
43.0
 40
44.0
 40
44.0
 40
44.0
 40
45.0
 40
45.0
 40
45.0
 40
46.0
 40
46.0
 40
46.0
 40
47.0
 40
47.0
 40
47.0
 40
48.0
 40
48.0
 40
48.0
 40
49.0
 40
49.0
 40
49.0
 40
50.0
 40
50.0
 40
50.0
 40
51.0
 40
51.0
 40
51.0
 40
52.0
 40
52.0
 40
52.0
 40
53.0
 40
53.0
 40
53.0
 40
54.0
 40
54.0
 40
54.0
 40
55.0
 40
55.0
 40
55.0
 40
56.0
 40
56.0
 40
56.0
 40
57.0
 40
57.0
 40
57.0
 40
58.0
 40
58.0
 40
58.0
 40
59.0
 40
59.0
 40
59.0
 40
60.0
 40
60.0
 40
60.0
 40
61.0
 40
61.0
 40
61.0
 40
62.0
 40
62.0
 40
62.0
 40
63.0
 40
63.0
 40
63.0
 40
64.0
 40
64.0
 40
64.0
 40
65.0
 40
65.0
 40
65.0
 40
66.0
 40
66.0
 40
66.0
 40
67.0
 40
67.0
 40
67.0
 40
68.0
 40
68.0
 40
68.0
 40
69.0
 40
69.0
 40
69.0
 40
70.0
 40
70.0
 40
70.0
 40
71.0
 40
71.0
 40
71.0
 40
72.0
 40
72.0
 40
72.0
 40
73.0
 40
73.0
 40
73.0
 40
74.0
 40
74.0
 40
74.0
 40
75.0
 40
75.0
 40
75.0
 40
76.0
 40
76.0
 40
76.0
 40
77.0
 40
77.0
 40
77.0
 40
78.0
 40
78.0
 40
78.0
 40
79.0
 40
79.0
 40
79.0
 40
79.0
 10
91.16256643771285
 20
-157.9745089665827
 30
0.0
 10
91.16256643771285
 20
-157.9745089665827
 30
0.0
 10
90.90866290044992
 20
-157.9745089665827
 30
0.0
 10
90.90866290044992
 20
-157.9745089665827
 30
0.0
 10
90.90866290044992
 20
-157.9745089665827
 30
0.0
 10
90.63167722343584
 20
-157.9745089665827
 30
0.0
 10
90.63167722343584
 20
-157.9745089665827
 30
0.0
 10
90.63167722343584
 20
-157.9745089665827
 30
0.0
 10
90.75845673729302
 20
-158.0168836410513
 30
0.0
 10
90.75845673729302
 20
-158.0168836410513
 30
0.0
 10
90.7691365332973
 20
-158.0210177556336
 30
0.0
 10
90.78188338659272
 20
-158.0272189275071
 30
0.0
 10
90.78188338659272
 20
-158.0399657808025
 30
0.0
 10
90.78188338659272
 20
-158.0613253728111
 30
0.0
 10
90.7498439985799
 20
-158.0675265446845
 30
0.0
 10
90.72882891611987
 20
-158.0716606592668
 30
0.0
 10
90.71814912011561
 20
-158.0950873085665
 30
0.0
 10
90.68852129894246
 20
-158.1605441227862
 30
0.0
 10
90.66957327377357
 20
-158.204985854546
 30
0.0
 10
90.66957327377357
 20
-158.204985854546
 30
0.0
 10
90.94035777891422
 20
-158.204985854546
 30
0.0
 10
90.94035777891422
 20
-158.204985854546
 30
0.0
 10
91.03130829972482
 20
-158.204985854546
 30
0.0
 10
91.22802325193259
 20
-158.2008517399637
 30
0.0
 10
91.36996118592488
 20
-158.1922390012505
 30
0.0
 10
91.36996118592488
 20
-158.1922390012505
 30
0.0
 10
91.36996118592488
 20
-158.3700059282894
 30
0.0
 10
91.36996118592488
 20
-158.3700059282894
 30
0.0
 10
91.28727889427889
 20
-158.3658718137071
 30
0.0
 10
91.26626381181885
 20
-158.3658718137071
 30
0.0
 10
91.08642982748881
 20
-158.3617376991248
 30
0.0
 10
91.05473494902453
 20
-158.516077976864
 30
0.0
 10
91.01029321726478
 20
-158.5963487016703
 30
0.0
 10
90.96585148550508
 20
-158.6662841400209
 30
0.0
 10
91.08642982748881
 20
-158.7255397823672
 30
0.0
 10
91.19219425888598
 20
-158.7930636538781
 30
0.0
 10
91.29589163299201
 20
-158.8757459455241
 30
0.0
 10
91.29589163299201
 20
-158.8757459455241
 30
0.0
 10
91.1773803482994
 20
-159.0428330765587
 30
0.0
 10
91.1773803482994
 20
-159.0428330765587
 30
0.0
 10
91.15395369899971
 20
-159.0238850513898
 30
0.0
 10
91.14120684570428
 20
-159.0152723126767
 30
0.0
 10
91.02924124243367
 20
-158.9305229637396
 30
0.0
 10
90.98066539609163
 20
-158.8926269134018
 30
0.0
 10
90.92140975374535
 20
-158.8567979203553
 30
0.0
 10
90.8407945193905
 20
-158.8123561885955
 30
0.0
 10
90.62926565659616
 20
-158.998391344799
 30
0.0
 10
90.42428247522378
 20
-159.0218179940987
 30
0.0
 10
90.13420543536575
 20
-159.0514458152719
 30
0.0
 10
90.13420543536575
 20
-159.0514458152719
 30
0.0
 10
90.03085257080826
 20
-158.8716118309418
 30
0.0
 10
90.03085257080826
 20
-158.8716118309418
 30
0.0
 10
90.34814586499978
 20
-158.867133206811
 30
0.0
 10
90.52350122519898
 20
-158.8419840097686
 30
0.0
 10
90.67577444564703
 20
-158.7317409542406
 30
0.0
 10
90.55760767050296
 20
-158.6810980506075
 30
0.0
 10
90.46872420698353
 20
-158.6535372867255
 30
0.0
 10
90.43255070438839
 20
-158.6407904334301
 30
0.0
 10
90.41360267921952
 20
-158.6683511973121
 30
0.0
 10
90.39878876863294
 20
-158.6872992224809
 30
0.0
 10
90.37122800475094
 20
-158.7214056677849
 30
0.0
 10
90.37122800475094
 20
-158.7214056677849
 30
0.0
 10
90.17451305254317
 20
-158.6387233761389
 30
0.0
 10
90.17451305254317
 20
-158.6387233761389
 30
0.0
 10
90.25719534418916
 20
-158.5584526513326
 30
0.0
 10
90.31851804382663
 20
-158.4630235063912
 30
0.0
 10
90.37536211933325
 20
-158.3617376991248
 30
0.0
 10
90.18519284854745
 20
-158.3658718137071
 30
0.0
 10
90.1638332565389
 20
-158.3658718137071
 30
0.0
 10
90.08149547444144
 20
-158.3700059282894
 30
0.0
 10
90.08149547444144
 20
-158.3700059282894
 30
0.0
 10
90.08149547444144
 20
-158.1922390012505
 30
0.0
 10
90.08149547444144
 20
-158.1922390012505
 30
0.0
 10
90.22102184159406
 20
-158.1987846826725
 30
0.0
 10
90.43048364709724
 20
-158.2029187972548
 30
0.0
 10
90.4559773536881
 20
-158.2029187972548
 30
0.0
 10
90.47285832156582
 20
-158.1691568614993
 30
0.0
 10
90.52797984932981
 20
-158.0485785195156
 30
0.0
 10
90.54692787449869
 20
-157.9745089665827
 30
0.0
 10
90.52797984932981
 20
-157.9745089665827
 30
0.0
 10
90.35021292229092
 20
-157.9807101384562
 30
0.0
 10
90.1555650273743
 20
-157.9934569917516
 30
0.0
 10
90.1555650273743
 20
-157.9934569917516
 30
0.0
 10
90.1555650273743
 20
-158.1267821870308
 30
0.0
 10
90.1555650273743
 20
-158.1267821870308
 30
0.0
 10
90.10698918103228
 20
-158.1522758936216
 30
0.0
 10
90.04773353868598
 20
-158.1839707720859
 30
0.0
 10
89.91440834340682
 20
-158.2494275863057
 30
0.0
 10
89.91440834340682
 20
-158.2494275863057
 30
0.0
 10
89.91440834340682
 20
-158.3954996348803
 30
0.0
 10
89.91440834340682
 20
-158.3954996348803
 30
0.0
 10
89.91440834340682
 20
-158.3954996348803
 30
0.0
 10
89.91440834340682
 20
-158.8629990922287
 30
0.0
 10
89.91440834340682
 20
-158.8629990922287
 30
0.0
 10
89.91440834340682
 20
-158.9897786060859
 30
0.0
 10
89.8782348408117
 20
-159.0490342484322
 30
0.0
 10
89.59504799192416
 20
-159.0407660192676
 30
0.0
 10
89.59504799192416
 20
-159.0407660192676
 30
0.0
 10
89.49135061781815
 20
-158.8333712710555
 30
0.0
 10
89.49135061781815
 20
-158.8333712710555
 30
0.0
 10
89.55474037474674
 20
-158.8461181243509
 30
0.0
 10
89.60331622108876
 20
-158.8502522389332
 30
0.0
 10
89.64362383826617
 20
-158.8502522389332
 30
0.0
 10
89.7197604484902
 20
-158.8502522389332
 30
0.0
 10
89.73044024449448
 20
-158.8271700991821
 30
0.0
 10
89.73044024449448
 20
-158.7613687754138
 30
0.0
 10
89.73044024449448
 20
-158.7613687754138
 30
0.0
 10
89.73044024449448
 20
-158.3321098779517
 30
0.0
 10
89.73044024449448
 20
-158.3321098779517
 30
0.0
 10
89.63294404226191
 20
-158.3720729855806
 30
0.0
 10
89.61606307438419
 20
-158.3786186670026
 30
0.0
 10
89.56955428533332
 20
-158.3975666921714
 30
0.0
 10
89.56542017075101
 20
-158.4185817746314
 30
0.0
 10
89.56094154662018
 20
-158.4482095958046
 30
0.0
 10
89.54199352145131
 20
-158.4482095958046
 30
0.0
 10
89.53372529228671
 20
-158.4482095958046
 30
0.0
 10
89.52304549628243
 20
-158.4440754812223
 30
0.0
 10
89.51649981486047
 20
-158.4209933414711
 30
0.0
 10
89.51649981486047
 20
-158.4209933414711
 30
0.0
 10
89.46378985393613
 20
-158.2284125038456
 30
0.0
 10
89.46378985393613
 20
-158.2284125038456
 30
0.0
 10
89.60986190251073
 20
-158.1819037147948
 30
0.0
 10
89.67531871673047
 20
-158.1584770654951
 30
0.0
 10
89.73044024449448
 20
-158.1374619830351
 30
0.0
 10
89.73044024449448
 20
-158.1374619830351
 30
0.0
 10
89.73044024449448
 20
-157.7247395439021
 30
0.0
 10
89.73044024449448
 20
-157.7247395439021
 30
0.0
 10
89.73044024449448
 20
-157.7247395439021
 30
0.0
 10
89.67738577402164
 20
-157.7247395439021
 30
0.0
 10
89.67738577402164
 20
-157.7247395439021
 30
0.0
 10
89.67738577402164
 20
-157.7247395439021
 30
0.0
 10
89.59918210650647
 20
-157.7247395439021
 30
0.0
 10
89.59918210650647
 20
-157.7247395439021
 30
0.0
 10
89.53131372544703
 20
-157.7247395439021
 30
0.0
 10
89.52304549628243
 20
-157.7247395439021
 30
0.0
 10
89.48687199368732
 20
-157.7312852253241
 30
0.0
 10
89.48687199368732
 20
-157.7312852253241
 30
0.0
 10
89.48687199368732
 20
-157.5366373304075
 30
0.0
 10
89.48687199368732
 20
-157.5366373304075
 30
0.0
 10
89.51443275756931
 20
-157.5428385022809
 30
0.0
 10
89.52304549628243
 20
-157.5428385022809
 30
0.0
 10
89.59263642508448
 20
-157.5428385022809
 30
0.0
 10
89.59263642508448
 20
-157.5428385022809
 30
0.0
 10
89.72596162036365
 20
-157.5428385022809
 30
0.0
 10
89.72596162036365
 20
-157.5428385022809
 30
0.0
 10
89.72596162036365
 20
-157.4732475734789
 30
0.0
 10
89.72596162036365
 20
-157.3905652818329
 30
0.0
 10
89.72389456307251
 20
-157.3864311672506
 30
0.0
 10
89.7156263339079
 20
-157.2065971829205
 30
0.0
 10
89.7156263339079
 20
-157.1876491577517
 30
0.0
 10
89.71321476706823
 20
-157.1411403687008
 30
0.0
 10
89.71321476706823
 20
-157.1411403687008
 30
0.0
 10
89.92922225399338
 20
-157.1494085978654
 30
0.0
 10
89.92922225399338
 20
-157.1494085978654
 30
0.0
 10
89.93990204999766
 20
-157.1494085978654
 30
0.0
 10
89.96091713245769
 20
-157.1514756551566
 30
0.0
 10
89.96091713245769
 20
-157.1683566230343
 30
0.0
 10
89.96091713245769
 20
-157.1876491577517
 30
0.0
 10
89.94610322187112
 20
-157.1979844442074
 30
0.0
 10
89.92060951528026
 20
-157.2172769789248
 30
0.0
 10
89.92060951528026
 20
-157.267919882558
 30
0.0
 10
89.91440834340682
 20
-157.4963297132301
 30
0.0
 10
89.91647540069797
 20
-157.5428385022809
 30
0.0
 10
90.04566648139483
 20
-157.5428385022809
 30
0.0
 10
90.05806882514173
 20
-157.5428385022809
 30
0.0
 10
90.1555650273743
 20
-157.5345702731163
 30
0.0
 10
90.1555650273743
 20
-157.5345702731163
 30
0.0
 10
90.1555650273743
 20
-157.729218168033
 30
0.0
 10
90.1555650273743
 20
-157.729218168033
 30
0.0
 10
90.11732446748803
 20
-157.7268066011933
 30
0.0
 10
90.04980059597713
 20
-157.722672486611
 30
0.0
 10
89.91440834340682
 20
-157.7247395439021
 30
0.0
 10
89.91440834340682
 20
-157.7247395439021
 30
0.0
 10
89.91440834340682
 20
-158.0633924301022
 30
0.0
 10
89.91440834340682
 20
-158.0633924301022
 30
0.0
 10
89.96952987117081
 20
-158.0399657808025
 30
0.0
 10
90.03498668539057
 20
-158.0124050169205
 30
0.0
 10
90.08356253173259
 20
-157.9893228771693
 30
0.0
 10
90.08356253173259
 20
-157.9893228771693
 30
0.0
 10
90.08356253173259
 20
-157.8115559501304
 30
0.0
 10
90.08356253173259
 20
-157.8115559501304
 30
0.0
 10
90.19793970184288
 20
-157.8243028034258
 30
0.0
 10
90.31645098653546
 20
-157.8243028034258
 30
0.0
 10
90.43255070438839
 20
-157.8243028034258
 30
0.0
 10
90.40946856463722
 20
-157.729218168033
 30
0.0
 10
90.38190780075522
 20
-157.646535876387
 30
0.0
 10
90.31851804382663
 20
-157.5132106811078
 30
0.0
 10
90.2740763120669
 20
-157.5152777383989
 30
0.0
 10
90.19139402042091
 20
-157.5197563625298
 30
0.0
 10
90.15349797008315
 20
-157.5218234198209
 30
0.0
 10
90.15349797008315
 20
-157.5218234198209
 30
0.0
 10
90.15349797008315
 20
-157.3419894354909
 30
0.0
 10
90.15349797008315
 20
-157.3419894354909
 30
0.0
 10
90.27821042664919
 20
-157.3502576646555
 30
0.0
 10
90.4518432391058
 20
-157.3547362887863
 30
0.0
 10
90.53418102120327
 20
-157.3547362887863
 30
0.0
 10
90.53418102120327
 20
-157.3547362887863
 30
0.0
 10
90.61686331284926
 20
-157.3547362887863
 30
0.0
 10
90.61686331284926
 20
-157.3547362887863
 30
0.0
 10
90.61686331284926
 20
-157.191783272334
 30
0.0
 10
90.61686331284926
 20
-157.1811034763297
 30
0.0
 10
90.6144517460096
 20
-157.1263264581142
 30
0.0
 10
90.6144517460096
 20
-157.1263264581142
 30
0.0
 10
90.83872746209936
 20
-157.1514756551566
 30
0.0
 10
90.83872746209936
 20
-157.1514756551566
 30
0.0
 10
90.84320608623016
 20
-157.1514756551566
 30
0.0
 10
90.8642211686902
 20
-157.1535427124477
 30
0.0
 10
90.8642211686902
 20
-157.1704236803254
 30
0.0
 10
90.8642211686902
 20
-157.185237590912
 30
0.0
 10
90.85354137268593
 20
-157.1938503296251
 30
0.0
 10
90.82598060880393
 20
-157.2086642402117
 30
0.0
 10
90.81977943693047
 20
-157.2741210544315
 30
0.0
 10
90.81771237963932
 20
-157.29548064644
 30
0.0
 10
90.81771237963932
 20
-157.3547362887863
 30
0.0
 10
90.81771237963932
 20
-157.3547362887863
 30
0.0
 10
90.91279701503223
 20
-157.3547362887863
 30
0.0
 10
90.91279701503223
 20
-157.3547362887863
 30
0.0
 10
90.99547930667823
 20
-157.3547362887863
 30
0.0
 10
91.16876760958628
 20
-157.3502576646555
 30
0.0
 10
91.29382457570086
 20
-157.3419894354909
 30
0.0
 10
91.29382457570086
 20
-157.3419894354909
 30
0.0
 10
91.29382457570086
 20
-157.5218234198209
 30
0.0
 10
91.29382457570086
 20
-157.5218234198209
 30
0.0
 10
91.26419675452771
 20
-157.5197563625298
 30
0.0
 10
91.14568546983511
 20
-157.5152777383989
 30
0.0
 10
91.10537785265767
 20
-157.5132106811078
 30
0.0
 10
91.09056394207112
 20
-157.5641980942895
 30
0.0
 10
91.05680200631566
 20
-157.6761636975601
 30
0.0
 10
90.9910006825474
 20
-157.8156900647127
 30
0.0
 10
91.03337535701596
 20
-157.8156900647127
 30
0.0
 10
91.31070554357858
 20
-157.7967420395439
 30
0.0
 10
91.37202824321603
 20
-157.7946749822527
 30
0.0
 10
91.37202824321603
 20
-157.7946749822527
 30
0.0
 10
91.37202824321603
 20
-157.978643081165
 30
0.0
 10
91.37202824321603
 20
-157.978643081165
 30
0.0
 10
91.34240042204288
 20
-157.978643081165
 30
0.0
 10
91.32551945416514
 20
-157.9745089665827
 30
0.0
 10
91.16256643771285
 20
-157.9745089665827
 30
0.0
  0
HATCH
  5
D5
330
CE
100
AcDbEntity
  8
レイヤー 1
 62
    18
420
        0
440
 33554687
100
AcDbHatch
 10
0.0
 20
0.0
 30
0.0
210
0.0
220
0.0
230
1.0
  2
SOLID
 70
     1
 71
     1
 91
        3
 92
        1
 93
        1
 72
     4
 94
        3
 73
     0
 74
     0
 95
       17
 96
       13
 40
0.0
 40
0.0
 40
0.0
 40
0.0
 40
1.0
 40
1.0
 40
1.0
 40
2.0
 40
2.0
 40
2.0
 40
3.0
 40
3.0
 40
3.0
 40
4.0
 40
4.0
 40
4.0
 40
4.0
 10
90.59757077813186
 20
-158.3596706418337
 10
90.58068981025414
 20
-158.3889539534583
 10
90.53004690662097
 20
-158.4823160411086
 10
90.51936711061669
 20
-158.5012640662774
 10
90.709880890951
 20
-158.5605197086237
 10
90.73089597341102
 20
-158.5667208804972
 10
90.80289846905275
 20
-158.5942816443792
 10
90.85801999681676
 20
-158.5074652381509
 10
90.88110213656792
 20
-158.433395685218
 10
90.89591604715449
 20
-158.3596706418337
 10
90.89591604715449
 20
-158.3596706418337
 10
90.59757077813186
 20
-158.3596706418337
 10
90.59757077813186
 20
-158.3596706418337
 97
        0
 97
        1
330
D2
 92
        1
 93
        1
 72
     4
 94
        3
 73
     0
 74
     0
 95
       20
 96
       16
 40
0.0
 40
0.0
 40
0.0
 40
0.0
 40
1.0
 40
1.0
 40
1.0
 40
2.0
 40
2.0
 40
2.0
 40
3.0
 40
3.0
 40
3.0
 40
4.0
 40
4.0
 40
4.0
 40
5.0
 40
5.0
 40
5.0
 40
5.0
 10
90.53418102120327
 20
-157.5090765665255
 10
90.53418102120327
 20
-157.5090765665255
 10
90.50248614273895
 20
-157.5090765665255
 10
90.50248614273895
 20
-157.5090765665255
 10
90.54899493178984
 20
-157.6086398260492
 10
90.58068981025414
 20
-157.6889105508555
 10
90.6144517460096
 20
-157.8156900647127
 10
90.6144517460096
 20
-157.8156900647127
 10
90.82184649422163
 20
-157.8156900647127
 10
90.82184649422163
 20
-157.8156900647127
 10
90.85354137268593
 20
-157.722672486611
 10
90.87696802198562
 20
-157.6382676472224
 10
90.9000501617368
 20
-157.5090765665255
 10
90.9000501617368
 20
-157.5090765665255
 10
90.53418102120327
 20
-157.5090765665255
 10
90.53418102120327
 20
-157.5090765665255
 97
        0
 97
        1
330
D3
 92
        1
 93
        1
 72
     4
 94
        3
 73
     0
 74
     0
 95
      242
 96
      238
 40
0.0
 40
0.0
 40
0.0
 40
0.0
 40
1.0
 40
1.0
 40
1.0
 40
2.0
 40
2.0
 40
2.0
 40
3.0
 40
3.0
 40
3.0
 40
4.0
 40
4.0
 40
4.0
 40
5.0
 40
5.0
 40
5.0
 40
6.0
 40
6.0
 40
6.0
 40
7.0
 40
7.0
 40
7.0
 40
8.0
 40
8.0
 40
8.0
 40
9.0
 40
9.0
 40
9.0
 40
10.0
 40
10.0
 40
10.0
 40
11.0
 40
11.0
 40
11.0
 40
12.0
 40
12.0
 40
12.0
 40
13.0
 40
13.0
 40
13.0
 40
14.0
 40
14.0
 40
14.0
 40
15.0
 40
15.0
 40
15.0
 40
16.0
 40
16.0
 40
16.0
 40
17.0
 40
17.0
 40
17.0
 40
18.0
 40
18.0
 40
18.0
 40
19.0
 40
19.0
 40
19.0
 40
20.0
 40
20.0
 40
20.0
 40
21.0
 40
21.0
 40
21.0
 40
22.0
 40
22.0
 40
22.0
 40
23.0
 40
23.0
 40
23.0
 40
24.0
 40
24.0
 40
24.0
 40
25.0
 40
25.0
 40
25.0
 40
26.0
 40
26.0
 40
26.0
 40
27.0
 40
27.0
 40
27.0
 40
28.0
 40
28.0
 40
28.0
 40
29.0
 40
29.0
 40
29.0
 40
30.0
 40
30.0
 40
30.0
 40
31.0
 40
31.0
 40
31.0
 40
32.0
 40
32.0
 40
32.0
 40
33.0
 40
33.0
 40
33.0
 40
34.0
 40
34.0
 40
34.0
 40
35.0
 40
35.0
 40
35.0
 40
36.0
 40
36.0
 40
36.0
 40
37.0
 40
37.0
 40
37.0
 40
38.0
 40
38.0
 40
38.0
 40
39.0
 40
39.0
 40
39.0
 40
40.0
 40
40.0
 40
40.0
 40
41.0
 40
41.0
 40
41.0
 40
42.0
 40
42.0
 40
42.0
 40
43.0
 40
43.0
 40
43.0
 40
44.0
 40
44.0
 40
44.0
 40
45.0
 40
45.0
 40
45.0
 40
46.0
 40
46.0
 40
46.0
 40
47.0
 40
47.0
 40
47.0
 40
48.0
 40
48.0
 40
48.0
 40
49.0
 40
49.0
 40
49.0
 40
50.0
 40
50.0
 40
50.0
 40
51.0
 40
51.0
 40
51.0
 40
52.0
 40
52.0
 40
52.0
 40
53.0
 40
53.0
 40
53.0
 40
54.0
 40
54.0
 40
54.0
 40
55.0
 40
55.0
 40
55.0
 40
56.0
 40
56.0
 40
56.0
 40
57.0
 40
57.0
 40
57.0
 40
58.0
 40
58.0
 40
58.0
 40
59.0
 40
59.0
 40
59.0
 40
60.0
 40
60.0
 40
60.0
 40
61.0
 40
61.0
 40
61.0
 40
62.0
 40
62.0
 40
62.0
 40
63.0
 40
63.0
 40
63.0
 40
64.0
 40
64.0
 40
64.0
 40
65.0
 40
65.0
 40
65.0
 40
66.0
 40
66.0
 40
66.0
 40
67.0
 40
67.0
 40
67.0
 40
68.0
 40
68.0
 40
68.0
 40
69.0
 40
69.0
 40
69.0
 40
70.0
 40
70.0
 40
70.0
 40
71.0
 40
71.0
 40
71.0
 40
72.0
 40
72.0
 40
72.0
 40
73.0
 40
73.0
 40
73.0
 40
74.0
 40
74.0
 40
74.0
 40
75.0
 40
75.0
 40
75.0
 40
76.0
 40
76.0
 40
76.0
 40
77.0
 40
77.0
 40
77.0
 40
78.0
 40
78.0
 40
78.0
 40
79.0
 40
79.0
 40
79.0
 40
79.0
 10
91.16256643771285
 20
-157.9745089665827
 10
91.16256643771285
 20
-157.9745089665827
 10
90.90866290044992
 20
-157.9745089665827
 10
90.90866290044992
 20
-157.9745089665827
 10
90.90866290044992
 20
-157.9745089665827
 10
90.63167722343584
 20
-157.9745089665827
 10
90.63167722343584
 20
-157.9745089665827
 10
90.63167722343584
 20
-157.9745089665827
 10
90.75845673729302
 20
-158.0168836410513
 10
90.75845673729302
 20
-158.0168836410513
 10
90.7691365332973
 20
-158.0210177556336
 10
90.78188338659272
 20
-158.0272189275071
 10
90.78188338659272
 20
-158.0399657808025
 10
90.78188338659272
 20
-158.0613253728111
 10
90.7498439985799
 20
-158.0675265446845
 10
90.72882891611987
 20
-158.0716606592668
 10
90.71814912011561
 20
-158.0950873085665
 10
90.68852129894246
 20
-158.1605441227862
 10
90.66957327377357
 20
-158.204985854546
 10
90.66957327377357
 20
-158.204985854546
 10
90.94035777891422
 20
-158.204985854546
 10
90.94035777891422
 20
-158.204985854546
 10
91.03130829972482
 20
-158.204985854546
 10
91.22802325193259
 20
-158.2008517399637
 10
91.36996118592488
 20
-158.1922390012505
 10
91.36996118592488
 20
-158.1922390012505
 10
91.36996118592488
 20
-158.3700059282894
 10
91.36996118592488
 20
-158.3700059282894
 10
91.28727889427889
 20
-158.3658718137071
 10
91.26626381181885
 20
-158.3658718137071
 10
91.08642982748881
 20
-158.3617376991248
 10
91.05473494902453
 20
-158.516077976864
 10
91.01029321726478
 20
-158.5963487016703
 10
90.96585148550508
 20
-158.6662841400209
 10
91.08642982748881
 20
-158.7255397823672
 10
91.19219425888598
 20
-158.7930636538781
 10
91.29589163299201
 20
-158.8757459455241
 10
91.29589163299201
 20
-158.8757459455241
 10
91.1773803482994
 20
-159.0428330765587
 10
91.1773803482994
 20
-159.0428330765587
 10
91.15395369899971
 20
-159.0238850513898
 10
91.14120684570428
 20
-159.0152723126767
 10
91.02924124243367
 20
-158.9305229637396
 10
90.98066539609163
 20
-158.8926269134018
 10
90.92140975374535
 20
-158.8567979203553
 10
90.8407945193905
 20
-158.8123561885955
 10
90.62926565659616
 20
-158.998391344799
 10
90.42428247522378
 20
-159.0218179940987
 10
90.13420543536575
 20
-159.0514458152719
 10
90.13420543536575
 20
-159.0514458152719
 10
90.03085257080826
 20
-158.8716118309418
 10
90.03085257080826
 20
-158.8716118309418
 10
90.34814586499978
 20
-158.867133206811
 10
90.52350122519898
 20
-158.8419840097686
 10
90.67577444564703
 20
-158.7317409542406
 10
90.55760767050296
 20
-158.6810980506075
 10
90.46872420698353
 20
-158.6535372867255
 10
90.43255070438839
 20
-158.6407904334301
 10
90.41360267921952
 20
-158.6683511973121
 10
90.39878876863294
 20
-158.6872992224809
 10
90.37122800475094
 20
-158.7214056677849
 10
90.37122800475094
 20
-158.7214056677849
 10
90.17451305254317
 20
-158.6387233761389
 10
90.17451305254317
 20
-158.6387233761389
 10
90.25719534418916
 20
-158.5584526513326
 10
90.31851804382663
 20
-158.4630235063912
 10
90.37536211933325
 20
-158.3617376991248
 10
90.18519284854745
 20
-158.3658718137071
 10
90.1638332565389
 20
-158.3658718137071
 10
90.08149547444144
 20
-158.3700059282894
 10
90.08149547444144
 20
-158.3700059282894
 10
90.08149547444144
 20
-158.1922390012505
 10
90.08149547444144
 20
-158.1922390012505
 10
90.22102184159406
 20
-158.1987846826725
 10
90.43048364709724
 20
-158.2029187972548
 10
90.4559773536881
 20
-158.2029187972548
 10
90.47285832156582
 20
-158.1691568614993
 10
90.52797984932981
 20
-158.0485785195156
 10
90.54692787449869
 20
-157.9745089665827
 10
90.52797984932981
 20
-157.9745089665827
 10
90.35021292229092
 20
-157.9807101384562
 10
90.1555650273743
 20
-157.9934569917516
 10
90.1555650273743
 20
-157.9934569917516
 10
90.1555650273743
 20
-158.1267821870308
 10
90.1555650273743
 20
-158.1267821870308
 10
90.10698918103228
 20
-158.1522758936216
 10
90.04773353868598
 20
-158.1839707720859
 10
89.91440834340682
 20
-158.2494275863057
 10
89.91440834340682
 20
-158.2494275863057
 10
89.91440834340682
 20
-158.3954996348803
 10
89.91440834340682
 20
-158.3954996348803
 10
89.91440834340682
 20
-158.3954996348803
 10
89.91440834340682
 20
-158.8629990922287
 10
89.91440834340682
 20
-158.8629990922287
 10
89.91440834340682
 20
-158.9897786060859
 10
89.8782348408117
 20
-159.0490342484322
 10
89.59504799192416
 20
-159.0407660192676
 10
89.59504799192416
 20
-159.0407660192676
 10
89.49135061781815
 20
-158.8333712710555
 10
89.49135061781815
 20
-158.8333712710555
 10
89.55474037474674
 20
-158.8461181243509
 10
89.60331622108876
 20
-158.8502522389332
 10
89.64362383826617
 20
-158.8502522389332
 10
89.7197604484902
 20
-158.8502522389332
 10
89.73044024449448
 20
-158.8271700991821
 10
89.73044024449448
 20
-158.7613687754138
 10
89.73044024449448
 20
-158.7613687754138
 10
89.73044024449448
 20
-158.3321098779517
 10
89.73044024449448
 20
-158.3321098779517
 10
89.63294404226191
 20
-158.3720729855806
 10
89.61606307438419
 20
-158.3786186670026
 10
89.56955428533332
 20
-158.3975666921714
 10
89.56542017075101
 20
-158.4185817746314
 10
89.56094154662018
 20
-158.4482095958046
 10
89.54199352145131
 20
-158.4482095958046
 10
89.53372529228671
 20
-158.4482095958046
 10
89.52304549628243
 20
-158.4440754812223
 10
89.51649981486047
 20
-158.4209933414711
 10
89.51649981486047
 20
-158.4209933414711
 10
89.46378985393613
 20
-158.2284125038456
 10
89.46378985393613
 20
-158.2284125038456
 10
89.60986190251073
 20
-158.1819037147948
 10
89.67531871673047
 20
-158.1584770654951
 10
89.73044024449448
 20
-158.1374619830351
 10
89.73044024449448
 20
-158.1374619830351
 10
89.73044024449448
 20
-157.7247395439021
 10
89.73044024449448
 20
-157.7247395439021
 10
89.73044024449448
 20
-157.7247395439021
 10
89.67738577402164
 20
-157.7247395439021
 10
89.67738577402164
 20
-157.7247395439021
 10
89.67738577402164
 20
-157.7247395439021
 10
89.59918210650647
 20
-157.7247395439021
 10
89.59918210650647
 20
-157.7247395439021
 10
89.53131372544703
 20
-157.7247395439021
 10
89.52304549628243
 20
-157.7247395439021
 10
89.48687199368732
 20
-157.7312852253241
 10
89.48687199368732
 20
-157.7312852253241
 10
89.48687199368732
 20
-157.5366373304075
 10
89.48687199368732
 20
-157.5366373304075
 10
89.51443275756931
 20
-157.5428385022809
 10
89.52304549628243
 20
-157.5428385022809
 10
89.59263642508448
 20
-157.5428385022809
 10
89.59263642508448
 20
-157.5428385022809
 10
89.72596162036365
 20
-157.5428385022809
 10
89.72596162036365
 20
-157.5428385022809
 10
89.72596162036365
 20
-157.4732475734789
 10
89.72596162036365
 20
-157.3905652818329
 10
89.72389456307251
 20
-157.3864311672506
 10
89.7156263339079
 20
-157.2065971829205
 10
89.7156263339079
 20
-157.1876491577517
 10
89.71321476706823
 20
-157.1411403687008
 10
89.71321476706823
 20
-157.1411403687008
 10
89.92922225399338
 20
-157.1494085978654
 10
89.92922225399338
 20
-157.1494085978654
 10
89.93990204999766
 20
-157.1494085978654
 10
89.96091713245769
 20
-157.1514756551566
 10
89.96091713245769
 20
-157.1683566230343
 10
89.96091713245769
 20
-157.1876491577517
 10
89.94610322187112
 20
-157.1979844442074
 10
89.92060951528026
 20
-157.2172769789248
 10
89.92060951528026
 20
-157.267919882558
 10
89.91440834340682
 20
-157.4963297132301
 10
89.91647540069797
 20
-157.5428385022809
 10
90.04566648139483
 20
-157.5428385022809
 10
90.05806882514173
 20
-157.5428385022809
 10
90.1555650273743
 20
-157.5345702731163
 10
90.1555650273743
 20
-157.5345702731163
 10
90.1555650273743
 20
-157.729218168033
 10
90.1555650273743
 20
-157.729218168033
 10
90.11732446748803
 20
-157.7268066011933
 10
90.04980059597713
 20
-157.722672486611
 10
89.91440834340682
 20
-157.7247395439021
 10
89.91440834340682
 20
-157.7247395439021
 10
89.91440834340682
 20
-158.0633924301022
 10
89.91440834340682
 20
-158.0633924301022
 10
89.96952987117081
 20
-158.0399657808025
 10
90.03498668539057
 20
-158.0124050169205
 10
90.08356253173259
 20
-157.9893228771693
 10
90.08356253173259
 20
-157.9893228771693
 10
90.08356253173259
 20
-157.8115559501304
 10
90.08356253173259
 20
-157.8115559501304
 10
90.19793970184288
 20
-157.8243028034258
 10
90.31645098653546
 20
-157.8243028034258
 10
90.43255070438839
 20
-157.8243028034258
 10
90.40946856463722
 20
-157.729218168033
 10
90.38190780075522
 20
-157.646535876387
 10
90.31851804382663
 20
-157.5132106811078
 10
90.2740763120669
 20
-157.5152777383989
 10
90.19139402042091
 20
-157.5197563625298
 10
90.15349797008315
 20
-157.5218234198209
 10
90.15349797008315
 20
-157.5218234198209
 10
90.15349797008315
 20
-157.3419894354909
 10
90.15349797008315
 20
-157.3419894354909
 10
90.27821042664919
 20
-157.3502576646555
 10
90.4518432391058
 20
-157.3547362887863
 10
90.53418102120327
 20
-157.3547362887863
 10
90.53418102120327
 20
-157.3547362887863
 10
90.61686331284926
 20
-157.3547362887863
 10
90.61686331284926
 20
-157.3547362887863
 10
90.61686331284926
 20
-157.191783272334
 10
90.61686331284926
 20
-157.1811034763297
 10
90.6144517460096
 20
-157.1263264581142
 10
90.6144517460096
 20
-157.1263264581142
 10
90.83872746209936
 20
-157.1514756551566
 10
90.83872746209936
 20
-157.1514756551566
 10
90.84320608623016
 20
-157.1514756551566
 10
90.8642211686902
 20
-157.1535427124477
 10
90.8642211686902
 20
-157.1704236803254
 10
90.8642211686902
 20
-157.185237590912
 10
90.85354137268593
 20
-157.1938503296251
 10
90.82598060880393
 20
-157.2086642402117
 10
90.81977943693047
 20
-157.2741210544315
 10
90.81771237963932
 20
-157.29548064644
 10
90.81771237963932
 20
-157.3547362887863
 10
90.81771237963932
 20
-157.3547362887863
 10
90.91279701503223
 20
-157.3547362887863
 10
90.91279701503223
 20
-157.3547362887863
 10
90.99547930667823
 20
-157.3547362887863
 10
91.16876760958628
 20
-157.3502576646555
 10
91.29382457570086
 20
-157.3419894354909
 10
91.29382457570086
 20
-157.3419894354909
 10
91.29382457570086
 20
-157.5218234198209
 10
91.29382457570086
 20
-157.5218234198209
 10
91.26419675452771
 20
-157.5197563625298
 10
91.14568546983511
 20
-157.5152777383989
 10
91.10537785265767
 20
-157.5132106811078
 10
91.09056394207112
 20
-157.5641980942895
 10
91.05680200631566
 20
-157.6761636975601
 10
90.9910006825474
 20
-157.8156900647127
 10
91.03337535701596
 20
-157.8156900647127
 10
91.31070554357858
 20
-157.7967420395439
 10
91.37202824321603
 20
-157.7946749822527
 10
91.37202824321603
 20
-157.7946749822527
 10
91.37202824321603
 20
-157.978643081165
 10
91.37202824321603
 20
-157.978643081165
 10
91.34240042204288
 20
-157.978643081165
 10
91.32551945416514
 20
-157.9745089665827
 10
91.16256643771285
 20
-157.9745089665827
 97
        0
 97
        1
330
D4
 75
     2
 76
     1
 98
        1
 10
0.0
 20
0.0
450
        0
451
        0
460
0.0
461
0.0
452
        0
462
0.0
453
        0
470

  0
SPLINE
  5
D6
330
CE
100
AcDbEntity
  8
レイヤー 1
100
AcDbSpline
210
0.0
220
0.0
230
1.0
 70
    11
 71
     3
 72
    17
 73
    13
 74
     0
 42
0.0000000001
 43
0.0000000001
 40
0.0
 40
0.0
 40
0.0
 40
0.0
 40
1.0
 40
1.0
 40
1.0
 40
2.0
 40
2.0
 40
2.0
 40
3.0
 40
3.0
 40
3.0
 40
4.0
 40
4.0
 40
4.0
 40
4.0
 10
93.01912839471397
 20
-158.7741156287092
 30
0.0
 10
93.01912839471397
 20
-158.7741156287092
 30
0.0
 10
92.31253931068923
 20
-158.7741156287092
 30
0.0
 10
92.31253931068923
 20
-158.7741156287092
 30
0.0
 10
92.31253931068923
 20
-158.7741156287092
 30
0.0
 10
92.31253931068923
 20
-158.8884927988195
 30
0.0
 10
92.31253931068923
 20
-158.8884927988195
 30
0.0
 10
92.31253931068923
 20
-158.8884927988195
 30
0.0
 10
93.01912839471397
 20
-158.8884927988195
 30
0.0
 10
93.01912839471397
 20
-158.8884927988195
 30
0.0
 10
93.01912839471397
 20
-158.8884927988195
 30
0.0
 10
93.01912839471397
 20
-158.7741156287092
 30
0.0
 10
93.01912839471397
 20
-158.7741156287092
 30
0.0
  0
SPLINE
  5
D7
330
CE
100
AcDbEntity
  8
レイヤー 1
100
AcDbSpline
210
0.0
220
0.0
230
1.0
 70
    11
 71
     3
 72
    17
 73
    13
 74
     0
 42
0.0000000001
 43
0.0000000001
 40
0.0
 40
0.0
 40
0.0
 40
0.0
 40
1.0
 40
1.0
 40
1.0
 40
2.0
 40
2.0
 40
2.0
 40
3.0
 40
3.0
 40
3.0
 40
4.0
 40
4.0
 40
4.0
 40
4.0
 10
93.01912839471397
 20
-158.5308918874506
 30
0.0
 10
93.01912839471397
 20
-158.5308918874506
 30
0.0
 10
92.31253931068923
 20
-158.5308918874506
 30
0.0
 10
92.31253931068923
 20
-158.5308918874506
 30
0.0
 10
92.31253931068923
 20
-158.5308918874506
 30
0.0
 10
92.31253931068923
 20
-158.6452690575609
 30
0.0
 10
92.31253931068923
 20
-158.6452690575609
 30
0.0
 10
92.31253931068923
 20
-158.6452690575609
 30
0.0
 10
93.01912839471397
 20
-158.6452690575609
 30
0.0
 10
93.01912839471397
 20
-158.6452690575609
 30
0.0
 10
93.01912839471397
 20
-158.6452690575609
 30
0.0
 10
93.01912839471397
 20
-158.5308918874506
 30
0.0
 10
93.01912839471397
 20
-158.5308918874506
 30
0.0
  0
SPLINE
  5
D8
330
CE
100
AcDbEntity
  8
レイヤー 1
100
AcDbSpline
210
0.0
220
0.0
230
1.0
 70
    11
 71
     3
 72
    17
 73
    13
 74
     0
 42
0.0000000001
 43
0.0000000001
 40
0.0
 40
0.0
 40
0.0
 40
0.0
 40
1.0
 40
1.0
 40
1.0
 40
2.0
 40
2.0
 40
2.0
 40
3.0
 40
3.0
 40
3.0
 40
4.0
 40
4.0
 40
4.0
 40
4.0
 10
93.01912839471397
 20
-158.2980034326477
 30
0.0
 10
93.01912839471397
 20
-158.2980034326477
 30
0.0
 10
92.31253931068923
 20
-158.2980034326477
 30
0.0
 10
92.31253931068923
 20
-158.2980034326477
 30
0.0
 10
92.31253931068923
 20
-158.2980034326477
 30
0.0
 10
92.31253931068923
 20
-158.4061794308845
 30
0.0
 10
92.31253931068923
 20
-158.4061794308845
 30
0.0
 10
92.31253931068923
 20
-158.4061794308845
 30
0.0
 10
93.01912839471397
 20
-158.4061794308845
 30
0.0
 10
93.01912839471397
 20
-158.4061794308845
 30
0.0
 10
93.01912839471397
 20
-158.4061794308845
 30
0.0
 10
93.01912839471397
 20
-158.2980034326477
 30
0.0
 10
93.01912839471397
 20
-158.2980034326477
 30
0.0
  0
SPLINE
  5
D9
330
CE
100
AcDbEntity
  8
レイヤー 1
100
AcDbSpline
210
0.0
220
0.0
230
1.0
 70
     9
 71
     3
 72
   203
 73
   199
 74
     0
 42
0.0000000001
 43
0.0000000001
 40
0.0
 40
0.0
 40
0.0
 40
0.0
 40
1.0
 40
1.0
 40
1.0
 40
2.0
 40
2.0
 40
2.0
 40
3.0
 40
3.0
 40
3.0
 40
4.0
 40
4.0
 40
4.0
 40
5.0
 40
5.0
 40
5.0
 40
6.0
 40
6.0
 40
6.0
 40
7.0
 40
7.0
 40
7.0
 40
8.0
 40
8.0
 40
8.0
 40
9.0
 40
9.0
 40
9.0
 40
10.0
 40
10.0
 40
10.0
 40
11.0
 40
11.0
 40
11.0
 40
12.0
 40
12.0
 40
12.0
 40
13.0
 40
13.0
 40
13.0
 40
14.0
 40
14.0
 40
14.0
 40
15.0
 40
15.0
 40
15.0
 40
16.0
 40
16.0
 40
16.0
 40
17.0
 40
17.0
 40
17.0
 40
18.0
 40
18.0
 40
18.0
 40
19.0
 40
19.0
 40
19.0
 40
20.0
 40
20.0
 40
20.0
 40
21.0
 40
21.0
 40
21.0
 40
22.0
 40
22.0
 40
22.0
 40
23.0
 40
23.0
 40
23.0
 40
24.0
 40
24.0
 40
24.0
 40
25.0
 40
25.0
 40
25.0
 40
26.0
 40
26.0
 40
26.0
 40
27.0
 40
27.0
 40
27.0
 40
28.0
 40
28.0
 40
28.0
 40
29.0
 40
29.0
 40
29.0
 40
30.0
 40
30.0
 40
30.0
 40
31.0
 40
31.0
 40
31.0
 40
32.0
 40
32.0
 40
32.0
 40
33.0
 40
33.0
 40
33.0
 40
34.0
 40
34.0
 40
34.0
 40
35.0
 40
35.0
 40
35.0
 40
36.0
 40
36.0
 40
36.0
 40
37.0
 40
37.0
 40
37.0
 40
38.0
 40
38.0
 40
38.0
 40
39.0
 40
39.0
 40
39.0
 40
40.0
 40
40.0
 40
40.0
 40
41.0
 40
41.0
 40
41.0
 40
42.0
 40
42.0
 40
42.0
 40
43.0
 40
43.0
 40
43.0
 40
44.0
 40
44.0
 40
44.0
 40
45.0
 40
45.0
 40
45.0
 40
46.0
 40
46.0
 40
46.0
 40
47.0
 40
47.0
 40
47.0
 40
48.0
 40
48.0
 40
48.0
 40
49.0
 40
49.0
 40
49.0
 40
50.0
 40
50.0
 40
50.0
 40
51.0
 40
51.0
 40
51.0
 40
52.0
 40
52.0
 40
52.0
 40
53.0
 40
53.0
 40
53.0
 40
54.0
 40
54.0
 40
54.0
 40
55.0
 40
55.0
 40
55.0
 40
56.0
 40
56.0
 40
56.0
 40
57.0
 40
57.0
 40
57.0
 40
58.0
 40
58.0
 40
58.0
 40
59.0
 40
59.0
 40
59.0
 40
60.0
 40
60.0
 40
60.0
 40
61.0
 40
61.0
 40
61.0
 40
62.0
 40
62.0
 40
62.0
 40
63.0
 40
63.0
 40
63.0
 40
64.0
 40
64.0
 40
64.0
 40
65.0
 40
65.0
 40
65.0
 40
66.0
 40
66.0
 40
66.0
 40
66.0
 10
92.85410832097051
 20
-158.0420328380936
 30
0.0
 10
92.85410832097051
 20
-158.0420328380936
 30
0.0
 10
92.29531383326298
 20
-158.0420328380936
 30
0.0
 10
92.29531383326298
 20
-158.0420328380936
 30
0.0
 10
92.28497854680723
 20
-158.0864745698534
 30
0.0
 10
92.27636580809411
 20
-158.1181694483177
 30
0.0
 10
92.26361895479868
 20
-158.1564100082039
 30
0.0
 10
92.28911266138954
 20
-158.1564100082039
 30
0.0
 10
92.3039265719761
 20
-158.1584770654951
 30
0.0
 10
92.31012774384955
 20
-158.1584770654951
 30
0.0
 10
92.31012774384955
 20
-158.1584770654951
 30
0.0
 10
92.49857446689272
 20
-158.1584770654951
 30
0.0
 10
92.49857446689272
 20
-158.1584770654951
 30
0.0
 10
92.49857446689272
 20
-158.1584770654951
 30
0.0
 10
92.87305634613938
 20
-158.1584770654951
 30
0.0
 10
92.87305634613938
 20
-158.1584770654951
 30
0.0
 10
92.92369924977256
 20
-158.1584770654951
 30
0.0
 10
93.20723060820862
 20
-158.1457302121997
 30
0.0
 10
93.23892548667291
 20
-158.1457302121997
 30
0.0
 10
93.23685842938175
 20
-158.1732909760817
 30
0.0
 10
93.2347913720906
 20
-158.1922390012505
 30
0.0
 10
93.2347913720906
 20
-158.2218668224237
 30
0.0
 10
93.23272431479946
 20
-158.253561700888
 30
0.0
 10
93.23272431479946
 20
-158.3889539534583
 30
0.0
 10
93.23272431479946
 20
-158.4165147173403
 30
0.0
 10
93.23272431479946
 20
-158.4165147173403
 30
0.0
 10
93.23272431479946
 20
-158.6621500254386
 30
0.0
 10
93.23272431479946
 20
-158.6621500254386
 30
0.0
 10
93.23272431479946
 20
-158.7065917571983
 30
0.0
 10
93.23685842938175
 20
-158.9033067094061
 30
0.0
 10
93.24099254396406
 20
-159.0555799298542
 30
0.0
 10
93.24099254396406
 20
-159.0555799298542
 30
0.0
 10
93.01464977058314
 20
-159.0555799298542
 30
0.0
 10
93.01464977058314
 20
-159.0555799298542
 30
0.0
 10
93.01464977058314
 20
-159.0555799298542
 30
0.0
 10
93.01671682787429
 20
-159.0218179940987
 30
0.0
 10
93.01671682787429
 20
-159.0218179940987
 30
0.0
 10
93.01671682787429
 20
-159.0218179940987
 30
0.0
 10
92.31460636798038
 20
-159.0218179940987
 30
0.0
 10
92.31460636798038
 20
-159.0218179940987
 30
0.0
 10
92.31460636798038
 20
-159.0218179940987
 30
0.0
 10
92.31667342527153
 20
-159.0555799298542
 30
0.0
 10
92.31667342527153
 20
-159.0555799298542
 30
0.0
 10
92.31667342527153
 20
-159.0555799298542
 30
0.0
 10
92.09859888105521
 20
-159.0555799298542
 30
0.0
 10
92.09859888105521
 20
-159.0555799298542
 30
0.0
 10
92.10307750518603
 20
-159.0004584020902
 30
0.0
 10
92.10307750518603
 20
-158.9877115487947
 30
0.0
 10
92.10927867705949
 20
-158.873678888233
 30
0.0
 10
92.11134573435064
 20
-158.8461181243509
 30
0.0
 10
92.11341279164178
 20
-158.7127929290718
 30
0.0
 10
92.11341279164178
 20
-158.6938449039029
 30
0.0
 10
92.11341279164178
 20
-158.6938449039029
 30
0.0
 10
92.11341279164178
 20
-158.4905842702732
 30
0.0
 10
92.11341279164178
 20
-158.4905842702732
 30
0.0
 10
91.97388642448917
 20
-158.7403536929538
 30
0.0
 10
91.8047322361634
 20
-158.8716118309418
 30
0.0
 10
91.69896780476625
 20
-158.9370686451615
 30
0.0
 10
91.69896780476625
 20
-158.9370686451615
 30
0.0
 10
91.52533499230964
 20
-158.797542278009
 30
0.0
 10
91.52533499230964
 20
-158.797542278009
 30
0.0
 10
91.61421845582909
 20
-158.7465548648272
 30
0.0
 10
91.75822344711253
 20
-158.6597384585989
 30
0.0
 10
91.895682756974
 20
-158.4654350732308
 30
0.0
 10
91.9866332777846
 20
-158.3383110498251
 30
0.0
 10
92.05209009200435
 20
-158.1946505680902
 30
0.0
 10
92.08619653730831
 20
-158.0420328380936
 30
0.0
 10
91.85744219708771
 20
-158.0444444049333
 30
0.0
 10
91.67760821275768
 20
-158.0506455768068
 30
0.0
 10
91.58252357736479
 20
-158.0527126340979
 30
0.0
 10
91.58252357736479
 20
-158.0527126340979
 30
0.0
 10
91.58252357736479
 20
-157.874945707059
 30
0.0
 10
91.58252357736479
 20
-157.874945707059
 30
0.0
 10
91.77923852957254
 20
-157.881491388481
 30
0.0
 10
92.06276988800862
 20
-157.8856255030633
 30
0.0
 10
92.21297605116552
 20
-157.8856255030633
 30
0.0
 10
92.21297605116552
 20
-157.8856255030633
 30
0.0
 10
92.42657197125099
 20
-157.8856255030633
 30
0.0
 10
92.42657197125099
 20
-157.8856255030633
 30
0.0
 10
92.42657197125099
 20
-157.8856255030633
 30
0.0
 10
92.42657197125099
 20
-157.777794014375
 30
0.0
 10
92.42657197125099
 20
-157.777794014375
 30
0.0
 10
92.42657197125099
 20
-157.777794014375
 30
0.0
 10
92.2804999226764
 20
-157.777794014375
 30
0.0
 10
92.2804999226764
 20
-157.777794014375
 30
0.0
 10
92.11134573435064
 20
-157.777794014375
 30
0.0
 10
91.94219154602487
 20
-157.7819281289573
 30
0.0
 10
91.77510441499025
 20
-157.7884738103793
 30
0.0
 10
91.77510441499025
 20
-157.7884738103793
 30
0.0
 10
91.77510441499025
 20
-157.6169080552138
 30
0.0
 10
91.77510441499025
 20
-157.6169080552138
 30
0.0
 10
91.92944469272944
 20
-157.6275878512181
 30
0.0
 10
92.11547984893293
 20
-157.6275878512181
 30
0.0
 10
92.2804999226764
 20
-157.6275878512181
 30
0.0
 10
92.2804999226764
 20
-157.6275878512181
 30
0.0
 10
92.42657197125099
 20
-157.6275878512181
 30
0.0
 10
92.42657197125099
 20
-157.6275878512181
 30
0.0
 10
92.42657197125099
 20
-157.6275878512181
 30
0.0
 10
92.42657197125099
 20
-157.5090765665255
 30
0.0
 10
92.42657197125099
 20
-157.5090765665255
 30
0.0
 10
92.42657197125099
 20
-157.5090765665255
 30
0.0
 10
92.29531383326298
 20
-157.5090765665255
 30
0.0
 10
92.29531383326298
 20
-157.5090765665255
 30
0.0
 10
92.24880504421211
 20
-157.5090765665255
 30
0.0
 10
92.0458889201309
 20
-157.5176893052386
 30
0.0
 10
92.00351424566232
 20
-157.5176893052386
 30
0.0
 10
91.80059812158111
 20
-157.5218234198209
 30
0.0
 10
91.72411700180855
 20
-157.5238904771121
 30
0.0
 10
91.64591333429338
 20
-157.5259575344032
 30
0.0
 10
91.64591333429338
 20
-157.5259575344032
 30
0.0
 10
91.64591333429338
 20
-157.3419894354909
 30
0.0
 10
91.64591333429338
 20
-157.3419894354909
 30
0.0
 10
91.76029050440368
 20
-157.3502576646555
 30
0.0
 10
91.8047322361634
 20
-157.3502576646555
 30
0.0
 10
92.18748234457466
 20
-157.3588704033686
 30
0.0
 10
92.12409258764607
 20
-157.2637857679757
 30
0.0
 10
92.09653182376406
 20
-157.2362250040937
 30
0.0
 10
92.06070283071747
 20
-157.2000515014986
 30
0.0
 10
92.06070283071747
 20
-157.2000515014986
 30
0.0
 10
92.23605819091668
 20
-157.1177137194011
 30
0.0
 10
92.23605819091668
 20
-157.1177137194011
 30
0.0
 10
92.27636580809411
 20
-157.1535427124477
 30
0.0
 10
92.32080753985384
 20
-157.1959173869163
 30
0.0
 10
92.3948770927867
 20
-157.3058159328957
 30
0.0
 10
92.3948770927867
 20
-157.3058159328957
 30
0.0
 10
92.2804999226764
 20
-157.3609374606597
 30
0.0
 10
92.2804999226764
 20
-157.3609374606597
 30
0.0
 10
92.2804999226764
 20
-157.3609374606597
 30
0.0
 10
92.29117971868069
 20
-157.3609374606597
 30
0.0
 10
92.29117971868069
 20
-157.3609374606597
 30
0.0
 10
92.29117971868069
 20
-157.3609374606597
 30
0.0
 10
92.81380070379308
 20
-157.3609374606597
 30
0.0
 10
92.81380070379308
 20
-157.3609374606597
 30
0.0
 10
92.81380070379308
 20
-157.3609374606597
 30
0.0
 10
92.71871606840019
 20
-157.3164957289
 30
0.0
 10
92.71871606840019
 20
-157.3164957289
 30
0.0
 10
92.74593232273366
 20
-157.2785996785623
 30
0.0
 10
92.80312090778881
 20
-157.1979844442074
 30
0.0
 10
92.81793481837537
 20
-157.1239148912745
 30
0.0
 10
92.81793481837537
 20
-157.1239148912745
 30
0.0
 10
93.03153073846088
 20
-157.1876491577517
 30
0.0
 10
93.03153073846088
 20
-157.1876491577517
 30
0.0
 10
93.040143477174
 20
-157.1897162150428
 30
0.0
 10
93.06115855963403
 20
-157.2000515014986
 30
0.0
 10
93.06115855963403
 20
-157.2214110935071
 30
0.0
 10
93.06115855963403
 20
-157.2593071438449
 30
0.0
 10
92.99570174541427
 20
-157.2593071438449
 30
0.0
 10
92.9767537202454
 20
-157.2593071438449
 30
0.0
 10
92.96607392424112
 20
-157.2785996785623
 30
0.0
 10
92.94264727494143
 20
-157.3185627861912
 30
0.0
 10
92.91301945376828
 20
-157.3588704033686
 30
0.0
 10
93.31299503960577
 20
-157.3526692314952
 30
0.0
 10
93.34262286077892
 20
-157.3502576646555
 30
0.0
 10
93.41875947100296
 20
-157.344056492782
 30
0.0
 10
93.41875947100296
 20
-157.344056492782
 30
0.0
 10
93.41875947100296
 20
-157.5259575344032
 30
0.0
 10
93.41875947100296
 20
-157.5259575344032
 30
0.0
 10
93.39981144583408
 20
-157.5259575344032
 30
0.0
 10
93.37431773924322
 20
-157.5238904771121
 30
0.0
 10
93.15452064728429
 20
-157.5152777383989
 30
0.0
 10
93.10353323410259
 20
-157.5132106811078
 30
0.0
 10
92.88373614214364
 20
-157.5090765665255
 30
0.0
 10
92.83929441038393
 20
-157.5090765665255
 30
0.0
 10
92.83929441038393
 20
-157.5090765665255
 30
0.0
 10
92.62328692345876
 20
-157.5090765665255
 30
0.0
 10
92.62328692345876
 20
-157.5090765665255
 30
0.0
 10
92.62328692345876
 20
-157.5090765665255
 30
0.0
 10
92.62328692345876
 20
-157.6275878512181
 30
0.0
 10
92.62328692345876
 20
-157.6275878512181
 30
0.0
 10
92.62328692345876
 20
-157.6275878512181
 30
0.0
 10
92.79691973591535
 20
-157.6275878512181
 30
0.0
 10
92.79691973591535
 20
-157.6275878512181
 30
0.0
 10
92.95987275236766
 20
-157.6275878512181
 30
0.0
 10
93.15004202315346
 20
-157.6275878512181
 30
0.0
 10
93.30679386773233
 20
-157.6169080552138
 30
0.0
 10
93.30679386773233
 20
-157.6169080552138
 30
0.0
 10
93.30679386773233
 20
-157.7884738103793
 30
0.0
 10
93.30679386773233
 20
-157.7884738103793
 30
0.0
 10
93.09733206222913
 20
-157.7798610716661
 30
0.0
 10
92.90061711002136
 20
-157.777794014375
 30
0.0
 10
92.79691973591535
 20
-157.777794014375
 30
0.0
 10
92.79691973591535
 20
-157.777794014375
 30
0.0
 10
92.62328692345876
 20
-157.777794014375
 30
0.0
 10
92.62328692345876
 20
-157.777794014375
 30
0.0
 10
92.62328692345876
 20
-157.777794014375
 30
0.0
 10
92.62328692345876
 20
-157.8856255030633
 30
0.0
 10
92.62328692345876
 20
-157.8856255030633
 30
0.0
 10
92.62328692345876
 20
-157.8856255030633
 30
0.0
 10
92.85410832097051
 20
-157.8856255030633
 30
0.0
 10
92.85410832097051
 20
-157.8856255030633
 30
0.0
 10
92.98708900670115
 20
-157.8856255030633
 30
0.0
 10
93.27509898926804
 20
-157.881491388481
 30
0.0
 10
93.4842162852227
 20
-157.874945707059
 30
0.0
 10
93.4842162852227
 20
-157.874945707059
 30
0.0
 10
93.4842162852227
 20
-158.0527126340979
 30
0.0
 10
93.4842162852227
 20
-158.0527126340979
 30
0.0
 10
93.29197995714576
 20
-158.0465114622245
 30
0.0
 10
92.97882077753655
 20
-158.0420328380936
 30
0.0
 10
92.85410832097051
 20
-158.0420328380936
 30
0.0
  0
HATCH
  5
DA
330
CE
100
AcDbEntity
  8
レイヤー 1
 62
    18
420
        0
440
 33554687
100
AcDbHatch
 10
0.0
 20
0.0
 30
0.0
210
0.0
220
0.0
230
1.0
  2
SOLID
 70
     1
 71
     1
 91
        4
 92
        1
 93
        1
 72
     4
 94
        3
 73
     0
 74
     0
 95
       17
 96
       13
 40
0.0
 40
0.0
 40
0.0
 40
0.0
 40
1.0
 40
1.0
 40
1.0
 40
2.0
 40
2.0
 40
2.0
 40
3.0
 40
3.0
 40
3.0
 40
4.0
 40
4.0
 40
4.0
 40
4.0
 10
93.01912839471397
 20
-158.7741156287092
 10
93.01912839471397
 20
-158.7741156287092
 10
92.31253931068923
 20
-158.7741156287092
 10
92.31253931068923
 20
-158.7741156287092
 10
92.31253931068923
 20
-158.7741156287092
 10
92.31253931068923
 20
-158.8884927988195
 10
92.31253931068923
 20
-158.8884927988195
 10
92.31253931068923
 20
-158.8884927988195
 10
93.01912839471397
 20
-158.8884927988195
 10
93.01912839471397
 20
-158.8884927988195
 10
93.01912839471397
 20
-158.8884927988195
 10
93.01912839471397
 20
-158.7741156287092
 10
93.01912839471397
 20
-158.7741156287092
 97
        0
 97
        1
330
D6
 92
        1
 93
        1
 72
     4
 94
        3
 73
     0
 74
     0
 95
       17
 96
       13
 40
0.0
 40
0.0
 40
0.0
 40
0.0
 40
1.0
 40
1.0
 40
1.0
 40
2.0
 40
2.0
 40
2.0
 40
3.0
 40
3.0
 40
3.0
 40
4.0
 40
4.0
 40
4.0
 40
4.0
 10
93.01912839471397
 20
-158.5308918874506
 10
93.01912839471397
 20
-158.5308918874506
 10
92.31253931068923
 20
-158.5308918874506
 10
92.31253931068923
 20
-158.5308918874506
 10
92.31253931068923
 20
-158.5308918874506
 10
92.31253931068923
 20
-158.6452690575609
 10
92.31253931068923
 20
-158.6452690575609
 10
92.31253931068923
 20
-158.6452690575609
 10
93.01912839471397
 20
-158.6452690575609
 10
93.01912839471397
 20
-158.6452690575609
 10
93.01912839471397
 20
-158.6452690575609
 10
93.01912839471397
 20
-158.5308918874506
 10
93.01912839471397
 20
-158.5308918874506
 97
        0
 97
        1
330
D7
 92
        1
 93
        1
 72
     4
 94
        3
 73
     0
 74
     0
 95
       17
 96
       13
 40
0.0
 40
0.0
 40
0.0
 40
0.0
 40
1.0
 40
1.0
 40
1.0
 40
2.0
 40
2.0
 40
2.0
 40
3.0
 40
3.0
 40
3.0
 40
4.0
 40
4.0
 40
4.0
 40
4.0
 10
93.01912839471397
 20
-158.2980034326477
 10
93.01912839471397
 20
-158.2980034326477
 10
92.31253931068923
 20
-158.2980034326477
 10
92.31253931068923
 20
-158.2980034326477
 10
92.31253931068923
 20
-158.2980034326477
 10
92.31253931068923
 20
-158.4061794308845
 10
92.31253931068923
 20
-158.4061794308845
 10
92.31253931068923
 20
-158.4061794308845
 10
93.01912839471397
 20
-158.4061794308845
 10
93.01912839471397
 20
-158.4061794308845
 10
93.01912839471397
 20
-158.4061794308845
 10
93.01912839471397
 20
-158.2980034326477
 10
93.01912839471397
 20
-158.2980034326477
 97
        0
 97
        1
330
D8
 92
        1
 93
        1
 72
     4
 94
        3
 73
     0
 74
     0
 95
      203
 96
      199
 40
0.0
 40
0.0
 40
0.0
 40
0.0
 40
1.0
 40
1.0
 40
1.0
 40
2.0
 40
2.0
 40
2.0
 40
3.0
 40
3.0
 40
3.0
 40
4.0
 40
4.0
 40
4.0
 40
5.0
 40
5.0
 40
5.0
 40
6.0
 40
6.0
 40
6.0
 40
7.0
 40
7.0
 40
7.0
 40
8.0
 40
8.0
 40
8.0
 40
9.0
 40
9.0
 40
9.0
 40
10.0
 40
10.0
 40
10.0
 40
11.0
 40
11.0
 40
11.0
 40
12.0
 40
12.0
 40
12.0
 40
13.0
 40
13.0
 40
13.0
 40
14.0
 40
14.0
 40
14.0
 40
15.0
 40
15.0
 40
15.0
 40
16.0
 40
16.0
 40
16.0
 40
17.0
 40
17.0
 40
17.0
 40
18.0
 40
18.0
 40
18.0
 40
19.0
 40
19.0
 40
19.0
 40
20.0
 40
20.0
 40
20.0
 40
21.0
 40
21.0
 40
21.0
 40
22.0
 40
22.0
 40
22.0
 40
23.0
 40
23.0
 40
23.0
 40
24.0
 40
24.0
 40
24.0
 40
25.0
 40
25.0
 40
25.0
 40
26.0
 40
26.0
 40
26.0
 40
27.0
 40
27.0
 40
27.0
 40
28.0
 40
28.0
 40
28.0
 40
29.0
 40
29.0
 40
29.0
 40
30.0
 40
30.0
 40
30.0
 40
31.0
 40
31.0
 40
31.0
 40
32.0
 40
32.0
 40
32.0
 40
33.0
 40
33.0
 40
33.0
 40
34.0
 40
34.0
 40
34.0
 40
35.0
 40
35.0
 40
35.0
 40
36.0
 40
36.0
 40
36.0
 40
37.0
 40
37.0
 40
37.0
 40
38.0
 40
38.0
 40
38.0
 40
39.0
 40
39.0
 40
39.0
 40
40.0
 40
40.0
 40
40.0
 40
41.0
 40
41.0
 40
41.0
 40
42.0
 40
42.0
 40
42.0
 40
43.0
 40
43.0
 40
43.0
 40
44.0
 40
44.0
 40
44.0
 40
45.0
 40
45.0
 40
45.0
 40
46.0
 40
46.0
 40
46.0
 40
47.0
 40
47.0
 40
47.0
 40
48.0
 40
48.0
 40
48.0
 40
49.0
 40
49.0
 40
49.0
 40
50.0
 40
50.0
 40
50.0
 40
51.0
 40
51.0
 40
51.0
 40
52.0
 40
52.0
 40
52.0
 40
53.0
 40
53.0
 40
53.0
 40
54.0
 40
54.0
 40
54.0
 40
55.0
 40
55.0
 40
55.0
 40
56.0
 40
56.0
 40
56.0
 40
57.0
 40
57.0
 40
57.0
 40
58.0
 40
58.0
 40
58.0
 40
59.0
 40
59.0
 40
59.0
 40
60.0
 40
60.0
 40
60.0
 40
61.0
 40
61.0
 40
61.0
 40
62.0
 40
62.0
 40
62.0
 40
63.0
 40
63.0
 40
63.0
 40
64.0
 40
64.0
 40
64.0
 40
65.0
 40
65.0
 40
65.0
 40
66.0
 40
66.0
 40
66.0
 40
66.0
 10
92.85410832097051
 20
-158.0420328380936
 10
92.85410832097051
 20
-158.0420328380936
 10
92.29531383326298
 20
-158.0420328380936
 10
92.29531383326298
 20
-158.0420328380936
 10
92.28497854680723
 20
-158.0864745698534
 10
92.27636580809411
 20
-158.1181694483177
 10
92.26361895479868
 20
-158.1564100082039
 10
92.28911266138954
 20
-158.1564100082039
 10
92.3039265719761
 20
-158.1584770654951
 10
92.31012774384955
 20
-158.1584770654951
 10
92.31012774384955
 20
-158.1584770654951
 10
92.49857446689272
 20
-158.1584770654951
 10
92.49857446689272
 20
-158.1584770654951
 10
92.49857446689272
 20
-158.1584770654951
 10
92.87305634613938
 20
-158.1584770654951
 10
92.87305634613938
 20
-158.1584770654951
 10
92.92369924977256
 20
-158.1584770654951
 10
93.20723060820862
 20
-158.1457302121997
 10
93.23892548667291
 20
-158.1457302121997
 10
93.23685842938175
 20
-158.1732909760817
 10
93.2347913720906
 20
-158.1922390012505
 10
93.2347913720906
 20
-158.2218668224237
 10
93.23272431479946
 20
-158.253561700888
 10
93.23272431479946
 20
-158.3889539534583
 10
93.23272431479946
 20
-158.4165147173403
 10
93.23272431479946
 20
-158.4165147173403
 10
93.23272431479946
 20
-158.6621500254386
 10
93.23272431479946
 20
-158.6621500254386
 10
93.23272431479946
 20
-158.7065917571983
 10
93.23685842938175
 20
-158.9033067094061
 10
93.24099254396406
 20
-159.0555799298542
 10
93.24099254396406
 20
-159.0555799298542
 10
93.01464977058314
 20
-159.0555799298542
 10
93.01464977058314
 20
-159.0555799298542
 10
93.01464977058314
 20
-159.0555799298542
 10
93.01671682787429
 20
-159.0218179940987
 10
93.01671682787429
 20
-159.0218179940987
 10
93.01671682787429
 20
-159.0218179940987
 10
92.31460636798038
 20
-159.0218179940987
 10
92.31460636798038
 20
-159.0218179940987
 10
92.31460636798038
 20
-159.0218179940987
 10
92.31667342527153
 20
-159.0555799298542
 10
92.31667342527153
 20
-159.0555799298542
 10
92.31667342527153
 20
-159.0555799298542
 10
92.09859888105521
 20
-159.0555799298542
 10
92.09859888105521
 20
-159.0555799298542
 10
92.10307750518603
 20
-159.0004584020902
 10
92.10307750518603
 20
-158.9877115487947
 10
92.10927867705949
 20
-158.873678888233
 10
92.11134573435064
 20
-158.8461181243509
 10
92.11341279164178
 20
-158.7127929290718
 10
92.11341279164178
 20
-158.6938449039029
 10
92.11341279164178
 20
-158.6938449039029
 10
92.11341279164178
 20
-158.4905842702732
 10
92.11341279164178
 20
-158.4905842702732
 10
91.97388642448917
 20
-158.7403536929538
 10
91.8047322361634
 20
-158.8716118309418
 10
91.69896780476625
 20
-158.9370686451615
 10
91.69896780476625
 20
-158.9370686451615
 10
91.52533499230964
 20
-158.797542278009
 10
91.52533499230964
 20
-158.797542278009
 10
91.61421845582909
 20
-158.7465548648272
 10
91.75822344711253
 20
-158.6597384585989
 10
91.895682756974
 20
-158.4654350732308
 10
91.9866332777846
 20
-158.3383110498251
 10
92.05209009200435
 20
-158.1946505680902
 10
92.08619653730831
 20
-158.0420328380936
 10
91.85744219708771
 20
-158.0444444049333
 10
91.67760821275768
 20
-158.0506455768068
 10
91.58252357736479
 20
-158.0527126340979
 10
91.58252357736479
 20
-158.0527126340979
 10
91.58252357736479
 20
-157.874945707059
 10
91.58252357736479
 20
-157.874945707059
 10
91.77923852957254
 20
-157.881491388481
 10
92.06276988800862
 20
-157.8856255030633
 10
92.21297605116552
 20
-157.8856255030633
 10
92.21297605116552
 20
-157.8856255030633
 10
92.42657197125099
 20
-157.8856255030633
 10
92.42657197125099
 20
-157.8856255030633
 10
92.42657197125099
 20
-157.8856255030633
 10
92.42657197125099
 20
-157.777794014375
 10
92.42657197125099
 20
-157.777794014375
 10
92.42657197125099
 20
-157.777794014375
 10
92.2804999226764
 20
-157.777794014375
 10
92.2804999226764
 20
-157.777794014375
 10
92.11134573435064
 20
-157.777794014375
 10
91.94219154602487
 20
-157.7819281289573
 10
91.77510441499025
 20
-157.7884738103793
 10
91.77510441499025
 20
-157.7884738103793
 10
91.77510441499025
 20
-157.6169080552138
 10
91.77510441499025
 20
-157.6169080552138
 10
91.92944469272944
 20
-157.6275878512181
 10
92.11547984893293
 20
-157.6275878512181
 10
92.2804999226764
 20
-157.6275878512181
 10
92.2804999226764
 20
-157.6275878512181
 10
92.42657197125099
 20
-157.6275878512181
 10
92.42657197125099
 20
-157.6275878512181
 10
92.42657197125099
 20
-157.6275878512181
 10
92.42657197125099
 20
-157.5090765665255
 10
92.42657197125099
 20
-157.5090765665255
 10
92.42657197125099
 20
-157.5090765665255
 10
92.29531383326298
 20
-157.5090765665255
 10
92.29531383326298
 20
-157.5090765665255
 10
92.24880504421211
 20
-157.5090765665255
 10
92.0458889201309
 20
-157.5176893052386
 10
92.00351424566232
 20
-157.5176893052386
 10
91.80059812158111
 20
-157.5218234198209
 10
91.72411700180855
 20
-157.5238904771121
 10
91.64591333429338
 20
-157.5259575344032
 10
91.64591333429338
 20
-157.5259575344032
 10
91.64591333429338
 20
-157.3419894354909
 10
91.64591333429338
 20
-157.3419894354909
 10
91.76029050440368
 20
-157.3502576646555
 10
91.8047322361634
 20
-157.3502576646555
 10
92.18748234457466
 20
-157.3588704033686
 10
92.12409258764607
 20
-157.2637857679757
 10
92.09653182376406
 20
-157.2362250040937
 10
92.06070283071747
 20
-157.2000515014986
 10
92.06070283071747
 20
-157.2000515014986
 10
92.23605819091668
 20
-157.1177137194011
 10
92.23605819091668
 20
-157.1177137194011
 10
92.27636580809411
 20
-157.1535427124477
 10
92.32080753985384
 20
-157.1959173869163
 10
92.3948770927867
 20
-157.3058159328957
 10
92.3948770927867
 20
-157.3058159328957
 10
92.2804999226764
 20
-157.3609374606597
 10
92.2804999226764
 20
-157.3609374606597
 10
92.2804999226764
 20
-157.3609374606597
 10
92.29117971868069
 20
-157.3609374606597
 10
92.29117971868069
 20
-157.3609374606597
 10
92.29117971868069
 20
-157.3609374606597
 10
92.81380070379308
 20
-157.3609374606597
 10
92.81380070379308
 20
-157.3609374606597
 10
92.81380070379308
 20
-157.3609374606597
 10
92.71871606840019
 20
-157.3164957289
 10
92.71871606840019
 20
-157.3164957289
 10
92.74593232273366
 20
-157.2785996785623
 10
92.80312090778881
 20
-157.1979844442074
 10
92.81793481837537
 20
-157.1239148912745
 10
92.81793481837537
 20
-157.1239148912745
 10
93.03153073846088
 20
-157.1876491577517
 10
93.03153073846088
 20
-157.1876491577517
 10
93.040143477174
 20
-157.1897162150428
 10
93.06115855963403
 20
-157.2000515014986
 10
93.06115855963403
 20
-157.2214110935071
 10
93.06115855963403
 20
-157.2593071438449
 10
92.99570174541427
 20
-157.2593071438449
 10
92.9767537202454
 20
-157.2593071438449
 10
92.96607392424112
 20
-157.2785996785623
 10
92.94264727494143
 20
-157.3185627861912
 10
92.91301945376828
 20
-157.3588704033686
 10
93.31299503960577
 20
-157.3526692314952
 10
93.34262286077892
 20
-157.3502576646555
 10
93.41875947100296
 20
-157.344056492782
 10
93.41875947100296
 20
-157.344056492782
 10
93.41875947100296
 20
-157.5259575344032
 10
93.41875947100296
 20
-157.5259575344032
 10
93.39981144583408
 20
-157.5259575344032
 10
93.37431773924322
 20
-157.5238904771121
 10
93.15452064728429
 20
-157.5152777383989
 10
93.10353323410259
 20
-157.5132106811078
 10
92.88373614214364
 20
-157.5090765665255
 10
92.83929441038393
 20
-157.5090765665255
 10
92.83929441038393
 20
-157.5090765665255
 10
92.62328692345876
 20
-157.5090765665255
 10
92.62328692345876
 20
-157.5090765665255
 10
92.62328692345876
 20
-157.5090765665255
 10
92.62328692345876
 20
-157.6275878512181
 10
92.62328692345876
 20
-157.6275878512181
 10
92.62328692345876
 20
-157.6275878512181
 10
92.79691973591535
 20
-157.6275878512181
 10
92.79691973591535
 20
-157.6275878512181
 10
92.95987275236766
 20
-157.6275878512181
 10
93.15004202315346
 20
-157.6275878512181
 10
93.30679386773233
 20
-157.6169080552138
 10
93.30679386773233
 20
-157.6169080552138
 10
93.30679386773233
 20
-157.7884738103793
 10
93.30679386773233
 20
-157.7884738103793
 10
93.09733206222913
 20
-157.7798610716661
 10
92.90061711002136
 20
-157.777794014375
 10
92.79691973591535
 20
-157.777794014375
 10
92.79691973591535
 20
-157.777794014375
 10
92.62328692345876
 20
-157.777794014375
 10
92.62328692345876
 20
-157.777794014375
 10
92.62328692345876
 20
-157.777794014375
 10
92.62328692345876
 20
-157.8856255030633
 10
92.62328692345876
 20
-157.8856255030633
 10
92.62328692345876
 20
-157.8856255030633
 10
92.85410832097051
 20
-157.8856255030633
 10
92.85410832097051
 20
-157.8856255030633
 10
92.98708900670115
 20
-157.8856255030633
 10
93.27509898926804
 20
-157.881491388481
 10
93.4842162852227
 20
-157.874945707059
 10
93.4842162852227
 20
-157.874945707059
 10
93.4842162852227
 20
-158.0527126340979
 10
93.4842162852227
 20
-158.0527126340979
 10
93.29197995714576
 20
-158.0465114622245
 10
92.97882077753655
 20
-158.0420328380936
 10
92.85410832097051
 20
-158.0420328380936
 97
        0
 97
        1
330
D9
 75
     2
 76
     1
 98
        1
 10
0.0
 20
0.0
450
        0
451
        0
460
0.0
461
0.0
452
        0
462
0.0
453
        0
470

  0
SPLINE
  5
DB
330
CE
100
AcDbEntity
  8
レイヤー 1
100
AcDbSpline
210
0.0
220
0.0
230
1.0
 70
     9
 71
     3
 72
    29
 73
    25
 74
     0
 42
0.0000000001
 43
0.0000000001
 40
0.0
 40
0.0
 40
0.0
 40
0.0
 40
1.0
 40
1.0
 40
1.0
 40
2.0
 40
2.0
 40
2.0
 40
3.0
 40
3.0
 40
3.0
 40
4.0
 40
4.0
 40
4.0
 40
5.0
 40
5.0
 40
5.0
 40
6.0
 40
6.0
 40
6.0
 40
7.0
 40
7.0
 40
7.0
 40
8.0
 40
8.0
 40
8.0
 40
8.0
 10
94.72927379359198
 20
-157.4901285413566
 30
0.0
 10
94.72927379359198
 20
-157.4901285413566
 30
0.0
 10
94.37580699680536
 20
-157.4901285413566
 30
0.0
 10
94.37580699680536
 20
-157.4901285413566
 30
0.0
 10
94.26384139353473
 20
-157.4901285413566
 30
0.0
 10
94.12431502638211
 20
-157.4963297132301
 30
0.0
 10
94.01648353769379
 20
-157.5090765665255
 30
0.0
 10
94.01648353769379
 20
-157.5090765665255
 30
0.0
 10
94.01648353769379
 20
-157.2741210544315
 30
0.0
 10
94.01648353769379
 20
-157.2741210544315
 30
0.0
 10
94.13465031283786
 20
-157.288934965018
 30
0.0
 10
94.31896292129874
 20
-157.2934135891489
 30
0.0
 10
94.37580699680536
 20
-157.2934135891489
 30
0.0
 10
94.37580699680536
 20
-157.2934135891489
 30
0.0
 10
94.72927379359198
 20
-157.2934135891489
 30
0.0
 10
94.72927379359198
 20
-157.2934135891489
 30
0.0
 10
94.74822181876087
 20
-157.2934135891489
 30
0.0
 10
94.95148245239061
 20
-157.2934135891489
 30
0.0
 10
95.09307587683437
 20
-157.2741210544315
 30
0.0
 10
95.09307587683437
 20
-157.2741210544315
 30
0.0
 10
95.09307587683437
 20
-157.5090765665255
 30
0.0
 10
95.09307587683437
 20
-157.5090765665255
 30
0.0
 10
94.93666854180402
 20
-157.4901285413566
 30
0.0
 10
94.7461547614697
 20
-157.4901285413566
 30
0.0
 10
94.72927379359198
 20
-157.4901285413566
 30
0.0
  0
SPLINE
  5
DC
330
CE
100
AcDbEntity
  8
レイヤー 1
100
AcDbSpline
210
0.0
220
0.0
230
1.0
 70
     9
 71
     3
 72
    47
 73
    43
 74
     0
 42
0.0000000001
 43
0.0000000001
 40
0.0
 40
0.0
 40
0.0
 40
0.0
 40
1.0
 40
1.0
 40
1.0
 40
2.0
 40
2.0
 40
2.0
 40
3.0
 40
3.0
 40
3.0
 40
4.0
 40
4.0
 40
4.0
 40
5.0
 40
5.0
 40
5.0
 40
6.0
 40
6.0
 40
6.0
 40
7.0
 40
7.0
 40
7.0
 40
8.0
 40
8.0
 40
8.0
 40
9.0
 40
9.0
 40
9.0
 40
10.0
 40
10.0
 40
10.0
 40
11.0
 40
11.0
 40
11.0
 40
12.0
 40
12.0
 40
12.0
 40
13.0
 40
13.0
 40
13.0
 40
14.0
 40
14.0
 40
14.0
 40
14.0
 10
94.83090411040686
 20
-158.0189506983425
 30
0.0
 10
94.83090411040686
 20
-158.0189506983425
 30
0.0
 10
94.72927379359198
 20
-158.0189506983425
 30
0.0
 10
94.72927379359198
 20
-158.0189506983425
 30
0.0
 10
94.72927379359198
 20
-158.1057671045708
 30
0.0
 10
94.70825871113197
 20
-158.495062894404
 30
0.0
 10
94.5115437589242
 20
-158.7148599863629
 30
0.0
 10
94.35892602892762
 20
-158.8840141746887
 30
0.0
 10
94.15187579026412
 20
-158.9539496130393
 30
0.0
 10
94.06712644132698
 20
-158.9815103769213
 30
0.0
 10
94.06712644132698
 20
-158.9815103769213
 30
0.0
 10
93.87247854641037
 20
-158.8144232458867
 30
0.0
 10
93.87247854641037
 20
-158.8144232458867
 30
0.0
 10
93.96997474864292
 20
-158.8016763925912
 30
0.0
 10
94.14533010884214
 20
-158.7782497432915
 30
0.0
 10
94.33377683188531
 20
-158.5901475297969
 30
0.0
 10
94.40784638481819
 20
-158.5181450341552
 30
0.0
 10
94.5115437589242
 20
-158.3786186670026
 30
0.0
 10
94.5115437589242
 20
-158.0189506983425
 30
0.0
 10
94.5115437589242
 20
-158.0189506983425
 30
0.0
 10
94.28072236141245
 20
-158.0189506983425
 30
0.0
 10
94.28072236141245
 20
-158.0189506983425
 30
0.0
 10
94.09468720520896
 20
-158.0189506983425
 30
0.0
 10
93.90830753945696
 20
-158.0230848129248
 30
0.0
 10
93.72227238325347
 20
-158.0378987235113
 30
0.0
 10
93.72227238325347
 20
-158.0378987235113
 30
0.0
 10
93.72227238325347
 20
-157.8181016315524
 30
0.0
 10
93.72227238325347
 20
-157.8181016315524
 30
0.0
 10
93.91071910629662
 20
-157.832915542139
 30
0.0
 10
94.19631752202384
 20
-157.8370496567213
 30
0.0
 10
94.28072236141245
 20
-157.8370496567213
 30
0.0
 10
94.28072236141245
 20
-157.8370496567213
 30
0.0
 10
94.83090411040686
 20
-157.8370496567213
 30
0.0
 10
94.83090411040686
 20
-157.8370496567213
 30
0.0
 10
94.84985213557573
 20
-157.8370496567213
 30
0.0
 10
95.16714542976725
 20
-157.8370496567213
 30
0.0
 10
95.39555526043931
 20
-157.8181016315524
 30
0.0
 10
95.39555526043931
 20
-157.8181016315524
 30
0.0
 10
95.39555526043931
 20
-158.0378987235113
 30
0.0
 10
95.39555526043931
 20
-158.0378987235113
 30
0.0
 10
95.20745304694466
 20
-158.0230848129248
 30
0.0
 10
95.01900632390151
 20
-158.0189506983425
 30
0.0
 10
94.83090411040686
 20
-158.0189506983425
 30
0.0
  0
HATCH
  5
DD
330
CE
100
AcDbEntity
  8
レイヤー 1
 62
    18
420
        0
440
 33554687
100
AcDbHatch
 10
0.0
 20
0.0
 30
0.0
210
0.0
220
0.0
230
1.0
  2
SOLID
 70
     1
 71
     1
 91
        2
 92
        1
 93
        1
 72
     4
 94
        3
 73
     0
 74
     0
 95
       29
 96
       25
 40
0.0
 40
0.0
 40
0.0
 40
0.0
 40
1.0
 40
1.0
 40
1.0
 40
2.0
 40
2.0
 40
2.0
 40
3.0
 40
3.0
 40
3.0
 40
4.0
 40
4.0
 40
4.0
 40
5.0
 40
5.0
 40
5.0
 40
6.0
 40
6.0
 40
6.0
 40
7.0
 40
7.0
 40
7.0
 40
8.0
 40
8.0
 40
8.0
 40
8.0
 10
94.72927379359198
 20
-157.4901285413566
 10
94.72927379359198
 20
-157.4901285413566
 10
94.37580699680536
 20
-157.4901285413566
 10
94.37580699680536
 20
-157.4901285413566
 10
94.26384139353473
 20
-157.4901285413566
 10
94.12431502638211
 20
-157.4963297132301
 10
94.01648353769379
 20
-157.5090765665255
 10
94.01648353769379
 20
-157.5090765665255
 10
94.01648353769379
 20
-157.2741210544315
 10
94.01648353769379
 20
-157.2741210544315
 10
94.13465031283786
 20
-157.288934965018
 10
94.31896292129874
 20
-157.2934135891489
 10
94.37580699680536
 20
-157.2934135891489
 10
94.37580699680536
 20
-157.2934135891489
 10
94.72927379359198
 20
-157.2934135891489
 10
94.72927379359198
 20
-157.2934135891489
 10
94.74822181876087
 20
-157.2934135891489
 10
94.95148245239061
 20
-157.2934135891489
 10
95.09307587683437
 20
-157.2741210544315
 10
95.09307587683437
 20
-157.2741210544315
 10
95.09307587683437
 20
-157.5090765665255
 10
95.09307587683437
 20
-157.5090765665255
 10
94.93666854180402
 20
-157.4901285413566
 10
94.7461547614697
 20
-157.4901285413566
 10
94.72927379359198
 20
-157.4901285413566
 97
        0
 97
        1
330
DB
 92
        1
 93
        1
 72
     4
 94
        3
 73
     0
 74
     0
 95
       47
 96
       43
 40
0.0
 40
0.0
 40
0.0
 40
0.0
 40
1.0
 40
1.0
 40
1.0
 40
2.0
 40
2.0
 40
2.0
 40
3.0
 40
3.0
 40
3.0
 40
4.0
 40
4.0
 40
4.0
 40
5.0
 40
5.0
 40
5.0
 40
6.0
 40
6.0
 40
6.0
 40
7.0
 40
7.0
 40
7.0
 40
8.0
 40
8.0
 40
8.0
 40
9.0
 40
9.0
 40
9.0
 40
10.0
 40
10.0
 40
10.0
 40
11.0
 40
11.0
 40
11.0
 40
12.0
 40
12.0
 40
12.0
 40
13.0
 40
13.0
 40
13.0
 40
14.0
 40
14.0
 40
14.0
 40
14.0
 10
94.83090411040686
 20
-158.0189506983425
 10
94.83090411040686
 20
-158.0189506983425
 10
94.72927379359198
 20
-158.0189506983425
 10
94.72927379359198
 20
-158.0189506983425
 10
94.72927379359198
 20
-158.1057671045708
 10
94.70825871113197
 20
-158.495062894404
 10
94.5115437589242
 20
-158.7148599863629
 10
94.35892602892762
 20
-158.8840141746887
 10
94.15187579026412
 20
-158.9539496130393
 10
94.06712644132698
 20
-158.9815103769213
 10
94.06712644132698
 20
-158.9815103769213
 10
93.87247854641037
 20
-158.8144232458867
 10
93.87247854641037
 20
-158.8144232458867
 10
93.96997474864292
 20
-158.8016763925912
 10
94.14533010884214
 20
-158.7782497432915
 10
94.33377683188531
 20
-158.5901475297969
 10
94.40784638481819
 20
-158.5181450341552
 10
94.5115437589242
 20
-158.3786186670026
 10
94.5115437589242
 20
-158.0189506983425
 10
94.5115437589242
 20
-158.0189506983425
 10
94.28072236141245
 20
-158.0189506983425
 10
94.28072236141245
 20
-158.0189506983425
 10
94.09468720520896
 20
-158.0189506983425
 10
93.90830753945696
 20
-158.0230848129248
 10
93.72227238325347
 20
-158.0378987235113
 10
93.72227238325347
 20
-158.0378987235113
 10
93.72227238325347
 20
-157.8181016315524
 10
93.72227238325347
 20
-157.8181016315524
 10
93.91071910629662
 20
-157.832915542139
 10
94.19631752202384
 20
-157.8370496567213
 10
94.28072236141245
 20
-157.8370496567213
 10
94.28072236141245
 20
-157.8370496567213
 10
94.83090411040686
 20
-157.8370496567213
 10
94.83090411040686
 20
-157.8370496567213
 10
94.84985213557573
 20
-157.8370496567213
 10
95.16714542976725
 20
-157.8370496567213
 10
95.39555526043931
 20
-157.8181016315524
 10
95.39555526043931
 20
-157.8181016315524
 10
95.39555526043931
 20
-158.0378987235113
 10
95.39555526043931
 20
-158.0378987235113
 10
95.20745304694466
 20
-158.0230848129248
 10
95.01900632390151
 20
-158.0189506983425
 10
94.83090411040686
 20
-158.0189506983425
 97
        0
 97
        1
330
DC
 75
     2
 76
     1
 98
        1
 10
0.0
 20
0.0
450
        0
451
        0
460
0.0
461
0.0
452
        0
462
0.0
453
        0
470

  0
SPLINE
  5
DE
330
CE
100
AcDbEntity
  8
レイヤー 1
100
AcDbSpline
210
0.0
220
0.0
230
1.0
 70
     9
 71
     3
 72
    29
 73
    25
 74
     0
 42
0.0000000001
 43
0.0000000001
 40
0.0
 40
0.0
 40
0.0
 40
0.0
 40
1.0
 40
1.0
 40
1.0
 40
2.0
 40
2.0
 40
2.0
 40
3.0
 40
3.0
 40
3.0
 40
4.0
 40
4.0
 40
4.0
 40
5.0
 40
5.0
 40
5.0
 40
6.0
 40
6.0
 40
6.0
 40
7.0
 40
7.0
 40
7.0
 40
8.0
 40
8.0
 40
8.0
 40
8.0
 10
96.67678627140373
 20
-158.1819037147948
 30
0.0
 10
96.67678627140373
 20
-158.1819037147948
 30
0.0
 10
96.19240584617759
 20
-158.1819037147948
 30
0.0
 10
96.19240584617759
 20
-158.1819037147948
 30
0.0
 10
96.16484508229561
 20
-158.1819037147948
 30
0.0
 10
95.84755178810409
 20
-158.1819037147948
 30
0.0
 10
95.63602292530974
 20
-158.2070529118371
 30
0.0
 10
95.63602292530974
 20
-158.2070529118371
 30
0.0
 10
95.63602292530974
 20
-157.9765760238739
 30
0.0
 10
95.63602292530974
 20
-157.9765760238739
 30
0.0
 10
95.79449731763125
 20
-158.0000026731736
 30
0.0
 10
95.98501109796556
 20
-158.0020697304648
 30
0.0
 10
96.19240584617759
 20
-158.0020697304648
 30
0.0
 10
96.19240584617759
 20
-158.0020697304648
 30
0.0
 10
96.67678627140373
 20
-158.0020697304648
 30
0.0
 10
96.67678627140373
 20
-158.0020697304648
 30
0.0
 10
96.86282142760722
 20
-158.0020697304648
 30
0.0
 10
97.04920109335922
 20
-158.0000026731736
 30
0.0
 10
97.23316919227158
 20
-157.9765760238739
 30
0.0
 10
97.23316919227158
 20
-157.9765760238739
 30
0.0
 10
97.23316919227158
 20
-158.2070529118371
 30
0.0
 10
97.23316919227158
 20
-158.2070529118371
 30
0.0
 10
97.04920109335922
 20
-158.1839707720859
 30
0.0
 10
96.80149872796977
 20
-158.1819037147948
 30
0.0
 10
96.67678627140373
 20
-158.1819037147948
 30
0.0
  0
HATCH
  5
DF
330
CE
100
AcDbEntity
  8
レイヤー 1
 62
    18
420
        0
440
 33554687
100
AcDbHatch
 10
0.0
 20
0.0
 30
0.0
210
0.0
220
0.0
230
1.0
  2
SOLID
 70
     1
 71
     1
 91
        1
 92
        1
 93
        1
 72
     4
 94
        3
 73
     0
 74
     0
 95
       29
 96
       25
 40
0.0
 40
0.0
 40
0.0
 40
0.0
 40
1.0
 40
1.0
 40
1.0
 40
2.0
 40
2.0
 40
2.0
 40
3.0
 40
3.0
 40
3.0
 40
4.0
 40
4.0
 40
4.0
 40
5.0
 40
5.0
 40
5.0
 40
6.0
 40
6.0
 40
6.0
 40
7.0
 40
7.0
 40
7.0
 40
8.0
 40
8.0
 40
8.0
 40
8.0
 10
96.67678627140373
 20
-158.1819037147948
 10
96.67678627140373
 20
-158.1819037147948
 10
96.19240584617759
 20
-158.1819037147948
 10
96.19240584617759
 20
-158.1819037147948
 10
96.16484508229561
 20
-158.1819037147948
 10
95.84755178810409
 20
-158.1819037147948
 10
95.63602292530974
 20
-158.2070529118371
 10
95.63602292530974
 20
-158.2070529118371
 10
95.63602292530974
 20
-157.9765760238739
 10
95.63602292530974
 20
-157.9765760238739
 10
95.79449731763125
 20
-158.0000026731736
 10
95.98501109796556
 20
-158.0020697304648
 10
96.19240584617759
 20
-158.0020697304648
 10
96.19240584617759
 20
-158.0020697304648
 10
96.67678627140373
 20
-158.0020697304648
 10
96.67678627140373
 20
-158.0020697304648
 10
96.86282142760722
 20
-158.0020697304648
 10
97.04920109335922
 20
-158.0000026731736
 10
97.23316919227158
 20
-157.9765760238739
 10
97.23316919227158
 20
-157.9765760238739
 10
97.23316919227158
 20
-158.2070529118371
 10
97.23316919227158
 20
-158.2070529118371
 10
97.04920109335922
 20
-158.1839707720859
 10
96.80149872796977
 20
-158.1819037147948
 10
96.67678627140373
 20
-158.1819037147948
 97
        0
 97
        1
330
DE
 75
     2
 76
     1
 98
        1
 10
0.0
 20
0.0
450
        0
451
        0
460
0.0
461
0.0
452
        0
462
0.0
453
        0
470

  0
SPLINE
  5
E0
330
CE
100
AcDbEntity
  8
レイヤー 1
100
AcDbSpline
210
0.0
220
0.0
230
1.0
 70
     9
 71
     3
 72
    17
 73
    13
 74
     0
 42
0.0000000001
 43
0.0000000001
 40
0.0
 40
0.0
 40
0.0
 40
0.0
 40
1.0
 40
1.0
 40
1.0
 40
2.0
 40
2.0
 40
2.0
 40
3.0
 40
3.0
 40
3.0
 40
4.0
 40
4.0
 40
4.0
 40
4.0
 10
99.09558781159764
 20
-157.2148654120852
 30
0.0
 10
99.04081079338217
 20
-157.2148654120852
 30
0.0
 10
98.99636906162244
 20
-157.2593071438449
 30
0.0
 10
98.99636906162244
 20
-157.3144286716089
 30
0.0
 10
98.99636906162244
 20
-157.371617256664
 30
0.0
 10
99.04081079338217
 20
-157.420193103006
 30
0.0
 10
99.09972192617994
 20
-157.420193103006
 30
0.0
 10
99.15897756852622
 20
-157.420193103006
 30
0.0
 10
99.19928518570365
 20
-157.3695501993729
 30
0.0
 10
99.19928518570365
 20
-157.3164957289
 30
0.0
 10
99.19928518570365
 20
-157.2593071438449
 30
0.0
 10
99.15277639665278
 20
-157.2148654120852
 30
0.0
 10
99.09558781159764
 20
-157.2148654120852
 30
0.0
  0
SPLINE
  5
E1
330
CE
100
AcDbEntity
  8
レイヤー 1
100
AcDbSpline
210
0.0
220
0.0
230
1.0
 70
     9
 71
     3
 72
    17
 73
    13
 74
     0
 42
0.0000000001
 43
0.0000000001
 40
0.0
 40
0.0
 40
0.0
 40
0.0
 40
1.0
 40
1.0
 40
1.0
 40
2.0
 40
2.0
 40
2.0
 40
3.0
 40
3.0
 40
3.0
 40
4.0
 40
4.0
 40
4.0
 40
4.0
 10
99.09765486888879
 20
-157.5449055595721
 30
0.0
 10
98.9708753550316
 20
-157.5449055595721
 30
0.0
 10
98.86924503821672
 20
-157.4436197523058
 30
0.0
 10
98.86924503821672
 20
-157.3164957289
 30
0.0
 10
98.86924503821672
 20
-157.1897162150428
 30
0.0
 10
98.9708753550316
 20
-157.0860188409368
 30
0.0
 10
99.09765486888879
 20
-157.0860188409368
 30
0.0
 10
99.22477889229451
 20
-157.0860188409368
 30
0.0
 10
99.32847626640054
 20
-157.1897162150428
 30
0.0
 10
99.32847626640054
 20
-157.3164957289
 30
0.0
 10
99.32847626640054
 20
-157.4436197523058
 30
0.0
 10
99.22477889229451
 20
-157.5449055595721
 30
0.0
 10
99.09765486888879
 20
-157.5449055595721
 30
0.0
  0
SPLINE
  5
E2
330
CE
100
AcDbEntity
  8
レイヤー 1
100
AcDbSpline
210
0.0
220
0.0
230
1.0
 70
     9
 71
     3
 72
    44
 73
    40
 74
     0
 42
0.0000000001
 43
0.0000000001
 40
0.0
 40
0.0
 40
0.0
 40
0.0
 40
1.0
 40
1.0
 40
1.0
 40
2.0
 40
2.0
 40
2.0
 40
3.0
 40
3.0
 40
3.0
 40
4.0
 40
4.0
 40
4.0
 40
5.0
 40
5.0
 40
5.0
 40
6.0
 40
6.0
 40
6.0
 40
7.0
 40
7.0
 40
7.0
 40
8.0
 40
8.0
 40
8.0
 40
9.0
 40
9.0
 40
9.0
 40
10.0
 40
10.0
 40
10.0
 40
11.0
 40
11.0
 40
11.0
 40
12.0
 40
12.0
 40
12.0
 40
13.0
 40
13.0
 40
13.0
 40
13.0
 10
98.88819306338561
 20
-157.7440320786196
 30
0.0
 10
98.77622746011498
 20
-158.1119682764442
 30
0.0
 10
98.72558455648182
 20
-158.2707871783142
 30
0.0
 10
98.52886960427404
 20
-158.5202120914463
 30
0.0
 10
98.34455699581317
 20
-158.7510334889581
 30
0.0
 10
98.1078789359765
 20
-158.9370686451615
 30
0.0
 10
97.82848169212275
 20
-159.0300862232633
 30
0.0
 10
97.82848169212275
 20
-159.0300862232633
 30
0.0
 10
97.63590085449727
 20
-158.8502522389332
 30
0.0
 10
97.63590085449727
 20
-158.8502522389332
 30
0.0
 10
98.27703312430228
 20
-158.6979790184852
 30
0.0
 10
98.60707327178921
 20
-158.1415960976174
 30
0.0
 10
98.67046302871781
 20
-157.701657404151
 30
0.0
 10
98.67046302871781
 20
-157.701657404151
 30
0.0
 10
97.90461830234676
 20
-157.701657404151
 30
0.0
 10
97.90461830234676
 20
-157.701657404151
 30
0.0
 10
97.81160072424503
 20
-157.701657404151
 30
0.0
 10
97.62763262533269
 20
-157.7057915187333
 30
0.0
 10
97.47088078075382
 20
-157.7247395439021
 30
0.0
 10
97.47088078075382
 20
-157.7247395439021
 30
0.0
 10
97.47088078075382
 20
-157.5049424519432
 30
0.0
 10
97.47088078075382
 20
-157.5049424519432
 30
0.0
 10
97.55769718698211
 20
-157.5259575344032
 30
0.0
 10
97.80953366695387
 20
-157.5259575344032
 30
0.0
 10
97.90875241692907
 20
-157.5259575344032
 30
0.0
 10
97.90875241692907
 20
-157.5259575344032
 30
0.0
 10
98.34042288123086
 20
-157.5259575344032
 30
0.0
 10
98.34042288123086
 20
-157.5259575344032
 30
0.0
 10
98.38279755569944
 20
-157.5259575344032
 30
0.0
 10
98.61740855824496
 20
-157.5238904771121
 30
0.0
 10
98.65564911813123
 20
-157.5176893052386
 30
0.0
 10
98.69802379259979
 20
-157.5111436238167
 30
0.0
 10
98.70009084989096
 20
-157.5090765665255
 30
0.0
 10
98.7614135495284
 20
-157.4687689493481
 30
0.0
 10
98.7614135495284
 20
-157.4687689493481
 30
0.0
 10
98.94951576302304
 20
-157.6234537366358
 30
0.0
 10
98.94951576302304
 20
-157.6234537366358
 30
0.0
 10
98.92023245139842
 20
-157.6530815578089
 30
0.0
 10
98.90541854081185
 20
-157.6847764362732
 30
0.0
 10
98.88819306338561
 20
-157.7440320786196
 30
0.0
  0
HATCH
  5
E3
330
CE
100
AcDbEntity
  8
レイヤー 1
 62
    18
420
        0
440
 33554687
100
AcDbHatch
 10
0.0
 20
0.0
 30
0.0
210
0.0
220
0.0
230
1.0
  2
SOLID
 70
     1
 71
     1
 91
        3
 92
        1
 93
        1
 72
     4
 94
        3
 73
     0
 74
     0
 95
       17
 96
       13
 40
0.0
 40
0.0
 40
0.0
 40
0.0
 40
1.0
 40
1.0
 40
1.0
 40
2.0
 40
2.0
 40
2.0
 40
3.0
 40
3.0
 40
3.0
 40
4.0
 40
4.0
 40
4.0
 40
4.0
 10
99.09558781159764
 20
-157.2148654120852
 10
99.04081079338217
 20
-157.2148654120852
 10
98.99636906162244
 20
-157.2593071438449
 10
98.99636906162244
 20
-157.3144286716089
 10
98.99636906162244
 20
-157.371617256664
 10
99.04081079338217
 20
-157.420193103006
 10
99.09972192617994
 20
-157.420193103006
 10
99.15897756852622
 20
-157.420193103006
 10
99.19928518570365
 20
-157.3695501993729
 10
99.19928518570365
 20
-157.3164957289
 10
99.19928518570365
 20
-157.2593071438449
 10
99.15277639665278
 20
-157.2148654120852
 10
99.09558781159764
 20
-157.2148654120852
 97
        0
 97
        1
330
E0
 92
        1
 93
        1
 72
     4
 94
        3
 73
     0
 74
     0
 95
       17
 96
       13
 40
0.0
 40
0.0
 40
0.0
 40
0.0
 40
1.0
 40
1.0
 40
1.0
 40
2.0
 40
2.0
 40
2.0
 40
3.0
 40
3.0
 40
3.0
 40
4.0
 40
4.0
 40
4.0
 40
4.0
 10
99.09765486888879
 20
-157.5449055595721
 10
98.9708753550316
 20
-157.5449055595721
 10
98.86924503821672
 20
-157.4436197523058
 10
98.86924503821672
 20
-157.3164957289
 10
98.86924503821672
 20
-157.1897162150428
 10
98.9708753550316
 20
-157.0860188409368
 10
99.09765486888879
 20
-157.0860188409368
 10
99.22477889229451
 20
-157.0860188409368
 10
99.32847626640054
 20
-157.1897162150428
 10
99.32847626640054
 20
-157.3164957289
 10
99.32847626640054
 20
-157.4436197523058
 10
99.22477889229451
 20
-157.5449055595721
 10
99.09765486888879
 20
-157.5449055595721
 97
        0
 97
        1
330
E1
 92
        1
 93
        1
 72
     4
 94
        3
 73
     0
 74
     0
 95
       44
 96
       40
 40
0.0
 40
0.0
 40
0.0
 40
0.0
 40
1.0
 40
1.0
 40
1.0
 40
2.0
 40
2.0
 40
2.0
 40
3.0
 40
3.0
 40
3.0
 40
4.0
 40
4.0
 40
4.0
 40
5.0
 40
5.0
 40
5.0
 40
6.0
 40
6.0
 40
6.0
 40
7.0
 40
7.0
 40
7.0
 40
8.0
 40
8.0
 40
8.0
 40
9.0
 40
9.0
 40
9.0
 40
10.0
 40
10.0
 40
10.0
 40
11.0
 40
11.0
 40
11.0
 40
12.0
 40
12.0
 40
12.0
 40
13.0
 40
13.0
 40
13.0
 40
13.0
 10
98.88819306338561
 20
-157.7440320786196
 10
98.77622746011498
 20
-158.1119682764442
 10
98.72558455648182
 20
-158.2707871783142
 10
98.52886960427404
 20
-158.5202120914463
 10
98.34455699581317
 20
-158.7510334889581
 10
98.1078789359765
 20
-158.9370686451615
 10
97.82848169212275
 20
-159.0300862232633
 10
97.82848169212275
 20
-159.0300862232633
 10
97.63590085449727
 20
-158.8502522389332
 10
97.63590085449727
 20
-158.8502522389332
 10
98.27703312430228
 20
-158.6979790184852
 10
98.60707327178921
 20
-158.1415960976174
 10
98.67046302871781
 20
-157.701657404151
 10
98.67046302871781
 20
-157.701657404151
 10
97.90461830234676
 20
-157.701657404151
 10
97.90461830234676
 20
-157.701657404151
 10
97.81160072424503
 20
-157.701657404151
 10
97.62763262533269
 20
-157.7057915187333
 10
97.47088078075382
 20
-157.7247395439021
 10
97.47088078075382
 20
-157.7247395439021
 10
97.47088078075382
 20
-157.5049424519432
 10
97.47088078075382
 20
-157.5049424519432
 10
97.55769718698211
 20
-157.5259575344032
 10
97.80953366695387
 20
-157.5259575344032
 10
97.90875241692907
 20
-157.5259575344032
 10
97.90875241692907
 20
-157.5259575344032
 10
98.34042288123086
 20
-157.5259575344032
 10
98.34042288123086
 20
-157.5259575344032
 10
98.38279755569944
 20
-157.5259575344032
 10
98.61740855824496
 20
-157.5238904771121
 10
98.65564911813123
 20
-157.5176893052386
 10
98.69802379259979
 20
-157.5111436238167
 10
98.70009084989096
 20
-157.5090765665255
 10
98.7614135495284
 20
-157.4687689493481
 10
98.7614135495284
 20
-157.4687689493481
 10
98.94951576302304
 20
-157.6234537366358
 10
98.94951576302304
 20
-157.6234537366358
 10
98.92023245139842
 20
-157.6530815578089
 10
98.90541854081185
 20
-157.6847764362732
 10
98.88819306338561
 20
-157.7440320786196
 97
        0
 97
        1
330
E2
 75
     2
 76
     1
 98
        1
 10
0.0
 20
0.0
450
        0
451
        0
460
0.0
461
0.0
452
        0
462
0.0
453
        0
470

  0
ENDBLK
  5
D1
330
CE
100
AcDbEntity
  8
0
100
AcDbBlockEnd
  0
ENDSEC
  0
SECTION
  2
ENTITIES
  0
LWPOLYLINE
  5
79
330
70
100
AcDbEntity
  8
レイヤー 1
 62
    18
420
        0
370
    25
100
AcDbPolyline
 90
       10
 70
     1
 43
0.0
 10
104.6625709758955
 20
-158.6547778618249
 10
104.6625709758955
 20
-156.6548806401027
 10
103.8626156767725
 20
-156.6548806401027
 10
103.8626156767725
 20
-157.8548236594637
 10
101.4627707797514
 20
-157.8548236594637
 10
101.4627707797514
 20
-143.6545316353172
 10
115.6626090071556
 20
-143.6545316353172
 10
115.6626090071556
 20
-142.8545727668369
 10
100.6624626220171
 20
-142.8545727668369
 10
100.6624626220171
 20
-158.6547778618249
  0
HATCH
  5
7A
330
70
100
AcDbEntity
  8
レイヤー 1
 62
    18
420
        0
440
 33554687
100
AcDbHatch
 10
0.0
 20
0.0
 30
0.0
210
0.0
220
0.0
230
1.0
  2
SOLID
 70
     1
 71
     1
 91
        1
 92
        1
 93
       10
 72
     1
 10
104.6625709758955
 20
-158.6547778618249
 11
104.6625709758955
 21
-156.6548806401027
 72
     1
 10
104.6625709758955
 20
-156.6548806401027
 11
103.8626156767725
 21
-156.6548806401027
 72
     1
 10
103.8626156767725
 20
-156.6548806401027
 11
103.8626156767725
 21
-157.8548236594637
 72
     1
 10
103.8626156767725
 20
-157.8548236594637
 11
101.4627707797514
 21
-157.8548236594637
 72
     1
 10
101.4627707797514
 20
-157.8548236594637
 11
101.4627707797514
 21
-143.6545316353172
 72
     1
 10
101.4627707797514
 20
-143.6545316353172
 11
115.6626090071556
 21
-143.6545316353172
 72
     1
 10
115.6626090071556
 20
-143.6545316353172
 11
115.6626090071556
 21
-142.8545727668369
 72
     1
 10
115.6626090071556
 20
-142.8545727668369
 11
100.6624626220171
 21
-142.8545727668369
 72
     1
 10
100.6624626220171
 20
-142.8545727668369
 11
100.6624626220171
 21
-158.6547778618249
 72
     1
 10
100.6624626220171
 20
-158.6547778618249
 11
104.6625709758955
 21
-158.6547778618249
 97
        1
330
79
 75
     2
 76
     1
 98
        1
 10
0.0
 20
0.0
450
        0
451
        0
460
0.0
461
0.0
452
        0
462
0.0
453
        0
470

  0
SPLINE
  5
7B
330
70
100
AcDbEntity
  8
レイヤー 1
 62
    18
420
        0
370
     9
100
AcDbSpline
210
0.0
220
0.0
230
1.0
 70
     9
 71
     3
 72
    17
 73
    13
 74
     0
 42
0.0000000001
 43
0.0000000001
 40
0.0
 40
0.0
 40
0.0
 40
0.0
 40
1.0
 40
1.0
 40
1.0
 40
2.0
 40
2.0
 40
2.0
 40
3.0
 40
3.0
 40
3.0
 40
4.0
 40
4.0
 40
4.0
 40
4.0
 10
119.7624150541668
 20
-142.8545725019276
 30
0.0
 10
119.7624150541668
 20
-142.7994333366676
 30
0.0
 10
119.7176475553089
 20
-142.7546609342241
 30
0.0
 10
119.662508390049
 20
-142.7546609342241
 30
0.0
 10
119.6074053950589
 20
-142.7546609342241
 30
0.0
 10
119.5626026172922
 20
-142.7994333366676
 30
0.0
 10
119.5626026172922
 20
-142.8545725019276
 30
0.0
 10
119.5626026172922
 20
-142.9103819449482
 30
0.0
 10
119.6074053950589
 20
-142.9544791660454
 30
0.0
 10
119.662508390049
 20
-142.9544791660454
 30
0.0
 10
119.7176475553089
 20
-142.9544791660454
 30
0.0
 10
119.7624150541668
 20
-142.9103819449482
 30
0.0
 10
119.7624150541668
 20
-142.8545725019276
 30
0.0
  0
SPLINE
  5
7C
330
70
100
AcDbEntity
  8
レイヤー 1
 62
    18
420
        0
370
     9
100
AcDbSpline
210
0.0
220
0.0
230
1.0
 70
     9
 71
     3
 72
    17
 73
    13
 74
     0
 42
0.0000000001
 43
0.0000000001
 40
0.0
 40
0.0
 40
0.0
 40
0.0
 40
1.0
 40
1.0
 40
1.0
 40
2.0
 40
2.0
 40
2.0
 40
3.0
 40
3.0
 40
3.0
 40
4.0
 40
4.0
 40
4.0
 40
4.0
 10
119.7624150541668
 20
-143.6545313704078
 30
0.0
 10
119.7624150541668
 20
-143.5993922051478
 30
0.0
 10
119.7176475553089
 20
-143.55462470629
 30
0.0
 10
119.662508390049
 20
-143.55462470629
 30
0.0
 10
119.6074053950589
 20
-143.55462470629
 30
0.0
 10
119.5626026172922
 20
-143.5993922051478
 30
0.0
 10
119.5626026172922
 20
-143.6545313704078
 30
0.0
 10
119.5626026172922
 20
-143.7103359339849
 30
0.0
 10
119.6074053950589
 20
-143.7551083122863
 30
0.0
 10
119.662508390049
 20
-143.7551083122863
 30
0.0
 10
119.7176475553089
 20
-143.7551083122863
 30
0.0
 10
119.7624150541668
 20
-143.7103359339849
 30
0.0
 10
119.7624150541668
 20
-143.6545313704078
 30
0.0
  0
SPLINE
  5
7D
330
70
100
AcDbEntity
  8
レイヤー 1
 62
    18
420
        0
370
     9
100
AcDbSpline
210
0.0
220
0.0
230
1.0
 70
     9
 71
     3
 72
    17
 73
    13
 74
     0
 42
0.0000000001
 43
0.0000000001
 40
0.0
 40
0.0
 40
0.0
 40
0.0
 40
1.0
 40
1.0
 40
1.0
 40
2.0
 40
2.0
 40
2.0
 40
3.0
 40
3.0
 40
3.0
 40
4.0
 40
4.0
 40
4.0
 40
4.0
 10
115.7626920626861
 20
-138.8548134373036
 30
0.0
 10
115.7626920626861
 20
-138.7996692685458
 30
0.0
 10
115.7178854160735
 20
-138.7549067731854
 30
0.0
 10
115.6626090071556
 20
-138.7549067731854
 30
0.0
 10
115.6074659744461
 20
-138.7549067731854
 30
0.0
 10
115.5627023405146
 20
-138.7996692685458
 30
0.0
 10
115.5627023405146
 20
-138.8548134373036
 30
0.0
 10
115.5627023405146
 20
-138.9099173247863
 30
0.0
 10
115.6074659744461
 20
-138.9547201014211
 30
0.0
 10
115.6626090071556
 20
-138.9547201014211
 30
0.0
 10
115.7178854160735
 20
-138.9547201014211
 30
0.0
 10
115.7626920626861
 20
-138.9099173247863
 30
0.0
 10
115.7626920626861
 20
-138.8548134373036
 30
0.0
  0
SPLINE
  5
7E
330
70
100
AcDbEntity
  8
レイヤー 1
 62
    18
420
        0
370
     9
100
AcDbSpline
210
0.0
220
0.0
230
1.0
 70
     9
 71
     3
 72
    17
 73
    13
 74
     0
 42
0.0000000001
 43
0.0000000001
 40
0.0
 40
0.0
 40
0.0
 40
0.0
 40
1.0
 40
1.0
 40
1.0
 40
2.0
 40
2.0
 40
2.0
 40
3.0
 40
3.0
 40
3.0
 40
4.0
 40
4.0
 40
4.0
 40
4.0
 10
104.7628304177825
 20
-162.6545415925683
 30
0.0
 10
104.7628304177825
 20
-162.5994024273083
 30
0.0
 10
104.7180312321144
 20
-162.5546349284505
 30
0.0
 10
104.6625709758955
 20
-162.5546349284505
 30
0.0
 10
104.6074670884125
 20
-162.5546349284505
 30
0.0
 10
104.5626643117777
 20
-162.5994024273083
 30
0.0
 10
104.5626643117777
 20
-162.6545415925683
 30
0.0
 10
104.5626643117777
 20
-162.7096454800513
 30
0.0
 10
104.6074670884125
 20
-162.7544482566861
 30
0.0
 10
104.6625709758955
 20
-162.7544482566861
 30
0.0
 10
104.7180312321144
 20
-162.7544482566861
 30
0.0
 10
104.7628304177825
 20
-162.7096454800513
 30
0.0
 10
104.7628304177825
 20
-162.6545415925683
 30
0.0
  0
SPLINE
  5
7F
330
70
100
AcDbEntity
  8
レイヤー 1
 62
    18
420
        0
370
     9
100
AcDbSpline
210
0.0
220
0.0
230
1.0
 70
     9
 71
     3
 72
    17
 73
    13
 74
     0
 42
0.0000000001
 43
0.0000000001
 40
0.0
 40
0.0
 40
0.0
 40
0.0
 40
1.0
 40
1.0
 40
1.0
 40
2.0
 40
2.0
 40
2.0
 40
3.0
 40
3.0
 40
3.0
 40
4.0
 40
4.0
 40
4.0
 40
4.0
 10
119.7624150541668
 20
-158.6547778618249
 30
0.0
 10
119.7624150541668
 20
-158.599643362684
 30
0.0
 10
119.7176475553089
 20
-158.5548758638261
 30
0.0
 10
119.662508390049
 20
-158.5548758638261
 30
0.0
 10
119.6074053950589
 20
-158.5548758638261
 30
0.0
 10
119.5626026172922
 20
-158.599643362684
 30
0.0
 10
119.5626026172922
 20
-158.6547778618249
 30
0.0
 10
119.5626026172922
 20
-158.709886415427
 30
0.0
 10
119.6074053950589
 20
-158.7546891920618
 30
0.0
 10
119.662508390049
 20
-158.7546891920618
 30
0.0
 10
119.7176475553089
 20
-158.7546891920618
 30
0.0
 10
119.7624150541668
 20
-158.709886415427
 30
0.0
 10
119.7624150541668
 20
-158.6547778618249
 30
0.0
  0
SPLINE
  5
80
330
70
100
AcDbEntity
  8
レイヤー 1
 62
    18
420
        0
370
     9
100
AcDbSpline
210
0.0
220
0.0
230
1.0
 70
     9
 71
     3
 72
    17
 73
    13
 74
     0
 42
0.0000000001
 43
0.0000000001
 40
0.0
 40
0.0
 40
0.0
 40
0.0
 40
1.0
 40
1.0
 40
1.0
 40
2.0
 40
2.0
 40
2.0
 40
3.0
 40
3.0
 40
3.0
 40
4.0
 40
4.0
 40
4.0
 40
4.0
 10
119.7624150541668
 20
-156.6548806401027
 30
0.0
 10
119.7624150541668
 20
-156.5997814692603
 30
0.0
 10
119.7176475553089
 20
-156.5549786926255
 30
0.0
 10
119.662508390049
 20
-156.5549786926255
 30
0.0
 10
119.6074053950589
 20
-156.5549786926255
 30
0.0
 10
119.5626026172922
 20
-156.5997814692603
 30
0.0
 10
119.5626026172922
 20
-156.6548806401027
 30
0.0
 10
119.5626026172922
 20
-156.7100245220033
 30
0.0
 10
119.6074053950589
 20
-156.7547920208612
 30
0.0
 10
119.662508390049
 20
-156.7547920208612
 30
0.0
 10
119.7176475553089
 20
-156.7547920208612
 30
0.0
 10
119.7624150541668
 20
-156.7100245220033
 30
0.0
 10
119.7624150541668
 20
-156.6548806401027
 30
0.0
  0
SPLINE
  5
81
330
70
100
AcDbEntity
  8
レイヤー 1
 62
    18
420
        0
370
     9
100
AcDbSpline
210
0.0
220
0.0
230
1.0
 70
     9
 71
     3
 72
    17
 73
    13
 74
     0
 42
0.0000000001
 43
0.0000000001
 40
0.0
 40
0.0
 40
0.0
 40
0.0
 40
1.0
 40
1.0
 40
1.0
 40
2.0
 40
2.0
 40
2.0
 40
3.0
 40
3.0
 40
3.0
 40
4.0
 40
4.0
 40
4.0
 40
4.0
 10
100.7627220664359
 20
-138.8548134373036
 30
0.0
 10
100.7627220664359
 20
-138.7996692685458
 30
0.0
 10
100.7179510765312
 20
-138.7549067731854
 30
0.0
 10
100.6624626220171
 20
-138.7549067731854
 30
0.0
 10
100.6073552460194
 20
-138.7549067731854
 30
0.0
 10
100.5625559553749
 20
-138.7996692685458
 30
0.0
 10
100.5625559553749
 20
-138.8548134373036
 30
0.0
 10
100.5625559553749
 20
-138.9099173247863
 30
0.0
 10
100.6073552460194
 20
-138.9547201014211
 30
0.0
 10
100.6624626220171
 20
-138.9547201014211
 30
0.0
 10
100.7179510765312
 20
-138.9547201014211
 30
0.0
 10
100.7627220664359
 20
-138.9099173247863
 30
0.0
 10
100.7627220664359
 20
-138.8548134373036
 30
0.0
  0
SPLINE
  5
82
330
70
100
AcDbEntity
  8
レイヤー 1
 62
    18
420
        0
370
     9
100
AcDbSpline
210
0.0
220
0.0
230
1.0
 70
     9
 71
     3
 72
    17
 73
    13
 74
     0
 42
0.0000000001
 43
0.0000000001
 40
0.0
 40
0.0
 40
0.0
 40
0.0
 40
1.0
 40
1.0
 40
1.0
 40
2.0
 40
2.0
 40
2.0
 40
3.0
 40
3.0
 40
3.0
 40
4.0
 40
4.0
 40
4.0
 40
4.0
 10
100.7627220664359
 20
-162.6545415925683
 30
0.0
 10
100.7627220664359
 20
-162.5994024273083
 30
0.0
 10
100.7179510765312
 20
-162.5546349284505
 30
0.0
 10
100.6624626220171
 20
-162.5546349284505
 30
0.0
 10
100.6073552460194
 20
-162.5546349284505
 30
0.0
 10
100.5625559553749
 20
-162.5994024273083
 30
0.0
 10
100.5625559553749
 20
-162.6545415925683
 30
0.0
 10
100.5625559553749
 20
-162.7096454800513
 30
0.0
 10
100.6073552460194
 20
-162.7544482566861
 30
0.0
 10
100.6624626220171
 20
-162.7544482566861
 30
0.0
 10
100.7179510765312
 20
-162.7544482566861
 30
0.0
 10
100.7627220664359
 20
-162.7096454800513
 30
0.0
 10
100.7627220664359
 20
-162.6545415925683
 30
0.0
  0
LINE
  5
83
330
70
100
AcDbEntity
  8
レイヤー 1
 62
    18
420
        0
370
     9
100
AcDbLine
 10
119.662508390049
 20
-142.8545725019276
 30
0.0
 11
119.662508390049
 21
-137.5966668027346
 31
0.0
  0
LINE
  5
84
330
70
100
AcDbEntity
  8
レイヤー 1
 62
    18
420
        0
370
     9
100
AcDbLine
 10
119.662508390049
 20
-142.8545725019276
 30
0.0
 11
119.662508390049
 21
-143.6545313704078
 31
0.0
  0
LINE
  5
85
330
70
100
AcDbEntity
  8
レイヤー 1
 62
    18
420
        0
370
     9
100
AcDbLine
 10
118.2024992415746
 20
-142.8545725019276
 30
0.0
 11
120.6629861423024
 21
-142.8545725019276
 31
0.0
  0
LINE
  5
86
330
70
100
AcDbEntity
  8
レイヤー 1
 62
    18
420
        0
370
     9
100
AcDbLine
 10
118.2024992415746
 20
-143.6545313704078
 30
0.0
 11
120.6629861423024
 21
-143.6545313704078
 31
0.0
  0
LINE
  5
87
330
70
100
AcDbEntity
  8
レイヤー 1
 62
    18
420
        0
370
     9
100
AcDbLine
 10
119.662508390049
 20
-155.6547956600356
 30
0.0
 11
119.662508390049
 21
-158.6547778618249
 31
0.0
  0
LINE
  5
88
330
70
100
AcDbEntity
  8
レイヤー 1
 62
    18
420
        0
370
     9
100
AcDbLine
 10
107.2026451203818
 20
-158.6547778618249
 30
0.0
 11
120.6629861423024
 21
-158.6547778618249
 31
0.0
  0
LINE
  5
89
330
70
100
AcDbEntity
  8
レイヤー 1
 62
    18
420
        0
370
     9
100
AcDbLine
 10
100.6624626220171
 20
-162.6545415925683
 30
0.0
 11
104.6625709758955
 21
-162.6545415925683
 31
0.0
  0
LINE
  5
8A
330
70
100
AcDbEntity
  8
レイヤー 1
 62
    18
420
        0
370
     9
100
AcDbLine
 10
100.6624626220171
 20
-161.1945002409281
 30
0.0
 11
100.6624626220171
 21
-163.6542785115073
 31
0.0
  0
LINE
  5
8B
330
70
100
AcDbEntity
  8
レイヤー 1
 62
    18
420
        0
370
     9
100
AcDbLine
 10
104.6625709758955
 20
-161.1945002409281
 30
0.0
 11
104.6625709758955
 21
-163.6542785115073
 31
0.0
  0
LINE
  5
8C
330
70
100
AcDbEntity
  8
レイヤー 1
 62
    18
420
        0
370
     9
100
AcDbLine
 10
100.6624626220171
 20
-138.8548134373036
 30
0.0
 11
115.6626090071556
 21
-138.8548134373036
 31
0.0
  0
LINE
  5
8D
330
70
100
AcDbEntity
  8
レイヤー 1
 62
    18
420
        0
370
     9
100
AcDbLine
 10
100.6624626220171
 20
-140.3148498237226
 30
0.0
 11
100.6624626220171
 21
-137.8543356850498
 31
0.0
  0
LINE
  5
8E
330
70
100
AcDbEntity
  8
レイヤー 1
 62
    18
420
        0
370
     9
100
AcDbLine
 10
115.6626090071556
 20
-140.3148498237226
 30
0.0
 11
115.6626090071556
 21
-137.8543356850498
 31
0.0
  0
LINE
  5
8F
330
70
100
AcDbEntity
  8
レイヤー 1
 62
    18
420
        0
370
     9
100
AcDbLine
 10
119.662508390049
 20
-155.6547956600356
 30
0.0
 11
119.662508390049
 21
-143.6545316353172
 31
0.0
  0
LINE
  5
90
330
70
100
AcDbEntity
  8
レイヤー 1
 62
    18
420
        0
370
     9
100
AcDbLine
 10
107.2026451203818
 20
-156.6548806401027
 30
0.0
 11
120.6629861423024
 21
-156.6548806401027
 31
0.0
  0
INSERT
  5
92
330
70
100
AcDbEntity
  8
レイヤー 1
100
AcDbBlockReference
  2
Block_0
 10
0.0
 20
0.0
 30
0.0
  0
INSERT
  5
A3
330
70
100
AcDbEntity
  8
レイヤー 1
100
AcDbBlockReference
  2
Block_2
 10
0.0
 20
0.0
 30
0.0
  0
INSERT
  5
A9
330
70
100
AcDbEntity
  8
レイヤー 1
100
AcDbBlockReference
  2
Block_3
 10
0.0
 20
0.0
 30
0.0
  0
INSERT
  5
B0
330
70
100
AcDbEntity
  8
レイヤー 1
100
AcDbBlockReference
  2
Block_4
 10
0.0
 20
0.0
 30
0.0
  0
INSERT
  5
BC
330
70
100
AcDbEntity
  8
レイヤー 1
100
AcDbBlockReference
  2
Block_6
 10
0.0
 20
0.0
 30
0.0
  0
LINE
  5
C7
330
70
100
AcDbEntity
  8
レイヤー 1
 62
    18
420
        0
370
     9
100
AcDbLine
 10
99.86331494727727
 20
-151.2183932546543
 30
0.0
 11
98.99703385826683
 21
-151.718632130781
 31
0.0
  0
LINE
  5
C8
330
70
100
AcDbEntity
  8
レイヤー 1
 62
    18
420
        0
370
     9
100
AcDbLine
 10
99.86331494727727
 20
-151.2183932546543
 30
0.0
 11
94.34477703251133
 21
-156.7657178353524
 31
0.0
  0
LINE
  5
C9
330
70
100
AcDbEntity
  8
レイヤー 1
 62
    18
420
        0
370
     9
100
AcDbLine
 10
99.86331494727727
 20
-151.2183932546543
 30
0.0
 11
99.36289968226613
 21
-152.0844979547803
 31
0.0
  0
INSERT
  5
CB
330
70
100
AcDbEntity
  8
レイヤー 1
100
AcDbBlockReference
  2
Block_8
 10
0.0
 20
0.0
 30
0.0
  0
LINE
  5
E4
330
70
100
AcDbEntity
  8
レイヤー 1
  6
AI-Linetype-0
 62
   154
420
    23468
370
    25
100
AcDbLine
 10
100.0424554982625
 20
-143.1561865158938
 30
0.0
 11
100.0424554982625
 21
-151.15641020068
 31
0.0
  0
ENDSEC
  0
SECTION
  2
OBJECTS
  0
DICTIONARY
  5
C
330
0
100
AcDbDictionary
281
     1
  3
ACAD_COLOR
350
63
  3
ACAD_DETAILVIEWSTYLE
350
6A
  3
ACAD_GROUP
350
D
  3
ACAD_LAYOUT
350
62
  3
ACAD_MATERIAL
350
10
  3
ACAD_MLEADERSTYLE
350
66
  3
ACAD_MLINESTYLE
350
5F
  3
ACAD_PLOTSETTINGS
350
61
  3
ACAD_PLOTSTYLENAME
350
E
  3
ACAD_SCALELIST
350
42
  3
ACAD_SECTIONVIEWSTYLE
350
68
  3
ACAD_TABLESTYLE
350
64
  3
ACAD_VISUALSTYLE
350
29
  3
ACDB_RECOMPOSE_DATA
350
EE
  3
AcDbVariableDictionary
350
E6
  0
DICTIONARY
  5
63
102
{ACAD_REACTORS
330
C
102
}
330
C
100
AcDbDictionary
281
     1
  0
DICTIONARY
  5
6A
102
{ACAD_REACTORS
330
C
102
}
330
C
100
AcDbDictionary
281
     1
  3
Imperial24
350
6B
  0
DICTIONARY
  5
D
102
{ACAD_REACTORS
330
C
102
}
330
C
100
AcDbDictionary
281
     1
  0
DICTIONARY
  5
62
102
{ACAD_REACTORS
330
C
102
}
330
C
100
AcDbDictionary
281
     1
  3
Layout1
350
6F
  3
Layout2
350
77
  3
Model
350
73
  0
DICTIONARY
  5
10
102
{ACAD_REACTORS
330
C
102
}
330
C
100
AcDbDictionary
281
     1
  3
ByBlock
350
19
  3
ByLayer
350
11
  3
Global
350
21
  0
DICTIONARY
  5
66
102
{ACAD_REACTORS
330
C
102
}
330
C
100
AcDbDictionary
281
     1
  3
Standard
350
67
  0
DICTIONARY
  5
5F
102
{ACAD_REACTORS
330
C
102
}
330
C
100
AcDbDictionary
281
     1
  3
Standard
350
60
  0
DICTIONARY
  5
61
102
{ACAD_REACTORS
330
C
102
}
330
C
100
AcDbDictionary
281
     1
  0
ACDBDICTIONARYWDFLT
  5
E
102
{ACAD_REACTORS
330
C
102
}
330
C
100
AcDbDictionary
281
     1
  3
Normal
350
F
100
AcDbDictionaryWithDefault
340
F
  0
DICTIONARY
  5
42
102
{ACAD_REACTORS
330
C
102
}
330
C
100
AcDbDictionary
281
     1
  3
A0
350
43
  3
A1
350
44
  3
A2
350
45
  3
A3
350
46
  3
A4
350
47
  3
A5
350
48
  3
A6
350
49
  3
A7
350
4A
  3
A8
350
4B
  3
A9
350
4C
  3
B0
350
4D
  3
B1
350
4E
  3
B2
350
4F
  3
B3
350
50
  3
B4
350
51
  3
B5
350
52
  3
B6
350
53
  0
DICTIONARY
  5
68
102
{ACAD_REACTORS
330
C
102
}
330
C
100
AcDbDictionary
281
     1
  3
Imperial24
350
69
  0
DICTIONARY
  5
64
102
{ACAD_REACTORS
330
C
102
}
330
C
100
AcDbDictionary
281
     1
  3
Standard
350
65
  0
DICTIONARY
  5
29
102
{ACAD_REACTORS
330
C
102
}
330
C
100
AcDbDictionary
281
     1
  3
2dWireframe
350
2F
  3
Basic
350
2E
  3
Brighten
350
35
  3
ColorChange
350
39
  3
Conceptual
350
32
  3
Dim
350
34
  3
EdgeColorOff
350
41
  3
Facepattern
350
38
  3
Flat
350
2A
  3
FlatWithEdges
350
2B
  3
Gouraud
350
2C
  3
GouraudWithEdges
350
2D
  3
Hidden
350
31
  3
JitterOff
350
3F
  3
Linepattern
350
37
  3
OverhangOff
350
40
  3
Realistic
350
33
  3
Shaded
350
3E
  3
Shaded with edges
350
3D
  3
Shades of Gray
350
3A
  3
Sketchy
350
3B
  3
Thicken
350
36
  3
Wireframe
350
30
  3
X-Ray
350
3C
  0
XRECORD
  5
EE
102
{ACAD_REACTORS
330
C
102
}
330
C
100
AcDbXrecord
280
     1
 90
        1
330
65
  0
DICTIONARY
  5
E6
102
{ACAD_REACTORS
330
C
102
}
330
C
100
AcDbDictionary
281
     1
  3
CANNOSCALE
350
EB
  3
CMLEADERSTYLE
350
E8
  3
CTABLESTYLE
350
E7
  3
CVIEWDETAILSTYLE
350
E9
  3
CVIEWSECTIONSTYLE
350
EA
  0
ACDBDETAILVIEWSTYLE
  5
6B
102
{ACAD_XDICTIONARY
360
123
102
}
102
{ACAD_REACTORS
330
6A
102
}
330
6A
100
AcDbModelDocViewStyle
 70
     0
  3
Imperial24
290
     0
100
AcDbDetailViewStyle
 70
     0
 71
     0
 90
        3
 71
     1
340
55
 62
   256
 40
0.24
340
0
 62
   256
 40
0.24
300

 40
0.36
280
     3
 71
     2
340
5D
 90
       25
 62
   256
 71
     3
340
55
 62
   256
 40
0.24
 90
        1
 40
0.75
 90
        1
300
%<\AcVar ViewType \f "%tc1">% %<\AcVar ViewDetailId>%\PSCALE %<\AcVar ViewScale \f "%sn">%
 71
     4
340
5D
 90
       25
 62
   256
340
5D
 90
       25
 62
   256
280
     0
  0
LAYOUT
  5
6F
102
{ACAD_REACTORS
330
62
102
}
330
62
100
AcDbPlotSettings
  1

  2

  4

  6

 40
0.0
 41
0.0
 42
0.0
 43
0.0
 44
0.0
 45
0.0
 46
0.0
 47
0.0
 48
0.0
 49
0.0
140
0.0
141
0.0
142
1.0
143
1.0
 70
   688
 72
     0
 73
     0
 74
     5
  7

 75
    16
147
1.0
 76
     0
 77
     2
 78
   300
148
0.0
149
0.0
100
AcDbLayout
  1
Layout1
 70
     1
 71
     1
 10
0.0
 20
0.0
 11
12.0
 21
9.0
 12
0.0
 22
0.0
 32
0.0
 14
0.0
 24
0.0
 34
0.0
 15
0.0
 25
0.0
 35
0.0
146
0.0
 13
0.0
 23
0.0
 33
0.0
 16
1.0
 26
0.0
 36
0.0
 17
0.0
 27
1.0
 37
0.0
 76
     0
330
6C
  0
LAYOUT
  5
77
102
{ACAD_REACTORS
330
62
102
}
330
62
100
AcDbPlotSettings
  1

  2

  4

  6

 40
0.0
 41
0.0
 42
0.0
 43
0.0
 44
0.0
 45
0.0
 46
0.0
 47
0.0
 48
0.0
 49
0.0
140
0.0
141
0.0
142
1.0
143
1.0
 70
   688
 72
     0
 73
     0
 74
     5
  7

 75
    16
147
1.0
 76
     0
 77
     2
 78
   300
148
0.0
149
0.0
100
AcDbLayout
  1
Layout2
 70
     1
 71
     2
 10
0.0
 20
0.0
 11
12.0
 21
9.0
 12
0.0
 22
0.0
 32
0.0
 14
0.0
 24
0.0
 34
0.0
 15
0.0
 25
0.0
 35
0.0
146
0.0
 13
0.0
 23
0.0
 33
0.0
 16
1.0
 26
0.0
 36
0.0
 17
0.0
 27
1.0
 37
0.0
 76
     0
330
74
  0
LAYOUT
  5
73
102
{ACAD_REACTORS
330
62
102
}
330
62
100
AcDbPlotSettings
  1

  2

  4

  6

 40
0.0
 41
0.0
 42
0.0
 43
0.0
 44
0.0
 45
0.0
 46
0.0
 47
0.0
 48
0.0
 49
0.0
140
0.0
141
0.0
142
1.0
143
1.0
 70
  1712
 72
     0
 73
     0
 74
     0
  7

 75
     0
147
1.0
 76
     0
 77
     2
 78
   300
148
0.0
149
0.0
100
AcDbLayout
  1
Model
 70
     1
 71
     0
 10
0.0
 20
0.0
 11
12.0
 21
9.0
 12
0.0
 22
0.0
 32
0.0
 14
0.0
 24
0.0
 34
0.0
 15
0.0
 25
0.0
 35
0.0
146
0.0
 13
0.0
 23
0.0
 33
0.0
 16
1.0
 26
0.0
 36
0.0
 17
0.0
 27
1.0
 37
0.0
 76
     0
330
70
  0
MATERIAL
  5
19
102
{ACAD_XDICTIONARY
360
1A
102
}
102
{ACAD_REACTORS
330
10
102
}
330
10
100
AcDbMaterial
  1
ByBlock
 72
     0
 43
0.0208333333333333
 43
0.0
 43
0.0
 43
0.0
 43
0.0
 43
0.0208333333333333
 43
0.0
 43
0.0
 43
0.0
 43
0.0
 43
1.0
 43
0.0
 43
0.0
 43
0.0
 43
0.0
 43
1.0
 77
     0
 47
0.0208333333333333
 47
0.0
 47
0.0
 47
0.0
 47
0.0
 47
0.0208333333333333
 47
0.0
 47
0.0
 47
0.0
 47
0.0
 47
1.0
 47
0.0
 47
0.0
 47
0.0
 47
0.0
 47
1.0
171
     0
 49
0.0208333333333333
 49
0.0
 49
0.0
 49
0.0
 49
0.0
 49
0.0208333333333333
 49
0.0
 49
0.0
 49
0.0
 49
0.0
 49
1.0
 49
0.0
 49
0.0
 49
0.0
 49
0.0
 49
1.0
175
     0
142
0.0208333333333333
142
0.0
142
0.0
142
0.0
142
0.0
142
0.0208333333333333
142
0.0
142
0.0
142
0.0
142
0.0
142
1.0
142
0.0
142
0.0
142
0.0
142
0.0
142
1.0
179
     0
144
0.0208333333333333
144
0.0
144
0.0
144
0.0
144
0.0
144
0.0208333333333333
144
0.0
144
0.0
144
0.0
144
0.0
144
1.0
144
0.0
144
0.0
144
0.0
144
0.0
144
1.0
147
0.0208333333333333
147
0.0
147
0.0
147
0.0
147
0.0
147
0.0208333333333333
147
0.0
147
0.0
147
0.0
147
0.0
147
1.0
147
0.0
147
0.0
147
0.0
147
0.0
147
1.0
  0
MATERIAL
  5
11
102
{ACAD_XDICTIONARY
360
12
102
}
102
{ACAD_REACTORS
330
10
102
}
330
10
100
AcDbMaterial
  1
ByLayer
 72
     0
 43
0.0208333333333333
 43
0.0
 43
0.0
 43
0.0
 43
0.0
 43
0.0208333333333333
 43
0.0
 43
0.0
 43
0.0
 43
0.0
 43
1.0
 43
0.0
 43
0.0
 43
0.0
 43
0.0
 43
1.0
 77
     0
 47
0.0208333333333333
 47
0.0
 47
0.0
 47
0.0
 47
0.0
 47
0.0208333333333333
 47
0.0
 47
0.0
 47
0.0
 47
0.0
 47
1.0
 47
0.0
 47
0.0
 47
0.0
 47
0.0
 47
1.0
171
     0
 49
0.0208333333333333
 49
0.0
 49
0.0
 49
0.0
 49
0.0
 49
0.0208333333333333
 49
0.0
 49
0.0
 49
0.0
 49
0.0
 49
1.0
 49
0.0
 49
0.0
 49
0.0
 49
0.0
 49
1.0
175
     0
142
0.0208333333333333
142
0.0
142
0.0
142
0.0
142
0.0
142
0.0208333333333333
142
0.0
142
0.0
142
0.0
142
0.0
142
1.0
142
0.0
142
0.0
142
0.0
142
0.0
142
1.0
179
     0
144
0.0208333333333333
144
0.0
144
0.0
144
0.0
144
0.0
144
0.0208333333333333
144
0.0
144
0.0
144
0.0
144
0.0
144
1.0
144
0.0
144
0.0
144
0.0
144
0.0
144
1.0
147
0.0208333333333333
147
0.0
147
0.0
147
0.0
147
0.0
147
0.0208333333333333
147
0.0
147
0.0
147
0.0
147
0.0
147
1.0
147
0.0
147
0.0
147
0.0
147
0.0
147
1.0
  0
MATERIAL
  5
21
102
{ACAD_XDICTIONARY
360
22
102
}
102
{ACAD_REACTORS
330
10
102
}
330
10
100
AcDbMaterial
  1
Global
 72
     0
 43
0.0208333333333333
 43
0.0
 43
0.0
 43
0.0
 43
0.0
 43
0.0208333333333333
 43
0.0
 43
0.0
 43
0.0
 43
0.0
 43
1.0
 43
0.0
 43
0.0
 43
0.0
 43
0.0
 43
1.0
 77
     0
 47
0.0208333333333333
 47
0.0
 47
0.0
 47
0.0
 47
0.0
 47
0.0208333333333333
 47
0.0
 47
0.0
 47
0.0
 47
0.0
 47
1.0
 47
0.0
 47
0.0
 47
0.0
 47
0.0
 47
1.0
171
     0
 49
0.0208333333333333
 49
0.0
 49
0.0
 49
0.0
 49
0.0
 49
0.0208333333333333
 49
0.0
 49
0.0
 49
0.0
 49
0.0
 49
1.0
 49
0.0
 49
0.0
 49
0.0
 49
0.0
 49
1.0
175
     0
142
0.0208333333333333
142
0.0
142
0.0
142
0.0
142
0.0
142
0.0208333333333333
142
0.0
142
0.0
142
0.0
142
0.0
142
1.0
142
0.0
142
0.0
142
0.0
142
0.0
142
1.0
179
     0
144
0.0208333333333333
144
0.0
144
0.0
144
0.0
144
0.0
144
0.0208333333333333
144
0.0
144
0.0
144
0.0
144
0.0
144
1.0
144
0.0
144
0.0
144
0.0
144
0.0
144
1.0
147
0.0208333333333333
147
0.0
147
0.0
147
0.0
147
0.0
147
0.0208333333333333
147
0.0
147
0.0
147
0.0
147
0.0
147
1.0
147
0.0
147
0.0
147
0.0
147
0.0
147
1.0
  0
MLEADERSTYLE
  5
67
102
{ACAD_XDICTIONARY
360
11F
102
}
102
{ACAD_REACTORS
330
66
102
}
330
66
100
AcDbMLeaderStyle
179
     2
170
     2
171
     1
172
     0
 90
        2
 40
0.0
 41
0.0
173
     1
 91
-1056964608
340
5B
 92
       -2
290
     1
 42
0.09
291
     1
 43
0.36
  3
Standard
 44
0.18
300

342
55
174
     1
178
     6
175
     1
176
     0
 93
-1056964608
 45
0.18
292
     0
297
     0
 46
0.18
 94
-1056964608
 47
1.0
 49
1.0
140
1.0
293
     1
141
0.0
294
     1
177
     0
142
1.0
295
     0
296
     0
143
0.125
271
     0
272
     9
273
     9
  0
MLINESTYLE
  5
60
102
{ACAD_REACTORS
330
5F
102
}
330
5F
100
AcDbMlineStyle
  2
STANDARD
 70
     0
  3

 62
   256
 51
90.0
 52
90.0
 71
     2
 49
0.5
 62
   256
  6
BYLAYER
 49
-0.5
 62
   256
  6
BYLAYER
  0
ACDBPLACEHOLDER
  5
F
102
{ACAD_REACTORS
330
E
102
}
330
E
  0
SCALE
  5
43
102
{ACAD_REACTORS
330
42
102
}
330
42
100
AcDbScale
 70
     0
300
1:1
140
1.0
141
1.0
290
     1
  0
SCALE
  5
44
102
{ACAD_REACTORS
330
42
102
}
330
42
100
AcDbScale
 70
     0
300
1/128" = 1'-0"
140
0.0078125
141
12.0
290
     0
  0
SCALE
  5
45
102
{ACAD_REACTORS
330
42
102
}
330
42
100
AcDbScale
 70
     0
300
1/64" = 1'-0"
140
0.015625
141
12.0
290
     0
  0
SCALE
  5
46
102
{ACAD_REACTORS
330
42
102
}
330
42
100
AcDbScale
 70
     0
300
1/32" = 1'-0"
140
0.03125
141
12.0
290
     0
  0
SCALE
  5
47
102
{ACAD_REACTORS
330
42
102
}
330
42
100
AcDbScale
 70
     0
300
1/16" = 1'-0"
140
0.0625
141
12.0
290
     0
  0
SCALE
  5
48
102
{ACAD_REACTORS
330
42
102
}
330
42
100
AcDbScale
 70
     0
300
3/32" = 1'-0"
140
0.09375
141
12.0
290
     0
  0
SCALE
  5
49
102
{ACAD_REACTORS
330
42
102
}
330
42
100
AcDbScale
 70
     0
300
1/8" = 1'-0"
140
0.125
141
12.0
290
     0
  0
SCALE
  5
4A
102
{ACAD_REACTORS
330
42
102
}
330
42
100
AcDbScale
 70
     0
300
3/16" = 1'-0"
140
0.1875
141
12.0
290
     0
  0
SCALE
  5
4B
102
{ACAD_REACTORS
330
42
102
}
330
42
100
AcDbScale
 70
     0
300
1/4" = 1'-0"
140
0.25
141
12.0
290
     0
  0
SCALE
  5
4C
102
{ACAD_REACTORS
330
42
102
}
330
42
100
AcDbScale
 70
     0
300
3/8" = 1'-0"
140
0.375
141
12.0
290
     0
  0
SCALE
  5
4D
102
{ACAD_REACTORS
330
42
102
}
330
42
100
AcDbScale
 70
     0
300
1/2" = 1'-0"
140
0.5
141
12.0
290
     0
  0
SCALE
  5
4E
102
{ACAD_REACTORS
330
42
102
}
330
42
100
AcDbScale
 70
     0
300
3/4" = 1'-0"
140
0.75
141
12.0
290
     0
  0
SCALE
  5
4F
102
{ACAD_REACTORS
330
42
102
}
330
42
100
AcDbScale
 70
     0
300
1" = 1'-0"
140
1.0
141
12.0
290
     0
  0
SCALE
  5
50
102
{ACAD_REACTORS
330
42
102
}
330
42
100
AcDbScale
 70
     0
300
1-1/2" = 1'-0"
140
1.5
141
12.0
290
     0
  0
SCALE
  5
51
102
{ACAD_REACTORS
330
42
102
}
330
42
100
AcDbScale
 70
     0
300
3" = 1'-0"
140
3.0
141
12.0
290
     0
  0
SCALE
  5
52
102
{ACAD_REACTORS
330
42
102
}
330
42
100
AcDbScale
 70
     0
300
6" = 1'-0"
140
6.0
141
12.0
290
     0
  0
SCALE
  5
53
102
{ACAD_REACTORS
330
42
102
}
330
42
100
AcDbScale
 70
     0
300
1'-0" = 1'-0"
140
12.0
141
12.0
290
     0
  0
ACDBSECTIONVIEWSTYLE
  5
69
102
{ACAD_XDICTIONARY
360
121
102
}
102
{ACAD_REACTORS
330
68
102
}
330
68
100
AcDbModelDocViewStyle
 70
     0
  3
Imperial24
290
     0
100
AcDbSectionViewStyle
 70
     0
 71
     0
 90
       78
 71
     1
340
55
 62
   256
 40
0.24
340
0
340
0
 62
   256
 40
0.24
300
I, O, Q, S, X, Z
 40
0.48
 90
        3
 40
0.18
 90
        1
 71
     2
340
5D
 90
       25
 62
   256
340
5D
 90
       50
 62
   256
 40
0.24
 40
0.0
 40
0.24
 71
     3
340
55
 62
   256
 40
0.24
 90
        1
 40
0.75
 90
        1
300
%<\AcVar ViewType \f "%tc1">% %<\AcVar ViewSectionStartId>%-%<\AcVar ViewSectionEndId>%\PSCALE %<\AcVar ViewScale \f "%sn">%
 71
     4
 62
   256
 62
   257
300
ANSI31
 40
1.0
 90
        0
290
     0
290
     0
 90
        6
 40
0.0
 40
1.570796326794896
 40
0.2617993877991494
 40
1.308996938995747
 40
-0.2617993877991494
 40
1.832595714594046
  0
TABLESTYLE
  5
65
102
{ACAD_XDICTIONARY
360
EC
102
}
102
{ACAD_REACTORS
330
64
102
}
330
64
100
AcDbTableStyle
280
     0
  3
Standard
 70
     0
 71
     0
 40
0.06
 41
0.06
280
     0
281
     0
  7
Standard
140
0.18
170
     2
 62
     0
 63
     7
283
     0
 90
      512
 91
        0
  1

274
    -2
284
     1
 64
     0
275
    -2
285
     1
 65
     0
276
    -2
286
     1
 66
     0
277
    -2
287
     1
 67
     0
278
    -2
288
     1
 68
     0
279
    -2
289
     1
 69
     0
  7
Standard
140
0.25
170
     5
 62
     0
 63
     7
283
     0
 90
      512
 91
        0
  1

274
    -2
284
     1
 64
     0
275
    -2
285
     1
 65
     0
276
    -2
286
     1
 66
     0
277
    -2
287
     1
 67
     0
278
    -2
288
     1
 68
     0
279
    -2
289
     1
 69
     0
  7
Standard
140
0.18
170
     5
 62
     0
 63
     7
283
     0
 90
      512
 91
        0
  1

274
    -2
284
     1
 64
     0
275
    -2
285
     1
 65
     0
276
    -2
286
     1
 66
     0
277
    -2
287
     1
 67
     0
278
    -2
288
     1
 68
     0
279
    -2
289
     1
 69
     0
  0
VISUALSTYLE
  5
2F
102
{ACAD_XDICTIONARY
360
F9
102
}
102
{ACAD_REACTORS
330
29
102
}
330
29
100
AcDbVisualStyle
  2
2dWireframe
 70
     4
177
     2
291
     0
 71
     0
176
     1
 72
     2
176
     1
 73
     0
176
     1
 90
        0
176
     1
 40
0.6
176
     1
 41
30.0
176
     1
 63
     7
421
 16777215
176
     1
 74
     1
176
     1
 91
        4
176
     1
 64
     7
176
     1
 65
   257
176
     1
 75
     1
176
     1
175
     1
176
     1
 42
1.0
176
     1
 92
        0
176
     1
 66
   257
176
     1
 43
1.0
176
     1
 76
     1
176
     1
 77
     6
176
     1
 78
     2
176
     1
 67
     7
176
     1
 79
     5
176
     1
170
     0
176
     1
171
     0
176
     1
290
     0
176
     1
 93
        1
176
     1
 44
0.0
176
     1
173
     0
176
     1
1001
ACAD
1000
AcDbSavedByObjectVersion
1070
     0
  0
VISUALSTYLE
  5
2E
102
{ACAD_XDICTIONARY
360
F7
102
}
102
{ACAD_REACTORS
330
29
102
}
330
29
100
AcDbVisualStyle
  2
Basic
 70
     7
177
     2
291
     1
 71
     1
176
     1
 72
     0
176
     1
 73
     1
176
     1
 90
        0
176
     1
 40
0.6
176
     1
 41
30.0
176
     1
 63
     7
421
 16777215
176
     1
 74
     0
176
     1
 91
        4
176
     1
 64
     7
176
     1
 65
   257
176
     1
 75
     1
176
     1
175
     1
176
     1
 42
1.0
176
     1
 92
        8
176
     1
 66
     7
176
     1
 43
1.0
176
     1
 76
     1
176
     1
 77
     6
176
     1
 78
     2
176
     1
 67
     7
176
     1
 79
     5
176
     1
170
     0
176
     1
171
     0
176
     1
290
     0
176
     1
 93
        1
176
     1
 44
0.0
176
     1
173
     0
176
     1
1001
ACAD
1000
AcDbSavedByObjectVersion
1070
     0
  0
VISUALSTYLE
  5
35
102
{ACAD_XDICTIONARY
360
105
102
}
102
{ACAD_REACTORS
330
29
102
}
330
29
100
AcDbVisualStyle
  2
Brighten
 70
    12
177
     2
291
     1
 71
     2
176
     1
 72
     2
176
     1
 73
     0
176
     1
 90
        0
176
     1
 40
0.6
176
     1
 41
30.0
176
     1
 63
     7
421
 16777215
176
     1
 74
     1
176
     1
 91
        4
176
     1
 64
     7
176
     1
 65
   257
176
     1
 75
     1
176
     1
175
     1
176
     1
 42
1.0
176
     1
 92
        8
176
     1
 66
     7
176
     1
 43
1.0
176
     1
 76
     1
176
     1
 77
     6
176
     1
 78
     2
176
     1
 67
     7
176
     1
 79
     5
176
     1
170
     0
176
     1
171
     0
176
     1
290
     0
176
     1
 93
        1
176
     1
 44
50.0
176
     1
173
     0
176
     1
1001
ACAD
1000
AcDbSavedByObjectVersion
1070
     0
  0
VISUALSTYLE
  5
39
102
{ACAD_XDICTIONARY
360
10D
102
}
102
{ACAD_REACTORS
330
29
102
}
330
29
100
AcDbVisualStyle
  2
ColorChange
 70
    16
177
     2
291
     1
 71
     2
176
     1
 72
     2
176
     1
 73
     3
176
     1
 90
        0
176
     1
 40
0.6
176
     1
 41
30.0
176
     1
 63
     8
421
  8421504
176
     1
 74
     1
176
     1
 91
        4
176
     1
 64
     7
176
     1
 65
   257
176
     1
 75
     1
176
     1
175
     1
176
     1
 42
1.0
176
     1
 92
        8
176
     1
 66
     8
424
  8421504
176
     1
 43
1.0
176
     1
 76
     1
176
     1
 77
     6
176
     1
 78
     2
176
     1
 67
     7
176
     1
 79
     5
176
     1
170
     0
176
     1
171
     0
176
     1
290
     0
176
     1
 93
        1
176
     1
 44
0.0
176
     1
173
     0
176
     1
1001
ACAD
1000
AcDbSavedByObjectVersion
1070
     0
  0
VISUALSTYLE
  5
32
102
{ACAD_XDICTIONARY
360
FF
102
}
102
{ACAD_REACTORS
330
29
102
}
330
29
100
AcDbVisualStyle
  2
Conceptual
 70
     9
177
     2
291
     0
 71
     3
176
     1
 72
     2
176
     1
 73
     0
176
     1
 90
        0
176
     1
 40
0.6
176
     1
 41
30.0
176
     1
 63
     7
421
 16777215
176
     1
 74
     2
176
     1
 91
        2
176
     1
 64
     7
176
     1
 65
   257
176
     1
 75
     1
176
     1
175
     1
176
     1
 42
179.0
176
     1
 92
        8
176
     1
 66
     7
176
     1
 43
1.0
176
     1
 76
     1
176
     1
 77
     6
176
     1
 78
     2
176
     1
 67
     7
176
     1
 79
     3
176
     1
170
     0
176
     1
171
     0
176
     1
290
     0
176
     1
 93
        1
176
     1
 44
0.0
176
     1
173
     0
176
     1
1001
ACAD
1000
AcDbSavedByObjectVersion
1070
     0
  0
VISUALSTYLE
  5
34
102
{ACAD_XDICTIONARY
360
103
102
}
102
{ACAD_REACTORS
330
29
102
}
330
29
100
AcDbVisualStyle
  2
Dim
 70
    11
177
     2
291
     1
 71
     2
176
     1
 72
     2
176
     1
 73
     0
176
     1
 90
        0
176
     1
 40
0.6
176
     1
 41
30.0
176
     1
 63
     7
421
 16777215
176
     1
 74
     1
176
     1
 91
        4
176
     1
 64
     7
176
     1
 65
   257
176
     1
 75
     1
176
     1
175
     1
176
     1
 42
1.0
176
     1
 92
        8
176
     1
 66
     7
176
     1
 43
1.0
176
     1
 76
     1
176
     1
 77
     6
176
     1
 78
     2
176
     1
 67
     7
176
     1
 79
     5
176
     1
170
     0
176
     1
171
     0
176
     1
290
     0
176
     1
 93
        1
176
     1
 44
-50.0
176
     1
173
     0
176
     1
1001
ACAD
1000
AcDbSavedByObjectVersion
1070
     0
  0
VISUALSTYLE
  5
41
102
{ACAD_XDICTIONARY
360
11D
102
}
102
{ACAD_REACTORS
330
29
102
}
330
29
100
AcDbVisualStyle
  2
EdgeColorOff
 70
    22
177
     2
291
     1
 71
     2
176
     0
 72
     2
176
     0
 73
     0
176
     0
 90
        0
176
     0
 40
0.6
176
     0
 41
30.0
176
     0
 63
     7
421
 16777215
176
     0
 74
     1
176
     0
 91
        4
176
     0
 64
     7
176
     0
 65
   257
176
     0
 75
     1
176
     0
175
     1
176
     0
 42
1.0
176
     0
 92
        8
176
     2
 66
     7
176
     0
 43
1.0
176
     0
 76
     1
176
     0
 77
     6
176
     0
 78
     2
176
     0
 67
     7
176
     0
 79
     5
176
     0
170
     0
176
     0
171
     0
176
     0
290
     0
176
     0
 93
        1
176
     0
 44
0.0
176
     0
173
     0
176
     0
1001
ACAD
1000
AcDbSavedByObjectVersion
1070
     0
  0
VISUALSTYLE
  5
38
102
{ACAD_XDICTIONARY
360
10B
102
}
102
{ACAD_REACTORS
330
29
102
}
330
29
100
AcDbVisualStyle
  2
Facepattern
 70
    15
177
     2
291
     1
 71
     2
176
     1
 72
     2
176
     1
 73
     0
176
     1
 90
        0
176
     1
 40
0.6
176
     1
 41
30.0
176
     1
 63
     7
421
 16777215
176
     1
 74
     1
176
     1
 91
        4
176
     1
 64
     7
176
     1
 65
   257
176
     1
 75
     1
176
     1
175
     1
176
     1
 42
1.0
176
     1
 92
        8
176
     1
 66
     7
176
     1
 43
1.0
176
     1
 76
     1
176
     1
 77
     6
176
     1
 78
     2
176
     1
 67
     7
176
     1
 79
     5
176
     1
170
     0
176
     1
171
     0
176
     1
290
     0
176
     1
 93
        1
176
     1
 44
0.0
176
     1
173
     0
176
     1
1001
ACAD
1000
AcDbSavedByObjectVersion
1070
     0
  0
VISUALSTYLE
  5
2A
102
{ACAD_XDICTIONARY
360
EF
102
}
102
{ACAD_REACTORS
330
29
102
}
330
29
100
AcDbVisualStyle
  2
Flat
 70
     0
177
     2
291
     1
 71
     2
176
     1
 72
     1
176
     1
 73
     1
176
     1
 90
        2
176
     1
 40
0.6
176
     1
 41
30.0
176
     1
 63
     7
421
 16777215
176
     1
 74
     0
176
     1
 91
        0
176
     1
 64
     7
176
     1
 65
   257
176
     1
 75
     1
176
     1
175
     1
176
     1
 42
1.0
176
     1
 92
        8
176
     1
 66
     7
176
     1
 43
1.0
176
     1
 76
     1
176
     1
 77
     6
176
     1
 78
     2
176
     1
 67
     7
176
     1
 79
     5
176
     1
170
     0
176
     1
171
     0
176
     1
290
     0
176
     1
 93
       13
176
     1
 44
0.0
176
     1
173
     0
176
     1
1001
ACAD
1000
AcDbSavedByObjectVersion
1070
     0
  0
VISUALSTYLE
  5
2B
102
{ACAD_XDICTIONARY
360
F1
102
}
102
{ACAD_REACTORS
330
29
102
}
330
29
100
AcDbVisualStyle
  2
FlatWithEdges
 70
     1
177
     2
291
     1
 71
     2
176
     1
 72
     1
176
     1
 73
     1
176
     1
 90
        2
176
     1
 40
0.6
176
     1
 41
30.0
176
     1
 63
     7
421
 16777215
176
     1
 74
     1
176
     1
 91
        0
176
     1
 64
     7
176
     1
 65
   257
176
     1
 75
     1
176
     1
175
     1
176
     1
 42
1.0
176
     1
 92
        0
176
     1
 66
   257
176
     1
 43
1.0
176
     1
 76
     1
176
     1
 77
     6
176
     1
 78
     2
176
     1
 67
     7
176
     1
 79
     5
176
     1
170
     0
176
     1
171
     0
176
     1
290
     0
176
     1
 93
       13
176
     1
 44
0.0
176
     1
173
     0
176
     1
1001
ACAD
1000
AcDbSavedByObjectVersion
1070
     0
  0
VISUALSTYLE
  5
2C
102
{ACAD_XDICTIONARY
360
F3
102
}
102
{ACAD_REACTORS
330
29
102
}
330
29
100
AcDbVisualStyle
  2
Gouraud
 70
     2
177
     2
291
     1
 71
     2
176
     1
 72
     2
176
     1
 73
     1
176
     1
 90
        2
176
     1
 40
0.6
176
     1
 41
30.0
176
     1
 63
     7
421
 16777215
176
     1
 74
     0
176
     1
 91
        0
176
     1
 64
     7
176
     1
 65
   257
176
     1
 75
     1
176
     1
175
     1
176
     1
 42
1.0
176
     1
 92
        0
176
     1
 66
     7
176
     1
 43
1.0
176
     1
 76
     1
176
     1
 77
     6
176
     1
 78
     2
176
     1
 67
     7
176
     1
 79
     5
176
     1
170
     0
176
     1
171
     0
176
     1
290
     0
176
     1
 93
       13
176
     1
 44
0.0
176
     1
173
     0
176
     1
1001
ACAD
1000
AcDbSavedByObjectVersion
1070
     0
  0
VISUALSTYLE
  5
2D
102
{ACAD_XDICTIONARY
360
F5
102
}
102
{ACAD_REACTORS
330
29
102
}
330
29
100
AcDbVisualStyle
  2
GouraudWithEdges
 70
     3
177
     2
291
     1
 71
     2
176
     1
 72
     2
176
     1
 73
     1
176
     1
 90
        2
176
     1
 40
0.6
176
     1
 41
30.0
176
     1
 63
     7
421
 16777215
176
     1
 74
     1
176
     1
 91
        0
176
     1
 64
     7
176
     1
 65
   257
176
     1
 75
     1
176
     1
175
     1
176
     1
 42
1.0
176
     1
 92
        0
176
     1
 66
   257
176
     1
 43
1.0
176
     1
 76
     1
176
     1
 77
     6
176
     1
 78
     2
176
     1
 67
     7
176
     1
 79
     5
176
     1
170
     0
176
     1
171
     0
176
     1
290
     0
176
     1
 93
       13
176
     1
 44
0.0
176
     1
173
     0
176
     1
1001
ACAD
1000
AcDbSavedByObjectVersion
1070
     0
  0
VISUALSTYLE
  5
31
102
{ACAD_XDICTIONARY
360
FD
102
}
102
{ACAD_REACTORS
330
29
102
}
330
29
100
AcDbVisualStyle
  2
Hidden
 70
     6
177
     2
291
     0
 71
     1
176
     1
 72
     2
176
     1
 73
     2
176
     1
 90
        0
176
     1
 40
0.6
176
     1
 41
30.0
176
     1
 63
     7
421
 16777215
176
     1
 74
     2
176
     1
 91
        2
176
     1
 64
     7
176
     1
 65
   257
176
     1
 75
     2
176
     1
175
     1
176
     1
 42
40.0
176
     1
 92
        0
176
     1
 66
   257
176
     1
 43
1.0
176
     1
 76
     1
176
     1
 77
     6
176
     1
 78
     2
176
     1
 67
     7
176
     1
 79
     3
176
     1
170
     0
176
     1
171
     0
176
     1
290
     0
176
     1
 93
        1
176
     1
 44
0.0
176
     1
173
     0
176
     1
1001
ACAD
1000
AcDbSavedByObjectVersion
1070
     0
  0
VISUALSTYLE
  5
3F
102
{ACAD_XDICTIONARY
360
119
102
}
102
{ACAD_REACTORS
330
29
102
}
330
29
100
AcDbVisualStyle
  2
JitterOff
 70
    20
177
     2
291
     1
 71
     2
176
     0
 72
     2
176
     0
 73
     0
176
     0
 90
        0
176
     0
 40
0.6
176
     0
 41
30.0
176
     0
 63
     7
421
 16777215
176
     0
 74
     1
176
     0
 91
        4
176
     0
 64
     7
176
     0
 65
   257
176
     0
 75
     1
176
     0
175
     1
176
     0
 42
1.0
176
     0
 92
       10
176
     2
 66
     7
176
     0
 43
1.0
176
     0
 76
     1
176
     0
 77
     6
176
     0
 78
     2
176
     0
 67
     7
176
     0
 79
     5
176
     0
170
     0
176
     0
171
     0
176
     0
290
     0
176
     0
 93
        1
176
     0
 44
0.0
176
     0
173
     0
176
     0
1001
ACAD
1000
AcDbSavedByObjectVersion
1070
     0
  0
VISUALSTYLE
  5
37
102
{ACAD_XDICTIONARY
360
109
102
}
102
{ACAD_REACTORS
330
29
102
}
330
29
100
AcDbVisualStyle
  2
Linepattern
 70
    14
177
     2
291
     1
 71
     2
176
     1
 72
     2
176
     1
 73
     0
176
     1
 90
        0
176
     1
 40
0.6
176
     1
 41
30.0
176
     1
 63
     7
421
 16777215
176
     1
 74
     1
176
     1
 91
        4
176
     1
 64
     7
176
     1
 65
   257
176
     1
 75
     7
176
     1
175
     7
176
     1
 42
1.0
176
     1
 92
        8
176
     1
 66
     7
176
     1
 43
1.0
176
     1
 76
     1
176
     1
 77
     6
176
     1
 78
     2
176
     1
 67
     7
176
     1
 79
     5
176
     1
170
     0
176
     1
171
     0
176
     1
290
     0
176
     1
 93
        1
176
     1
 44
0.0
176
     1
173
     0
176
     1
1001
ACAD
1000
AcDbSavedByObjectVersion
1070
     0
  0
VISUALSTYLE
  5
40
102
{ACAD_XDICTIONARY
360
11B
102
}
102
{ACAD_REACTORS
330
29
102
}
330
29
100
AcDbVisualStyle
  2
OverhangOff
 70
    21
177
     2
291
     1
 71
     2
176
     0
 72
     2
176
     0
 73
     0
176
     0
 90
        0
176
     0
 40
0.6
176
     0
 41
30.0
176
     0
 63
     7
421
 16777215
176
     0
 74
     1
176
     0
 91
        4
176
     0
 64
     7
176
     0
 65
   257
176
     0
 75
     1
176
     0
175
     1
176
     0
 42
1.0
176
     0
 92
        9
176
     2
 66
     7
176
     0
 43
1.0
176
     0
 76
     1
176
     0
 77
     6
176
     0
 78
     2
176
     0
 67
     7
176
     0
 79
     5
176
     0
170
     0
176
     0
171
     0
176
     0
290
     0
176
     0
 93
        1
176
     0
 44
0.0
176
     0
173
     0
176
     0
1001
ACAD
1000
AcDbSavedByObjectVersion
1070
     0
  0
VISUALSTYLE
  5
33
102
{ACAD_XDICTIONARY
360
101
102
}
102
{ACAD_REACTORS
330
29
102
}
330
29
100
AcDbVisualStyle
  2
Realistic
 70
     8
177
     2
291
     0
 71
     2
176
     1
 72
     3
176
     1
 73
     0
176
     1
 90
        2
176
     1
 40
0.6
176
     1
 41
30.0
176
     1
 63
     7
421
 16777215
176
     1
 74
     0
176
     1
 91
        0
176
     1
 64
     7
176
     1
 65
   257
176
     1
 75
     1
176
     1
175
     1
176
     1
 42
1.0
176
     1
 92
        8
176
     1
 66
   257
176
     1
 43
1.0
176
     1
 76
     1
176
     1
 77
     6
176
     1
 78
     2
176
     1
 67
     7
176
     1
 79
     3
176
     1
170
     0
176
     1
171
     0
176
     1
290
     0
176
     1
 93
       13
176
     1
 44
0.0
176
     1
173
     0
176
     1
1001
ACAD
1000
AcDbSavedByObjectVersion
1070
     0
  0
VISUALSTYLE
  5
3E
102
{ACAD_XDICTIONARY
360
117
102
}
102
{ACAD_REACTORS
330
29
102
}
330
29
100
AcDbVisualStyle
  2
Shaded
 70
    27
177
     2
291
     0
 71
     2
176
     1
 72
     2
176
     1
 73
     1
176
     1
 90
        2
176
     1
 40
0.6
176
     1
 41
30.0
176
     1
 63
     7
421
 16777215
176
     1
 74
     0
176
     1
 91
        4
176
     1
 64
     7
176
     1
 65
   257
176
     1
 75
     1
176
     1
175
     1
176
     1
 42
1.0
176
     1
 92
        8
176
     1
 66
   257
176
     1
 43
1.0
176
     1
 76
     1
176
     1
 77
     6
176
     1
 78
     2
176
     1
 67
     8
425
  7895160
176
     1
 79
     3
176
     1
170
     0
176
     1
171
     0
176
     1
290
     0
176
     1
 93
        5
176
     1
 44
0.0
176
     1
173
     0
176
     1
1001
ACAD
1000
AcDbSavedByObjectVersion
1070
     0
  0
VISUALSTYLE
  5
3D
102
{ACAD_XDICTIONARY
360
115
102
}
102
{ACAD_REACTORS
330
29
102
}
330
29
100
AcDbVisualStyle
  2
Shaded with edges
 70
    26
177
     2
291
     0
 71
     2
176
     1
 72
     2
176
     1
 73
     1
176
     1
 90
        2
176
     1
 40
0.6
176
     1
 41
30.0
176
     1
 63
     7
421
 16777215
176
     1
 74
     1
176
     1
 91
        2
176
     1
 64
     7
176
     1
 65
   257
176
     1
 75
     2
176
     1
175
     1
176
     1
 42
1.0
176
     1
 92
        8
176
     1
 66
   257
176
     1
 43
1.0
176
     1
 76
     1
176
     1
 77
     6
176
     1
 78
     2
176
     1
 67
     7
176
     1
 79
     3
176
     1
170
     0
176
     1
171
     0
176
     1
290
     0
176
     1
 93
        5
176
     1
 44
0.0
176
     1
173
     0
176
     1
1001
ACAD
1000
AcDbSavedByObjectVersion
1070
     0
  0
VISUALSTYLE
  5
3A
102
{ACAD_XDICTIONARY
360
10F
102
}
102
{ACAD_REACTORS
330
29
102
}
330
29
100
AcDbVisualStyle
  2
Shades of Gray
 70
    23
177
     2
291
     0
 71
     2
176
     1
 72
     2
176
     1
 73
     3
176
     1
 90
        0
176
     1
 40
0.6
176
     1
 41
30.0
176
     1
 63
     7
421
 16777215
176
     1
 74
     2
176
     1
 91
        2
176
     1
 64
     7
176
     1
 65
     7
176
     1
 75
     1
176
     1
175
     1
176
     1
 42
40.0
176
     1
 92
        8
176
     1
 66
     7
176
     1
 43
1.0
176
     1
 76
     1
176
     1
 77
     6
176
     1
 78
     2
176
     1
 67
     7
176
     1
 79
     3
176
     1
170
     0
176
     1
171
     0
176
     1
290
     0
176
     1
 93
        1
176
     1
 44
0.0
176
     1
173
     0
176
     1
1001
ACAD
1000
AcDbSavedByObjectVersion
1070
     0
  0
VISUALSTYLE
  5
3B
102
{ACAD_XDICTIONARY
360
111
102
}
102
{ACAD_REACTORS
330
29
102
}
330
29
100
AcDbVisualStyle
  2
Sketchy
 70
    24
177
     2
291
     0
 71
     1
176
     1
 72
     2
176
     1
 73
     2
176
     1
 90
        0
176
     1
 40
0.6
176
     1
 41
30.0
176
     1
 63
     7
421
 16777215
176
     1
 74
     2
176
     1
 91
        2
176
     1
 64
     7
176
     1
 65
     7
176
     1
 75
     1
176
     1
175
     1
176
     1
 42
40.0
176
     1
 92
       11
176
     1
 66
     7
176
     1
 43
1.0
176
     1
 76
     1
176
     1
 77
     6
176
     1
 78
     2
176
     1
 67
     7
176
     1
 79
     6
176
     1
170
     0
176
     1
171
     0
176
     1
290
     0
176
     1
 93
        1
176
     1
 44
0.0
176
     1
173
     0
176
     1
1001
ACAD
1000
AcDbSavedByObjectVersion
1070
     0
  0
VISUALSTYLE
  5
36
102
{ACAD_XDICTIONARY
360
107
102
}
102
{ACAD_REACTORS
330
29
102
}
330
29
100
AcDbVisualStyle
  2
Thicken
 70
    13
177
     2
291
     1
 71
     2
176
     1
 72
     2
176
     1
 73
     0
176
     1
 90
        0
176
     1
 40
0.6
176
     1
 41
30.0
176
     1
 63
     7
421
 16777215
176
     1
 74
     1
176
     1
 91
        4
176
     1
 64
     7
176
     1
 65
   257
176
     1
 75
     1
176
     1
175
     1
176
     1
 42
1.0
176
     1
 92
       12
176
     1
 66
     7
176
     1
 43
1.0
176
     1
 76
     1
176
     1
 77
     6
176
     1
 78
     2
176
     1
 67
     7
176
     1
 79
     5
176
     1
170
     0
176
     1
171
     0
176
     1
290
     0
176
     1
 93
        1
176
     1
 44
0.0
176
     1
173
     0
176
     1
1001
ACAD
1000
AcDbSavedByObjectVersion
1070
     0
  0
VISUALSTYLE
  5
30
102
{ACAD_XDICTIONARY
360
FB
102
}
102
{ACAD_REACTORS
330
29
102
}
330
29
100
AcDbVisualStyle
  2
Wireframe
 70
     5
177
     2
291
     0
 71
     0
176
     1
 72
     2
176
     1
 73
     0
176
     1
 90
        0
176
     1
 40
0.6
176
     1
 41
30.0
176
     1
 63
     7
421
 16777215
176
     1
 74
     1
176
     1
 91
        4
176
     1
 64
     7
176
     1
 65
   257
176
     1
 75
     1
176
     1
175
     1
176
     1
 42
1.0
176
     1
 92
        0
176
     1
 66
   257
176
     1
 43
1.0
176
     1
 76
     1
176
     1
 77
     6
176
     1
 78
     2
176
     1
 67
     7
176
     1
 79
     3
176
     1
170
     0
176
     1
171
     0
176
     1
290
     0
176
     1
 93
        1
176
     1
 44
0.0
176
     1
173
     0
176
     1
1001
ACAD
1000
AcDbSavedByObjectVersion
1070
     0
  0
VISUALSTYLE
  5
3C
102
{ACAD_XDICTIONARY
360
113
102
}
102
{ACAD_REACTORS
330
29
102
}
330
29
100
AcDbVisualStyle
  2
X-Ray
 70
    25
177
     2
291
     0
 71
     2
176
     1
 72
     2
176
     1
 73
     1
176
     1
 90
        1
176
     1
 40
0.5
176
     1
 41
30.0
176
     1
 63
     7
421
 16777215
176
     1
 74
     1
176
     1
 91
        0
176
     1
 64
     7
176
     1
 65
   257
176
     1
 75
     1
176
     1
175
     1
176
     1
 42
1.0
176
     1
 92
        8
176
     1
 66
     7
176
     1
 43
1.0
176
     1
 76
     1
176
     1
 77
     6
176
     1
 78
     2
176
     1
 67
     7
176
     1
 79
     3
176
     1
170
     0
176
     1
171
     0
176
     1
290
     0
176
     1
 93
       13
176
     1
 44
0.0
176
     1
173
     0
176
     1
1001
ACAD
1000
AcDbSavedByObjectVersion
1070
     0
  0
DICTIONARYVAR
  5
EB
102
{ACAD_REACTORS
330
E6
102
}
330
E6
100
DictionaryVariables
280
     0
  1
1:1
  0
DICTIONARYVAR
  5
E8
102
{ACAD_REACTORS
330
E6
102
}
330
E6
100
DictionaryVariables
280
     0
  1
STANDARD
  0
DICTIONARYVAR
  5
E7
102
{ACAD_REACTORS
330
E6
102
}
330
E6
100
DictionaryVariables
280
     0
  1
STANDARD
  0
DICTIONARYVAR
  5
E9
102
{ACAD_REACTORS
330
E6
102
}
330
E6
100
DictionaryVariables
280
     0
  1
Imperial24
  0
DICTIONARYVAR
  5
EA
102
{ACAD_REACTORS
330
E6
102
}
330
E6
100
DictionaryVariables
280
     0
  1
Imperial24
  0
DICTIONARY
  5
123
330
6B
100
AcDbDictionary
280
     1
281
     1
  3
ACAD_XREC_ROUNDTRIP
360
124
  0
DICTIONARY
  5
1A
330
19
100
AcDbDictionary
280
     1
281
     1
  3
BUMPTILE
360
1C
  3
DIFFUSETILE
360
1B
  3
OPACITYTILE
360
1F
  3
REFLECTIONTILE
360
1E
  3
REFRACTIONTILE
360
20
  3
SPECULARTILE
360
1D
  0
DICTIONARY
  5
12
330
11
100
AcDbDictionary
280
     1
281
     1
  3
BUMPTILE
360
14
  3
DIFFUSETILE
360
13
  3
OPACITYTILE
360
17
  3
REFLECTIONTILE
360
16
  3
REFRACTIONTILE
360
18
  3
SPECULARTILE
360
15
  0
DICTIONARY
  5
22
330
21
100
AcDbDictionary
280
     1
281
     1
  3
BUMPTILE
360
24
  3
DIFFUSETILE
360
23
  3
OPACITYTILE
360
27
  3
REFLECTIONTILE
360
26
  3
REFRACTIONTILE
360
28
  3
SPECULARTILE
360
25
  0
DICTIONARY
  5
11F
330
67
100
AcDbDictionary
280
     1
281
     1
  3
ACAD_XREC_ROUNDTRIP
360
120
  0
DICTIONARY
  5
121
330
69
100
AcDbDictionary
280
     1
281
     1
  3
ACAD_XREC_ROUNDTRIP
360
122
  0
DICTIONARY
  5
EC
330
65
100
AcDbDictionary
280
     1
281
     1
  3
ACAD_ROUNDTRIP_2008_TABLESTYLE_CELLSTYLEMAP
360
ED
  0
DICTIONARY
  5
F9
330
2F
100
AcDbDictionary
280
     1
281
     1
  3
ACAD_XREC_ROUNDTRIP
360
FA
  0
DICTIONARY
  5
F7
330
2E
100
AcDbDictionary
280
     1
281
     1
  3
ACAD_XREC_ROUNDTRIP
360
F8
  0
DICTIONARY
  5
105
330
35
100
AcDbDictionary
280
     1
281
     1
  3
ACAD_XREC_ROUNDTRIP
360
106
  0
DICTIONARY
  5
10D
330
39
100
AcDbDictionary
280
     1
281
     1
  3
ACAD_XREC_ROUNDTRIP
360
10E
  0
DICTIONARY
  5
FF
330
32
100
AcDbDictionary
280
     1
281
     1
  3
ACAD_XREC_ROUNDTRIP
360
100
  0
DICTIONARY
  5
103
330
34
100
AcDbDictionary
280
     1
281
     1
  3
ACAD_XREC_ROUNDTRIP
360
104
  0
DICTIONARY
  5
11D
330
41
100
AcDbDictionary
280
     1
281
     1
  3
ACAD_XREC_ROUNDTRIP
360
11E
  0
DICTIONARY
  5
10B
330
38
100
AcDbDictionary
280
     1
281
     1
  3
ACAD_XREC_ROUNDTRIP
360
10C
  0
DICTIONARY
  5
EF
330
2A
100
AcDbDictionary
280
     1
281
     1
  3
ACAD_XREC_ROUNDTRIP
360
F0
  0
DICTIONARY
  5
F1
330
2B
100
AcDbDictionary
280
     1
281
     1
  3
ACAD_XREC_ROUNDTRIP
360
F2
  0
DICTIONARY
  5
F3
330
2C
100
AcDbDictionary
280
     1
281
     1
  3
ACAD_XREC_ROUNDTRIP
360
F4
  0
DICTIONARY
  5
F5
330
2D
100
AcDbDictionary
280
     1
281
     1
  3
ACAD_XREC_ROUNDTRIP
360
F6
  0
DICTIONARY
  5
FD
330
31
100
AcDbDictionary
280
     1
281
     1
  3
ACAD_XREC_ROUNDTRIP
360
FE
  0
DICTIONARY
  5
119
330
3F
100
AcDbDictionary
280
     1
281
     1
  3
ACAD_XREC_ROUNDTRIP
360
11A
  0
DICTIONARY
  5
109
330
37
100
AcDbDictionary
280
     1
281
     1
  3
ACAD_XREC_ROUNDTRIP
360
10A
  0
DICTIONARY
  5
11B
330
40
100
AcDbDictionary
280
     1
281
     1
  3
ACAD_XREC_ROUNDTRIP
360
11C
  0
DICTIONARY
  5
101
330
33
100
AcDbDictionary
280
     1
281
     1
  3
ACAD_XREC_ROUNDTRIP
360
102
  0
DICTIONARY
  5
117
330
3E
100
AcDbDictionary
280
     1
281
     1
  3
ACAD_XREC_ROUNDTRIP
360
118
  0
DICTIONARY
  5
115
330
3D
100
AcDbDictionary
280
     1
281
     1
  3
ACAD_XREC_ROUNDTRIP
360
116
  0
DICTIONARY
  5
10F
330
3A
100
AcDbDictionary
280
     1
281
     1
  3
ACAD_XREC_ROUNDTRIP
360
110
  0
DICTIONARY
  5
111
330
3B
100
AcDbDictionary
280
     1
281
     1
  3
ACAD_XREC_ROUNDTRIP
360
112
  0
DICTIONARY
  5
107
330
36
100
AcDbDictionary
280
     1
281
     1
  3
ACAD_XREC_ROUNDTRIP
360
108
  0
DICTIONARY
  5
FB
330
30
100
AcDbDictionary
280
     1
281
     1
  3
ACAD_XREC_ROUNDTRIP
360
FC
  0
DICTIONARY
  5
113
330
3C
100
AcDbDictionary
280
     1
281
     1
  3
ACAD_XREC_ROUNDTRIP
360
114
  0
XRECORD
  5
124
102
{ACAD_REACTORS
330
123
102
}
330
123
100
AcDbXrecord
280
     1
102
DISPLAYNAME
  1
Imperial24
102
FLAGS
 90
        0
  0
XRECORD
  5
1C
102
{ACAD_REACTORS
330
1A
102
}
330
1A
100
AcDbXrecord
280
     1
270
     1
271
     1
  0
XRECORD
  5
1B
102
{ACAD_REACTORS
330
1A
102
}
330
1A
100
AcDbXrecord
280
     1
270
     1
271
     1
  0
XRECORD
  5
1F
102
{ACAD_REACTORS
330
1A
102
}
330
1A
100
AcDbXrecord
280
     1
270
     1
271
     1
  0
XRECORD
  5
1E
102
{ACAD_REACTORS
330
1A
102
}
330
1A
100
AcDbXrecord
280
     1
270
     1
271
     1
  0
XRECORD
  5
20
102
{ACAD_REACTORS
330
1A
102
}
330
1A
100
AcDbXrecord
280
     1
270
     1
271
     1
  0
XRECORD
  5
1D
102
{ACAD_REACTORS
330
1A
102
}
330
1A
100
AcDbXrecord
280
     1
270
     1
271
     1
  0
XRECORD
  5
14
102
{ACAD_REACTORS
330
12
102
}
330
12
100
AcDbXrecord
280
     1
270
     1
271
     1
  0
XRECORD
  5
13
102
{ACAD_REACTORS
330
12
102
}
330
12
100
AcDbXrecord
280
     1
270
     1
271
     1
  0
XRECORD
  5
17
102
{ACAD_REACTORS
330
12
102
}
330
12
100
AcDbXrecord
280
     1
270
     1
271
     1
  0
XRECORD
  5
16
102
{ACAD_REACTORS
330
12
102
}
330
12
100
AcDbXrecord
280
     1
270
     1
271
     1
  0
XRECORD
  5
18
102
{ACAD_REACTORS
330
12
102
}
330
12
100
AcDbXrecord
280
     1
270
     1
271
     1
  0
XRECORD
  5
15
102
{ACAD_REACTORS
330
12
102
}
330
12
100
AcDbXrecord
280
     1
270
     1
271
     1
  0
XRECORD
  5
24
102
{ACAD_REACTORS
330
22
102
}
330
22
100
AcDbXrecord
280
     1
270
     1
271
     1
  0
XRECORD
  5
23
102
{ACAD_REACTORS
330
22
102
}
330
22
100
AcDbXrecord
280
     1
270
     1
271
     1
  0
XRECORD
  5
27
102
{ACAD_REACTORS
330
22
102
}
330
22
100
AcDbXrecord
280
     1
270
     1
271
     1
  0
XRECORD
  5
26
102
{ACAD_REACTORS
330
22
102
}
330
22
100
AcDbXrecord
280
     1
270
     1
271
     1
  0
XRECORD
  5
28
102
{ACAD_REACTORS
330
22
102
}
330
22
100
AcDbXrecord
280
     1
270
     1
271
     1
  0
XRECORD
  5
25
102
{ACAD_REACTORS
330
22
102
}
330
22
100
AcDbXrecord
280
     1
270
     1
271
     1
  0
XRECORD
  5
120
102
{ACAD_REACTORS
330
11F
102
}
330
11F
100
AcDbXrecord
280
     1
102
ACAD_ROUNDTRIP_2012_MLEADER_STYLE
298
     1
  0
XRECORD
  5
122
102
{ACAD_REACTORS
330
121
102
}
330
121
100
AcDbXrecord
280
     1
102
DISPLAYNAME
  1
Imperial24
102
FLAGS
 90
        0
  0
CELLSTYLEMAP
  5
ED
102
{ACAD_REACTORS
330
EC
102
}
330
EC
100
AcDbCellStyleMap
 90
        3
300
CELLSTYLE
  1
TABLEFORMAT_BEGIN
 90
        5
170
     1
 91
        0
 92
    32768
 62
   257
 93
        1
300
CONTENTFORMAT
  1
CONTENTFORMAT_BEGIN
 90
        0
 91
        0
 92
      512
 93
        0
300

 40
0.0
140
1.0
 94
        5
 62
     0
340
55
144
0.25
309
CONTENTFORMAT_END
171
     0
 94
        0
309
TABLEFORMAT_END
  1
CELLSTYLE_BEGIN
 90
        1
 91
        1
300
_TITLE
309
CELLSTYLE_END
300
CELLSTYLE
  1
TABLEFORMAT_BEGIN
 90
        5
170
     1
 91
        0
 92
        0
 62
   257
 93
        1
300
CONTENTFORMAT
  1
CONTENTFORMAT_BEGIN
 90
        0
 91
        0
 92
      512
 93
        0
300

 40
0.0
140
1.0
 94
        5
 62
     0
340
55
144
0.18
309
CONTENTFORMAT_END
171
     0
 94
        0
309
TABLEFORMAT_END
  1
CELLSTYLE_BEGIN
 90
        2
 91
        1
300
_HEADER
309
CELLSTYLE_END
300
CELLSTYLE
  1
TABLEFORMAT_BEGIN
 90
        5
170
     1
 91
        0
 92
        0
 62
   257
 93
        1
300
CONTENTFORMAT
  1
CONTENTFORMAT_BEGIN
 90
        0
 91
        0
 92
      512
 93
        0
300

 40
0.0
140
1.0
 94
        2
 62
     0
340
55
144
0.18
309
CONTENTFORMAT_END
171
     0
 94
        0
309
TABLEFORMAT_END
  1
CELLSTYLE_BEGIN
 90
        3
 91
        2
300
_DATA
309
CELLSTYLE_END
  0
XRECORD
  5
FA
102
{ACAD_REACTORS
330
F9
102
}
330
F9
100
AcDbXrecord
280
     1
102
RTVSPost2010Prop28
280
     1
102
RTVSPost2010PropOp28
 70
     1
102
RTVSPost2010Prop29
280
     1
102
RTVSPost2010PropOp29
 70
     1
102
RTVSPost2010Prop30
280
     0
102
RTVSPost2010PropOp30
 70
     1
102
RTVSPost2010Prop31
280
     0
102
RTVSPost2010PropOp31
 70
     1
102
RTVSPost2010Prop32
280
     0
102
RTVSPost2010PropOp32
 70
     1
102
RTVSPost2010Prop33
280
     0
102
RTVSPost2010PropOp33
 70
     1
102
RTVSPost2010Prop34
280
     0
102
RTVSPost2010PropOp34
 70
     1
102
RTVSPost2010Prop35
280
     0
102
RTVSPost2010PropOp35
 70
     1
102
RTVSPost2010Prop36
280
     0
102
RTVSPost2010PropOp36
 70
     1
102
RTVSPost2010Prop37
 90
       50
102
RTVSPost2010PropOp37
 70
     1
102
RTVSPost2010Prop38
140
0.0
102
RTVSPost2010PropOp38
 70
     1
102
RTVSPost2010Prop39
140
1.0
102
RTVSPost2010PropOp39
 70
     1
102
RTVSPost2010Prop40
 90
        0
102
RTVSPost2010PropOp40
 70
     1
102
RTVSPost2010Prop41ColorIndex
 90
       18
102
RTVSPost2010Prop41ColorRGB
 90
        0
102
RTVSPost2010PropOp41
 70
     1
102
RTVSPost2010Prop42
 90
       50
102
RTVSPost2010PropOp42
 70
     1
102
RTVSPost2010Prop43
 90
        3
102
RTVSPost2010PropOp43
 70
     1
102
RTVSPost2010Prop44ColorIndex
 90
        5
102
RTVSPost2010Prop44ColorRGB
 90
      255
102
RTVSPost2010PropOp44
 70
     1
102
RTVSPost2010Prop45
280
     0
102
RTVSPost2010PropOp45
 70
     1
102
RTVSPost2010Prop46
 90
       50
102
RTVSPost2010PropOp46
 70
     1
102
RTVSPost2010Prop47
 90
       50
102
RTVSPost2010PropOp47
 70
     1
102
RTVSPost2010Prop48
 90
       50
102
RTVSPost2010PropOp48
 70
     1
102
RTVSPost2010Prop49
280
     0
102
RTVSPost2010PropOp49
 70
     1
102
RTVSPost2010Prop50
 90
       50
102
RTVSPost2010PropOp50
 70
     1
102
RTVSPost2010Prop51ColorIndex
 90
      256
102
RTVSPost2010Prop51ColorRGB
 90
-16777216
102
RTVSPost2010PropOp51
 70
     0
102
RTVSPost2010Prop52
140
1.0
102
RTVSPost2010PropOp52
 70
     0
102
RTVSPost2010Prop53
 90
        2
102
RTVSPost2010PropOp53
 70
     1
102
RTVSPost2010Prop54
  1
strokes_ogs.tif
102
RTVSPost2010PropOp54
 70
     1
102
RTVSPost2010Prop55
280
     0
102
RTVSPost2010PropOp55
 70
     1
102
RTVSPost2010Prop56
140
1.0
102
RTVSPost2010PropOp56
 70
     1
102
RTVSPost2010Prop57
140
1.0
102
RTVSPost2010PropOp57
 70
     1
  0
XRECORD
  5
F8
102
{ACAD_REACTORS
330
F7
102
}
330
F7
100
AcDbXrecord
280
     1
102
RTVSPost2010Prop28
280
     0
102
RTVSPost2010PropOp28
 70
     1
102
RTVSPost2010Prop29
280
     1
102
RTVSPost2010PropOp29
 70
     1
102
RTVSPost2010Prop30
280
     1
102
RTVSPost2010PropOp30
 70
     1
102
RTVSPost2010Prop31
280
     0
102
RTVSPost2010PropOp31
 70
     1
102
RTVSPost2010Prop32
280
     0
102
RTVSPost2010PropOp32
 70
     1
102
RTVSPost2010Prop33
280
     0
102
RTVSPost2010PropOp33
 70
     1
102
RTVSPost2010Prop34
280
     0
102
RTVSPost2010PropOp34
 70
     1
102
RTVSPost2010Prop35
280
     0
102
RTVSPost2010PropOp35
 70
     1
102
RTVSPost2010Prop36
280
     0
102
RTVSPost2010PropOp36
 70
     1
102
RTVSPost2010Prop37
 90
       50
102
RTVSPost2010PropOp37
 70
     1
102
RTVSPost2010Prop38
140
0.0
102
RTVSPost2010PropOp38
 70
     1
102
RTVSPost2010Prop39
140
1.0
102
RTVSPost2010PropOp39
 70
     1
102
RTVSPost2010Prop40
 90
        0
102
RTVSPost2010PropOp40
 70
     1
102
RTVSPost2010Prop41ColorIndex
 90
       18
102
RTVSPost2010Prop41ColorRGB
 90
        0
102
RTVSPost2010PropOp41
 70
     1
102
RTVSPost2010Prop42
 90
       50
102
RTVSPost2010PropOp42
 70
     1
102
RTVSPost2010Prop43
 90
        3
102
RTVSPost2010PropOp43
 70
     1
102
RTVSPost2010Prop44ColorIndex
 90
        5
102
RTVSPost2010Prop44ColorRGB
 90
      255
102
RTVSPost2010PropOp44
 70
     1
102
RTVSPost2010Prop45
280
     0
102
RTVSPost2010PropOp45
 70
     1
102
RTVSPost2010Prop46
 90
       50
102
RTVSPost2010PropOp46
 70
     1
102
RTVSPost2010Prop47
 90
       50
102
RTVSPost2010PropOp47
 70
     1
102
RTVSPost2010Prop48
 90
       50
102
RTVSPost2010PropOp48
 70
     1
102
RTVSPost2010Prop49
280
     0
102
RTVSPost2010PropOp49
 70
     1
102
RTVSPost2010Prop50
 90
       50
102
RTVSPost2010PropOp50
 70
     1
102
RTVSPost2010Prop51ColorIndex
 90
      256
102
RTVSPost2010Prop51ColorRGB
 90
-16777216
102
RTVSPost2010PropOp51
 70
     0
102
RTVSPost2010Prop52
140
1.0
102
RTVSPost2010PropOp52
 70
     0
102
RTVSPost2010Prop53
 90
        2
102
RTVSPost2010PropOp53
 70
     1
102
RTVSPost2010Prop54
  1
strokes_ogs.tif
102
RTVSPost2010PropOp54
 70
     1
102
RTVSPost2010Prop55
280
     0
102
RTVSPost2010PropOp55
 70
     1
102
RTVSPost2010Prop56
140
1.0
102
RTVSPost2010PropOp56
 70
     1
102
RTVSPost2010Prop57
140
1.0
102
RTVSPost2010PropOp57
 70
     1
  0
XRECORD
  5
106
102
{ACAD_REACTORS
330
105
102
}
330
105
100
AcDbXrecord
280
     1
102
RTVSPost2010Prop28
280
     0
102
RTVSPost2010PropOp28
 70
     1
102
RTVSPost2010Prop29
280
     1
102
RTVSPost2010PropOp29
 70
     1
102
RTVSPost2010Prop30
280
     1
102
RTVSPost2010PropOp30
 70
     1
102
RTVSPost2010Prop31
280
     0
102
RTVSPost2010PropOp31
 70
     1
102
RTVSPost2010Prop32
280
     0
102
RTVSPost2010PropOp32
 70
     1
102
RTVSPost2010Prop33
280
     0
102
RTVSPost2010PropOp33
 70
     1
102
RTVSPost2010Prop34
280
     0
102
RTVSPost2010PropOp34
 70
     1
102
RTVSPost2010Prop35
280
     0
102
RTVSPost2010PropOp35
 70
     1
102
RTVSPost2010Prop36
280
     0
102
RTVSPost2010PropOp36
 70
     1
102
RTVSPost2010Prop37
 90
       50
102
RTVSPost2010PropOp37
 70
     1
102
RTVSPost2010Prop38
140
0.0
102
RTVSPost2010PropOp38
 70
     1
102
RTVSPost2010Prop39
140
1.0
102
RTVSPost2010PropOp39
 70
     1
102
RTVSPost2010Prop40
 90
        0
102
RTVSPost2010PropOp40
 70
     1
102
RTVSPost2010Prop41ColorIndex
 90
       18
102
RTVSPost2010Prop41ColorRGB
 90
        0
102
RTVSPost2010PropOp41
 70
     1
102
RTVSPost2010Prop42
 90
       50
102
RTVSPost2010PropOp42
 70
     1
102
RTVSPost2010Prop43
 90
        3
102
RTVSPost2010PropOp43
 70
     1
102
RTVSPost2010Prop44ColorIndex
 90
        5
102
RTVSPost2010Prop44ColorRGB
 90
      255
102
RTVSPost2010PropOp44
 70
     1
102
RTVSPost2010Prop45
280
     0
102
RTVSPost2010PropOp45
 70
     1
102
RTVSPost2010Prop46
 90
       50
102
RTVSPost2010PropOp46
 70
     1
102
RTVSPost2010Prop47
 90
       50
102
RTVSPost2010PropOp47
 70
     1
102
RTVSPost2010Prop48
 90
       50
102
RTVSPost2010PropOp48
 70
     1
102
RTVSPost2010Prop49
280
     0
102
RTVSPost2010PropOp49
 70
     1
102
RTVSPost2010Prop50
 90
       50
102
RTVSPost2010PropOp50
 70
     1
102
RTVSPost2010Prop51ColorIndex
 90
      256
102
RTVSPost2010Prop51ColorRGB
 90
-16777216
102
RTVSPost2010PropOp51
 70
     0
102
RTVSPost2010Prop52
140
1.0
102
RTVSPost2010PropOp52
 70
     0
102
RTVSPost2010Prop53
 90
        2
102
RTVSPost2010PropOp53
 70
     1
102
RTVSPost2010Prop54
  1
strokes_ogs.tif
102
RTVSPost2010PropOp54
 70
     1
102
RTVSPost2010Prop55
280
     0
102
RTVSPost2010PropOp55
 70
     1
102
RTVSPost2010Prop56
140
1.0
102
RTVSPost2010PropOp56
 70
     1
102
RTVSPost2010Prop57
140
1.0
102
RTVSPost2010PropOp57
 70
     1
  0
XRECORD
  5
10E
102
{ACAD_REACTORS
330
10D
102
}
330
10D
100
AcDbXrecord
280
     1
102
RTVSPost2010Prop28
280
     0
102
RTVSPost2010PropOp28
 70
     1
102
RTVSPost2010Prop29
280
     1
102
RTVSPost2010PropOp29
 70
     1
102
RTVSPost2010Prop30
280
     1
102
RTVSPost2010PropOp30
 70
     1
102
RTVSPost2010Prop31
280
     0
102
RTVSPost2010PropOp31
 70
     1
102
RTVSPost2010Prop32
280
     0
102
RTVSPost2010PropOp32
 70
     1
102
RTVSPost2010Prop33
280
     0
102
RTVSPost2010PropOp33
 70
     1
102
RTVSPost2010Prop34
280
     0
102
RTVSPost2010PropOp34
 70
     1
102
RTVSPost2010Prop35
280
     0
102
RTVSPost2010PropOp35
 70
     1
102
RTVSPost2010Prop36
280
     0
102
RTVSPost2010PropOp36
 70
     1
102
RTVSPost2010Prop37
 90
       50
102
RTVSPost2010PropOp37
 70
     1
102
RTVSPost2010Prop38
140
0.0
102
RTVSPost2010PropOp38
 70
     1
102
RTVSPost2010Prop39
140
1.0
102
RTVSPost2010PropOp39
 70
     1
102
RTVSPost2010Prop40
 90
        0
102
RTVSPost2010PropOp40
 70
     1
102
RTVSPost2010Prop41ColorIndex
 90
       18
102
RTVSPost2010Prop41ColorRGB
 90
        0
102
RTVSPost2010PropOp41
 70
     1
102
RTVSPost2010Prop42
 90
       50
102
RTVSPost2010PropOp42
 70
     1
102
RTVSPost2010Prop43
 90
        3
102
RTVSPost2010PropOp43
 70
     1
102
RTVSPost2010Prop44ColorIndex
 90
        5
102
RTVSPost2010Prop44ColorRGB
 90
      255
102
RTVSPost2010PropOp44
 70
     1
102
RTVSPost2010Prop45
280
     0
102
RTVSPost2010PropOp45
 70
     1
102
RTVSPost2010Prop46
 90
       50
102
RTVSPost2010PropOp46
 70
     1
102
RTVSPost2010Prop47
 90
       50
102
RTVSPost2010PropOp47
 70
     1
102
RTVSPost2010Prop48
 90
       50
102
RTVSPost2010PropOp48
 70
     1
102
RTVSPost2010Prop49
280
     0
102
RTVSPost2010PropOp49
 70
     1
102
RTVSPost2010Prop50
 90
       50
102
RTVSPost2010PropOp50
 70
     1
102
RTVSPost2010Prop51ColorIndex
 90
      256
102
RTVSPost2010Prop51ColorRGB
 90
-16777216
102
RTVSPost2010PropOp51
 70
     0
102
RTVSPost2010Prop52
140
1.0
102
RTVSPost2010PropOp52
 70
     0
102
RTVSPost2010Prop53
 90
        2
102
RTVSPost2010PropOp53
 70
     1
102
RTVSPost2010Prop54
  1
strokes_ogs.tif
102
RTVSPost2010PropOp54
 70
     1
102
RTVSPost2010Prop55
280
     0
102
RTVSPost2010PropOp55
 70
     1
102
RTVSPost2010Prop56
140
1.0
102
RTVSPost2010PropOp56
 70
     1
102
RTVSPost2010Prop57
140
1.0
102
RTVSPost2010PropOp57
 70
     1
  0
XRECORD
  5
100
102
{ACAD_REACTORS
330
FF
102
}
330
FF
100
AcDbXrecord
280
     1
102
RTVSPost2010Prop28
280
     0
102
RTVSPost2010PropOp28
 70
     1
102
RTVSPost2010Prop29
280
     1
102
RTVSPost2010PropOp29
 70
     1
102
RTVSPost2010Prop30
280
     1
102
RTVSPost2010PropOp30
 70
     1
102
RTVSPost2010Prop31
280
     0
102
RTVSPost2010PropOp31
 70
     1
102
RTVSPost2010Prop32
280
     0
102
RTVSPost2010PropOp32
 70
     1
102
RTVSPost2010Prop33
280
     0
102
RTVSPost2010PropOp33
 70
     1
102
RTVSPost2010Prop34
280
     0
102
RTVSPost2010PropOp34
 70
     1
102
RTVSPost2010Prop35
280
     0
102
RTVSPost2010PropOp35
 70
     1
102
RTVSPost2010Prop36
280
     0
102
RTVSPost2010PropOp36
 70
     1
102
RTVSPost2010Prop37
 90
       50
102
RTVSPost2010PropOp37
 70
     1
102
RTVSPost2010Prop38
140
0.0
102
RTVSPost2010PropOp38
 70
     1
102
RTVSPost2010Prop39
140
1.0
102
RTVSPost2010PropOp39
 70
     1
102
RTVSPost2010Prop40
 90
        0
102
RTVSPost2010PropOp40
 70
     1
102
RTVSPost2010Prop41ColorIndex
 90
       18
102
RTVSPost2010Prop41ColorRGB
 90
        0
102
RTVSPost2010PropOp41
 70
     1
102
RTVSPost2010Prop42
 90
       50
102
RTVSPost2010PropOp42
 70
     1
102
RTVSPost2010Prop43
 90
        3
102
RTVSPost2010PropOp43
 70
     1
102
RTVSPost2010Prop44ColorIndex
 90
        5
102
RTVSPost2010Prop44ColorRGB
 90
      255
102
RTVSPost2010PropOp44
 70
     1
102
RTVSPost2010Prop45
280
     0
102
RTVSPost2010PropOp45
 70
     1
102
RTVSPost2010Prop46
 90
       50
102
RTVSPost2010PropOp46
 70
     1
102
RTVSPost2010Prop47
 90
       50
102
RTVSPost2010PropOp47
 70
     1
102
RTVSPost2010Prop48
 90
       50
102
RTVSPost2010PropOp48
 70
     1
102
RTVSPost2010Prop49
280
     0
102
RTVSPost2010PropOp49
 70
     1
102
RTVSPost2010Prop50
 90
       50
102
RTVSPost2010PropOp50
 70
     1
102
RTVSPost2010Prop51ColorIndex
 90
      256
102
RTVSPost2010Prop51ColorRGB
 90
-16777216
102
RTVSPost2010PropOp51
 70
     0
102
RTVSPost2010Prop52
140
1.0
102
RTVSPost2010PropOp52
 70
     0
102
RTVSPost2010Prop53
 90
        2
102
RTVSPost2010PropOp53
 70
     1
102
RTVSPost2010Prop54
  1
strokes_ogs.tif
102
RTVSPost2010PropOp54
 70
     1
102
RTVSPost2010Prop55
280
     0
102
RTVSPost2010PropOp55
 70
     1
102
RTVSPost2010Prop56
140
1.0
102
RTVSPost2010PropOp56
 70
     1
102
RTVSPost2010Prop57
140
1.0
102
RTVSPost2010PropOp57
 70
     1
  0
XRECORD
  5
104
102
{ACAD_REACTORS
330
103
102
}
330
103
100
AcDbXrecord
280
     1
102
RTVSPost2010Prop28
280
     0
102
RTVSPost2010PropOp28
 70
     1
102
RTVSPost2010Prop29
280
     1
102
RTVSPost2010PropOp29
 70
     1
102
RTVSPost2010Prop30
280
     1
102
RTVSPost2010PropOp30
 70
     1
102
RTVSPost2010Prop31
280
     0
102
RTVSPost2010PropOp31
 70
     1
102
RTVSPost2010Prop32
280
     0
102
RTVSPost2010PropOp32
 70
     1
102
RTVSPost2010Prop33
280
     0
102
RTVSPost2010PropOp33
 70
     1
102
RTVSPost2010Prop34
280
     0
102
RTVSPost2010PropOp34
 70
     1
102
RTVSPost2010Prop35
280
     0
102
RTVSPost2010PropOp35
 70
     1
102
RTVSPost2010Prop36
280
     0
102
RTVSPost2010PropOp36
 70
     1
102
RTVSPost2010Prop37
 90
       50
102
RTVSPost2010PropOp37
 70
     1
102
RTVSPost2010Prop38
140
0.0
102
RTVSPost2010PropOp38
 70
     1
102
RTVSPost2010Prop39
140
1.0
102
RTVSPost2010PropOp39
 70
     1
102
RTVSPost2010Prop40
 90
        0
102
RTVSPost2010PropOp40
 70
     1
102
RTVSPost2010Prop41ColorIndex
 90
       18
102
RTVSPost2010Prop41ColorRGB
 90
        0
102
RTVSPost2010PropOp41
 70
     1
102
RTVSPost2010Prop42
 90
       50
102
RTVSPost2010PropOp42
 70
     1
102
RTVSPost2010Prop43
 90
        3
102
RTVSPost2010PropOp43
 70
     1
102
RTVSPost2010Prop44ColorIndex
 90
        5
102
RTVSPost2010Prop44ColorRGB
 90
      255
102
RTVSPost2010PropOp44
 70
     1
102
RTVSPost2010Prop45
280
     0
102
RTVSPost2010PropOp45
 70
     1
102
RTVSPost2010Prop46
 90
       50
102
RTVSPost2010PropOp46
 70
     1
102
RTVSPost2010Prop47
 90
       50
102
RTVSPost2010PropOp47
 70
     1
102
RTVSPost2010Prop48
 90
       50
102
RTVSPost2010PropOp48
 70
     1
102
RTVSPost2010Prop49
280
     0
102
RTVSPost2010PropOp49
 70
     1
102
RTVSPost2010Prop50
 90
       50
102
RTVSPost2010PropOp50
 70
     1
102
RTVSPost2010Prop51ColorIndex
 90
      256
102
RTVSPost2010Prop51ColorRGB
 90
-16777216
102
RTVSPost2010PropOp51
 70
     0
102
RTVSPost2010Prop52
140
1.0
102
RTVSPost2010PropOp52
 70
     0
102
RTVSPost2010Prop53
 90
        2
102
RTVSPost2010PropOp53
 70
     1
102
RTVSPost2010Prop54
  1
strokes_ogs.tif
102
RTVSPost2010PropOp54
 70
     1
102
RTVSPost2010Prop55
280
     0
102
RTVSPost2010PropOp55
 70
     1
102
RTVSPost2010Prop56
140
1.0
102
RTVSPost2010PropOp56
 70
     1
102
RTVSPost2010Prop57
140
1.0
102
RTVSPost2010PropOp57
 70
     1
  0
XRECORD
  5
11E
102
{ACAD_REACTORS
330
11D
102
}
330
11D
100
AcDbXrecord
280
     1
102
RTVSPost2010Prop28
280
     0
102
RTVSPost2010PropOp28
 70
     0
102
RTVSPost2010Prop29
280
     1
102
RTVSPost2010PropOp29
 70
     0
102
RTVSPost2010Prop30
280
     1
102
RTVSPost2010PropOp30
 70
     0
102
RTVSPost2010Prop31
280
     0
102
RTVSPost2010PropOp31
 70
     0
102
RTVSPost2010Prop32
280
     0
102
RTVSPost2010PropOp32
 70
     0
102
RTVSPost2010Prop33
280
     0
102
RTVSPost2010PropOp33
 70
     0
102
RTVSPost2010Prop34
280
     0
102
RTVSPost2010PropOp34
 70
     0
102
RTVSPost2010Prop35
280
     0
102
RTVSPost2010PropOp35
 70
     0
102
RTVSPost2010Prop36
280
     0
102
RTVSPost2010PropOp36
 70
     0
102
RTVSPost2010Prop37
 90
       50
102
RTVSPost2010PropOp37
 70
     0
102
RTVSPost2010Prop38
140
0.0
102
RTVSPost2010PropOp38
 70
     0
102
RTVSPost2010Prop39
140
1.0
102
RTVSPost2010PropOp39
 70
     0
102
RTVSPost2010Prop40
 90
        0
102
RTVSPost2010PropOp40
 70
     0
102
RTVSPost2010Prop41ColorIndex
 90
       18
102
RTVSPost2010Prop41ColorRGB
 90
        0
102
RTVSPost2010PropOp41
 70
     0
102
RTVSPost2010Prop42
 90
       50
102
RTVSPost2010PropOp42
 70
     0
102
RTVSPost2010Prop43
 90
        3
102
RTVSPost2010PropOp43
 70
     0
102
RTVSPost2010Prop44ColorIndex
 90
        5
102
RTVSPost2010Prop44ColorRGB
 90
      255
102
RTVSPost2010PropOp44
 70
     0
102
RTVSPost2010Prop45
280
     0
102
RTVSPost2010PropOp45
 70
     0
102
RTVSPost2010Prop46
 90
       50
102
RTVSPost2010PropOp46
 70
     0
102
RTVSPost2010Prop47
 90
       50
102
RTVSPost2010PropOp47
 70
     0
102
RTVSPost2010Prop48
 90
       50
102
RTVSPost2010PropOp48
 70
     0
102
RTVSPost2010Prop49
280
     0
102
RTVSPost2010PropOp49
 70
     0
102
RTVSPost2010Prop50
 90
       50
102
RTVSPost2010PropOp50
 70
     0
102
RTVSPost2010Prop51ColorIndex
 90
      256
102
RTVSPost2010Prop51ColorRGB
 90
-16777216
102
RTVSPost2010PropOp51
 70
     0
102
RTVSPost2010Prop52
140
1.0
102
RTVSPost2010PropOp52
 70
     0
102
RTVSPost2010Prop53
 90
        2
102
RTVSPost2010PropOp53
 70
     0
102
RTVSPost2010Prop54
  1
strokes_ogs.tif
102
RTVSPost2010PropOp54
 70
     0
102
RTVSPost2010Prop55
280
     0
102
RTVSPost2010PropOp55
 70
     0
102
RTVSPost2010Prop56
140
1.0
102
RTVSPost2010PropOp56
 70
     0
102
RTVSPost2010Prop57
140
1.0
102
RTVSPost2010PropOp57
 70
     0
  0
XRECORD
  5
10C
102
{ACAD_REACTORS
330
10B
102
}
330
10B
100
AcDbXrecord
280
     1
102
RTVSPost2010Prop28
280
     0
102
RTVSPost2010PropOp28
 70
     1
102
RTVSPost2010Prop29
280
     1
102
RTVSPost2010PropOp29
 70
     1
102
RTVSPost2010Prop30
280
     1
102
RTVSPost2010PropOp30
 70
     1
102
RTVSPost2010Prop31
280
     0
102
RTVSPost2010PropOp31
 70
     1
102
RTVSPost2010Prop32
280
     0
102
RTVSPost2010PropOp32
 70
     1
102
RTVSPost2010Prop33
280
     0
102
RTVSPost2010PropOp33
 70
     1
102
RTVSPost2010Prop34
280
     0
102
RTVSPost2010PropOp34
 70
     1
102
RTVSPost2010Prop35
280
     0
102
RTVSPost2010PropOp35
 70
     1
102
RTVSPost2010Prop36
280
     0
102
RTVSPost2010PropOp36
 70
     1
102
RTVSPost2010Prop37
 90
       50
102
RTVSPost2010PropOp37
 70
     1
102
RTVSPost2010Prop38
140
0.0
102
RTVSPost2010PropOp38
 70
     1
102
RTVSPost2010Prop39
140
1.0
102
RTVSPost2010PropOp39
 70
     1
102
RTVSPost2010Prop40
 90
        0
102
RTVSPost2010PropOp40
 70
     1
102
RTVSPost2010Prop41ColorIndex
 90
       18
102
RTVSPost2010Prop41ColorRGB
 90
        0
102
RTVSPost2010PropOp41
 70
     1
102
RTVSPost2010Prop42
 90
       50
102
RTVSPost2010PropOp42
 70
     1
102
RTVSPost2010Prop43
 90
        3
102
RTVSPost2010PropOp43
 70
     1
102
RTVSPost2010Prop44ColorIndex
 90
        5
102
RTVSPost2010Prop44ColorRGB
 90
      255
102
RTVSPost2010PropOp44
 70
     1
102
RTVSPost2010Prop45
280
     0
102
RTVSPost2010PropOp45
 70
     1
102
RTVSPost2010Prop46
 90
       50
102
RTVSPost2010PropOp46
 70
     1
102
RTVSPost2010Prop47
 90
       50
102
RTVSPost2010PropOp47
 70
     1
102
RTVSPost2010Prop48
 90
       50
102
RTVSPost2010PropOp48
 70
     1
102
RTVSPost2010Prop49
280
     0
102
RTVSPost2010PropOp49
 70
     1
102
RTVSPost2010Prop50
 90
       50
102
RTVSPost2010PropOp50
 70
     1
102
RTVSPost2010Prop51ColorIndex
 90
      256
102
RTVSPost2010Prop51ColorRGB
 90
-16777216
102
RTVSPost2010PropOp51
 70
     0
102
RTVSPost2010Prop52
140
1.0
102
RTVSPost2010PropOp52
 70
     0
102
RTVSPost2010Prop53
 90
        2
102
RTVSPost2010PropOp53
 70
     1
102
RTVSPost2010Prop54
  1
strokes_ogs.tif
102
RTVSPost2010PropOp54
 70
     1
102
RTVSPost2010Prop55
280
     0
102
RTVSPost2010PropOp55
 70
     1
102
RTVSPost2010Prop56
140
1.0
102
RTVSPost2010PropOp56
 70
     1
102
RTVSPost2010Prop57
140
1.0
102
RTVSPost2010PropOp57
 70
     1
  0
XRECORD
  5
F0
102
{ACAD_REACTORS
330
EF
102
}
330
EF
100
AcDbXrecord
280
     1
102
RTVSPost2010Prop28
280
     0
102
RTVSPost2010PropOp28
 70
     1
102
RTVSPost2010Prop29
280
     1
102
RTVSPost2010PropOp29
 70
     1
102
RTVSPost2010Prop30
280
     1
102
RTVSPost2010PropOp30
 70
     1
102
RTVSPost2010Prop31
280
     0
102
RTVSPost2010PropOp31
 70
     1
102
RTVSPost2010Prop32
280
     0
102
RTVSPost2010PropOp32
 70
     1
102
RTVSPost2010Prop33
280
     0
102
RTVSPost2010PropOp33
 70
     1
102
RTVSPost2010Prop34
280
     0
102
RTVSPost2010PropOp34
 70
     1
102
RTVSPost2010Prop35
280
     0
102
RTVSPost2010PropOp35
 70
     1
102
RTVSPost2010Prop36
280
     0
102
RTVSPost2010PropOp36
 70
     1
102
RTVSPost2010Prop37
 90
       50
102
RTVSPost2010PropOp37
 70
     1
102
RTVSPost2010Prop38
140
0.0
102
RTVSPost2010PropOp38
 70
     1
102
RTVSPost2010Prop39
140
1.0
102
RTVSPost2010PropOp39
 70
     1
102
RTVSPost2010Prop40
 90
        0
102
RTVSPost2010PropOp40
 70
     1
102
RTVSPost2010Prop41ColorIndex
 90
       18
102
RTVSPost2010Prop41ColorRGB
 90
        0
102
RTVSPost2010PropOp41
 70
     1
102
RTVSPost2010Prop42
 90
       50
102
RTVSPost2010PropOp42
 70
     1
102
RTVSPost2010Prop43
 90
        3
102
RTVSPost2010PropOp43
 70
     1
102
RTVSPost2010Prop44ColorIndex
 90
        5
102
RTVSPost2010Prop44ColorRGB
 90
      255
102
RTVSPost2010PropOp44
 70
     1
102
RTVSPost2010Prop45
280
     0
102
RTVSPost2010PropOp45
 70
     1
102
RTVSPost2010Prop46
 90
       50
102
RTVSPost2010PropOp46
 70
     1
102
RTVSPost2010Prop47
 90
       50
102
RTVSPost2010PropOp47
 70
     1
102
RTVSPost2010Prop48
 90
       50
102
RTVSPost2010PropOp48
 70
     1
102
RTVSPost2010Prop49
280
     0
102
RTVSPost2010PropOp49
 70
     1
102
RTVSPost2010Prop50
 90
       50
102
RTVSPost2010PropOp50
 70
     1
102
RTVSPost2010Prop51ColorIndex
 90
      256
102
RTVSPost2010Prop51ColorRGB
 90
-16777216
102
RTVSPost2010PropOp51
 70
     0
102
RTVSPost2010Prop52
140
1.0
102
RTVSPost2010PropOp52
 70
     0
102
RTVSPost2010Prop53
 90
        2
102
RTVSPost2010PropOp53
 70
     1
102
RTVSPost2010Prop54
  1
strokes_ogs.tif
102
RTVSPost2010PropOp54
 70
     1
102
RTVSPost2010Prop55
280
     0
102
RTVSPost2010PropOp55
 70
     1
102
RTVSPost2010Prop56
140
1.0
102
RTVSPost2010PropOp56
 70
     1
102
RTVSPost2010Prop57
140
1.0
102
RTVSPost2010PropOp57
 70
     1
  0
XRECORD
  5
F2
102
{ACAD_REACTORS
330
F1
102
}
330
F1
100
AcDbXrecord
280
     1
102
RTVSPost2010Prop28
280
     0
102
RTVSPost2010PropOp28
 70
     1
102
RTVSPost2010Prop29
280
     1
102
RTVSPost2010PropOp29
 70
     1
102
RTVSPost2010Prop30
280
     1
102
RTVSPost2010PropOp30
 70
     1
102
RTVSPost2010Prop31
280
     0
102
RTVSPost2010PropOp31
 70
     1
102
RTVSPost2010Prop32
280
     0
102
RTVSPost2010PropOp32
 70
     1
102
RTVSPost2010Prop33
280
     0
102
RTVSPost2010PropOp33
 70
     1
102
RTVSPost2010Prop34
280
     0
102
RTVSPost2010PropOp34
 70
     1
102
RTVSPost2010Prop35
280
     0
102
RTVSPost2010PropOp35
 70
     1
102
RTVSPost2010Prop36
280
     0
102
RTVSPost2010PropOp36
 70
     1
102
RTVSPost2010Prop37
 90
       50
102
RTVSPost2010PropOp37
 70
     1
102
RTVSPost2010Prop38
140
0.0
102
RTVSPost2010PropOp38
 70
     1
102
RTVSPost2010Prop39
140
1.0
102
RTVSPost2010PropOp39
 70
     1
102
RTVSPost2010Prop40
 90
        0
102
RTVSPost2010PropOp40
 70
     1
102
RTVSPost2010Prop41ColorIndex
 90
       18
102
RTVSPost2010Prop41ColorRGB
 90
        0
102
RTVSPost2010PropOp41
 70
     1
102
RTVSPost2010Prop42
 90
       50
102
RTVSPost2010PropOp42
 70
     1
102
RTVSPost2010Prop43
 90
        3
102
RTVSPost2010PropOp43
 70
     1
102
RTVSPost2010Prop44ColorIndex
 90
        5
102
RTVSPost2010Prop44ColorRGB
 90
      255
102
RTVSPost2010PropOp44
 70
     1
102
RTVSPost2010Prop45
280
     0
102
RTVSPost2010PropOp45
 70
     1
102
RTVSPost2010Prop46
 90
       50
102
RTVSPost2010PropOp46
 70
     1
102
RTVSPost2010Prop47
 90
       50
102
RTVSPost2010PropOp47
 70
     1
102
RTVSPost2010Prop48
 90
       50
102
RTVSPost2010PropOp48
 70
     1
102
RTVSPost2010Prop49
280
     0
102
RTVSPost2010PropOp49
 70
     1
102
RTVSPost2010Prop50
 90
       50
102
RTVSPost2010PropOp50
 70
     1
102
RTVSPost2010Prop51ColorIndex
 90
      256
102
RTVSPost2010Prop51ColorRGB
 90
-16777216
102
RTVSPost2010PropOp51
 70
     0
102
RTVSPost2010Prop52
140
1.0
102
RTVSPost2010PropOp52
 70
     0
102
RTVSPost2010Prop53
 90
        2
102
RTVSPost2010PropOp53
 70
     1
102
RTVSPost2010Prop54
  1
strokes_ogs.tif
102
RTVSPost2010PropOp54
 70
     1
102
RTVSPost2010Prop55
280
     0
102
RTVSPost2010PropOp55
 70
     1
102
RTVSPost2010Prop56
140
1.0
102
RTVSPost2010PropOp56
 70
     1
102
RTVSPost2010Prop57
140
1.0
102
RTVSPost2010PropOp57
 70
     1
  0
XRECORD
  5
F4
102
{ACAD_REACTORS
330
F3
102
}
330
F3
100
AcDbXrecord
280
     1
102
RTVSPost2010Prop28
280
     0
102
RTVSPost2010PropOp28
 70
     1
102
RTVSPost2010Prop29
280
     1
102
RTVSPost2010PropOp29
 70
     1
102
RTVSPost2010Prop30
280
     1
102
RTVSPost2010PropOp30
 70
     1
102
RTVSPost2010Prop31
280
     0
102
RTVSPost2010PropOp31
 70
     1
102
RTVSPost2010Prop32
280
     0
102
RTVSPost2010PropOp32
 70
     1
102
RTVSPost2010Prop33
280
     0
102
RTVSPost2010PropOp33
 70
     1
102
RTVSPost2010Prop34
280
     0
102
RTVSPost2010PropOp34
 70
     1
102
RTVSPost2010Prop35
280
     0
102
RTVSPost2010PropOp35
 70
     1
102
RTVSPost2010Prop36
280
     0
102
RTVSPost2010PropOp36
 70
     1
102
RTVSPost2010Prop37
 90
       50
102
RTVSPost2010PropOp37
 70
     1
102
RTVSPost2010Prop38
140
0.0
102
RTVSPost2010PropOp38
 70
     1
102
RTVSPost2010Prop39
140
1.0
102
RTVSPost2010PropOp39
 70
     1
102
RTVSPost2010Prop40
 90
        0
102
RTVSPost2010PropOp40
 70
     1
102
RTVSPost2010Prop41ColorIndex
 90
       18
102
RTVSPost2010Prop41ColorRGB
 90
        0
102
RTVSPost2010PropOp41
 70
     1
102
RTVSPost2010Prop42
 90
       50
102
RTVSPost2010PropOp42
 70
     1
102
RTVSPost2010Prop43
 90
        3
102
RTVSPost2010PropOp43
 70
     1
102
RTVSPost2010Prop44ColorIndex
 90
        5
102
RTVSPost2010Prop44ColorRGB
 90
      255
102
RTVSPost2010PropOp44
 70
     1
102
RTVSPost2010Prop45
280
     0
102
RTVSPost2010PropOp45
 70
     1
102
RTVSPost2010Prop46
 90
       50
102
RTVSPost2010PropOp46
 70
     1
102
RTVSPost2010Prop47
 90
       50
102
RTVSPost2010PropOp47
 70
     1
102
RTVSPost2010Prop48
 90
       50
102
RTVSPost2010PropOp48
 70
     1
102
RTVSPost2010Prop49
280
     0
102
RTVSPost2010PropOp49
 70
     1
102
RTVSPost2010Prop50
 90
       50
102
RTVSPost2010PropOp50
 70
     1
102
RTVSPost2010Prop51ColorIndex
 90
      256
102
RTVSPost2010Prop51ColorRGB
 90
-16777216
102
RTVSPost2010PropOp51
 70
     0
102
RTVSPost2010Prop52
140
1.0
102
RTVSPost2010PropOp52
 70
     0
102
RTVSPost2010Prop53
 90
        2
102
RTVSPost2010PropOp53
 70
     1
102
RTVSPost2010Prop54
  1
strokes_ogs.tif
102
RTVSPost2010PropOp54
 70
     1
102
RTVSPost2010Prop55
280
     0
102
RTVSPost2010PropOp55
 70
     1
102
RTVSPost2010Prop56
140
1.0
102
RTVSPost2010PropOp56
 70
     1
102
RTVSPost2010Prop57
140
1.0
102
RTVSPost2010PropOp57
 70
     1
  0
XRECORD
  5
F6
102
{ACAD_REACTORS
330
F5
102
}
330
F5
100
AcDbXrecord
280
     1
102
RTVSPost2010Prop28
280
     0
102
RTVSPost2010PropOp28
 70
     1
102
RTVSPost2010Prop29
280
     1
102
RTVSPost2010PropOp29
 70
     1
102
RTVSPost2010Prop30
280
     1
102
RTVSPost2010PropOp30
 70
     1
102
RTVSPost2010Prop31
280
     0
102
RTVSPost2010PropOp31
 70
     1
102
RTVSPost2010Prop32
280
     0
102
RTVSPost2010PropOp32
 70
     1
102
RTVSPost2010Prop33
280
     0
102
RTVSPost2010PropOp33
 70
     1
102
RTVSPost2010Prop34
280
     0
102
RTVSPost2010PropOp34
 70
     1
102
RTVSPost2010Prop35
280
     0
102
RTVSPost2010PropOp35
 70
     1
102
RTVSPost2010Prop36
280
     0
102
RTVSPost2010PropOp36
 70
     1
102
RTVSPost2010Prop37
 90
       50
102
RTVSPost2010PropOp37
 70
     1
102
RTVSPost2010Prop38
140
0.0
102
RTVSPost2010PropOp38
 70
     1
102
RTVSPost2010Prop39
140
1.0
102
RTVSPost2010PropOp39
 70
     1
102
RTVSPost2010Prop40
 90
        0
102
RTVSPost2010PropOp40
 70
     1
102
RTVSPost2010Prop41ColorIndex
 90
       18
102
RTVSPost2010Prop41ColorRGB
 90
        0
102
RTVSPost2010PropOp41
 70
     1
102
RTVSPost2010Prop42
 90
       50
102
RTVSPost2010PropOp42
 70
     1
102
RTVSPost2010Prop43
 90
        3
102
RTVSPost2010PropOp43
 70
     1
102
RTVSPost2010Prop44ColorIndex
 90
        5
102
RTVSPost2010Prop44ColorRGB
 90
      255
102
RTVSPost2010PropOp44
 70
     1
102
RTVSPost2010Prop45
280
     0
102
RTVSPost2010PropOp45
 70
     1
102
RTVSPost2010Prop46
 90
       50
102
RTVSPost2010PropOp46
 70
     1
102
RTVSPost2010Prop47
 90
       50
102
RTVSPost2010PropOp47
 70
     1
102
RTVSPost2010Prop48
 90
       50
102
RTVSPost2010PropOp48
 70
     1
102
RTVSPost2010Prop49
280
     0
102
RTVSPost2010PropOp49
 70
     1
102
RTVSPost2010Prop50
 90
       50
102
RTVSPost2010PropOp50
 70
     1
102
RTVSPost2010Prop51ColorIndex
 90
      256
102
RTVSPost2010Prop51ColorRGB
 90
-16777216
102
RTVSPost2010PropOp51
 70
     0
102
RTVSPost2010Prop52
140
1.0
102
RTVSPost2010PropOp52
 70
     0
102
RTVSPost2010Prop53
 90
        2
102
RTVSPost2010PropOp53
 70
     1
102
RTVSPost2010Prop54
  1
strokes_ogs.tif
102
RTVSPost2010PropOp54
 70
     1
102
RTVSPost2010Prop55
280
     0
102
RTVSPost2010PropOp55
 70
     1
102
RTVSPost2010Prop56
140
1.0
102
RTVSPost2010PropOp56
 70
     1
102
RTVSPost2010Prop57
140
1.0
102
RTVSPost2010PropOp57
 70
     1
  0
XRECORD
  5
FE
102
{ACAD_REACTORS
330
FD
102
}
330
FD
100
AcDbXrecord
280
     1
102
RTVSPost2010Prop28
280
     0
102
RTVSPost2010PropOp28
 70
     1
102
RTVSPost2010Prop29
280
     1
102
RTVSPost2010PropOp29
 70
     1
102
RTVSPost2010Prop30
280
     1
102
RTVSPost2010PropOp30
 70
     1
102
RTVSPost2010Prop31
280
     0
102
RTVSPost2010PropOp31
 70
     1
102
RTVSPost2010Prop32
280
     0
102
RTVSPost2010PropOp32
 70
     1
102
RTVSPost2010Prop33
280
     0
102
RTVSPost2010PropOp33
 70
     1
102
RTVSPost2010Prop34
280
     0
102
RTVSPost2010PropOp34
 70
     1
102
RTVSPost2010Prop35
280
     0
102
RTVSPost2010PropOp35
 70
     1
102
RTVSPost2010Prop36
280
     0
102
RTVSPost2010PropOp36
 70
     1
102
RTVSPost2010Prop37
 90
       50
102
RTVSPost2010PropOp37
 70
     1
102
RTVSPost2010Prop38
140
0.0
102
RTVSPost2010PropOp38
 70
     1
102
RTVSPost2010Prop39
140
1.0
102
RTVSPost2010PropOp39
 70
     1
102
RTVSPost2010Prop40
 90
        0
102
RTVSPost2010PropOp40
 70
     1
102
RTVSPost2010Prop41ColorIndex
 90
       18
102
RTVSPost2010Prop41ColorRGB
 90
        0
102
RTVSPost2010PropOp41
 70
     1
102
RTVSPost2010Prop42
 90
       50
102
RTVSPost2010PropOp42
 70
     1
102
RTVSPost2010Prop43
 90
        3
102
RTVSPost2010PropOp43
 70
     1
102
RTVSPost2010Prop44ColorIndex
 90
        5
102
RTVSPost2010Prop44ColorRGB
 90
      255
102
RTVSPost2010PropOp44
 70
     1
102
RTVSPost2010Prop45
280
     0
102
RTVSPost2010PropOp45
 70
     1
102
RTVSPost2010Prop46
 90
       50
102
RTVSPost2010PropOp46
 70
     1
102
RTVSPost2010Prop47
 90
       50
102
RTVSPost2010PropOp47
 70
     1
102
RTVSPost2010Prop48
 90
       50
102
RTVSPost2010PropOp48
 70
     1
102
RTVSPost2010Prop49
280
     0
102
RTVSPost2010PropOp49
 70
     1
102
RTVSPost2010Prop50
 90
       50
102
RTVSPost2010PropOp50
 70
     1
102
RTVSPost2010Prop51ColorIndex
 90
      256
102
RTVSPost2010Prop51ColorRGB
 90
-16777216
102
RTVSPost2010PropOp51
 70
     0
102
RTVSPost2010Prop52
140
1.0
102
RTVSPost2010PropOp52
 70
     0
102
RTVSPost2010Prop53
 90
        2
102
RTVSPost2010PropOp53
 70
     1
102
RTVSPost2010Prop54
  1
strokes_ogs.tif
102
RTVSPost2010PropOp54
 70
     1
102
RTVSPost2010Prop55
280
     0
102
RTVSPost2010PropOp55
 70
     1
102
RTVSPost2010Prop56
140
1.0
102
RTVSPost2010PropOp56
 70
     1
102
RTVSPost2010Prop57
140
1.0
102
RTVSPost2010PropOp57
 70
     1
  0
XRECORD
  5
11A
102
{ACAD_REACTORS
330
119
102
}
330
119
100
AcDbXrecord
280
     1
102
RTVSPost2010Prop28
280
     0
102
RTVSPost2010PropOp28
 70
     0
102
RTVSPost2010Prop29
280
     1
102
RTVSPost2010PropOp29
 70
     0
102
RTVSPost2010Prop30
280
     1
102
RTVSPost2010PropOp30
 70
     0
102
RTVSPost2010Prop31
280
     0
102
RTVSPost2010PropOp31
 70
     0
102
RTVSPost2010Prop32
280
     0
102
RTVSPost2010PropOp32
 70
     0
102
RTVSPost2010Prop33
280
     0
102
RTVSPost2010PropOp33
 70
     0
102
RTVSPost2010Prop34
280
     0
102
RTVSPost2010PropOp34
 70
     0
102
RTVSPost2010Prop35
280
     0
102
RTVSPost2010PropOp35
 70
     0
102
RTVSPost2010Prop36
280
     0
102
RTVSPost2010PropOp36
 70
     0
102
RTVSPost2010Prop37
 90
       50
102
RTVSPost2010PropOp37
 70
     0
102
RTVSPost2010Prop38
140
0.0
102
RTVSPost2010PropOp38
 70
     0
102
RTVSPost2010Prop39
140
1.0
102
RTVSPost2010PropOp39
 70
     0
102
RTVSPost2010Prop40
 90
        0
102
RTVSPost2010PropOp40
 70
     0
102
RTVSPost2010Prop41ColorIndex
 90
       18
102
RTVSPost2010Prop41ColorRGB
 90
        0
102
RTVSPost2010PropOp41
 70
     0
102
RTVSPost2010Prop42
 90
       50
102
RTVSPost2010PropOp42
 70
     0
102
RTVSPost2010Prop43
 90
        3
102
RTVSPost2010PropOp43
 70
     0
102
RTVSPost2010Prop44ColorIndex
 90
        5
102
RTVSPost2010Prop44ColorRGB
 90
      255
102
RTVSPost2010PropOp44
 70
     0
102
RTVSPost2010Prop45
280
     0
102
RTVSPost2010PropOp45
 70
     0
102
RTVSPost2010Prop46
 90
       50
102
RTVSPost2010PropOp46
 70
     0
102
RTVSPost2010Prop47
 90
       50
102
RTVSPost2010PropOp47
 70
     0
102
RTVSPost2010Prop48
 90
       50
102
RTVSPost2010PropOp48
 70
     0
102
RTVSPost2010Prop49
280
     0
102
RTVSPost2010PropOp49
 70
     0
102
RTVSPost2010Prop50
 90
       50
102
RTVSPost2010PropOp50
 70
     0
102
RTVSPost2010Prop51ColorIndex
 90
      256
102
RTVSPost2010Prop51ColorRGB
 90
-16777216
102
RTVSPost2010PropOp51
 70
     0
102
RTVSPost2010Prop52
140
1.0
102
RTVSPost2010PropOp52
 70
     0
102
RTVSPost2010Prop53
 90
        2
102
RTVSPost2010PropOp53
 70
     0
102
RTVSPost2010Prop54
  1
strokes_ogs.tif
102
RTVSPost2010PropOp54
 70
     0
102
RTVSPost2010Prop55
280
     0
102
RTVSPost2010PropOp55
 70
     0
102
RTVSPost2010Prop56
140
1.0
102
RTVSPost2010PropOp56
 70
     0
102
RTVSPost2010Prop57
140
1.0
102
RTVSPost2010PropOp57
 70
     0
  0
XRECORD
  5
10A
102
{ACAD_REACTORS
330
109
102
}
330
109
100
AcDbXrecord
280
     1
102
RTVSPost2010Prop28
280
     0
102
RTVSPost2010PropOp28
 70
     1
102
RTVSPost2010Prop29
280
     1
102
RTVSPost2010PropOp29
 70
     1
102
RTVSPost2010Prop30
280
     1
102
RTVSPost2010PropOp30
 70
     1
102
RTVSPost2010Prop31
280
     0
102
RTVSPost2010PropOp31
 70
     1
102
RTVSPost2010Prop32
280
     0
102
RTVSPost2010PropOp32
 70
     1
102
RTVSPost2010Prop33
280
     0
102
RTVSPost2010PropOp33
 70
     1
102
RTVSPost2010Prop34
280
     0
102
RTVSPost2010PropOp34
 70
     1
102
RTVSPost2010Prop35
280
     0
102
RTVSPost2010PropOp35
 70
     1
102
RTVSPost2010Prop36
280
     0
102
RTVSPost2010PropOp36
 70
     1
102
RTVSPost2010Prop37
 90
       50
102
RTVSPost2010PropOp37
 70
     1
102
RTVSPost2010Prop38
140
0.0
102
RTVSPost2010PropOp38
 70
     1
102
RTVSPost2010Prop39
140
1.0
102
RTVSPost2010PropOp39
 70
     1
102
RTVSPost2010Prop40
 90
        0
102
RTVSPost2010PropOp40
 70
     1
102
RTVSPost2010Prop41ColorIndex
 90
       18
102
RTVSPost2010Prop41ColorRGB
 90
        0
102
RTVSPost2010PropOp41
 70
     1
102
RTVSPost2010Prop42
 90
       50
102
RTVSPost2010PropOp42
 70
     1
102
RTVSPost2010Prop43
 90
        3
102
RTVSPost2010PropOp43
 70
     1
102
RTVSPost2010Prop44ColorIndex
 90
        5
102
RTVSPost2010Prop44ColorRGB
 90
      255
102
RTVSPost2010PropOp44
 70
     1
102
RTVSPost2010Prop45
280
     0
102
RTVSPost2010PropOp45
 70
     1
102
RTVSPost2010Prop46
 90
       50
102
RTVSPost2010PropOp46
 70
     1
102
RTVSPost2010Prop47
 90
       50
102
RTVSPost2010PropOp47
 70
     1
102
RTVSPost2010Prop48
 90
       50
102
RTVSPost2010PropOp48
 70
     1
102
RTVSPost2010Prop49
280
     0
102
RTVSPost2010PropOp49
 70
     1
102
RTVSPost2010Prop50
 90
       50
102
RTVSPost2010PropOp50
 70
     1
102
RTVSPost2010Prop51ColorIndex
 90
      256
102
RTVSPost2010Prop51ColorRGB
 90
-16777216
102
RTVSPost2010PropOp51
 70
     0
102
RTVSPost2010Prop52
140
1.0
102
RTVSPost2010PropOp52
 70
     0
102
RTVSPost2010Prop53
 90
        2
102
RTVSPost2010PropOp53
 70
     1
102
RTVSPost2010Prop54
  1
strokes_ogs.tif
102
RTVSPost2010PropOp54
 70
     1
102
RTVSPost2010Prop55
280
     0
102
RTVSPost2010PropOp55
 70
     1
102
RTVSPost2010Prop56
140
1.0
102
RTVSPost2010PropOp56
 70
     1
102
RTVSPost2010Prop57
140
1.0
102
RTVSPost2010PropOp57
 70
     1
  0
XRECORD
  5
11C
102
{ACAD_REACTORS
330
11B
102
}
330
11B
100
AcDbXrecord
280
     1
102
RTVSPost2010Prop28
280
     0
102
RTVSPost2010PropOp28
 70
     0
102
RTVSPost2010Prop29
280
     1
102
RTVSPost2010PropOp29
 70
     0
102
RTVSPost2010Prop30
280
     1
102
RTVSPost2010PropOp30
 70
     0
102
RTVSPost2010Prop31
280
     0
102
RTVSPost2010PropOp31
 70
     0
102
RTVSPost2010Prop32
280
     0
102
RTVSPost2010PropOp32
 70
     0
102
RTVSPost2010Prop33
280
     0
102
RTVSPost2010PropOp33
 70
     0
102
RTVSPost2010Prop34
280
     0
102
RTVSPost2010PropOp34
 70
     0
102
RTVSPost2010Prop35
280
     0
102
RTVSPost2010PropOp35
 70
     0
102
RTVSPost2010Prop36
280
     0
102
RTVSPost2010PropOp36
 70
     0
102
RTVSPost2010Prop37
 90
       50
102
RTVSPost2010PropOp37
 70
     0
102
RTVSPost2010Prop38
140
0.0
102
RTVSPost2010PropOp38
 70
     0
102
RTVSPost2010Prop39
140
1.0
102
RTVSPost2010PropOp39
 70
     0
102
RTVSPost2010Prop40
 90
        0
102
RTVSPost2010PropOp40
 70
     0
102
RTVSPost2010Prop41ColorIndex
 90
       18
102
RTVSPost2010Prop41ColorRGB
 90
        0
102
RTVSPost2010PropOp41
 70
     0
102
RTVSPost2010Prop42
 90
       50
102
RTVSPost2010PropOp42
 70
     0
102
RTVSPost2010Prop43
 90
        3
102
RTVSPost2010PropOp43
 70
     0
102
RTVSPost2010Prop44ColorIndex
 90
        5
102
RTVSPost2010Prop44ColorRGB
 90
      255
102
RTVSPost2010PropOp44
 70
     0
102
RTVSPost2010Prop45
280
     0
102
RTVSPost2010PropOp45
 70
     0
102
RTVSPost2010Prop46
 90
       50
102
RTVSPost2010PropOp46
 70
     0
102
RTVSPost2010Prop47
 90
       50
102
RTVSPost2010PropOp47
 70
     0
102
RTVSPost2010Prop48
 90
       50
102
RTVSPost2010PropOp48
 70
     0
102
RTVSPost2010Prop49
280
     0
102
RTVSPost2010PropOp49
 70
     0
102
RTVSPost2010Prop50
 90
       50
102
RTVSPost2010PropOp50
 70
     0
102
RTVSPost2010Prop51ColorIndex
 90
      256
102
RTVSPost2010Prop51ColorRGB
 90
-16777216
102
RTVSPost2010PropOp51
 70
     0
102
RTVSPost2010Prop52
140
1.0
102
RTVSPost2010PropOp52
 70
     0
102
RTVSPost2010Prop53
 90
        2
102
RTVSPost2010PropOp53
 70
     0
102
RTVSPost2010Prop54
  1
strokes_ogs.tif
102
RTVSPost2010PropOp54
 70
     0
102
RTVSPost2010Prop55
280
     0
102
RTVSPost2010PropOp55
 70
     0
102
RTVSPost2010Prop56
140
1.0
102
RTVSPost2010PropOp56
 70
     0
102
RTVSPost2010Prop57
140
1.0
102
RTVSPost2010PropOp57
 70
     0
  0
XRECORD
  5
102
102
{ACAD_REACTORS
330
101
102
}
330
101
100
AcDbXrecord
280
     1
102
RTVSPost2010Prop28
280
     0
102
RTVSPost2010PropOp28
 70
     1
102
RTVSPost2010Prop29
280
     1
102
RTVSPost2010PropOp29
 70
     1
102
RTVSPost2010Prop30
280
     1
102
RTVSPost2010PropOp30
 70
     1
102
RTVSPost2010Prop31
280
     0
102
RTVSPost2010PropOp31
 70
     1
102
RTVSPost2010Prop32
280
     0
102
RTVSPost2010PropOp32
 70
     1
102
RTVSPost2010Prop33
280
     0
102
RTVSPost2010PropOp33
 70
     1
102
RTVSPost2010Prop34
280
     0
102
RTVSPost2010PropOp34
 70
     1
102
RTVSPost2010Prop35
280
     0
102
RTVSPost2010PropOp35
 70
     1
102
RTVSPost2010Prop36
280
     0
102
RTVSPost2010PropOp36
 70
     1
102
RTVSPost2010Prop37
 90
       50
102
RTVSPost2010PropOp37
 70
     1
102
RTVSPost2010Prop38
140
0.0
102
RTVSPost2010PropOp38
 70
     1
102
RTVSPost2010Prop39
140
1.0
102
RTVSPost2010PropOp39
 70
     1
102
RTVSPost2010Prop40
 90
        0
102
RTVSPost2010PropOp40
 70
     1
102
RTVSPost2010Prop41ColorIndex
 90
       18
102
RTVSPost2010Prop41ColorRGB
 90
        0
102
RTVSPost2010PropOp41
 70
     1
102
RTVSPost2010Prop42
 90
       50
102
RTVSPost2010PropOp42
 70
     1
102
RTVSPost2010Prop43
 90
        3
102
RTVSPost2010PropOp43
 70
     1
102
RTVSPost2010Prop44ColorIndex
 90
        5
102
RTVSPost2010Prop44ColorRGB
 90
      255
102
RTVSPost2010PropOp44
 70
     1
102
RTVSPost2010Prop45
280
     0
102
RTVSPost2010PropOp45
 70
     1
102
RTVSPost2010Prop46
 90
       50
102
RTVSPost2010PropOp46
 70
     1
102
RTVSPost2010Prop47
 90
       50
102
RTVSPost2010PropOp47
 70
     1
102
RTVSPost2010Prop48
 90
       50
102
RTVSPost2010PropOp48
 70
     1
102
RTVSPost2010Prop49
280
     0
102
RTVSPost2010PropOp49
 70
     1
102
RTVSPost2010Prop50
 90
       50
102
RTVSPost2010PropOp50
 70
     1
102
RTVSPost2010Prop51ColorIndex
 90
      256
102
RTVSPost2010Prop51ColorRGB
 90
-16777216
102
RTVSPost2010PropOp51
 70
     0
102
RTVSPost2010Prop52
140
1.0
102
RTVSPost2010PropOp52
 70
     0
102
RTVSPost2010Prop53
 90
        2
102
RTVSPost2010PropOp53
 70
     1
102
RTVSPost2010Prop54
  1
strokes_ogs.tif
102
RTVSPost2010PropOp54
 70
     1
102
RTVSPost2010Prop55
280
     0
102
RTVSPost2010PropOp55
 70
     1
102
RTVSPost2010Prop56
140
1.0
102
RTVSPost2010PropOp56
 70
     1
102
RTVSPost2010Prop57
140
1.0
102
RTVSPost2010PropOp57
 70
     1
  0
XRECORD
  5
118
102
{ACAD_REACTORS
330
117
102
}
330
117
100
AcDbXrecord
280
     1
102
RTVSPost2010Prop28
280
     0
102
RTVSPost2010PropOp28
 70
     1
102
RTVSPost2010Prop29
280
     1
102
RTVSPost2010PropOp29
 70
     1
102
RTVSPost2010Prop30
280
     1
102
RTVSPost2010PropOp30
 70
     1
102
RTVSPost2010Prop31
280
     0
102
RTVSPost2010PropOp31
 70
     1
102
RTVSPost2010Prop32
280
     0
102
RTVSPost2010PropOp32
 70
     1
102
RTVSPost2010Prop33
280
     0
102
RTVSPost2010PropOp33
 70
     1
102
RTVSPost2010Prop34
280
     0
102
RTVSPost2010PropOp34
 70
     1
102
RTVSPost2010Prop35
280
     0
102
RTVSPost2010PropOp35
 70
     1
102
RTVSPost2010Prop36
280
     0
102
RTVSPost2010PropOp36
 70
     1
102
RTVSPost2010Prop37
 90
       50
102
RTVSPost2010PropOp37
 70
     1
102
RTVSPost2010Prop38
140
0.0
102
RTVSPost2010PropOp38
 70
     1
102
RTVSPost2010Prop39
140
1.0
102
RTVSPost2010PropOp39
 70
     1
102
RTVSPost2010Prop40
 90
        0
102
RTVSPost2010PropOp40
 70
     1
102
RTVSPost2010Prop41ColorIndex
 90
       18
102
RTVSPost2010Prop41ColorRGB
 90
        0
102
RTVSPost2010PropOp41
 70
     1
102
RTVSPost2010Prop42
 90
       50
102
RTVSPost2010PropOp42
 70
     1
102
RTVSPost2010Prop43
 90
        3
102
RTVSPost2010PropOp43
 70
     1
102
RTVSPost2010Prop44ColorIndex
 90
        5
102
RTVSPost2010Prop44ColorRGB
 90
      255
102
RTVSPost2010PropOp44
 70
     1
102
RTVSPost2010Prop45
280
     0
102
RTVSPost2010PropOp45
 70
     1
102
RTVSPost2010Prop46
 90
       50
102
RTVSPost2010PropOp46
 70
     1
102
RTVSPost2010Prop47
 90
       50
102
RTVSPost2010PropOp47
 70
     1
102
RTVSPost2010Prop48
 90
       50
102
RTVSPost2010PropOp48
 70
     1
102
RTVSPost2010Prop49
280
     0
102
RTVSPost2010PropOp49
 70
     1
102
RTVSPost2010Prop50
 90
       50
102
RTVSPost2010PropOp50
 70
     1
102
RTVSPost2010Prop51ColorIndex
 90
      256
102
RTVSPost2010Prop51ColorRGB
 90
-16777216
102
RTVSPost2010PropOp51
 70
     0
102
RTVSPost2010Prop52
140
1.0
102
RTVSPost2010PropOp52
 70
     0
102
RTVSPost2010Prop53
 90
        2
102
RTVSPost2010PropOp53
 70
     1
102
RTVSPost2010Prop54
  1
strokes_ogs.tif
102
RTVSPost2010PropOp54
 70
     1
102
RTVSPost2010Prop55
280
     0
102
RTVSPost2010PropOp55
 70
     1
102
RTVSPost2010Prop56
140
1.0
102
RTVSPost2010PropOp56
 70
     1
102
RTVSPost2010Prop57
140
1.0
102
RTVSPost2010PropOp57
 70
     1
  0
XRECORD
  5
116
102
{ACAD_REACTORS
330
115
102
}
330
115
100
AcDbXrecord
280
     1
102
RTVSPost2010Prop28
280
     0
102
RTVSPost2010PropOp28
 70
     1
102
RTVSPost2010Prop29
280
     1
102
RTVSPost2010PropOp29
 70
     1
102
RTVSPost2010Prop30
280
     1
102
RTVSPost2010PropOp30
 70
     1
102
RTVSPost2010Prop31
280
     0
102
RTVSPost2010PropOp31
 70
     1
102
RTVSPost2010Prop32
280
     0
102
RTVSPost2010PropOp32
 70
     1
102
RTVSPost2010Prop33
280
     0
102
RTVSPost2010PropOp33
 70
     1
102
RTVSPost2010Prop34
280
     0
102
RTVSPost2010PropOp34
 70
     1
102
RTVSPost2010Prop35
280
     0
102
RTVSPost2010PropOp35
 70
     1
102
RTVSPost2010Prop36
280
     0
102
RTVSPost2010PropOp36
 70
     1
102
RTVSPost2010Prop37
 90
       50
102
RTVSPost2010PropOp37
 70
     1
102
RTVSPost2010Prop38
140
0.0
102
RTVSPost2010PropOp38
 70
     1
102
RTVSPost2010Prop39
140
1.0
102
RTVSPost2010PropOp39
 70
     1
102
RTVSPost2010Prop40
 90
        0
102
RTVSPost2010PropOp40
 70
     1
102
RTVSPost2010Prop41ColorIndex
 90
       18
102
RTVSPost2010Prop41ColorRGB
 90
        0
102
RTVSPost2010PropOp41
 70
     1
102
RTVSPost2010Prop42
 90
       50
102
RTVSPost2010PropOp42
 70
     1
102
RTVSPost2010Prop43
 90
        3
102
RTVSPost2010PropOp43
 70
     1
102
RTVSPost2010Prop44ColorIndex
 90
        5
102
RTVSPost2010Prop44ColorRGB
 90
      255
102
RTVSPost2010PropOp44
 70
     1
102
RTVSPost2010Prop45
280
     0
102
RTVSPost2010PropOp45
 70
     1
102
RTVSPost2010Prop46
 90
       50
102
RTVSPost2010PropOp46
 70
     1
102
RTVSPost2010Prop47
 90
       50
102
RTVSPost2010PropOp47
 70
     1
102
RTVSPost2010Prop48
 90
       50
102
RTVSPost2010PropOp48
 70
     1
102
RTVSPost2010Prop49
280
     0
102
RTVSPost2010PropOp49
 70
     1
102
RTVSPost2010Prop50
 90
       50
102
RTVSPost2010PropOp50
 70
     1
102
RTVSPost2010Prop51ColorIndex
 90
      256
102
RTVSPost2010Prop51ColorRGB
 90
-16777216
102
RTVSPost2010PropOp51
 70
     0
102
RTVSPost2010Prop52
140
1.0
102
RTVSPost2010PropOp52
 70
     0
102
RTVSPost2010Prop53
 90
        2
102
RTVSPost2010PropOp53
 70
     1
102
RTVSPost2010Prop54
  1
strokes_ogs.tif
102
RTVSPost2010PropOp54
 70
     1
102
RTVSPost2010Prop55
280
     0
102
RTVSPost2010PropOp55
 70
     1
102
RTVSPost2010Prop56
140
1.0
102
RTVSPost2010PropOp56
 70
     1
102
RTVSPost2010Prop57
140
1.0
102
RTVSPost2010PropOp57
 70
     1
  0
XRECORD
  5
110
102
{ACAD_REACTORS
330
10F
102
}
330
10F
100
AcDbXrecord
280
     1
102
RTVSPost2010Prop28
280
     0
102
RTVSPost2010PropOp28
 70
     1
102
RTVSPost2010Prop29
280
     1
102
RTVSPost2010PropOp29
 70
     1
102
RTVSPost2010Prop30
280
     1
102
RTVSPost2010PropOp30
 70
     1
102
RTVSPost2010Prop31
280
     0
102
RTVSPost2010PropOp31
 70
     1
102
RTVSPost2010Prop32
280
     0
102
RTVSPost2010PropOp32
 70
     1
102
RTVSPost2010Prop33
280
     0
102
RTVSPost2010PropOp33
 70
     1
102
RTVSPost2010Prop34
280
     0
102
RTVSPost2010PropOp34
 70
     1
102
RTVSPost2010Prop35
280
     0
102
RTVSPost2010PropOp35
 70
     1
102
RTVSPost2010Prop36
280
     0
102
RTVSPost2010PropOp36
 70
     1
102
RTVSPost2010Prop37
 90
       50
102
RTVSPost2010PropOp37
 70
     1
102
RTVSPost2010Prop38
140
0.0
102
RTVSPost2010PropOp38
 70
     1
102
RTVSPost2010Prop39
140
1.0
102
RTVSPost2010PropOp39
 70
     1
102
RTVSPost2010Prop40
 90
        0
102
RTVSPost2010PropOp40
 70
     1
102
RTVSPost2010Prop41ColorIndex
 90
       18
102
RTVSPost2010Prop41ColorRGB
 90
        0
102
RTVSPost2010PropOp41
 70
     1
102
RTVSPost2010Prop42
 90
       50
102
RTVSPost2010PropOp42
 70
     1
102
RTVSPost2010Prop43
 90
        3
102
RTVSPost2010PropOp43
 70
     1
102
RTVSPost2010Prop44ColorIndex
 90
        5
102
RTVSPost2010Prop44ColorRGB
 90
      255
102
RTVSPost2010PropOp44
 70
     1
102
RTVSPost2010Prop45
280
     0
102
RTVSPost2010PropOp45
 70
     1
102
RTVSPost2010Prop46
 90
       50
102
RTVSPost2010PropOp46
 70
     1
102
RTVSPost2010Prop47
 90
       50
102
RTVSPost2010PropOp47
 70
     1
102
RTVSPost2010Prop48
 90
       50
102
RTVSPost2010PropOp48
 70
     1
102
RTVSPost2010Prop49
280
     0
102
RTVSPost2010PropOp49
 70
     1
102
RTVSPost2010Prop50
 90
       50
102
RTVSPost2010PropOp50
 70
     1
102
RTVSPost2010Prop51ColorIndex
 90
      256
102
RTVSPost2010Prop51ColorRGB
 90
-16777216
102
RTVSPost2010PropOp51
 70
     0
102
RTVSPost2010Prop52
140
1.0
102
RTVSPost2010PropOp52
 70
     0
102
RTVSPost2010Prop53
 90
        2
102
RTVSPost2010PropOp53
 70
     1
102
RTVSPost2010Prop54
  1
strokes_ogs.tif
102
RTVSPost2010PropOp54
 70
     1
102
RTVSPost2010Prop55
280
     0
102
RTVSPost2010PropOp55
 70
     1
102
RTVSPost2010Prop56
140
1.0
102
RTVSPost2010PropOp56
 70
     1
102
RTVSPost2010Prop57
140
1.0
102
RTVSPost2010PropOp57
 70
     1
  0
XRECORD
  5
112
102
{ACAD_REACTORS
330
111
102
}
330
111
100
AcDbXrecord
280
     1
102
RTVSPost2010Prop28
280
     0
102
RTVSPost2010PropOp28
 70
     1
102
RTVSPost2010Prop29
280
     1
102
RTVSPost2010PropOp29
 70
     1
102
RTVSPost2010Prop30
280
     1
102
RTVSPost2010PropOp30
 70
     1
102
RTVSPost2010Prop31
280
     0
102
RTVSPost2010PropOp31
 70
     1
102
RTVSPost2010Prop32
280
     0
102
RTVSPost2010PropOp32
 70
     1
102
RTVSPost2010Prop33
280
     0
102
RTVSPost2010PropOp33
 70
     1
102
RTVSPost2010Prop34
280
     0
102
RTVSPost2010PropOp34
 70
     1
102
RTVSPost2010Prop35
280
     0
102
RTVSPost2010PropOp35
 70
     1
102
RTVSPost2010Prop36
280
     0
102
RTVSPost2010PropOp36
 70
     1
102
RTVSPost2010Prop37
 90
       50
102
RTVSPost2010PropOp37
 70
     1
102
RTVSPost2010Prop38
140
0.0
102
RTVSPost2010PropOp38
 70
     1
102
RTVSPost2010Prop39
140
1.0
102
RTVSPost2010PropOp39
 70
     1
102
RTVSPost2010Prop40
 90
        0
102
RTVSPost2010PropOp40
 70
     1
102
RTVSPost2010Prop41ColorIndex
 90
       18
102
RTVSPost2010Prop41ColorRGB
 90
        0
102
RTVSPost2010PropOp41
 70
     1
102
RTVSPost2010Prop42
 90
       50
102
RTVSPost2010PropOp42
 70
     1
102
RTVSPost2010Prop43
 90
        3
102
RTVSPost2010PropOp43
 70
     1
102
RTVSPost2010Prop44ColorIndex
 90
        5
102
RTVSPost2010Prop44ColorRGB
 90
      255
102
RTVSPost2010PropOp44
 70
     1
102
RTVSPost2010Prop45
280
     0
102
RTVSPost2010PropOp45
 70
     1
102
RTVSPost2010Prop46
 90
       50
102
RTVSPost2010PropOp46
 70
     1
102
RTVSPost2010Prop47
 90
       50
102
RTVSPost2010PropOp47
 70
     1
102
RTVSPost2010Prop48
 90
       50
102
RTVSPost2010PropOp48
 70
     1
102
RTVSPost2010Prop49
280
     0
102
RTVSPost2010PropOp49
 70
     1
102
RTVSPost2010Prop50
 90
       50
102
RTVSPost2010PropOp50
 70
     1
102
RTVSPost2010Prop51ColorIndex
 90
      256
102
RTVSPost2010Prop51ColorRGB
 90
-16777216
102
RTVSPost2010PropOp51
 70
     0
102
RTVSPost2010Prop52
140
1.0
102
RTVSPost2010PropOp52
 70
     0
102
RTVSPost2010Prop53
 90
        2
102
RTVSPost2010PropOp53
 70
     1
102
RTVSPost2010Prop54
  1
strokes_ogs.tif
102
RTVSPost2010PropOp54
 70
     1
102
RTVSPost2010Prop55
280
     0
102
RTVSPost2010PropOp55
 70
     1
102
RTVSPost2010Prop56
140
1.0
102
RTVSPost2010PropOp56
 70
     1
102
RTVSPost2010Prop57
140
1.0
102
RTVSPost2010PropOp57
 70
     1
  0
XRECORD
  5
108
102
{ACAD_REACTORS
330
107
102
}
330
107
100
AcDbXrecord
280
     1
102
RTVSPost2010Prop28
280
     0
102
RTVSPost2010PropOp28
 70
     1
102
RTVSPost2010Prop29
280
     1
102
RTVSPost2010PropOp29
 70
     1
102
RTVSPost2010Prop30
280
     1
102
RTVSPost2010PropOp30
 70
     1
102
RTVSPost2010Prop31
280
     0
102
RTVSPost2010PropOp31
 70
     1
102
RTVSPost2010Prop32
280
     0
102
RTVSPost2010PropOp32
 70
     1
102
RTVSPost2010Prop33
280
     0
102
RTVSPost2010PropOp33
 70
     1
102
RTVSPost2010Prop34
280
     0
102
RTVSPost2010PropOp34
 70
     1
102
RTVSPost2010Prop35
280
     0
102
RTVSPost2010PropOp35
 70
     1
102
RTVSPost2010Prop36
280
     0
102
RTVSPost2010PropOp36
 70
     1
102
RTVSPost2010Prop37
 90
       50
102
RTVSPost2010PropOp37
 70
     1
102
RTVSPost2010Prop38
140
0.0
102
RTVSPost2010PropOp38
 70
     1
102
RTVSPost2010Prop39
140
1.0
102
RTVSPost2010PropOp39
 70
     1
102
RTVSPost2010Prop40
 90
        0
102
RTVSPost2010PropOp40
 70
     1
102
RTVSPost2010Prop41ColorIndex
 90
       18
102
RTVSPost2010Prop41ColorRGB
 90
        0
102
RTVSPost2010PropOp41
 70
     1
102
RTVSPost2010Prop42
 90
       50
102
RTVSPost2010PropOp42
 70
     1
102
RTVSPost2010Prop43
 90
        3
102
RTVSPost2010PropOp43
 70
     1
102
RTVSPost2010Prop44ColorIndex
 90
        5
102
RTVSPost2010Prop44ColorRGB
 90
      255
102
RTVSPost2010PropOp44
 70
     1
102
RTVSPost2010Prop45
280
     0
102
RTVSPost2010PropOp45
 70
     1
102
RTVSPost2010Prop46
 90
       50
102
RTVSPost2010PropOp46
 70
     1
102
RTVSPost2010Prop47
 90
       50
102
RTVSPost2010PropOp47
 70
     1
102
RTVSPost2010Prop48
 90
       50
102
RTVSPost2010PropOp48
 70
     1
102
RTVSPost2010Prop49
280
     0
102
RTVSPost2010PropOp49
 70
     1
102
RTVSPost2010Prop50
 90
       50
102
RTVSPost2010PropOp50
 70
     1
102
RTVSPost2010Prop51ColorIndex
 90
      256
102
RTVSPost2010Prop51ColorRGB
 90
-16777216
102
RTVSPost2010PropOp51
 70
     0
102
RTVSPost2010Prop52
140
1.0
102
RTVSPost2010PropOp52
 70
     0
102
RTVSPost2010Prop53
 90
        2
102
RTVSPost2010PropOp53
 70
     1
102
RTVSPost2010Prop54
  1
strokes_ogs.tif
102
RTVSPost2010PropOp54
 70
     1
102
RTVSPost2010Prop55
280
     0
102
RTVSPost2010PropOp55
 70
     1
102
RTVSPost2010Prop56
140
1.0
102
RTVSPost2010PropOp56
 70
     1
102
RTVSPost2010Prop57
140
1.0
102
RTVSPost2010PropOp57
 70
     1
  0
XRECORD
  5
FC
102
{ACAD_REACTORS
330
FB
102
}
330
FB
100
AcDbXrecord
280
     1
102
RTVSPost2010Prop28
280
     0
102
RTVSPost2010PropOp28
 70
     1
102
RTVSPost2010Prop29
280
     1
102
RTVSPost2010PropOp29
 70
     1
102
RTVSPost2010Prop30
280
     1
102
RTVSPost2010PropOp30
 70
     1
102
RTVSPost2010Prop31
280
     0
102
RTVSPost2010PropOp31
 70
     1
102
RTVSPost2010Prop32
280
     0
102
RTVSPost2010PropOp32
 70
     1
102
RTVSPost2010Prop33
280
     0
102
RTVSPost2010PropOp33
 70
     1
102
RTVSPost2010Prop34
280
     0
102
RTVSPost2010PropOp34
 70
     1
102
RTVSPost2010Prop35
280
     0
102
RTVSPost2010PropOp35
 70
     1
102
RTVSPost2010Prop36
280
     0
102
RTVSPost2010PropOp36
 70
     1
102
RTVSPost2010Prop37
 90
       50
102
RTVSPost2010PropOp37
 70
     1
102
RTVSPost2010Prop38
140
0.0
102
RTVSPost2010PropOp38
 70
     1
102
RTVSPost2010Prop39
140
1.0
102
RTVSPost2010PropOp39
 70
     1
102
RTVSPost2010Prop40
 90
        0
102
RTVSPost2010PropOp40
 70
     1
102
RTVSPost2010Prop41ColorIndex
 90
       18
102
RTVSPost2010Prop41ColorRGB
 90
        0
102
RTVSPost2010PropOp41
 70
     1
102
RTVSPost2010Prop42
 90
       50
102
RTVSPost2010PropOp42
 70
     1
102
RTVSPost2010Prop43
 90
        3
102
RTVSPost2010PropOp43
 70
     1
102
RTVSPost2010Prop44ColorIndex
 90
        5
102
RTVSPost2010Prop44ColorRGB
 90
      255
102
RTVSPost2010PropOp44
 70
     1
102
RTVSPost2010Prop45
280
     0
102
RTVSPost2010PropOp45
 70
     1
102
RTVSPost2010Prop46
 90
       50
102
RTVSPost2010PropOp46
 70
     1
102
RTVSPost2010Prop47
 90
       50
102
RTVSPost2010PropOp47
 70
     1
102
RTVSPost2010Prop48
 90
       50
102
RTVSPost2010PropOp48
 70
     1
102
RTVSPost2010Prop49
280
     0
102
RTVSPost2010PropOp49
 70
     1
102
RTVSPost2010Prop50
 90
       50
102
RTVSPost2010PropOp50
 70
     1
102
RTVSPost2010Prop51ColorIndex
 90
      256
102
RTVSPost2010Prop51ColorRGB
 90
-16777216
102
RTVSPost2010PropOp51
 70
     0
102
RTVSPost2010Prop52
140
1.0
102
RTVSPost2010PropOp52
 70
     0
102
RTVSPost2010Prop53
 90
        2
102
RTVSPost2010PropOp53
 70
     1
102
RTVSPost2010Prop54
  1
strokes_ogs.tif
102
RTVSPost2010PropOp54
 70
     1
102
RTVSPost2010Prop55
280
     0
102
RTVSPost2010PropOp55
 70
     1
102
RTVSPost2010Prop56
140
1.0
102
RTVSPost2010PropOp56
 70
     1
102
RTVSPost2010Prop57
140
1.0
102
RTVSPost2010PropOp57
 70
     1
  0
XRECORD
  5
114
102
{ACAD_REACTORS
330
113
102
}
330
113
100
AcDbXrecord
280
     1
102
RTVSPost2010Prop28
280
     0
102
RTVSPost2010PropOp28
 70
     1
102
RTVSPost2010Prop29
280
     1
102
RTVSPost2010PropOp29
 70
     1
102
RTVSPost2010Prop30
280
     1
102
RTVSPost2010PropOp30
 70
     1
102
RTVSPost2010Prop31
280
     0
102
RTVSPost2010PropOp31
 70
     1
102
RTVSPost2010Prop32
280
     0
102
RTVSPost2010PropOp32
 70
     1
102
RTVSPost2010Prop33
280
     0
102
RTVSPost2010PropOp33
 70
     1
102
RTVSPost2010Prop34
280
     0
102
RTVSPost2010PropOp34
 70
     1
102
RTVSPost2010Prop35
280
     0
102
RTVSPost2010PropOp35
 70
     1
102
RTVSPost2010Prop36
280
     0
102
RTVSPost2010PropOp36
 70
     1
102
RTVSPost2010Prop37
 90
       50
102
RTVSPost2010PropOp37
 70
     1
102
RTVSPost2010Prop38
140
0.0
102
RTVSPost2010PropOp38
 70
     1
102
RTVSPost2010Prop39
140
1.0
102
RTVSPost2010PropOp39
 70
     1
102
RTVSPost2010Prop40
 90
        0
102
RTVSPost2010PropOp40
 70
     1
102
RTVSPost2010Prop41ColorIndex
 90
       18
102
RTVSPost2010Prop41ColorRGB
 90
        0
102
RTVSPost2010PropOp41
 70
     1
102
RTVSPost2010Prop42
 90
       50
102
RTVSPost2010PropOp42
 70
     1
102
RTVSPost2010Prop43
 90
        3
102
RTVSPost2010PropOp43
 70
     1
102
RTVSPost2010Prop44ColorIndex
 90
        5
102
RTVSPost2010Prop44ColorRGB
 90
      255
102
RTVSPost2010PropOp44
 70
     1
102
RTVSPost2010Prop45
280
     0
102
RTVSPost2010PropOp45
 70
     1
102
RTVSPost2010Prop46
 90
       50
102
RTVSPost2010PropOp46
 70
     1
102
RTVSPost2010Prop47
 90
       50
102
RTVSPost2010PropOp47
 70
     1
102
RTVSPost2010Prop48
 90
       50
102
RTVSPost2010PropOp48
 70
     1
102
RTVSPost2010Prop49
280
     0
102
RTVSPost2010PropOp49
 70
     1
102
RTVSPost2010Prop50
 90
       50
102
RTVSPost2010PropOp50
 70
     1
102
RTVSPost2010Prop51ColorIndex
 90
      256
102
RTVSPost2010Prop51ColorRGB
 90
-16777216
102
RTVSPost2010PropOp51
 70
     0
102
RTVSPost2010Prop52
140
1.0
102
RTVSPost2010PropOp52
 70
     0
102
RTVSPost2010Prop53
 90
        2
102
RTVSPost2010PropOp53
 70
     1
102
RTVSPost2010Prop54
  1
strokes_ogs.tif
102
RTVSPost2010PropOp54
 70
     1
102
RTVSPost2010Prop55
280
     0
102
RTVSPost2010PropOp55
 70
     1
102
RTVSPost2010Prop56
140
1.0
102
RTVSPost2010PropOp56
 70
     1
102
RTVSPost2010Prop57
140
1.0
102
RTVSPost2010PropOp57
 70
     1
  0
ENDSEC
  0
EOF
