  0
SECTION
  2
HEADER
  9
$ACADVER
  1
AC1024
  9
$ACADMAINTVER
 70
   226
  9
$DWGCODEPAGE
  3
ANSI_932
  9
$INSBASE
 10
0.0
 20
0.0
 30
0.0
  9
$EXTMIN
 10
1.000000000000000E+20
 20
1.000000000000000E+20
 30
1.000000000000000E+20
  9
$EXTMAX
 10
-1.000000000000000E+20
 20
-1.000000000000000E+20
 30
-1.000000000000000E+20
  9
$LIMMIN
 10
0.0
 20
0.0
  9
$LIMMAX
 10
12.0
 20
9.0
  9
$ORTHOMODE
 70
     0
  9
$REGENMODE
 70
     1
  9
$FILLMODE
 70
     1
  9
$QTEXTMODE
 70
     0
  9
$MIRRTEXT
 70
     0
  9
$LTSCALE
 40
1.0
  9
$ATTMODE
 70
     1
  9
$TEXTSIZE
 40
0.2
  9
$TRACEWID
 40
0.05
  9
$TEXTSTYLE
  7
Standard
  9
$CLAYER
  8
0
  9
$CELTYPE
  6
ByLayer
  9
$CECOLOR
 62
   256
  9
$CELTSCALE
 40
1.0
  9
$DISPSILH
 70
     0
  9
$DIMSCALE
 40
1.0
  9
$DIMASZ
 40
0.18
  9
$DIMEXO
 40
0.0625
  9
$DIMDLI
 40
0.38
  9
$DIMRND
 40
0.0
  9
$DIMDLE
 40
0.0
  9
$DIMEXE
 40
0.18
  9
$DIMTP
 40
0.0
  9
$DIMTM
 40
0.0
  9
$DIMTXT
 40
0.18
  9
$DIMCEN
 40
0.09
  9
$DIMTSZ
 40
0.0
  9
$DIMTOL
 70
     0
  9
$DIMLIM
 70
     0
  9
$DIMTIH
 70
     1
  9
$DIMTOH
 70
     1
  9
$DIMSE1
 70
     0
  9
$DIMSE2
 70
     0
  9
$DIMTAD
 70
     0
  9
$DIMZIN
 70
     0
  9
$DIMBLK
  1

  9
$DIMASO
 70
     1
  9
$DIMSHO
 70
     1
  9
$DIMPOST
  1

  9
$DIMAPOST
  1

  9
$DIMALT
 70
     0
  9
$DIMALTD
 70
     2
  9
$DIMALTF
 40
25.4
  9
$DIMLFAC
 40
1.0
  9
$DIMTOFL
 70
     0
  9
$DIMTVP
 40
0.0
  9
$DIMTIX
 70
     0
  9
$DIMSOXD
 70
     0
  9
$DIMSAH
 70
     0
  9
$DIMBLK1
  1

  9
$DIMBLK2
  1

  9
$DIMSTYLE
  2
Standard
  9
$DIMCLRD
 70
     0
  9
$DIMCLRE
 70
     0
  9
$DIMCLRT
 70
     0
  9
$DIMTFAC
 40
1.0
  9
$DIMGAP
 40
0.09
  9
$DIMJUST
 70
     0
  9
$DIMSD1
 70
     0
  9
$DIMSD2
 70
     0
  9
$DIMTOLJ
 70
     1
  9
$DIMTZIN
 70
     0
  9
$DIMALTZ
 70
     0
  9
$DIMALTTZ
 70
     0
  9
$DIMUPT
 70
     0
  9
$DIMDEC
 70
     4
  9
$DIMTDEC
 70
     4
  9
$DIMALTU
 70
     2
  9
$DIMALTTD
 70
     2
  9
$DIMTXSTY
  7
Standard
  9
$DIMAUNIT
 70
     0
  9
$DIMADEC
 70
     0
  9
$DIMALTRND
 40
0.0
  9
$DIMAZIN
 70
     0
  9
$DIMDSEP
 70
    46
  9
$DIMATFIT
 70
     3
  9
$DIMFRAC
 70
     0
  9
$DIMLDRBLK
  1

  9
$DIMLUNIT
 70
     2
  9
$DIMLWD
 70
    -2
  9
$DIMLWE
 70
    -2
  9
$DIMTMOVE
 70
     0
  9
$DIMFXL
 40
1.0
  9
$DIMFXLON
 70
     0
  9
$DIMJOGANG
 40
0.7853981633974483
  9
$DIMTFILL
 70
     0
  9
$DIMTFILLCLR
 70
     0
  9
$DIMARCSYM
 70
     0
  9
$DIMLTYPE
  6

  9
$DIMLTEX1
  6

  9
$DIMLTEX2
  6

  9
$DIMTXTDIRECTION
 70
     0
  9
$LUNITS
 70
     2
  9
$LUPREC
 70
     4
  9
$SKETCHINC
 40
0.1
  9
$FILLETRAD
 40
0.0
  9
$AUNITS
 70
     0
  9
$AUPREC
 70
     0
  9
$MENU
  1
.
  9
$ELEVATION
 40
0.0
  9
$PELEVATION
 40
0.0
  9
$THICKNESS
 40
0.0
  9
$LIMCHECK
 70
     0
  9
$CHAMFERA
 40
0.0
  9
$CHAMFERB
 40
0.0
  9
$CHAMFERC
 40
0.0
  9
$CHAMFERD
 40
0.0
  9
$SKPOLY
 70
     0
  9
$TDCREATE
 40
2459569.489895833
  9
$TDUCREATE
 40
2459569.114895833
  9
$TDUPDATE
 40
2459569.489895833
  9
$TDUUPDATE
 40
2459569.114895833
  9
$TDINDWG
 40
0.0000000000
  9
$TDUSRTIMER
 40
0.0000000000
  9
$USRTIMER
 70
     1
  9
$ANGBASE
 50
0.0
  9
$ANGDIR
 70
     0
  9
$PDMODE
 70
     0
  9
$PDSIZE
 40
0.0
  9
$PLINEWID
 40
0.0
  9
$SPLFRAME
 70
     0
  9
$SPLINETYPE
 70
     6
  9
$SPLINESEGS
 70
     8
  9
$HANDSEED
  5
128
  9
$SURFTAB1
 70
     6
  9
$SURFTAB2
 70
     6
  9
$SURFTYPE
 70
     6
  9
$SURFU
 70
     6
  9
$SURFV
 70
     6
  9
$UCSBASE
  2

  9
$UCSNAME
  2

  9
$UCSORG
 10
0.0
 20
0.0
 30
0.0
  9
$UCSXDIR
 10
1.0
 20
0.0
 30
0.0
  9
$UCSYDIR
 10
0.0
 20
1.0
 30
0.0
  9
$UCSORTHOREF
  2

  9
$UCSORTHOVIEW
 70
     0
  9
$UCSORGTOP
 10
0.0
 20
0.0
 30
0.0
  9
$UCSORGBOTTOM
 10
0.0
 20
0.0
 30
0.0
  9
$UCSORGLEFT
 10
0.0
 20
0.0
 30
0.0
  9
$UCSORGRIGHT
 10
0.0
 20
0.0
 30
0.0
  9
$UCSORGFRONT
 10
0.0
 20
0.0
 30
0.0
  9
$UCSORGBACK
 10
0.0
 20
0.0
 30
0.0
  9
$PUCSBASE
  2

  9
$PUCSNAME
  2

  9
$PUCSORG
 10
0.0
 20
0.0
 30
0.0
  9
$PUCSXDIR
 10
1.0
 20
0.0
 30
0.0
  9
$PUCSYDIR
 10
0.0
 20
1.0
 30
0.0
  9
$PUCSORTHOREF
  2

  9
$PUCSORTHOVIEW
 70
     0
  9
$PUCSORGTOP
 10
0.0
 20
0.0
 30
0.0
  9
$PUCSORGBOTTOM
 10
0.0
 20
0.0
 30
0.0
  9
$PUCSORGLEFT
 10
0.0
 20
0.0
 30
0.0
  9
$PUCSORGRIGHT
 10
0.0
 20
0.0
 30
0.0
  9
$PUCSORGFRONT
 10
0.0
 20
0.0
 30
0.0
  9
$PUCSORGBACK
 10
0.0
 20
0.0
 30
0.0
  9
$USERI1
 70
     0
  9
$USERI2
 70
     0
  9
$USERI3
 70
     0
  9
$USERI4
 70
     0
  9
$USERI5
 70
     0
  9
$USERR1
 40
0.0
  9
$USERR2
 40
0.0
  9
$USERR3
 40
0.0
  9
$USERR4
 40
0.0
  9
$USERR5
 40
0.0
  9
$WORLDVIEW
 70
     1
  9
$SHADEDGE
 70
     3
  9
$SHADEDIF
 70
    70
  9
$TILEMODE
 70
     1
  9
$MAXACTVP
 70
    64
  9
$PINSBASE
 10
0.0
 20
0.0
 30
0.0
  9
$PLIMCHECK
 70
     0
  9
$PEXTMIN
 10
1.000000000000000E+20
 20
1.000000000000000E+20
 30
1.000000000000000E+20
  9
$PEXTMAX
 10
-1.000000000000000E+20
 20
-1.000000000000000E+20
 30
-1.000000000000000E+20
  9
$PLIMMIN
 10
0.0
 20
0.0
  9
$PLIMMAX
 10
12.0
 20
9.0
  9
$UNITMODE
 70
     0
  9
$VISRETAIN
 70
     1
  9
$PLINEGEN
 70
     0
  9
$PSLTSCALE
 70
     1
  9
$TREEDEPTH
 70
  3020
  9
$CMLSTYLE
  2
Standard
  9
$CMLJUST
 70
     0
  9
$CMLSCALE
 40
1.0
  9
$PROXYGRAPHICS
 70
     1
  9
$MEASUREMENT
 70
     0
  9
$CELWEIGHT
370
    -1
  9
$ENDCAPS
280
     0
  9
$JOINSTYLE
280
     0
  9
$LWDISPLAY
290
     1
  9
$INSUNITS
 70
     4
  9
$HYPERLINKBASE
  1

  9
$STYLESHEET
  1

  9
$XEDIT
290
     1
  9
$CEPSNTYPE
380
     0
  9
$PSTYLEMODE
290
     1
  9
$FINGERPRINTGUID
  2
{29582AB5-81A1-3743-8A6F-FA5CD3351CC4}
  9
$VERSIONGUID
  2
{574F043E-4B23-C241-BBFB-845158E3524E}
  9
$EXTNAMES
290
     1
  9
$PSVPSCALE
 40
0.0
  9
$OLESTARTUP
290
     0
  9
$SORTENTS
280
   127
  9
$INDEXCTL
280
     0
  9
$HIDETEXT
280
     1
  9
$XCLIPFRAME
280
     2
  9
$HALOGAP
280
     0
  9
$OBSCOLOR
 70
   257
  9
$OBSLTYPE
280
     0
  9
$INTERSECTIONDISPLAY
280
     0
  9
$INTERSECTIONCOLOR
 70
   257
  9
$DIMASSOC
280
     2
  9
$PROJECTNAME
  1

  9
$CAMERADISPLAY
290
     0
  9
$LENSLENGTH
 40
50.0
  9
$CAMERAHEIGHT
 40
0.0
  9
$STEPSPERSEC
 40
2.0
  9
$STEPSIZE
 40
6.0
  9
$3DDWFPREC
 40
2.0
  9
$PSOLWIDTH
 40
0.25
  9
$PSOLHEIGHT
 40
4.0
  9
$LOFTANG1
 40
1.570796326794896
  9
$LOFTANG2
 40
1.570796326794896
  9
$LOFTMAG1
 40
0.0
  9
$LOFTMAG2
 40
0.0
  9
$LOFTPARAM
 70
     7
  9
$LOFTNORMALS
280
     1
  9
$LATITUDE
 40
37.795
  9
$LONGITUDE
 40
-122.394
  9
$NORTHDIRECTION
 40
0.0
  9
$TIMEZONE
 70
 -8000
  9
$LIGHTGLYPHDISPLAY
280
     1
  9
$TILEMODELIGHTSYNCH
280
     1
  9
$CMATERIAL
347
11
  9
$SOLIDHIST
280
     0
  9
$SHOWHIST
280
     1
  9
$DWFFRAME
280
     2
  9
$DGNFRAME
280
     0
  9
$REALWORLDSCALE
290
     1
  9
$INTERFERECOLOR
 62
     1
  9
$INTERFEREOBJVS
345
33
  9
$INTERFEREVPVS
346
30
  9
$CSHADOW
280
     0
  9
$SHADOWPLANELOCATION
 40
0.0
  0
ENDSEC
  0
SECTION
  2
CLASSES
  0
CLASS
  1
ACDBDICTIONARYWDFLT
  2
AcDbDictionaryWithDefault
  3
ObjectDBX Classes
 90
        0
 91
        1
280
     0
281
     0
  0
CLASS
  1
MATERIAL
  2
AcDbMaterial
  3
ObjectDBX Classes
 90
     1153
 91
        3
280
     0
281
     0
  0
CLASS
  1
VISUALSTYLE
  2
AcDbVisualStyle
  3
ObjectDBX Classes
 90
     4095
 91
       24
280
     0
281
     0
  0
CLASS
  1
SCALE
  2
AcDbScale
  3
ObjectDBX Classes
 90
     1153
 91
       17
280
     0
281
     0
  0
CLASS
  1
TABLESTYLE
  2
AcDbTableStyle
  3
ObjectDBX Classes
 90
     4095
 91
        1
280
     0
281
     0
  0
CLASS
  1
MLEADERSTYLE
  2
AcDbMLeaderStyle
  3
ACDB_MLEADERSTYLE_CLASS
 90
     4095
 91
        1
280
     0
281
     0
  0
CLASS
  1
ACDBSECTIONVIEWSTYLE
  2
AcDbSectionViewStyle
  3
ObjectDBX Classes
 90
     1025
 91
        1
280
     0
281
     0
  0
CLASS
  1
ACDBDETAILVIEWSTYLE
  2
AcDbDetailViewStyle
  3
ObjectDBX Classes
 90
     1025
 91
        1
280
     0
281
     0
  0
CLASS
  1
DICTIONARYVAR
  2
AcDbDictionaryVar
  3
ObjectDBX Classes
 90
        0
 91
        5
280
     0
281
     0
  0
CLASS
  1
CELLSTYLEMAP
  2
AcDbCellStyleMap
  3
ObjectDBX Classes
 90
     1152
 91
        1
280
     0
281
     0
  0
ENDSEC
  0
SECTION
  2
TABLES
  0
TABLE
  2
VPORT
  5
8
330
0
100
AcDbSymbolTable
 70
     1
  0
VPORT
  5
57
330
8
100
AcDbSymbolTableRecord
100
AcDbViewportTableRecord
  2
*Active
 70
     0
 10
0.0
 20
0.0
 11
1.0
 21
1.0
 12
0.0
 22
0.0
 13
0.0
 23
0.0
 14
1.0
 24
1.0
 15
0.0
 25
0.0
 16
0.0
 26
0.0
 36
1.0
 17
104.9999999737534
 27
-148.4999999628701
 37
0.0
 40
302.939999924255
 41
0.7070707070707534
 42
50.0
 43
0.0
 44
0.0
 50
0.0
 51
0.0
 71
     0
 72
   100
 73
     1
 74
     0
 75
     1
 76
     0
 77
     0
 78
     0
281
     0
 65
     1
110
0.0
120
0.0
130
0.0
111
1.0
121
0.0
131
0.0
112
0.0
122
1.0
132
0.0
 79
     0
146
0.0
 60
     3
 61
     5
292
     1
282
     1
141
0.0
142
0.0
 63
   250
421
  3355443
  0
ENDTAB
  0
TABLE
  2
LTYPE
  5
5
330
0
100
AcDbSymbolTable
 70
     2
  0
LTYPE
  5
5B
330
5
100
AcDbSymbolTableRecord
100
AcDbLinetypeTableRecord
  2
ByBlock
 70
     0
  3

 72
    65
 73
     0
 40
0.0
  0
LTYPE
  5
5C
330
5
100
AcDbSymbolTableRecord
100
AcDbLinetypeTableRecord
  2
ByLayer
 70
     0
  3

 72
    65
 73
     0
 40
0.0
  0
LTYPE
  5
5D
330
5
100
AcDbSymbolTableRecord
100
AcDbLinetypeTableRecord
  2
Continuous
 70
     0
  3
Solid line
 72
    65
 73
     0
 40
0.0
  0
LTYPE
  5
CB
330
5
100
AcDbSymbolTableRecord
100
AcDbLinetypeTableRecord
  2
AI-Linetype-0
 70
     0
  3
Adobe Illustrator Linetype No. 0
 72
    65
 73
     2
 40
1.411111110758333
 49
0.7055555553791667
 74
     0
 49
-0.7055555553791667
 74
     0
  0
ENDTAB
  0
TABLE
  2
LAYER
  5
2
330
0
100
AcDbSymbolTable
 70
     2
  0
LAYER
  5
54
330
2
100
AcDbSymbolTableRecord
100
AcDbLayerTableRecord
  2
0
 70
     0
 62
     7
  6
Continuous
370
    -3
390
F
347
21
  0
LAYER
  5
78
330
2
100
AcDbSymbolTableRecord
100
AcDbLayerTableRecord
  2
レイヤー 1
 70
     0
 62
     7
  6
Continuous
370
     0
390
F
347
21
  0
ENDTAB
  0
TABLE
  2
STYLE
  5
3
330
0
100
AcDbSymbolTable
 70
     2
  0
STYLE
  5
55
330
3
100
AcDbSymbolTableRecord
100
AcDbTextStyleTableRecord
  2
Standard
 70
     0
 40
0.0
 41
1.0
 50
0.0
 71
     0
 42
0.2
  3
txt
  4

  0
STYLE
  5
5A
330
3
100
AcDbSymbolTableRecord
100
AcDbTextStyleTableRecord
  2
Annotative
 70
     0
 40
0.0
 41
1.0
 50
0.0
 71
     0
 42
0.2
  3
txt
  4

1001
AcadAnnotative
1000
AnnotativeData
1002
{
1070
     1
1070
     1
1002
}
  0
ENDTAB
  0
TABLE
  2
VIEW
  5
6
330
0
100
AcDbSymbolTable
 70
     0
  0
ENDTAB
  0
TABLE
  2
UCS
  5
7
330
0
100
AcDbSymbolTable
 70
     0
  0
ENDTAB
  0
TABLE
  2
APPID
  5
9
330
0
100
AcDbSymbolTable
 70
     2
  0
APPID
  5
56
330
9
100
AcDbSymbolTableRecord
100
AcDbRegAppTableRecord
  2
ACAD
 70
     0
  0
APPID
  5
5E
330
9
100
AcDbSymbolTableRecord
100
AcDbRegAppTableRecord
  2
AcadAnnotative
 70
     0
  0
ENDTAB
  0
TABLE
  2
DIMSTYLE
  5
A
330
0
100
AcDbSymbolTable
 70
     2
100
AcDbDimStyleTable
 71
     0
  0
DIMSTYLE
105
58
330
A
100
AcDbSymbolTableRecord
100
AcDbDimStyleTableRecord
  2
Standard
 70
     0
340
55
  0
DIMSTYLE
105
59
330
A
100
AcDbSymbolTableRecord
100
AcDbDimStyleTableRecord
  2
Annotative
 70
     0
340
55
1001
AcadAnnotative
1000
AnnotativeData
1002
{
1070
     1
1070
     1
1002
}
  0
ENDTAB
  0
TABLE
  2
BLOCK_RECORD
  5
1
330
0
100
AcDbSymbolTable
 70
    11
  0
BLOCK_RECORD
  5
70
330
1
100
AcDbSymbolTableRecord
100
AcDbBlockTableRecord
  2
*Model_Space
340
73
 70
     0
280
     1
281
     0
  0
BLOCK_RECORD
  5
6C
330
1
100
AcDbSymbolTableRecord
100
AcDbBlockTableRecord
  2
*Paper_Space
340
6F
 70
     0
280
     1
281
     0
  0
BLOCK_RECORD
  5
74
330
1
100
AcDbSymbolTableRecord
100
AcDbBlockTableRecord
  2
*Paper_Space0
340
77
 70
     0
280
     1
281
     0
  0
BLOCK_RECORD
  5
91
330
1
100
AcDbSymbolTableRecord
100
AcDbBlockTableRecord
  2
Block_0
340
0
102
{BLKREFS
331
92
102
}
 70
     0
280
     1
281
     0
  0
BLOCK_RECORD
  5
95
330
1
100
AcDbSymbolTableRecord
100
AcDbBlockTableRecord
  2
Block_1
340
0
102
{BLKREFS
331
96
102
}
 70
     0
280
     1
281
     0
  0
BLOCK_RECORD
  5
A2
330
1
100
AcDbSymbolTableRecord
100
AcDbBlockTableRecord
  2
Block_2
340
0
102
{BLKREFS
331
A3
102
}
 70
     0
280
     1
281
     0
  0
BLOCK_RECORD
  5
A8
330
1
100
AcDbSymbolTableRecord
100
AcDbBlockTableRecord
  2
Block_3
340
0
102
{BLKREFS
331
A9
102
}
 70
     0
280
     1
281
     0
  0
BLOCK_RECORD
  5
AF
330
1
100
AcDbSymbolTableRecord
100
AcDbBlockTableRecord
  2
Block_4
340
0
102
{BLKREFS
331
B0
102
}
 70
     0
280
     1
281
     0
  0
BLOCK_RECORD
  5
B3
330
1
100
AcDbSymbolTableRecord
100
AcDbBlockTableRecord
  2
Block_5
340
0
102
{BLKREFS
331
B4
102
}
 70
     0
280
     1
281
     0
  0
BLOCK_RECORD
  5
BB
330
1
100
AcDbSymbolTableRecord
100
AcDbBlockTableRecord
  2
Block_6
340
0
102
{BLKREFS
331
BC
102
}
 70
     0
280
     1
281
     0
  0
BLOCK_RECORD
  5
BF
330
1
100
AcDbSymbolTableRecord
100
AcDbBlockTableRecord
  2
Block_7
340
0
102
{BLKREFS
331
C0
102
}
 70
     0
280
     1
281
     0
  0
BLOCK_RECORD
  5
CF
330
1
100
AcDbSymbolTableRecord
100
AcDbBlockTableRecord
  2
Block_8
340
0
102
{BLKREFS
331
D0
102
}
 70
     0
280
     1
281
     0
  0
BLOCK_RECORD
  5
D3
330
1
100
AcDbSymbolTableRecord
100
AcDbBlockTableRecord
  2
Block_9
340
0
102
{BLKREFS
331
D4
102
}
 70
     0
280
     1
281
     0
  0
ENDTAB
  0
ENDSEC
  0
SECTION
  2
BLOCKS
  0
BLOCK
  5
71
330
70
100
AcDbEntity
  8
0
100
AcDbBlockBegin
  2
*Model_Space
 70
     0
 10
0.0
 20
0.0
 30
0.0
  3
*Model_Space
  1

  0
ENDBLK
  5
72
330
70
100
AcDbEntity
  8
0
100
AcDbBlockEnd
  0
BLOCK
  5
6D
330
6C
100
AcDbEntity
 67
     1
  8
0
100
AcDbBlockBegin
  2
*Paper_Space
 70
     0
 10
0.0
 20
0.0
 30
0.0
  3
*Paper_Space
  1

  0
ENDBLK
  5
6E
330
6C
100
AcDbEntity
 67
     1
  8
0
100
AcDbBlockEnd
  0
BLOCK
  5
75
330
74
100
AcDbEntity
 67
     1
  8
0
100
AcDbBlockBegin
  2
*Paper_Space0
 70
     0
 10
0.0
 20
0.0
 30
0.0
  3
*Paper_Space0
  1

  0
ENDBLK
  5
76
330
74
100
AcDbEntity
 67
     1
  8
0
100
AcDbBlockEnd
  0
BLOCK
  5
93
330
91
100
AcDbEntity
  8
0
100
AcDbBlockBegin
  2
Block_0
 70
     0
 10
0.0
 20
0.0
 30
0.0
  3
Block_0
  1

  0
INSERT
  5
96
330
91
100
AcDbEntity
  8
レイヤー 1
100
AcDbBlockReference
  2
Block_1
 10
0.0
 20
0.0
 30
0.0
  0
ENDBLK
  5
94
330
91
100
AcDbEntity
  8
0
100
AcDbBlockEnd
  0
BLOCK
  5
97
330
95
100
AcDbEntity
  8
0
100
AcDbBlockBegin
  2
Block_1
 70
     0
 10
0.0
 20
0.0
 30
0.0
  3
Block_1
  1

  0
SPLINE
  5
99
330
95
100
AcDbEntity
  8
レイヤー 1
100
AcDbSpline
210
0.0
220
0.0
230
1.0
 70
     9
 71
     3
 72
    17
 73
    13
 74
     0
 42
0.0000000001
 43
0.0000000001
 40
0.0
 40
0.0
 40
0.0
 40
0.0
 40
1.0
 40
1.0
 40
1.0
 40
2.0
 40
2.0
 40
2.0
 40
3.0
 40
3.0
 40
3.0
 40
4.0
 40
4.0
 40
4.0
 40
4.0
 10
116.906559215565
 20
-143.6270643087113
 30
0.0
 10
116.906559215565
 20
-143.8768337313919
 30
0.0
 10
117.1900905740011
 20
-143.9233425204428
 30
0.0
 10
117.5349446320746
 20
-143.9233425204428
 30
0.0
 10
117.8543049835572
 20
-143.9233425204428
 30
0.0
 10
118.1629855390356
 20
-143.8871690178476
 30
0.0
 10
118.1629855390356
 20
-143.6270643087113
 30
0.0
 10
118.1629855390356
 20
-143.3793619433218
 30
0.0
 10
117.8818657474392
 20
-143.3307860969798
 30
0.0
 10
117.5349446320746
 20
-143.3307860969798
 30
0.0
 10
117.2152397710434
 20
-143.3307860969798
 30
0.0
 10
116.906559215565
 20
-143.3690266568661
 30
0.0
 10
116.906559215565
 20
-143.6270643087113
 30
0.0
  0
SPLINE
  5
9A
330
95
100
AcDbEntity
  8
レイヤー 1
100
AcDbSpline
210
0.0
220
0.0
230
1.0
 70
     9
 71
     3
 72
    29
 73
    25
 74
     0
 42
0.0000000001
 43
0.0000000001
 40
0.0
 40
0.0
 40
0.0
 40
0.0
 40
1.0
 40
1.0
 40
1.0
 40
2.0
 40
2.0
 40
2.0
 40
3.0
 40
3.0
 40
3.0
 40
4.0
 40
4.0
 40
4.0
 40
5.0
 40
5.0
 40
5.0
 40
6.0
 40
6.0
 40
6.0
 40
7.0
 40
7.0
 40
7.0
 40
8.0
 40
8.0
 40
8.0
 40
8.0
 10
118.1292236032802
 20
-143.2291557801649
 30
0.0
 10
118.3386854087834
 20
-143.3373317784018
 30
0.0
 10
118.3576334339522
 20
-143.5106200813098
 30
0.0
 10
118.3576334339522
 20
-143.6270643087113
 30
0.0
 10
118.3576334339522
 20
-143.7879502678724
 30
0.0
 10
118.3111246449014
 20
-143.9295436923162
 30
0.0
 10
118.1292236032802
 20
-144.0246283277091
 30
0.0
 10
117.9345757083636
 20
-144.1283257018151
 30
0.0
 10
117.6978976485269
 20
-144.1476182365325
 30
0.0
 10
117.5349446320746
 20
-144.1476182365325
 30
0.0
 10
117.3909396407911
 20
-144.1476182365325
 30
0.0
 10
117.1391031608194
 20
-144.1303927591063
 30
0.0
 10
116.9403211513204
 20
-144.0246283277091
 30
0.0
 10
116.7374050272392
 20
-143.9167968390208
 30
0.0
 10
116.7139783779395
 20
-143.7559108798596
 30
0.0
 10
116.7139783779395
 20
-143.6270643087113
 30
0.0
 10
116.7139783779395
 20
-143.4682454068413
 30
0.0
 10
116.7584201096993
 20
-143.3245849251063
 30
0.0
 10
116.9403211513204
 20
-143.2291557801649
 30
0.0
 10
117.1329019889459
 20
-143.1299370301897
 30
0.0
 10
117.361311819618
 20
-143.10651038089
 30
0.0
 10
117.5349446320746
 20
-143.10651038089
 30
0.0
 10
117.7061658776915
 20
-143.10651038089
 30
0.0
 10
117.9366427656547
 20
-143.1278699728986
 30
0.0
 10
118.1292236032802
 20
-143.2291557801649
 30
0.0
  0
HATCH
  5
9B
330
95
100
AcDbEntity
  8
レイヤー 1
 62
    18
420
        0
440
 33554687
100
AcDbHatch
 10
0.0
 20
0.0
 30
0.0
210
0.0
220
0.0
230
1.0
  2
SOLID
 70
     1
 71
     1
 91
        2
 92
        1
 93
        1
 72
     4
 94
        3
 73
     0
 74
     0
 95
       17
 96
       13
 40
0.0
 40
0.0
 40
0.0
 40
0.0
 40
1.0
 40
1.0
 40
1.0
 40
2.0
 40
2.0
 40
2.0
 40
3.0
 40
3.0
 40
3.0
 40
4.0
 40
4.0
 40
4.0
 40
4.0
 10
116.906559215565
 20
-143.6270643087113
 10
116.906559215565
 20
-143.8768337313919
 10
117.1900905740011
 20
-143.9233425204428
 10
117.5349446320746
 20
-143.9233425204428
 10
117.8543049835572
 20
-143.9233425204428
 10
118.1629855390356
 20
-143.8871690178476
 10
118.1629855390356
 20
-143.6270643087113
 10
118.1629855390356
 20
-143.3793619433218
 10
117.8818657474392
 20
-143.3307860969798
 10
117.5349446320746
 20
-143.3307860969798
 10
117.2152397710434
 20
-143.3307860969798
 10
116.906559215565
 20
-143.3690266568661
 10
116.906559215565
 20
-143.6270643087113
 97
        0
 97
        1
330
99
 92
        1
 93
        1
 72
     4
 94
        3
 73
     0
 74
     0
 95
       29
 96
       25
 40
0.0
 40
0.0
 40
0.0
 40
0.0
 40
1.0
 40
1.0
 40
1.0
 40
2.0
 40
2.0
 40
2.0
 40
3.0
 40
3.0
 40
3.0
 40
4.0
 40
4.0
 40
4.0
 40
5.0
 40
5.0
 40
5.0
 40
6.0
 40
6.0
 40
6.0
 40
7.0
 40
7.0
 40
7.0
 40
8.0
 40
8.0
 40
8.0
 40
8.0
 10
118.1292236032802
 20
-143.2291557801649
 10
118.3386854087834
 20
-143.3373317784018
 10
118.3576334339522
 20
-143.5106200813098
 10
118.3576334339522
 20
-143.6270643087113
 10
118.3576334339522
 20
-143.7879502678724
 10
118.3111246449014
 20
-143.9295436923162
 10
118.1292236032802
 20
-144.0246283277091
 10
117.9345757083636
 20
-144.1283257018151
 10
117.6978976485269
 20
-144.1476182365325
 10
117.5349446320746
 20
-144.1476182365325
 10
117.3909396407911
 20
-144.1476182365325
 10
117.1391031608194
 20
-144.1303927591063
 10
116.9403211513204
 20
-144.0246283277091
 10
116.7374050272392
 20
-143.9167968390208
 10
116.7139783779395
 20
-143.7559108798596
 10
116.7139783779395
 20
-143.6270643087113
 10
116.7139783779395
 20
-143.4682454068413
 10
116.7584201096993
 20
-143.3245849251063
 10
116.9403211513204
 20
-143.2291557801649
 10
117.1329019889459
 20
-143.1299370301897
 10
117.361311819618
 20
-143.10651038089
 10
117.5349446320746
 20
-143.10651038089
 10
117.7061658776915
 20
-143.10651038089
 10
117.9366427656547
 20
-143.1278699728986
 10
118.1292236032802
 20
-143.2291557801649
 97
        0
 97
        1
330
9A
 75
     2
 76
     1
 98
        1
 10
0.0
 20
0.0
450
        0
451
        0
460
0.0
461
0.0
452
        0
462
0.0
453
        0
470

  0
SPLINE
  5
9C
330
95
100
AcDbEntity
  8
レイヤー 1
100
AcDbSpline
210
0.0
220
0.0
230
1.0
 70
    11
 71
     3
 72
    17
 73
    13
 74
     0
 42
0.0000000001
 43
0.0000000001
 40
0.0
 40
0.0
 40
0.0
 40
0.0
 40
1.0
 40
1.0
 40
1.0
 40
2.0
 40
2.0
 40
2.0
 40
3.0
 40
3.0
 40
3.0
 40
4.0
 40
4.0
 40
4.0
 40
4.0
 10
118.3069905303191
 20
-142.8901583844163
 30
0.0
 10
118.3069905303191
 20
-142.8901583844163
 30
0.0
 10
118.0551540503473
 20
-142.8901583844163
 30
0.0
 10
118.0551540503473
 20
-142.8901583844163
 30
0.0
 10
118.0551540503473
 20
-142.8901583844163
 30
0.0
 10
118.0551540503473
 20
-142.6383219044446
 30
0.0
 10
118.0551540503473
 20
-142.6383219044446
 30
0.0
 10
118.0551540503473
 20
-142.6383219044446
 30
0.0
 10
118.3069905303191
 20
-142.6383219044446
 30
0.0
 10
118.3069905303191
 20
-142.6383219044446
 30
0.0
 10
118.3069905303191
 20
-142.6383219044446
 30
0.0
 10
118.3069905303191
 20
-142.8901583844163
 30
0.0
 10
118.3069905303191
 20
-142.8901583844163
 30
0.0
  0
HATCH
  5
9D
330
95
100
AcDbEntity
  8
レイヤー 1
 62
    18
420
        0
440
 33554687
100
AcDbHatch
 10
0.0
 20
0.0
 30
0.0
210
0.0
220
0.0
230
1.0
  2
SOLID
 70
     1
 71
     1
 91
        1
 92
        1
 93
        1
 72
     4
 94
        3
 73
     0
 74
     0
 95
       17
 96
       13
 40
0.0
 40
0.0
 40
0.0
 40
0.0
 40
1.0
 40
1.0
 40
1.0
 40
2.0
 40
2.0
 40
2.0
 40
3.0
 40
3.0
 40
3.0
 40
4.0
 40
4.0
 40
4.0
 40
4.0
 10
118.3069905303191
 20
-142.8901583844163
 10
118.3069905303191
 20
-142.8901583844163
 10
118.0551540503473
 20
-142.8901583844163
 10
118.0551540503473
 20
-142.8901583844163
 10
118.0551540503473
 20
-142.8901583844163
 10
118.0551540503473
 20
-142.6383219044446
 10
118.0551540503473
 20
-142.6383219044446
 10
118.0551540503473
 20
-142.6383219044446
 10
118.3069905303191
 20
-142.6383219044446
 10
118.3069905303191
 20
-142.6383219044446
 10
118.3069905303191
 20
-142.6383219044446
 10
118.3069905303191
 20
-142.8901583844163
 10
118.3069905303191
 20
-142.8901583844163
 97
        0
 97
        1
330
9C
 75
     2
 76
     1
 98
        1
 10
0.0
 20
0.0
450
        0
451
        0
460
0.0
461
0.0
452
        0
462
0.0
453
        0
470

  0
SPLINE
  5
9E
330
95
100
AcDbEntity
  8
レイヤー 1
100
AcDbSpline
210
0.0
220
0.0
230
1.0
 70
     9
 71
     3
 72
    17
 73
    13
 74
     0
 42
0.0000000001
 43
0.0000000001
 40
0.0
 40
0.0
 40
0.0
 40
0.0
 40
1.0
 40
1.0
 40
1.0
 40
2.0
 40
2.0
 40
2.0
 40
3.0
 40
3.0
 40
3.0
 40
4.0
 40
4.0
 40
4.0
 40
4.0
 10
117.5666395105389
 20
-141.9021049992467
 30
0.0
 10
117.5666395105389
 20
-142.0457654809816
 30
0.0
 10
117.6534559167672
 20
-142.1983832109782
 30
0.0
 10
117.8563720408484
 20
-142.1983832109782
 30
0.0
 10
118.0616997317693
 20
-142.1983832109782
 30
0.0
 10
118.1629855390356
 20
-142.0712591875725
 30
0.0
 10
118.1629855390356
 20
-141.9021049992467
 30
0.0
 10
118.1629855390356
 20
-141.7160698430432
 30
0.0
 10
118.0403401397607
 20
-141.6058267875152
 30
0.0
 10
117.8625732127218
 20
-141.6058267875152
 30
0.0
 10
117.6407090634717
 20
-141.6058267875152
 30
0.0
 10
117.5666395105389
 20
-141.7687798039675
 30
0.0
 10
117.5666395105389
 20
-141.9021049992467
 30
0.0
  0
SPLINE
  5
9F
330
95
100
AcDbEntity
  8
レイヤー 1
100
AcDbSpline
210
0.0
220
0.0
230
1.0
 70
     9
 71
     3
 72
    17
 73
    13
 74
     0
 42
0.0000000001
 43
0.0000000001
 40
0.0
 40
0.0
 40
0.0
 40
0.0
 40
1.0
 40
1.0
 40
1.0
 40
2.0
 40
2.0
 40
2.0
 40
3.0
 40
3.0
 40
3.0
 40
4.0
 40
4.0
 40
4.0
 40
4.0
 10
116.906559215565
 20
-141.9021049992467
 30
0.0
 10
116.906559215565
 20
-142.0671250729902
 30
0.0
 10
117.0016438509579
 20
-142.1515299123788
 30
0.0
 10
117.1370361035282
 20
-142.1515299123788
 30
0.0
 10
117.2596815028031
 20
-142.1515299123788
 30
0.0
 10
117.3781927874957
 20
-142.0798719262856
 30
0.0
 10
117.3781927874957
 20
-141.9021049992467
 30
0.0
 10
117.3781927874957
 20
-141.7243380722078
 30
0.0
 10
117.2596815028031
 20
-141.6523355765661
 30
0.0
 10
117.1370361035282
 20
-141.6523355765661
 30
0.0
 10
117.0016438509579
 20
-141.6523355765661
 30
0.0
 10
116.906559215565
 20
-141.7391519827944
 30
0.0
 10
116.906559215565
 20
-141.9021049992467
 30
0.0
  0
SPLINE
  5
A0
330
95
100
AcDbEntity
  8
レイヤー 1
100
AcDbSpline
210
0.0
220
0.0
230
1.0
 70
     9
 71
     3
 72
    29
 73
    25
 74
     0
 42
0.0000000001
 43
0.0000000001
 40
0.0
 40
0.0
 40
0.0
 40
0.0
 40
1.0
 40
1.0
 40
1.0
 40
2.0
 40
2.0
 40
2.0
 40
3.0
 40
3.0
 40
3.0
 40
4.0
 40
4.0
 40
4.0
 40
5.0
 40
5.0
 40
5.0
 40
6.0
 40
6.0
 40
6.0
 40
7.0
 40
7.0
 40
7.0
 40
8.0
 40
8.0
 40
8.0
 40
8.0
 10
118.3576334339522
 20
-141.9021049992467
 30
0.0
 10
118.3576334339522
 20
-142.168755389805
 30
0.0
 10
118.2201741240908
 20
-142.4223144175194
 30
0.0
 10
117.8711859514349
 20
-142.4223144175194
 30
0.0
 10
117.6152153568809
 20
-142.4223144175194
 30
0.0
 10
117.520130721488
 20
-142.2807209930756
 30
0.0
 10
117.4588080218506
 20
-142.1749565616785
 30
0.0
 10
117.3995523795043
 20
-142.2996690182445
 30
0.0
 10
117.285175209394
 20
-142.3758056284685
 30
0.0
 10
117.1242892502328
 20
-142.3758056284685
 30
0.0
 10
116.8493706305099
 20
-142.3758056284685
 30
0.0
 10
116.7139783779395
 20
-142.1770236189696
 30
0.0
 10
116.7139783779395
 20
-141.9021049992467
 30
0.0
 10
116.7139783779395
 20
-141.6185736408106
 30
0.0
 10
116.857983369223
 20
-141.4280598604763
 30
0.0
 10
117.1242892502328
 20
-141.4280598604763
 30
0.0
 10
117.285175209394
 20
-141.4280598604763
 30
0.0
 10
117.3995523795043
 20
-141.50660803754
 30
0.0
 10
117.4588080218506
 20
-141.631320494106
 30
0.0
 10
117.5094509254837
 20
-141.5424370305866
 30
0.0
 10
117.6045355608766
 20
-141.3836181287166
 30
0.0
 10
117.8670518368527
 20
-141.3836181287166
 30
0.0
 10
118.2415337160993
 20
-141.3836181287166
 30
0.0
 10
118.3576334339522
 20
-141.6630153725703
 30
0.0
 10
118.3576334339522
 20
-141.9021049992467
 30
0.0
  0
HATCH
  5
A1
330
95
100
AcDbEntity
  8
レイヤー 1
 62
    18
420
        0
440
 33554687
100
AcDbHatch
 10
0.0
 20
0.0
 30
0.0
210
0.0
220
0.0
230
1.0
  2
SOLID
 70
     1
 71
     1
 91
        3
 92
        1
 93
        1
 72
     4
 94
        3
 73
     0
 74
     0
 95
       17
 96
       13
 40
0.0
 40
0.0
 40
0.0
 40
0.0
 40
1.0
 40
1.0
 40
1.0
 40
2.0
 40
2.0
 40
2.0
 40
3.0
 40
3.0
 40
3.0
 40
4.0
 40
4.0
 40
4.0
 40
4.0
 10
117.5666395105389
 20
-141.9021049992467
 10
117.5666395105389
 20
-142.0457654809816
 10
117.6534559167672
 20
-142.1983832109782
 10
117.8563720408484
 20
-142.1983832109782
 10
118.0616997317693
 20
-142.1983832109782
 10
118.1629855390356
 20
-142.0712591875725
 10
118.1629855390356
 20
-141.9021049992467
 10
118.1629855390356
 20
-141.7160698430432
 10
118.0403401397607
 20
-141.6058267875152
 10
117.8625732127218
 20
-141.6058267875152
 10
117.6407090634717
 20
-141.6058267875152
 10
117.5666395105389
 20
-141.7687798039675
 10
117.5666395105389
 20
-141.9021049992467
 97
        0
 97
        1
330
9E
 92
        1
 93
        1
 72
     4
 94
        3
 73
     0
 74
     0
 95
       17
 96
       13
 40
0.0
 40
0.0
 40
0.0
 40
0.0
 40
1.0
 40
1.0
 40
1.0
 40
2.0
 40
2.0
 40
2.0
 40
3.0
 40
3.0
 40
3.0
 40
4.0
 40
4.0
 40
4.0
 40
4.0
 10
116.906559215565
 20
-141.9021049992467
 10
116.906559215565
 20
-142.0671250729902
 10
117.0016438509579
 20
-142.1515299123788
 10
117.1370361035282
 20
-142.1515299123788
 10
117.2596815028031
 20
-142.1515299123788
 10
117.3781927874957
 20
-142.0798719262856
 10
117.3781927874957
 20
-141.9021049992467
 10
117.3781927874957
 20
-141.7243380722078
 10
117.2596815028031
 20
-141.6523355765661
 10
117.1370361035282
 20
-141.6523355765661
 10
117.0016438509579
 20
-141.6523355765661
 10
116.906559215565
 20
-141.7391519827944
 10
116.906559215565
 20
-141.9021049992467
 97
        0
 97
        1
330
9F
 92
        1
 93
        1
 72
     4
 94
        3
 73
     0
 74
     0
 95
       29
 96
       25
 40
0.0
 40
0.0
 40
0.0
 40
0.0
 40
1.0
 40
1.0
 40
1.0
 40
2.0
 40
2.0
 40
2.0
 40
3.0
 40
3.0
 40
3.0
 40
4.0
 40
4.0
 40
4.0
 40
5.0
 40
5.0
 40
5.0
 40
6.0
 40
6.0
 40
6.0
 40
7.0
 40
7.0
 40
7.0
 40
8.0
 40
8.0
 40
8.0
 40
8.0
 10
118.3576334339522
 20
-141.9021049992467
 10
118.3576334339522
 20
-142.168755389805
 10
118.2201741240908
 20
-142.4223144175194
 10
117.8711859514349
 20
-142.4223144175194
 10
117.6152153568809
 20
-142.4223144175194
 10
117.520130721488
 20
-142.2807209930756
 10
117.4588080218506
 20
-142.1749565616785
 10
117.3995523795043
 20
-142.2996690182445
 10
117.285175209394
 20
-142.3758056284685
 10
117.1242892502328
 20
-142.3758056284685
 10
116.8493706305099
 20
-142.3758056284685
 10
116.7139783779395
 20
-142.1770236189696
 10
116.7139783779395
 20
-141.9021049992467
 10
116.7139783779395
 20
-141.6185736408106
 10
116.857983369223
 20
-141.4280598604763
 10
117.1242892502328
 20
-141.4280598604763
 10
117.285175209394
 20
-141.4280598604763
 10
117.3995523795043
 20
-141.50660803754
 10
117.4588080218506
 20
-141.631320494106
 10
117.5094509254837
 20
-141.5424370305866
 10
117.6045355608766
 20
-141.3836181287166
 10
117.8670518368527
 20
-141.3836181287166
 10
118.2415337160993
 20
-141.3836181287166
 10
118.3576334339522
 20
-141.6630153725703
 10
118.3576334339522
 20
-141.9021049992467
 97
        0
 97
        1
330
A0
 75
     2
 76
     1
 98
        1
 10
0.0
 20
0.0
450
        0
451
        0
460
0.0
461
0.0
452
        0
462
0.0
453
        0
470

  0
ENDBLK
  5
98
330
95
100
AcDbEntity
  8
0
100
AcDbBlockEnd
  0
BLOCK
  5
A4
330
A2
100
AcDbEntity
  8
0
100
AcDbBlockBegin
  2
Block_2
 70
     0
 10
0.0
 20
0.0
 30
0.0
  3
Block_2
  1

  0
SPLINE
  5
A6
330
A2
100
AcDbEntity
  8
レイヤー 1
100
AcDbSpline
210
0.0
220
0.0
230
1.0
 70
     9
 71
     3
 72
    44
 73
    40
 74
     0
 42
0.0000000001
 43
0.0000000001
 40
0.0
 40
0.0
 40
0.0
 40
0.0
 40
1.0
 40
1.0
 40
1.0
 40
2.0
 40
2.0
 40
2.0
 40
3.0
 40
3.0
 40
3.0
 40
4.0
 40
4.0
 40
4.0
 40
5.0
 40
5.0
 40
5.0
 40
6.0
 40
6.0
 40
6.0
 40
7.0
 40
7.0
 40
7.0
 40
8.0
 40
8.0
 40
8.0
 40
9.0
 40
9.0
 40
9.0
 40
10.0
 40
10.0
 40
10.0
 40
11.0
 40
11.0
 40
11.0
 40
12.0
 40
12.0
 40
12.0
 40
13.0
 40
13.0
 40
13.0
 40
13.0
 10
117.7251139028604
 20
-153.9706189936254
 30
0.0
 10
117.8839328047304
 20
-154.1883490282932
 30
0.0
 10
117.9580023576633
 20
-154.2813666063949
 30
0.0
 10
118.1016628393982
 20
-154.3302869622855
 30
0.0
 10
118.1016628393982
 20
-154.3302869622855
 30
0.0
 10
118.1016628393982
 20
-153.551695382619
 30
0.0
 10
118.1016628393982
 20
-153.551695382619
 30
0.0
 10
118.1016628393982
 20
-153.551695382619
 30
0.0
 10
118.3069905303191
 20
-153.551695382619
 30
0.0
 10
118.3069905303191
 20
-153.551695382619
 30
0.0
 10
118.3069905303191
 20
-153.551695382619
 30
0.0
 10
118.3069905303191
 20
-154.5797118754176
 30
0.0
 10
118.3069905303191
 20
-154.5797118754176
 30
0.0
 10
117.9493896189501
 20
-154.5480169969533
 30
0.0
 10
117.8711859514349
 20
-154.4825601827335
 30
0.0
 10
117.5728406824123
 20
-154.0973985074826
 30
0.0
 10
117.3740586729134
 20
-153.8414279129285
 30
0.0
 10
117.306190291854
 20
-153.7759710987088
 30
0.0
 10
117.1687309819925
 20
-153.7759710987088
 30
0.0
 10
117.0502196972999
 20
-153.7759710987088
 30
0.0
 10
116.9193060688604
 20
-153.8479735943505
 30
0.0
 10
116.9193060688604
 20
-154.0446885465583
 30
0.0
 10
116.9193060688604
 20
-154.3047932556946
 30
0.0
 10
117.1497829568237
 20
-154.3134059944077
 30
0.0
 10
117.2662271842251
 20
-154.3175401089901
 30
0.0
 10
117.2662271842251
 20
-154.3175401089901
 30
0.0
 10
117.2662271842251
 20
-154.5418158250798
 30
0.0
 10
117.2662271842251
 20
-154.5418158250798
 30
0.0
 10
117.1391031608194
 20
-154.5332030863667
 30
0.0
 10
117.0271375575487
 20
-154.5225232903624
 30
0.0
 10
116.9086262728562
 20
-154.4422525655561
 30
0.0
 10
116.747740313695
 20
-154.3323540195766
 30
0.0
 10
116.7139783779395
 20
-154.1459743538246
 30
0.0
 10
116.7139783779395
 20
-154.0298746359717
 30
0.0
 10
116.7139783779395
 20
-153.7525444494091
 30
0.0
 10
116.8979464768519
 20
-153.545149701197
 30
0.0
 10
117.1707980392837
 20
-153.545149701197
 30
0.0
 10
117.3995523795043
 20
-153.545149701197
 30
0.0
 10
117.4987711294795
 20
-153.6615939285985
 30
0.0
 10
117.7251139028604
 20
-153.9706189936254
 30
0.0
  0
HATCH
  5
A7
330
A2
100
AcDbEntity
  8
レイヤー 1
 62
    18
420
        0
440
 33554687
100
AcDbHatch
 10
0.0
 20
0.0
 30
0.0
210
0.0
220
0.0
230
1.0
  2
SOLID
 70
     1
 71
     1
 91
        1
 92
        1
 93
        1
 72
     4
 94
        3
 73
     0
 74
     0
 95
       44
 96
       40
 40
0.0
 40
0.0
 40
0.0
 40
0.0
 40
1.0
 40
1.0
 40
1.0
 40
2.0
 40
2.0
 40
2.0
 40
3.0
 40
3.0
 40
3.0
 40
4.0
 40
4.0
 40
4.0
 40
5.0
 40
5.0
 40
5.0
 40
6.0
 40
6.0
 40
6.0
 40
7.0
 40
7.0
 40
7.0
 40
8.0
 40
8.0
 40
8.0
 40
9.0
 40
9.0
 40
9.0
 40
10.0
 40
10.0
 40
10.0
 40
11.0
 40
11.0
 40
11.0
 40
12.0
 40
12.0
 40
12.0
 40
13.0
 40
13.0
 40
13.0
 40
13.0
 10
117.7251139028604
 20
-153.9706189936254
 10
117.8839328047304
 20
-154.1883490282932
 10
117.9580023576633
 20
-154.2813666063949
 10
118.1016628393982
 20
-154.3302869622855
 10
118.1016628393982
 20
-154.3302869622855
 10
118.1016628393982
 20
-153.551695382619
 10
118.1016628393982
 20
-153.551695382619
 10
118.1016628393982
 20
-153.551695382619
 10
118.3069905303191
 20
-153.551695382619
 10
118.3069905303191
 20
-153.551695382619
 10
118.3069905303191
 20
-153.551695382619
 10
118.3069905303191
 20
-154.5797118754176
 10
118.3069905303191
 20
-154.5797118754176
 10
117.9493896189501
 20
-154.5480169969533
 10
117.8711859514349
 20
-154.4825601827335
 10
117.5728406824123
 20
-154.0973985074826
 10
117.3740586729134
 20
-153.8414279129285
 10
117.306190291854
 20
-153.7759710987088
 10
117.1687309819925
 20
-153.7759710987088
 10
117.0502196972999
 20
-153.7759710987088
 10
116.9193060688604
 20
-153.8479735943505
 10
116.9193060688604
 20
-154.0446885465583
 10
116.9193060688604
 20
-154.3047932556946
 10
117.1497829568237
 20
-154.3134059944077
 10
117.2662271842251
 20
-154.3175401089901
 10
117.2662271842251
 20
-154.3175401089901
 10
117.2662271842251
 20
-154.5418158250798
 10
117.2662271842251
 20
-154.5418158250798
 10
117.1391031608194
 20
-154.5332030863667
 10
117.0271375575487
 20
-154.5225232903624
 10
116.9086262728562
 20
-154.4422525655561
 10
116.747740313695
 20
-154.3323540195766
 10
116.7139783779395
 20
-154.1459743538246
 10
116.7139783779395
 20
-154.0298746359717
 10
116.7139783779395
 20
-153.7525444494091
 10
116.8979464768519
 20
-153.545149701197
 10
117.1707980392837
 20
-153.545149701197
 10
117.3995523795043
 20
-153.545149701197
 10
117.4987711294795
 20
-153.6615939285985
 10
117.7251139028604
 20
-153.9706189936254
 97
        0
 97
        1
330
A6
 75
     2
 76
     1
 98
        1
 10
0.0
 20
0.0
450
        0
451
        0
460
0.0
461
0.0
452
        0
462
0.0
453
        0
470

  0
ENDBLK
  5
A5
330
A2
100
AcDbEntity
  8
0
100
AcDbBlockEnd
  0
BLOCK
  5
AA
330
A8
100
AcDbEntity
  8
0
100
AcDbBlockBegin
  2
Block_3
 70
     0
 10
0.0
 20
0.0
 30
0.0
  3
Block_3
  1

  0
SPLINE
  5
AC
330
A8
100
AcDbEntity
  8
レイヤー 1
100
AcDbSpline
210
0.0
220
0.0
230
1.0
 70
    11
 71
     3
 72
    14
 73
    10
 74
     0
 42
0.0000000001
 43
0.0000000001
 40
0.0
 40
0.0
 40
0.0
 40
0.0
 40
1.0
 40
1.0
 40
1.0
 40
2.0
 40
2.0
 40
2.0
 40
3.0
 40
3.0
 40
3.0
 40
3.0
 10
102.7725382230048
 20
-156.5106878949001
 30
0.0
 10
102.7725382230048
 20
-156.5106878949001
 30
0.0
 10
102.3157185616606
 20
-157.1666340752917
 30
0.0
 10
102.3157185616606
 20
-157.1666340752917
 30
0.0
 10
102.3157185616606
 20
-157.1666340752917
 30
0.0
 10
102.7725382230048
 20
-157.1666340752917
 30
0.0
 10
102.7725382230048
 20
-157.1666340752917
 30
0.0
 10
102.7725382230048
 20
-157.1666340752917
 30
0.0
 10
102.7725382230048
 20
-156.5106878949001
 30
0.0
 10
102.7725382230048
 20
-156.5106878949001
 30
0.0
  0
SPLINE
  5
AD
330
A8
100
AcDbEntity
  8
レイヤー 1
100
AcDbSpline
210
0.0
220
0.0
230
1.0
 70
    11
 71
     3
 72
    38
 73
    34
 74
     0
 42
0.0000000001
 43
0.0000000001
 40
0.0
 40
0.0
 40
0.0
 40
0.0
 40
1.0
 40
1.0
 40
1.0
 40
2.0
 40
2.0
 40
2.0
 40
3.0
 40
3.0
 40
3.0
 40
4.0
 40
4.0
 40
4.0
 40
5.0
 40
5.0
 40
5.0
 40
6.0
 40
6.0
 40
6.0
 40
7.0
 40
7.0
 40
7.0
 40
8.0
 40
8.0
 40
8.0
 40
9.0
 40
9.0
 40
9.0
 40
10.0
 40
10.0
 40
10.0
 40
11.0
 40
11.0
 40
11.0
 40
11.0
 10
102.9904405124468
 20
-157.3654160847906
 30
0.0
 10
102.9904405124468
 20
-157.3654160847906
 30
0.0
 10
102.9904405124468
 20
-157.7123372001552
 30
0.0
 10
102.9904405124468
 20
-157.7123372001552
 30
0.0
 10
102.9904405124468
 20
-157.7123372001552
 30
0.0
 10
102.7725382230048
 20
-157.7123372001552
 30
0.0
 10
102.7725382230048
 20
-157.7123372001552
 30
0.0
 10
102.7725382230048
 20
-157.7123372001552
 30
0.0
 10
102.7725382230048
 20
-157.3654160847906
 30
0.0
 10
102.7725382230048
 20
-157.3654160847906
 30
0.0
 10
102.7725382230048
 20
-157.3654160847906
 30
0.0
 10
102.1167642973874
 20
-157.3654160847906
 30
0.0
 10
102.1167642973874
 20
-157.3654160847906
 30
0.0
 10
102.1167642973874
 20
-157.3654160847906
 30
0.0
 10
102.1167642973874
 20
-157.1411403687008
 30
0.0
 10
102.1167642973874
 20
-157.1411403687008
 30
0.0
 10
102.1167642973874
 20
-157.1411403687008
 30
0.0
 10
102.7957926175302
 20
-156.1679008941177
 30
0.0
 10
102.7957926175302
 20
-156.1679008941177
 30
0.0
 10
102.7957926175302
 20
-156.1679008941177
 30
0.0
 10
102.9904405124468
 20
-156.1679008941177
 30
0.0
 10
102.9904405124468
 20
-156.1679008941177
 30
0.0
 10
102.9904405124468
 20
-156.1679008941177
 30
0.0
 10
102.9904405124468
 20
-157.1666340752917
 30
0.0
 10
102.9904405124468
 20
-157.1666340752917
 30
0.0
 10
102.9904405124468
 20
-157.1666340752917
 30
0.0
 10
103.1978352606589
 20
-157.1666340752917
 30
0.0
 10
103.1978352606589
 20
-157.1666340752917
 30
0.0
 10
103.1978352606589
 20
-157.1666340752917
 30
0.0
 10
103.1978352606589
 20
-157.3654160847906
 30
0.0
 10
103.1978352606589
 20
-157.3654160847906
 30
0.0
 10
103.1978352606589
 20
-157.3654160847906
 30
0.0
 10
102.9904405124468
 20
-157.3654160847906
 30
0.0
 10
102.9904405124468
 20
-157.3654160847906
 30
0.0
  0
HATCH
  5
AE
330
A8
100
AcDbEntity
  8
レイヤー 1
 62
    18
420
        0
440
 33554687
100
AcDbHatch
 10
0.0
 20
0.0
 30
0.0
210
0.0
220
0.0
230
1.0
  2
SOLID
 70
     1
 71
     1
 91
        2
 92
        1
 93
        1
 72
     4
 94
        3
 73
     0
 74
     0
 95
       14
 96
       10
 40
0.0
 40
0.0
 40
0.0
 40
0.0
 40
1.0
 40
1.0
 40
1.0
 40
2.0
 40
2.0
 40
2.0
 40
3.0
 40
3.0
 40
3.0
 40
3.0
 10
102.7725382230048
 20
-156.5106878949001
 10
102.7725382230048
 20
-156.5106878949001
 10
102.3157185616606
 20
-157.1666340752917
 10
102.3157185616606
 20
-157.1666340752917
 10
102.3157185616606
 20
-157.1666340752917
 10
102.7725382230048
 20
-157.1666340752917
 10
102.7725382230048
 20
-157.1666340752917
 10
102.7725382230048
 20
-157.1666340752917
 10
102.7725382230048
 20
-156.5106878949001
 10
102.7725382230048
 20
-156.5106878949001
 97
        0
 97
        1
330
AC
 92
        1
 93
        1
 72
     4
 94
        3
 73
     0
 74
     0
 95
       38
 96
       34
 40
0.0
 40
0.0
 40
0.0
 40
0.0
 40
1.0
 40
1.0
 40
1.0
 40
2.0
 40
2.0
 40
2.0
 40
3.0
 40
3.0
 40
3.0
 40
4.0
 40
4.0
 40
4.0
 40
5.0
 40
5.0
 40
5.0
 40
6.0
 40
6.0
 40
6.0
 40
7.0
 40
7.0
 40
7.0
 40
8.0
 40
8.0
 40
8.0
 40
9.0
 40
9.0
 40
9.0
 40
10.0
 40
10.0
 40
10.0
 40
11.0
 40
11.0
 40
11.0
 40
11.0
 10
102.9904405124468
 20
-157.3654160847906
 10
102.9904405124468
 20
-157.3654160847906
 10
102.9904405124468
 20
-157.7123372001552
 10
102.9904405124468
 20
-157.7123372001552
 10
102.9904405124468
 20
-157.7123372001552
 10
102.7725382230048
 20
-157.7123372001552
 10
102.7725382230048
 20
-157.7123372001552
 10
102.7725382230048
 20
-157.7123372001552
 10
102.7725382230048
 20
-157.3654160847906
 10
102.7725382230048
 20
-157.3654160847906
 10
102.7725382230048
 20
-157.3654160847906
 10
102.1167642973874
 20
-157.3654160847906
 10
102.1167642973874
 20
-157.3654160847906
 10
102.1167642973874
 20
-157.3654160847906
 10
102.1167642973874
 20
-157.1411403687008
 10
102.1167642973874
 20
-157.1411403687008
 10
102.1167642973874
 20
-157.1411403687008
 10
102.7957926175302
 20
-156.1679008941177
 10
102.7957926175302
 20
-156.1679008941177
 10
102.7957926175302
 20
-156.1679008941177
 10
102.9904405124468
 20
-156.1679008941177
 10
102.9904405124468
 20
-156.1679008941177
 10
102.9904405124468
 20
-156.1679008941177
 10
102.9904405124468
 20
-157.1666340752917
 10
102.9904405124468
 20
-157.1666340752917
 10
102.9904405124468
 20
-157.1666340752917
 10
103.1978352606589
 20
-157.1666340752917
 10
103.1978352606589
 20
-157.1666340752917
 10
103.1978352606589
 20
-157.1666340752917
 10
103.1978352606589
 20
-157.3654160847906
 10
103.1978352606589
 20
-157.3654160847906
 10
103.1978352606589
 20
-157.3654160847906
 10
102.9904405124468
 20
-157.3654160847906
 10
102.9904405124468
 20
-157.3654160847906
 97
        0
 97
        1
330
AD
 75
     2
 76
     1
 98
        1
 10
0.0
 20
0.0
450
        0
451
        0
460
0.0
461
0.0
452
        0
462
0.0
453
        0
470

  0
ENDBLK
  5
AB
330
A8
100
AcDbEntity
  8
0
100
AcDbBlockEnd
  0
BLOCK
  5
B1
330
AF
100
AcDbEntity
  8
0
100
AcDbBlockBegin
  2
Block_4
 70
     0
 10
0.0
 20
0.0
 30
0.0
  3
Block_4
  1

  0
INSERT
  5
B4
330
AF
100
AcDbEntity
  8
レイヤー 1
100
AcDbBlockReference
  2
Block_5
 10
0.0
 20
0.0
 30
0.0
  0
ENDBLK
  5
B2
330
AF
100
AcDbEntity
  8
0
100
AcDbBlockEnd
  0
BLOCK
  5
B5
330
B3
100
AcDbEntity
  8
0
100
AcDbBlockBegin
  2
Block_5
 70
     0
 10
0.0
 20
0.0
 30
0.0
  3
Block_5
  1

  0
SPLINE
  5
B7
330
B3
100
AcDbEntity
  8
レイヤー 1
100
AcDbSpline
210
0.0
220
0.0
230
1.0
 70
    11
 71
     3
 72
    26
 73
    22
 74
     0
 42
0.0000000001
 43
0.0000000001
 40
0.0
 40
0.0
 40
0.0
 40
0.0
 40
1.0
 40
1.0
 40
1.0
 40
2.0
 40
2.0
 40
2.0
 40
3.0
 40
3.0
 40
3.0
 40
4.0
 40
4.0
 40
4.0
 40
5.0
 40
5.0
 40
5.0
 40
6.0
 40
6.0
 40
6.0
 40
7.0
 40
7.0
 40
7.0
 40
7.0
 10
107.5214300946474
 20
-140.4124457114247
 30
0.0
 10
107.5214300946474
 20
-140.4124457114247
 30
0.0
 10
107.5214300946474
 20
-139.3081203536278
 30
0.0
 10
107.5214300946474
 20
-139.3081203536278
 30
0.0
 10
107.5214300946474
 20
-139.3081203536278
 30
0.0
 10
107.1913899471605
 20
-139.3081203536278
 30
0.0
 10
107.1913899471605
 20
-139.3081203536278
 30
0.0
 10
107.1913899471605
 20
-139.3081203536278
 30
0.0
 10
107.1913899471605
 20
-139.1601535025363
 30
0.0
 10
107.1913899471605
 20
-139.1601535025363
 30
0.0
 10
107.5234971519385
 20
-139.1453395919498
 30
0.0
 10
107.5700059409894
 20
-138.9823865754974
 30
0.0
 10
107.5996337621626
 20
-138.8681816601614
 30
0.0
 10
107.5996337621626
 20
-138.8681816601614
 30
0.0
 10
107.7457058107372
 20
-138.8681816601614
 30
0.0
 10
107.7457058107372
 20
-138.8681816601614
 30
0.0
 10
107.7457058107372
 20
-138.8681816601614
 30
0.0
 10
107.7457058107372
 20
-140.4124457114247
 30
0.0
 10
107.7457058107372
 20
-140.4124457114247
 30
0.0
 10
107.7457058107372
 20
-140.4124457114247
 30
0.0
 10
107.5214300946474
 20
-140.4124457114247
 30
0.0
 10
107.5214300946474
 20
-140.4124457114247
 30
0.0
  0
HATCH
  5
B8
330
B3
100
AcDbEntity
  8
レイヤー 1
 62
    18
420
        0
440
 33554687
100
AcDbHatch
 10
0.0
 20
0.0
 30
0.0
210
0.0
220
0.0
230
1.0
  2
SOLID
 70
     1
 71
     1
 91
        1
 92
        1
 93
        1
 72
     4
 94
        3
 73
     0
 74
     0
 95
       26
 96
       22
 40
0.0
 40
0.0
 40
0.0
 40
0.0
 40
1.0
 40
1.0
 40
1.0
 40
2.0
 40
2.0
 40
2.0
 40
3.0
 40
3.0
 40
3.0
 40
4.0
 40
4.0
 40
4.0
 40
5.0
 40
5.0
 40
5.0
 40
6.0
 40
6.0
 40
6.0
 40
7.0
 40
7.0
 40
7.0
 40
7.0
 10
107.5214300946474
 20
-140.4124457114247
 10
107.5214300946474
 20
-140.4124457114247
 10
107.5214300946474
 20
-139.3081203536278
 10
107.5214300946474
 20
-139.3081203536278
 10
107.5214300946474
 20
-139.3081203536278
 10
107.1913899471605
 20
-139.3081203536278
 10
107.1913899471605
 20
-139.3081203536278
 10
107.1913899471605
 20
-139.3081203536278
 10
107.1913899471605
 20
-139.1601535025363
 10
107.1913899471605
 20
-139.1601535025363
 10
107.5234971519385
 20
-139.1453395919498
 10
107.5700059409894
 20
-138.9823865754974
 10
107.5996337621626
 20
-138.8681816601614
 10
107.5996337621626
 20
-138.8681816601614
 10
107.7457058107372
 20
-138.8681816601614
 10
107.7457058107372
 20
-138.8681816601614
 10
107.7457058107372
 20
-138.8681816601614
 10
107.7457058107372
 20
-140.4124457114247
 10
107.7457058107372
 20
-140.4124457114247
 10
107.7457058107372
 20
-140.4124457114247
 10
107.5214300946474
 20
-140.4124457114247
 10
107.5214300946474
 20
-140.4124457114247
 97
        0
 97
        1
330
B7
 75
     2
 76
     1
 98
        1
 10
0.0
 20
0.0
450
        0
451
        0
460
0.0
461
0.0
452
        0
462
0.0
453
        0
470

  0
SPLINE
  5
B9
330
B3
100
AcDbEntity
  8
レイヤー 1
100
AcDbSpline
210
0.0
220
0.0
230
1.0
 70
     9
 71
     3
 72
    53
 73
    49
 74
     0
 42
0.0000000001
 43
0.0000000001
 40
0.0
 40
0.0
 40
0.0
 40
0.0
 40
1.0
 40
1.0
 40
1.0
 40
2.0
 40
2.0
 40
2.0
 40
3.0
 40
3.0
 40
3.0
 40
4.0
 40
4.0
 40
4.0
 40
5.0
 40
5.0
 40
5.0
 40
6.0
 40
6.0
 40
6.0
 40
7.0
 40
7.0
 40
7.0
 40
8.0
 40
8.0
 40
8.0
 40
9.0
 40
9.0
 40
9.0
 40
10.0
 40
10.0
 40
10.0
 40
11.0
 40
11.0
 40
11.0
 40
12.0
 40
12.0
 40
12.0
 40
13.0
 40
13.0
 40
13.0
 40
14.0
 40
14.0
 40
14.0
 40
15.0
 40
15.0
 40
15.0
 40
16.0
 40
16.0
 40
16.0
 40
16.0
 10
108.7279025335819
 20
-140.4632608698321
 30
0.0
 10
108.6496988660667
 20
-140.4632608698321
 30
0.0
 10
108.5480685492518
 20
-140.4462076471801
 30
0.0
 10
108.446438232437
 20
-140.3828178902515
 30
0.0
 10
108.2731499295289
 20
-140.2727470894978
 30
0.0
 10
108.2517903375204
 20
-140.141661206284
 30
0.0
 10
108.2328423123515
 20
-140.0338297175957
 30
0.0
 10
108.2328423123515
 20
-140.0338297175957
 30
0.0
 10
108.4550509711501
 20
-140.0338297175957
 30
0.0
 10
108.4550509711501
 20
-140.0338297175957
 30
0.0
 10
108.5098279893656
 20
-140.2326117270946
 30
0.0
 10
108.6369520127713
 20
-140.2622395482678
 30
0.0
 10
108.729969590873
 20
-140.2622395482678
 30
0.0
 10
108.8694959580257
 20
-140.2622395482678
 30
0.0
 10
109.0217691784737
 20
-140.1628485435183
 30
0.0
 10
109.0217691784737
 20
-139.9301323434897
 30
0.0
 10
109.0217691784737
 20
-139.6741617489356
 30
0.0
 10
108.8419351941437
 20
-139.6043985653593
 30
0.0
 10
108.7213568521599
 20
-139.6043985653593
 30
0.0
 10
108.6896619736956
 20
-139.6043985653593
 30
0.0
 10
108.5480685492518
 20
-139.6043985653593
 30
0.0
 10
108.4591850857324
 20
-139.7334173912819
 30
0.0
 10
108.4591850857324
 20
-139.7334173912819
 30
0.0
 10
108.2834852159846
 20
-139.7142971113388
 30
0.0
 10
108.2834852159846
 20
-139.7142971113388
 30
0.0
 10
108.2834852159846
 20
-139.7142971113388
 30
0.0
 10
108.4040635579684
 20
-138.8681816601614
 30
0.0
 10
108.4040635579684
 20
-138.8681816601614
 30
0.0
 10
108.4040635579684
 20
-138.8681816601614
 30
0.0
 10
109.1826551376349
 20
-138.8681816601614
 30
0.0
 10
109.1826551376349
 20
-138.8681816601614
 30
0.0
 10
109.1826551376349
 20
-138.8681816601614
 30
0.0
 10
109.1826551376349
 20
-139.062829555078
 30
0.0
 10
109.1826551376349
 20
-139.062829555078
 30
0.0
 10
109.1826551376349
 20
-139.062829555078
 30
0.0
 10
108.5670165744207
 20
-139.062829555078
 30
0.0
 10
108.5670165744207
 20
-139.062829555078
 30
0.0
 10
108.5670165744207
 20
-139.062829555078
 30
0.0
 10
108.501559760201
 20
-139.4858872806667
 30
0.0
 10
108.501559760201
 20
-139.4858872806667
 30
0.0
 10
108.5628824598384
 20
-139.451953090137
 30
0.0
 10
108.6452202419359
 20
-139.4118177277338
 30
0.0
 10
108.7637315266285
 20
-139.4118177277338
 30
0.0
 10
109.0176350638914
 20
-139.4118177277338
 30
0.0
 10
109.2546576332766
 20
-139.5980251387116
 30
0.0
 10
109.2546576332766
 20
-139.9110120635465
 30
0.0
 10
109.2546576332766
 20
-140.2284776125123
 30
0.0
 10
109.0303819171868
 20
-140.4632608698321
 30
0.0
 10
108.7279025335819
 20
-140.4632608698321
 30
0.0
  0
HATCH
  5
BA
330
B3
100
AcDbEntity
  8
レイヤー 1
 62
    18
420
        0
440
 33554687
100
AcDbHatch
 10
0.0
 20
0.0
 30
0.0
210
0.0
220
0.0
230
1.0
  2
SOLID
 70
     1
 71
     1
 91
        1
 92
        1
 93
        1
 72
     4
 94
        3
 73
     0
 74
     0
 95
       53
 96
       49
 40
0.0
 40
0.0
 40
0.0
 40
0.0
 40
1.0
 40
1.0
 40
1.0
 40
2.0
 40
2.0
 40
2.0
 40
3.0
 40
3.0
 40
3.0
 40
4.0
 40
4.0
 40
4.0
 40
5.0
 40
5.0
 40
5.0
 40
6.0
 40
6.0
 40
6.0
 40
7.0
 40
7.0
 40
7.0
 40
8.0
 40
8.0
 40
8.0
 40
9.0
 40
9.0
 40
9.0
 40
10.0
 40
10.0
 40
10.0
 40
11.0
 40
11.0
 40
11.0
 40
12.0
 40
12.0
 40
12.0
 40
13.0
 40
13.0
 40
13.0
 40
14.0
 40
14.0
 40
14.0
 40
15.0
 40
15.0
 40
15.0
 40
16.0
 40
16.0
 40
16.0
 40
16.0
 10
108.7279025335819
 20
-140.4632608698321
 10
108.6496988660667
 20
-140.4632608698321
 10
108.5480685492518
 20
-140.4462076471801
 10
108.446438232437
 20
-140.3828178902515
 10
108.2731499295289
 20
-140.2727470894978
 10
108.2517903375204
 20
-140.141661206284
 10
108.2328423123515
 20
-140.0338297175957
 10
108.2328423123515
 20
-140.0338297175957
 10
108.4550509711501
 20
-140.0338297175957
 10
108.4550509711501
 20
-140.0338297175957
 10
108.5098279893656
 20
-140.2326117270946
 10
108.6369520127713
 20
-140.2622395482678
 10
108.729969590873
 20
-140.2622395482678
 10
108.8694959580257
 20
-140.2622395482678
 10
109.0217691784737
 20
-140.1628485435183
 10
109.0217691784737
 20
-139.9301323434897
 10
109.0217691784737
 20
-139.6741617489356
 10
108.8419351941437
 20
-139.6043985653593
 10
108.7213568521599
 20
-139.6043985653593
 10
108.6896619736956
 20
-139.6043985653593
 10
108.5480685492518
 20
-139.6043985653593
 10
108.4591850857324
 20
-139.7334173912819
 10
108.4591850857324
 20
-139.7334173912819
 10
108.2834852159846
 20
-139.7142971113388
 10
108.2834852159846
 20
-139.7142971113388
 10
108.2834852159846
 20
-139.7142971113388
 10
108.4040635579684
 20
-138.8681816601614
 10
108.4040635579684
 20
-138.8681816601614
 10
108.4040635579684
 20
-138.8681816601614
 10
109.1826551376349
 20
-138.8681816601614
 10
109.1826551376349
 20
-138.8681816601614
 10
109.1826551376349
 20
-138.8681816601614
 10
109.1826551376349
 20
-139.062829555078
 10
109.1826551376349
 20
-139.062829555078
 10
109.1826551376349
 20
-139.062829555078
 10
108.5670165744207
 20
-139.062829555078
 10
108.5670165744207
 20
-139.062829555078
 10
108.5670165744207
 20
-139.062829555078
 10
108.501559760201
 20
-139.4858872806667
 10
108.501559760201
 20
-139.4858872806667
 10
108.5628824598384
 20
-139.451953090137
 10
108.6452202419359
 20
-139.4118177277338
 10
108.7637315266285
 20
-139.4118177277338
 10
109.0176350638914
 20
-139.4118177277338
 10
109.2546576332766
 20
-139.5980251387116
 10
109.2546576332766
 20
-139.9110120635465
 10
109.2546576332766
 20
-140.2284776125123
 10
109.0303819171868
 20
-140.4632608698321
 10
108.7279025335819
 20
-140.4632608698321
 97
        0
 97
        1
330
B9
 75
     2
 76
     1
 98
        1
 10
0.0
 20
0.0
450
        0
451
        0
460
0.0
461
0.0
452
        0
462
0.0
453
        0
470

  0
ENDBLK
  5
B6
330
B3
100
AcDbEntity
  8
0
100
AcDbBlockEnd
  0
BLOCK
  5
BD
330
BB
100
AcDbEntity
  8
0
100
AcDbBlockBegin
  2
Block_6
 70
     0
 10
0.0
 20
0.0
 30
0.0
  3
Block_6
  1

  0
INSERT
  5
C0
330
BB
100
AcDbEntity
  8
レイヤー 1
100
AcDbBlockReference
  2
Block_7
 10
0.0
 20
0.0
 30
0.0
  0
ENDBLK
  5
BE
330
BB
100
AcDbEntity
  8
0
100
AcDbBlockEnd
  0
BLOCK
  5
C1
330
BF
100
AcDbEntity
  8
0
100
AcDbBlockBegin
  2
Block_7
 70
     0
 10
0.0
 20
0.0
 30
0.0
  3
Block_7
  1

  0
SPLINE
  5
C3
330
BF
100
AcDbEntity
  8
レイヤー 1
100
AcDbSpline
210
0.0
220
0.0
230
1.0
 70
     9
 71
     3
 72
    17
 73
    13
 74
     0
 42
0.0000000001
 43
0.0000000001
 40
0.0
 40
0.0
 40
0.0
 40
0.0
 40
1.0
 40
1.0
 40
1.0
 40
2.0
 40
2.0
 40
2.0
 40
3.0
 40
3.0
 40
3.0
 40
4.0
 40
4.0
 40
4.0
 40
4.0
 10
117.4987711294795
 20
-150.6560926272665
 30
0.0
 10
117.4987711294795
 20
-150.918264393694
 30
0.0
 10
117.7102999922738
 20
-150.9561604440318
 30
0.0
 10
117.8267442196752
 20
-150.9561604440318
 30
0.0
 10
118.002444089423
 20
-150.9561604440318
 30
0.0
 10
118.1653971058753
 20
-150.8610758086389
 30
0.0
 10
118.1653971058753
 20
-150.6771077097265
 30
0.0
 10
118.1653971058753
 20
-150.5565293677428
 30
0.0
 10
118.106141463529
 20
-150.3808294979951
 30
0.0
 10
117.8205430478018
 20
-150.3808294979951
 30
0.0
 10
117.596267331712
 20
-150.3808294979951
 30
0.0
 10
117.4987711294795
 20
-150.5203558651477
 30
0.0
 10
117.4987711294795
 20
-150.6560926272665
 30
0.0
  0
SPLINE
  5
C4
330
BF
100
AcDbEntity
  8
レイヤー 1
100
AcDbSpline
210
0.0
220
0.0
230
1.0
 70
     9
 71
     3
 72
    32
 73
    28
 74
     0
 42
0.0000000001
 43
0.0000000001
 40
0.0
 40
0.0
 40
0.0
 40
0.0
 40
1.0
 40
1.0
 40
1.0
 40
2.0
 40
2.0
 40
2.0
 40
3.0
 40
3.0
 40
3.0
 40
4.0
 40
4.0
 40
4.0
 40
5.0
 40
5.0
 40
5.0
 40
6.0
 40
6.0
 40
6.0
 40
7.0
 40
7.0
 40
7.0
 40
8.0
 40
8.0
 40
8.0
 40
9.0
 40
9.0
 40
9.0
 40
9.0
 10
118.3576334339522
 20
-150.6729735951442
 30
0.0
 10
118.3576334339522
 20
-151.1890488988347
 30
0.0
 10
117.8036620799241
 20
-151.1976616375478
 30
0.0
 10
117.58972165029
 20
-151.1976616375478
 30
0.0
 10
117.3592447623268
 20
-151.1976616375478
 30
0.0
 10
116.7119113206484
 20
-151.1783691028304
 30
0.0
 10
116.7119113206484
 20
-150.634733035258
 30
0.0
 10
116.7119113206484
 20
-150.4614447323499
 30
0.0
 10
116.781846758999
 20
-150.2158094242516
 30
0.0
 10
117.1139539637771
 20
-150.1779133739138
 30
0.0
 10
117.1139539637771
 20
-150.1779133739138
 30
0.0
 10
117.1139539637771
 20
-150.3915092939993
 30
0.0
 10
117.1139539637771
 20
-150.3915092939993
 30
0.0
 10
117.0567653787219
 20
-150.4021890900036
 30
0.0
 10
116.9086262728562
 20
-150.4338839684679
 30
0.0
 10
116.9086262728562
 20
-150.6368000925491
 30
0.0
 10
116.9086262728562
 20
-150.9289441896983
 30
0.0
 10
117.2365993630519
 20
-150.9689072973272
 30
0.0
 10
117.4415825444243
 20
-150.9816541506226
 30
0.0
 10
117.3633788769091
 20
-150.8886365725209
 30
0.0
 10
117.3041232345628
 20
-150.8207681914614
 30
0.0
 10
117.3041232345628
 20
-150.6388671498403
 30
0.0
 10
117.3041232345628
 20
-150.4590331655102
 30
0.0
 10
117.4122992327997
 20
-150.1565537819053
 30
0.0
 10
117.8184759905106
 20
-150.1565537819053
 30
0.0
 10
118.1378363419933
 20
-150.1565537819053
 30
0.0
 10
118.3576334339522
 20
-150.3556803009527
 30
0.0
 10
118.3576334339522
 20
-150.6729735951442
 30
0.0
  0
HATCH
  5
C5
330
BF
100
AcDbEntity
  8
レイヤー 1
 62
    18
420
        0
440
 33554687
100
AcDbHatch
 10
0.0
 20
0.0
 30
0.0
210
0.0
220
0.0
230
1.0
  2
SOLID
 70
     1
 71
     1
 91
        2
 92
        1
 93
        1
 72
     4
 94
        3
 73
     0
 74
     0
 95
       17
 96
       13
 40
0.0
 40
0.0
 40
0.0
 40
0.0
 40
1.0
 40
1.0
 40
1.0
 40
2.0
 40
2.0
 40
2.0
 40
3.0
 40
3.0
 40
3.0
 40
4.0
 40
4.0
 40
4.0
 40
4.0
 10
117.4987711294795
 20
-150.6560926272665
 10
117.4987711294795
 20
-150.918264393694
 10
117.7102999922738
 20
-150.9561604440318
 10
117.8267442196752
 20
-150.9561604440318
 10
118.002444089423
 20
-150.9561604440318
 10
118.1653971058753
 20
-150.8610758086389
 10
118.1653971058753
 20
-150.6771077097265
 10
118.1653971058753
 20
-150.5565293677428
 10
118.106141463529
 20
-150.3808294979951
 10
117.8205430478018
 20
-150.3808294979951
 10
117.596267331712
 20
-150.3808294979951
 10
117.4987711294795
 20
-150.5203558651477
 10
117.4987711294795
 20
-150.6560926272665
 97
        0
 97
        1
330
C3
 92
        1
 93
        1
 72
     4
 94
        3
 73
     0
 74
     0
 95
       32
 96
       28
 40
0.0
 40
0.0
 40
0.0
 40
0.0
 40
1.0
 40
1.0
 40
1.0
 40
2.0
 40
2.0
 40
2.0
 40
3.0
 40
3.0
 40
3.0
 40
4.0
 40
4.0
 40
4.0
 40
5.0
 40
5.0
 40
5.0
 40
6.0
 40
6.0
 40
6.0
 40
7.0
 40
7.0
 40
7.0
 40
8.0
 40
8.0
 40
8.0
 40
9.0
 40
9.0
 40
9.0
 40
9.0
 10
118.3576334339522
 20
-150.6729735951442
 10
118.3576334339522
 20
-151.1890488988347
 10
117.8036620799241
 20
-151.1976616375478
 10
117.58972165029
 20
-151.1976616375478
 10
117.3592447623268
 20
-151.1976616375478
 10
116.7119113206484
 20
-151.1783691028304
 10
116.7119113206484
 20
-150.634733035258
 10
116.7119113206484
 20
-150.4614447323499
 10
116.781846758999
 20
-150.2158094242516
 10
117.1139539637771
 20
-150.1779133739138
 10
117.1139539637771
 20
-150.1779133739138
 10
117.1139539637771
 20
-150.3915092939993
 10
117.1139539637771
 20
-150.3915092939993
 10
117.0567653787219
 20
-150.4021890900036
 10
116.9086262728562
 20
-150.4338839684679
 10
116.9086262728562
 20
-150.6368000925491
 10
116.9086262728562
 20
-150.9289441896983
 10
117.2365993630519
 20
-150.9689072973272
 10
117.4415825444243
 20
-150.9816541506226
 10
117.3633788769091
 20
-150.8886365725209
 10
117.3041232345628
 20
-150.8207681914614
 10
117.3041232345628
 20
-150.6388671498403
 10
117.3041232345628
 20
-150.4590331655102
 10
117.4122992327997
 20
-150.1565537819053
 10
117.8184759905106
 20
-150.1565537819053
 10
118.1378363419933
 20
-150.1565537819053
 10
118.3576334339522
 20
-150.3556803009527
 10
118.3576334339522
 20
-150.6729735951442
 97
        0
 97
        1
330
C4
 75
     2
 76
     1
 98
        1
 10
0.0
 20
0.0
450
        0
451
        0
460
0.0
461
0.0
452
        0
462
0.0
453
        0
470

  0
SPLINE
  5
C6
330
BF
100
AcDbEntity
  8
レイヤー 1
100
AcDbSpline
210
0.0
220
0.0
230
1.0
 70
    11
 71
     3
 72
    17
 73
    13
 74
     0
 42
0.0000000001
 43
0.0000000001
 40
0.0
 40
0.0
 40
0.0
 40
0.0
 40
1.0
 40
1.0
 40
1.0
 40
2.0
 40
2.0
 40
2.0
 40
3.0
 40
3.0
 40
3.0
 40
4.0
 40
4.0
 40
4.0
 40
4.0
 10
118.3069905303191
 20
-149.9402017854316
 30
0.0
 10
118.3069905303191
 20
-149.9402017854316
 30
0.0
 10
118.0551540503473
 20
-149.9402017854316
 30
0.0
 10
118.0551540503473
 20
-149.9402017854316
 30
0.0
 10
118.0551540503473
 20
-149.9402017854316
 30
0.0
 10
118.0551540503473
 20
-149.6883653054598
 30
0.0
 10
118.0551540503473
 20
-149.6883653054598
 30
0.0
 10
118.0551540503473
 20
-149.6883653054598
 30
0.0
 10
118.3069905303191
 20
-149.6883653054598
 30
0.0
 10
118.3069905303191
 20
-149.6883653054598
 30
0.0
 10
118.3069905303191
 20
-149.6883653054598
 30
0.0
 10
118.3069905303191
 20
-149.9402017854316
 30
0.0
 10
118.3069905303191
 20
-149.9402017854316
 30
0.0
  0
HATCH
  5
C7
330
BF
100
AcDbEntity
  8
レイヤー 1
 62
    18
420
        0
440
 33554687
100
AcDbHatch
 10
0.0
 20
0.0
 30
0.0
210
0.0
220
0.0
230
1.0
  2
SOLID
 70
     1
 71
     1
 91
        1
 92
        1
 93
        1
 72
     4
 94
        3
 73
     0
 74
     0
 95
       17
 96
       13
 40
0.0
 40
0.0
 40
0.0
 40
0.0
 40
1.0
 40
1.0
 40
1.0
 40
2.0
 40
2.0
 40
2.0
 40
3.0
 40
3.0
 40
3.0
 40
4.0
 40
4.0
 40
4.0
 40
4.0
 10
118.3069905303191
 20
-149.9402017854316
 10
118.3069905303191
 20
-149.9402017854316
 10
118.0551540503473
 20
-149.9402017854316
 10
118.0551540503473
 20
-149.9402017854316
 10
118.0551540503473
 20
-149.9402017854316
 10
118.0551540503473
 20
-149.6883653054598
 10
118.0551540503473
 20
-149.6883653054598
 10
118.0551540503473
 20
-149.6883653054598
 10
118.3069905303191
 20
-149.6883653054598
 10
118.3069905303191
 20
-149.6883653054598
 10
118.3069905303191
 20
-149.6883653054598
 10
118.3069905303191
 20
-149.9402017854316
 10
118.3069905303191
 20
-149.9402017854316
 97
        0
 97
        1
330
C6
 75
     2
 76
     1
 98
        1
 10
0.0
 20
0.0
450
        0
451
        0
460
0.0
461
0.0
452
        0
462
0.0
453
        0
470

  0
SPLINE
  5
C8
330
BF
100
AcDbEntity
  8
レイヤー 1
100
AcDbSpline
210
0.0
220
0.0
230
1.0
 70
     9
 71
     3
 72
    53
 73
    49
 74
     0
 42
0.0000000001
 43
0.0000000001
 40
0.0
 40
0.0
 40
0.0
 40
0.0
 40
1.0
 40
1.0
 40
1.0
 40
2.0
 40
2.0
 40
2.0
 40
3.0
 40
3.0
 40
3.0
 40
4.0
 40
4.0
 40
4.0
 40
5.0
 40
5.0
 40
5.0
 40
6.0
 40
6.0
 40
6.0
 40
7.0
 40
7.0
 40
7.0
 40
8.0
 40
8.0
 40
8.0
 40
9.0
 40
9.0
 40
9.0
 40
10.0
 40
10.0
 40
10.0
 40
11.0
 40
11.0
 40
11.0
 40
12.0
 40
12.0
 40
12.0
 40
13.0
 40
13.0
 40
13.0
 40
14.0
 40
14.0
 40
14.0
 40
15.0
 40
15.0
 40
15.0
 40
16.0
 40
16.0
 40
16.0
 40
16.0
 10
118.3576334339522
 20
-148.9710964254308
 30
0.0
 10
118.3576334339522
 20
-149.049300092946
 30
0.0
 10
118.3407524660745
 20
-149.1509304097609
 30
0.0
 10
118.2773627091459
 20
-149.2525607265757
 30
0.0
 10
118.1674641631665
 20
-149.4258490294838
 30
0.0
 10
118.0362060251784
 20
-149.4472086214923
 30
0.0
 10
117.9283745364901
 20
-149.4661566466612
 30
0.0
 10
117.9283745364901
 20
-149.4661566466612
 30
0.0
 10
117.9283745364901
 20
-149.2439479878626
 30
0.0
 10
117.9283745364901
 20
-149.2439479878626
 30
0.0
 10
118.127156545989
 20
-149.1891709696471
 30
0.0
 10
118.1567843671622
 20
-149.0620469462414
 30
0.0
 10
118.1567843671622
 20
-148.9690293681397
 30
0.0
 10
118.1567843671622
 20
-148.829503000987
 30
0.0
 10
118.0572211076384
 20
-148.677229780539
 30
0.0
 10
117.8246771623841
 20
-148.677229780539
 30
0.0
 10
117.56870656783
 20
-148.677229780539
 30
0.0
 10
117.4987711294795
 20
-148.8570637648691
 30
0.0
 10
117.4987711294795
 20
-148.9776421068528
 30
0.0
 10
117.4987711294795
 20
-149.0093369853171
 30
0.0
 10
117.4987711294795
 20
-149.1509304097609
 30
0.0
 10
117.6279622101763
 20
-149.2398138732803
 30
0.0
 10
117.6279622101763
 20
-149.2398138732803
 30
0.0
 10
117.6090141850074
 20
-149.4155137430281
 30
0.0
 10
117.6090141850074
 20
-149.4155137430281
 30
0.0
 10
117.6090141850074
 20
-149.4155137430281
 30
0.0
 10
116.7625542242816
 20
-149.2949354010443
 30
0.0
 10
116.7625542242816
 20
-149.2949354010443
 30
0.0
 10
116.7625542242816
 20
-149.2949354010443
 30
0.0
 10
116.7625542242816
 20
-148.5163438213778
 30
0.0
 10
116.7625542242816
 20
-148.5163438213778
 30
0.0
 10
116.7625542242816
 20
-148.5163438213778
 30
0.0
 10
116.9572021191982
 20
-148.5163438213778
 30
0.0
 10
116.9572021191982
 20
-148.5163438213778
 30
0.0
 10
116.9572021191982
 20
-148.5163438213778
 30
0.0
 10
116.9572021191982
 20
-149.131982384592
 30
0.0
 10
116.9572021191982
 20
-149.131982384592
 30
0.0
 10
116.9572021191982
 20
-149.131982384592
 30
0.0
 10
117.3802598447869
 20
-149.1974391988117
 30
0.0
 10
117.3802598447869
 20
-149.1974391988117
 30
0.0
 10
117.3464979090314
 20
-149.1361164991743
 30
0.0
 10
117.306190291854
 20
-149.0537787170768
 30
0.0
 10
117.306190291854
 20
-148.9352674323842
 30
0.0
 10
117.306190291854
 20
-148.6813638951213
 30
0.0
 10
117.492569957606
 20
-148.4443413257361
 30
0.0
 10
117.8057291372152
 20
-148.4443413257361
 30
0.0
 10
118.1230224314067
 20
-148.4443413257361
 30
0.0
 10
118.3576334339522
 20
-148.6686170418259
 30
0.0
 10
118.3576334339522
 20
-148.9710964254308
 30
0.0
  0
HATCH
  5
C9
330
BF
100
AcDbEntity
  8
レイヤー 1
 62
    18
420
        0
440
 33554687
100
AcDbHatch
 10
0.0
 20
0.0
 30
0.0
210
0.0
220
0.0
230
1.0
  2
SOLID
 70
     1
 71
     1
 91
        1
 92
        1
 93
        1
 72
     4
 94
        3
 73
     0
 74
     0
 95
       53
 96
       49
 40
0.0
 40
0.0
 40
0.0
 40
0.0
 40
1.0
 40
1.0
 40
1.0
 40
2.0
 40
2.0
 40
2.0
 40
3.0
 40
3.0
 40
3.0
 40
4.0
 40
4.0
 40
4.0
 40
5.0
 40
5.0
 40
5.0
 40
6.0
 40
6.0
 40
6.0
 40
7.0
 40
7.0
 40
7.0
 40
8.0
 40
8.0
 40
8.0
 40
9.0
 40
9.0
 40
9.0
 40
10.0
 40
10.0
 40
10.0
 40
11.0
 40
11.0
 40
11.0
 40
12.0
 40
12.0
 40
12.0
 40
13.0
 40
13.0
 40
13.0
 40
14.0
 40
14.0
 40
14.0
 40
15.0
 40
15.0
 40
15.0
 40
16.0
 40
16.0
 40
16.0
 40
16.0
 10
118.3576334339522
 20
-148.9710964254308
 10
118.3576334339522
 20
-149.049300092946
 10
118.3407524660745
 20
-149.1509304097609
 10
118.2773627091459
 20
-149.2525607265757
 10
118.1674641631665
 20
-149.4258490294838
 10
118.0362060251784
 20
-149.4472086214923
 10
117.9283745364901
 20
-149.4661566466612
 10
117.9283745364901
 20
-149.4661566466612
 10
117.9283745364901
 20
-149.2439479878626
 10
117.9283745364901
 20
-149.2439479878626
 10
118.127156545989
 20
-149.1891709696471
 10
118.1567843671622
 20
-149.0620469462414
 10
118.1567843671622
 20
-148.9690293681397
 10
118.1567843671622
 20
-148.829503000987
 10
118.0572211076384
 20
-148.677229780539
 10
117.8246771623841
 20
-148.677229780539
 10
117.56870656783
 20
-148.677229780539
 10
117.4987711294795
 20
-148.8570637648691
 10
117.4987711294795
 20
-148.9776421068528
 10
117.4987711294795
 20
-149.0093369853171
 10
117.4987711294795
 20
-149.1509304097609
 10
117.6279622101763
 20
-149.2398138732803
 10
117.6279622101763
 20
-149.2398138732803
 10
117.6090141850074
 20
-149.4155137430281
 10
117.6090141850074
 20
-149.4155137430281
 10
117.6090141850074
 20
-149.4155137430281
 10
116.7625542242816
 20
-149.2949354010443
 10
116.7625542242816
 20
-149.2949354010443
 10
116.7625542242816
 20
-149.2949354010443
 10
116.7625542242816
 20
-148.5163438213778
 10
116.7625542242816
 20
-148.5163438213778
 10
116.7625542242816
 20
-148.5163438213778
 10
116.9572021191982
 20
-148.5163438213778
 10
116.9572021191982
 20
-148.5163438213778
 10
116.9572021191982
 20
-148.5163438213778
 10
116.9572021191982
 20
-149.131982384592
 10
116.9572021191982
 20
-149.131982384592
 10
116.9572021191982
 20
-149.131982384592
 10
117.3802598447869
 20
-149.1974391988117
 10
117.3802598447869
 20
-149.1974391988117
 10
117.3464979090314
 20
-149.1361164991743
 10
117.306190291854
 20
-149.0537787170768
 10
117.306190291854
 20
-148.9352674323842
 10
117.306190291854
 20
-148.6813638951213
 10
117.492569957606
 20
-148.4443413257361
 10
117.8057291372152
 20
-148.4443413257361
 10
118.1230224314067
 20
-148.4443413257361
 10
118.3576334339522
 20
-148.6686170418259
 10
118.3576334339522
 20
-148.9710964254308
 97
        0
 97
        1
330
C8
 75
     2
 76
     1
 98
        1
 10
0.0
 20
0.0
450
        0
451
        0
460
0.0
461
0.0
452
        0
462
0.0
453
        0
470

  0
ENDBLK
  5
C2
330
BF
100
AcDbEntity
  8
0
100
AcDbBlockEnd
  0
BLOCK
  5
D1
330
CF
100
AcDbEntity
  8
0
100
AcDbBlockBegin
  2
Block_8
 70
     0
 10
0.0
 20
0.0
 30
0.0
  3
Block_8
  1

  0
INSERT
  5
D4
330
CF
100
AcDbEntity
  8
レイヤー 1
100
AcDbBlockReference
  2
Block_9
 10
0.0
 20
0.0
 30
0.0
  0
ENDBLK
  5
D2
330
CF
100
AcDbEntity
  8
0
100
AcDbBlockEnd
  0
BLOCK
  5
D5
330
D3
100
AcDbEntity
  8
0
100
AcDbBlockBegin
  2
Block_9
 70
     0
 10
0.0
 20
0.0
 30
0.0
  3
Block_9
  1

  0
SPLINE
  5
D7
330
D3
100
AcDbEntity
  8
レイヤー 1
100
AcDbSpline
210
0.0
220
0.0
230
1.0
 70
     9
 71
     3
 72
    17
 73
    13
 74
     0
 42
0.0000000001
 43
0.0000000001
 40
0.0
 40
0.0
 40
0.0
 40
0.0
 40
1.0
 40
1.0
 40
1.0
 40
2.0
 40
2.0
 40
2.0
 40
3.0
 40
3.0
 40
3.0
 40
4.0
 40
4.0
 40
4.0
 40
4.0
 10
90.6015326379399
 20
-159.6205755894351
 30
0.0
 10
90.58465167006216
 20
-159.6498589010597
 30
0.0
 10
90.534008766429
 20
-159.74322098871
 30
0.0
 10
90.52332897042473
 20
-159.7621690138789
 30
0.0
 10
90.71384275075905
 20
-159.8214246562252
 30
0.0
 10
90.73485783321906
 20
-159.8276258280986
 30
0.0
 10
90.80686032886079
 20
-159.8551865919807
 30
0.0
 10
90.86198185662478
 20
-159.7683701857523
 30
0.0
 10
90.88506399637596
 20
-159.6943006328195
 30
0.0
 10
90.89987790696254
 20
-159.6205755894351
 30
0.0
 10
90.89987790696254
 20
-159.6205755894351
 30
0.0
 10
90.6015326379399
 20
-159.6205755894351
 30
0.0
 10
90.6015326379399
 20
-159.6205755894351
 30
0.0
  0
SPLINE
  5
D8
330
D3
100
AcDbEntity
  8
レイヤー 1
100
AcDbSpline
210
0.0
220
0.0
230
1.0
 70
    11
 71
     3
 72
    20
 73
    16
 74
     0
 42
0.0000000001
 43
0.0000000001
 40
0.0
 40
0.0
 40
0.0
 40
0.0
 40
1.0
 40
1.0
 40
1.0
 40
2.0
 40
2.0
 40
2.0
 40
3.0
 40
3.0
 40
3.0
 40
4.0
 40
4.0
 40
4.0
 40
5.0
 40
5.0
 40
5.0
 40
5.0
 10
90.53814288101129
 20
-158.7699815141269
 30
0.0
 10
90.53814288101129
 20
-158.7699815141269
 30
0.0
 10
90.50644800254699
 20
-158.7699815141269
 30
0.0
 10
90.50644800254699
 20
-158.7699815141269
 30
0.0
 10
90.55295679159788
 20
-158.8695447736507
 30
0.0
 10
90.58465167006216
 20
-158.949815498457
 30
0.0
 10
90.61841360581762
 20
-159.0765950123142
 30
0.0
 10
90.61841360581762
 20
-159.0765950123142
 30
0.0
 10
90.82580835402966
 20
-159.0765950123142
 30
0.0
 10
90.82580835402966
 20
-159.0765950123142
 30
0.0
 10
90.85750323249397
 20
-158.9835774342124
 30
0.0
 10
90.88092988179367
 20
-158.8991725948238
 30
0.0
 10
90.90401202154483
 20
-158.7699815141269
 30
0.0
 10
90.90401202154483
 20
-158.7699815141269
 30
0.0
 10
90.53814288101129
 20
-158.7699815141269
 30
0.0
 10
90.53814288101129
 20
-158.7699815141269
 30
0.0
  0
SPLINE
  5
D9
330
D3
100
AcDbEntity
  8
レイヤー 1
100
AcDbSpline
210
0.0
220
0.0
230
1.0
 70
     9
 71
     3
 72
   242
 73
   238
 74
     0
 42
0.0000000001
 43
0.0000000001
 40
0.0
 40
0.0
 40
0.0
 40
0.0
 40
1.0
 40
1.0
 40
1.0
 40
2.0
 40
2.0
 40
2.0
 40
3.0
 40
3.0
 40
3.0
 40
4.0
 40
4.0
 40
4.0
 40
5.0
 40
5.0
 40
5.0
 40
6.0
 40
6.0
 40
6.0
 40
7.0
 40
7.0
 40
7.0
 40
8.0
 40
8.0
 40
8.0
 40
9.0
 40
9.0
 40
9.0
 40
10.0
 40
10.0
 40
10.0
 40
11.0
 40
11.0
 40
11.0
 40
12.0
 40
12.0
 40
12.0
 40
13.0
 40
13.0
 40
13.0
 40
14.0
 40
14.0
 40
14.0
 40
15.0
 40
15.0
 40
15.0
 40
16.0
 40
16.0
 40
16.0
 40
17.0
 40
17.0
 40
17.0
 40
18.0
 40
18.0
 40
18.0
 40
19.0
 40
19.0
 40
19.0
 40
20.0
 40
20.0
 40
20.0
 40
21.0
 40
21.0
 40
21.0
 40
22.0
 40
22.0
 40
22.0
 40
23.0
 40
23.0
 40
23.0
 40
24.0
 40
24.0
 40
24.0
 40
25.0
 40
25.0
 40
25.0
 40
26.0
 40
26.0
 40
26.0
 40
27.0
 40
27.0
 40
27.0
 40
28.0
 40
28.0
 40
28.0
 40
29.0
 40
29.0
 40
29.0
 40
30.0
 40
30.0
 40
30.0
 40
31.0
 40
31.0
 40
31.0
 40
32.0
 40
32.0
 40
32.0
 40
33.0
 40
33.0
 40
33.0
 40
34.0
 40
34.0
 40
34.0
 40
35.0
 40
35.0
 40
35.0
 40
36.0
 40
36.0
 40
36.0
 40
37.0
 40
37.0
 40
37.0
 40
38.0
 40
38.0
 40
38.0
 40
39.0
 40
39.0
 40
39.0
 40
40.0
 40
40.0
 40
40.0
 40
41.0
 40
41.0
 40
41.0
 40
42.0
 40
42.0
 40
42.0
 40
43.0
 40
43.0
 40
43.0
 40
44.0
 40
44.0
 40
44.0
 40
45.0
 40
45.0
 40
45.0
 40
46.0
 40
46.0
 40
46.0
 40
47.0
 40
47.0
 40
47.0
 40
48.0
 40
48.0
 40
48.0
 40
49.0
 40
49.0
 40
49.0
 40
50.0
 40
50.0
 40
50.0
 40
51.0
 40
51.0
 40
51.0
 40
52.0
 40
52.0
 40
52.0
 40
53.0
 40
53.0
 40
53.0
 40
54.0
 40
54.0
 40
54.0
 40
55.0
 40
55.0
 40
55.0
 40
56.0
 40
56.0
 40
56.0
 40
57.0
 40
57.0
 40
57.0
 40
58.0
 40
58.0
 40
58.0
 40
59.0
 40
59.0
 40
59.0
 40
60.0
 40
60.0
 40
60.0
 40
61.0
 40
61.0
 40
61.0
 40
62.0
 40
62.0
 40
62.0
 40
63.0
 40
63.0
 40
63.0
 40
64.0
 40
64.0
 40
64.0
 40
65.0
 40
65.0
 40
65.0
 40
66.0
 40
66.0
 40
66.0
 40
67.0
 40
67.0
 40
67.0
 40
68.0
 40
68.0
 40
68.0
 40
69.0
 40
69.0
 40
69.0
 40
70.0
 40
70.0
 40
70.0
 40
71.0
 40
71.0
 40
71.0
 40
72.0
 40
72.0
 40
72.0
 40
73.0
 40
73.0
 40
73.0
 40
74.0
 40
74.0
 40
74.0
 40
75.0
 40
75.0
 40
75.0
 40
76.0
 40
76.0
 40
76.0
 40
77.0
 40
77.0
 40
77.0
 40
78.0
 40
78.0
 40
78.0
 40
79.0
 40
79.0
 40
79.0
 40
79.0
 10
91.16652829752087
 20
-159.2354139141842
 30
0.0
 10
91.16652829752087
 20
-159.2354139141842
 30
0.0
 10
90.91262476025795
 20
-159.2354139141842
 30
0.0
 10
90.91262476025795
 20
-159.2354139141842
 30
0.0
 10
90.91262476025795
 20
-159.2354139141842
 30
0.0
 10
90.63563908324388
 20
-159.2354139141842
 30
0.0
 10
90.63563908324388
 20
-159.2354139141842
 30
0.0
 10
90.63563908324388
 20
-159.2354139141842
 30
0.0
 10
90.76241859710107
 20
-159.2777885886528
 30
0.0
 10
90.76241859710107
 20
-159.2777885886528
 30
0.0
 10
90.77309839310535
 20
-159.281922703235
 30
0.0
 10
90.78584524640076
 20
-159.2881238751085
 30
0.0
 10
90.78584524640076
 20
-159.3008707284039
 30
0.0
 10
90.78584524640076
 20
-159.3222303204125
 30
0.0
 10
90.75380585838793
 20
-159.3284314922859
 30
0.0
 10
90.73279077592792
 20
-159.3325656068682
 30
0.0
 10
90.72211097992363
 20
-159.3559922561679
 30
0.0
 10
90.69248315875048
 20
-159.4214490703877
 30
0.0
 10
90.67353513358161
 20
-159.4658908021474
 30
0.0
 10
90.67353513358161
 20
-159.4658908021474
 30
0.0
 10
90.94431963872226
 20
-159.4658908021474
 30
0.0
 10
90.94431963872226
 20
-159.4658908021474
 30
0.0
 10
91.03527015953286
 20
-159.4658908021474
 30
0.0
 10
91.23198511174061
 20
-159.4617566875651
 30
0.0
 10
91.37392304573291
 20
-159.453143948852
 30
0.0
 10
91.37392304573291
 20
-159.453143948852
 30
0.0
 10
91.37392304573291
 20
-159.6309108758909
 30
0.0
 10
91.37392304573291
 20
-159.6309108758909
 30
0.0
 10
91.29124075408691
 20
-159.6267767613086
 30
0.0
 10
91.27022567162688
 20
-159.6267767613086
 30
0.0
 10
91.09039168729685
 20
-159.6226426467263
 30
0.0
 10
91.05869680883255
 20
-159.7769829244654
 30
0.0
 10
91.01425507707283
 20
-159.8572536492718
 30
0.0
 10
90.96981334531312
 20
-159.9271890876224
 30
0.0
 10
91.09039168729685
 20
-159.9864447299687
 30
0.0
 10
91.19615611869402
 20
-160.0539686014796
 30
0.0
 10
91.29985349280003
 20
-160.1366508931255
 30
0.0
 10
91.29985349280003
 20
-160.1366508931255
 30
0.0
 10
91.18134220810745
 20
-160.3037380241602
 30
0.0
 10
91.18134220810745
 20
-160.3037380241602
 30
0.0
 10
91.15791555880774
 20
-160.2847899989913
 30
0.0
 10
91.14516870551232
 20
-160.2761772602782
 30
0.0
 10
91.03320310224169
 20
-160.191427911341
 30
0.0
 10
90.98462725589968
 20
-160.1535318610033
 30
0.0
 10
90.92537161355338
 20
-160.1177028679567
 30
0.0
 10
90.84475637919855
 20
-160.0732611361969
 30
0.0
 10
90.63322751640418
 20
-160.2592962924004
 30
0.0
 10
90.42824433503183
 20
-160.2827229417002
 30
0.0
 10
90.1381672951738
 20
-160.3123507628733
 30
0.0
 10
90.1381672951738
 20
-160.3123507628733
 30
0.0
 10
90.03481443061629
 20
-160.1325167785432
 30
0.0
 10
90.03481443061629
 20
-160.1325167785432
 30
0.0
 10
90.3521077248078
 20
-160.1280381544124
 30
0.0
 10
90.52746308500703
 20
-160.1028889573701
 30
0.0
 10
90.67973630545507
 20
-159.9926459018421
 30
0.0
 10
90.561569530311
 20
-159.9420029982089
 30
0.0
 10
90.47268606679155
 20
-159.9144422343269
 30
0.0
 10
90.43651256419643
 20
-159.9016953810315
 30
0.0
 10
90.41756453902754
 20
-159.9292561449135
 30
0.0
 10
90.40275062844099
 20
-159.9482041700824
 30
0.0
 10
90.37518986455898
 20
-159.9823106153864
 30
0.0
 10
90.37518986455898
 20
-159.9823106153864
 30
0.0
 10
90.17847491235121
 20
-159.8996283237404
 30
0.0
 10
90.17847491235121
 20
-159.8996283237404
 30
0.0
 10
90.26115720399721
 20
-159.819357598934
 30
0.0
 10
90.32247990363465
 20
-159.7239284539926
 30
0.0
 10
90.37932397914129
 20
-159.6226426467263
 30
0.0
 10
90.18915470835549
 20
-159.6267767613086
 30
0.0
 10
90.16779511634693
 20
-159.6267767613086
 30
0.0
 10
90.08545733424947
 20
-159.6309108758909
 30
0.0
 10
90.08545733424947
 20
-159.6309108758909
 30
0.0
 10
90.08545733424947
 20
-159.453143948852
 30
0.0
 10
90.08545733424947
 20
-159.453143948852
 30
0.0
 10
90.2249837014021
 20
-159.4596896302739
 30
0.0
 10
90.43444550690528
 20
-159.4638237448562
 30
0.0
 10
90.45993921349612
 20
-159.4638237448562
 30
0.0
 10
90.47682018137384
 20
-159.4300618091008
 30
0.0
 10
90.53194170913785
 20
-159.3094834671171
 30
0.0
 10
90.55088973430672
 20
-159.2354139141842
 30
0.0
 10
90.53194170913785
 20
-159.2354139141842
 30
0.0
 10
90.35417478209897
 20
-159.2416150860576
 30
0.0
 10
90.15952688718234
 20
-159.2543619393531
 30
0.0
 10
90.15952688718234
 20
-159.2543619393531
 30
0.0
 10
90.15952688718234
 20
-159.3876871346322
 30
0.0
 10
90.15952688718234
 20
-159.3876871346322
 30
0.0
 10
90.11095104084033
 20
-159.4131808412231
 30
0.0
 10
90.05169539849402
 20
-159.4448757196874
 30
0.0
 10
89.91837020321487
 20
-159.5103325339071
 30
0.0
 10
89.91837020321487
 20
-159.5103325339071
 30
0.0
 10
89.91837020321487
 20
-159.6564045824817
 30
0.0
 10
89.91837020321487
 20
-159.6564045824817
 30
0.0
 10
89.91837020321487
 20
-159.6564045824817
 30
0.0
 10
89.91837020321487
 20
-160.1239040398301
 30
0.0
 10
89.91837020321487
 20
-160.1239040398301
 30
0.0
 10
89.91837020321487
 20
-160.2506835536873
 30
0.0
 10
89.88219670061972
 20
-160.3099391960336
 30
0.0
 10
89.59900985173218
 20
-160.301670966869
 30
0.0
 10
89.59900985173218
 20
-160.301670966869
 30
0.0
 10
89.49531247762617
 20
-160.094276218657
 30
0.0
 10
89.49531247762617
 20
-160.094276218657
 30
0.0
 10
89.55870223455477
 20
-160.1070230719524
 30
0.0
 10
89.60727808089679
 20
-160.1111571865347
 30
0.0
 10
89.64758569807422
 20
-160.1111571865347
 30
0.0
 10
89.72372230829824
 20
-160.1111571865347
 30
0.0
 10
89.73440210430252
 20
-160.0880750467835
 30
0.0
 10
89.73440210430252
 20
-160.0222737230152
 30
0.0
 10
89.73440210430252
 20
-160.0222737230152
 30
0.0
 10
89.73440210430252
 20
-159.5930148255531
 30
0.0
 10
89.73440210430252
 20
-159.5930148255531
 30
0.0
 10
89.63690590206994
 20
-159.632977933182
 30
0.0
 10
89.62002493419221
 20
-159.639523614604
 30
0.0
 10
89.57351614514134
 20
-159.6584716397729
 30
0.0
 10
89.56938203055903
 20
-159.6794867222329
 30
0.0
 10
89.56490340642822
 20
-159.709114543406
 30
0.0
 10
89.54595538125934
 20
-159.709114543406
 30
0.0
 10
89.53768715209475
 20
-159.709114543406
 30
0.0
 10
89.52700735609047
 20
-159.7049804288237
 30
0.0
 10
89.5204616746685
 20
-159.6818982890726
 30
0.0
 10
89.5204616746685
 20
-159.6818982890726
 30
0.0
 10
89.46775171374417
 20
-159.4893174514471
 30
0.0
 10
89.46775171374417
 20
-159.4893174514471
 30
0.0
 10
89.61382376231878
 20
-159.4428086623962
 30
0.0
 10
89.67928057653852
 20
-159.4193820130965
 30
0.0
 10
89.73440210430252
 20
-159.3983669306365
 30
0.0
 10
89.73440210430252
 20
-159.3983669306365
 30
0.0
 10
89.73440210430252
 20
-158.9856444915036
 30
0.0
 10
89.73440210430252
 20
-158.9856444915036
 30
0.0
 10
89.73440210430252
 20
-158.9856444915036
 30
0.0
 10
89.68134763382968
 20
-158.9856444915036
 30
0.0
 10
89.68134763382968
 20
-158.9856444915036
 30
0.0
 10
89.68134763382968
 20
-158.9856444915036
 30
0.0
 10
89.60314396631449
 20
-158.9856444915036
 30
0.0
 10
89.60314396631449
 20
-158.9856444915036
 30
0.0
 10
89.53527558525507
 20
-158.9856444915036
 30
0.0
 10
89.52700735609047
 20
-158.9856444915036
 30
0.0
 10
89.49083385349535
 20
-158.9921901729256
 30
0.0
 10
89.49083385349535
 20
-158.9921901729256
 30
0.0
 10
89.49083385349535
 20
-158.797542278009
 30
0.0
 10
89.49083385349535
 20
-158.797542278009
 30
0.0
 10
89.51839461737735
 20
-158.8037434498824
 30
0.0
 10
89.52700735609047
 20
-158.8037434498824
 30
0.0
 10
89.59659828489252
 20
-158.8037434498824
 30
0.0
 10
89.59659828489252
 20
-158.8037434498824
 30
0.0
 10
89.7299234801717
 20
-158.8037434498824
 30
0.0
 10
89.7299234801717
 20
-158.8037434498824
 30
0.0
 10
89.7299234801717
 20
-158.7341525210803
 30
0.0
 10
89.7299234801717
 20
-158.6514702294343
 30
0.0
 10
89.72785642288053
 20
-158.647336114852
 30
0.0
 10
89.71958819371593
 20
-158.467502130522
 30
0.0
 10
89.71958819371593
 20
-158.4485541053531
 30
0.0
 10
89.71717662687627
 20
-158.4020453163022
 30
0.0
 10
89.71717662687627
 20
-158.4020453163022
 30
0.0
 10
89.93318411380142
 20
-158.4103135454668
 30
0.0
 10
89.93318411380142
 20
-158.4103135454668
 30
0.0
 10
89.94386390980571
 20
-158.4103135454668
 30
0.0
 10
89.96487899226572
 20
-158.412380602758
 30
0.0
 10
89.96487899226572
 20
-158.4292615706357
 30
0.0
 10
89.96487899226572
 20
-158.4485541053531
 30
0.0
 10
89.95006508167916
 20
-158.4588893918089
 30
0.0
 10
89.9245713750883
 20
-158.4781819265263
 30
0.0
 10
89.9245713750883
 20
-158.5288248301594
 30
0.0
 10
89.91837020321487
 20
-158.7572346608315
 30
0.0
 10
89.92043726050601
 20
-158.8037434498824
 30
0.0
 10
90.04962834120288
 20
-158.8037434498824
 30
0.0
 10
90.06203068494977
 20
-158.8037434498824
 30
0.0
 10
90.15952688718234
 20
-158.7954752207178
 30
0.0
 10
90.15952688718234
 20
-158.7954752207178
 30
0.0
 10
90.15952688718234
 20
-158.9901231156344
 30
0.0
 10
90.15952688718234
 20
-158.9901231156344
 30
0.0
 10
90.12128632729607
 20
-158.9877115487947
 30
0.0
 10
90.05376245578517
 20
-158.9835774342124
 30
0.0
 10
89.91837020321487
 20
-158.9856444915036
 30
0.0
 10
89.91837020321487
 20
-158.9856444915036
 30
0.0
 10
89.91837020321487
 20
-159.3242973777036
 30
0.0
 10
89.91837020321487
 20
-159.3242973777036
 30
0.0
 10
89.97349173097886
 20
-159.3008707284039
 30
0.0
 10
90.0389485451986
 20
-159.2733099645219
 30
0.0
 10
90.08752439154063
 20
-159.2502278247708
 30
0.0
 10
90.08752439154063
 20
-159.2502278247708
 30
0.0
 10
90.08752439154063
 20
-159.0724608977319
 30
0.0
 10
90.08752439154063
 20
-159.0724608977319
 30
0.0
 10
90.20190156165091
 20
-159.0852077510273
 30
0.0
 10
90.32041284634351
 20
-159.0852077510273
 30
0.0
 10
90.43651256419643
 20
-159.0852077510273
 30
0.0
 10
90.41343042444525
 20
-158.9901231156344
 30
0.0
 10
90.38586966056326
 20
-158.9074408239884
 30
0.0
 10
90.32247990363465
 20
-158.7741156287092
 30
0.0
 10
90.27803817187495
 20
-158.7761826860004
 30
0.0
 10
90.19535588022895
 20
-158.7806613101312
 30
0.0
 10
90.1574598298912
 20
-158.7827283674223
 30
0.0
 10
90.1574598298912
 20
-158.7827283674223
 30
0.0
 10
90.1574598298912
 20
-158.6028943830923
 30
0.0
 10
90.1574598298912
 20
-158.6028943830923
 30
0.0
 10
90.28217228645724
 20
-158.6111626122569
 30
0.0
 10
90.45580509891383
 20
-158.6156412363878
 30
0.0
 10
90.53814288101129
 20
-158.6156412363878
 30
0.0
 10
90.53814288101129
 20
-158.6156412363878
 30
0.0
 10
90.62082517265729
 20
-158.6156412363878
 30
0.0
 10
90.62082517265729
 20
-158.6156412363878
 30
0.0
 10
90.62082517265729
 20
-158.4526882199354
 30
0.0
 10
90.62082517265729
 20
-158.4420084239312
 30
0.0
 10
90.61841360581762
 20
-158.3872314057157
 30
0.0
 10
90.61841360581762
 20
-158.3872314057157
 30
0.0
 10
90.84268932190738
 20
-158.412380602758
 30
0.0
 10
90.84268932190738
 20
-158.412380602758
 30
0.0
 10
90.84716794603821
 20
-158.412380602758
 30
0.0
 10
90.86818302849824
 20
-158.4144476600491
 30
0.0
 10
90.86818302849824
 20
-158.4313286279269
 30
0.0
 10
90.86818302849824
 20
-158.4461425385135
 30
0.0
 10
90.85750323249397
 20
-158.4547552772266
 30
0.0
 10
90.82994246861195
 20
-158.4695691878131
 30
0.0
 10
90.82374129673851
 20
-158.5350260020329
 30
0.0
 10
90.82167423944737
 20
-158.5563855940415
 30
0.0
 10
90.82167423944737
 20
-158.6156412363878
 30
0.0
 10
90.82167423944737
 20
-158.6156412363878
 30
0.0
 10
90.91675887484026
 20
-158.6156412363878
 30
0.0
 10
90.91675887484026
 20
-158.6156412363878
 30
0.0
 10
90.99944116648625
 20
-158.6156412363878
 30
0.0
 10
91.17272946939433
 20
-158.6111626122569
 30
0.0
 10
91.2977864355089
 20
-158.6028943830923
 30
0.0
 10
91.2977864355089
 20
-158.6028943830923
 30
0.0
 10
91.2977864355089
 20
-158.7827283674223
 30
0.0
 10
91.2977864355089
 20
-158.7827283674223
 30
0.0
 10
91.26815861433575
 20
-158.7806613101312
 30
0.0
 10
91.14964732964315
 20
-158.7761826860004
 30
0.0
 10
91.10933971246572
 20
-158.7741156287092
 30
0.0
 10
91.09452580187914
 20
-158.8251030418909
 30
0.0
 10
91.0607638661237
 20
-158.9370686451615
 30
0.0
 10
90.99496254235543
 20
-159.0765950123142
 30
0.0
 10
91.03733721682401
 20
-159.0765950123142
 30
0.0
 10
91.31466740338662
 20
-159.0576469871453
 30
0.0
 10
91.37599010302407
 20
-159.0555799298542
 30
0.0
 10
91.37599010302407
 20
-159.0555799298542
 30
0.0
 10
91.37599010302407
 20
-159.2395480287665
 30
0.0
 10
91.37599010302407
 20
-159.2395480287665
 30
0.0
 10
91.34636228185092
 20
-159.2395480287665
 30
0.0
 10
91.32948131397318
 20
-159.2354139141842
 30
0.0
 10
91.16652829752087
 20
-159.2354139141842
 30
0.0
  0
HATCH
  5
DA
330
D3
100
AcDbEntity
  8
レイヤー 1
 62
   250
420
  2299925
440
 33554687
100
AcDbHatch
 10
0.0
 20
0.0
 30
0.0
210
0.0
220
0.0
230
1.0
  2
SOLID
 70
     1
 71
     1
 91
        3
 92
        1
 93
        1
 72
     4
 94
        3
 73
     0
 74
     0
 95
       17
 96
       13
 40
0.0
 40
0.0
 40
0.0
 40
0.0
 40
1.0
 40
1.0
 40
1.0
 40
2.0
 40
2.0
 40
2.0
 40
3.0
 40
3.0
 40
3.0
 40
4.0
 40
4.0
 40
4.0
 40
4.0
 10
90.6015326379399
 20
-159.6205755894351
 10
90.58465167006216
 20
-159.6498589010597
 10
90.534008766429
 20
-159.74322098871
 10
90.52332897042473
 20
-159.7621690138789
 10
90.71384275075905
 20
-159.8214246562252
 10
90.73485783321906
 20
-159.8276258280986
 10
90.80686032886079
 20
-159.8551865919807
 10
90.86198185662478
 20
-159.7683701857523
 10
90.88506399637596
 20
-159.6943006328195
 10
90.89987790696254
 20
-159.6205755894351
 10
90.89987790696254
 20
-159.6205755894351
 10
90.6015326379399
 20
-159.6205755894351
 10
90.6015326379399
 20
-159.6205755894351
 97
        0
 97
        1
330
D7
 92
        1
 93
        1
 72
     4
 94
        3
 73
     0
 74
     0
 95
       20
 96
       16
 40
0.0
 40
0.0
 40
0.0
 40
0.0
 40
1.0
 40
1.0
 40
1.0
 40
2.0
 40
2.0
 40
2.0
 40
3.0
 40
3.0
 40
3.0
 40
4.0
 40
4.0
 40
4.0
 40
5.0
 40
5.0
 40
5.0
 40
5.0
 10
90.53814288101129
 20
-158.7699815141269
 10
90.53814288101129
 20
-158.7699815141269
 10
90.50644800254699
 20
-158.7699815141269
 10
90.50644800254699
 20
-158.7699815141269
 10
90.55295679159788
 20
-158.8695447736507
 10
90.58465167006216
 20
-158.949815498457
 10
90.61841360581762
 20
-159.0765950123142
 10
90.61841360581762
 20
-159.0765950123142
 10
90.82580835402966
 20
-159.0765950123142
 10
90.82580835402966
 20
-159.0765950123142
 10
90.85750323249397
 20
-158.9835774342124
 10
90.88092988179367
 20
-158.8991725948238
 10
90.90401202154483
 20
-158.7699815141269
 10
90.90401202154483
 20
-158.7699815141269
 10
90.53814288101129
 20
-158.7699815141269
 10
90.53814288101129
 20
-158.7699815141269
 97
        0
 97
        1
330
D8
 92
        1
 93
        1
 72
     4
 94
        3
 73
     0
 74
     0
 95
      242
 96
      238
 40
0.0
 40
0.0
 40
0.0
 40
0.0
 40
1.0
 40
1.0
 40
1.0
 40
2.0
 40
2.0
 40
2.0
 40
3.0
 40
3.0
 40
3.0
 40
4.0
 40
4.0
 40
4.0
 40
5.0
 40
5.0
 40
5.0
 40
6.0
 40
6.0
 40
6.0
 40
7.0
 40
7.0
 40
7.0
 40
8.0
 40
8.0
 40
8.0
 40
9.0
 40
9.0
 40
9.0
 40
10.0
 40
10.0
 40
10.0
 40
11.0
 40
11.0
 40
11.0
 40
12.0
 40
12.0
 40
12.0
 40
13.0
 40
13.0
 40
13.0
 40
14.0
 40
14.0
 40
14.0
 40
15.0
 40
15.0
 40
15.0
 40
16.0
 40
16.0
 40
16.0
 40
17.0
 40
17.0
 40
17.0
 40
18.0
 40
18.0
 40
18.0
 40
19.0
 40
19.0
 40
19.0
 40
20.0
 40
20.0
 40
20.0
 40
21.0
 40
21.0
 40
21.0
 40
22.0
 40
22.0
 40
22.0
 40
23.0
 40
23.0
 40
23.0
 40
24.0
 40
24.0
 40
24.0
 40
25.0
 40
25.0
 40
25.0
 40
26.0
 40
26.0
 40
26.0
 40
27.0
 40
27.0
 40
27.0
 40
28.0
 40
28.0
 40
28.0
 40
29.0
 40
29.0
 40
29.0
 40
30.0
 40
30.0
 40
30.0
 40
31.0
 40
31.0
 40
31.0
 40
32.0
 40
32.0
 40
32.0
 40
33.0
 40
33.0
 40
33.0
 40
34.0
 40
34.0
 40
34.0
 40
35.0
 40
35.0
 40
35.0
 40
36.0
 40
36.0
 40
36.0
 40
37.0
 40
37.0
 40
37.0
 40
38.0
 40
38.0
 40
38.0
 40
39.0
 40
39.0
 40
39.0
 40
40.0
 40
40.0
 40
40.0
 40
41.0
 40
41.0
 40
41.0
 40
42.0
 40
42.0
 40
42.0
 40
43.0
 40
43.0
 40
43.0
 40
44.0
 40
44.0
 40
44.0
 40
45.0
 40
45.0
 40
45.0
 40
46.0
 40
46.0
 40
46.0
 40
47.0
 40
47.0
 40
47.0
 40
48.0
 40
48.0
 40
48.0
 40
49.0
 40
49.0
 40
49.0
 40
50.0
 40
50.0
 40
50.0
 40
51.0
 40
51.0
 40
51.0
 40
52.0
 40
52.0
 40
52.0
 40
53.0
 40
53.0
 40
53.0
 40
54.0
 40
54.0
 40
54.0
 40
55.0
 40
55.0
 40
55.0
 40
56.0
 40
56.0
 40
56.0
 40
57.0
 40
57.0
 40
57.0
 40
58.0
 40
58.0
 40
58.0
 40
59.0
 40
59.0
 40
59.0
 40
60.0
 40
60.0
 40
60.0
 40
61.0
 40
61.0
 40
61.0
 40
62.0
 40
62.0
 40
62.0
 40
63.0
 40
63.0
 40
63.0
 40
64.0
 40
64.0
 40
64.0
 40
65.0
 40
65.0
 40
65.0
 40
66.0
 40
66.0
 40
66.0
 40
67.0
 40
67.0
 40
67.0
 40
68.0
 40
68.0
 40
68.0
 40
69.0
 40
69.0
 40
69.0
 40
70.0
 40
70.0
 40
70.0
 40
71.0
 40
71.0
 40
71.0
 40
72.0
 40
72.0
 40
72.0
 40
73.0
 40
73.0
 40
73.0
 40
74.0
 40
74.0
 40
74.0
 40
75.0
 40
75.0
 40
75.0
 40
76.0
 40
76.0
 40
76.0
 40
77.0
 40
77.0
 40
77.0
 40
78.0
 40
78.0
 40
78.0
 40
79.0
 40
79.0
 40
79.0
 40
79.0
 10
91.16652829752087
 20
-159.2354139141842
 10
91.16652829752087
 20
-159.2354139141842
 10
90.91262476025795
 20
-159.2354139141842
 10
90.91262476025795
 20
-159.2354139141842
 10
90.91262476025795
 20
-159.2354139141842
 10
90.63563908324388
 20
-159.2354139141842
 10
90.63563908324388
 20
-159.2354139141842
 10
90.63563908324388
 20
-159.2354139141842
 10
90.76241859710107
 20
-159.2777885886528
 10
90.76241859710107
 20
-159.2777885886528
 10
90.77309839310535
 20
-159.281922703235
 10
90.78584524640076
 20
-159.2881238751085
 10
90.78584524640076
 20
-159.3008707284039
 10
90.78584524640076
 20
-159.3222303204125
 10
90.75380585838793
 20
-159.3284314922859
 10
90.73279077592792
 20
-159.3325656068682
 10
90.72211097992363
 20
-159.3559922561679
 10
90.69248315875048
 20
-159.4214490703877
 10
90.67353513358161
 20
-159.4658908021474
 10
90.67353513358161
 20
-159.4658908021474
 10
90.94431963872226
 20
-159.4658908021474
 10
90.94431963872226
 20
-159.4658908021474
 10
91.03527015953286
 20
-159.4658908021474
 10
91.23198511174061
 20
-159.4617566875651
 10
91.37392304573291
 20
-159.453143948852
 10
91.37392304573291
 20
-159.453143948852
 10
91.37392304573291
 20
-159.6309108758909
 10
91.37392304573291
 20
-159.6309108758909
 10
91.29124075408691
 20
-159.6267767613086
 10
91.27022567162688
 20
-159.6267767613086
 10
91.09039168729685
 20
-159.6226426467263
 10
91.05869680883255
 20
-159.7769829244654
 10
91.01425507707283
 20
-159.8572536492718
 10
90.96981334531312
 20
-159.9271890876224
 10
91.09039168729685
 20
-159.9864447299687
 10
91.19615611869402
 20
-160.0539686014796
 10
91.29985349280003
 20
-160.1366508931255
 10
91.29985349280003
 20
-160.1366508931255
 10
91.18134220810745
 20
-160.3037380241602
 10
91.18134220810745
 20
-160.3037380241602
 10
91.15791555880774
 20
-160.2847899989913
 10
91.14516870551232
 20
-160.2761772602782
 10
91.03320310224169
 20
-160.191427911341
 10
90.98462725589968
 20
-160.1535318610033
 10
90.92537161355338
 20
-160.1177028679567
 10
90.84475637919855
 20
-160.0732611361969
 10
90.63322751640418
 20
-160.2592962924004
 10
90.42824433503183
 20
-160.2827229417002
 10
90.1381672951738
 20
-160.3123507628733
 10
90.1381672951738
 20
-160.3123507628733
 10
90.03481443061629
 20
-160.1325167785432
 10
90.03481443061629
 20
-160.1325167785432
 10
90.3521077248078
 20
-160.1280381544124
 10
90.52746308500703
 20
-160.1028889573701
 10
90.67973630545507
 20
-159.9926459018421
 10
90.561569530311
 20
-159.9420029982089
 10
90.47268606679155
 20
-159.9144422343269
 10
90.43651256419643
 20
-159.9016953810315
 10
90.41756453902754
 20
-159.9292561449135
 10
90.40275062844099
 20
-159.9482041700824
 10
90.37518986455898
 20
-159.9823106153864
 10
90.37518986455898
 20
-159.9823106153864
 10
90.17847491235121
 20
-159.8996283237404
 10
90.17847491235121
 20
-159.8996283237404
 10
90.26115720399721
 20
-159.819357598934
 10
90.32247990363465
 20
-159.7239284539926
 10
90.37932397914129
 20
-159.6226426467263
 10
90.18915470835549
 20
-159.6267767613086
 10
90.16779511634693
 20
-159.6267767613086
 10
90.08545733424947
 20
-159.6309108758909
 10
90.08545733424947
 20
-159.6309108758909
 10
90.08545733424947
 20
-159.453143948852
 10
90.08545733424947
 20
-159.453143948852
 10
90.2249837014021
 20
-159.4596896302739
 10
90.43444550690528
 20
-159.4638237448562
 10
90.45993921349612
 20
-159.4638237448562
 10
90.47682018137384
 20
-159.4300618091008
 10
90.53194170913785
 20
-159.3094834671171
 10
90.55088973430672
 20
-159.2354139141842
 10
90.53194170913785
 20
-159.2354139141842
 10
90.35417478209897
 20
-159.2416150860576
 10
90.15952688718234
 20
-159.2543619393531
 10
90.15952688718234
 20
-159.2543619393531
 10
90.15952688718234
 20
-159.3876871346322
 10
90.15952688718234
 20
-159.3876871346322
 10
90.11095104084033
 20
-159.4131808412231
 10
90.05169539849402
 20
-159.4448757196874
 10
89.91837020321487
 20
-159.5103325339071
 10
89.91837020321487
 20
-159.5103325339071
 10
89.91837020321487
 20
-159.6564045824817
 10
89.91837020321487
 20
-159.6564045824817
 10
89.91837020321487
 20
-159.6564045824817
 10
89.91837020321487
 20
-160.1239040398301
 10
89.91837020321487
 20
-160.1239040398301
 10
89.91837020321487
 20
-160.2506835536873
 10
89.88219670061972
 20
-160.3099391960336
 10
89.59900985173218
 20
-160.301670966869
 10
89.59900985173218
 20
-160.301670966869
 10
89.49531247762617
 20
-160.094276218657
 10
89.49531247762617
 20
-160.094276218657
 10
89.55870223455477
 20
-160.1070230719524
 10
89.60727808089679
 20
-160.1111571865347
 10
89.64758569807422
 20
-160.1111571865347
 10
89.72372230829824
 20
-160.1111571865347
 10
89.73440210430252
 20
-160.0880750467835
 10
89.73440210430252
 20
-160.0222737230152
 10
89.73440210430252
 20
-160.0222737230152
 10
89.73440210430252
 20
-159.5930148255531
 10
89.73440210430252
 20
-159.5930148255531
 10
89.63690590206994
 20
-159.632977933182
 10
89.62002493419221
 20
-159.639523614604
 10
89.57351614514134
 20
-159.6584716397729
 10
89.56938203055903
 20
-159.6794867222329
 10
89.56490340642822
 20
-159.709114543406
 10
89.54595538125934
 20
-159.709114543406
 10
89.53768715209475
 20
-159.709114543406
 10
89.52700735609047
 20
-159.7049804288237
 10
89.5204616746685
 20
-159.6818982890726
 10
89.5204616746685
 20
-159.6818982890726
 10
89.46775171374417
 20
-159.4893174514471
 10
89.46775171374417
 20
-159.4893174514471
 10
89.61382376231878
 20
-159.4428086623962
 10
89.67928057653852
 20
-159.4193820130965
 10
89.73440210430252
 20
-159.3983669306365
 10
89.73440210430252
 20
-159.3983669306365
 10
89.73440210430252
 20
-158.9856444915036
 10
89.73440210430252
 20
-158.9856444915036
 10
89.73440210430252
 20
-158.9856444915036
 10
89.68134763382968
 20
-158.9856444915036
 10
89.68134763382968
 20
-158.9856444915036
 10
89.68134763382968
 20
-158.9856444915036
 10
89.60314396631449
 20
-158.9856444915036
 10
89.60314396631449
 20
-158.9856444915036
 10
89.53527558525507
 20
-158.9856444915036
 10
89.52700735609047
 20
-158.9856444915036
 10
89.49083385349535
 20
-158.9921901729256
 10
89.49083385349535
 20
-158.9921901729256
 10
89.49083385349535
 20
-158.797542278009
 10
89.49083385349535
 20
-158.797542278009
 10
89.51839461737735
 20
-158.8037434498824
 10
89.52700735609047
 20
-158.8037434498824
 10
89.59659828489252
 20
-158.8037434498824
 10
89.59659828489252
 20
-158.8037434498824
 10
89.7299234801717
 20
-158.8037434498824
 10
89.7299234801717
 20
-158.8037434498824
 10
89.7299234801717
 20
-158.7341525210803
 10
89.7299234801717
 20
-158.6514702294343
 10
89.72785642288053
 20
-158.647336114852
 10
89.71958819371593
 20
-158.467502130522
 10
89.71958819371593
 20
-158.4485541053531
 10
89.71717662687627
 20
-158.4020453163022
 10
89.71717662687627
 20
-158.4020453163022
 10
89.93318411380142
 20
-158.4103135454668
 10
89.93318411380142
 20
-158.4103135454668
 10
89.94386390980571
 20
-158.4103135454668
 10
89.96487899226572
 20
-158.412380602758
 10
89.96487899226572
 20
-158.4292615706357
 10
89.96487899226572
 20
-158.4485541053531
 10
89.95006508167916
 20
-158.4588893918089
 10
89.9245713750883
 20
-158.4781819265263
 10
89.9245713750883
 20
-158.5288248301594
 10
89.91837020321487
 20
-158.7572346608315
 10
89.92043726050601
 20
-158.8037434498824
 10
90.04962834120288
 20
-158.8037434498824
 10
90.06203068494977
 20
-158.8037434498824
 10
90.15952688718234
 20
-158.7954752207178
 10
90.15952688718234
 20
-158.7954752207178
 10
90.15952688718234
 20
-158.9901231156344
 10
90.15952688718234
 20
-158.9901231156344
 10
90.12128632729607
 20
-158.9877115487947
 10
90.05376245578517
 20
-158.9835774342124
 10
89.91837020321487
 20
-158.9856444915036
 10
89.91837020321487
 20
-158.9856444915036
 10
89.91837020321487
 20
-159.3242973777036
 10
89.91837020321487
 20
-159.3242973777036
 10
89.97349173097886
 20
-159.3008707284039
 10
90.0389485451986
 20
-159.2733099645219
 10
90.08752439154063
 20
-159.2502278247708
 10
90.08752439154063
 20
-159.2502278247708
 10
90.08752439154063
 20
-159.0724608977319
 10
90.08752439154063
 20
-159.0724608977319
 10
90.20190156165091
 20
-159.0852077510273
 10
90.32041284634351
 20
-159.0852077510273
 10
90.43651256419643
 20
-159.0852077510273
 10
90.41343042444525
 20
-158.9901231156344
 10
90.38586966056326
 20
-158.9074408239884
 10
90.32247990363465
 20
-158.7741156287092
 10
90.27803817187495
 20
-158.7761826860004
 10
90.19535588022895
 20
-158.7806613101312
 10
90.1574598298912
 20
-158.7827283674223
 10
90.1574598298912
 20
-158.7827283674223
 10
90.1574598298912
 20
-158.6028943830923
 10
90.1574598298912
 20
-158.6028943830923
 10
90.28217228645724
 20
-158.6111626122569
 10
90.45580509891383
 20
-158.6156412363878
 10
90.53814288101129
 20
-158.6156412363878
 10
90.53814288101129
 20
-158.6156412363878
 10
90.62082517265729
 20
-158.6156412363878
 10
90.62082517265729
 20
-158.6156412363878
 10
90.62082517265729
 20
-158.4526882199354
 10
90.62082517265729
 20
-158.4420084239312
 10
90.61841360581762
 20
-158.3872314057157
 10
90.61841360581762
 20
-158.3872314057157
 10
90.84268932190738
 20
-158.412380602758
 10
90.84268932190738
 20
-158.412380602758
 10
90.84716794603821
 20
-158.412380602758
 10
90.86818302849824
 20
-158.4144476600491
 10
90.86818302849824
 20
-158.4313286279269
 10
90.86818302849824
 20
-158.4461425385135
 10
90.85750323249397
 20
-158.4547552772266
 10
90.82994246861195
 20
-158.4695691878131
 10
90.82374129673851
 20
-158.5350260020329
 10
90.82167423944737
 20
-158.5563855940415
 10
90.82167423944737
 20
-158.6156412363878
 10
90.82167423944737
 20
-158.6156412363878
 10
90.91675887484026
 20
-158.6156412363878
 10
90.91675887484026
 20
-158.6156412363878
 10
90.99944116648625
 20
-158.6156412363878
 10
91.17272946939433
 20
-158.6111626122569
 10
91.2977864355089
 20
-158.6028943830923
 10
91.2977864355089
 20
-158.6028943830923
 10
91.2977864355089
 20
-158.7827283674223
 10
91.2977864355089
 20
-158.7827283674223
 10
91.26815861433575
 20
-158.7806613101312
 10
91.14964732964315
 20
-158.7761826860004
 10
91.10933971246572
 20
-158.7741156287092
 10
91.09452580187914
 20
-158.8251030418909
 10
91.0607638661237
 20
-158.9370686451615
 10
90.99496254235543
 20
-159.0765950123142
 10
91.03733721682401
 20
-159.0765950123142
 10
91.31466740338662
 20
-159.0576469871453
 10
91.37599010302407
 20
-159.0555799298542
 10
91.37599010302407
 20
-159.0555799298542
 10
91.37599010302407
 20
-159.2395480287665
 10
91.37599010302407
 20
-159.2395480287665
 10
91.34636228185092
 20
-159.2395480287665
 10
91.32948131397318
 20
-159.2354139141842
 10
91.16652829752087
 20
-159.2354139141842
 97
        0
 97
        1
330
D9
 75
     2
 76
     1
 98
        1
 10
0.0
 20
0.0
450
        0
451
        0
460
0.0
461
0.0
452
        0
462
0.0
453
        0
470

  0
SPLINE
  5
DB
330
D3
100
AcDbEntity
  8
レイヤー 1
100
AcDbSpline
210
0.0
220
0.0
230
1.0
 70
    11
 71
     3
 72
    17
 73
    13
 74
     0
 42
0.0000000001
 43
0.0000000001
 40
0.0
 40
0.0
 40
0.0
 40
0.0
 40
1.0
 40
1.0
 40
1.0
 40
2.0
 40
2.0
 40
2.0
 40
3.0
 40
3.0
 40
3.0
 40
4.0
 40
4.0
 40
4.0
 40
4.0
 10
93.02309025452201
 20
-160.0350205763107
 30
0.0
 10
93.02309025452201
 20
-160.0350205763107
 30
0.0
 10
92.31650117049726
 20
-160.0350205763107
 30
0.0
 10
92.31650117049726
 20
-160.0350205763107
 30
0.0
 10
92.31650117049726
 20
-160.0350205763107
 30
0.0
 10
92.31650117049726
 20
-160.149397746421
 30
0.0
 10
92.31650117049726
 20
-160.149397746421
 30
0.0
 10
92.31650117049726
 20
-160.149397746421
 30
0.0
 10
93.02309025452201
 20
-160.149397746421
 30
0.0
 10
93.02309025452201
 20
-160.149397746421
 30
0.0
 10
93.02309025452201
 20
-160.149397746421
 30
0.0
 10
93.02309025452201
 20
-160.0350205763107
 30
0.0
 10
93.02309025452201
 20
-160.0350205763107
 30
0.0
  0
SPLINE
  5
DC
330
D3
100
AcDbEntity
  8
レイヤー 1
100
AcDbSpline
210
0.0
220
0.0
230
1.0
 70
    11
 71
     3
 72
    17
 73
    13
 74
     0
 42
0.0000000001
 43
0.0000000001
 40
0.0
 40
0.0
 40
0.0
 40
0.0
 40
1.0
 40
1.0
 40
1.0
 40
2.0
 40
2.0
 40
2.0
 40
3.0
 40
3.0
 40
3.0
 40
4.0
 40
4.0
 40
4.0
 40
4.0
 10
93.02309025452201
 20
-159.791796835052
 30
0.0
 10
93.02309025452201
 20
-159.791796835052
 30
0.0
 10
92.31650117049726
 20
-159.791796835052
 30
0.0
 10
92.31650117049726
 20
-159.791796835052
 30
0.0
 10
92.31650117049726
 20
-159.791796835052
 30
0.0
 10
92.31650117049726
 20
-159.9061740051623
 30
0.0
 10
92.31650117049726
 20
-159.9061740051623
 30
0.0
 10
92.31650117049726
 20
-159.9061740051623
 30
0.0
 10
93.02309025452201
 20
-159.9061740051623
 30
0.0
 10
93.02309025452201
 20
-159.9061740051623
 30
0.0
 10
93.02309025452201
 20
-159.9061740051623
 30
0.0
 10
93.02309025452201
 20
-159.791796835052
 30
0.0
 10
93.02309025452201
 20
-159.791796835052
 30
0.0
  0
SPLINE
  5
DD
330
D3
100
AcDbEntity
  8
レイヤー 1
100
AcDbSpline
210
0.0
220
0.0
230
1.0
 70
    11
 71
     3
 72
    17
 73
    13
 74
     0
 42
0.0000000001
 43
0.0000000001
 40
0.0
 40
0.0
 40
0.0
 40
0.0
 40
1.0
 40
1.0
 40
1.0
 40
2.0
 40
2.0
 40
2.0
 40
3.0
 40
3.0
 40
3.0
 40
4.0
 40
4.0
 40
4.0
 40
4.0
 10
93.02309025452201
 20
-159.5589083802491
 30
0.0
 10
93.02309025452201
 20
-159.5589083802491
 30
0.0
 10
92.31650117049726
 20
-159.5589083802491
 30
0.0
 10
92.31650117049726
 20
-159.5589083802491
 30
0.0
 10
92.31650117049726
 20
-159.5589083802491
 30
0.0
 10
92.31650117049726
 20
-159.667084378486
 30
0.0
 10
92.31650117049726
 20
-159.667084378486
 30
0.0
 10
92.31650117049726
 20
-159.667084378486
 30
0.0
 10
93.02309025452201
 20
-159.667084378486
 30
0.0
 10
93.02309025452201
 20
-159.667084378486
 30
0.0
 10
93.02309025452201
 20
-159.667084378486
 30
0.0
 10
93.02309025452201
 20
-159.5589083802491
 30
0.0
 10
93.02309025452201
 20
-159.5589083802491
 30
0.0
  0
SPLINE
  5
DE
330
D3
100
AcDbEntity
  8
レイヤー 1
100
AcDbSpline
210
0.0
220
0.0
230
1.0
 70
     9
 71
     3
 72
   203
 73
   199
 74
     0
 42
0.0000000001
 43
0.0000000001
 40
0.0
 40
0.0
 40
0.0
 40
0.0
 40
1.0
 40
1.0
 40
1.0
 40
2.0
 40
2.0
 40
2.0
 40
3.0
 40
3.0
 40
3.0
 40
4.0
 40
4.0
 40
4.0
 40
5.0
 40
5.0
 40
5.0
 40
6.0
 40
6.0
 40
6.0
 40
7.0
 40
7.0
 40
7.0
 40
8.0
 40
8.0
 40
8.0
 40
9.0
 40
9.0
 40
9.0
 40
10.0
 40
10.0
 40
10.0
 40
11.0
 40
11.0
 40
11.0
 40
12.0
 40
12.0
 40
12.0
 40
13.0
 40
13.0
 40
13.0
 40
14.0
 40
14.0
 40
14.0
 40
15.0
 40
15.0
 40
15.0
 40
16.0
 40
16.0
 40
16.0
 40
17.0
 40
17.0
 40
17.0
 40
18.0
 40
18.0
 40
18.0
 40
19.0
 40
19.0
 40
19.0
 40
20.0
 40
20.0
 40
20.0
 40
21.0
 40
21.0
 40
21.0
 40
22.0
 40
22.0
 40
22.0
 40
23.0
 40
23.0
 40
23.0
 40
24.0
 40
24.0
 40
24.0
 40
25.0
 40
25.0
 40
25.0
 40
26.0
 40
26.0
 40
26.0
 40
27.0
 40
27.0
 40
27.0
 40
28.0
 40
28.0
 40
28.0
 40
29.0
 40
29.0
 40
29.0
 40
30.0
 40
30.0
 40
30.0
 40
31.0
 40
31.0
 40
31.0
 40
32.0
 40
32.0
 40
32.0
 40
33.0
 40
33.0
 40
33.0
 40
34.0
 40
34.0
 40
34.0
 40
35.0
 40
35.0
 40
35.0
 40
36.0
 40
36.0
 40
36.0
 40
37.0
 40
37.0
 40
37.0
 40
38.0
 40
38.0
 40
38.0
 40
39.0
 40
39.0
 40
39.0
 40
40.0
 40
40.0
 40
40.0
 40
41.0
 40
41.0
 40
41.0
 40
42.0
 40
42.0
 40
42.0
 40
43.0
 40
43.0
 40
43.0
 40
44.0
 40
44.0
 40
44.0
 40
45.0
 40
45.0
 40
45.0
 40
46.0
 40
46.0
 40
46.0
 40
47.0
 40
47.0
 40
47.0
 40
48.0
 40
48.0
 40
48.0
 40
49.0
 40
49.0
 40
49.0
 40
50.0
 40
50.0
 40
50.0
 40
51.0
 40
51.0
 40
51.0
 40
52.0
 40
52.0
 40
52.0
 40
53.0
 40
53.0
 40
53.0
 40
54.0
 40
54.0
 40
54.0
 40
55.0
 40
55.0
 40
55.0
 40
56.0
 40
56.0
 40
56.0
 40
57.0
 40
57.0
 40
57.0
 40
58.0
 40
58.0
 40
58.0
 40
59.0
 40
59.0
 40
59.0
 40
60.0
 40
60.0
 40
60.0
 40
61.0
 40
61.0
 40
61.0
 40
62.0
 40
62.0
 40
62.0
 40
63.0
 40
63.0
 40
63.0
 40
64.0
 40
64.0
 40
64.0
 40
65.0
 40
65.0
 40
65.0
 40
66.0
 40
66.0
 40
66.0
 40
66.0
 10
92.85807018077854
 20
-159.3029377856951
 30
0.0
 10
92.85807018077854
 20
-159.3029377856951
 30
0.0
 10
92.29927569307102
 20
-159.3029377856951
 30
0.0
 10
92.29927569307102
 20
-159.3029377856951
 30
0.0
 10
92.28894040661527
 20
-159.3473795174548
 30
0.0
 10
92.28032766790214
 20
-159.3790743959191
 30
0.0
 10
92.26758081460671
 20
-159.4173149558054
 30
0.0
 10
92.29307452119757
 20
-159.4173149558054
 30
0.0
 10
92.30788843178414
 20
-159.4193820130965
 30
0.0
 10
92.3140896036576
 20
-159.4193820130965
 30
0.0
 10
92.3140896036576
 20
-159.4193820130965
 30
0.0
 10
92.50253632670077
 20
-159.4193820130965
 30
0.0
 10
92.50253632670077
 20
-159.4193820130965
 30
0.0
 10
92.50253632670077
 20
-159.4193820130965
 30
0.0
 10
92.87701820594742
 20
-159.4193820130965
 30
0.0
 10
92.87701820594742
 20
-159.4193820130965
 30
0.0
 10
92.92766110958059
 20
-159.4193820130965
 30
0.0
 10
93.21119246801664
 20
-159.4066351598011
 30
0.0
 10
93.24288734648096
 20
-159.4066351598011
 30
0.0
 10
93.24082028918979
 20
-159.4341959236831
 30
0.0
 10
93.23875323189865
 20
-159.453143948852
 30
0.0
 10
93.23875323189865
 20
-159.4827717700251
 30
0.0
 10
93.2366861746075
 20
-159.5144666484894
 30
0.0
 10
93.2366861746075
 20
-159.6498589010597
 30
0.0
 10
93.2366861746075
 20
-159.6774196649417
 30
0.0
 10
93.2366861746075
 20
-159.6774196649417
 30
0.0
 10
93.2366861746075
 20
-159.9230549730401
 30
0.0
 10
93.2366861746075
 20
-159.9230549730401
 30
0.0
 10
93.2366861746075
 20
-159.9674967047998
 30
0.0
 10
93.24082028918979
 20
-160.1642116570076
 30
0.0
 10
93.2449544037721
 20
-160.3164848774556
 30
0.0
 10
93.2449544037721
 20
-160.3164848774556
 30
0.0
 10
93.01861163039118
 20
-160.3164848774556
 30
0.0
 10
93.01861163039118
 20
-160.3164848774556
 30
0.0
 10
93.01861163039118
 20
-160.3164848774556
 30
0.0
 10
93.02067868768233
 20
-160.2827229417002
 30
0.0
 10
93.02067868768233
 20
-160.2827229417002
 30
0.0
 10
93.02067868768233
 20
-160.2827229417002
 30
0.0
 10
92.31856822778842
 20
-160.2827229417002
 30
0.0
 10
92.31856822778842
 20
-160.2827229417002
 30
0.0
 10
92.31856822778842
 20
-160.2827229417002
 30
0.0
 10
92.32063528507955
 20
-160.3164848774556
 30
0.0
 10
92.32063528507955
 20
-160.3164848774556
 30
0.0
 10
92.32063528507955
 20
-160.3164848774556
 30
0.0
 10
92.10256074086325
 20
-160.3164848774556
 30
0.0
 10
92.10256074086325
 20
-160.3164848774556
 30
0.0
 10
92.10703936499408
 20
-160.2613633496916
 30
0.0
 10
92.10703936499408
 20
-160.2486164963962
 30
0.0
 10
92.11324053686752
 20
-160.1345838358344
 30
0.0
 10
92.11530759415868
 20
-160.1070230719524
 30
0.0
 10
92.11737465144983
 20
-159.9736978766732
 30
0.0
 10
92.11737465144983
 20
-159.9547498515043
 30
0.0
 10
92.11737465144983
 20
-159.9547498515043
 30
0.0
 10
92.11737465144983
 20
-159.7514892178746
 30
0.0
 10
92.11737465144983
 20
-159.7514892178746
 30
0.0
 10
91.97784828429721
 20
-160.0012586405552
 30
0.0
 10
91.80869409597145
 20
-160.1325167785432
 30
0.0
 10
91.70292966457427
 20
-160.197973592763
 30
0.0
 10
91.70292966457427
 20
-160.197973592763
 30
0.0
 10
91.52929685211768
 20
-160.0584472256104
 30
0.0
 10
91.52929685211768
 20
-160.0584472256104
 30
0.0
 10
91.61818031563711
 20
-160.0074598124287
 30
0.0
 10
91.76218530692057
 20
-159.9206434062004
 30
0.0
 10
91.89964461678204
 20
-159.7263400208323
 30
0.0
 10
91.99059513759264
 20
-159.5992159974266
 30
0.0
 10
92.05605195181238
 20
-159.4555555156917
 30
0.0
 10
92.09015839711636
 20
-159.3029377856951
 30
0.0
 10
91.86140405689576
 20
-159.3053493525348
 30
0.0
 10
91.68157007256573
 20
-159.3115505244082
 30
0.0
 10
91.58648543717282
 20
-159.3136175816994
 30
0.0
 10
91.58648543717282
 20
-159.3136175816994
 30
0.0
 10
91.58648543717282
 20
-159.1358506546605
 30
0.0
 10
91.58648543717282
 20
-159.1358506546605
 30
0.0
 10
91.78320038938059
 20
-159.1423963360824
 30
0.0
 10
92.06673174781666
 20
-159.1465304506647
 30
0.0
 10
92.21693791097354
 20
-159.1465304506647
 30
0.0
 10
92.21693791097354
 20
-159.1465304506647
 30
0.0
 10
92.43053383105904
 20
-159.1465304506647
 30
0.0
 10
92.43053383105904
 20
-159.1465304506647
 30
0.0
 10
92.43053383105904
 20
-159.1465304506647
 30
0.0
 10
92.43053383105904
 20
-159.0386989619764
 30
0.0
 10
92.43053383105904
 20
-159.0386989619764
 30
0.0
 10
92.43053383105904
 20
-159.0386989619764
 30
0.0
 10
92.28446178248445
 20
-159.0386989619764
 30
0.0
 10
92.28446178248445
 20
-159.0386989619764
 30
0.0
 10
92.11530759415868
 20
-159.0386989619764
 30
0.0
 10
91.94615340583291
 20
-159.0428330765587
 30
0.0
 10
91.77906627479829
 20
-159.0493787579807
 30
0.0
 10
91.77906627479829
 20
-159.0493787579807
 30
0.0
 10
91.77906627479829
 20
-158.8778130028153
 30
0.0
 10
91.77906627479829
 20
-158.8778130028153
 30
0.0
 10
91.93340655253749
 20
-158.8884927988195
 30
0.0
 10
92.11944170874097
 20
-158.8884927988195
 30
0.0
 10
92.28446178248445
 20
-158.8884927988195
 30
0.0
 10
92.28446178248445
 20
-158.8884927988195
 30
0.0
 10
92.43053383105904
 20
-158.8884927988195
 30
0.0
 10
92.43053383105904
 20
-158.8884927988195
 30
0.0
 10
92.43053383105904
 20
-158.8884927988195
 30
0.0
 10
92.43053383105904
 20
-158.7699815141269
 30
0.0
 10
92.43053383105904
 20
-158.7699815141269
 30
0.0
 10
92.43053383105904
 20
-158.7699815141269
 30
0.0
 10
92.29927569307102
 20
-158.7699815141269
 30
0.0
 10
92.29927569307102
 20
-158.7699815141269
 30
0.0
 10
92.25276690402015
 20
-158.7699815141269
 30
0.0
 10
92.04985077993894
 20
-158.7785942528401
 30
0.0
 10
92.00747610547036
 20
-158.7785942528401
 30
0.0
 10
91.80455998138915
 20
-158.7827283674223
 30
0.0
 10
91.7280788616166
 20
-158.7847954247135
 30
0.0
 10
91.64987519410143
 20
-158.7868624820047
 30
0.0
 10
91.64987519410143
 20
-158.7868624820047
 30
0.0
 10
91.64987519410143
 20
-158.6028943830923
 30
0.0
 10
91.64987519410143
 20
-158.6028943830923
 30
0.0
 10
91.76425236421172
 20
-158.6111626122569
 30
0.0
 10
91.80869409597145
 20
-158.6111626122569
 30
0.0
 10
92.1914442043827
 20
-158.61977535097
 30
0.0
 10
92.12805444745411
 20
-158.5246907155771
 30
0.0
 10
92.10049368357209
 20
-158.4971299516952
 30
0.0
 10
92.0646646905255
 20
-158.4609564491
 30
0.0
 10
92.0646646905255
 20
-158.4609564491
 30
0.0
 10
92.24002005072472
 20
-158.3786186670026
 30
0.0
 10
92.24002005072472
 20
-158.3786186670026
 30
0.0
 10
92.28032766790214
 20
-158.4144476600491
 30
0.0
 10
92.32476939966186
 20
-158.4568223345177
 30
0.0
 10
92.39883895259474
 20
-158.5667208804972
 30
0.0
 10
92.39883895259474
 20
-158.5667208804972
 30
0.0
 10
92.28446178248445
 20
-158.6218424082612
 30
0.0
 10
92.28446178248445
 20
-158.6218424082612
 30
0.0
 10
92.28446178248445
 20
-158.6218424082612
 30
0.0
 10
92.29514157848873
 20
-158.6218424082612
 30
0.0
 10
92.29514157848873
 20
-158.6218424082612
 30
0.0
 10
92.29514157848873
 20
-158.6218424082612
 30
0.0
 10
92.81776256360112
 20
-158.6218424082612
 30
0.0
 10
92.81776256360112
 20
-158.6218424082612
 30
0.0
 10
92.81776256360112
 20
-158.6218424082612
 30
0.0
 10
92.72267792820823
 20
-158.5774006765015
 30
0.0
 10
92.72267792820823
 20
-158.5774006765015
 30
0.0
 10
92.7498941825417
 20
-158.5395046261637
 30
0.0
 10
92.80708276759684
 20
-158.4588893918089
 30
0.0
 10
92.82189667818341
 20
-158.384819838876
 30
0.0
 10
92.82189667818341
 20
-158.384819838876
 30
0.0
 10
93.0354925982689
 20
-158.4485541053531
 30
0.0
 10
93.0354925982689
 20
-158.4485541053531
 30
0.0
 10
93.04410533698202
 20
-158.4506211626443
 30
0.0
 10
93.06512041944206
 20
-158.4609564491
 30
0.0
 10
93.06512041944206
 20
-158.4823160411086
 30
0.0
 10
93.06512041944206
 20
-158.5202120914463
 30
0.0
 10
92.99966360522232
 20
-158.5202120914463
 30
0.0
 10
92.98071558005345
 20
-158.5202120914463
 30
0.0
 10
92.97003578404916
 20
-158.5395046261637
 30
0.0
 10
92.94660913474947
 20
-158.5794677337926
 30
0.0
 10
92.91698131357632
 20
-158.61977535097
 30
0.0
 10
93.31695689941382
 20
-158.6135741790966
 30
0.0
 10
93.34658472058697
 20
-158.6111626122569
 30
0.0
 10
93.42272133081099
 20
-158.6049614403834
 30
0.0
 10
93.42272133081099
 20
-158.6049614403834
 30
0.0
 10
93.42272133081099
 20
-158.7868624820047
 30
0.0
 10
93.42272133081099
 20
-158.7868624820047
 30
0.0
 10
93.40377330564212
 20
-158.7868624820047
 30
0.0
 10
93.37827959905126
 20
-158.7847954247135
 30
0.0
 10
93.15848250709233
 20
-158.7761826860004
 30
0.0
 10
93.10749509391063
 20
-158.7741156287092
 30
0.0
 10
92.88769800195169
 20
-158.7699815141269
 30
0.0
 10
92.84325627019198
 20
-158.7699815141269
 30
0.0
 10
92.84325627019198
 20
-158.7699815141269
 30
0.0
 10
92.62724878326681
 20
-158.7699815141269
 30
0.0
 10
92.62724878326681
 20
-158.7699815141269
 30
0.0
 10
92.62724878326681
 20
-158.7699815141269
 30
0.0
 10
92.62724878326681
 20
-158.8884927988195
 30
0.0
 10
92.62724878326681
 20
-158.8884927988195
 30
0.0
 10
92.62724878326681
 20
-158.8884927988195
 30
0.0
 10
92.8008815957234
 20
-158.8884927988195
 30
0.0
 10
92.8008815957234
 20
-158.8884927988195
 30
0.0
 10
92.96383461217571
 20
-158.8884927988195
 30
0.0
 10
93.15400388296151
 20
-158.8884927988195
 30
0.0
 10
93.31075572754036
 20
-158.8778130028153
 30
0.0
 10
93.31075572754036
 20
-158.8778130028153
 30
0.0
 10
93.31075572754036
 20
-159.0493787579807
 30
0.0
 10
93.31075572754036
 20
-159.0493787579807
 30
0.0
 10
93.10129392203718
 20
-159.0407660192676
 30
0.0
 10
92.90457896982941
 20
-159.0386989619764
 30
0.0
 10
92.8008815957234
 20
-159.0386989619764
 30
0.0
 10
92.8008815957234
 20
-159.0386989619764
 30
0.0
 10
92.62724878326681
 20
-159.0386989619764
 30
0.0
 10
92.62724878326681
 20
-159.0386989619764
 30
0.0
 10
92.62724878326681
 20
-159.0386989619764
 30
0.0
 10
92.62724878326681
 20
-159.1465304506647
 30
0.0
 10
92.62724878326681
 20
-159.1465304506647
 30
0.0
 10
92.62724878326681
 20
-159.1465304506647
 30
0.0
 10
92.85807018077854
 20
-159.1465304506647
 30
0.0
 10
92.85807018077854
 20
-159.1465304506647
 30
0.0
 10
92.99105086650918
 20
-159.1465304506647
 30
0.0
 10
93.27906084907608
 20
-159.1423963360824
 30
0.0
 10
93.48817814503075
 20
-159.1358506546605
 30
0.0
 10
93.48817814503075
 20
-159.1358506546605
 30
0.0
 10
93.48817814503075
 20
-159.3136175816994
 30
0.0
 10
93.48817814503075
 20
-159.3136175816994
 30
0.0
 10
93.2959418169538
 20
-159.3074164098259
 30
0.0
 10
92.98278263734458
 20
-159.3029377856951
 30
0.0
 10
92.85807018077854
 20
-159.3029377856951
 30
0.0
  0
HATCH
  5
DF
330
D3
100
AcDbEntity
  8
レイヤー 1
 62
   250
420
  2299925
440
 33554687
100
AcDbHatch
 10
0.0
 20
0.0
 30
0.0
210
0.0
220
0.0
230
1.0
  2
SOLID
 70
     1
 71
     1
 91
        4
 92
        1
 93
        1
 72
     4
 94
        3
 73
     0
 74
     0
 95
       17
 96
       13
 40
0.0
 40
0.0
 40
0.0
 40
0.0
 40
1.0
 40
1.0
 40
1.0
 40
2.0
 40
2.0
 40
2.0
 40
3.0
 40
3.0
 40
3.0
 40
4.0
 40
4.0
 40
4.0
 40
4.0
 10
93.02309025452201
 20
-160.0350205763107
 10
93.02309025452201
 20
-160.0350205763107
 10
92.31650117049726
 20
-160.0350205763107
 10
92.31650117049726
 20
-160.0350205763107
 10
92.31650117049726
 20
-160.0350205763107
 10
92.31650117049726
 20
-160.149397746421
 10
92.31650117049726
 20
-160.149397746421
 10
92.31650117049726
 20
-160.149397746421
 10
93.02309025452201
 20
-160.149397746421
 10
93.02309025452201
 20
-160.149397746421
 10
93.02309025452201
 20
-160.149397746421
 10
93.02309025452201
 20
-160.0350205763107
 10
93.02309025452201
 20
-160.0350205763107
 97
        0
 97
        1
330
DB
 92
        1
 93
        1
 72
     4
 94
        3
 73
     0
 74
     0
 95
       17
 96
       13
 40
0.0
 40
0.0
 40
0.0
 40
0.0
 40
1.0
 40
1.0
 40
1.0
 40
2.0
 40
2.0
 40
2.0
 40
3.0
 40
3.0
 40
3.0
 40
4.0
 40
4.0
 40
4.0
 40
4.0
 10
93.02309025452201
 20
-159.791796835052
 10
93.02309025452201
 20
-159.791796835052
 10
92.31650117049726
 20
-159.791796835052
 10
92.31650117049726
 20
-159.791796835052
 10
92.31650117049726
 20
-159.791796835052
 10
92.31650117049726
 20
-159.9061740051623
 10
92.31650117049726
 20
-159.9061740051623
 10
92.31650117049726
 20
-159.9061740051623
 10
93.02309025452201
 20
-159.9061740051623
 10
93.02309025452201
 20
-159.9061740051623
 10
93.02309025452201
 20
-159.9061740051623
 10
93.02309025452201
 20
-159.791796835052
 10
93.02309025452201
 20
-159.791796835052
 97
        0
 97
        1
330
DC
 92
        1
 93
        1
 72
     4
 94
        3
 73
     0
 74
     0
 95
       17
 96
       13
 40
0.0
 40
0.0
 40
0.0
 40
0.0
 40
1.0
 40
1.0
 40
1.0
 40
2.0
 40
2.0
 40
2.0
 40
3.0
 40
3.0
 40
3.0
 40
4.0
 40
4.0
 40
4.0
 40
4.0
 10
93.02309025452201
 20
-159.5589083802491
 10
93.02309025452201
 20
-159.5589083802491
 10
92.31650117049726
 20
-159.5589083802491
 10
92.31650117049726
 20
-159.5589083802491
 10
92.31650117049726
 20
-159.5589083802491
 10
92.31650117049726
 20
-159.667084378486
 10
92.31650117049726
 20
-159.667084378486
 10
92.31650117049726
 20
-159.667084378486
 10
93.02309025452201
 20
-159.667084378486
 10
93.02309025452201
 20
-159.667084378486
 10
93.02309025452201
 20
-159.667084378486
 10
93.02309025452201
 20
-159.5589083802491
 10
93.02309025452201
 20
-159.5589083802491
 97
        0
 97
        1
330
DD
 92
        1
 93
        1
 72
     4
 94
        3
 73
     0
 74
     0
 95
      203
 96
      199
 40
0.0
 40
0.0
 40
0.0
 40
0.0
 40
1.0
 40
1.0
 40
1.0
 40
2.0
 40
2.0
 40
2.0
 40
3.0
 40
3.0
 40
3.0
 40
4.0
 40
4.0
 40
4.0
 40
5.0
 40
5.0
 40
5.0
 40
6.0
 40
6.0
 40
6.0
 40
7.0
 40
7.0
 40
7.0
 40
8.0
 40
8.0
 40
8.0
 40
9.0
 40
9.0
 40
9.0
 40
10.0
 40
10.0
 40
10.0
 40
11.0
 40
11.0
 40
11.0
 40
12.0
 40
12.0
 40
12.0
 40
13.0
 40
13.0
 40
13.0
 40
14.0
 40
14.0
 40
14.0
 40
15.0
 40
15.0
 40
15.0
 40
16.0
 40
16.0
 40
16.0
 40
17.0
 40
17.0
 40
17.0
 40
18.0
 40
18.0
 40
18.0
 40
19.0
 40
19.0
 40
19.0
 40
20.0
 40
20.0
 40
20.0
 40
21.0
 40
21.0
 40
21.0
 40
22.0
 40
22.0
 40
22.0
 40
23.0
 40
23.0
 40
23.0
 40
24.0
 40
24.0
 40
24.0
 40
25.0
 40
25.0
 40
25.0
 40
26.0
 40
26.0
 40
26.0
 40
27.0
 40
27.0
 40
27.0
 40
28.0
 40
28.0
 40
28.0
 40
29.0
 40
29.0
 40
29.0
 40
30.0
 40
30.0
 40
30.0
 40
31.0
 40
31.0
 40
31.0
 40
32.0
 40
32.0
 40
32.0
 40
33.0
 40
33.0
 40
33.0
 40
34.0
 40
34.0
 40
34.0
 40
35.0
 40
35.0
 40
35.0
 40
36.0
 40
36.0
 40
36.0
 40
37.0
 40
37.0
 40
37.0
 40
38.0
 40
38.0
 40
38.0
 40
39.0
 40
39.0
 40
39.0
 40
40.0
 40
40.0
 40
40.0
 40
41.0
 40
41.0
 40
41.0
 40
42.0
 40
42.0
 40
42.0
 40
43.0
 40
43.0
 40
43.0
 40
44.0
 40
44.0
 40
44.0
 40
45.0
 40
45.0
 40
45.0
 40
46.0
 40
46.0
 40
46.0
 40
47.0
 40
47.0
 40
47.0
 40
48.0
 40
48.0
 40
48.0
 40
49.0
 40
49.0
 40
49.0
 40
50.0
 40
50.0
 40
50.0
 40
51.0
 40
51.0
 40
51.0
 40
52.0
 40
52.0
 40
52.0
 40
53.0
 40
53.0
 40
53.0
 40
54.0
 40
54.0
 40
54.0
 40
55.0
 40
55.0
 40
55.0
 40
56.0
 40
56.0
 40
56.0
 40
57.0
 40
57.0
 40
57.0
 40
58.0
 40
58.0
 40
58.0
 40
59.0
 40
59.0
 40
59.0
 40
60.0
 40
60.0
 40
60.0
 40
61.0
 40
61.0
 40
61.0
 40
62.0
 40
62.0
 40
62.0
 40
63.0
 40
63.0
 40
63.0
 40
64.0
 40
64.0
 40
64.0
 40
65.0
 40
65.0
 40
65.0
 40
66.0
 40
66.0
 40
66.0
 40
66.0
 10
92.85807018077854
 20
-159.3029377856951
 10
92.85807018077854
 20
-159.3029377856951
 10
92.29927569307102
 20
-159.3029377856951
 10
92.29927569307102
 20
-159.3029377856951
 10
92.28894040661527
 20
-159.3473795174548
 10
92.28032766790214
 20
-159.3790743959191
 10
92.26758081460671
 20
-159.4173149558054
 10
92.29307452119757
 20
-159.4173149558054
 10
92.30788843178414
 20
-159.4193820130965
 10
92.3140896036576
 20
-159.4193820130965
 10
92.3140896036576
 20
-159.4193820130965
 10
92.50253632670077
 20
-159.4193820130965
 10
92.50253632670077
 20
-159.4193820130965
 10
92.50253632670077
 20
-159.4193820130965
 10
92.87701820594742
 20
-159.4193820130965
 10
92.87701820594742
 20
-159.4193820130965
 10
92.92766110958059
 20
-159.4193820130965
 10
93.21119246801664
 20
-159.4066351598011
 10
93.24288734648096
 20
-159.4066351598011
 10
93.24082028918979
 20
-159.4341959236831
 10
93.23875323189865
 20
-159.453143948852
 10
93.23875323189865
 20
-159.4827717700251
 10
93.2366861746075
 20
-159.5144666484894
 10
93.2366861746075
 20
-159.6498589010597
 10
93.2366861746075
 20
-159.6774196649417
 10
93.2366861746075
 20
-159.6774196649417
 10
93.2366861746075
 20
-159.9230549730401
 10
93.2366861746075
 20
-159.9230549730401
 10
93.2366861746075
 20
-159.9674967047998
 10
93.24082028918979
 20
-160.1642116570076
 10
93.2449544037721
 20
-160.3164848774556
 10
93.2449544037721
 20
-160.3164848774556
 10
93.01861163039118
 20
-160.3164848774556
 10
93.01861163039118
 20
-160.3164848774556
 10
93.01861163039118
 20
-160.3164848774556
 10
93.02067868768233
 20
-160.2827229417002
 10
93.02067868768233
 20
-160.2827229417002
 10
93.02067868768233
 20
-160.2827229417002
 10
92.31856822778842
 20
-160.2827229417002
 10
92.31856822778842
 20
-160.2827229417002
 10
92.31856822778842
 20
-160.2827229417002
 10
92.32063528507955
 20
-160.3164848774556
 10
92.32063528507955
 20
-160.3164848774556
 10
92.32063528507955
 20
-160.3164848774556
 10
92.10256074086325
 20
-160.3164848774556
 10
92.10256074086325
 20
-160.3164848774556
 10
92.10703936499408
 20
-160.2613633496916
 10
92.10703936499408
 20
-160.2486164963962
 10
92.11324053686752
 20
-160.1345838358344
 10
92.11530759415868
 20
-160.1070230719524
 10
92.11737465144983
 20
-159.9736978766732
 10
92.11737465144983
 20
-159.9547498515043
 10
92.11737465144983
 20
-159.9547498515043
 10
92.11737465144983
 20
-159.7514892178746
 10
92.11737465144983
 20
-159.7514892178746
 10
91.97784828429721
 20
-160.0012586405552
 10
91.80869409597145
 20
-160.1325167785432
 10
91.70292966457427
 20
-160.197973592763
 10
91.70292966457427
 20
-160.197973592763
 10
91.52929685211768
 20
-160.0584472256104
 10
91.52929685211768
 20
-160.0584472256104
 10
91.61818031563711
 20
-160.0074598124287
 10
91.76218530692057
 20
-159.9206434062004
 10
91.89964461678204
 20
-159.7263400208323
 10
91.99059513759264
 20
-159.5992159974266
 10
92.05605195181238
 20
-159.4555555156917
 10
92.09015839711636
 20
-159.3029377856951
 10
91.86140405689576
 20
-159.3053493525348
 10
91.68157007256573
 20
-159.3115505244082
 10
91.58648543717282
 20
-159.3136175816994
 10
91.58648543717282
 20
-159.3136175816994
 10
91.58648543717282
 20
-159.1358506546605
 10
91.58648543717282
 20
-159.1358506546605
 10
91.78320038938059
 20
-159.1423963360824
 10
92.06673174781666
 20
-159.1465304506647
 10
92.21693791097354
 20
-159.1465304506647
 10
92.21693791097354
 20
-159.1465304506647
 10
92.43053383105904
 20
-159.1465304506647
 10
92.43053383105904
 20
-159.1465304506647
 10
92.43053383105904
 20
-159.1465304506647
 10
92.43053383105904
 20
-159.0386989619764
 10
92.43053383105904
 20
-159.0386989619764
 10
92.43053383105904
 20
-159.0386989619764
 10
92.28446178248445
 20
-159.0386989619764
 10
92.28446178248445
 20
-159.0386989619764
 10
92.11530759415868
 20
-159.0386989619764
 10
91.94615340583291
 20
-159.0428330765587
 10
91.77906627479829
 20
-159.0493787579807
 10
91.77906627479829
 20
-159.0493787579807
 10
91.77906627479829
 20
-158.8778130028153
 10
91.77906627479829
 20
-158.8778130028153
 10
91.93340655253749
 20
-158.8884927988195
 10
92.11944170874097
 20
-158.8884927988195
 10
92.28446178248445
 20
-158.8884927988195
 10
92.28446178248445
 20
-158.8884927988195
 10
92.43053383105904
 20
-158.8884927988195
 10
92.43053383105904
 20
-158.8884927988195
 10
92.43053383105904
 20
-158.8884927988195
 10
92.43053383105904
 20
-158.7699815141269
 10
92.43053383105904
 20
-158.7699815141269
 10
92.43053383105904
 20
-158.7699815141269
 10
92.29927569307102
 20
-158.7699815141269
 10
92.29927569307102
 20
-158.7699815141269
 10
92.25276690402015
 20
-158.7699815141269
 10
92.04985077993894
 20
-158.7785942528401
 10
92.00747610547036
 20
-158.7785942528401
 10
91.80455998138915
 20
-158.7827283674223
 10
91.7280788616166
 20
-158.7847954247135
 10
91.64987519410143
 20
-158.7868624820047
 10
91.64987519410143
 20
-158.7868624820047
 10
91.64987519410143
 20
-158.6028943830923
 10
91.64987519410143
 20
-158.6028943830923
 10
91.76425236421172
 20
-158.6111626122569
 10
91.80869409597145
 20
-158.6111626122569
 10
92.1914442043827
 20
-158.61977535097
 10
92.12805444745411
 20
-158.5246907155771
 10
92.10049368357209
 20
-158.4971299516952
 10
92.0646646905255
 20
-158.4609564491
 10
92.0646646905255
 20
-158.4609564491
 10
92.24002005072472
 20
-158.3786186670026
 10
92.24002005072472
 20
-158.3786186670026
 10
92.28032766790214
 20
-158.4144476600491
 10
92.32476939966186
 20
-158.4568223345177
 10
92.39883895259474
 20
-158.5667208804972
 10
92.39883895259474
 20
-158.5667208804972
 10
92.28446178248445
 20
-158.6218424082612
 10
92.28446178248445
 20
-158.6218424082612
 10
92.28446178248445
 20
-158.6218424082612
 10
92.29514157848873
 20
-158.6218424082612
 10
92.29514157848873
 20
-158.6218424082612
 10
92.29514157848873
 20
-158.6218424082612
 10
92.81776256360112
 20
-158.6218424082612
 10
92.81776256360112
 20
-158.6218424082612
 10
92.81776256360112
 20
-158.6218424082612
 10
92.72267792820823
 20
-158.5774006765015
 10
92.72267792820823
 20
-158.5774006765015
 10
92.7498941825417
 20
-158.5395046261637
 10
92.80708276759684
 20
-158.4588893918089
 10
92.82189667818341
 20
-158.384819838876
 10
92.82189667818341
 20
-158.384819838876
 10
93.0354925982689
 20
-158.4485541053531
 10
93.0354925982689
 20
-158.4485541053531
 10
93.04410533698202
 20
-158.4506211626443
 10
93.06512041944206
 20
-158.4609564491
 10
93.06512041944206
 20
-158.4823160411086
 10
93.06512041944206
 20
-158.5202120914463
 10
92.99966360522232
 20
-158.5202120914463
 10
92.98071558005345
 20
-158.5202120914463
 10
92.97003578404916
 20
-158.5395046261637
 10
92.94660913474947
 20
-158.5794677337926
 10
92.91698131357632
 20
-158.61977535097
 10
93.31695689941382
 20
-158.6135741790966
 10
93.34658472058697
 20
-158.6111626122569
 10
93.42272133081099
 20
-158.6049614403834
 10
93.42272133081099
 20
-158.6049614403834
 10
93.42272133081099
 20
-158.7868624820047
 10
93.42272133081099
 20
-158.7868624820047
 10
93.40377330564212
 20
-158.7868624820047
 10
93.37827959905126
 20
-158.7847954247135
 10
93.15848250709233
 20
-158.7761826860004
 10
93.10749509391063
 20
-158.7741156287092
 10
92.88769800195169
 20
-158.7699815141269
 10
92.84325627019198
 20
-158.7699815141269
 10
92.84325627019198
 20
-158.7699815141269
 10
92.62724878326681
 20
-158.7699815141269
 10
92.62724878326681
 20
-158.7699815141269
 10
92.62724878326681
 20
-158.7699815141269
 10
92.62724878326681
 20
-158.8884927988195
 10
92.62724878326681
 20
-158.8884927988195
 10
92.62724878326681
 20
-158.8884927988195
 10
92.8008815957234
 20
-158.8884927988195
 10
92.8008815957234
 20
-158.8884927988195
 10
92.96383461217571
 20
-158.8884927988195
 10
93.15400388296151
 20
-158.8884927988195
 10
93.31075572754036
 20
-158.8778130028153
 10
93.31075572754036
 20
-158.8778130028153
 10
93.31075572754036
 20
-159.0493787579807
 10
93.31075572754036
 20
-159.0493787579807
 10
93.10129392203718
 20
-159.0407660192676
 10
92.90457896982941
 20
-159.0386989619764
 10
92.8008815957234
 20
-159.0386989619764
 10
92.8008815957234
 20
-159.0386989619764
 10
92.62724878326681
 20
-159.0386989619764
 10
92.62724878326681
 20
-159.0386989619764
 10
92.62724878326681
 20
-159.0386989619764
 10
92.62724878326681
 20
-159.1465304506647
 10
92.62724878326681
 20
-159.1465304506647
 10
92.62724878326681
 20
-159.1465304506647
 10
92.85807018077854
 20
-159.1465304506647
 10
92.85807018077854
 20
-159.1465304506647
 10
92.99105086650918
 20
-159.1465304506647
 10
93.27906084907608
 20
-159.1423963360824
 10
93.48817814503075
 20
-159.1358506546605
 10
93.48817814503075
 20
-159.1358506546605
 10
93.48817814503075
 20
-159.3136175816994
 10
93.48817814503075
 20
-159.3136175816994
 10
93.2959418169538
 20
-159.3074164098259
 10
92.98278263734458
 20
-159.3029377856951
 10
92.85807018077854
 20
-159.3029377856951
 97
        0
 97
        1
330
DE
 75
     2
 76
     1
 98
        1
 10
0.0
 20
0.0
450
        0
451
        0
460
0.0
461
0.0
452
        0
462
0.0
453
        0
470

  0
SPLINE
  5
E0
330
D3
100
AcDbEntity
  8
レイヤー 1
100
AcDbSpline
210
0.0
220
0.0
230
1.0
 70
     9
 71
     3
 72
    29
 73
    25
 74
     0
 42
0.0000000001
 43
0.0000000001
 40
0.0
 40
0.0
 40
0.0
 40
0.0
 40
1.0
 40
1.0
 40
1.0
 40
2.0
 40
2.0
 40
2.0
 40
3.0
 40
3.0
 40
3.0
 40
4.0
 40
4.0
 40
4.0
 40
5.0
 40
5.0
 40
5.0
 40
6.0
 40
6.0
 40
6.0
 40
7.0
 40
7.0
 40
7.0
 40
8.0
 40
8.0
 40
8.0
 40
8.0
 10
94.73323565340002
 20
-158.7510334889581
 30
0.0
 10
94.73323565340002
 20
-158.7510334889581
 30
0.0
 10
94.3797688566134
 20
-158.7510334889581
 30
0.0
 10
94.3797688566134
 20
-158.7510334889581
 30
0.0
 10
94.26780325334277
 20
-158.7510334889581
 30
0.0
 10
94.12827688619016
 20
-158.7572346608315
 30
0.0
 10
94.02044539750184
 20
-158.7699815141269
 30
0.0
 10
94.02044539750184
 20
-158.7699815141269
 30
0.0
 10
94.02044539750184
 20
-158.5350260020329
 30
0.0
 10
94.02044539750184
 20
-158.5350260020329
 30
0.0
 10
94.13861217264591
 20
-158.5498399126195
 30
0.0
 10
94.32292478110678
 20
-158.5543185367503
 30
0.0
 10
94.3797688566134
 20
-158.5543185367503
 30
0.0
 10
94.3797688566134
 20
-158.5543185367503
 30
0.0
 10
94.73323565340002
 20
-158.5543185367503
 30
0.0
 10
94.73323565340002
 20
-158.5543185367503
 30
0.0
 10
94.75218367856889
 20
-158.5543185367503
 30
0.0
 10
94.95544431219864
 20
-158.5543185367503
 30
0.0
 10
95.0970377366424
 20
-158.5350260020329
 30
0.0
 10
95.0970377366424
 20
-158.5350260020329
 30
0.0
 10
95.0970377366424
 20
-158.7699815141269
 30
0.0
 10
95.0970377366424
 20
-158.7699815141269
 30
0.0
 10
94.94063040161206
 20
-158.7510334889581
 30
0.0
 10
94.75011662127775
 20
-158.7510334889581
 30
0.0
 10
94.73323565340002
 20
-158.7510334889581
 30
0.0
  0
SPLINE
  5
E1
330
D3
100
AcDbEntity
  8
レイヤー 1
100
AcDbSpline
210
0.0
220
0.0
230
1.0
 70
     9
 71
     3
 72
    47
 73
    43
 74
     0
 42
0.0000000001
 43
0.0000000001
 40
0.0
 40
0.0
 40
0.0
 40
0.0
 40
1.0
 40
1.0
 40
1.0
 40
2.0
 40
2.0
 40
2.0
 40
3.0
 40
3.0
 40
3.0
 40
4.0
 40
4.0
 40
4.0
 40
5.0
 40
5.0
 40
5.0
 40
6.0
 40
6.0
 40
6.0
 40
7.0
 40
7.0
 40
7.0
 40
8.0
 40
8.0
 40
8.0
 40
9.0
 40
9.0
 40
9.0
 40
10.0
 40
10.0
 40
10.0
 40
11.0
 40
11.0
 40
11.0
 40
12.0
 40
12.0
 40
12.0
 40
13.0
 40
13.0
 40
13.0
 40
14.0
 40
14.0
 40
14.0
 40
14.0
 10
94.83486597021489
 20
-159.2798556459439
 30
0.0
 10
94.83486597021489
 20
-159.2798556459439
 30
0.0
 10
94.73323565340002
 20
-159.2798556459439
 30
0.0
 10
94.73323565340002
 20
-159.2798556459439
 30
0.0
 10
94.73323565340002
 20
-159.3666720521722
 30
0.0
 10
94.71222057094001
 20
-159.7559678420054
 30
0.0
 10
94.51550561873224
 20
-159.9757649339644
 30
0.0
 10
94.36288788873566
 20
-160.1449191222901
 30
0.0
 10
94.15583765007216
 20
-160.2148545606407
 30
0.0
 10
94.071088301135
 20
-160.2424153245227
 30
0.0
 10
94.071088301135
 20
-160.2424153245227
 30
0.0
 10
93.87644040621839
 20
-160.0753281934881
 30
0.0
 10
93.87644040621839
 20
-160.0753281934881
 30
0.0
 10
93.97393660845096
 20
-160.0625813401927
 30
0.0
 10
94.14929196865017
 20
-160.0391546908929
 30
0.0
 10
94.33773869169334
 20
-159.8510524773983
 30
0.0
 10
94.41180824462621
 20
-159.7790499817566
 30
0.0
 10
94.51550561873224
 20
-159.639523614604
 30
0.0
 10
94.51550561873224
 20
-159.2798556459439
 30
0.0
 10
94.51550561873224
 20
-159.2798556459439
 30
0.0
 10
94.28468422122049
 20
-159.2798556459439
 30
0.0
 10
94.28468422122049
 20
-159.2798556459439
 30
0.0
 10
94.09864906501701
 20
-159.2798556459439
 30
0.0
 10
93.91226939926498
 20
-159.2839897605262
 30
0.0
 10
93.7262342430615
 20
-159.2988036711128
 30
0.0
 10
93.7262342430615
 20
-159.2988036711128
 30
0.0
 10
93.7262342430615
 20
-159.0790065791538
 30
0.0
 10
93.7262342430615
 20
-159.0790065791538
 30
0.0
 10
93.91468096610466
 20
-159.0938204897404
 30
0.0
 10
94.20027938183187
 20
-159.0979546043227
 30
0.0
 10
94.28468422122049
 20
-159.0979546043227
 30
0.0
 10
94.28468422122049
 20
-159.0979546043227
 30
0.0
 10
94.83486597021489
 20
-159.0979546043227
 30
0.0
 10
94.83486597021489
 20
-159.0979546043227
 30
0.0
 10
94.85381399538377
 20
-159.0979546043227
 30
0.0
 10
95.17110728957529
 20
-159.0979546043227
 30
0.0
 10
95.39951712024736
 20
-159.0790065791538
 30
0.0
 10
95.39951712024736
 20
-159.0790065791538
 30
0.0
 10
95.39951712024736
 20
-159.2988036711128
 30
0.0
 10
95.39951712024736
 20
-159.2988036711128
 30
0.0
 10
95.21141490675271
 20
-159.2839897605262
 30
0.0
 10
95.02296818370954
 20
-159.2798556459439
 30
0.0
 10
94.83486597021489
 20
-159.2798556459439
 30
0.0
  0
HATCH
  5
E2
330
D3
100
AcDbEntity
  8
レイヤー 1
 62
   250
420
  2299925
440
 33554687
100
AcDbHatch
 10
0.0
 20
0.0
 30
0.0
210
0.0
220
0.0
230
1.0
  2
SOLID
 70
     1
 71
     1
 91
        2
 92
        1
 93
        1
 72
     4
 94
        3
 73
     0
 74
     0
 95
       29
 96
       25
 40
0.0
 40
0.0
 40
0.0
 40
0.0
 40
1.0
 40
1.0
 40
1.0
 40
2.0
 40
2.0
 40
2.0
 40
3.0
 40
3.0
 40
3.0
 40
4.0
 40
4.0
 40
4.0
 40
5.0
 40
5.0
 40
5.0
 40
6.0
 40
6.0
 40
6.0
 40
7.0
 40
7.0
 40
7.0
 40
8.0
 40
8.0
 40
8.0
 40
8.0
 10
94.73323565340002
 20
-158.7510334889581
 10
94.73323565340002
 20
-158.7510334889581
 10
94.3797688566134
 20
-158.7510334889581
 10
94.3797688566134
 20
-158.7510334889581
 10
94.26780325334277
 20
-158.7510334889581
 10
94.12827688619016
 20
-158.7572346608315
 10
94.02044539750184
 20
-158.7699815141269
 10
94.02044539750184
 20
-158.7699815141269
 10
94.02044539750184
 20
-158.5350260020329
 10
94.02044539750184
 20
-158.5350260020329
 10
94.13861217264591
 20
-158.5498399126195
 10
94.32292478110678
 20
-158.5543185367503
 10
94.3797688566134
 20
-158.5543185367503
 10
94.3797688566134
 20
-158.5543185367503
 10
94.73323565340002
 20
-158.5543185367503
 10
94.73323565340002
 20
-158.5543185367503
 10
94.75218367856889
 20
-158.5543185367503
 10
94.95544431219864
 20
-158.5543185367503
 10
95.0970377366424
 20
-158.5350260020329
 10
95.0970377366424
 20
-158.5350260020329
 10
95.0970377366424
 20
-158.7699815141269
 10
95.0970377366424
 20
-158.7699815141269
 10
94.94063040161206
 20
-158.7510334889581
 10
94.75011662127775
 20
-158.7510334889581
 10
94.73323565340002
 20
-158.7510334889581
 97
        0
 97
        1
330
E0
 92
        1
 93
        1
 72
     4
 94
        3
 73
     0
 74
     0
 95
       47
 96
       43
 40
0.0
 40
0.0
 40
0.0
 40
0.0
 40
1.0
 40
1.0
 40
1.0
 40
2.0
 40
2.0
 40
2.0
 40
3.0
 40
3.0
 40
3.0
 40
4.0
 40
4.0
 40
4.0
 40
5.0
 40
5.0
 40
5.0
 40
6.0
 40
6.0
 40
6.0
 40
7.0
 40
7.0
 40
7.0
 40
8.0
 40
8.0
 40
8.0
 40
9.0
 40
9.0
 40
9.0
 40
10.0
 40
10.0
 40
10.0
 40
11.0
 40
11.0
 40
11.0
 40
12.0
 40
12.0
 40
12.0
 40
13.0
 40
13.0
 40
13.0
 40
14.0
 40
14.0
 40
14.0
 40
14.0
 10
94.83486597021489
 20
-159.2798556459439
 10
94.83486597021489
 20
-159.2798556459439
 10
94.73323565340002
 20
-159.2798556459439
 10
94.73323565340002
 20
-159.2798556459439
 10
94.73323565340002
 20
-159.3666720521722
 10
94.71222057094001
 20
-159.7559678420054
 10
94.51550561873224
 20
-159.9757649339644
 10
94.36288788873566
 20
-160.1449191222901
 10
94.15583765007216
 20
-160.2148545606407
 10
94.071088301135
 20
-160.2424153245227
 10
94.071088301135
 20
-160.2424153245227
 10
93.87644040621839
 20
-160.0753281934881
 10
93.87644040621839
 20
-160.0753281934881
 10
93.97393660845096
 20
-160.0625813401927
 10
94.14929196865017
 20
-160.0391546908929
 10
94.33773869169334
 20
-159.8510524773983
 10
94.41180824462621
 20
-159.7790499817566
 10
94.51550561873224
 20
-159.639523614604
 10
94.51550561873224
 20
-159.2798556459439
 10
94.51550561873224
 20
-159.2798556459439
 10
94.28468422122049
 20
-159.2798556459439
 10
94.28468422122049
 20
-159.2798556459439
 10
94.09864906501701
 20
-159.2798556459439
 10
93.91226939926498
 20
-159.2839897605262
 10
93.7262342430615
 20
-159.2988036711128
 10
93.7262342430615
 20
-159.2988036711128
 10
93.7262342430615
 20
-159.0790065791538
 10
93.7262342430615
 20
-159.0790065791538
 10
93.91468096610466
 20
-159.0938204897404
 10
94.20027938183187
 20
-159.0979546043227
 10
94.28468422122049
 20
-159.0979546043227
 10
94.28468422122049
 20
-159.0979546043227
 10
94.83486597021489
 20
-159.0979546043227
 10
94.83486597021489
 20
-159.0979546043227
 10
94.85381399538377
 20
-159.0979546043227
 10
95.17110728957529
 20
-159.0979546043227
 10
95.39951712024736
 20
-159.0790065791538
 10
95.39951712024736
 20
-159.0790065791538
 10
95.39951712024736
 20
-159.2988036711128
 10
95.39951712024736
 20
-159.2988036711128
 10
95.21141490675271
 20
-159.2839897605262
 10
95.02296818370954
 20
-159.2798556459439
 10
94.83486597021489
 20
-159.2798556459439
 97
        0
 97
        1
330
E1
 75
     2
 76
     1
 98
        1
 10
0.0
 20
0.0
450
        0
451
        0
460
0.0
461
0.0
452
        0
462
0.0
453
        0
470

  0
SPLINE
  5
E3
330
D3
100
AcDbEntity
  8
レイヤー 1
100
AcDbSpline
210
0.0
220
0.0
230
1.0
 70
     9
 71
     3
 72
    29
 73
    25
 74
     0
 42
0.0000000001
 43
0.0000000001
 40
0.0
 40
0.0
 40
0.0
 40
0.0
 40
1.0
 40
1.0
 40
1.0
 40
2.0
 40
2.0
 40
2.0
 40
3.0
 40
3.0
 40
3.0
 40
4.0
 40
4.0
 40
4.0
 40
5.0
 40
5.0
 40
5.0
 40
6.0
 40
6.0
 40
6.0
 40
7.0
 40
7.0
 40
7.0
 40
8.0
 40
8.0
 40
8.0
 40
8.0
 10
96.68074813121176
 20
-159.4428086623962
 30
0.0
 10
96.68074813121176
 20
-159.4428086623962
 30
0.0
 10
96.19636770598564
 20
-159.4428086623962
 30
0.0
 10
96.19636770598564
 20
-159.4428086623962
 30
0.0
 10
96.16880694210363
 20
-159.4428086623962
 30
0.0
 10
95.85151364791213
 20
-159.4428086623962
 30
0.0
 10
95.63998478511779
 20
-159.4679578594385
 30
0.0
 10
95.63998478511779
 20
-159.4679578594385
 30
0.0
 10
95.63998478511779
 20
-159.2374809714753
 30
0.0
 10
95.63998478511779
 20
-159.2374809714753
 30
0.0
 10
95.79845917743929
 20
-159.260907620775
 30
0.0
 10
95.9889729577736
 20
-159.2629746780662
 30
0.0
 10
96.19636770598564
 20
-159.2629746780662
 30
0.0
 10
96.19636770598564
 20
-159.2629746780662
 30
0.0
 10
96.68074813121176
 20
-159.2629746780662
 30
0.0
 10
96.68074813121176
 20
-159.2629746780662
 30
0.0
 10
96.86678328741527
 20
-159.2629746780662
 30
0.0
 10
97.05316295316727
 20
-159.260907620775
 30
0.0
 10
97.23713105207961
 20
-159.2374809714753
 30
0.0
 10
97.23713105207961
 20
-159.2374809714753
 30
0.0
 10
97.23713105207961
 20
-159.4679578594385
 30
0.0
 10
97.23713105207961
 20
-159.4679578594385
 30
0.0
 10
97.05316295316727
 20
-159.4448757196874
 30
0.0
 10
96.8054605877778
 20
-159.4428086623962
 30
0.0
 10
96.68074813121176
 20
-159.4428086623962
 30
0.0
  0
HATCH
  5
E4
330
D3
100
AcDbEntity
  8
レイヤー 1
 62
   250
420
  2299925
440
 33554687
100
AcDbHatch
 10
0.0
 20
0.0
 30
0.0
210
0.0
220
0.0
230
1.0
  2
SOLID
 70
     1
 71
     1
 91
        1
 92
        1
 93
        1
 72
     4
 94
        3
 73
     0
 74
     0
 95
       29
 96
       25
 40
0.0
 40
0.0
 40
0.0
 40
0.0
 40
1.0
 40
1.0
 40
1.0
 40
2.0
 40
2.0
 40
2.0
 40
3.0
 40
3.0
 40
3.0
 40
4.0
 40
4.0
 40
4.0
 40
5.0
 40
5.0
 40
5.0
 40
6.0
 40
6.0
 40
6.0
 40
7.0
 40
7.0
 40
7.0
 40
8.0
 40
8.0
 40
8.0
 40
8.0
 10
96.68074813121176
 20
-159.4428086623962
 10
96.68074813121176
 20
-159.4428086623962
 10
96.19636770598564
 20
-159.4428086623962
 10
96.19636770598564
 20
-159.4428086623962
 10
96.16880694210363
 20
-159.4428086623962
 10
95.85151364791213
 20
-159.4428086623962
 10
95.63998478511779
 20
-159.4679578594385
 10
95.63998478511779
 20
-159.4679578594385
 10
95.63998478511779
 20
-159.2374809714753
 10
95.63998478511779
 20
-159.2374809714753
 10
95.79845917743929
 20
-159.260907620775
 10
95.9889729577736
 20
-159.2629746780662
 10
96.19636770598564
 20
-159.2629746780662
 10
96.19636770598564
 20
-159.2629746780662
 10
96.68074813121176
 20
-159.2629746780662
 10
96.68074813121176
 20
-159.2629746780662
 10
96.86678328741527
 20
-159.2629746780662
 10
97.05316295316727
 20
-159.260907620775
 10
97.23713105207961
 20
-159.2374809714753
 10
97.23713105207961
 20
-159.2374809714753
 10
97.23713105207961
 20
-159.4679578594385
 10
97.23713105207961
 20
-159.4679578594385
 10
97.05316295316727
 20
-159.4448757196874
 10
96.8054605877778
 20
-159.4428086623962
 10
96.68074813121176
 20
-159.4428086623962
 97
        0
 97
        1
330
E3
 75
     2
 76
     1
 98
        1
 10
0.0
 20
0.0
450
        0
451
        0
460
0.0
461
0.0
452
        0
462
0.0
453
        0
470

  0
SPLINE
  5
E5
330
D3
100
AcDbEntity
  8
レイヤー 1
100
AcDbSpline
210
0.0
220
0.0
230
1.0
 70
     9
 71
     3
 72
    17
 73
    13
 74
     0
 42
0.0000000001
 43
0.0000000001
 40
0.0
 40
0.0
 40
0.0
 40
0.0
 40
1.0
 40
1.0
 40
1.0
 40
2.0
 40
2.0
 40
2.0
 40
3.0
 40
3.0
 40
3.0
 40
4.0
 40
4.0
 40
4.0
 40
4.0
 10
99.09954967140567
 20
-158.4757703596866
 30
0.0
 10
99.0447726531902
 20
-158.4757703596866
 30
0.0
 10
99.00033092143047
 20
-158.5202120914463
 30
0.0
 10
99.00033092143047
 20
-158.5753336192103
 30
0.0
 10
99.00033092143047
 20
-158.6325222042655
 30
0.0
 10
99.0447726531902
 20
-158.6810980506075
 30
0.0
 10
99.10368378598796
 20
-158.6810980506075
 30
0.0
 10
99.16293942833426
 20
-158.6810980506075
 30
0.0
 10
99.2032470455117
 20
-158.6304551469743
 30
0.0
 10
99.2032470455117
 20
-158.5774006765015
 30
0.0
 10
99.2032470455117
 20
-158.5202120914463
 30
0.0
 10
99.15673825646083
 20
-158.4757703596866
 30
0.0
 10
99.09954967140567
 20
-158.4757703596866
 30
0.0
  0
SPLINE
  5
E6
330
D3
100
AcDbEntity
  8
レイヤー 1
100
AcDbSpline
210
0.0
220
0.0
230
1.0
 70
     9
 71
     3
 72
    17
 73
    13
 74
     0
 42
0.0000000001
 43
0.0000000001
 40
0.0
 40
0.0
 40
0.0
 40
0.0
 40
1.0
 40
1.0
 40
1.0
 40
2.0
 40
2.0
 40
2.0
 40
3.0
 40
3.0
 40
3.0
 40
4.0
 40
4.0
 40
4.0
 40
4.0
 10
99.10161672869683
 20
-158.8058105071735
 30
0.0
 10
98.97483721483963
 20
-158.8058105071735
 30
0.0
 10
98.87320689802477
 20
-158.7045246999072
 30
0.0
 10
98.87320689802477
 20
-158.5774006765015
 30
0.0
 10
98.87320689802477
 20
-158.4506211626443
 30
0.0
 10
98.97483721483963
 20
-158.3469237885382
 30
0.0
 10
99.10161672869683
 20
-158.3469237885382
 30
0.0
 10
99.22874075210254
 20
-158.3469237885382
 30
0.0
 10
99.33243812620856
 20
-158.4506211626443
 30
0.0
 10
99.33243812620856
 20
-158.5774006765015
 30
0.0
 10
99.33243812620856
 20
-158.7045246999072
 30
0.0
 10
99.22874075210254
 20
-158.8058105071735
 30
0.0
 10
99.10161672869683
 20
-158.8058105071735
 30
0.0
  0
SPLINE
  5
E7
330
D3
100
AcDbEntity
  8
レイヤー 1
100
AcDbSpline
210
0.0
220
0.0
230
1.0
 70
     9
 71
     3
 72
    44
 73
    40
 74
     0
 42
0.0000000001
 43
0.0000000001
 40
0.0
 40
0.0
 40
0.0
 40
0.0
 40
1.0
 40
1.0
 40
1.0
 40
2.0
 40
2.0
 40
2.0
 40
3.0
 40
3.0
 40
3.0
 40
4.0
 40
4.0
 40
4.0
 40
5.0
 40
5.0
 40
5.0
 40
6.0
 40
6.0
 40
6.0
 40
7.0
 40
7.0
 40
7.0
 40
8.0
 40
8.0
 40
8.0
 40
9.0
 40
9.0
 40
9.0
 40
10.0
 40
10.0
 40
10.0
 40
11.0
 40
11.0
 40
11.0
 40
12.0
 40
12.0
 40
12.0
 40
13.0
 40
13.0
 40
13.0
 40
13.0
 10
98.89215492319364
 20
-159.004937026221
 30
0.0
 10
98.78018931992301
 20
-159.3728732240457
 30
0.0
 10
98.72954641628984
 20
-159.5316921259157
 30
0.0
 10
98.53283146408209
 20
-159.7811170390477
 30
0.0
 10
98.34851885562121
 20
-160.0119384365595
 30
0.0
 10
98.11184079578454
 20
-160.197973592763
 30
0.0
 10
97.83244355193078
 20
-160.2909911708648
 30
0.0
 10
97.83244355193078
 20
-160.2909911708648
 30
0.0
 10
97.63986271430532
 20
-160.1111571865347
 30
0.0
 10
97.63986271430532
 20
-160.1111571865347
 30
0.0
 10
98.28099498411031
 20
-159.9588839660867
 30
0.0
 10
98.61103513159726
 20
-159.4025010452188
 30
0.0
 10
98.67442488852585
 20
-158.9625623517524
 30
0.0
 10
98.67442488852585
 20
-158.9625623517524
 30
0.0
 10
97.9085801621548
 20
-158.9625623517524
 30
0.0
 10
97.9085801621548
 20
-158.9625623517524
 30
0.0
 10
97.81556258405306
 20
-158.9625623517524
 30
0.0
 10
97.63159448514073
 20
-158.9666964663347
 30
0.0
 10
97.47484264056184
 20
-158.9856444915036
 30
0.0
 10
97.47484264056184
 20
-158.9856444915036
 30
0.0
 10
97.47484264056184
 20
-158.7658473995446
 30
0.0
 10
97.47484264056184
 20
-158.7658473995446
 30
0.0
 10
97.56165904679015
 20
-158.7868624820047
 30
0.0
 10
97.81349552676191
 20
-158.7868624820047
 30
0.0
 10
97.91271427673711
 20
-158.7868624820047
 30
0.0
 10
97.91271427673711
 20
-158.7868624820047
 30
0.0
 10
98.3443847410389
 20
-158.7868624820047
 30
0.0
 10
98.3443847410389
 20
-158.7868624820047
 30
0.0
 10
98.38675941550748
 20
-158.7868624820047
 30
0.0
 10
98.62137041805299
 20
-158.7847954247135
 30
0.0
 10
98.65961097793928
 20
-158.7785942528401
 30
0.0
 10
98.70198565240784
 20
-158.7720485714181
 30
0.0
 10
98.70405270969898
 20
-158.7699815141269
 30
0.0
 10
98.76537540933645
 20
-158.7296738969495
 30
0.0
 10
98.76537540933645
 20
-158.7296738969495
 30
0.0
 10
98.95347762283108
 20
-158.8843586842372
 30
0.0
 10
98.95347762283108
 20
-158.8843586842372
 30
0.0
 10
98.92419431120645
 20
-158.9139865054104
 30
0.0
 10
98.90938040061989
 20
-158.9456813838747
 30
0.0
 10
98.89215492319364
 20
-159.004937026221
 30
0.0
  0
HATCH
  5
E8
330
D3
100
AcDbEntity
  8
レイヤー 1
 62
   250
420
  2299925
440
 33554687
100
AcDbHatch
 10
0.0
 20
0.0
 30
0.0
210
0.0
220
0.0
230
1.0
  2
SOLID
 70
     1
 71
     1
 91
        3
 92
        1
 93
        1
 72
     4
 94
        3
 73
     0
 74
     0
 95
       17
 96
       13
 40
0.0
 40
0.0
 40
0.0
 40
0.0
 40
1.0
 40
1.0
 40
1.0
 40
2.0
 40
2.0
 40
2.0
 40
3.0
 40
3.0
 40
3.0
 40
4.0
 40
4.0
 40
4.0
 40
4.0
 10
99.09954967140567
 20
-158.4757703596866
 10
99.0447726531902
 20
-158.4757703596866
 10
99.00033092143047
 20
-158.5202120914463
 10
99.00033092143047
 20
-158.5753336192103
 10
99.00033092143047
 20
-158.6325222042655
 10
99.0447726531902
 20
-158.6810980506075
 10
99.10368378598796
 20
-158.6810980506075
 10
99.16293942833426
 20
-158.6810980506075
 10
99.2032470455117
 20
-158.6304551469743
 10
99.2032470455117
 20
-158.5774006765015
 10
99.2032470455117
 20
-158.5202120914463
 10
99.15673825646083
 20
-158.4757703596866
 10
99.09954967140567
 20
-158.4757703596866
 97
        0
 97
        1
330
E5
 92
        1
 93
        1
 72
     4
 94
        3
 73
     0
 74
     0
 95
       17
 96
       13
 40
0.0
 40
0.0
 40
0.0
 40
0.0
 40
1.0
 40
1.0
 40
1.0
 40
2.0
 40
2.0
 40
2.0
 40
3.0
 40
3.0
 40
3.0
 40
4.0
 40
4.0
 40
4.0
 40
4.0
 10
99.10161672869683
 20
-158.8058105071735
 10
98.97483721483963
 20
-158.8058105071735
 10
98.87320689802477
 20
-158.7045246999072
 10
98.87320689802477
 20
-158.5774006765015
 10
98.87320689802477
 20
-158.4506211626443
 10
98.97483721483963
 20
-158.3469237885382
 10
99.10161672869683
 20
-158.3469237885382
 10
99.22874075210254
 20
-158.3469237885382
 10
99.33243812620856
 20
-158.4506211626443
 10
99.33243812620856
 20
-158.5774006765015
 10
99.33243812620856
 20
-158.7045246999072
 10
99.22874075210254
 20
-158.8058105071735
 10
99.10161672869683
 20
-158.8058105071735
 97
        0
 97
        1
330
E6
 92
        1
 93
        1
 72
     4
 94
        3
 73
     0
 74
     0
 95
       44
 96
       40
 40
0.0
 40
0.0
 40
0.0
 40
0.0
 40
1.0
 40
1.0
 40
1.0
 40
2.0
 40
2.0
 40
2.0
 40
3.0
 40
3.0
 40
3.0
 40
4.0
 40
4.0
 40
4.0
 40
5.0
 40
5.0
 40
5.0
 40
6.0
 40
6.0
 40
6.0
 40
7.0
 40
7.0
 40
7.0
 40
8.0
 40
8.0
 40
8.0
 40
9.0
 40
9.0
 40
9.0
 40
10.0
 40
10.0
 40
10.0
 40
11.0
 40
11.0
 40
11.0
 40
12.0
 40
12.0
 40
12.0
 40
13.0
 40
13.0
 40
13.0
 40
13.0
 10
98.89215492319364
 20
-159.004937026221
 10
98.78018931992301
 20
-159.3728732240457
 10
98.72954641628984
 20
-159.5316921259157
 10
98.53283146408209
 20
-159.7811170390477
 10
98.34851885562121
 20
-160.0119384365595
 10
98.11184079578454
 20
-160.197973592763
 10
97.83244355193078
 20
-160.2909911708648
 10
97.83244355193078
 20
-160.2909911708648
 10
97.63986271430532
 20
-160.1111571865347
 10
97.63986271430532
 20
-160.1111571865347
 10
98.28099498411031
 20
-159.9588839660867
 10
98.61103513159726
 20
-159.4025010452188
 10
98.67442488852585
 20
-158.9625623517524
 10
98.67442488852585
 20
-158.9625623517524
 10
97.9085801621548
 20
-158.9625623517524
 10
97.9085801621548
 20
-158.9625623517524
 10
97.81556258405306
 20
-158.9625623517524
 10
97.63159448514073
 20
-158.9666964663347
 10
97.47484264056184
 20
-158.9856444915036
 10
97.47484264056184
 20
-158.9856444915036
 10
97.47484264056184
 20
-158.7658473995446
 10
97.47484264056184
 20
-158.7658473995446
 10
97.56165904679015
 20
-158.7868624820047
 10
97.81349552676191
 20
-158.7868624820047
 10
97.91271427673711
 20
-158.7868624820047
 10
97.91271427673711
 20
-158.7868624820047
 10
98.3443847410389
 20
-158.7868624820047
 10
98.3443847410389
 20
-158.7868624820047
 10
98.38675941550748
 20
-158.7868624820047
 10
98.62137041805299
 20
-158.7847954247135
 10
98.65961097793928
 20
-158.7785942528401
 10
98.70198565240784
 20
-158.7720485714181
 10
98.70405270969898
 20
-158.7699815141269
 10
98.76537540933645
 20
-158.7296738969495
 10
98.76537540933645
 20
-158.7296738969495
 10
98.95347762283108
 20
-158.8843586842372
 10
98.95347762283108
 20
-158.8843586842372
 10
98.92419431120645
 20
-158.9139865054104
 10
98.90938040061989
 20
-158.9456813838747
 10
98.89215492319364
 20
-159.004937026221
 97
        0
 97
        1
330
E7
 75
     2
 76
     1
 98
        1
 10
0.0
 20
0.0
450
        0
451
        0
460
0.0
461
0.0
452
        0
462
0.0
453
        0
470

  0
ENDBLK
  5
D6
330
D3
100
AcDbEntity
  8
0
100
AcDbBlockEnd
  0
ENDSEC
  0
SECTION
  2
ENTITIES
  0
LWPOLYLINE
  5
79
330
70
100
AcDbEntity
  8
レイヤー 1
 62
    18
420
        0
370
    25
100
AcDbPolyline
 90
       10
 70
     1
 43
0.0
 10
104.6586076591265
 20
-155.0640440349065
 10
104.6586076591265
 20
-153.0641468131843
 10
103.8586487704379
 20
-153.0641468131843
 10
103.8586487704379
 20
-154.2640898325453
 10
101.4588073821489
 20
-154.2640898325453
 10
101.4588073821489
 20
-146.5637978067739
 10
115.6586421008209
 20
-146.5637978067739
 10
115.6586421008209
 20
-145.7638389382936
 10
100.6584957156825
 20
-145.7638389382936
 10
100.6584957156825
 20
-155.0640440349065
  0
HATCH
  5
7A
330
70
100
AcDbEntity
  8
レイヤー 1
 62
    18
420
        0
440
 33554687
100
AcDbHatch
 10
0.0
 20
0.0
 30
0.0
210
0.0
220
0.0
230
1.0
  2
SOLID
 70
     1
 71
     1
 91
        1
 92
        1
 93
       10
 72
     1
 10
104.6586076591265
 20
-155.0640440349065
 11
104.6586076591265
 21
-153.0641468131843
 72
     1
 10
104.6586076591265
 20
-153.0641468131843
 11
103.8586487704379
 21
-153.0641468131843
 72
     1
 10
103.8586487704379
 20
-153.0641468131843
 11
103.8586487704379
 21
-154.2640898325453
 72
     1
 10
103.8586487704379
 20
-154.2640898325453
 11
101.4588073821489
 21
-154.2640898325453
 72
     1
 10
101.4588073821489
 20
-154.2640898325453
 11
101.4588073821489
 21
-146.5637978067739
 72
     1
 10
101.4588073821489
 20
-146.5637978067739
 11
115.6586421008209
 21
-146.5637978067739
 72
     1
 10
115.6586421008209
 20
-146.5637978067739
 11
115.6586421008209
 21
-145.7638389382936
 72
     1
 10
115.6586421008209
 20
-145.7638389382936
 11
100.6584957156825
 21
-145.7638389382936
 72
     1
 10
100.6584957156825
 20
-145.7638389382936
 11
100.6584957156825
 21
-155.0640440349065
 72
     1
 10
100.6584957156825
 20
-155.0640440349065
 11
104.6586076591265
 21
-155.0640440349065
 97
        1
330
79
 75
     2
 76
     1
 98
        1
 10
0.0
 20
0.0
450
        0
451
        0
460
0.0
461
0.0
452
        0
462
0.0
453
        0
470

  0
SPLINE
  5
7B
330
70
100
AcDbEntity
  8
レイヤー 1
 62
    18
420
        0
370
     9
100
AcDbSpline
210
0.0
220
0.0
230
1.0
 70
     9
 71
     3
 72
    17
 73
    13
 74
     0
 42
0.0000000001
 43
0.0000000001
 40
0.0
 40
0.0
 40
0.0
 40
0.0
 40
1.0
 40
1.0
 40
1.0
 40
2.0
 40
2.0
 40
2.0
 40
3.0
 40
3.0
 40
3.0
 40
4.0
 40
4.0
 40
4.0
 40
4.0
 10
119.7584481478322
 20
-145.7638389382936
 30
0.0
 10
119.7584481478322
 20
-145.7086997730337
 30
0.0
 10
119.7136806489743
 20
-145.6639273705903
 30
0.0
 10
119.6585414837143
 20
-145.6639273705903
 30
0.0
 10
119.6034384887243
 20
-145.6639273705903
 30
0.0
 10
119.5586357109575
 20
-145.7086997730337
 30
0.0
 10
119.5586357109575
 20
-145.7638389382936
 30
0.0
 10
119.5586357109575
 20
-145.8196483813143
 30
0.0
 10
119.6034384887243
 20
-145.8637456024115
 30
0.0
 10
119.6585414837143
 20
-145.8637456024115
 30
0.0
 10
119.7136806489743
 20
-145.8637456024115
 30
0.0
 10
119.7584481478322
 20
-145.8196483813143
 30
0.0
 10
119.7584481478322
 20
-145.7638389382936
 30
0.0
  0
SPLINE
  5
7C
330
70
100
AcDbEntity
  8
レイヤー 1
 62
    18
420
        0
370
     9
100
AcDbSpline
210
0.0
220
0.0
230
1.0
 70
     9
 71
     3
 72
    17
 73
    13
 74
     0
 42
0.0000000001
 43
0.0000000001
 40
0.0
 40
0.0
 40
0.0
 40
0.0
 40
1.0
 40
1.0
 40
1.0
 40
2.0
 40
2.0
 40
2.0
 40
3.0
 40
3.0
 40
3.0
 40
4.0
 40
4.0
 40
4.0
 40
4.0
 10
119.7584481478322
 20
-146.5637978067739
 30
0.0
 10
119.7584481478322
 20
-146.5086586415139
 30
0.0
 10
119.7136806489743
 20
-146.463891142656
 30
0.0
 10
119.6585414837143
 20
-146.463891142656
 30
0.0
 10
119.6034384887243
 20
-146.463891142656
 30
0.0
 10
119.5586357109575
 20
-146.5086586415139
 30
0.0
 10
119.5586357109575
 20
-146.5637978067739
 30
0.0
 10
119.5586357109575
 20
-146.619602370351
 30
0.0
 10
119.6034384887243
 20
-146.6643747486524
 30
0.0
 10
119.6585414837143
 20
-146.6643747486524
 30
0.0
 10
119.7136806489743
 20
-146.6643747486524
 30
0.0
 10
119.7584481478322
 20
-146.619602370351
 30
0.0
 10
119.7584481478322
 20
-146.5637978067739
 30
0.0
  0
SPLINE
  5
7D
330
70
100
AcDbEntity
  8
レイヤー 1
 62
    18
420
        0
370
     9
100
AcDbSpline
210
0.0
220
0.0
230
1.0
 70
     9
 71
     3
 72
    17
 73
    13
 74
     0
 42
0.0000000001
 43
0.0000000001
 40
0.0
 40
0.0
 40
0.0
 40
0.0
 40
1.0
 40
1.0
 40
1.0
 40
2.0
 40
2.0
 40
2.0
 40
3.0
 40
3.0
 40
3.0
 40
4.0
 40
4.0
 40
4.0
 40
4.0
 10
115.7587251563515
 20
-141.7640798736693
 30
0.0
 10
115.7587251563515
 20
-141.7089357049119
 30
0.0
 10
115.7139223785847
 20
-141.6641732095515
 30
0.0
 10
115.6586421008209
 20
-141.6641732095515
 30
0.0
 10
115.6035029341685
 20
-141.6641732095515
 30
0.0
 10
115.5587354341799
 20
-141.7089357049119
 30
0.0
 10
115.5587354341799
 20
-141.7640798736693
 30
0.0
 10
115.5587354341799
 20
-141.8191837611524
 30
0.0
 10
115.6035029341685
 20
-141.8639865377872
 30
0.0
 10
115.6586421008209
 20
-141.8639865377872
 30
0.0
 10
115.7139223785847
 20
-141.8639865377872
 30
0.0
 10
115.7587251563515
 20
-141.8191837611524
 30
0.0
 10
115.7587251563515
 20
-141.7640798736693
 30
0.0
  0
SPLINE
  5
7E
330
70
100
AcDbEntity
  8
レイヤー 1
 62
    18
420
        0
370
     9
100
AcDbSpline
210
0.0
220
0.0
230
1.0
 70
     9
 71
     3
 72
    17
 73
    13
 74
     0
 42
0.0000000001
 43
0.0000000001
 40
0.0
 40
0.0
 40
0.0
 40
0.0
 40
1.0
 40
1.0
 40
1.0
 40
2.0
 40
2.0
 40
2.0
 40
3.0
 40
3.0
 40
3.0
 40
4.0
 40
4.0
 40
4.0
 40
4.0
 10
104.7588671035459
 20
-159.0638077656499
 30
0.0
 10
104.7588671035459
 20
-159.0086686003899
 30
0.0
 10
104.7140643257798
 20
-158.963901101532
 30
0.0
 10
104.6586076591265
 20
-158.963901101532
 30
0.0
 10
104.6035037702516
 20
-158.963901101532
 30
0.0
 10
104.5587009924849
 20
-159.0086686003899
 30
0.0
 10
104.5587009924849
 20
-159.0638077656499
 30
0.0
 10
104.5587009924849
 20
-159.1189116531329
 30
0.0
 10
104.6035037702516
 20
-159.1637144297677
 30
0.0
 10
104.6586076591265
 20
-159.1637144297677
 30
0.0
 10
104.7140643257798
 20
-159.1637144297677
 30
0.0
 10
104.7588671035459
 20
-159.1189116531329
 30
0.0
 10
104.7588671035459
 20
-159.0638077656499
 30
0.0
  0
SPLINE
  5
7F
330
70
100
AcDbEntity
  8
レイヤー 1
 62
    18
420
        0
370
     9
100
AcDbSpline
210
0.0
220
0.0
230
1.0
 70
     9
 71
     3
 72
    17
 73
    13
 74
     0
 42
0.0000000001
 43
0.0000000001
 40
0.0
 40
0.0
 40
0.0
 40
0.0
 40
1.0
 40
1.0
 40
1.0
 40
2.0
 40
2.0
 40
2.0
 40
3.0
 40
3.0
 40
3.0
 40
4.0
 40
4.0
 40
4.0
 40
4.0
 10
119.7584481478322
 20
-155.0640440349065
 30
0.0
 10
119.7584481478322
 20
-155.008909535765
 30
0.0
 10
119.7136806489743
 20
-154.9641420369077
 30
0.0
 10
119.6585414837143
 20
-154.9641420369077
 30
0.0
 10
119.6034384887243
 20
-154.9641420369077
 30
0.0
 10
119.5586357109575
 20
-155.008909535765
 30
0.0
 10
119.5586357109575
 20
-155.0640440349065
 30
0.0
 10
119.5586357109575
 20
-155.1191525885086
 30
0.0
 10
119.6034384887243
 20
-155.1639553651434
 30
0.0
 10
119.6585414837143
 20
-155.1639553651434
 30
0.0
 10
119.7136806489743
 20
-155.1639553651434
 30
0.0
 10
119.7584481478322
 20
-155.1191525885086
 30
0.0
 10
119.7584481478322
 20
-155.0640440349065
 30
0.0
  0
SPLINE
  5
80
330
70
100
AcDbEntity
  8
レイヤー 1
 62
    18
420
        0
370
     9
100
AcDbSpline
210
0.0
220
0.0
230
1.0
 70
     9
 71
     3
 72
    17
 73
    13
 74
     0
 42
0.0000000001
 43
0.0000000001
 40
0.0
 40
0.0
 40
0.0
 40
0.0
 40
1.0
 40
1.0
 40
1.0
 40
2.0
 40
2.0
 40
2.0
 40
3.0
 40
3.0
 40
3.0
 40
4.0
 40
4.0
 40
4.0
 40
4.0
 10
119.7584481478322
 20
-153.0641468131843
 30
0.0
 10
119.7584481478322
 20
-153.0090476423419
 30
0.0
 10
119.7136806489743
 20
-152.9642448657071
 30
0.0
 10
119.6585414837143
 20
-152.9642448657071
 30
0.0
 10
119.6034384887243
 20
-152.9642448657071
 30
0.0
 10
119.5586357109575
 20
-153.0090476423419
 30
0.0
 10
119.5586357109575
 20
-153.0641468131843
 30
0.0
 10
119.5586357109575
 20
-153.1192906950849
 30
0.0
 10
119.6034384887243
 20
-153.1640581939428
 30
0.0
 10
119.6585414837143
 20
-153.1640581939428
 30
0.0
 10
119.7136806489743
 20
-153.1640581939428
 30
0.0
 10
119.7584481478322
 20
-153.1192906950849
 30
0.0
 10
119.7584481478322
 20
-153.0641468131843
 30
0.0
  0
SPLINE
  5
81
330
70
100
AcDbEntity
  8
レイヤー 1
 62
    18
420
        0
370
     9
100
AcDbSpline
210
0.0
220
0.0
230
1.0
 70
     9
 71
     3
 72
    17
 73
    13
 74
     0
 42
0.0000000001
 43
0.0000000001
 40
0.0
 40
0.0
 40
0.0
 40
0.0
 40
1.0
 40
1.0
 40
1.0
 40
2.0
 40
2.0
 40
2.0
 40
3.0
 40
3.0
 40
3.0
 40
4.0
 40
4.0
 40
4.0
 40
4.0
 10
100.7587551601012
 20
-141.7640798736693
 30
0.0
 10
100.7587551601012
 20
-141.7089357049119
 30
0.0
 10
100.7139876601127
 20
-141.6641732095515
 30
0.0
 10
100.6584957156825
 20
-141.6641732095515
 30
0.0
 10
100.6033918268069
 20
-141.6641732095515
 30
0.0
 10
100.5585890490402
 20
-141.7089357049119
 30
0.0
 10
100.5585890490402
 20
-141.7640798736693
 30
0.0
 10
100.5585890490402
 20
-141.8191837611524
 30
0.0
 10
100.6033918268069
 20
-141.8639865377872
 30
0.0
 10
100.6584957156825
 20
-141.8639865377872
 30
0.0
 10
100.7139876601127
 20
-141.8639865377872
 30
0.0
 10
100.7587551601012
 20
-141.8191837611524
 30
0.0
 10
100.7587551601012
 20
-141.7640798736693
 30
0.0
  0
SPLINE
  5
82
330
70
100
AcDbEntity
  8
レイヤー 1
 62
    18
420
        0
370
     9
100
AcDbSpline
210
0.0
220
0.0
230
1.0
 70
     9
 71
     3
 72
    17
 73
    13
 74
     0
 42
0.0000000001
 43
0.0000000001
 40
0.0
 40
0.0
 40
0.0
 40
0.0
 40
1.0
 40
1.0
 40
1.0
 40
2.0
 40
2.0
 40
2.0
 40
3.0
 40
3.0
 40
3.0
 40
4.0
 40
4.0
 40
4.0
 40
4.0
 10
100.7587551601012
 20
-159.0638077656499
 30
0.0
 10
100.7587551601012
 20
-159.0086686003899
 30
0.0
 10
100.7139876601127
 20
-158.963901101532
 30
0.0
 10
100.6584957156825
 20
-158.963901101532
 30
0.0
 10
100.6033918268069
 20
-158.963901101532
 30
0.0
 10
100.5585890490402
 20
-159.0086686003899
 30
0.0
 10
100.5585890490402
 20
-159.0638077656499
 30
0.0
 10
100.5585890490402
 20
-159.1189116531329
 30
0.0
 10
100.6033918268069
 20
-159.1637144297677
 30
0.0
 10
100.6584957156825
 20
-159.1637144297677
 30
0.0
 10
100.7139876601127
 20
-159.1637144297677
 30
0.0
 10
100.7587551601012
 20
-159.1189116531329
 30
0.0
 10
100.7587551601012
 20
-159.0638077656499
 30
0.0
  0
LINE
  5
83
330
70
100
AcDbEntity
  8
レイヤー 1
 62
    18
420
        0
370
     9
100
AcDbLine
 10
119.6585414837143
 20
-145.7638389382936
 30
0.0
 11
119.6585414837143
 21
-140.5059332391007
 31
0.0
  0
LINE
  5
84
330
70
100
AcDbEntity
  8
レイヤー 1
 62
    18
420
        0
370
     9
100
AcDbLine
 10
119.6585414837143
 20
-145.7638389382936
 30
0.0
 11
119.6585414837143
 21
-146.5637978067739
 31
0.0
  0
LINE
  5
85
330
70
100
AcDbEntity
  8
レイヤー 1
 62
    18
420
        0
370
     9
100
AcDbLine
 10
118.198536266853
 20
-145.7638389382936
 30
0.0
 11
120.6590192359678
 21
-145.7638389382936
 31
0.0
  0
LINE
  5
86
330
70
100
AcDbEntity
  8
レイヤー 1
 62
    18
420
        0
370
     9
100
AcDbLine
 10
118.198536266853
 20
-146.5637978067739
 30
0.0
 11
120.6590192359678
 21
-146.5637978067739
 31
0.0
  0
LINE
  5
87
330
70
100
AcDbEntity
  8
レイヤー 1
 62
    18
420
        0
370
     9
100
AcDbLine
 10
119.6585414837143
 20
-152.0640618331171
 30
0.0
 11
119.6585414837143
 21
-155.0640440349065
 31
0.0
  0
LINE
  5
88
330
70
100
AcDbEntity
  8
レイヤー 1
 62
    18
420
        0
370
     9
100
AcDbLine
 10
107.1986782140471
 20
-155.0640440349065
 30
0.0
 11
120.6590192359678
 21
-155.0640440349065
 31
0.0
  0
LINE
  5
89
330
70
100
AcDbEntity
  8
レイヤー 1
 62
    18
420
        0
370
     9
100
AcDbLine
 10
100.6584957156825
 20
-159.0638077656499
 30
0.0
 11
104.6586076591265
 21
-159.0638077656499
 31
0.0
  0
LINE
  5
8A
330
70
100
AcDbEntity
  8
レイヤー 1
 62
    18
420
        0
370
     9
100
AcDbLine
 10
100.6584957156825
 20
-157.6037664140097
 30
0.0
 11
100.6584957156825
 21
-160.0635446845889
 31
0.0
  0
LINE
  5
8B
330
70
100
AcDbEntity
  8
レイヤー 1
 62
    18
420
        0
370
     9
100
AcDbLine
 10
104.6586076591265
 20
-157.6037664140097
 30
0.0
 11
104.6586076591265
 21
-160.0635446845889
 31
0.0
  0
LINE
  5
8C
330
70
100
AcDbEntity
  8
レイヤー 1
 62
    18
420
        0
370
     9
100
AcDbLine
 10
100.6584957156825
 20
-141.7640798736693
 30
0.0
 11
115.6586421008209
 21
-141.7640798736693
 31
0.0
  0
LINE
  5
8D
330
70
100
AcDbEntity
  8
レイヤー 1
 62
    18
420
        0
370
     9
100
AcDbLine
 10
100.6584957156825
 20
-143.2241162600887
 30
0.0
 11
100.6584957156825
 21
-140.7636021214159
 31
0.0
  0
LINE
  5
8E
330
70
100
AcDbEntity
  8
レイヤー 1
 62
    18
420
        0
370
     9
100
AcDbLine
 10
115.6586421008209
 20
-143.2241162600887
 30
0.0
 11
115.6586421008209
 21
-140.7636021214159
 31
0.0
  0
LINE
  5
8F
330
70
100
AcDbEntity
  8
レイヤー 1
 62
    18
420
        0
370
     9
100
AcDbLine
 10
119.6585414837143
 20
-152.0640618331171
 30
0.0
 11
119.6585414837143
 21
-146.5637978067739
 31
0.0
  0
LINE
  5
90
330
70
100
AcDbEntity
  8
レイヤー 1
 62
    18
420
        0
370
     9
100
AcDbLine
 10
107.1986782140471
 20
-153.0641468131843
 30
0.0
 11
120.6590192359678
 21
-153.0641468131843
 31
0.0
  0
INSERT
  5
92
330
70
100
AcDbEntity
  8
レイヤー 1
100
AcDbBlockReference
  2
Block_0
 10
0.0
 20
0.0
 30
0.0
  0
INSERT
  5
A3
330
70
100
AcDbEntity
  8
レイヤー 1
100
AcDbBlockReference
  2
Block_2
 10
0.0
 20
0.0
 30
0.0
  0
INSERT
  5
A9
330
70
100
AcDbEntity
  8
レイヤー 1
100
AcDbBlockReference
  2
Block_3
 10
0.0
 20
0.0
 30
0.0
  0
INSERT
  5
B0
330
70
100
AcDbEntity
  8
レイヤー 1
100
AcDbBlockReference
  2
Block_4
 10
0.0
 20
0.0
 30
0.0
  0
INSERT
  5
BC
330
70
100
AcDbEntity
  8
レイヤー 1
100
AcDbBlockReference
  2
Block_6
 10
0.0
 20
0.0
 30
0.0
  0
LINE
  5
CA
330
70
100
AcDbEntity
  8
レイヤー 1
  6
AI-Linetype-0
 62
   154
420
    23468
370
    25
100
AcDbLine
 10
100.0464173580706
 20
-146.1670491112938
 30
0.0
 11
100.0464173580706
 21
-154.1672375183031
 31
0.0
  0
LINE
  5
CC
330
70
100
AcDbEntity
  8
レイヤー 1
 62
   250
420
  2299925
370
     9
100
AcDbLine
 10
99.86727680708529
 20
-154.2292558500542
 30
0.0
 11
99.00117210695924
 21
-154.7294947261809
 31
0.0
  0
LINE
  5
CD
330
70
100
AcDbEntity
  8
レイヤー 1
 62
   250
420
  2299925
370
     9
100
AcDbLine
 10
99.86727680708529
 20
-154.2292558500542
 30
0.0
 11
95.88406301981665
 21
-158.2128224150916
 31
0.0
  0
LINE
  5
CE
330
70
100
AcDbEntity
  8
レイヤー 1
 62
   250
420
  2299925
370
     9
100
AcDbLine
 10
99.86727680708529
 20
-154.2292558500542
 30
0.0
 11
99.36703793095823
 21
-155.0953605501802
 31
0.0
  0
INSERT
  5
D0
330
70
100
AcDbEntity
  8
レイヤー 1
100
AcDbBlockReference
  2
Block_8
 10
0.0
 20
0.0
 30
0.0
  0
ENDSEC
  0
SECTION
  2
OBJECTS
  0
DICTIONARY
  5
C
330
0
100
AcDbDictionary
281
     1
  3
ACAD_COLOR
350
63
  3
ACAD_DETAILVIEWSTYLE
350
6A
  3
ACAD_GROUP
350
D
  3
ACAD_LAYOUT
350
62
  3
ACAD_MATERIAL
350
10
  3
ACAD_MLEADERSTYLE
350
66
  3
ACAD_MLINESTYLE
350
5F
  3
ACAD_PLOTSETTINGS
350
61
  3
ACAD_PLOTSTYLENAME
350
E
  3
ACAD_SCALELIST
350
42
  3
ACAD_SECTIONVIEWSTYLE
350
68
  3
ACAD_TABLESTYLE
350
64
  3
ACAD_VISUALSTYLE
350
29
  3
ACDB_RECOMPOSE_DATA
350
F1
  3
AcDbVariableDictionary
350
E9
  0
DICTIONARY
  5
63
102
{ACAD_REACTORS
330
C
102
}
330
C
100
AcDbDictionary
281
     1
  0
DICTIONARY
  5
6A
102
{ACAD_REACTORS
330
C
102
}
330
C
100
AcDbDictionary
281
     1
  3
Imperial24
350
6B
  0
DICTIONARY
  5
D
102
{ACAD_REACTORS
330
C
102
}
330
C
100
AcDbDictionary
281
     1
  0
DICTIONARY
  5
62
102
{ACAD_REACTORS
330
C
102
}
330
C
100
AcDbDictionary
281
     1
  3
Layout1
350
6F
  3
Layout2
350
77
  3
Model
350
73
  0
DICTIONARY
  5
10
102
{ACAD_REACTORS
330
C
102
}
330
C
100
AcDbDictionary
281
     1
  3
ByBlock
350
19
  3
ByLayer
350
11
  3
Global
350
21
  0
DICTIONARY
  5
66
102
{ACAD_REACTORS
330
C
102
}
330
C
100
AcDbDictionary
281
     1
  3
Standard
350
67
  0
DICTIONARY
  5
5F
102
{ACAD_REACTORS
330
C
102
}
330
C
100
AcDbDictionary
281
     1
  3
Standard
350
60
  0
DICTIONARY
  5
61
102
{ACAD_REACTORS
330
C
102
}
330
C
100
AcDbDictionary
281
     1
  0
ACDBDICTIONARYWDFLT
  5
E
102
{ACAD_REACTORS
330
C
102
}
330
C
100
AcDbDictionary
281
     1
  3
Normal
350
F
100
AcDbDictionaryWithDefault
340
F
  0
DICTIONARY
  5
42
102
{ACAD_REACTORS
330
C
102
}
330
C
100
AcDbDictionary
281
     1
  3
A0
350
43
  3
A1
350
44
  3
A2
350
45
  3
A3
350
46
  3
A4
350
47
  3
A5
350
48
  3
A6
350
49
  3
A7
350
4A
  3
A8
350
4B
  3
A9
350
4C
  3
B0
350
4D
  3
B1
350
4E
  3
B2
350
4F
  3
B3
350
50
  3
B4
350
51
  3
B5
350
52
  3
B6
350
53
  0
DICTIONARY
  5
68
102
{ACAD_REACTORS
330
C
102
}
330
C
100
AcDbDictionary
281
     1
  3
Imperial24
350
69
  0
DICTIONARY
  5
64
102
{ACAD_REACTORS
330
C
102
}
330
C
100
AcDbDictionary
281
     1
  3
Standard
350
65
  0
DICTIONARY
  5
29
102
{ACAD_REACTORS
330
C
102
}
330
C
100
AcDbDictionary
281
     1
  3
2dWireframe
350
2F
  3
Basic
350
2E
  3
Brighten
350
35
  3
ColorChange
350
39
  3
Conceptual
350
32
  3
Dim
350
34
  3
EdgeColorOff
350
41
  3
Facepattern
350
38
  3
Flat
350
2A
  3
FlatWithEdges
350
2B
  3
Gouraud
350
2C
  3
GouraudWithEdges
350
2D
  3
Hidden
350
31
  3
JitterOff
350
3F
  3
Linepattern
350
37
  3
OverhangOff
350
40
  3
Realistic
350
33
  3
Shaded
350
3E
  3
Shaded with edges
350
3D
  3
Shades of Gray
350
3A
  3
Sketchy
350
3B
  3
Thicken
350
36
  3
Wireframe
350
30
  3
X-Ray
350
3C
  0
XRECORD
  5
F1
102
{ACAD_REACTORS
330
C
102
}
330
C
100
AcDbXrecord
280
     1
 90
        1
330
65
  0
DICTIONARY
  5
E9
102
{ACAD_REACTORS
330
C
102
}
330
C
100
AcDbDictionary
281
     1
  3
CANNOSCALE
350
EE
  3
CMLEADERSTYLE
350
EB
  3
CTABLESTYLE
350
EA
  3
CVIEWDETAILSTYLE
350
EC
  3
CVIEWSECTIONSTYLE
350
ED
  0
ACDBDETAILVIEWSTYLE
  5
6B
102
{ACAD_XDICTIONARY
360
126
102
}
102
{ACAD_REACTORS
330
6A
102
}
330
6A
100
AcDbModelDocViewStyle
 70
     0
  3
Imperial24
290
     0
100
AcDbDetailViewStyle
 70
     0
 71
     0
 90
        3
 71
     1
340
55
 62
   256
 40
0.24
340
0
 62
   256
 40
0.24
300

 40
0.36
280
     3
 71
     2
340
5D
 90
       25
 62
   256
 71
     3
340
55
 62
   256
 40
0.24
 90
        1
 40
0.75
 90
        1
300
%<\AcVar ViewType \f "%tc1">% %<\AcVar ViewDetailId>%\PSCALE %<\AcVar ViewScale \f "%sn">%
 71
     4
340
5D
 90
       25
 62
   256
340
5D
 90
       25
 62
   256
280
     0
  0
LAYOUT
  5
6F
102
{ACAD_REACTORS
330
62
102
}
330
62
100
AcDbPlotSettings
  1

  2

  4

  6

 40
0.0
 41
0.0
 42
0.0
 43
0.0
 44
0.0
 45
0.0
 46
0.0
 47
0.0
 48
0.0
 49
0.0
140
0.0
141
0.0
142
1.0
143
1.0
 70
   688
 72
     0
 73
     0
 74
     5
  7

 75
    16
147
1.0
 76
     0
 77
     2
 78
   300
148
0.0
149
0.0
100
AcDbLayout
  1
Layout1
 70
     1
 71
     1
 10
0.0
 20
0.0
 11
12.0
 21
9.0
 12
0.0
 22
0.0
 32
0.0
 14
0.0
 24
0.0
 34
0.0
 15
0.0
 25
0.0
 35
0.0
146
0.0
 13
0.0
 23
0.0
 33
0.0
 16
1.0
 26
0.0
 36
0.0
 17
0.0
 27
1.0
 37
0.0
 76
     0
330
6C
  0
LAYOUT
  5
77
102
{ACAD_REACTORS
330
62
102
}
330
62
100
AcDbPlotSettings
  1

  2

  4

  6

 40
0.0
 41
0.0
 42
0.0
 43
0.0
 44
0.0
 45
0.0
 46
0.0
 47
0.0
 48
0.0
 49
0.0
140
0.0
141
0.0
142
1.0
143
1.0
 70
   688
 72
     0
 73
     0
 74
     5
  7

 75
    16
147
1.0
 76
     0
 77
     2
 78
   300
148
0.0
149
0.0
100
AcDbLayout
  1
Layout2
 70
     1
 71
     2
 10
0.0
 20
0.0
 11
12.0
 21
9.0
 12
0.0
 22
0.0
 32
0.0
 14
0.0
 24
0.0
 34
0.0
 15
0.0
 25
0.0
 35
0.0
146
0.0
 13
0.0
 23
0.0
 33
0.0
 16
1.0
 26
0.0
 36
0.0
 17
0.0
 27
1.0
 37
0.0
 76
     0
330
74
  0
LAYOUT
  5
73
102
{ACAD_REACTORS
330
62
102
}
330
62
100
AcDbPlotSettings
  1

  2

  4

  6

 40
0.0
 41
0.0
 42
0.0
 43
0.0
 44
0.0
 45
0.0
 46
0.0
 47
0.0
 48
0.0
 49
0.0
140
0.0
141
0.0
142
1.0
143
1.0
 70
  1712
 72
     0
 73
     0
 74
     0
  7

 75
     0
147
1.0
 76
     0
 77
     2
 78
   300
148
0.0
149
0.0
100
AcDbLayout
  1
Model
 70
     1
 71
     0
 10
0.0
 20
0.0
 11
12.0
 21
9.0
 12
0.0
 22
0.0
 32
0.0
 14
0.0
 24
0.0
 34
0.0
 15
0.0
 25
0.0
 35
0.0
146
0.0
 13
0.0
 23
0.0
 33
0.0
 16
1.0
 26
0.0
 36
0.0
 17
0.0
 27
1.0
 37
0.0
 76
     0
330
70
  0
MATERIAL
  5
19
102
{ACAD_XDICTIONARY
360
1A
102
}
102
{ACAD_REACTORS
330
10
102
}
330
10
100
AcDbMaterial
  1
ByBlock
 72
     0
 43
0.0208333333333333
 43
0.0
 43
0.0
 43
0.0
 43
0.0
 43
0.0208333333333333
 43
0.0
 43
0.0
 43
0.0
 43
0.0
 43
1.0
 43
0.0
 43
0.0
 43
0.0
 43
0.0
 43
1.0
 77
     0
 47
0.0208333333333333
 47
0.0
 47
0.0
 47
0.0
 47
0.0
 47
0.0208333333333333
 47
0.0
 47
0.0
 47
0.0
 47
0.0
 47
1.0
 47
0.0
 47
0.0
 47
0.0
 47
0.0
 47
1.0
171
     0
 49
0.0208333333333333
 49
0.0
 49
0.0
 49
0.0
 49
0.0
 49
0.0208333333333333
 49
0.0
 49
0.0
 49
0.0
 49
0.0
 49
1.0
 49
0.0
 49
0.0
 49
0.0
 49
0.0
 49
1.0
175
     0
142
0.0208333333333333
142
0.0
142
0.0
142
0.0
142
0.0
142
0.0208333333333333
142
0.0
142
0.0
142
0.0
142
0.0
142
1.0
142
0.0
142
0.0
142
0.0
142
0.0
142
1.0
179
     0
144
0.0208333333333333
144
0.0
144
0.0
144
0.0
144
0.0
144
0.0208333333333333
144
0.0
144
0.0
144
0.0
144
0.0
144
1.0
144
0.0
144
0.0
144
0.0
144
0.0
144
1.0
147
0.0208333333333333
147
0.0
147
0.0
147
0.0
147
0.0
147
0.0208333333333333
147
0.0
147
0.0
147
0.0
147
0.0
147
1.0
147
0.0
147
0.0
147
0.0
147
0.0
147
1.0
  0
MATERIAL
  5
11
102
{ACAD_XDICTIONARY
360
12
102
}
102
{ACAD_REACTORS
330
10
102
}
330
10
100
AcDbMaterial
  1
ByLayer
 72
     0
 43
0.0208333333333333
 43
0.0
 43
0.0
 43
0.0
 43
0.0
 43
0.0208333333333333
 43
0.0
 43
0.0
 43
0.0
 43
0.0
 43
1.0
 43
0.0
 43
0.0
 43
0.0
 43
0.0
 43
1.0
 77
     0
 47
0.0208333333333333
 47
0.0
 47
0.0
 47
0.0
 47
0.0
 47
0.0208333333333333
 47
0.0
 47
0.0
 47
0.0
 47
0.0
 47
1.0
 47
0.0
 47
0.0
 47
0.0
 47
0.0
 47
1.0
171
     0
 49
0.0208333333333333
 49
0.0
 49
0.0
 49
0.0
 49
0.0
 49
0.0208333333333333
 49
0.0
 49
0.0
 49
0.0
 49
0.0
 49
1.0
 49
0.0
 49
0.0
 49
0.0
 49
0.0
 49
1.0
175
     0
142
0.0208333333333333
142
0.0
142
0.0
142
0.0
142
0.0
142
0.0208333333333333
142
0.0
142
0.0
142
0.0
142
0.0
142
1.0
142
0.0
142
0.0
142
0.0
142
0.0
142
1.0
179
     0
144
0.0208333333333333
144
0.0
144
0.0
144
0.0
144
0.0
144
0.0208333333333333
144
0.0
144
0.0
144
0.0
144
0.0
144
1.0
144
0.0
144
0.0
144
0.0
144
0.0
144
1.0
147
0.0208333333333333
147
0.0
147
0.0
147
0.0
147
0.0
147
0.0208333333333333
147
0.0
147
0.0
147
0.0
147
0.0
147
1.0
147
0.0
147
0.0
147
0.0
147
0.0
147
1.0
  0
MATERIAL
  5
21
102
{ACAD_XDICTIONARY
360
22
102
}
102
{ACAD_REACTORS
330
10
102
}
330
10
100
AcDbMaterial
  1
Global
 72
     0
 43
0.0208333333333333
 43
0.0
 43
0.0
 43
0.0
 43
0.0
 43
0.0208333333333333
 43
0.0
 43
0.0
 43
0.0
 43
0.0
 43
1.0
 43
0.0
 43
0.0
 43
0.0
 43
0.0
 43
1.0
 77
     0
 47
0.0208333333333333
 47
0.0
 47
0.0
 47
0.0
 47
0.0
 47
0.0208333333333333
 47
0.0
 47
0.0
 47
0.0
 47
0.0
 47
1.0
 47
0.0
 47
0.0
 47
0.0
 47
0.0
 47
1.0
171
     0
 49
0.0208333333333333
 49
0.0
 49
0.0
 49
0.0
 49
0.0
 49
0.0208333333333333
 49
0.0
 49
0.0
 49
0.0
 49
0.0
 49
1.0
 49
0.0
 49
0.0
 49
0.0
 49
0.0
 49
1.0
175
     0
142
0.0208333333333333
142
0.0
142
0.0
142
0.0
142
0.0
142
0.0208333333333333
142
0.0
142
0.0
142
0.0
142
0.0
142
1.0
142
0.0
142
0.0
142
0.0
142
0.0
142
1.0
179
     0
144
0.0208333333333333
144
0.0
144
0.0
144
0.0
144
0.0
144
0.0208333333333333
144
0.0
144
0.0
144
0.0
144
0.0
144
1.0
144
0.0
144
0.0
144
0.0
144
0.0
144
1.0
147
0.0208333333333333
147
0.0
147
0.0
147
0.0
147
0.0
147
0.0208333333333333
147
0.0
147
0.0
147
0.0
147
0.0
147
1.0
147
0.0
147
0.0
147
0.0
147
0.0
147
1.0
  0
MLEADERSTYLE
  5
67
102
{ACAD_XDICTIONARY
360
122
102
}
102
{ACAD_REACTORS
330
66
102
}
330
66
100
AcDbMLeaderStyle
179
     2
170
     2
171
     1
172
     0
 90
        2
 40
0.0
 41
0.0
173
     1
 91
-1056964608
340
5B
 92
       -2
290
     1
 42
0.09
291
     1
 43
0.36
  3
Standard
 44
0.18
300

342
55
174
     1
178
     6
175
     1
176
     0
 93
-1056964608
 45
0.18
292
     0
297
     0
 46
0.18
 94
-1056964608
 47
1.0
 49
1.0
140
1.0
293
     1
141
0.0
294
     1
177
     0
142
1.0
295
     0
296
     0
143
0.125
271
     0
272
     9
273
     9
  0
MLINESTYLE
  5
60
102
{ACAD_REACTORS
330
5F
102
}
330
5F
100
AcDbMlineStyle
  2
STANDARD
 70
     0
  3

 62
   256
 51
90.0
 52
90.0
 71
     2
 49
0.5
 62
   256
  6
BYLAYER
 49
-0.5
 62
   256
  6
BYLAYER
  0
ACDBPLACEHOLDER
  5
F
102
{ACAD_REACTORS
330
E
102
}
330
E
  0
SCALE
  5
43
102
{ACAD_REACTORS
330
42
102
}
330
42
100
AcDbScale
 70
     0
300
1:1
140
1.0
141
1.0
290
     1
  0
SCALE
  5
44
102
{ACAD_REACTORS
330
42
102
}
330
42
100
AcDbScale
 70
     0
300
1/128" = 1'-0"
140
0.0078125
141
12.0
290
     0
  0
SCALE
  5
45
102
{ACAD_REACTORS
330
42
102
}
330
42
100
AcDbScale
 70
     0
300
1/64" = 1'-0"
140
0.015625
141
12.0
290
     0
  0
SCALE
  5
46
102
{ACAD_REACTORS
330
42
102
}
330
42
100
AcDbScale
 70
     0
300
1/32" = 1'-0"
140
0.03125
141
12.0
290
     0
  0
SCALE
  5
47
102
{ACAD_REACTORS
330
42
102
}
330
42
100
AcDbScale
 70
     0
300
1/16" = 1'-0"
140
0.0625
141
12.0
290
     0
  0
SCALE
  5
48
102
{ACAD_REACTORS
330
42
102
}
330
42
100
AcDbScale
 70
     0
300
3/32" = 1'-0"
140
0.09375
141
12.0
290
     0
  0
SCALE
  5
49
102
{ACAD_REACTORS
330
42
102
}
330
42
100
AcDbScale
 70
     0
300
1/8" = 1'-0"
140
0.125
141
12.0
290
     0
  0
SCALE
  5
4A
102
{ACAD_REACTORS
330
42
102
}
330
42
100
AcDbScale
 70
     0
300
3/16" = 1'-0"
140
0.1875
141
12.0
290
     0
  0
SCALE
  5
4B
102
{ACAD_REACTORS
330
42
102
}
330
42
100
AcDbScale
 70
     0
300
1/4" = 1'-0"
140
0.25
141
12.0
290
     0
  0
SCALE
  5
4C
102
{ACAD_REACTORS
330
42
102
}
330
42
100
AcDbScale
 70
     0
300
3/8" = 1'-0"
140
0.375
141
12.0
290
     0
  0
SCALE
  5
4D
102
{ACAD_REACTORS
330
42
102
}
330
42
100
AcDbScale
 70
     0
300
1/2" = 1'-0"
140
0.5
141
12.0
290
     0
  0
SCALE
  5
4E
102
{ACAD_REACTORS
330
42
102
}
330
42
100
AcDbScale
 70
     0
300
3/4" = 1'-0"
140
0.75
141
12.0
290
     0
  0
SCALE
  5
4F
102
{ACAD_REACTORS
330
42
102
}
330
42
100
AcDbScale
 70
     0
300
1" = 1'-0"
140
1.0
141
12.0
290
     0
  0
SCALE
  5
50
102
{ACAD_REACTORS
330
42
102
}
330
42
100
AcDbScale
 70
     0
300
1-1/2" = 1'-0"
140
1.5
141
12.0
290
     0
  0
SCALE
  5
51
102
{ACAD_REACTORS
330
42
102
}
330
42
100
AcDbScale
 70
     0
300
3" = 1'-0"
140
3.0
141
12.0
290
     0
  0
SCALE
  5
52
102
{ACAD_REACTORS
330
42
102
}
330
42
100
AcDbScale
 70
     0
300
6" = 1'-0"
140
6.0
141
12.0
290
     0
  0
SCALE
  5
53
102
{ACAD_REACTORS
330
42
102
}
330
42
100
AcDbScale
 70
     0
300
1'-0" = 1'-0"
140
12.0
141
12.0
290
     0
  0
ACDBSECTIONVIEWSTYLE
  5
69
102
{ACAD_XDICTIONARY
360
124
102
}
102
{ACAD_REACTORS
330
68
102
}
330
68
100
AcDbModelDocViewStyle
 70
     0
  3
Imperial24
290
     0
100
AcDbSectionViewStyle
 70
     0
 71
     0
 90
       78
 71
     1
340
55
 62
   256
 40
0.24
340
0
340
0
 62
   256
 40
0.24
300
I, O, Q, S, X, Z
 40
0.48
 90
        3
 40
0.18
 90
        1
 71
     2
340
5D
 90
       25
 62
   256
340
5D
 90
       50
 62
   256
 40
0.24
 40
0.0
 40
0.24
 71
     3
340
55
 62
   256
 40
0.24
 90
        1
 40
0.75
 90
        1
300
%<\AcVar ViewType \f "%tc1">% %<\AcVar ViewSectionStartId>%-%<\AcVar ViewSectionEndId>%\PSCALE %<\AcVar ViewScale \f "%sn">%
 71
     4
 62
   256
 62
   257
300
ANSI31
 40
1.0
 90
        0
290
     0
290
     0
 90
        6
 40
0.0
 40
1.570796326794896
 40
0.2617993877991494
 40
1.308996938995747
 40
-0.2617993877991494
 40
1.832595714594046
  0
TABLESTYLE
  5
65
102
{ACAD_XDICTIONARY
360
EF
102
}
102
{ACAD_REACTORS
330
64
102
}
330
64
100
AcDbTableStyle
280
     0
  3
Standard
 70
     0
 71
     0
 40
0.06
 41
0.06
280
     0
281
     0
  7
Standard
140
0.18
170
     2
 62
     0
 63
     7
283
     0
 90
      512
 91
        0
  1

274
    -2
284
     1
 64
     0
275
    -2
285
     1
 65
     0
276
    -2
286
     1
 66
     0
277
    -2
287
     1
 67
     0
278
    -2
288
     1
 68
     0
279
    -2
289
     1
 69
     0
  7
Standard
140
0.25
170
     5
 62
     0
 63
     7
283
     0
 90
      512
 91
        0
  1

274
    -2
284
     1
 64
     0
275
    -2
285
     1
 65
     0
276
    -2
286
     1
 66
     0
277
    -2
287
     1
 67
     0
278
    -2
288
     1
 68
     0
279
    -2
289
     1
 69
     0
  7
Standard
140
0.18
170
     5
 62
     0
 63
     7
283
     0
 90
      512
 91
        0
  1

274
    -2
284
     1
 64
     0
275
    -2
285
     1
 65
     0
276
    -2
286
     1
 66
     0
277
    -2
287
     1
 67
     0
278
    -2
288
     1
 68
     0
279
    -2
289
     1
 69
     0
  0
VISUALSTYLE
  5
2F
102
{ACAD_XDICTIONARY
360
FC
102
}
102
{ACAD_REACTORS
330
29
102
}
330
29
100
AcDbVisualStyle
  2
2dWireframe
 70
     4
177
     2
291
     0
 71
     0
176
     1
 72
     2
176
     1
 73
     0
176
     1
 90
        0
176
     1
 40
0.6
176
     1
 41
30.0
176
     1
 63
     7
421
 16777215
176
     1
 74
     1
176
     1
 91
        4
176
     1
 64
     7
176
     1
 65
   257
176
     1
 75
     1
176
     1
175
     1
176
     1
 42
1.0
176
     1
 92
        0
176
     1
 66
   257
176
     1
 43
1.0
176
     1
 76
     1
176
     1
 77
     6
176
     1
 78
     2
176
     1
 67
     7
176
     1
 79
     5
176
     1
170
     0
176
     1
171
     0
176
     1
290
     0
176
     1
 93
        1
176
     1
 44
0.0
176
     1
173
     0
176
     1
1001
ACAD
1000
AcDbSavedByObjectVersion
1070
     0
  0
VISUALSTYLE
  5
2E
102
{ACAD_XDICTIONARY
360
FA
102
}
102
{ACAD_REACTORS
330
29
102
}
330
29
100
AcDbVisualStyle
  2
Basic
 70
     7
177
     2
291
     1
 71
     1
176
     1
 72
     0
176
     1
 73
     1
176
     1
 90
        0
176
     1
 40
0.6
176
     1
 41
30.0
176
     1
 63
     7
421
 16777215
176
     1
 74
     0
176
     1
 91
        4
176
     1
 64
     7
176
     1
 65
   257
176
     1
 75
     1
176
     1
175
     1
176
     1
 42
1.0
176
     1
 92
        8
176
     1
 66
     7
176
     1
 43
1.0
176
     1
 76
     1
176
     1
 77
     6
176
     1
 78
     2
176
     1
 67
     7
176
     1
 79
     5
176
     1
170
     0
176
     1
171
     0
176
     1
290
     0
176
     1
 93
        1
176
     1
 44
0.0
176
     1
173
     0
176
     1
1001
ACAD
1000
AcDbSavedByObjectVersion
1070
     0
  0
VISUALSTYLE
  5
35
102
{ACAD_XDICTIONARY
360
108
102
}
102
{ACAD_REACTORS
330
29
102
}
330
29
100
AcDbVisualStyle
  2
Brighten
 70
    12
177
     2
291
     1
 71
     2
176
     1
 72
     2
176
     1
 73
     0
176
     1
 90
        0
176
     1
 40
0.6
176
     1
 41
30.0
176
     1
 63
     7
421
 16777215
176
     1
 74
     1
176
     1
 91
        4
176
     1
 64
     7
176
     1
 65
   257
176
     1
 75
     1
176
     1
175
     1
176
     1
 42
1.0
176
     1
 92
        8
176
     1
 66
     7
176
     1
 43
1.0
176
     1
 76
     1
176
     1
 77
     6
176
     1
 78
     2
176
     1
 67
     7
176
     1
 79
     5
176
     1
170
     0
176
     1
171
     0
176
     1
290
     0
176
     1
 93
        1
176
     1
 44
50.0
176
     1
173
     0
176
     1
1001
ACAD
1000
AcDbSavedByObjectVersion
1070
     0
  0
VISUALSTYLE
  5
39
102
{ACAD_XDICTIONARY
360
110
102
}
102
{ACAD_REACTORS
330
29
102
}
330
29
100
AcDbVisualStyle
  2
ColorChange
 70
    16
177
     2
291
     1
 71
     2
176
     1
 72
     2
176
     1
 73
     3
176
     1
 90
        0
176
     1
 40
0.6
176
     1
 41
30.0
176
     1
 63
     8
421
  8421504
176
     1
 74
     1
176
     1
 91
        4
176
     1
 64
     7
176
     1
 65
   257
176
     1
 75
     1
176
     1
175
     1
176
     1
 42
1.0
176
     1
 92
        8
176
     1
 66
     8
424
  8421504
176
     1
 43
1.0
176
     1
 76
     1
176
     1
 77
     6
176
     1
 78
     2
176
     1
 67
     7
176
     1
 79
     5
176
     1
170
     0
176
     1
171
     0
176
     1
290
     0
176
     1
 93
        1
176
     1
 44
0.0
176
     1
173
     0
176
     1
1001
ACAD
1000
AcDbSavedByObjectVersion
1070
     0
  0
VISUALSTYLE
  5
32
102
{ACAD_XDICTIONARY
360
102
102
}
102
{ACAD_REACTORS
330
29
102
}
330
29
100
AcDbVisualStyle
  2
Conceptual
 70
     9
177
     2
291
     0
 71
     3
176
     1
 72
     2
176
     1
 73
     0
176
     1
 90
        0
176
     1
 40
0.6
176
     1
 41
30.0
176
     1
 63
     7
421
 16777215
176
     1
 74
     2
176
     1
 91
        2
176
     1
 64
     7
176
     1
 65
   257
176
     1
 75
     1
176
     1
175
     1
176
     1
 42
179.0
176
     1
 92
        8
176
     1
 66
     7
176
     1
 43
1.0
176
     1
 76
     1
176
     1
 77
     6
176
     1
 78
     2
176
     1
 67
     7
176
     1
 79
     3
176
     1
170
     0
176
     1
171
     0
176
     1
290
     0
176
     1
 93
        1
176
     1
 44
0.0
176
     1
173
     0
176
     1
1001
ACAD
1000
AcDbSavedByObjectVersion
1070
     0
  0
VISUALSTYLE
  5
34
102
{ACAD_XDICTIONARY
360
106
102
}
102
{ACAD_REACTORS
330
29
102
}
330
29
100
AcDbVisualStyle
  2
Dim
 70
    11
177
     2
291
     1
 71
     2
176
     1
 72
     2
176
     1
 73
     0
176
     1
 90
        0
176
     1
 40
0.6
176
     1
 41
30.0
176
     1
 63
     7
421
 16777215
176
     1
 74
     1
176
     1
 91
        4
176
     1
 64
     7
176
     1
 65
   257
176
     1
 75
     1
176
     1
175
     1
176
     1
 42
1.0
176
     1
 92
        8
176
     1
 66
     7
176
     1
 43
1.0
176
     1
 76
     1
176
     1
 77
     6
176
     1
 78
     2
176
     1
 67
     7
176
     1
 79
     5
176
     1
170
     0
176
     1
171
     0
176
     1
290
     0
176
     1
 93
        1
176
     1
 44
-50.0
176
     1
173
     0
176
     1
1001
ACAD
1000
AcDbSavedByObjectVersion
1070
     0
  0
VISUALSTYLE
  5
41
102
{ACAD_XDICTIONARY
360
120
102
}
102
{ACAD_REACTORS
330
29
102
}
330
29
100
AcDbVisualStyle
  2
EdgeColorOff
 70
    22
177
     2
291
     1
 71
     2
176
     0
 72
     2
176
     0
 73
     0
176
     0
 90
        0
176
     0
 40
0.6
176
     0
 41
30.0
176
     0
 63
     7
421
 16777215
176
     0
 74
     1
176
     0
 91
        4
176
     0
 64
     7
176
     0
 65
   257
176
     0
 75
     1
176
     0
175
     1
176
     0
 42
1.0
176
     0
 92
        8
176
     2
 66
     7
176
     0
 43
1.0
176
     0
 76
     1
176
     0
 77
     6
176
     0
 78
     2
176
     0
 67
     7
176
     0
 79
     5
176
     0
170
     0
176
     0
171
     0
176
     0
290
     0
176
     0
 93
        1
176
     0
 44
0.0
176
     0
173
     0
176
     0
1001
ACAD
1000
AcDbSavedByObjectVersion
1070
     0
  0
VISUALSTYLE
  5
38
102
{ACAD_XDICTIONARY
360
10E
102
}
102
{ACAD_REACTORS
330
29
102
}
330
29
100
AcDbVisualStyle
  2
Facepattern
 70
    15
177
     2
291
     1
 71
     2
176
     1
 72
     2
176
     1
 73
     0
176
     1
 90
        0
176
     1
 40
0.6
176
     1
 41
30.0
176
     1
 63
     7
421
 16777215
176
     1
 74
     1
176
     1
 91
        4
176
     1
 64
     7
176
     1
 65
   257
176
     1
 75
     1
176
     1
175
     1
176
     1
 42
1.0
176
     1
 92
        8
176
     1
 66
     7
176
     1
 43
1.0
176
     1
 76
     1
176
     1
 77
     6
176
     1
 78
     2
176
     1
 67
     7
176
     1
 79
     5
176
     1
170
     0
176
     1
171
     0
176
     1
290
     0
176
     1
 93
        1
176
     1
 44
0.0
176
     1
173
     0
176
     1
1001
ACAD
1000
AcDbSavedByObjectVersion
1070
     0
  0
VISUALSTYLE
  5
2A
102
{ACAD_XDICTIONARY
360
F2
102
}
102
{ACAD_REACTORS
330
29
102
}
330
29
100
AcDbVisualStyle
  2
Flat
 70
     0
177
     2
291
     1
 71
     2
176
     1
 72
     1
176
     1
 73
     1
176
     1
 90
        2
176
     1
 40
0.6
176
     1
 41
30.0
176
     1
 63
     7
421
 16777215
176
     1
 74
     0
176
     1
 91
        0
176
     1
 64
     7
176
     1
 65
   257
176
     1
 75
     1
176
     1
175
     1
176
     1
 42
1.0
176
     1
 92
        8
176
     1
 66
     7
176
     1
 43
1.0
176
     1
 76
     1
176
     1
 77
     6
176
     1
 78
     2
176
     1
 67
     7
176
     1
 79
     5
176
     1
170
     0
176
     1
171
     0
176
     1
290
     0
176
     1
 93
       13
176
     1
 44
0.0
176
     1
173
     0
176
     1
1001
ACAD
1000
AcDbSavedByObjectVersion
1070
     0
  0
VISUALSTYLE
  5
2B
102
{ACAD_XDICTIONARY
360
F4
102
}
102
{ACAD_REACTORS
330
29
102
}
330
29
100
AcDbVisualStyle
  2
FlatWithEdges
 70
     1
177
     2
291
     1
 71
     2
176
     1
 72
     1
176
     1
 73
     1
176
     1
 90
        2
176
     1
 40
0.6
176
     1
 41
30.0
176
     1
 63
     7
421
 16777215
176
     1
 74
     1
176
     1
 91
        0
176
     1
 64
     7
176
     1
 65
   257
176
     1
 75
     1
176
     1
175
     1
176
     1
 42
1.0
176
     1
 92
        0
176
     1
 66
   257
176
     1
 43
1.0
176
     1
 76
     1
176
     1
 77
     6
176
     1
 78
     2
176
     1
 67
     7
176
     1
 79
     5
176
     1
170
     0
176
     1
171
     0
176
     1
290
     0
176
     1
 93
       13
176
     1
 44
0.0
176
     1
173
     0
176
     1
1001
ACAD
1000
AcDbSavedByObjectVersion
1070
     0
  0
VISUALSTYLE
  5
2C
102
{ACAD_XDICTIONARY
360
F6
102
}
102
{ACAD_REACTORS
330
29
102
}
330
29
100
AcDbVisualStyle
  2
Gouraud
 70
     2
177
     2
291
     1
 71
     2
176
     1
 72
     2
176
     1
 73
     1
176
     1
 90
        2
176
     1
 40
0.6
176
     1
 41
30.0
176
     1
 63
     7
421
 16777215
176
     1
 74
     0
176
     1
 91
        0
176
     1
 64
     7
176
     1
 65
   257
176
     1
 75
     1
176
     1
175
     1
176
     1
 42
1.0
176
     1
 92
        0
176
     1
 66
     7
176
     1
 43
1.0
176
     1
 76
     1
176
     1
 77
     6
176
     1
 78
     2
176
     1
 67
     7
176
     1
 79
     5
176
     1
170
     0
176
     1
171
     0
176
     1
290
     0
176
     1
 93
       13
176
     1
 44
0.0
176
     1
173
     0
176
     1
1001
ACAD
1000
AcDbSavedByObjectVersion
1070
     0
  0
VISUALSTYLE
  5
2D
102
{ACAD_XDICTIONARY
360
F8
102
}
102
{ACAD_REACTORS
330
29
102
}
330
29
100
AcDbVisualStyle
  2
GouraudWithEdges
 70
     3
177
     2
291
     1
 71
     2
176
     1
 72
     2
176
     1
 73
     1
176
     1
 90
        2
176
     1
 40
0.6
176
     1
 41
30.0
176
     1
 63
     7
421
 16777215
176
     1
 74
     1
176
     1
 91
        0
176
     1
 64
     7
176
     1
 65
   257
176
     1
 75
     1
176
     1
175
     1
176
     1
 42
1.0
176
     1
 92
        0
176
     1
 66
   257
176
     1
 43
1.0
176
     1
 76
     1
176
     1
 77
     6
176
     1
 78
     2
176
     1
 67
     7
176
     1
 79
     5
176
     1
170
     0
176
     1
171
     0
176
     1
290
     0
176
     1
 93
       13
176
     1
 44
0.0
176
     1
173
     0
176
     1
1001
ACAD
1000
AcDbSavedByObjectVersion
1070
     0
  0
VISUALSTYLE
  5
31
102
{ACAD_XDICTIONARY
360
100
102
}
102
{ACAD_REACTORS
330
29
102
}
330
29
100
AcDbVisualStyle
  2
Hidden
 70
     6
177
     2
291
     0
 71
     1
176
     1
 72
     2
176
     1
 73
     2
176
     1
 90
        0
176
     1
 40
0.6
176
     1
 41
30.0
176
     1
 63
     7
421
 16777215
176
     1
 74
     2
176
     1
 91
        2
176
     1
 64
     7
176
     1
 65
   257
176
     1
 75
     2
176
     1
175
     1
176
     1
 42
40.0
176
     1
 92
        0
176
     1
 66
   257
176
     1
 43
1.0
176
     1
 76
     1
176
     1
 77
     6
176
     1
 78
     2
176
     1
 67
     7
176
     1
 79
     3
176
     1
170
     0
176
     1
171
     0
176
     1
290
     0
176
     1
 93
        1
176
     1
 44
0.0
176
     1
173
     0
176
     1
1001
ACAD
1000
AcDbSavedByObjectVersion
1070
     0
  0
VISUALSTYLE
  5
3F
102
{ACAD_XDICTIONARY
360
11C
102
}
102
{ACAD_REACTORS
330
29
102
}
330
29
100
AcDbVisualStyle
  2
JitterOff
 70
    20
177
     2
291
     1
 71
     2
176
     0
 72
     2
176
     0
 73
     0
176
     0
 90
        0
176
     0
 40
0.6
176
     0
 41
30.0
176
     0
 63
     7
421
 16777215
176
     0
 74
     1
176
     0
 91
        4
176
     0
 64
     7
176
     0
 65
   257
176
     0
 75
     1
176
     0
175
     1
176
     0
 42
1.0
176
     0
 92
       10
176
     2
 66
     7
176
     0
 43
1.0
176
     0
 76
     1
176
     0
 77
     6
176
     0
 78
     2
176
     0
 67
     7
176
     0
 79
     5
176
     0
170
     0
176
     0
171
     0
176
     0
290
     0
176
     0
 93
        1
176
     0
 44
0.0
176
     0
173
     0
176
     0
1001
ACAD
1000
AcDbSavedByObjectVersion
1070
     0
  0
VISUALSTYLE
  5
37
102
{ACAD_XDICTIONARY
360
10C
102
}
102
{ACAD_REACTORS
330
29
102
}
330
29
100
AcDbVisualStyle
  2
Linepattern
 70
    14
177
     2
291
     1
 71
     2
176
     1
 72
     2
176
     1
 73
     0
176
     1
 90
        0
176
     1
 40
0.6
176
     1
 41
30.0
176
     1
 63
     7
421
 16777215
176
     1
 74
     1
176
     1
 91
        4
176
     1
 64
     7
176
     1
 65
   257
176
     1
 75
     7
176
     1
175
     7
176
     1
 42
1.0
176
     1
 92
        8
176
     1
 66
     7
176
     1
 43
1.0
176
     1
 76
     1
176
     1
 77
     6
176
     1
 78
     2
176
     1
 67
     7
176
     1
 79
     5
176
     1
170
     0
176
     1
171
     0
176
     1
290
     0
176
     1
 93
        1
176
     1
 44
0.0
176
     1
173
     0
176
     1
1001
ACAD
1000
AcDbSavedByObjectVersion
1070
     0
  0
VISUALSTYLE
  5
40
102
{ACAD_XDICTIONARY
360
11E
102
}
102
{ACAD_REACTORS
330
29
102
}
330
29
100
AcDbVisualStyle
  2
OverhangOff
 70
    21
177
     2
291
     1
 71
     2
176
     0
 72
     2
176
     0
 73
     0
176
     0
 90
        0
176
     0
 40
0.6
176
     0
 41
30.0
176
     0
 63
     7
421
 16777215
176
     0
 74
     1
176
     0
 91
        4
176
     0
 64
     7
176
     0
 65
   257
176
     0
 75
     1
176
     0
175
     1
176
     0
 42
1.0
176
     0
 92
        9
176
     2
 66
     7
176
     0
 43
1.0
176
     0
 76
     1
176
     0
 77
     6
176
     0
 78
     2
176
     0
 67
     7
176
     0
 79
     5
176
     0
170
     0
176
     0
171
     0
176
     0
290
     0
176
     0
 93
        1
176
     0
 44
0.0
176
     0
173
     0
176
     0
1001
ACAD
1000
AcDbSavedByObjectVersion
1070
     0
  0
VISUALSTYLE
  5
33
102
{ACAD_XDICTIONARY
360
104
102
}
102
{ACAD_REACTORS
330
29
102
}
330
29
100
AcDbVisualStyle
  2
Realistic
 70
     8
177
     2
291
     0
 71
     2
176
     1
 72
     3
176
     1
 73
     0
176
     1
 90
        2
176
     1
 40
0.6
176
     1
 41
30.0
176
     1
 63
     7
421
 16777215
176
     1
 74
     0
176
     1
 91
        0
176
     1
 64
     7
176
     1
 65
   257
176
     1
 75
     1
176
     1
175
     1
176
     1
 42
1.0
176
     1
 92
        8
176
     1
 66
   257
176
     1
 43
1.0
176
     1
 76
     1
176
     1
 77
     6
176
     1
 78
     2
176
     1
 67
     7
176
     1
 79
     3
176
     1
170
     0
176
     1
171
     0
176
     1
290
     0
176
     1
 93
       13
176
     1
 44
0.0
176
     1
173
     0
176
     1
1001
ACAD
1000
AcDbSavedByObjectVersion
1070
     0
  0
VISUALSTYLE
  5
3E
102
{ACAD_XDICTIONARY
360
11A
102
}
102
{ACAD_REACTORS
330
29
102
}
330
29
100
AcDbVisualStyle
  2
Shaded
 70
    27
177
     2
291
     0
 71
     2
176
     1
 72
     2
176
     1
 73
     1
176
     1
 90
        2
176
     1
 40
0.6
176
     1
 41
30.0
176
     1
 63
     7
421
 16777215
176
     1
 74
     0
176
     1
 91
        4
176
     1
 64
     7
176
     1
 65
   257
176
     1
 75
     1
176
     1
175
     1
176
     1
 42
1.0
176
     1
 92
        8
176
     1
 66
   257
176
     1
 43
1.0
176
     1
 76
     1
176
     1
 77
     6
176
     1
 78
     2
176
     1
 67
     8
425
  7895160
176
     1
 79
     3
176
     1
170
     0
176
     1
171
     0
176
     1
290
     0
176
     1
 93
        5
176
     1
 44
0.0
176
     1
173
     0
176
     1
1001
ACAD
1000
AcDbSavedByObjectVersion
1070
     0
  0
VISUALSTYLE
  5
3D
102
{ACAD_XDICTIONARY
360
118
102
}
102
{ACAD_REACTORS
330
29
102
}
330
29
100
AcDbVisualStyle
  2
Shaded with edges
 70
    26
177
     2
291
     0
 71
     2
176
     1
 72
     2
176
     1
 73
     1
176
     1
 90
        2
176
     1
 40
0.6
176
     1
 41
30.0
176
     1
 63
     7
421
 16777215
176
     1
 74
     1
176
     1
 91
        2
176
     1
 64
     7
176
     1
 65
   257
176
     1
 75
     2
176
     1
175
     1
176
     1
 42
1.0
176
     1
 92
        8
176
     1
 66
   257
176
     1
 43
1.0
176
     1
 76
     1
176
     1
 77
     6
176
     1
 78
     2
176
     1
 67
     7
176
     1
 79
     3
176
     1
170
     0
176
     1
171
     0
176
     1
290
     0
176
     1
 93
        5
176
     1
 44
0.0
176
     1
173
     0
176
     1
1001
ACAD
1000
AcDbSavedByObjectVersion
1070
     0
  0
VISUALSTYLE
  5
3A
102
{ACAD_XDICTIONARY
360
112
102
}
102
{ACAD_REACTORS
330
29
102
}
330
29
100
AcDbVisualStyle
  2
Shades of Gray
 70
    23
177
     2
291
     0
 71
     2
176
     1
 72
     2
176
     1
 73
     3
176
     1
 90
        0
176
     1
 40
0.6
176
     1
 41
30.0
176
     1
 63
     7
421
 16777215
176
     1
 74
     2
176
     1
 91
        2
176
     1
 64
     7
176
     1
 65
     7
176
     1
 75
     1
176
     1
175
     1
176
     1
 42
40.0
176
     1
 92
        8
176
     1
 66
     7
176
     1
 43
1.0
176
     1
 76
     1
176
     1
 77
     6
176
     1
 78
     2
176
     1
 67
     7
176
     1
 79
     3
176
     1
170
     0
176
     1
171
     0
176
     1
290
     0
176
     1
 93
        1
176
     1
 44
0.0
176
     1
173
     0
176
     1
1001
ACAD
1000
AcDbSavedByObjectVersion
1070
     0
  0
VISUALSTYLE
  5
3B
102
{ACAD_XDICTIONARY
360
114
102
}
102
{ACAD_REACTORS
330
29
102
}
330
29
100
AcDbVisualStyle
  2
Sketchy
 70
    24
177
     2
291
     0
 71
     1
176
     1
 72
     2
176
     1
 73
     2
176
     1
 90
        0
176
     1
 40
0.6
176
     1
 41
30.0
176
     1
 63
     7
421
 16777215
176
     1
 74
     2
176
     1
 91
        2
176
     1
 64
     7
176
     1
 65
     7
176
     1
 75
     1
176
     1
175
     1
176
     1
 42
40.0
176
     1
 92
       11
176
     1
 66
     7
176
     1
 43
1.0
176
     1
 76
     1
176
     1
 77
     6
176
     1
 78
     2
176
     1
 67
     7
176
     1
 79
     6
176
     1
170
     0
176
     1
171
     0
176
     1
290
     0
176
     1
 93
        1
176
     1
 44
0.0
176
     1
173
     0
176
     1
1001
ACAD
1000
AcDbSavedByObjectVersion
1070
     0
  0
VISUALSTYLE
  5
36
102
{ACAD_XDICTIONARY
360
10A
102
}
102
{ACAD_REACTORS
330
29
102
}
330
29
100
AcDbVisualStyle
  2
Thicken
 70
    13
177
     2
291
     1
 71
     2
176
     1
 72
     2
176
     1
 73
     0
176
     1
 90
        0
176
     1
 40
0.6
176
     1
 41
30.0
176
     1
 63
     7
421
 16777215
176
     1
 74
     1
176
     1
 91
        4
176
     1
 64
     7
176
     1
 65
   257
176
     1
 75
     1
176
     1
175
     1
176
     1
 42
1.0
176
     1
 92
       12
176
     1
 66
     7
176
     1
 43
1.0
176
     1
 76
     1
176
     1
 77
     6
176
     1
 78
     2
176
     1
 67
     7
176
     1
 79
     5
176
     1
170
     0
176
     1
171
     0
176
     1
290
     0
176
     1
 93
        1
176
     1
 44
0.0
176
     1
173
     0
176
     1
1001
ACAD
1000
AcDbSavedByObjectVersion
1070
     0
  0
VISUALSTYLE
  5
30
102
{ACAD_XDICTIONARY
360
FE
102
}
102
{ACAD_REACTORS
330
29
102
}
330
29
100
AcDbVisualStyle
  2
Wireframe
 70
     5
177
     2
291
     0
 71
     0
176
     1
 72
     2
176
     1
 73
     0
176
     1
 90
        0
176
     1
 40
0.6
176
     1
 41
30.0
176
     1
 63
     7
421
 16777215
176
     1
 74
     1
176
     1
 91
        4
176
     1
 64
     7
176
     1
 65
   257
176
     1
 75
     1
176
     1
175
     1
176
     1
 42
1.0
176
     1
 92
        0
176
     1
 66
   257
176
     1
 43
1.0
176
     1
 76
     1
176
     1
 77
     6
176
     1
 78
     2
176
     1
 67
     7
176
     1
 79
     3
176
     1
170
     0
176
     1
171
     0
176
     1
290
     0
176
     1
 93
        1
176
     1
 44
0.0
176
     1
173
     0
176
     1
1001
ACAD
1000
AcDbSavedByObjectVersion
1070
     0
  0
VISUALSTYLE
  5
3C
102
{ACAD_XDICTIONARY
360
116
102
}
102
{ACAD_REACTORS
330
29
102
}
330
29
100
AcDbVisualStyle
  2
X-Ray
 70
    25
177
     2
291
     0
 71
     2
176
     1
 72
     2
176
     1
 73
     1
176
     1
 90
        1
176
     1
 40
0.5
176
     1
 41
30.0
176
     1
 63
     7
421
 16777215
176
     1
 74
     1
176
     1
 91
        0
176
     1
 64
     7
176
     1
 65
   257
176
     1
 75
     1
176
     1
175
     1
176
     1
 42
1.0
176
     1
 92
        8
176
     1
 66
     7
176
     1
 43
1.0
176
     1
 76
     1
176
     1
 77
     6
176
     1
 78
     2
176
     1
 67
     7
176
     1
 79
     3
176
     1
170
     0
176
     1
171
     0
176
     1
290
     0
176
     1
 93
       13
176
     1
 44
0.0
176
     1
173
     0
176
     1
1001
ACAD
1000
AcDbSavedByObjectVersion
1070
     0
  0
DICTIONARYVAR
  5
EE
102
{ACAD_REACTORS
330
E9
102
}
330
E9
100
DictionaryVariables
280
     0
  1
1:1
  0
DICTIONARYVAR
  5
EB
102
{ACAD_REACTORS
330
E9
102
}
330
E9
100
DictionaryVariables
280
     0
  1
STANDARD
  0
DICTIONARYVAR
  5
EA
102
{ACAD_REACTORS
330
E9
102
}
330
E9
100
DictionaryVariables
280
     0
  1
STANDARD
  0
DICTIONARYVAR
  5
EC
102
{ACAD_REACTORS
330
E9
102
}
330
E9
100
DictionaryVariables
280
     0
  1
Imperial24
  0
DICTIONARYVAR
  5
ED
102
{ACAD_REACTORS
330
E9
102
}
330
E9
100
DictionaryVariables
280
     0
  1
Imperial24
  0
DICTIONARY
  5
126
330
6B
100
AcDbDictionary
280
     1
281
     1
  3
ACAD_XREC_ROUNDTRIP
360
127
  0
DICTIONARY
  5
1A
330
19
100
AcDbDictionary
280
     1
281
     1
  3
BUMPTILE
360
1C
  3
DIFFUSETILE
360
1B
  3
OPACITYTILE
360
1F
  3
REFLECTIONTILE
360
1E
  3
REFRACTIONTILE
360
20
  3
SPECULARTILE
360
1D
  0
DICTIONARY
  5
12
330
11
100
AcDbDictionary
280
     1
281
     1
  3
BUMPTILE
360
14
  3
DIFFUSETILE
360
13
  3
OPACITYTILE
360
17
  3
REFLECTIONTILE
360
16
  3
REFRACTIONTILE
360
18
  3
SPECULARTILE
360
15
  0
DICTIONARY
  5
22
330
21
100
AcDbDictionary
280
     1
281
     1
  3
BUMPTILE
360
24
  3
DIFFUSETILE
360
23
  3
OPACITYTILE
360
27
  3
REFLECTIONTILE
360
26
  3
REFRACTIONTILE
360
28
  3
SPECULARTILE
360
25
  0
DICTIONARY
  5
122
330
67
100
AcDbDictionary
280
     1
281
     1
  3
ACAD_XREC_ROUNDTRIP
360
123
  0
DICTIONARY
  5
124
330
69
100
AcDbDictionary
280
     1
281
     1
  3
ACAD_XREC_ROUNDTRIP
360
125
  0
DICTIONARY
  5
EF
330
65
100
AcDbDictionary
280
     1
281
     1
  3
ACAD_ROUNDTRIP_2008_TABLESTYLE_CELLSTYLEMAP
360
F0
  0
DICTIONARY
  5
FC
330
2F
100
AcDbDictionary
280
     1
281
     1
  3
ACAD_XREC_ROUNDTRIP
360
FD
  0
DICTIONARY
  5
FA
330
2E
100
AcDbDictionary
280
     1
281
     1
  3
ACAD_XREC_ROUNDTRIP
360
FB
  0
DICTIONARY
  5
108
330
35
100
AcDbDictionary
280
     1
281
     1
  3
ACAD_XREC_ROUNDTRIP
360
109
  0
DICTIONARY
  5
110
330
39
100
AcDbDictionary
280
     1
281
     1
  3
ACAD_XREC_ROUNDTRIP
360
111
  0
DICTIONARY
  5
102
330
32
100
AcDbDictionary
280
     1
281
     1
  3
ACAD_XREC_ROUNDTRIP
360
103
  0
DICTIONARY
  5
106
330
34
100
AcDbDictionary
280
     1
281
     1
  3
ACAD_XREC_ROUNDTRIP
360
107
  0
DICTIONARY
  5
120
330
41
100
AcDbDictionary
280
     1
281
     1
  3
ACAD_XREC_ROUNDTRIP
360
121
  0
DICTIONARY
  5
10E
330
38
100
AcDbDictionary
280
     1
281
     1
  3
ACAD_XREC_ROUNDTRIP
360
10F
  0
DICTIONARY
  5
F2
330
2A
100
AcDbDictionary
280
     1
281
     1
  3
ACAD_XREC_ROUNDTRIP
360
F3
  0
DICTIONARY
  5
F4
330
2B
100
AcDbDictionary
280
     1
281
     1
  3
ACAD_XREC_ROUNDTRIP
360
F5
  0
DICTIONARY
  5
F6
330
2C
100
AcDbDictionary
280
     1
281
     1
  3
ACAD_XREC_ROUNDTRIP
360
F7
  0
DICTIONARY
  5
F8
330
2D
100
AcDbDictionary
280
     1
281
     1
  3
ACAD_XREC_ROUNDTRIP
360
F9
  0
DICTIONARY
  5
100
330
31
100
AcDbDictionary
280
     1
281
     1
  3
ACAD_XREC_ROUNDTRIP
360
101
  0
DICTIONARY
  5
11C
330
3F
100
AcDbDictionary
280
     1
281
     1
  3
ACAD_XREC_ROUNDTRIP
360
11D
  0
DICTIONARY
  5
10C
330
37
100
AcDbDictionary
280
     1
281
     1
  3
ACAD_XREC_ROUNDTRIP
360
10D
  0
DICTIONARY
  5
11E
330
40
100
AcDbDictionary
280
     1
281
     1
  3
ACAD_XREC_ROUNDTRIP
360
11F
  0
DICTIONARY
  5
104
330
33
100
AcDbDictionary
280
     1
281
     1
  3
ACAD_XREC_ROUNDTRIP
360
105
  0
DICTIONARY
  5
11A
330
3E
100
AcDbDictionary
280
     1
281
     1
  3
ACAD_XREC_ROUNDTRIP
360
11B
  0
DICTIONARY
  5
118
330
3D
100
AcDbDictionary
280
     1
281
     1
  3
ACAD_XREC_ROUNDTRIP
360
119
  0
DICTIONARY
  5
112
330
3A
100
AcDbDictionary
280
     1
281
     1
  3
ACAD_XREC_ROUNDTRIP
360
113
  0
DICTIONARY
  5
114
330
3B
100
AcDbDictionary
280
     1
281
     1
  3
ACAD_XREC_ROUNDTRIP
360
115
  0
DICTIONARY
  5
10A
330
36
100
AcDbDictionary
280
     1
281
     1
  3
ACAD_XREC_ROUNDTRIP
360
10B
  0
DICTIONARY
  5
FE
330
30
100
AcDbDictionary
280
     1
281
     1
  3
ACAD_XREC_ROUNDTRIP
360
FF
  0
DICTIONARY
  5
116
330
3C
100
AcDbDictionary
280
     1
281
     1
  3
ACAD_XREC_ROUNDTRIP
360
117
  0
XRECORD
  5
127
102
{ACAD_REACTORS
330
126
102
}
330
126
100
AcDbXrecord
280
     1
102
DISPLAYNAME
  1
Imperial24
102
FLAGS
 90
        0
  0
XRECORD
  5
1C
102
{ACAD_REACTORS
330
1A
102
}
330
1A
100
AcDbXrecord
280
     1
270
     1
271
     1
  0
XRECORD
  5
1B
102
{ACAD_REACTORS
330
1A
102
}
330
1A
100
AcDbXrecord
280
     1
270
     1
271
     1
  0
XRECORD
  5
1F
102
{ACAD_REACTORS
330
1A
102
}
330
1A
100
AcDbXrecord
280
     1
270
     1
271
     1
  0
XRECORD
  5
1E
102
{ACAD_REACTORS
330
1A
102
}
330
1A
100
AcDbXrecord
280
     1
270
     1
271
     1
  0
XRECORD
  5
20
102
{ACAD_REACTORS
330
1A
102
}
330
1A
100
AcDbXrecord
280
     1
270
     1
271
     1
  0
XRECORD
  5
1D
102
{ACAD_REACTORS
330
1A
102
}
330
1A
100
AcDbXrecord
280
     1
270
     1
271
     1
  0
XRECORD
  5
14
102
{ACAD_REACTORS
330
12
102
}
330
12
100
AcDbXrecord
280
     1
270
     1
271
     1
  0
XRECORD
  5
13
102
{ACAD_REACTORS
330
12
102
}
330
12
100
AcDbXrecord
280
     1
270
     1
271
     1
  0
XRECORD
  5
17
102
{ACAD_REACTORS
330
12
102
}
330
12
100
AcDbXrecord
280
     1
270
     1
271
     1
  0
XRECORD
  5
16
102
{ACAD_REACTORS
330
12
102
}
330
12
100
AcDbXrecord
280
     1
270
     1
271
     1
  0
XRECORD
  5
18
102
{ACAD_REACTORS
330
12
102
}
330
12
100
AcDbXrecord
280
     1
270
     1
271
     1
  0
XRECORD
  5
15
102
{ACAD_REACTORS
330
12
102
}
330
12
100
AcDbXrecord
280
     1
270
     1
271
     1
  0
XRECORD
  5
24
102
{ACAD_REACTORS
330
22
102
}
330
22
100
AcDbXrecord
280
     1
270
     1
271
     1
  0
XRECORD
  5
23
102
{ACAD_REACTORS
330
22
102
}
330
22
100
AcDbXrecord
280
     1
270
     1
271
     1
  0
XRECORD
  5
27
102
{ACAD_REACTORS
330
22
102
}
330
22
100
AcDbXrecord
280
     1
270
     1
271
     1
  0
XRECORD
  5
26
102
{ACAD_REACTORS
330
22
102
}
330
22
100
AcDbXrecord
280
     1
270
     1
271
     1
  0
XRECORD
  5
28
102
{ACAD_REACTORS
330
22
102
}
330
22
100
AcDbXrecord
280
     1
270
     1
271
     1
  0
XRECORD
  5
25
102
{ACAD_REACTORS
330
22
102
}
330
22
100
AcDbXrecord
280
     1
270
     1
271
     1
  0
XRECORD
  5
123
102
{ACAD_REACTORS
330
122
102
}
330
122
100
AcDbXrecord
280
     1
102
ACAD_ROUNDTRIP_2012_MLEADER_STYLE
298
     1
  0
XRECORD
  5
125
102
{ACAD_REACTORS
330
124
102
}
330
124
100
AcDbXrecord
280
     1
102
DISPLAYNAME
  1
Imperial24
102
FLAGS
 90
        0
  0
CELLSTYLEMAP
  5
F0
102
{ACAD_REACTORS
330
EF
102
}
330
EF
100
AcDbCellStyleMap
 90
        3
300
CELLSTYLE
  1
TABLEFORMAT_BEGIN
 90
        5
170
     1
 91
        0
 92
    32768
 62
   257
 93
        1
300
CONTENTFORMAT
  1
CONTENTFORMAT_BEGIN
 90
        0
 91
        0
 92
      512
 93
        0
300

 40
0.0
140
1.0
 94
        5
 62
     0
340
55
144
0.25
309
CONTENTFORMAT_END
171
     0
 94
        0
309
TABLEFORMAT_END
  1
CELLSTYLE_BEGIN
 90
        1
 91
        1
300
_TITLE
309
CELLSTYLE_END
300
CELLSTYLE
  1
TABLEFORMAT_BEGIN
 90
        5
170
     1
 91
        0
 92
        0
 62
   257
 93
        1
300
CONTENTFORMAT
  1
CONTENTFORMAT_BEGIN
 90
        0
 91
        0
 92
      512
 93
        0
300

 40
0.0
140
1.0
 94
        5
 62
     0
340
55
144
0.18
309
CONTENTFORMAT_END
171
     0
 94
        0
309
TABLEFORMAT_END
  1
CELLSTYLE_BEGIN
 90
        2
 91
        1
300
_HEADER
309
CELLSTYLE_END
300
CELLSTYLE
  1
TABLEFORMAT_BEGIN
 90
        5
170
     1
 91
        0
 92
        0
 62
   257
 93
        1
300
CONTENTFORMAT
  1
CONTENTFORMAT_BEGIN
 90
        0
 91
        0
 92
      512
 93
        0
300

 40
0.0
140
1.0
 94
        2
 62
     0
340
55
144
0.18
309
CONTENTFORMAT_END
171
     0
 94
        0
309
TABLEFORMAT_END
  1
CELLSTYLE_BEGIN
 90
        3
 91
        2
300
_DATA
309
CELLSTYLE_END
  0
XRECORD
  5
FD
102
{ACAD_REACTORS
330
FC
102
}
330
FC
100
AcDbXrecord
280
     1
102
RTVSPost2010Prop28
280
     1
102
RTVSPost2010PropOp28
 70
     1
102
RTVSPost2010Prop29
280
     1
102
RTVSPost2010PropOp29
 70
     1
102
RTVSPost2010Prop30
280
     0
102
RTVSPost2010PropOp30
 70
     1
102
RTVSPost2010Prop31
280
     0
102
RTVSPost2010PropOp31
 70
     1
102
RTVSPost2010Prop32
280
     0
102
RTVSPost2010PropOp32
 70
     1
102
RTVSPost2010Prop33
280
     0
102
RTVSPost2010PropOp33
 70
     1
102
RTVSPost2010Prop34
280
     0
102
RTVSPost2010PropOp34
 70
     1
102
RTVSPost2010Prop35
280
     0
102
RTVSPost2010PropOp35
 70
     1
102
RTVSPost2010Prop36
280
     0
102
RTVSPost2010PropOp36
 70
     1
102
RTVSPost2010Prop37
 90
       50
102
RTVSPost2010PropOp37
 70
     1
102
RTVSPost2010Prop38
140
0.0
102
RTVSPost2010PropOp38
 70
     1
102
RTVSPost2010Prop39
140
1.0
102
RTVSPost2010PropOp39
 70
     1
102
RTVSPost2010Prop40
 90
        0
102
RTVSPost2010PropOp40
 70
     1
102
RTVSPost2010Prop41ColorIndex
 90
       18
102
RTVSPost2010Prop41ColorRGB
 90
        0
102
RTVSPost2010PropOp41
 70
     1
102
RTVSPost2010Prop42
 90
       50
102
RTVSPost2010PropOp42
 70
     1
102
RTVSPost2010Prop43
 90
        3
102
RTVSPost2010PropOp43
 70
     1
102
RTVSPost2010Prop44ColorIndex
 90
        5
102
RTVSPost2010Prop44ColorRGB
 90
      255
102
RTVSPost2010PropOp44
 70
     1
102
RTVSPost2010Prop45
280
     0
102
RTVSPost2010PropOp45
 70
     1
102
RTVSPost2010Prop46
 90
       50
102
RTVSPost2010PropOp46
 70
     1
102
RTVSPost2010Prop47
 90
       50
102
RTVSPost2010PropOp47
 70
     1
102
RTVSPost2010Prop48
 90
       50
102
RTVSPost2010PropOp48
 70
     1
102
RTVSPost2010Prop49
280
     0
102
RTVSPost2010PropOp49
 70
     1
102
RTVSPost2010Prop50
 90
       50
102
RTVSPost2010PropOp50
 70
     1
102
RTVSPost2010Prop51ColorIndex
 90
      256
102
RTVSPost2010Prop51ColorRGB
 90
-16777216
102
RTVSPost2010PropOp51
 70
     0
102
RTVSPost2010Prop52
140
1.0
102
RTVSPost2010PropOp52
 70
     0
102
RTVSPost2010Prop53
 90
        2
102
RTVSPost2010PropOp53
 70
     1
102
RTVSPost2010Prop54
  1
strokes_ogs.tif
102
RTVSPost2010PropOp54
 70
     1
102
RTVSPost2010Prop55
280
     0
102
RTVSPost2010PropOp55
 70
     1
102
RTVSPost2010Prop56
140
1.0
102
RTVSPost2010PropOp56
 70
     1
102
RTVSPost2010Prop57
140
1.0
102
RTVSPost2010PropOp57
 70
     1
  0
XRECORD
  5
FB
102
{ACAD_REACTORS
330
FA
102
}
330
FA
100
AcDbXrecord
280
     1
102
RTVSPost2010Prop28
280
     0
102
RTVSPost2010PropOp28
 70
     1
102
RTVSPost2010Prop29
280
     1
102
RTVSPost2010PropOp29
 70
     1
102
RTVSPost2010Prop30
280
     1
102
RTVSPost2010PropOp30
 70
     1
102
RTVSPost2010Prop31
280
     0
102
RTVSPost2010PropOp31
 70
     1
102
RTVSPost2010Prop32
280
     0
102
RTVSPost2010PropOp32
 70
     1
102
RTVSPost2010Prop33
280
     0
102
RTVSPost2010PropOp33
 70
     1
102
RTVSPost2010Prop34
280
     0
102
RTVSPost2010PropOp34
 70
     1
102
RTVSPost2010Prop35
280
     0
102
RTVSPost2010PropOp35
 70
     1
102
RTVSPost2010Prop36
280
     0
102
RTVSPost2010PropOp36
 70
     1
102
RTVSPost2010Prop37
 90
       50
102
RTVSPost2010PropOp37
 70
     1
102
RTVSPost2010Prop38
140
0.0
102
RTVSPost2010PropOp38
 70
     1
102
RTVSPost2010Prop39
140
1.0
102
RTVSPost2010PropOp39
 70
     1
102
RTVSPost2010Prop40
 90
        0
102
RTVSPost2010PropOp40
 70
     1
102
RTVSPost2010Prop41ColorIndex
 90
       18
102
RTVSPost2010Prop41ColorRGB
 90
        0
102
RTVSPost2010PropOp41
 70
     1
102
RTVSPost2010Prop42
 90
       50
102
RTVSPost2010PropOp42
 70
     1
102
RTVSPost2010Prop43
 90
        3
102
RTVSPost2010PropOp43
 70
     1
102
RTVSPost2010Prop44ColorIndex
 90
        5
102
RTVSPost2010Prop44ColorRGB
 90
      255
102
RTVSPost2010PropOp44
 70
     1
102
RTVSPost2010Prop45
280
     0
102
RTVSPost2010PropOp45
 70
     1
102
RTVSPost2010Prop46
 90
       50
102
RTVSPost2010PropOp46
 70
     1
102
RTVSPost2010Prop47
 90
       50
102
RTVSPost2010PropOp47
 70
     1
102
RTVSPost2010Prop48
 90
       50
102
RTVSPost2010PropOp48
 70
     1
102
RTVSPost2010Prop49
280
     0
102
RTVSPost2010PropOp49
 70
     1
102
RTVSPost2010Prop50
 90
       50
102
RTVSPost2010PropOp50
 70
     1
102
RTVSPost2010Prop51ColorIndex
 90
      256
102
RTVSPost2010Prop51ColorRGB
 90
-16777216
102
RTVSPost2010PropOp51
 70
     0
102
RTVSPost2010Prop52
140
1.0
102
RTVSPost2010PropOp52
 70
     0
102
RTVSPost2010Prop53
 90
        2
102
RTVSPost2010PropOp53
 70
     1
102
RTVSPost2010Prop54
  1
strokes_ogs.tif
102
RTVSPost2010PropOp54
 70
     1
102
RTVSPost2010Prop55
280
     0
102
RTVSPost2010PropOp55
 70
     1
102
RTVSPost2010Prop56
140
1.0
102
RTVSPost2010PropOp56
 70
     1
102
RTVSPost2010Prop57
140
1.0
102
RTVSPost2010PropOp57
 70
     1
  0
XRECORD
  5
109
102
{ACAD_REACTORS
330
108
102
}
330
108
100
AcDbXrecord
280
     1
102
RTVSPost2010Prop28
280
     0
102
RTVSPost2010PropOp28
 70
     1
102
RTVSPost2010Prop29
280
     1
102
RTVSPost2010PropOp29
 70
     1
102
RTVSPost2010Prop30
280
     1
102
RTVSPost2010PropOp30
 70
     1
102
RTVSPost2010Prop31
280
     0
102
RTVSPost2010PropOp31
 70
     1
102
RTVSPost2010Prop32
280
     0
102
RTVSPost2010PropOp32
 70
     1
102
RTVSPost2010Prop33
280
     0
102
RTVSPost2010PropOp33
 70
     1
102
RTVSPost2010Prop34
280
     0
102
RTVSPost2010PropOp34
 70
     1
102
RTVSPost2010Prop35
280
     0
102
RTVSPost2010PropOp35
 70
     1
102
RTVSPost2010Prop36
280
     0
102
RTVSPost2010PropOp36
 70
     1
102
RTVSPost2010Prop37
 90
       50
102
RTVSPost2010PropOp37
 70
     1
102
RTVSPost2010Prop38
140
0.0
102
RTVSPost2010PropOp38
 70
     1
102
RTVSPost2010Prop39
140
1.0
102
RTVSPost2010PropOp39
 70
     1
102
RTVSPost2010Prop40
 90
        0
102
RTVSPost2010PropOp40
 70
     1
102
RTVSPost2010Prop41ColorIndex
 90
       18
102
RTVSPost2010Prop41ColorRGB
 90
        0
102
RTVSPost2010PropOp41
 70
     1
102
RTVSPost2010Prop42
 90
       50
102
RTVSPost2010PropOp42
 70
     1
102
RTVSPost2010Prop43
 90
        3
102
RTVSPost2010PropOp43
 70
     1
102
RTVSPost2010Prop44ColorIndex
 90
        5
102
RTVSPost2010Prop44ColorRGB
 90
      255
102
RTVSPost2010PropOp44
 70
     1
102
RTVSPost2010Prop45
280
     0
102
RTVSPost2010PropOp45
 70
     1
102
RTVSPost2010Prop46
 90
       50
102
RTVSPost2010PropOp46
 70
     1
102
RTVSPost2010Prop47
 90
       50
102
RTVSPost2010PropOp47
 70
     1
102
RTVSPost2010Prop48
 90
       50
102
RTVSPost2010PropOp48
 70
     1
102
RTVSPost2010Prop49
280
     0
102
RTVSPost2010PropOp49
 70
     1
102
RTVSPost2010Prop50
 90
       50
102
RTVSPost2010PropOp50
 70
     1
102
RTVSPost2010Prop51ColorIndex
 90
      256
102
RTVSPost2010Prop51ColorRGB
 90
-16777216
102
RTVSPost2010PropOp51
 70
     0
102
RTVSPost2010Prop52
140
1.0
102
RTVSPost2010PropOp52
 70
     0
102
RTVSPost2010Prop53
 90
        2
102
RTVSPost2010PropOp53
 70
     1
102
RTVSPost2010Prop54
  1
strokes_ogs.tif
102
RTVSPost2010PropOp54
 70
     1
102
RTVSPost2010Prop55
280
     0
102
RTVSPost2010PropOp55
 70
     1
102
RTVSPost2010Prop56
140
1.0
102
RTVSPost2010PropOp56
 70
     1
102
RTVSPost2010Prop57
140
1.0
102
RTVSPost2010PropOp57
 70
     1
  0
XRECORD
  5
111
102
{ACAD_REACTORS
330
110
102
}
330
110
100
AcDbXrecord
280
     1
102
RTVSPost2010Prop28
280
     0
102
RTVSPost2010PropOp28
 70
     1
102
RTVSPost2010Prop29
280
     1
102
RTVSPost2010PropOp29
 70
     1
102
RTVSPost2010Prop30
280
     1
102
RTVSPost2010PropOp30
 70
     1
102
RTVSPost2010Prop31
280
     0
102
RTVSPost2010PropOp31
 70
     1
102
RTVSPost2010Prop32
280
     0
102
RTVSPost2010PropOp32
 70
     1
102
RTVSPost2010Prop33
280
     0
102
RTVSPost2010PropOp33
 70
     1
102
RTVSPost2010Prop34
280
     0
102
RTVSPost2010PropOp34
 70
     1
102
RTVSPost2010Prop35
280
     0
102
RTVSPost2010PropOp35
 70
     1
102
RTVSPost2010Prop36
280
     0
102
RTVSPost2010PropOp36
 70
     1
102
RTVSPost2010Prop37
 90
       50
102
RTVSPost2010PropOp37
 70
     1
102
RTVSPost2010Prop38
140
0.0
102
RTVSPost2010PropOp38
 70
     1
102
RTVSPost2010Prop39
140
1.0
102
RTVSPost2010PropOp39
 70
     1
102
RTVSPost2010Prop40
 90
        0
102
RTVSPost2010PropOp40
 70
     1
102
RTVSPost2010Prop41ColorIndex
 90
       18
102
RTVSPost2010Prop41ColorRGB
 90
        0
102
RTVSPost2010PropOp41
 70
     1
102
RTVSPost2010Prop42
 90
       50
102
RTVSPost2010PropOp42
 70
     1
102
RTVSPost2010Prop43
 90
        3
102
RTVSPost2010PropOp43
 70
     1
102
RTVSPost2010Prop44ColorIndex
 90
        5
102
RTVSPost2010Prop44ColorRGB
 90
      255
102
RTVSPost2010PropOp44
 70
     1
102
RTVSPost2010Prop45
280
     0
102
RTVSPost2010PropOp45
 70
     1
102
RTVSPost2010Prop46
 90
       50
102
RTVSPost2010PropOp46
 70
     1
102
RTVSPost2010Prop47
 90
       50
102
RTVSPost2010PropOp47
 70
     1
102
RTVSPost2010Prop48
 90
       50
102
RTVSPost2010PropOp48
 70
     1
102
RTVSPost2010Prop49
280
     0
102
RTVSPost2010PropOp49
 70
     1
102
RTVSPost2010Prop50
 90
       50
102
RTVSPost2010PropOp50
 70
     1
102
RTVSPost2010Prop51ColorIndex
 90
      256
102
RTVSPost2010Prop51ColorRGB
 90
-16777216
102
RTVSPost2010PropOp51
 70
     0
102
RTVSPost2010Prop52
140
1.0
102
RTVSPost2010PropOp52
 70
     0
102
RTVSPost2010Prop53
 90
        2
102
RTVSPost2010PropOp53
 70
     1
102
RTVSPost2010Prop54
  1
strokes_ogs.tif
102
RTVSPost2010PropOp54
 70
     1
102
RTVSPost2010Prop55
280
     0
102
RTVSPost2010PropOp55
 70
     1
102
RTVSPost2010Prop56
140
1.0
102
RTVSPost2010PropOp56
 70
     1
102
RTVSPost2010Prop57
140
1.0
102
RTVSPost2010PropOp57
 70
     1
  0
XRECORD
  5
103
102
{ACAD_REACTORS
330
102
102
}
330
102
100
AcDbXrecord
280
     1
102
RTVSPost2010Prop28
280
     0
102
RTVSPost2010PropOp28
 70
     1
102
RTVSPost2010Prop29
280
     1
102
RTVSPost2010PropOp29
 70
     1
102
RTVSPost2010Prop30
280
     1
102
RTVSPost2010PropOp30
 70
     1
102
RTVSPost2010Prop31
280
     0
102
RTVSPost2010PropOp31
 70
     1
102
RTVSPost2010Prop32
280
     0
102
RTVSPost2010PropOp32
 70
     1
102
RTVSPost2010Prop33
280
     0
102
RTVSPost2010PropOp33
 70
     1
102
RTVSPost2010Prop34
280
     0
102
RTVSPost2010PropOp34
 70
     1
102
RTVSPost2010Prop35
280
     0
102
RTVSPost2010PropOp35
 70
     1
102
RTVSPost2010Prop36
280
     0
102
RTVSPost2010PropOp36
 70
     1
102
RTVSPost2010Prop37
 90
       50
102
RTVSPost2010PropOp37
 70
     1
102
RTVSPost2010Prop38
140
0.0
102
RTVSPost2010PropOp38
 70
     1
102
RTVSPost2010Prop39
140
1.0
102
RTVSPost2010PropOp39
 70
     1
102
RTVSPost2010Prop40
 90
        0
102
RTVSPost2010PropOp40
 70
     1
102
RTVSPost2010Prop41ColorIndex
 90
       18
102
RTVSPost2010Prop41ColorRGB
 90
        0
102
RTVSPost2010PropOp41
 70
     1
102
RTVSPost2010Prop42
 90
       50
102
RTVSPost2010PropOp42
 70
     1
102
RTVSPost2010Prop43
 90
        3
102
RTVSPost2010PropOp43
 70
     1
102
RTVSPost2010Prop44ColorIndex
 90
        5
102
RTVSPost2010Prop44ColorRGB
 90
      255
102
RTVSPost2010PropOp44
 70
     1
102
RTVSPost2010Prop45
280
     0
102
RTVSPost2010PropOp45
 70
     1
102
RTVSPost2010Prop46
 90
       50
102
RTVSPost2010PropOp46
 70
     1
102
RTVSPost2010Prop47
 90
       50
102
RTVSPost2010PropOp47
 70
     1
102
RTVSPost2010Prop48
 90
       50
102
RTVSPost2010PropOp48
 70
     1
102
RTVSPost2010Prop49
280
     0
102
RTVSPost2010PropOp49
 70
     1
102
RTVSPost2010Prop50
 90
       50
102
RTVSPost2010PropOp50
 70
     1
102
RTVSPost2010Prop51ColorIndex
 90
      256
102
RTVSPost2010Prop51ColorRGB
 90
-16777216
102
RTVSPost2010PropOp51
 70
     0
102
RTVSPost2010Prop52
140
1.0
102
RTVSPost2010PropOp52
 70
     0
102
RTVSPost2010Prop53
 90
        2
102
RTVSPost2010PropOp53
 70
     1
102
RTVSPost2010Prop54
  1
strokes_ogs.tif
102
RTVSPost2010PropOp54
 70
     1
102
RTVSPost2010Prop55
280
     0
102
RTVSPost2010PropOp55
 70
     1
102
RTVSPost2010Prop56
140
1.0
102
RTVSPost2010PropOp56
 70
     1
102
RTVSPost2010Prop57
140
1.0
102
RTVSPost2010PropOp57
 70
     1
  0
XRECORD
  5
107
102
{ACAD_REACTORS
330
106
102
}
330
106
100
AcDbXrecord
280
     1
102
RTVSPost2010Prop28
280
     0
102
RTVSPost2010PropOp28
 70
     1
102
RTVSPost2010Prop29
280
     1
102
RTVSPost2010PropOp29
 70
     1
102
RTVSPost2010Prop30
280
     1
102
RTVSPost2010PropOp30
 70
     1
102
RTVSPost2010Prop31
280
     0
102
RTVSPost2010PropOp31
 70
     1
102
RTVSPost2010Prop32
280
     0
102
RTVSPost2010PropOp32
 70
     1
102
RTVSPost2010Prop33
280
     0
102
RTVSPost2010PropOp33
 70
     1
102
RTVSPost2010Prop34
280
     0
102
RTVSPost2010PropOp34
 70
     1
102
RTVSPost2010Prop35
280
     0
102
RTVSPost2010PropOp35
 70
     1
102
RTVSPost2010Prop36
280
     0
102
RTVSPost2010PropOp36
 70
     1
102
RTVSPost2010Prop37
 90
       50
102
RTVSPost2010PropOp37
 70
     1
102
RTVSPost2010Prop38
140
0.0
102
RTVSPost2010PropOp38
 70
     1
102
RTVSPost2010Prop39
140
1.0
102
RTVSPost2010PropOp39
 70
     1
102
RTVSPost2010Prop40
 90
        0
102
RTVSPost2010PropOp40
 70
     1
102
RTVSPost2010Prop41ColorIndex
 90
       18
102
RTVSPost2010Prop41ColorRGB
 90
        0
102
RTVSPost2010PropOp41
 70
     1
102
RTVSPost2010Prop42
 90
       50
102
RTVSPost2010PropOp42
 70
     1
102
RTVSPost2010Prop43
 90
        3
102
RTVSPost2010PropOp43
 70
     1
102
RTVSPost2010Prop44ColorIndex
 90
        5
102
RTVSPost2010Prop44ColorRGB
 90
      255
102
RTVSPost2010PropOp44
 70
     1
102
RTVSPost2010Prop45
280
     0
102
RTVSPost2010PropOp45
 70
     1
102
RTVSPost2010Prop46
 90
       50
102
RTVSPost2010PropOp46
 70
     1
102
RTVSPost2010Prop47
 90
       50
102
RTVSPost2010PropOp47
 70
     1
102
RTVSPost2010Prop48
 90
       50
102
RTVSPost2010PropOp48
 70
     1
102
RTVSPost2010Prop49
280
     0
102
RTVSPost2010PropOp49
 70
     1
102
RTVSPost2010Prop50
 90
       50
102
RTVSPost2010PropOp50
 70
     1
102
RTVSPost2010Prop51ColorIndex
 90
      256
102
RTVSPost2010Prop51ColorRGB
 90
-16777216
102
RTVSPost2010PropOp51
 70
     0
102
RTVSPost2010Prop52
140
1.0
102
RTVSPost2010PropOp52
 70
     0
102
RTVSPost2010Prop53
 90
        2
102
RTVSPost2010PropOp53
 70
     1
102
RTVSPost2010Prop54
  1
strokes_ogs.tif
102
RTVSPost2010PropOp54
 70
     1
102
RTVSPost2010Prop55
280
     0
102
RTVSPost2010PropOp55
 70
     1
102
RTVSPost2010Prop56
140
1.0
102
RTVSPost2010PropOp56
 70
     1
102
RTVSPost2010Prop57
140
1.0
102
RTVSPost2010PropOp57
 70
     1
  0
XRECORD
  5
121
102
{ACAD_REACTORS
330
120
102
}
330
120
100
AcDbXrecord
280
     1
102
RTVSPost2010Prop28
280
     0
102
RTVSPost2010PropOp28
 70
     0
102
RTVSPost2010Prop29
280
     1
102
RTVSPost2010PropOp29
 70
     0
102
RTVSPost2010Prop30
280
     1
102
RTVSPost2010PropOp30
 70
     0
102
RTVSPost2010Prop31
280
     0
102
RTVSPost2010PropOp31
 70
     0
102
RTVSPost2010Prop32
280
     0
102
RTVSPost2010PropOp32
 70
     0
102
RTVSPost2010Prop33
280
     0
102
RTVSPost2010PropOp33
 70
     0
102
RTVSPost2010Prop34
280
     0
102
RTVSPost2010PropOp34
 70
     0
102
RTVSPost2010Prop35
280
     0
102
RTVSPost2010PropOp35
 70
     0
102
RTVSPost2010Prop36
280
     0
102
RTVSPost2010PropOp36
 70
     0
102
RTVSPost2010Prop37
 90
       50
102
RTVSPost2010PropOp37
 70
     0
102
RTVSPost2010Prop38
140
0.0
102
RTVSPost2010PropOp38
 70
     0
102
RTVSPost2010Prop39
140
1.0
102
RTVSPost2010PropOp39
 70
     0
102
RTVSPost2010Prop40
 90
        0
102
RTVSPost2010PropOp40
 70
     0
102
RTVSPost2010Prop41ColorIndex
 90
       18
102
RTVSPost2010Prop41ColorRGB
 90
        0
102
RTVSPost2010PropOp41
 70
     0
102
RTVSPost2010Prop42
 90
       50
102
RTVSPost2010PropOp42
 70
     0
102
RTVSPost2010Prop43
 90
        3
102
RTVSPost2010PropOp43
 70
     0
102
RTVSPost2010Prop44ColorIndex
 90
        5
102
RTVSPost2010Prop44ColorRGB
 90
      255
102
RTVSPost2010PropOp44
 70
     0
102
RTVSPost2010Prop45
280
     0
102
RTVSPost2010PropOp45
 70
     0
102
RTVSPost2010Prop46
 90
       50
102
RTVSPost2010PropOp46
 70
     0
102
RTVSPost2010Prop47
 90
       50
102
RTVSPost2010PropOp47
 70
     0
102
RTVSPost2010Prop48
 90
       50
102
RTVSPost2010PropOp48
 70
     0
102
RTVSPost2010Prop49
280
     0
102
RTVSPost2010PropOp49
 70
     0
102
RTVSPost2010Prop50
 90
       50
102
RTVSPost2010PropOp50
 70
     0
102
RTVSPost2010Prop51ColorIndex
 90
      256
102
RTVSPost2010Prop51ColorRGB
 90
-16777216
102
RTVSPost2010PropOp51
 70
     0
102
RTVSPost2010Prop52
140
1.0
102
RTVSPost2010PropOp52
 70
     0
102
RTVSPost2010Prop53
 90
        2
102
RTVSPost2010PropOp53
 70
     0
102
RTVSPost2010Prop54
  1
strokes_ogs.tif
102
RTVSPost2010PropOp54
 70
     0
102
RTVSPost2010Prop55
280
     0
102
RTVSPost2010PropOp55
 70
     0
102
RTVSPost2010Prop56
140
1.0
102
RTVSPost2010PropOp56
 70
     0
102
RTVSPost2010Prop57
140
1.0
102
RTVSPost2010PropOp57
 70
     0
  0
XRECORD
  5
10F
102
{ACAD_REACTORS
330
10E
102
}
330
10E
100
AcDbXrecord
280
     1
102
RTVSPost2010Prop28
280
     0
102
RTVSPost2010PropOp28
 70
     1
102
RTVSPost2010Prop29
280
     1
102
RTVSPost2010PropOp29
 70
     1
102
RTVSPost2010Prop30
280
     1
102
RTVSPost2010PropOp30
 70
     1
102
RTVSPost2010Prop31
280
     0
102
RTVSPost2010PropOp31
 70
     1
102
RTVSPost2010Prop32
280
     0
102
RTVSPost2010PropOp32
 70
     1
102
RTVSPost2010Prop33
280
     0
102
RTVSPost2010PropOp33
 70
     1
102
RTVSPost2010Prop34
280
     0
102
RTVSPost2010PropOp34
 70
     1
102
RTVSPost2010Prop35
280
     0
102
RTVSPost2010PropOp35
 70
     1
102
RTVSPost2010Prop36
280
     0
102
RTVSPost2010PropOp36
 70
     1
102
RTVSPost2010Prop37
 90
       50
102
RTVSPost2010PropOp37
 70
     1
102
RTVSPost2010Prop38
140
0.0
102
RTVSPost2010PropOp38
 70
     1
102
RTVSPost2010Prop39
140
1.0
102
RTVSPost2010PropOp39
 70
     1
102
RTVSPost2010Prop40
 90
        0
102
RTVSPost2010PropOp40
 70
     1
102
RTVSPost2010Prop41ColorIndex
 90
       18
102
RTVSPost2010Prop41ColorRGB
 90
        0
102
RTVSPost2010PropOp41
 70
     1
102
RTVSPost2010Prop42
 90
       50
102
RTVSPost2010PropOp42
 70
     1
102
RTVSPost2010Prop43
 90
        3
102
RTVSPost2010PropOp43
 70
     1
102
RTVSPost2010Prop44ColorIndex
 90
        5
102
RTVSPost2010Prop44ColorRGB
 90
      255
102
RTVSPost2010PropOp44
 70
     1
102
RTVSPost2010Prop45
280
     0
102
RTVSPost2010PropOp45
 70
     1
102
RTVSPost2010Prop46
 90
       50
102
RTVSPost2010PropOp46
 70
     1
102
RTVSPost2010Prop47
 90
       50
102
RTVSPost2010PropOp47
 70
     1
102
RTVSPost2010Prop48
 90
       50
102
RTVSPost2010PropOp48
 70
     1
102
RTVSPost2010Prop49
280
     0
102
RTVSPost2010PropOp49
 70
     1
102
RTVSPost2010Prop50
 90
       50
102
RTVSPost2010PropOp50
 70
     1
102
RTVSPost2010Prop51ColorIndex
 90
      256
102
RTVSPost2010Prop51ColorRGB
 90
-16777216
102
RTVSPost2010PropOp51
 70
     0
102
RTVSPost2010Prop52
140
1.0
102
RTVSPost2010PropOp52
 70
     0
102
RTVSPost2010Prop53
 90
        2
102
RTVSPost2010PropOp53
 70
     1
102
RTVSPost2010Prop54
  1
strokes_ogs.tif
102
RTVSPost2010PropOp54
 70
     1
102
RTVSPost2010Prop55
280
     0
102
RTVSPost2010PropOp55
 70
     1
102
RTVSPost2010Prop56
140
1.0
102
RTVSPost2010PropOp56
 70
     1
102
RTVSPost2010Prop57
140
1.0
102
RTVSPost2010PropOp57
 70
     1
  0
XRECORD
  5
F3
102
{ACAD_REACTORS
330
F2
102
}
330
F2
100
AcDbXrecord
280
     1
102
RTVSPost2010Prop28
280
     0
102
RTVSPost2010PropOp28
 70
     1
102
RTVSPost2010Prop29
280
     1
102
RTVSPost2010PropOp29
 70
     1
102
RTVSPost2010Prop30
280
     1
102
RTVSPost2010PropOp30
 70
     1
102
RTVSPost2010Prop31
280
     0
102
RTVSPost2010PropOp31
 70
     1
102
RTVSPost2010Prop32
280
     0
102
RTVSPost2010PropOp32
 70
     1
102
RTVSPost2010Prop33
280
     0
102
RTVSPost2010PropOp33
 70
     1
102
RTVSPost2010Prop34
280
     0
102
RTVSPost2010PropOp34
 70
     1
102
RTVSPost2010Prop35
280
     0
102
RTVSPost2010PropOp35
 70
     1
102
RTVSPost2010Prop36
280
     0
102
RTVSPost2010PropOp36
 70
     1
102
RTVSPost2010Prop37
 90
       50
102
RTVSPost2010PropOp37
 70
     1
102
RTVSPost2010Prop38
140
0.0
102
RTVSPost2010PropOp38
 70
     1
102
RTVSPost2010Prop39
140
1.0
102
RTVSPost2010PropOp39
 70
     1
102
RTVSPost2010Prop40
 90
        0
102
RTVSPost2010PropOp40
 70
     1
102
RTVSPost2010Prop41ColorIndex
 90
       18
102
RTVSPost2010Prop41ColorRGB
 90
        0
102
RTVSPost2010PropOp41
 70
     1
102
RTVSPost2010Prop42
 90
       50
102
RTVSPost2010PropOp42
 70
     1
102
RTVSPost2010Prop43
 90
        3
102
RTVSPost2010PropOp43
 70
     1
102
RTVSPost2010Prop44ColorIndex
 90
        5
102
RTVSPost2010Prop44ColorRGB
 90
      255
102
RTVSPost2010PropOp44
 70
     1
102
RTVSPost2010Prop45
280
     0
102
RTVSPost2010PropOp45
 70
     1
102
RTVSPost2010Prop46
 90
       50
102
RTVSPost2010PropOp46
 70
     1
102
RTVSPost2010Prop47
 90
       50
102
RTVSPost2010PropOp47
 70
     1
102
RTVSPost2010Prop48
 90
       50
102
RTVSPost2010PropOp48
 70
     1
102
RTVSPost2010Prop49
280
     0
102
RTVSPost2010PropOp49
 70
     1
102
RTVSPost2010Prop50
 90
       50
102
RTVSPost2010PropOp50
 70
     1
102
RTVSPost2010Prop51ColorIndex
 90
      256
102
RTVSPost2010Prop51ColorRGB
 90
-16777216
102
RTVSPost2010PropOp51
 70
     0
102
RTVSPost2010Prop52
140
1.0
102
RTVSPost2010PropOp52
 70
     0
102
RTVSPost2010Prop53
 90
        2
102
RTVSPost2010PropOp53
 70
     1
102
RTVSPost2010Prop54
  1
strokes_ogs.tif
102
RTVSPost2010PropOp54
 70
     1
102
RTVSPost2010Prop55
280
     0
102
RTVSPost2010PropOp55
 70
     1
102
RTVSPost2010Prop56
140
1.0
102
RTVSPost2010PropOp56
 70
     1
102
RTVSPost2010Prop57
140
1.0
102
RTVSPost2010PropOp57
 70
     1
  0
XRECORD
  5
F5
102
{ACAD_REACTORS
330
F4
102
}
330
F4
100
AcDbXrecord
280
     1
102
RTVSPost2010Prop28
280
     0
102
RTVSPost2010PropOp28
 70
     1
102
RTVSPost2010Prop29
280
     1
102
RTVSPost2010PropOp29
 70
     1
102
RTVSPost2010Prop30
280
     1
102
RTVSPost2010PropOp30
 70
     1
102
RTVSPost2010Prop31
280
     0
102
RTVSPost2010PropOp31
 70
     1
102
RTVSPost2010Prop32
280
     0
102
RTVSPost2010PropOp32
 70
     1
102
RTVSPost2010Prop33
280
     0
102
RTVSPost2010PropOp33
 70
     1
102
RTVSPost2010Prop34
280
     0
102
RTVSPost2010PropOp34
 70
     1
102
RTVSPost2010Prop35
280
     0
102
RTVSPost2010PropOp35
 70
     1
102
RTVSPost2010Prop36
280
     0
102
RTVSPost2010PropOp36
 70
     1
102
RTVSPost2010Prop37
 90
       50
102
RTVSPost2010PropOp37
 70
     1
102
RTVSPost2010Prop38
140
0.0
102
RTVSPost2010PropOp38
 70
     1
102
RTVSPost2010Prop39
140
1.0
102
RTVSPost2010PropOp39
 70
     1
102
RTVSPost2010Prop40
 90
        0
102
RTVSPost2010PropOp40
 70
     1
102
RTVSPost2010Prop41ColorIndex
 90
       18
102
RTVSPost2010Prop41ColorRGB
 90
        0
102
RTVSPost2010PropOp41
 70
     1
102
RTVSPost2010Prop42
 90
       50
102
RTVSPost2010PropOp42
 70
     1
102
RTVSPost2010Prop43
 90
        3
102
RTVSPost2010PropOp43
 70
     1
102
RTVSPost2010Prop44ColorIndex
 90
        5
102
RTVSPost2010Prop44ColorRGB
 90
      255
102
RTVSPost2010PropOp44
 70
     1
102
RTVSPost2010Prop45
280
     0
102
RTVSPost2010PropOp45
 70
     1
102
RTVSPost2010Prop46
 90
       50
102
RTVSPost2010PropOp46
 70
     1
102
RTVSPost2010Prop47
 90
       50
102
RTVSPost2010PropOp47
 70
     1
102
RTVSPost2010Prop48
 90
       50
102
RTVSPost2010PropOp48
 70
     1
102
RTVSPost2010Prop49
280
     0
102
RTVSPost2010PropOp49
 70
     1
102
RTVSPost2010Prop50
 90
       50
102
RTVSPost2010PropOp50
 70
     1
102
RTVSPost2010Prop51ColorIndex
 90
      256
102
RTVSPost2010Prop51ColorRGB
 90
-16777216
102
RTVSPost2010PropOp51
 70
     0
102
RTVSPost2010Prop52
140
1.0
102
RTVSPost2010PropOp52
 70
     0
102
RTVSPost2010Prop53
 90
        2
102
RTVSPost2010PropOp53
 70
     1
102
RTVSPost2010Prop54
  1
strokes_ogs.tif
102
RTVSPost2010PropOp54
 70
     1
102
RTVSPost2010Prop55
280
     0
102
RTVSPost2010PropOp55
 70
     1
102
RTVSPost2010Prop56
140
1.0
102
RTVSPost2010PropOp56
 70
     1
102
RTVSPost2010Prop57
140
1.0
102
RTVSPost2010PropOp57
 70
     1
  0
XRECORD
  5
F7
102
{ACAD_REACTORS
330
F6
102
}
330
F6
100
AcDbXrecord
280
     1
102
RTVSPost2010Prop28
280
     0
102
RTVSPost2010PropOp28
 70
     1
102
RTVSPost2010Prop29
280
     1
102
RTVSPost2010PropOp29
 70
     1
102
RTVSPost2010Prop30
280
     1
102
RTVSPost2010PropOp30
 70
     1
102
RTVSPost2010Prop31
280
     0
102
RTVSPost2010PropOp31
 70
     1
102
RTVSPost2010Prop32
280
     0
102
RTVSPost2010PropOp32
 70
     1
102
RTVSPost2010Prop33
280
     0
102
RTVSPost2010PropOp33
 70
     1
102
RTVSPost2010Prop34
280
     0
102
RTVSPost2010PropOp34
 70
     1
102
RTVSPost2010Prop35
280
     0
102
RTVSPost2010PropOp35
 70
     1
102
RTVSPost2010Prop36
280
     0
102
RTVSPost2010PropOp36
 70
     1
102
RTVSPost2010Prop37
 90
       50
102
RTVSPost2010PropOp37
 70
     1
102
RTVSPost2010Prop38
140
0.0
102
RTVSPost2010PropOp38
 70
     1
102
RTVSPost2010Prop39
140
1.0
102
RTVSPost2010PropOp39
 70
     1
102
RTVSPost2010Prop40
 90
        0
102
RTVSPost2010PropOp40
 70
     1
102
RTVSPost2010Prop41ColorIndex
 90
       18
102
RTVSPost2010Prop41ColorRGB
 90
        0
102
RTVSPost2010PropOp41
 70
     1
102
RTVSPost2010Prop42
 90
       50
102
RTVSPost2010PropOp42
 70
     1
102
RTVSPost2010Prop43
 90
        3
102
RTVSPost2010PropOp43
 70
     1
102
RTVSPost2010Prop44ColorIndex
 90
        5
102
RTVSPost2010Prop44ColorRGB
 90
      255
102
RTVSPost2010PropOp44
 70
     1
102
RTVSPost2010Prop45
280
     0
102
RTVSPost2010PropOp45
 70
     1
102
RTVSPost2010Prop46
 90
       50
102
RTVSPost2010PropOp46
 70
     1
102
RTVSPost2010Prop47
 90
       50
102
RTVSPost2010PropOp47
 70
     1
102
RTVSPost2010Prop48
 90
       50
102
RTVSPost2010PropOp48
 70
     1
102
RTVSPost2010Prop49
280
     0
102
RTVSPost2010PropOp49
 70
     1
102
RTVSPost2010Prop50
 90
       50
102
RTVSPost2010PropOp50
 70
     1
102
RTVSPost2010Prop51ColorIndex
 90
      256
102
RTVSPost2010Prop51ColorRGB
 90
-16777216
102
RTVSPost2010PropOp51
 70
     0
102
RTVSPost2010Prop52
140
1.0
102
RTVSPost2010PropOp52
 70
     0
102
RTVSPost2010Prop53
 90
        2
102
RTVSPost2010PropOp53
 70
     1
102
RTVSPost2010Prop54
  1
strokes_ogs.tif
102
RTVSPost2010PropOp54
 70
     1
102
RTVSPost2010Prop55
280
     0
102
RTVSPost2010PropOp55
 70
     1
102
RTVSPost2010Prop56
140
1.0
102
RTVSPost2010PropOp56
 70
     1
102
RTVSPost2010Prop57
140
1.0
102
RTVSPost2010PropOp57
 70
     1
  0
XRECORD
  5
F9
102
{ACAD_REACTORS
330
F8
102
}
330
F8
100
AcDbXrecord
280
     1
102
RTVSPost2010Prop28
280
     0
102
RTVSPost2010PropOp28
 70
     1
102
RTVSPost2010Prop29
280
     1
102
RTVSPost2010PropOp29
 70
     1
102
RTVSPost2010Prop30
280
     1
102
RTVSPost2010PropOp30
 70
     1
102
RTVSPost2010Prop31
280
     0
102
RTVSPost2010PropOp31
 70
     1
102
RTVSPost2010Prop32
280
     0
102
RTVSPost2010PropOp32
 70
     1
102
RTVSPost2010Prop33
280
     0
102
RTVSPost2010PropOp33
 70
     1
102
RTVSPost2010Prop34
280
     0
102
RTVSPost2010PropOp34
 70
     1
102
RTVSPost2010Prop35
280
     0
102
RTVSPost2010PropOp35
 70
     1
102
RTVSPost2010Prop36
280
     0
102
RTVSPost2010PropOp36
 70
     1
102
RTVSPost2010Prop37
 90
       50
102
RTVSPost2010PropOp37
 70
     1
102
RTVSPost2010Prop38
140
0.0
102
RTVSPost2010PropOp38
 70
     1
102
RTVSPost2010Prop39
140
1.0
102
RTVSPost2010PropOp39
 70
     1
102
RTVSPost2010Prop40
 90
        0
102
RTVSPost2010PropOp40
 70
     1
102
RTVSPost2010Prop41ColorIndex
 90
       18
102
RTVSPost2010Prop41ColorRGB
 90
        0
102
RTVSPost2010PropOp41
 70
     1
102
RTVSPost2010Prop42
 90
       50
102
RTVSPost2010PropOp42
 70
     1
102
RTVSPost2010Prop43
 90
        3
102
RTVSPost2010PropOp43
 70
     1
102
RTVSPost2010Prop44ColorIndex
 90
        5
102
RTVSPost2010Prop44ColorRGB
 90
      255
102
RTVSPost2010PropOp44
 70
     1
102
RTVSPost2010Prop45
280
     0
102
RTVSPost2010PropOp45
 70
     1
102
RTVSPost2010Prop46
 90
       50
102
RTVSPost2010PropOp46
 70
     1
102
RTVSPost2010Prop47
 90
       50
102
RTVSPost2010PropOp47
 70
     1
102
RTVSPost2010Prop48
 90
       50
102
RTVSPost2010PropOp48
 70
     1
102
RTVSPost2010Prop49
280
     0
102
RTVSPost2010PropOp49
 70
     1
102
RTVSPost2010Prop50
 90
       50
102
RTVSPost2010PropOp50
 70
     1
102
RTVSPost2010Prop51ColorIndex
 90
      256
102
RTVSPost2010Prop51ColorRGB
 90
-16777216
102
RTVSPost2010PropOp51
 70
     0
102
RTVSPost2010Prop52
140
1.0
102
RTVSPost2010PropOp52
 70
     0
102
RTVSPost2010Prop53
 90
        2
102
RTVSPost2010PropOp53
 70
     1
102
RTVSPost2010Prop54
  1
strokes_ogs.tif
102
RTVSPost2010PropOp54
 70
     1
102
RTVSPost2010Prop55
280
     0
102
RTVSPost2010PropOp55
 70
     1
102
RTVSPost2010Prop56
140
1.0
102
RTVSPost2010PropOp56
 70
     1
102
RTVSPost2010Prop57
140
1.0
102
RTVSPost2010PropOp57
 70
     1
  0
XRECORD
  5
101
102
{ACAD_REACTORS
330
100
102
}
330
100
100
AcDbXrecord
280
     1
102
RTVSPost2010Prop28
280
     0
102
RTVSPost2010PropOp28
 70
     1
102
RTVSPost2010Prop29
280
     1
102
RTVSPost2010PropOp29
 70
     1
102
RTVSPost2010Prop30
280
     1
102
RTVSPost2010PropOp30
 70
     1
102
RTVSPost2010Prop31
280
     0
102
RTVSPost2010PropOp31
 70
     1
102
RTVSPost2010Prop32
280
     0
102
RTVSPost2010PropOp32
 70
     1
102
RTVSPost2010Prop33
280
     0
102
RTVSPost2010PropOp33
 70
     1
102
RTVSPost2010Prop34
280
     0
102
RTVSPost2010PropOp34
 70
     1
102
RTVSPost2010Prop35
280
     0
102
RTVSPost2010PropOp35
 70
     1
102
RTVSPost2010Prop36
280
     0
102
RTVSPost2010PropOp36
 70
     1
102
RTVSPost2010Prop37
 90
       50
102
RTVSPost2010PropOp37
 70
     1
102
RTVSPost2010Prop38
140
0.0
102
RTVSPost2010PropOp38
 70
     1
102
RTVSPost2010Prop39
140
1.0
102
RTVSPost2010PropOp39
 70
     1
102
RTVSPost2010Prop40
 90
        0
102
RTVSPost2010PropOp40
 70
     1
102
RTVSPost2010Prop41ColorIndex
 90
       18
102
RTVSPost2010Prop41ColorRGB
 90
        0
102
RTVSPost2010PropOp41
 70
     1
102
RTVSPost2010Prop42
 90
       50
102
RTVSPost2010PropOp42
 70
     1
102
RTVSPost2010Prop43
 90
        3
102
RTVSPost2010PropOp43
 70
     1
102
RTVSPost2010Prop44ColorIndex
 90
        5
102
RTVSPost2010Prop44ColorRGB
 90
      255
102
RTVSPost2010PropOp44
 70
     1
102
RTVSPost2010Prop45
280
     0
102
RTVSPost2010PropOp45
 70
     1
102
RTVSPost2010Prop46
 90
       50
102
RTVSPost2010PropOp46
 70
     1
102
RTVSPost2010Prop47
 90
       50
102
RTVSPost2010PropOp47
 70
     1
102
RTVSPost2010Prop48
 90
       50
102
RTVSPost2010PropOp48
 70
     1
102
RTVSPost2010Prop49
280
     0
102
RTVSPost2010PropOp49
 70
     1
102
RTVSPost2010Prop50
 90
       50
102
RTVSPost2010PropOp50
 70
     1
102
RTVSPost2010Prop51ColorIndex
 90
      256
102
RTVSPost2010Prop51ColorRGB
 90
-16777216
102
RTVSPost2010PropOp51
 70
     0
102
RTVSPost2010Prop52
140
1.0
102
RTVSPost2010PropOp52
 70
     0
102
RTVSPost2010Prop53
 90
        2
102
RTVSPost2010PropOp53
 70
     1
102
RTVSPost2010Prop54
  1
strokes_ogs.tif
102
RTVSPost2010PropOp54
 70
     1
102
RTVSPost2010Prop55
280
     0
102
RTVSPost2010PropOp55
 70
     1
102
RTVSPost2010Prop56
140
1.0
102
RTVSPost2010PropOp56
 70
     1
102
RTVSPost2010Prop57
140
1.0
102
RTVSPost2010PropOp57
 70
     1
  0
XRECORD
  5
11D
102
{ACAD_REACTORS
330
11C
102
}
330
11C
100
AcDbXrecord
280
     1
102
RTVSPost2010Prop28
280
     0
102
RTVSPost2010PropOp28
 70
     0
102
RTVSPost2010Prop29
280
     1
102
RTVSPost2010PropOp29
 70
     0
102
RTVSPost2010Prop30
280
     1
102
RTVSPost2010PropOp30
 70
     0
102
RTVSPost2010Prop31
280
     0
102
RTVSPost2010PropOp31
 70
     0
102
RTVSPost2010Prop32
280
     0
102
RTVSPost2010PropOp32
 70
     0
102
RTVSPost2010Prop33
280
     0
102
RTVSPost2010PropOp33
 70
     0
102
RTVSPost2010Prop34
280
     0
102
RTVSPost2010PropOp34
 70
     0
102
RTVSPost2010Prop35
280
     0
102
RTVSPost2010PropOp35
 70
     0
102
RTVSPost2010Prop36
280
     0
102
RTVSPost2010PropOp36
 70
     0
102
RTVSPost2010Prop37
 90
       50
102
RTVSPost2010PropOp37
 70
     0
102
RTVSPost2010Prop38
140
0.0
102
RTVSPost2010PropOp38
 70
     0
102
RTVSPost2010Prop39
140
1.0
102
RTVSPost2010PropOp39
 70
     0
102
RTVSPost2010Prop40
 90
        0
102
RTVSPost2010PropOp40
 70
     0
102
RTVSPost2010Prop41ColorIndex
 90
       18
102
RTVSPost2010Prop41ColorRGB
 90
        0
102
RTVSPost2010PropOp41
 70
     0
102
RTVSPost2010Prop42
 90
       50
102
RTVSPost2010PropOp42
 70
     0
102
RTVSPost2010Prop43
 90
        3
102
RTVSPost2010PropOp43
 70
     0
102
RTVSPost2010Prop44ColorIndex
 90
        5
102
RTVSPost2010Prop44ColorRGB
 90
      255
102
RTVSPost2010PropOp44
 70
     0
102
RTVSPost2010Prop45
280
     0
102
RTVSPost2010PropOp45
 70
     0
102
RTVSPost2010Prop46
 90
       50
102
RTVSPost2010PropOp46
 70
     0
102
RTVSPost2010Prop47
 90
       50
102
RTVSPost2010PropOp47
 70
     0
102
RTVSPost2010Prop48
 90
       50
102
RTVSPost2010PropOp48
 70
     0
102
RTVSPost2010Prop49
280
     0
102
RTVSPost2010PropOp49
 70
     0
102
RTVSPost2010Prop50
 90
       50
102
RTVSPost2010PropOp50
 70
     0
102
RTVSPost2010Prop51ColorIndex
 90
      256
102
RTVSPost2010Prop51ColorRGB
 90
-16777216
102
RTVSPost2010PropOp51
 70
     0
102
RTVSPost2010Prop52
140
1.0
102
RTVSPost2010PropOp52
 70
     0
102
RTVSPost2010Prop53
 90
        2
102
RTVSPost2010PropOp53
 70
     0
102
RTVSPost2010Prop54
  1
strokes_ogs.tif
102
RTVSPost2010PropOp54
 70
     0
102
RTVSPost2010Prop55
280
     0
102
RTVSPost2010PropOp55
 70
     0
102
RTVSPost2010Prop56
140
1.0
102
RTVSPost2010PropOp56
 70
     0
102
RTVSPost2010Prop57
140
1.0
102
RTVSPost2010PropOp57
 70
     0
  0
XRECORD
  5
10D
102
{ACAD_REACTORS
330
10C
102
}
330
10C
100
AcDbXrecord
280
     1
102
RTVSPost2010Prop28
280
     0
102
RTVSPost2010PropOp28
 70
     1
102
RTVSPost2010Prop29
280
     1
102
RTVSPost2010PropOp29
 70
     1
102
RTVSPost2010Prop30
280
     1
102
RTVSPost2010PropOp30
 70
     1
102
RTVSPost2010Prop31
280
     0
102
RTVSPost2010PropOp31
 70
     1
102
RTVSPost2010Prop32
280
     0
102
RTVSPost2010PropOp32
 70
     1
102
RTVSPost2010Prop33
280
     0
102
RTVSPost2010PropOp33
 70
     1
102
RTVSPost2010Prop34
280
     0
102
RTVSPost2010PropOp34
 70
     1
102
RTVSPost2010Prop35
280
     0
102
RTVSPost2010PropOp35
 70
     1
102
RTVSPost2010Prop36
280
     0
102
RTVSPost2010PropOp36
 70
     1
102
RTVSPost2010Prop37
 90
       50
102
RTVSPost2010PropOp37
 70
     1
102
RTVSPost2010Prop38
140
0.0
102
RTVSPost2010PropOp38
 70
     1
102
RTVSPost2010Prop39
140
1.0
102
RTVSPost2010PropOp39
 70
     1
102
RTVSPost2010Prop40
 90
        0
102
RTVSPost2010PropOp40
 70
     1
102
RTVSPost2010Prop41ColorIndex
 90
       18
102
RTVSPost2010Prop41ColorRGB
 90
        0
102
RTVSPost2010PropOp41
 70
     1
102
RTVSPost2010Prop42
 90
       50
102
RTVSPost2010PropOp42
 70
     1
102
RTVSPost2010Prop43
 90
        3
102
RTVSPost2010PropOp43
 70
     1
102
RTVSPost2010Prop44ColorIndex
 90
        5
102
RTVSPost2010Prop44ColorRGB
 90
      255
102
RTVSPost2010PropOp44
 70
     1
102
RTVSPost2010Prop45
280
     0
102
RTVSPost2010PropOp45
 70
     1
102
RTVSPost2010Prop46
 90
       50
102
RTVSPost2010PropOp46
 70
     1
102
RTVSPost2010Prop47
 90
       50
102
RTVSPost2010PropOp47
 70
     1
102
RTVSPost2010Prop48
 90
       50
102
RTVSPost2010PropOp48
 70
     1
102
RTVSPost2010Prop49
280
     0
102
RTVSPost2010PropOp49
 70
     1
102
RTVSPost2010Prop50
 90
       50
102
RTVSPost2010PropOp50
 70
     1
102
RTVSPost2010Prop51ColorIndex
 90
      256
102
RTVSPost2010Prop51ColorRGB
 90
-16777216
102
RTVSPost2010PropOp51
 70
     0
102
RTVSPost2010Prop52
140
1.0
102
RTVSPost2010PropOp52
 70
     0
102
RTVSPost2010Prop53
 90
        2
102
RTVSPost2010PropOp53
 70
     1
102
RTVSPost2010Prop54
  1
strokes_ogs.tif
102
RTVSPost2010PropOp54
 70
     1
102
RTVSPost2010Prop55
280
     0
102
RTVSPost2010PropOp55
 70
     1
102
RTVSPost2010Prop56
140
1.0
102
RTVSPost2010PropOp56
 70
     1
102
RTVSPost2010Prop57
140
1.0
102
RTVSPost2010PropOp57
 70
     1
  0
XRECORD
  5
11F
102
{ACAD_REACTORS
330
11E
102
}
330
11E
100
AcDbXrecord
280
     1
102
RTVSPost2010Prop28
280
     0
102
RTVSPost2010PropOp28
 70
     0
102
RTVSPost2010Prop29
280
     1
102
RTVSPost2010PropOp29
 70
     0
102
RTVSPost2010Prop30
280
     1
102
RTVSPost2010PropOp30
 70
     0
102
RTVSPost2010Prop31
280
     0
102
RTVSPost2010PropOp31
 70
     0
102
RTVSPost2010Prop32
280
     0
102
RTVSPost2010PropOp32
 70
     0
102
RTVSPost2010Prop33
280
     0
102
RTVSPost2010PropOp33
 70
     0
102
RTVSPost2010Prop34
280
     0
102
RTVSPost2010PropOp34
 70
     0
102
RTVSPost2010Prop35
280
     0
102
RTVSPost2010PropOp35
 70
     0
102
RTVSPost2010Prop36
280
     0
102
RTVSPost2010PropOp36
 70
     0
102
RTVSPost2010Prop37
 90
       50
102
RTVSPost2010PropOp37
 70
     0
102
RTVSPost2010Prop38
140
0.0
102
RTVSPost2010PropOp38
 70
     0
102
RTVSPost2010Prop39
140
1.0
102
RTVSPost2010PropOp39
 70
     0
102
RTVSPost2010Prop40
 90
        0
102
RTVSPost2010PropOp40
 70
     0
102
RTVSPost2010Prop41ColorIndex
 90
       18
102
RTVSPost2010Prop41ColorRGB
 90
        0
102
RTVSPost2010PropOp41
 70
     0
102
RTVSPost2010Prop42
 90
       50
102
RTVSPost2010PropOp42
 70
     0
102
RTVSPost2010Prop43
 90
        3
102
RTVSPost2010PropOp43
 70
     0
102
RTVSPost2010Prop44ColorIndex
 90
        5
102
RTVSPost2010Prop44ColorRGB
 90
      255
102
RTVSPost2010PropOp44
 70
     0
102
RTVSPost2010Prop45
280
     0
102
RTVSPost2010PropOp45
 70
     0
102
RTVSPost2010Prop46
 90
       50
102
RTVSPost2010PropOp46
 70
     0
102
RTVSPost2010Prop47
 90
       50
102
RTVSPost2010PropOp47
 70
     0
102
RTVSPost2010Prop48
 90
       50
102
RTVSPost2010PropOp48
 70
     0
102
RTVSPost2010Prop49
280
     0
102
RTVSPost2010PropOp49
 70
     0
102
RTVSPost2010Prop50
 90
       50
102
RTVSPost2010PropOp50
 70
     0
102
RTVSPost2010Prop51ColorIndex
 90
      256
102
RTVSPost2010Prop51ColorRGB
 90
-16777216
102
RTVSPost2010PropOp51
 70
     0
102
RTVSPost2010Prop52
140
1.0
102
RTVSPost2010PropOp52
 70
     0
102
RTVSPost2010Prop53
 90
        2
102
RTVSPost2010PropOp53
 70
     0
102
RTVSPost2010Prop54
  1
strokes_ogs.tif
102
RTVSPost2010PropOp54
 70
     0
102
RTVSPost2010Prop55
280
     0
102
RTVSPost2010PropOp55
 70
     0
102
RTVSPost2010Prop56
140
1.0
102
RTVSPost2010PropOp56
 70
     0
102
RTVSPost2010Prop57
140
1.0
102
RTVSPost2010PropOp57
 70
     0
  0
XRECORD
  5
105
102
{ACAD_REACTORS
330
104
102
}
330
104
100
AcDbXrecord
280
     1
102
RTVSPost2010Prop28
280
     0
102
RTVSPost2010PropOp28
 70
     1
102
RTVSPost2010Prop29
280
     1
102
RTVSPost2010PropOp29
 70
     1
102
RTVSPost2010Prop30
280
     1
102
RTVSPost2010PropOp30
 70
     1
102
RTVSPost2010Prop31
280
     0
102
RTVSPost2010PropOp31
 70
     1
102
RTVSPost2010Prop32
280
     0
102
RTVSPost2010PropOp32
 70
     1
102
RTVSPost2010Prop33
280
     0
102
RTVSPost2010PropOp33
 70
     1
102
RTVSPost2010Prop34
280
     0
102
RTVSPost2010PropOp34
 70
     1
102
RTVSPost2010Prop35
280
     0
102
RTVSPost2010PropOp35
 70
     1
102
RTVSPost2010Prop36
280
     0
102
RTVSPost2010PropOp36
 70
     1
102
RTVSPost2010Prop37
 90
       50
102
RTVSPost2010PropOp37
 70
     1
102
RTVSPost2010Prop38
140
0.0
102
RTVSPost2010PropOp38
 70
     1
102
RTVSPost2010Prop39
140
1.0
102
RTVSPost2010PropOp39
 70
     1
102
RTVSPost2010Prop40
 90
        0
102
RTVSPost2010PropOp40
 70
     1
102
RTVSPost2010Prop41ColorIndex
 90
       18
102
RTVSPost2010Prop41ColorRGB
 90
        0
102
RTVSPost2010PropOp41
 70
     1
102
RTVSPost2010Prop42
 90
       50
102
RTVSPost2010PropOp42
 70
     1
102
RTVSPost2010Prop43
 90
        3
102
RTVSPost2010PropOp43
 70
     1
102
RTVSPost2010Prop44ColorIndex
 90
        5
102
RTVSPost2010Prop44ColorRGB
 90
      255
102
RTVSPost2010PropOp44
 70
     1
102
RTVSPost2010Prop45
280
     0
102
RTVSPost2010PropOp45
 70
     1
102
RTVSPost2010Prop46
 90
       50
102
RTVSPost2010PropOp46
 70
     1
102
RTVSPost2010Prop47
 90
       50
102
RTVSPost2010PropOp47
 70
     1
102
RTVSPost2010Prop48
 90
       50
102
RTVSPost2010PropOp48
 70
     1
102
RTVSPost2010Prop49
280
     0
102
RTVSPost2010PropOp49
 70
     1
102
RTVSPost2010Prop50
 90
       50
102
RTVSPost2010PropOp50
 70
     1
102
RTVSPost2010Prop51ColorIndex
 90
      256
102
RTVSPost2010Prop51ColorRGB
 90
-16777216
102
RTVSPost2010PropOp51
 70
     0
102
RTVSPost2010Prop52
140
1.0
102
RTVSPost2010PropOp52
 70
     0
102
RTVSPost2010Prop53
 90
        2
102
RTVSPost2010PropOp53
 70
     1
102
RTVSPost2010Prop54
  1
strokes_ogs.tif
102
RTVSPost2010PropOp54
 70
     1
102
RTVSPost2010Prop55
280
     0
102
RTVSPost2010PropOp55
 70
     1
102
RTVSPost2010Prop56
140
1.0
102
RTVSPost2010PropOp56
 70
     1
102
RTVSPost2010Prop57
140
1.0
102
RTVSPost2010PropOp57
 70
     1
  0
XRECORD
  5
11B
102
{ACAD_REACTORS
330
11A
102
}
330
11A
100
AcDbXrecord
280
     1
102
RTVSPost2010Prop28
280
     0
102
RTVSPost2010PropOp28
 70
     1
102
RTVSPost2010Prop29
280
     1
102
RTVSPost2010PropOp29
 70
     1
102
RTVSPost2010Prop30
280
     1
102
RTVSPost2010PropOp30
 70
     1
102
RTVSPost2010Prop31
280
     0
102
RTVSPost2010PropOp31
 70
     1
102
RTVSPost2010Prop32
280
     0
102
RTVSPost2010PropOp32
 70
     1
102
RTVSPost2010Prop33
280
     0
102
RTVSPost2010PropOp33
 70
     1
102
RTVSPost2010Prop34
280
     0
102
RTVSPost2010PropOp34
 70
     1
102
RTVSPost2010Prop35
280
     0
102
RTVSPost2010PropOp35
 70
     1
102
RTVSPost2010Prop36
280
     0
102
RTVSPost2010PropOp36
 70
     1
102
RTVSPost2010Prop37
 90
       50
102
RTVSPost2010PropOp37
 70
     1
102
RTVSPost2010Prop38
140
0.0
102
RTVSPost2010PropOp38
 70
     1
102
RTVSPost2010Prop39
140
1.0
102
RTVSPost2010PropOp39
 70
     1
102
RTVSPost2010Prop40
 90
        0
102
RTVSPost2010PropOp40
 70
     1
102
RTVSPost2010Prop41ColorIndex
 90
       18
102
RTVSPost2010Prop41ColorRGB
 90
        0
102
RTVSPost2010PropOp41
 70
     1
102
RTVSPost2010Prop42
 90
       50
102
RTVSPost2010PropOp42
 70
     1
102
RTVSPost2010Prop43
 90
        3
102
RTVSPost2010PropOp43
 70
     1
102
RTVSPost2010Prop44ColorIndex
 90
        5
102
RTVSPost2010Prop44ColorRGB
 90
      255
102
RTVSPost2010PropOp44
 70
     1
102
RTVSPost2010Prop45
280
     0
102
RTVSPost2010PropOp45
 70
     1
102
RTVSPost2010Prop46
 90
       50
102
RTVSPost2010PropOp46
 70
     1
102
RTVSPost2010Prop47
 90
       50
102
RTVSPost2010PropOp47
 70
     1
102
RTVSPost2010Prop48
 90
       50
102
RTVSPost2010PropOp48
 70
     1
102
RTVSPost2010Prop49
280
     0
102
RTVSPost2010PropOp49
 70
     1
102
RTVSPost2010Prop50
 90
       50
102
RTVSPost2010PropOp50
 70
     1
102
RTVSPost2010Prop51ColorIndex
 90
      256
102
RTVSPost2010Prop51ColorRGB
 90
-16777216
102
RTVSPost2010PropOp51
 70
     0
102
RTVSPost2010Prop52
140
1.0
102
RTVSPost2010PropOp52
 70
     0
102
RTVSPost2010Prop53
 90
        2
102
RTVSPost2010PropOp53
 70
     1
102
RTVSPost2010Prop54
  1
strokes_ogs.tif
102
RTVSPost2010PropOp54
 70
     1
102
RTVSPost2010Prop55
280
     0
102
RTVSPost2010PropOp55
 70
     1
102
RTVSPost2010Prop56
140
1.0
102
RTVSPost2010PropOp56
 70
     1
102
RTVSPost2010Prop57
140
1.0
102
RTVSPost2010PropOp57
 70
     1
  0
XRECORD
  5
119
102
{ACAD_REACTORS
330
118
102
}
330
118
100
AcDbXrecord
280
     1
102
RTVSPost2010Prop28
280
     0
102
RTVSPost2010PropOp28
 70
     1
102
RTVSPost2010Prop29
280
     1
102
RTVSPost2010PropOp29
 70
     1
102
RTVSPost2010Prop30
280
     1
102
RTVSPost2010PropOp30
 70
     1
102
RTVSPost2010Prop31
280
     0
102
RTVSPost2010PropOp31
 70
     1
102
RTVSPost2010Prop32
280
     0
102
RTVSPost2010PropOp32
 70
     1
102
RTVSPost2010Prop33
280
     0
102
RTVSPost2010PropOp33
 70
     1
102
RTVSPost2010Prop34
280
     0
102
RTVSPost2010PropOp34
 70
     1
102
RTVSPost2010Prop35
280
     0
102
RTVSPost2010PropOp35
 70
     1
102
RTVSPost2010Prop36
280
     0
102
RTVSPost2010PropOp36
 70
     1
102
RTVSPost2010Prop37
 90
       50
102
RTVSPost2010PropOp37
 70
     1
102
RTVSPost2010Prop38
140
0.0
102
RTVSPost2010PropOp38
 70
     1
102
RTVSPost2010Prop39
140
1.0
102
RTVSPost2010PropOp39
 70
     1
102
RTVSPost2010Prop40
 90
        0
102
RTVSPost2010PropOp40
 70
     1
102
RTVSPost2010Prop41ColorIndex
 90
       18
102
RTVSPost2010Prop41ColorRGB
 90
        0
102
RTVSPost2010PropOp41
 70
     1
102
RTVSPost2010Prop42
 90
       50
102
RTVSPost2010PropOp42
 70
     1
102
RTVSPost2010Prop43
 90
        3
102
RTVSPost2010PropOp43
 70
     1
102
RTVSPost2010Prop44ColorIndex
 90
        5
102
RTVSPost2010Prop44ColorRGB
 90
      255
102
RTVSPost2010PropOp44
 70
     1
102
RTVSPost2010Prop45
280
     0
102
RTVSPost2010PropOp45
 70
     1
102
RTVSPost2010Prop46
 90
       50
102
RTVSPost2010PropOp46
 70
     1
102
RTVSPost2010Prop47
 90
       50
102
RTVSPost2010PropOp47
 70
     1
102
RTVSPost2010Prop48
 90
       50
102
RTVSPost2010PropOp48
 70
     1
102
RTVSPost2010Prop49
280
     0
102
RTVSPost2010PropOp49
 70
     1
102
RTVSPost2010Prop50
 90
       50
102
RTVSPost2010PropOp50
 70
     1
102
RTVSPost2010Prop51ColorIndex
 90
      256
102
RTVSPost2010Prop51ColorRGB
 90
-16777216
102
RTVSPost2010PropOp51
 70
     0
102
RTVSPost2010Prop52
140
1.0
102
RTVSPost2010PropOp52
 70
     0
102
RTVSPost2010Prop53
 90
        2
102
RTVSPost2010PropOp53
 70
     1
102
RTVSPost2010Prop54
  1
strokes_ogs.tif
102
RTVSPost2010PropOp54
 70
     1
102
RTVSPost2010Prop55
280
     0
102
RTVSPost2010PropOp55
 70
     1
102
RTVSPost2010Prop56
140
1.0
102
RTVSPost2010PropOp56
 70
     1
102
RTVSPost2010Prop57
140
1.0
102
RTVSPost2010PropOp57
 70
     1
  0
XRECORD
  5
113
102
{ACAD_REACTORS
330
112
102
}
330
112
100
AcDbXrecord
280
     1
102
RTVSPost2010Prop28
280
     0
102
RTVSPost2010PropOp28
 70
     1
102
RTVSPost2010Prop29
280
     1
102
RTVSPost2010PropOp29
 70
     1
102
RTVSPost2010Prop30
280
     1
102
RTVSPost2010PropOp30
 70
     1
102
RTVSPost2010Prop31
280
     0
102
RTVSPost2010PropOp31
 70
     1
102
RTVSPost2010Prop32
280
     0
102
RTVSPost2010PropOp32
 70
     1
102
RTVSPost2010Prop33
280
     0
102
RTVSPost2010PropOp33
 70
     1
102
RTVSPost2010Prop34
280
     0
102
RTVSPost2010PropOp34
 70
     1
102
RTVSPost2010Prop35
280
     0
102
RTVSPost2010PropOp35
 70
     1
102
RTVSPost2010Prop36
280
     0
102
RTVSPost2010PropOp36
 70
     1
102
RTVSPost2010Prop37
 90
       50
102
RTVSPost2010PropOp37
 70
     1
102
RTVSPost2010Prop38
140
0.0
102
RTVSPost2010PropOp38
 70
     1
102
RTVSPost2010Prop39
140
1.0
102
RTVSPost2010PropOp39
 70
     1
102
RTVSPost2010Prop40
 90
        0
102
RTVSPost2010PropOp40
 70
     1
102
RTVSPost2010Prop41ColorIndex
 90
       18
102
RTVSPost2010Prop41ColorRGB
 90
        0
102
RTVSPost2010PropOp41
 70
     1
102
RTVSPost2010Prop42
 90
       50
102
RTVSPost2010PropOp42
 70
     1
102
RTVSPost2010Prop43
 90
        3
102
RTVSPost2010PropOp43
 70
     1
102
RTVSPost2010Prop44ColorIndex
 90
        5
102
RTVSPost2010Prop44ColorRGB
 90
      255
102
RTVSPost2010PropOp44
 70
     1
102
RTVSPost2010Prop45
280
     0
102
RTVSPost2010PropOp45
 70
     1
102
RTVSPost2010Prop46
 90
       50
102
RTVSPost2010PropOp46
 70
     1
102
RTVSPost2010Prop47
 90
       50
102
RTVSPost2010PropOp47
 70
     1
102
RTVSPost2010Prop48
 90
       50
102
RTVSPost2010PropOp48
 70
     1
102
RTVSPost2010Prop49
280
     0
102
RTVSPost2010PropOp49
 70
     1
102
RTVSPost2010Prop50
 90
       50
102
RTVSPost2010PropOp50
 70
     1
102
RTVSPost2010Prop51ColorIndex
 90
      256
102
RTVSPost2010Prop51ColorRGB
 90
-16777216
102
RTVSPost2010PropOp51
 70
     0
102
RTVSPost2010Prop52
140
1.0
102
RTVSPost2010PropOp52
 70
     0
102
RTVSPost2010Prop53
 90
        2
102
RTVSPost2010PropOp53
 70
     1
102
RTVSPost2010Prop54
  1
strokes_ogs.tif
102
RTVSPost2010PropOp54
 70
     1
102
RTVSPost2010Prop55
280
     0
102
RTVSPost2010PropOp55
 70
     1
102
RTVSPost2010Prop56
140
1.0
102
RTVSPost2010PropOp56
 70
     1
102
RTVSPost2010Prop57
140
1.0
102
RTVSPost2010PropOp57
 70
     1
  0
XRECORD
  5
115
102
{ACAD_REACTORS
330
114
102
}
330
114
100
AcDbXrecord
280
     1
102
RTVSPost2010Prop28
280
     0
102
RTVSPost2010PropOp28
 70
     1
102
RTVSPost2010Prop29
280
     1
102
RTVSPost2010PropOp29
 70
     1
102
RTVSPost2010Prop30
280
     1
102
RTVSPost2010PropOp30
 70
     1
102
RTVSPost2010Prop31
280
     0
102
RTVSPost2010PropOp31
 70
     1
102
RTVSPost2010Prop32
280
     0
102
RTVSPost2010PropOp32
 70
     1
102
RTVSPost2010Prop33
280
     0
102
RTVSPost2010PropOp33
 70
     1
102
RTVSPost2010Prop34
280
     0
102
RTVSPost2010PropOp34
 70
     1
102
RTVSPost2010Prop35
280
     0
102
RTVSPost2010PropOp35
 70
     1
102
RTVSPost2010Prop36
280
     0
102
RTVSPost2010PropOp36
 70
     1
102
RTVSPost2010Prop37
 90
       50
102
RTVSPost2010PropOp37
 70
     1
102
RTVSPost2010Prop38
140
0.0
102
RTVSPost2010PropOp38
 70
     1
102
RTVSPost2010Prop39
140
1.0
102
RTVSPost2010PropOp39
 70
     1
102
RTVSPost2010Prop40
 90
        0
102
RTVSPost2010PropOp40
 70
     1
102
RTVSPost2010Prop41ColorIndex
 90
       18
102
RTVSPost2010Prop41ColorRGB
 90
        0
102
RTVSPost2010PropOp41
 70
     1
102
RTVSPost2010Prop42
 90
       50
102
RTVSPost2010PropOp42
 70
     1
102
RTVSPost2010Prop43
 90
        3
102
RTVSPost2010PropOp43
 70
     1
102
RTVSPost2010Prop44ColorIndex
 90
        5
102
RTVSPost2010Prop44ColorRGB
 90
      255
102
RTVSPost2010PropOp44
 70
     1
102
RTVSPost2010Prop45
280
     0
102
RTVSPost2010PropOp45
 70
     1
102
RTVSPost2010Prop46
 90
       50
102
RTVSPost2010PropOp46
 70
     1
102
RTVSPost2010Prop47
 90
       50
102
RTVSPost2010PropOp47
 70
     1
102
RTVSPost2010Prop48
 90
       50
102
RTVSPost2010PropOp48
 70
     1
102
RTVSPost2010Prop49
280
     0
102
RTVSPost2010PropOp49
 70
     1
102
RTVSPost2010Prop50
 90
       50
102
RTVSPost2010PropOp50
 70
     1
102
RTVSPost2010Prop51ColorIndex
 90
      256
102
RTVSPost2010Prop51ColorRGB
 90
-16777216
102
RTVSPost2010PropOp51
 70
     0
102
RTVSPost2010Prop52
140
1.0
102
RTVSPost2010PropOp52
 70
     0
102
RTVSPost2010Prop53
 90
        2
102
RTVSPost2010PropOp53
 70
     1
102
RTVSPost2010Prop54
  1
strokes_ogs.tif
102
RTVSPost2010PropOp54
 70
     1
102
RTVSPost2010Prop55
280
     0
102
RTVSPost2010PropOp55
 70
     1
102
RTVSPost2010Prop56
140
1.0
102
RTVSPost2010PropOp56
 70
     1
102
RTVSPost2010Prop57
140
1.0
102
RTVSPost2010PropOp57
 70
     1
  0
XRECORD
  5
10B
102
{ACAD_REACTORS
330
10A
102
}
330
10A
100
AcDbXrecord
280
     1
102
RTVSPost2010Prop28
280
     0
102
RTVSPost2010PropOp28
 70
     1
102
RTVSPost2010Prop29
280
     1
102
RTVSPost2010PropOp29
 70
     1
102
RTVSPost2010Prop30
280
     1
102
RTVSPost2010PropOp30
 70
     1
102
RTVSPost2010Prop31
280
     0
102
RTVSPost2010PropOp31
 70
     1
102
RTVSPost2010Prop32
280
     0
102
RTVSPost2010PropOp32
 70
     1
102
RTVSPost2010Prop33
280
     0
102
RTVSPost2010PropOp33
 70
     1
102
RTVSPost2010Prop34
280
     0
102
RTVSPost2010PropOp34
 70
     1
102
RTVSPost2010Prop35
280
     0
102
RTVSPost2010PropOp35
 70
     1
102
RTVSPost2010Prop36
280
     0
102
RTVSPost2010PropOp36
 70
     1
102
RTVSPost2010Prop37
 90
       50
102
RTVSPost2010PropOp37
 70
     1
102
RTVSPost2010Prop38
140
0.0
102
RTVSPost2010PropOp38
 70
     1
102
RTVSPost2010Prop39
140
1.0
102
RTVSPost2010PropOp39
 70
     1
102
RTVSPost2010Prop40
 90
        0
102
RTVSPost2010PropOp40
 70
     1
102
RTVSPost2010Prop41ColorIndex
 90
       18
102
RTVSPost2010Prop41ColorRGB
 90
        0
102
RTVSPost2010PropOp41
 70
     1
102
RTVSPost2010Prop42
 90
       50
102
RTVSPost2010PropOp42
 70
     1
102
RTVSPost2010Prop43
 90
        3
102
RTVSPost2010PropOp43
 70
     1
102
RTVSPost2010Prop44ColorIndex
 90
        5
102
RTVSPost2010Prop44ColorRGB
 90
      255
102
RTVSPost2010PropOp44
 70
     1
102
RTVSPost2010Prop45
280
     0
102
RTVSPost2010PropOp45
 70
     1
102
RTVSPost2010Prop46
 90
       50
102
RTVSPost2010PropOp46
 70
     1
102
RTVSPost2010Prop47
 90
       50
102
RTVSPost2010PropOp47
 70
     1
102
RTVSPost2010Prop48
 90
       50
102
RTVSPost2010PropOp48
 70
     1
102
RTVSPost2010Prop49
280
     0
102
RTVSPost2010PropOp49
 70
     1
102
RTVSPost2010Prop50
 90
       50
102
RTVSPost2010PropOp50
 70
     1
102
RTVSPost2010Prop51ColorIndex
 90
      256
102
RTVSPost2010Prop51ColorRGB
 90
-16777216
102
RTVSPost2010PropOp51
 70
     0
102
RTVSPost2010Prop52
140
1.0
102
RTVSPost2010PropOp52
 70
     0
102
RTVSPost2010Prop53
 90
        2
102
RTVSPost2010PropOp53
 70
     1
102
RTVSPost2010Prop54
  1
strokes_ogs.tif
102
RTVSPost2010PropOp54
 70
     1
102
RTVSPost2010Prop55
280
     0
102
RTVSPost2010PropOp55
 70
     1
102
RTVSPost2010Prop56
140
1.0
102
RTVSPost2010PropOp56
 70
     1
102
RTVSPost2010Prop57
140
1.0
102
RTVSPost2010PropOp57
 70
     1
  0
XRECORD
  5
FF
102
{ACAD_REACTORS
330
FE
102
}
330
FE
100
AcDbXrecord
280
     1
102
RTVSPost2010Prop28
280
     0
102
RTVSPost2010PropOp28
 70
     1
102
RTVSPost2010Prop29
280
     1
102
RTVSPost2010PropOp29
 70
     1
102
RTVSPost2010Prop30
280
     1
102
RTVSPost2010PropOp30
 70
     1
102
RTVSPost2010Prop31
280
     0
102
RTVSPost2010PropOp31
 70
     1
102
RTVSPost2010Prop32
280
     0
102
RTVSPost2010PropOp32
 70
     1
102
RTVSPost2010Prop33
280
     0
102
RTVSPost2010PropOp33
 70
     1
102
RTVSPost2010Prop34
280
     0
102
RTVSPost2010PropOp34
 70
     1
102
RTVSPost2010Prop35
280
     0
102
RTVSPost2010PropOp35
 70
     1
102
RTVSPost2010Prop36
280
     0
102
RTVSPost2010PropOp36
 70
     1
102
RTVSPost2010Prop37
 90
       50
102
RTVSPost2010PropOp37
 70
     1
102
RTVSPost2010Prop38
140
0.0
102
RTVSPost2010PropOp38
 70
     1
102
RTVSPost2010Prop39
140
1.0
102
RTVSPost2010PropOp39
 70
     1
102
RTVSPost2010Prop40
 90
        0
102
RTVSPost2010PropOp40
 70
     1
102
RTVSPost2010Prop41ColorIndex
 90
       18
102
RTVSPost2010Prop41ColorRGB
 90
        0
102
RTVSPost2010PropOp41
 70
     1
102
RTVSPost2010Prop42
 90
       50
102
RTVSPost2010PropOp42
 70
     1
102
RTVSPost2010Prop43
 90
        3
102
RTVSPost2010PropOp43
 70
     1
102
RTVSPost2010Prop44ColorIndex
 90
        5
102
RTVSPost2010Prop44ColorRGB
 90
      255
102
RTVSPost2010PropOp44
 70
     1
102
RTVSPost2010Prop45
280
     0
102
RTVSPost2010PropOp45
 70
     1
102
RTVSPost2010Prop46
 90
       50
102
RTVSPost2010PropOp46
 70
     1
102
RTVSPost2010Prop47
 90
       50
102
RTVSPost2010PropOp47
 70
     1
102
RTVSPost2010Prop48
 90
       50
102
RTVSPost2010PropOp48
 70
     1
102
RTVSPost2010Prop49
280
     0
102
RTVSPost2010PropOp49
 70
     1
102
RTVSPost2010Prop50
 90
       50
102
RTVSPost2010PropOp50
 70
     1
102
RTVSPost2010Prop51ColorIndex
 90
      256
102
RTVSPost2010Prop51ColorRGB
 90
-16777216
102
RTVSPost2010PropOp51
 70
     0
102
RTVSPost2010Prop52
140
1.0
102
RTVSPost2010PropOp52
 70
     0
102
RTVSPost2010Prop53
 90
        2
102
RTVSPost2010PropOp53
 70
     1
102
RTVSPost2010Prop54
  1
strokes_ogs.tif
102
RTVSPost2010PropOp54
 70
     1
102
RTVSPost2010Prop55
280
     0
102
RTVSPost2010PropOp55
 70
     1
102
RTVSPost2010Prop56
140
1.0
102
RTVSPost2010PropOp56
 70
     1
102
RTVSPost2010Prop57
140
1.0
102
RTVSPost2010PropOp57
 70
     1
  0
XRECORD
  5
117
102
{ACAD_REACTORS
330
116
102
}
330
116
100
AcDbXrecord
280
     1
102
RTVSPost2010Prop28
280
     0
102
RTVSPost2010PropOp28
 70
     1
102
RTVSPost2010Prop29
280
     1
102
RTVSPost2010PropOp29
 70
     1
102
RTVSPost2010Prop30
280
     1
102
RTVSPost2010PropOp30
 70
     1
102
RTVSPost2010Prop31
280
     0
102
RTVSPost2010PropOp31
 70
     1
102
RTVSPost2010Prop32
280
     0
102
RTVSPost2010PropOp32
 70
     1
102
RTVSPost2010Prop33
280
     0
102
RTVSPost2010PropOp33
 70
     1
102
RTVSPost2010Prop34
280
     0
102
RTVSPost2010PropOp34
 70
     1
102
RTVSPost2010Prop35
280
     0
102
RTVSPost2010PropOp35
 70
     1
102
RTVSPost2010Prop36
280
     0
102
RTVSPost2010PropOp36
 70
     1
102
RTVSPost2010Prop37
 90
       50
102
RTVSPost2010PropOp37
 70
     1
102
RTVSPost2010Prop38
140
0.0
102
RTVSPost2010PropOp38
 70
     1
102
RTVSPost2010Prop39
140
1.0
102
RTVSPost2010PropOp39
 70
     1
102
RTVSPost2010Prop40
 90
        0
102
RTVSPost2010PropOp40
 70
     1
102
RTVSPost2010Prop41ColorIndex
 90
       18
102
RTVSPost2010Prop41ColorRGB
 90
        0
102
RTVSPost2010PropOp41
 70
     1
102
RTVSPost2010Prop42
 90
       50
102
RTVSPost2010PropOp42
 70
     1
102
RTVSPost2010Prop43
 90
        3
102
RTVSPost2010PropOp43
 70
     1
102
RTVSPost2010Prop44ColorIndex
 90
        5
102
RTVSPost2010Prop44ColorRGB
 90
      255
102
RTVSPost2010PropOp44
 70
     1
102
RTVSPost2010Prop45
280
     0
102
RTVSPost2010PropOp45
 70
     1
102
RTVSPost2010Prop46
 90
       50
102
RTVSPost2010PropOp46
 70
     1
102
RTVSPost2010Prop47
 90
       50
102
RTVSPost2010PropOp47
 70
     1
102
RTVSPost2010Prop48
 90
       50
102
RTVSPost2010PropOp48
 70
     1
102
RTVSPost2010Prop49
280
     0
102
RTVSPost2010PropOp49
 70
     1
102
RTVSPost2010Prop50
 90
       50
102
RTVSPost2010PropOp50
 70
     1
102
RTVSPost2010Prop51ColorIndex
 90
      256
102
RTVSPost2010Prop51ColorRGB
 90
-16777216
102
RTVSPost2010PropOp51
 70
     0
102
RTVSPost2010Prop52
140
1.0
102
RTVSPost2010PropOp52
 70
     0
102
RTVSPost2010Prop53
 90
        2
102
RTVSPost2010PropOp53
 70
     1
102
RTVSPost2010Prop54
  1
strokes_ogs.tif
102
RTVSPost2010PropOp54
 70
     1
102
RTVSPost2010Prop55
280
     0
102
RTVSPost2010PropOp55
 70
     1
102
RTVSPost2010Prop56
140
1.0
102
RTVSPost2010PropOp56
 70
     1
102
RTVSPost2010Prop57
140
1.0
102
RTVSPost2010PropOp57
 70
     1
  0
ENDSEC
  0
EOF
