  0
SECTION
  2
HEADER
  9
$ACADVER
  1
AC1024
  9
$ACADMAINTVER
 70
   226
  9
$DWGCODEPAGE
  3
ANSI_932
  9
$INSBASE
 10
0.0
 20
0.0
 30
0.0
  9
$EXTMIN
 10
1.000000000000000E+20
 20
1.000000000000000E+20
 30
1.000000000000000E+20
  9
$EXTMAX
 10
-1.000000000000000E+20
 20
-1.000000000000000E+20
 30
-1.000000000000000E+20
  9
$LIMMIN
 10
0.0
 20
0.0
  9
$LIMMAX
 10
12.0
 20
9.0
  9
$ORTHOMODE
 70
     0
  9
$REGENMODE
 70
     1
  9
$FILLMODE
 70
     1
  9
$QTEXTMODE
 70
     0
  9
$MIRRTEXT
 70
     0
  9
$LTSCALE
 40
1.0
  9
$ATTMODE
 70
     1
  9
$TEXTSIZE
 40
0.2
  9
$TRACEWID
 40
0.05
  9
$TEXTSTYLE
  7
Standard
  9
$CLAYER
  8
0
  9
$CELTYPE
  6
ByLayer
  9
$CECOLOR
 62
   256
  9
$CELTSCALE
 40
1.0
  9
$DISPSILH
 70
     0
  9
$DIMSCALE
 40
1.0
  9
$DIMASZ
 40
0.18
  9
$DIMEXO
 40
0.0625
  9
$DIMDLI
 40
0.38
  9
$DIMRND
 40
0.0
  9
$DIMDLE
 40
0.0
  9
$DIMEXE
 40
0.18
  9
$DIMTP
 40
0.0
  9
$DIMTM
 40
0.0
  9
$DIMTXT
 40
0.18
  9
$DIMCEN
 40
0.09
  9
$DIMTSZ
 40
0.0
  9
$DIMTOL
 70
     0
  9
$DIMLIM
 70
     0
  9
$DIMTIH
 70
     1
  9
$DIMTOH
 70
     1
  9
$DIMSE1
 70
     0
  9
$DIMSE2
 70
     0
  9
$DIMTAD
 70
     0
  9
$DIMZIN
 70
     0
  9
$DIMBLK
  1

  9
$DIMASO
 70
     1
  9
$DIMSHO
 70
     1
  9
$DIMPOST
  1

  9
$DIMAPOST
  1

  9
$DIMALT
 70
     0
  9
$DIMALTD
 70
     2
  9
$DIMALTF
 40
25.4
  9
$DIMLFAC
 40
1.0
  9
$DIMTOFL
 70
     0
  9
$DIMTVP
 40
0.0
  9
$DIMTIX
 70
     0
  9
$DIMSOXD
 70
     0
  9
$DIMSAH
 70
     0
  9
$DIMBLK1
  1

  9
$DIMBLK2
  1

  9
$DIMSTYLE
  2
Standard
  9
$DIMCLRD
 70
     0
  9
$DIMCLRE
 70
     0
  9
$DIMCLRT
 70
     0
  9
$DIMTFAC
 40
1.0
  9
$DIMGAP
 40
0.09
  9
$DIMJUST
 70
     0
  9
$DIMSD1
 70
     0
  9
$DIMSD2
 70
     0
  9
$DIMTOLJ
 70
     1
  9
$DIMTZIN
 70
     0
  9
$DIMALTZ
 70
     0
  9
$DIMALTTZ
 70
     0
  9
$DIMUPT
 70
     0
  9
$DIMDEC
 70
     4
  9
$DIMTDEC
 70
     4
  9
$DIMALTU
 70
     2
  9
$DIMALTTD
 70
     2
  9
$DIMTXSTY
  7
Standard
  9
$DIMAUNIT
 70
     0
  9
$DIMADEC
 70
     0
  9
$DIMALTRND
 40
0.0
  9
$DIMAZIN
 70
     0
  9
$DIMDSEP
 70
    46
  9
$DIMATFIT
 70
     3
  9
$DIMFRAC
 70
     0
  9
$DIMLDRBLK
  1

  9
$DIMLUNIT
 70
     2
  9
$DIMLWD
 70
    -2
  9
$DIMLWE
 70
    -2
  9
$DIMTMOVE
 70
     0
  9
$DIMFXL
 40
1.0
  9
$DIMFXLON
 70
     0
  9
$DIMJOGANG
 40
0.7853981633974483
  9
$DIMTFILL
 70
     0
  9
$DIMTFILLCLR
 70
     0
  9
$DIMARCSYM
 70
     0
  9
$DIMLTYPE
  6

  9
$DIMLTEX1
  6

  9
$DIMLTEX2
  6

  9
$DIMTXTDIRECTION
 70
     0
  9
$LUNITS
 70
     2
  9
$LUPREC
 70
     4
  9
$SKETCHINC
 40
0.1
  9
$FILLETRAD
 40
0.0
  9
$AUNITS
 70
     0
  9
$AUPREC
 70
     0
  9
$MENU
  1
.
  9
$ELEVATION
 40
0.0
  9
$PELEVATION
 40
0.0
  9
$THICKNESS
 40
0.0
  9
$LIMCHECK
 70
     0
  9
$CHAMFERA
 40
0.0
  9
$CHAMFERB
 40
0.0
  9
$CHAMFERC
 40
0.0
  9
$CHAMFERD
 40
0.0
  9
$SKPOLY
 70
     0
  9
$TDCREATE
 40
2459569.489884259
  9
$TDUCREATE
 40
2459569.114884259
  9
$TDUPDATE
 40
2459569.489884259
  9
$TDUUPDATE
 40
2459569.114884259
  9
$TDINDWG
 40
0.0000000000
  9
$TDUSRTIMER
 40
0.0000000000
  9
$USRTIMER
 70
     1
  9
$ANGBASE
 50
0.0
  9
$ANGDIR
 70
     0
  9
$PDMODE
 70
     0
  9
$PDSIZE
 40
0.0
  9
$PLINEWID
 40
0.0
  9
$SPLFRAME
 70
     0
  9
$SPLINETYPE
 70
     6
  9
$SPLINESEGS
 70
     8
  9
$HANDSEED
  5
130
  9
$SURFTAB1
 70
     6
  9
$SURFTAB2
 70
     6
  9
$SURFTYPE
 70
     6
  9
$SURFU
 70
     6
  9
$SURFV
 70
     6
  9
$UCSBASE
  2

  9
$UCSNAME
  2

  9
$UCSORG
 10
0.0
 20
0.0
 30
0.0
  9
$UCSXDIR
 10
1.0
 20
0.0
 30
0.0
  9
$UCSYDIR
 10
0.0
 20
1.0
 30
0.0
  9
$UCSORTHOREF
  2

  9
$UCSORTHOVIEW
 70
     0
  9
$UCSORGTOP
 10
0.0
 20
0.0
 30
0.0
  9
$UCSORGBOTTOM
 10
0.0
 20
0.0
 30
0.0
  9
$UCSORGLEFT
 10
0.0
 20
0.0
 30
0.0
  9
$UCSORGRIGHT
 10
0.0
 20
0.0
 30
0.0
  9
$UCSORGFRONT
 10
0.0
 20
0.0
 30
0.0
  9
$UCSORGBACK
 10
0.0
 20
0.0
 30
0.0
  9
$PUCSBASE
  2

  9
$PUCSNAME
  2

  9
$PUCSORG
 10
0.0
 20
0.0
 30
0.0
  9
$PUCSXDIR
 10
1.0
 20
0.0
 30
0.0
  9
$PUCSYDIR
 10
0.0
 20
1.0
 30
0.0
  9
$PUCSORTHOREF
  2

  9
$PUCSORTHOVIEW
 70
     0
  9
$PUCSORGTOP
 10
0.0
 20
0.0
 30
0.0
  9
$PUCSORGBOTTOM
 10
0.0
 20
0.0
 30
0.0
  9
$PUCSORGLEFT
 10
0.0
 20
0.0
 30
0.0
  9
$PUCSORGRIGHT
 10
0.0
 20
0.0
 30
0.0
  9
$PUCSORGFRONT
 10
0.0
 20
0.0
 30
0.0
  9
$PUCSORGBACK
 10
0.0
 20
0.0
 30
0.0
  9
$USERI1
 70
     0
  9
$USERI2
 70
     0
  9
$USERI3
 70
     0
  9
$USERI4
 70
     0
  9
$USERI5
 70
     0
  9
$USERR1
 40
0.0
  9
$USERR2
 40
0.0
  9
$USERR3
 40
0.0
  9
$USERR4
 40
0.0
  9
$USERR5
 40
0.0
  9
$WORLDVIEW
 70
     1
  9
$SHADEDGE
 70
     3
  9
$SHADEDIF
 70
    70
  9
$TILEMODE
 70
     1
  9
$MAXACTVP
 70
    64
  9
$PINSBASE
 10
0.0
 20
0.0
 30
0.0
  9
$PLIMCHECK
 70
     0
  9
$PEXTMIN
 10
1.000000000000000E+20
 20
1.000000000000000E+20
 30
1.000000000000000E+20
  9
$PEXTMAX
 10
-1.000000000000000E+20
 20
-1.000000000000000E+20
 30
-1.000000000000000E+20
  9
$PLIMMIN
 10
0.0
 20
0.0
  9
$PLIMMAX
 10
12.0
 20
9.0
  9
$UNITMODE
 70
     0
  9
$VISRETAIN
 70
     1
  9
$PLINEGEN
 70
     0
  9
$PSLTSCALE
 70
     1
  9
$TREEDEPTH
 70
  3020
  9
$CMLSTYLE
  2
Standard
  9
$CMLJUST
 70
     0
  9
$CMLSCALE
 40
1.0
  9
$PROXYGRAPHICS
 70
     1
  9
$MEASUREMENT
 70
     0
  9
$CELWEIGHT
370
    -1
  9
$ENDCAPS
280
     0
  9
$JOINSTYLE
280
     0
  9
$LWDISPLAY
290
     1
  9
$INSUNITS
 70
     4
  9
$HYPERLINKBASE
  1

  9
$STYLESHEET
  1

  9
$XEDIT
290
     1
  9
$CEPSNTYPE
380
     0
  9
$PSTYLEMODE
290
     1
  9
$FINGERPRINTGUID
  2
{A1F21086-612F-A248-A9EF-A6C6545AE1DE}
  9
$VERSIONGUID
  2
{06B16DAB-C5F5-364D-B52E-539F18D135B4}
  9
$EXTNAMES
290
     1
  9
$PSVPSCALE
 40
0.0
  9
$OLESTARTUP
290
     0
  9
$SORTENTS
280
   127
  9
$INDEXCTL
280
     0
  9
$HIDETEXT
280
     1
  9
$XCLIPFRAME
280
     2
  9
$HALOGAP
280
     0
  9
$OBSCOLOR
 70
   257
  9
$OBSLTYPE
280
     0
  9
$INTERSECTIONDISPLAY
280
     0
  9
$INTERSECTIONCOLOR
 70
   257
  9
$DIMASSOC
280
     2
  9
$PROJECTNAME
  1

  9
$CAMERADISPLAY
290
     0
  9
$LENSLENGTH
 40
50.0
  9
$CAMERAHEIGHT
 40
0.0
  9
$STEPSPERSEC
 40
2.0
  9
$STEPSIZE
 40
6.0
  9
$3DDWFPREC
 40
2.0
  9
$PSOLWIDTH
 40
0.25
  9
$PSOLHEIGHT
 40
4.0
  9
$LOFTANG1
 40
1.570796326794896
  9
$LOFTANG2
 40
1.570796326794896
  9
$LOFTMAG1
 40
0.0
  9
$LOFTMAG2
 40
0.0
  9
$LOFTPARAM
 70
     7
  9
$LOFTNORMALS
280
     1
  9
$LATITUDE
 40
37.795
  9
$LONGITUDE
 40
-122.394
  9
$NORTHDIRECTION
 40
0.0
  9
$TIMEZONE
 70
 -8000
  9
$LIGHTGLYPHDISPLAY
280
     1
  9
$TILEMODELIGHTSYNCH
280
     1
  9
$CMATERIAL
347
11
  9
$SOLIDHIST
280
     0
  9
$SHOWHIST
280
     1
  9
$DWFFRAME
280
     2
  9
$DGNFRAME
280
     0
  9
$REALWORLDSCALE
290
     1
  9
$INTERFERECOLOR
 62
     1
  9
$INTERFEREOBJVS
345
33
  9
$INTERFEREVPVS
346
30
  9
$CSHADOW
280
     0
  9
$SHADOWPLANELOCATION
 40
0.0
  0
ENDSEC
  0
SECTION
  2
CLASSES
  0
CLASS
  1
ACDBDICTIONARYWDFLT
  2
AcDbDictionaryWithDefault
  3
ObjectDBX Classes
 90
        0
 91
        1
280
     0
281
     0
  0
CLASS
  1
MATERIAL
  2
AcDbMaterial
  3
ObjectDBX Classes
 90
     1153
 91
        3
280
     0
281
     0
  0
CLASS
  1
VISUALSTYLE
  2
AcDbVisualStyle
  3
ObjectDBX Classes
 90
     4095
 91
       24
280
     0
281
     0
  0
CLASS
  1
SCALE
  2
AcDbScale
  3
ObjectDBX Classes
 90
     1153
 91
       17
280
     0
281
     0
  0
CLASS
  1
TABLESTYLE
  2
AcDbTableStyle
  3
ObjectDBX Classes
 90
     4095
 91
        1
280
     0
281
     0
  0
CLASS
  1
MLEADERSTYLE
  2
AcDbMLeaderStyle
  3
ACDB_MLEADERSTYLE_CLASS
 90
     4095
 91
        1
280
     0
281
     0
  0
CLASS
  1
ACDBSECTIONVIEWSTYLE
  2
AcDbSectionViewStyle
  3
ObjectDBX Classes
 90
     1025
 91
        1
280
     0
281
     0
  0
CLASS
  1
ACDBDETAILVIEWSTYLE
  2
AcDbDetailViewStyle
  3
ObjectDBX Classes
 90
     1025
 91
        1
280
     0
281
     0
  0
CLASS
  1
DICTIONARYVAR
  2
AcDbDictionaryVar
  3
ObjectDBX Classes
 90
        0
 91
        5
280
     0
281
     0
  0
CLASS
  1
CELLSTYLEMAP
  2
AcDbCellStyleMap
  3
ObjectDBX Classes
 90
     1152
 91
        1
280
     0
281
     0
  0
ENDSEC
  0
SECTION
  2
TABLES
  0
TABLE
  2
VPORT
  5
8
330
0
100
AcDbSymbolTable
 70
     1
  0
VPORT
  5
57
330
8
100
AcDbSymbolTableRecord
100
AcDbViewportTableRecord
  2
*Active
 70
     0
 10
0.0
 20
0.0
 11
1.0
 21
1.0
 12
0.0
 22
0.0
 13
0.0
 23
0.0
 14
1.0
 24
1.0
 15
0.0
 25
0.0
 16
0.0
 26
0.0
 36
1.0
 17
104.9999999737534
 27
-148.4999999628701
 37
0.0
 40
302.939999924255
 41
0.7070707070707534
 42
50.0
 43
0.0
 44
0.0
 50
0.0
 51
0.0
 71
     0
 72
   100
 73
     1
 74
     0
 75
     1
 76
     0
 77
     0
 78
     0
281
     0
 65
     1
110
0.0
120
0.0
130
0.0
111
1.0
121
0.0
131
0.0
112
0.0
122
1.0
132
0.0
 79
     0
146
0.0
 60
     3
 61
     5
292
     1
282
     1
141
0.0
142
0.0
 63
   250
421
  3355443
  0
ENDTAB
  0
TABLE
  2
LTYPE
  5
5
330
0
100
AcDbSymbolTable
 70
     2
  0
LTYPE
  5
5B
330
5
100
AcDbSymbolTableRecord
100
AcDbLinetypeTableRecord
  2
ByBlock
 70
     0
  3

 72
    65
 73
     0
 40
0.0
  0
LTYPE
  5
5C
330
5
100
AcDbSymbolTableRecord
100
AcDbLinetypeTableRecord
  2
ByLayer
 70
     0
  3

 72
    65
 73
     0
 40
0.0
  0
LTYPE
  5
5D
330
5
100
AcDbSymbolTableRecord
100
AcDbLinetypeTableRecord
  2
Continuous
 70
     0
  3
Solid line
 72
    65
 73
     0
 40
0.0
  0
LTYPE
  5
D3
330
5
100
AcDbSymbolTableRecord
100
AcDbLinetypeTableRecord
  2
AI-Linetype-0
 70
     0
  3
Adobe Illustrator Linetype No. 0
 72
    65
 73
     2
 40
1.411111110758333
 49
0.7055555553791667
 74
     0
 49
-0.7055555553791667
 74
     0
  0
ENDTAB
  0
TABLE
  2
LAYER
  5
2
330
0
100
AcDbSymbolTable
 70
     2
  0
LAYER
  5
54
330
2
100
AcDbSymbolTableRecord
100
AcDbLayerTableRecord
  2
0
 70
     0
 62
     7
  6
Continuous
370
    -3
390
F
347
21
  0
LAYER
  5
78
330
2
100
AcDbSymbolTableRecord
100
AcDbLayerTableRecord
  2
レイヤー 1
 70
     0
 62
     7
  6
Continuous
370
     0
390
F
347
21
  0
ENDTAB
  0
TABLE
  2
STYLE
  5
3
330
0
100
AcDbSymbolTable
 70
     2
  0
STYLE
  5
55
330
3
100
AcDbSymbolTableRecord
100
AcDbTextStyleTableRecord
  2
Standard
 70
     0
 40
0.0
 41
1.0
 50
0.0
 71
     0
 42
0.2
  3
txt
  4

  0
STYLE
  5
5A
330
3
100
AcDbSymbolTableRecord
100
AcDbTextStyleTableRecord
  2
Annotative
 70
     0
 40
0.0
 41
1.0
 50
0.0
 71
     0
 42
0.2
  3
txt
  4

1001
AcadAnnotative
1000
AnnotativeData
1002
{
1070
     1
1070
     1
1002
}
  0
ENDTAB
  0
TABLE
  2
VIEW
  5
6
330
0
100
AcDbSymbolTable
 70
     0
  0
ENDTAB
  0
TABLE
  2
UCS
  5
7
330
0
100
AcDbSymbolTable
 70
     0
  0
ENDTAB
  0
TABLE
  2
APPID
  5
9
330
0
100
AcDbSymbolTable
 70
     2
  0
APPID
  5
56
330
9
100
AcDbSymbolTableRecord
100
AcDbRegAppTableRecord
  2
ACAD
 70
     0
  0
APPID
  5
5E
330
9
100
AcDbSymbolTableRecord
100
AcDbRegAppTableRecord
  2
AcadAnnotative
 70
     0
  0
ENDTAB
  0
TABLE
  2
DIMSTYLE
  5
A
330
0
100
AcDbSymbolTable
 70
     2
100
AcDbDimStyleTable
 71
     0
  0
DIMSTYLE
105
58
330
A
100
AcDbSymbolTableRecord
100
AcDbDimStyleTableRecord
  2
Standard
 70
     0
340
55
  0
DIMSTYLE
105
59
330
A
100
AcDbSymbolTableRecord
100
AcDbDimStyleTableRecord
  2
Annotative
 70
     0
340
55
1001
AcadAnnotative
1000
AnnotativeData
1002
{
1070
     1
1070
     1
1002
}
  0
ENDTAB
  0
TABLE
  2
BLOCK_RECORD
  5
1
330
0
100
AcDbSymbolTable
 70
    13
  0
BLOCK_RECORD
  5
70
330
1
100
AcDbSymbolTableRecord
100
AcDbBlockTableRecord
  2
*Model_Space
340
73
 70
     0
280
     1
281
     0
  0
BLOCK_RECORD
  5
6C
330
1
100
AcDbSymbolTableRecord
100
AcDbBlockTableRecord
  2
*Paper_Space
340
6F
 70
     0
280
     1
281
     0
  0
BLOCK_RECORD
  5
74
330
1
100
AcDbSymbolTableRecord
100
AcDbBlockTableRecord
  2
*Paper_Space0
340
77
 70
     0
280
     1
281
     0
  0
BLOCK_RECORD
  5
79
330
1
100
AcDbSymbolTableRecord
100
AcDbBlockTableRecord
  2
Block_0
340
0
102
{BLKREFS
331
7A
102
}
 70
     0
280
     1
281
     0
  0
BLOCK_RECORD
  5
8B
330
1
100
AcDbSymbolTableRecord
100
AcDbBlockTableRecord
  2
Block_1
340
0
102
{BLKREFS
331
8C
102
}
 70
     0
280
     1
281
     0
  0
BLOCK_RECORD
  5
8F
330
1
100
AcDbSymbolTableRecord
100
AcDbBlockTableRecord
  2
Block_2
340
0
102
{BLKREFS
331
90
102
}
 70
     0
280
     1
281
     0
  0
BLOCK_RECORD
  5
9E
330
1
100
AcDbSymbolTableRecord
100
AcDbBlockTableRecord
  2
Block_3
340
0
102
{BLKREFS
331
9F
102
}
 70
     0
280
     1
281
     0
  0
BLOCK_RECORD
  5
A2
330
1
100
AcDbSymbolTableRecord
100
AcDbBlockTableRecord
  2
Block_4
340
0
102
{BLKREFS
331
A3
102
}
 70
     0
280
     1
281
     0
  0
BLOCK_RECORD
  5
AD
330
1
100
AcDbSymbolTableRecord
100
AcDbBlockTableRecord
  2
Block_5
340
0
102
{BLKREFS
331
AE
102
}
 70
     0
280
     1
281
     0
  0
BLOCK_RECORD
  5
B6
330
1
100
AcDbSymbolTableRecord
100
AcDbBlockTableRecord
  2
Block_6
340
0
102
{BLKREFS
331
B7
102
}
 70
     0
280
     1
281
     0
  0
BLOCK_RECORD
  5
BA
330
1
100
AcDbSymbolTableRecord
100
AcDbBlockTableRecord
  2
Block_7
340
0
102
{BLKREFS
331
BB
102
}
 70
     0
280
     1
281
     0
  0
BLOCK_RECORD
  5
C6
330
1
100
AcDbSymbolTableRecord
100
AcDbBlockTableRecord
  2
Block_8
340
0
102
{BLKREFS
331
C7
102
}
 70
     0
280
     1
281
     0
  0
BLOCK_RECORD
  5
CA
330
1
100
AcDbSymbolTableRecord
100
AcDbBlockTableRecord
  2
Block_9
340
0
102
{BLKREFS
331
CB
102
}
 70
     0
280
     1
281
     0
  0
BLOCK_RECORD
  5
D7
330
1
100
AcDbSymbolTableRecord
100
AcDbBlockTableRecord
  2
Block_10
340
0
102
{BLKREFS
331
D8
102
}
 70
     0
280
     1
281
     0
  0
BLOCK_RECORD
  5
DB
330
1
100
AcDbSymbolTableRecord
100
AcDbBlockTableRecord
  2
Block_11
340
0
102
{BLKREFS
331
DC
102
}
 70
     0
280
     1
281
     0
  0
ENDTAB
  0
ENDSEC
  0
SECTION
  2
BLOCKS
  0
BLOCK
  5
71
330
70
100
AcDbEntity
  8
0
100
AcDbBlockBegin
  2
*Model_Space
 70
     0
 10
0.0
 20
0.0
 30
0.0
  3
*Model_Space
  1

  0
ENDBLK
  5
72
330
70
100
AcDbEntity
  8
0
100
AcDbBlockEnd
  0
BLOCK
  5
6D
330
6C
100
AcDbEntity
 67
     1
  8
0
100
AcDbBlockBegin
  2
*Paper_Space
 70
     0
 10
0.0
 20
0.0
 30
0.0
  3
*Paper_Space
  1

  0
ENDBLK
  5
6E
330
6C
100
AcDbEntity
 67
     1
  8
0
100
AcDbBlockEnd
  0
BLOCK
  5
75
330
74
100
AcDbEntity
 67
     1
  8
0
100
AcDbBlockBegin
  2
*Paper_Space0
 70
     0
 10
0.0
 20
0.0
 30
0.0
  3
*Paper_Space0
  1

  0
ENDBLK
  5
76
330
74
100
AcDbEntity
 67
     1
  8
0
100
AcDbBlockEnd
  0
BLOCK
  5
7B
330
79
100
AcDbEntity
  8
0
100
AcDbBlockBegin
  2
Block_0
 70
     0
 10
0.0
 20
0.0
 30
0.0
  3
Block_0
  1

  0
LWPOLYLINE
  5
7D
330
79
100
AcDbEntity
  8
レイヤー 1
 62
   250
420
  2299925
370
    25
100
AcDbPolyline
 90
       12
 70
     1
 43
0.0
 10
120.7426536096445
 20
-144.6554989017529
 10
98.54245164245243
 20
-144.6554989017529
 10
98.54245164245243
 20
-156.8552597016222
 10
106.9422667059334
 20
-156.8552597016222
 10
106.9422667059334
 20
-155.4551905706743
 10
103.7422925027836
 20
-155.4551905706743
 10
103.7422925027836
 20
-154.6552317021941
 10
107.7422255744136
 20
-154.6552317021941
 10
107.7422255744136
 20
-157.6552185701025
 10
97.74249277397252
 20
-157.6552185701025
 10
97.74249277397252
 20
-143.8555400332727
 10
120.7426536096445
 20
-143.8555400332727
  0
HATCH
  5
7E
330
79
100
AcDbEntity
  8
レイヤー 1
 62
   250
420
  2299925
440
 33554687
100
AcDbHatch
 10
0.0
 20
0.0
 30
0.0
210
0.0
220
0.0
230
1.0
  2
SOLID
 70
     1
 71
     1
 91
        1
 92
        1
 93
       12
 72
     1
 10
120.7426536096445
 20
-144.6554989017529
 11
98.54245164245243
 21
-144.6554989017529
 72
     1
 10
98.54245164245243
 20
-144.6554989017529
 11
98.54245164245243
 21
-156.8552597016222
 72
     1
 10
98.54245164245243
 20
-156.8552597016222
 11
106.9422667059334
 21
-156.8552597016222
 72
     1
 10
106.9422667059334
 20
-156.8552597016222
 11
106.9422667059334
 21
-155.4551905706743
 72
     1
 10
106.9422667059334
 20
-155.4551905706743
 11
103.7422925027836
 21
-155.4551905706743
 72
     1
 10
103.7422925027836
 20
-155.4551905706743
 11
103.7422925027836
 21
-154.6552317021941
 72
     1
 10
103.7422925027836
 20
-154.6552317021941
 11
107.7422255744136
 21
-154.6552317021941
 72
     1
 10
107.7422255744136
 20
-154.6552317021941
 11
107.7422255744136
 21
-157.6552185701025
 72
     1
 10
107.7422255744136
 20
-157.6552185701025
 11
97.74249277397252
 21
-157.6552185701025
 72
     1
 10
97.74249277397252
 20
-157.6552185701025
 11
97.74249277397252
 21
-143.8555400332727
 72
     1
 10
97.74249277397252
 20
-143.8555400332727
 11
120.7426536096445
 21
-143.8555400332727
 72
     1
 10
120.7426536096445
 20
-143.8555400332727
 11
120.7426536096445
 21
-144.6554989017529
 97
        1
330
7D
 75
     2
 76
     1
 98
        1
 10
0.0
 20
0.0
450
        0
451
        0
460
0.0
461
0.0
452
        0
462
0.0
453
        0
470

  0
SPLINE
  5
7F
330
79
100
AcDbEntity
  8
レイヤー 1
 62
   250
420
  2299925
370
     9
100
AcDbSpline
210
0.0
220
0.0
230
1.0
 70
     9
 71
     3
 72
    17
 73
    13
 74
     0
 42
0.0000000001
 43
0.0000000001
 40
0.0
 40
0.0
 40
0.0
 40
0.0
 40
1.0
 40
1.0
 40
1.0
 40
2.0
 40
2.0
 40
2.0
 40
3.0
 40
3.0
 40
3.0
 40
4.0
 40
4.0
 40
4.0
 40
4.0
 10
124.8423165270428
 20
-143.8555400332727
 30
0.0
 10
124.8423165270428
 20
-143.7997286091959
 30
0.0
 10
124.7975137504081
 20
-143.7556313869847
 30
0.0
 10
124.742409862925
 20
-143.7556313869847
 30
0.0
 10
124.687270697665
 20
-143.7556313869847
 30
0.0
 10
124.6425031988072
 20
-143.7997286091959
 30
0.0
 10
124.6425031988072
 20
-143.8555400332727
 30
0.0
 10
124.6425031988072
 20
-143.9106791985327
 30
0.0
 10
124.687270697665
 20
-143.9554466973905
 30
0.0
 10
124.742409862925
 20
-143.9554466973905
 30
0.0
 10
124.7975137504081
 20
-143.9554466973905
 30
0.0
 10
124.8423165270428
 20
-143.9106791985327
 30
0.0
 10
124.8423165270428
 20
-143.8555400332727
 30
0.0
  0
SPLINE
  5
80
330
79
100
AcDbEntity
  8
レイヤー 1
 62
   250
420
  2299925
370
     9
100
AcDbSpline
210
0.0
220
0.0
230
1.0
 70
     9
 71
     3
 72
    17
 73
    13
 74
     0
 42
0.0000000001
 43
0.0000000001
 40
0.0
 40
0.0
 40
0.0
 40
0.0
 40
1.0
 40
1.0
 40
1.0
 40
2.0
 40
2.0
 40
2.0
 40
3.0
 40
3.0
 40
3.0
 40
4.0
 40
4.0
 40
4.0
 40
4.0
 10
124.8423165270428
 20
-144.6554989017529
 30
0.0
 10
124.8423165270428
 20
-144.6003950142699
 30
0.0
 10
124.7975137504081
 20
-144.5555922376351
 30
0.0
 10
124.742409862925
 20
-144.5555922376351
 30
0.0
 10
124.687270697665
 20
-144.5555922376351
 30
0.0
 10
124.6425031988072
 20
-144.6003950142699
 30
0.0
 10
124.6425031988072
 20
-144.6554989017529
 30
0.0
 10
124.6425031988072
 20
-144.7106380670129
 30
0.0
 10
124.687270697665
 20
-144.7554036089563
 30
0.0
 10
124.742409862925
 20
-144.7554036089563
 30
0.0
 10
124.7975137504081
 20
-144.7554036089563
 30
0.0
 10
124.8423165270428
 20
-144.7106380670129
 30
0.0
 10
124.8423165270428
 20
-144.6554989017529
 30
0.0
  0
SPLINE
  5
81
330
79
100
AcDbEntity
  8
レイヤー 1
 62
   250
420
  2299925
370
     9
100
AcDbSpline
210
0.0
220
0.0
230
1.0
 70
     9
 71
     3
 72
    17
 73
    13
 74
     0
 42
0.0000000001
 43
0.0000000001
 40
0.0
 40
0.0
 40
0.0
 40
0.0
 40
1.0
 40
1.0
 40
1.0
 40
2.0
 40
2.0
 40
2.0
 40
3.0
 40
3.0
 40
3.0
 40
4.0
 40
4.0
 40
4.0
 40
4.0
 10
120.8425574624185
 20
-139.8551106908877
 30
0.0
 10
120.8425574624185
 20
-139.7999715256278
 30
0.0
 10
120.7977546857838
 20
-139.7552040267699
 30
0.0
 10
120.7426536096445
 20
-139.7552040267699
 30
0.0
 10
120.6875116330407
 20
-139.7552040267699
 30
0.0
 10
120.6427441341828
 20
-139.7999715256278
 30
0.0
 10
120.6427441341828
 20
-139.8551106908877
 30
0.0
 10
120.6427441341828
 20
-139.9102145783708
 30
0.0
 10
120.6875116330407
 20
-139.9550173550055
 30
0.0
 10
120.7426536096445
 20
-139.9550173550055
 30
0.0
 10
120.7977546857838
 20
-139.9550173550055
 30
0.0
 10
120.8425574624185
 20
-139.9102145783708
 30
0.0
 10
120.8425574624185
 20
-139.8551106908877
 30
0.0
  0
SPLINE
  5
82
330
79
100
AcDbEntity
  8
レイヤー 1
 62
   250
420
  2299925
370
     9
100
AcDbSpline
210
0.0
220
0.0
230
1.0
 70
     9
 71
     3
 72
    17
 73
    13
 74
     0
 42
0.0000000001
 43
0.0000000001
 40
0.0
 40
0.0
 40
0.0
 40
0.0
 40
1.0
 40
1.0
 40
1.0
 40
2.0
 40
2.0
 40
2.0
 40
3.0
 40
3.0
 40
3.0
 40
4.0
 40
4.0
 40
4.0
 40
4.0
 10
107.842837794069
 20
-161.6556831902643
 30
0.0
 10
107.842837794069
 20
-161.5998737472437
 30
0.0
 10
107.7980350174342
 20
-161.5550709706089
 30
0.0
 10
107.7422255744136
 20
-161.5550709706089
 30
0.0
 10
107.6871216869305
 20
-161.5550709706089
 30
0.0
 10
107.6423189102958
 20
-161.5998737472437
 30
0.0
 10
107.6423189102958
 20
-161.6556831902643
 30
0.0
 10
107.6423189102958
 20
-161.7107870777474
 30
0.0
 10
107.6871216869305
 20
-161.7555898543822
 30
0.0
 10
107.7422255744136
 20
-161.7555898543822
 30
0.0
 10
107.7980350174342
 20
-161.7555898543822
 30
0.0
 10
107.842837794069
 20
-161.7107870777474
 30
0.0
 10
107.842837794069
 20
-161.6556831902643
 30
0.0
  0
CIRCLE
  5
83
330
79
100
AcDbEntity
  8
レイヤー 1
 62
   250
420
  2299925
370
     9
100
AcDbCircle
 10
124.742409862925
 20
-157.6552185701025
 30
0.0
 40
0.0999066641178353
  0
CIRCLE
  5
84
330
79
100
AcDbEntity
  8
レイヤー 1
 62
   250
420
  2299925
370
     9
100
AcDbCircle
 10
124.742409862925
 20
-154.6552317021941
 30
0.0
 40
0.0999066641178353
  0
CIRCLE
  5
85
330
79
100
AcDbEntity
  8
レイヤー 1
 62
   250
420
  2299925
370
     9
100
AcDbCircle
 10
97.74249277397236
 20
-139.8551106908877
 30
0.0
 40
0.0999066641179156
  0
SPLINE
  5
86
330
79
100
AcDbEntity
  8
レイヤー 1
 62
   250
420
  2299925
370
     9
100
AcDbSpline
210
0.0
220
0.0
230
1.0
 70
     9
 71
     3
 72
    17
 73
    13
 74
     0
 42
0.0000000001
 43
0.0000000001
 40
0.0
 40
0.0
 40
0.0
 40
0.0
 40
1.0
 40
1.0
 40
1.0
 40
2.0
 40
2.0
 40
2.0
 40
3.0
 40
3.0
 40
3.0
 40
4.0
 40
4.0
 40
4.0
 40
4.0
 10
97.84239943809003
 20
-161.6556831902643
 30
0.0
 10
97.84239943809003
 20
-161.5998737472437
 30
0.0
 10
97.7976341709366
 20
-161.5550709706089
 30
0.0
 10
97.74249277397252
 20
-161.5550709706089
 30
0.0
 10
97.68738888648945
 20
-161.5550709706089
 30
0.0
 10
97.64258610985436
 20
-161.5998737472437
 30
0.0
 10
97.64258610985436
 20
-161.6556831902643
 30
0.0
 10
97.64258610985436
 20
-161.7107870777474
 30
0.0
 10
97.68738888648945
 20
-161.7555898543822
 30
0.0
 10
97.74249277397252
 20
-161.7555898543822
 30
0.0
 10
97.7976341709366
 20
-161.7555898543822
 30
0.0
 10
97.84239943809003
 20
-161.7107870777474
 30
0.0
 10
97.84239943809003
 20
-161.6556831902643
 30
0.0
  0
LINE
  5
87
330
79
100
AcDbEntity
  8
レイヤー 1
 62
   250
420
  2299925
370
     9
100
AcDbLine
 10
124.742409862925
 20
-143.8555400332727
 30
0.0
 11
124.742409862925
 21
-138.59763433408
 31
0.0
  0
LINE
  5
88
330
79
100
AcDbEntity
  8
レイヤー 1
 62
   250
420
  2299925
370
     9
100
AcDbLine
 10
124.742409862925
 20
-143.8555400332727
 30
0.0
 11
124.742409862925
 21
-144.6554989017529
 31
0.0
  0
LINE
  5
89
330
79
100
AcDbEntity
  8
レイヤー 1
 62
   250
420
  2299925
370
     9
100
AcDbLine
 10
123.2823685112849
 20
-143.8555400332727
 30
0.0
 11
125.7428523374016
 21
-143.8555400332727
 31
0.0
  0
LINE
  5
8A
330
79
100
AcDbEntity
  8
レイヤー 1
 62
   250
420
  2299925
370
     9
100
AcDbLine
 10
123.2823685112849
 20
-144.6554989017529
 30
0.0
 11
125.7428523374016
 21
-144.6554989017529
 31
0.0
  0
INSERT
  5
8C
330
79
100
AcDbEntity
  8
レイヤー 1
100
AcDbBlockReference
  2
Block_1
 10
0.0
 20
0.0
 30
0.0
  0
LINE
  5
9C
330
79
100
AcDbEntity
  8
レイヤー 1
 62
   250
420
  2299925
370
     9
100
AcDbLine
 10
124.742409862925
 20
-154.6552317021941
 30
0.0
 11
124.742409862925
 21
-144.6554989017529
 31
0.0
  0
LINE
  5
9D
330
79
100
AcDbEntity
  8
レイヤー 1
 62
   250
420
  2299925
370
     9
100
AcDbLine
 10
110.2826488429353
 20
-154.6552317021941
 30
0.0
 11
125.7428523374016
 21
-154.6552317021941
 31
0.0
  0
INSERT
  5
9F
330
79
100
AcDbEntity
  8
レイヤー 1
100
AcDbBlockReference
  2
Block_3
 10
0.0
 20
0.0
 30
0.0
  0
LINE
  5
AB
330
79
100
AcDbEntity
  8
レイヤー 1
 62
   250
420
  2299925
370
     9
100
AcDbLine
 10
124.742409862925
 20
-154.6552317021941
 30
0.0
 11
124.742409862925
 21
-157.6552185701025
 31
0.0
  0
LINE
  5
AC
330
79
100
AcDbEntity
  8
レイヤー 1
 62
   250
420
  2299925
370
     9
100
AcDbLine
 10
110.2826488429353
 20
-157.6552185701025
 30
0.0
 11
125.7428523374016
 21
-157.6552185701025
 31
0.0
  0
INSERT
  5
AE
330
79
100
AcDbEntity
  8
レイヤー 1
100
AcDbBlockReference
  2
Block_5
 10
0.0
 20
0.0
 30
0.0
  0
LINE
  5
B3
330
79
100
AcDbEntity
  8
レイヤー 1
 62
   250
420
  2299925
370
     9
100
AcDbLine
 10
97.74249277397252
 20
-161.6556831902643
 30
0.0
 11
107.7422255744136
 21
-161.6556831902643
 31
0.0
  0
LINE
  5
B4
330
79
100
AcDbEntity
  8
レイヤー 1
 62
   250
420
  2299925
370
     9
100
AcDbLine
 10
97.74249277397252
 20
-160.1956418386242
 30
0.0
 11
97.74249277397252
 21
-162.6554201092034
 31
0.0
  0
LINE
  5
B5
330
79
100
AcDbEntity
  8
レイヤー 1
 62
   250
420
  2299925
370
     9
100
AcDbLine
 10
107.7422255744136
 20
-160.1956418386242
 30
0.0
 11
107.7422255744136
 21
-162.6554201092034
 31
0.0
  0
INSERT
  5
B7
330
79
100
AcDbEntity
  8
レイヤー 1
100
AcDbBlockReference
  2
Block_6
 10
0.0
 20
0.0
 30
0.0
  0
LINE
  5
C3
330
79
100
AcDbEntity
  8
レイヤー 1
 62
   250
420
  2299925
370
     9
100
AcDbLine
 10
97.74249277397252
 20
-139.8551106908877
 30
0.0
 11
120.7426536096445
 21
-139.8551106908877
 31
0.0
  0
LINE
  5
C4
330
79
100
AcDbEntity
  8
レイヤー 1
 62
   250
420
  2299925
370
     9
100
AcDbLine
 10
97.74249277397252
 20
-141.3151520425278
 30
0.0
 11
97.74249277397252
 21
-138.8553384941721
 31
0.0
  0
LINE
  5
C5
330
79
100
AcDbEntity
  8
レイヤー 1
 62
   250
420
  2299925
370
     9
100
AcDbLine
 10
120.7426536096445
 20
-141.3151520425278
 30
0.0
 11
120.7426536096445
 21
-138.8553384941721
 31
0.0
  0
INSERT
  5
C7
330
79
100
AcDbEntity
  8
レイヤー 1
100
AcDbBlockReference
  2
Block_8
 10
0.0
 20
0.0
 30
0.0
  0
ENDBLK
  5
7C
330
79
100
AcDbEntity
  8
0
100
AcDbBlockEnd
  0
BLOCK
  5
8D
330
8B
100
AcDbEntity
  8
0
100
AcDbBlockBegin
  2
Block_1
 70
     0
 10
0.0
 20
0.0
 30
0.0
  3
Block_1
  1

  0
INSERT
  5
90
330
8B
100
AcDbEntity
  8
レイヤー 1
100
AcDbBlockReference
  2
Block_2
 10
0.0
 20
0.0
 30
0.0
  0
ENDBLK
  5
8E
330
8B
100
AcDbEntity
  8
0
100
AcDbBlockEnd
  0
BLOCK
  5
91
330
8F
100
AcDbEntity
  8
0
100
AcDbBlockBegin
  2
Block_2
 70
     0
 10
0.0
 20
0.0
 30
0.0
  3
Block_2
  1

  0
SPLINE
  5
93
330
8F
100
AcDbEntity
  8
レイヤー 1
100
AcDbSpline
210
0.0
220
0.0
230
1.0
 70
     9
 71
     3
 72
    17
 73
    13
 74
     0
 42
0.0000000001
 43
0.0000000001
 40
0.0
 40
0.0
 40
0.0
 40
0.0
 40
1.0
 40
1.0
 40
1.0
 40
2.0
 40
2.0
 40
2.0
 40
3.0
 40
3.0
 40
3.0
 40
4.0
 40
4.0
 40
4.0
 40
4.0
 10
121.9908311326967
 20
-141.774980975841
 30
0.0
 10
121.9908311326967
 20
-142.0416313663993
 30
0.0
 10
122.2743624911328
 20
-142.0912407413869
 30
0.0
 10
122.6192165492063
 20
-142.0912407413869
 30
0.0
 10
122.9385769006889
 20
-142.0912407413869
 30
0.0
 10
123.2472574561673
 20
-142.0530001815006
 30
0.0
 10
123.2472574561673
 20
-141.774980975841
 30
0.0
 10
123.2472574561673
 20
-141.5103976425738
 30
0.0
 10
122.9661376645709
 20
-141.4583767007465
 30
0.0
 10
122.6192165492063
 20
-141.4583767007465
 30
0.0
 10
122.2995116881751
 20
-141.4583767007465
 30
0.0
 10
121.9908311326967
 20
-141.4990288274724
 30
0.0
 10
121.9908311326967
 20
-141.774980975841
 30
0.0
  0
SPLINE
  5
94
330
8F
100
AcDbEntity
  8
レイヤー 1
100
AcDbSpline
210
0.0
220
0.0
230
1.0
 70
     9
 71
     3
 72
    29
 73
    25
 74
     0
 42
0.0000000001
 43
0.0000000001
 40
0.0
 40
0.0
 40
0.0
 40
0.0
 40
1.0
 40
1.0
 40
1.0
 40
2.0
 40
2.0
 40
2.0
 40
3.0
 40
3.0
 40
3.0
 40
4.0
 40
4.0
 40
4.0
 40
5.0
 40
5.0
 40
5.0
 40
6.0
 40
6.0
 40
6.0
 40
7.0
 40
7.0
 40
7.0
 40
8.0
 40
8.0
 40
8.0
 40
8.0
 10
123.2134955204119
 20
-141.3498561929611
 30
0.0
 10
123.4229573259151
 20
-141.465266891717
 30
0.0
 10
123.4419053510839
 20
-141.6506130288234
 30
0.0
 10
123.4419053510839
 20
-141.774980975841
 30
0.0
 10
123.4419053510839
 20
-141.9465467310064
 30
0.0
 10
123.3953965620331
 20
-142.0981309323574
 30
0.0
 10
123.2134955204119
 20
-142.1997612491723
 30
0.0
 10
123.0188476254953
 20
-142.3106933237973
 30
0.0
 10
122.7821695656586
 20
-142.3310193871603
 30
0.0
 10
122.6192165492063
 20
-142.3310193871603
 30
0.0
 10
122.4752115579228
 20
-142.3310193871603
 30
0.0
 10
122.2233750779511
 20
-142.3127603810885
 30
0.0
 10
122.0245930684522
 20
-142.1997612491723
 30
0.0
 10
121.821676944371
 20
-142.0846950599649
 30
0.0
 10
121.7982502950712
 20
-141.912784795251
 30
0.0
 10
121.7982502950712
 20
-141.774980975841
 30
0.0
 10
121.7982502950712
 20
-141.6051377684181
 30
0.0
 10
121.842692026831
 20
-141.451486509776
 30
0.0
 10
122.0245930684522
 20
-141.3498561929611
 30
0.0
 10
122.2171739060776
 20
-141.2434027424669
 30
0.0
 10
122.4455837367497
 20
-141.2185980549731
 30
0.0
 10
122.6192165492063
 20
-141.2185980549731
 30
0.0
 10
122.7904377948232
 20
-141.2185980549731
 30
0.0
 10
123.0209146827864
 20
-141.2413356851758
 30
0.0
 10
123.2134955204119
 20
-141.3498561929611
 30
0.0
  0
HATCH
  5
95
330
8F
100
AcDbEntity
  8
レイヤー 1
 62
   250
420
  2299925
440
 33554687
100
AcDbHatch
 10
0.0
 20
0.0
 30
0.0
210
0.0
220
0.0
230
1.0
  2
SOLID
 70
     1
 71
     1
 91
        2
 92
        1
 93
        1
 72
     4
 94
        3
 73
     0
 74
     0
 95
       17
 96
       13
 40
0.0
 40
0.0
 40
0.0
 40
0.0
 40
1.0
 40
1.0
 40
1.0
 40
2.0
 40
2.0
 40
2.0
 40
3.0
 40
3.0
 40
3.0
 40
4.0
 40
4.0
 40
4.0
 40
4.0
 10
121.9908311326967
 20
-141.774980975841
 10
121.9908311326967
 20
-142.0416313663993
 10
122.2743624911328
 20
-142.0912407413869
 10
122.6192165492063
 20
-142.0912407413869
 10
122.9385769006889
 20
-142.0912407413869
 10
123.2472574561673
 20
-142.0530001815006
 10
123.2472574561673
 20
-141.774980975841
 10
123.2472574561673
 20
-141.5103976425738
 10
122.9661376645709
 20
-141.4583767007465
 10
122.6192165492063
 20
-141.4583767007465
 10
122.2995116881751
 20
-141.4583767007465
 10
121.9908311326967
 20
-141.4990288274724
 10
121.9908311326967
 20
-141.774980975841
 97
        0
 97
        1
330
93
 92
        1
 93
        1
 72
     4
 94
        3
 73
     0
 74
     0
 95
       29
 96
       25
 40
0.0
 40
0.0
 40
0.0
 40
0.0
 40
1.0
 40
1.0
 40
1.0
 40
2.0
 40
2.0
 40
2.0
 40
3.0
 40
3.0
 40
3.0
 40
4.0
 40
4.0
 40
4.0
 40
5.0
 40
5.0
 40
5.0
 40
6.0
 40
6.0
 40
6.0
 40
7.0
 40
7.0
 40
7.0
 40
8.0
 40
8.0
 40
8.0
 40
8.0
 10
123.2134955204119
 20
-141.3498561929611
 10
123.4229573259151
 20
-141.465266891717
 10
123.4419053510839
 20
-141.6506130288234
 10
123.4419053510839
 20
-141.774980975841
 10
123.4419053510839
 20
-141.9465467310064
 10
123.3953965620331
 20
-142.0981309323574
 10
123.2134955204119
 20
-142.1997612491723
 10
123.0188476254953
 20
-142.3106933237973
 10
122.7821695656586
 20
-142.3310193871603
 10
122.6192165492063
 20
-142.3310193871603
 10
122.4752115579228
 20
-142.3310193871603
 10
122.2233750779511
 20
-142.3127603810885
 10
122.0245930684522
 20
-142.1997612491723
 10
121.821676944371
 20
-142.0846950599649
 10
121.7982502950712
 20
-141.912784795251
 10
121.7982502950712
 20
-141.774980975841
 10
121.7982502950712
 20
-141.6051377684181
 10
121.842692026831
 20
-141.451486509776
 10
122.0245930684522
 20
-141.3498561929611
 10
122.2171739060776
 20
-141.2434027424669
 10
122.4455837367497
 20
-141.2185980549731
 10
122.6192165492063
 20
-141.2185980549731
 10
122.7904377948232
 20
-141.2185980549731
 10
123.0209146827864
 20
-141.2413356851758
 10
123.2134955204119
 20
-141.3498561929611
 97
        0
 97
        1
330
94
 75
     2
 76
     1
 98
        1
 10
0.0
 20
0.0
450
        0
451
        0
460
0.0
461
0.0
452
        0
462
0.0
453
        0
470

  0
SPLINE
  5
96
330
8F
100
AcDbEntity
  8
レイヤー 1
100
AcDbSpline
210
0.0
220
0.0
230
1.0
 70
    11
 71
     3
 72
    17
 73
    13
 74
     0
 42
0.0000000001
 43
0.0000000001
 40
0.0
 40
0.0
 40
0.0
 40
0.0
 40
1.0
 40
1.0
 40
1.0
 40
2.0
 40
2.0
 40
2.0
 40
3.0
 40
3.0
 40
3.0
 40
4.0
 40
4.0
 40
4.0
 40
4.0
 10
123.3912624474508
 20
-140.9874321479128
 30
0.0
 10
123.3912624474508
 20
-140.9874321479128
 30
0.0
 10
123.139425967479
 20
-140.9874321479128
 30
0.0
 10
123.139425967479
 20
-140.9874321479128
 30
0.0
 10
123.139425967479
 20
-140.9874321479128
 30
0.0
 10
123.139425967479
 20
-140.7183701905148
 30
0.0
 10
123.139425967479
 20
-140.7183701905148
 30
0.0
 10
123.139425967479
 20
-140.7183701905148
 30
0.0
 10
123.3912624474508
 20
-140.7183701905148
 30
0.0
 10
123.3912624474508
 20
-140.7183701905148
 30
0.0
 10
123.3912624474508
 20
-140.7183701905148
 30
0.0
 10
123.3912624474508
 20
-140.9874321479128
 30
0.0
 10
123.3912624474508
 20
-140.9874321479128
 30
0.0
  0
HATCH
  5
97
330
8F
100
AcDbEntity
  8
レイヤー 1
 62
   250
420
  2299925
440
 33554687
100
AcDbHatch
 10
0.0
 20
0.0
 30
0.0
210
0.0
220
0.0
230
1.0
  2
SOLID
 70
     1
 71
     1
 91
        1
 92
        1
 93
        1
 72
     4
 94
        3
 73
     0
 74
     0
 95
       17
 96
       13
 40
0.0
 40
0.0
 40
0.0
 40
0.0
 40
1.0
 40
1.0
 40
1.0
 40
2.0
 40
2.0
 40
2.0
 40
3.0
 40
3.0
 40
3.0
 40
4.0
 40
4.0
 40
4.0
 40
4.0
 10
123.3912624474508
 20
-140.9874321479128
 10
123.3912624474508
 20
-140.9874321479128
 10
123.139425967479
 20
-140.9874321479128
 10
123.139425967479
 20
-140.9874321479128
 10
123.139425967479
 20
-140.9874321479128
 10
123.139425967479
 20
-140.7183701905148
 10
123.139425967479
 20
-140.7183701905148
 10
123.139425967479
 20
-140.7183701905148
 10
123.3912624474508
 20
-140.7183701905148
 10
123.3912624474508
 20
-140.7183701905148
 10
123.3912624474508
 20
-140.7183701905148
 10
123.3912624474508
 20
-140.9874321479128
 10
123.3912624474508
 20
-140.9874321479128
 97
        0
 97
        1
330
96
 75
     2
 76
     1
 98
        1
 10
0.0
 20
0.0
450
        0
451
        0
460
0.0
461
0.0
452
        0
462
0.0
453
        0
470

  0
SPLINE
  5
98
330
8F
100
AcDbEntity
  8
レイヤー 1
100
AcDbSpline
210
0.0
220
0.0
230
1.0
 70
     9
 71
     3
 72
    17
 73
    13
 74
     0
 42
0.0000000001
 43
0.0000000001
 40
0.0
 40
0.0
 40
0.0
 40
0.0
 40
1.0
 40
1.0
 40
1.0
 40
2.0
 40
2.0
 40
2.0
 40
3.0
 40
3.0
 40
3.0
 40
4.0
 40
4.0
 40
4.0
 40
4.0
 10
122.6509114276706
 20
-139.9311658721352
 30
0.0
 10
122.6509114276706
 20
-140.0848171307774
 30
0.0
 10
122.7377278338989
 20
-140.2474256376812
 30
0.0
 10
122.9406439579801
 20
-140.2474256376812
 30
0.0
 10
123.145971648901
 20
-140.2474256376812
 30
0.0
 10
123.2472574561673
 20
-140.1120333851109
 30
0.0
 10
123.2472574561673
 20
-139.9311658721352
 30
0.0
 10
123.2472574561673
 20
-139.7320393530878
 30
0.0
 10
123.1246120568924
 20
-139.6145615970408
 30
0.0
 10
122.9468451298535
 20
-139.6145615970408
 30
0.0
 10
122.7249809806034
 20
-139.6145615970408
 30
0.0
 10
122.6509114276706
 20
-139.7885389190459
 30
0.0
 10
122.6509114276706
 20
-139.9311658721352
 30
0.0
  0
SPLINE
  5
99
330
8F
100
AcDbEntity
  8
レイヤー 1
100
AcDbSpline
210
0.0
220
0.0
230
1.0
 70
     9
 71
     3
 72
    17
 73
    13
 74
     0
 42
0.0000000001
 43
0.0000000001
 40
0.0
 40
0.0
 40
0.0
 40
0.0
 40
1.0
 40
1.0
 40
1.0
 40
2.0
 40
2.0
 40
2.0
 40
3.0
 40
3.0
 40
3.0
 40
4.0
 40
4.0
 40
4.0
 40
4.0
 10
121.9908311326967
 20
-139.9311658721352
 30
0.0
 10
121.9908311326967
 20
-140.1072102514315
 30
0.0
 10
122.0859157680896
 20
-140.1978162626936
 30
0.0
 10
122.2213080206599
 20
-140.1978162626936
 30
0.0
 10
122.3439534199348
 20
-140.1978162626936
 30
0.0
 10
122.4624647046274
 20
-140.1209906333725
 30
0.0
 10
122.4624647046274
 20
-139.9311658721352
 30
0.0
 10
122.4624647046274
 20
-139.7409966013495
 30
0.0
 10
122.3439534199348
 20
-139.6641709720284
 30
0.0
 10
122.2213080206599
 20
-139.6641709720284
 30
0.0
 10
122.0859157680896
 20
-139.6641709720284
 30
0.0
 10
121.9908311326967
 20
-139.7568440405816
 30
0.0
 10
121.9908311326967
 20
-139.9311658721352
 30
0.0
  0
SPLINE
  5
9A
330
8F
100
AcDbEntity
  8
レイヤー 1
100
AcDbSpline
210
0.0
220
0.0
230
1.0
 70
     9
 71
     3
 72
    29
 73
    25
 74
     0
 42
0.0000000001
 43
0.0000000001
 40
0.0
 40
0.0
 40
0.0
 40
0.0
 40
1.0
 40
1.0
 40
1.0
 40
2.0
 40
2.0
 40
2.0
 40
3.0
 40
3.0
 40
3.0
 40
4.0
 40
4.0
 40
4.0
 40
5.0
 40
5.0
 40
5.0
 40
6.0
 40
6.0
 40
6.0
 40
7.0
 40
7.0
 40
7.0
 40
8.0
 40
8.0
 40
8.0
 40
8.0
 10
123.4419053510839
 20
-139.9311658721352
 30
0.0
 10
123.4419053510839
 20
-140.2160752687654
 30
0.0
 10
123.3044460412225
 20
-140.4872042834545
 30
0.0
 10
122.9554578685667
 20
-140.4872042834545
 30
0.0
 10
122.6994872740126
 20
-140.4872042834545
 30
0.0
 10
122.6044026386197
 20
-140.3356200821036
 30
0.0
 10
122.5430799389823
 20
-140.2226209501874
 30
0.0
 10
122.483824296636
 20
-140.3559461454666
 30
0.0
 10
122.3694471265257
 20
-140.437594908467
 30
0.0
 10
122.2085611673645
 20
-140.437594908467
 30
0.0
 10
121.9336425476416
 20
-140.437594908467
 30
0.0
 10
121.7982502950712
 20
-140.225032517027
 30
0.0
 10
121.7982502950712
 20
-139.9311658721352
 30
0.0
 10
121.7982502950712
 20
-139.6279974694333
 30
0.0
 10
121.9422552863547
 20
-139.4247368358035
 30
0.0
 10
122.2085611673645
 20
-139.4247368358035
 30
0.0
 10
122.3694471265257
 20
-139.4247368358035
 30
0.0
 10
122.483824296636
 20
-139.5081081465466
 30
0.0
 10
122.5430799389823
 20
-139.6417778513743
 30
0.0
 10
122.5937228426154
 20
-139.5466932159814
 30
0.0
 10
122.6888074780083
 20
-139.3771945181071
 30
0.0
 10
122.9513237539844
 20
-139.3771945181071
 30
0.0
 10
123.325805633231
 20
-139.3771945181071
 30
0.0
 10
123.4419053510839
 20
-139.6755397871297
 30
0.0
 10
123.4419053510839
 20
-139.9311658721352
 30
0.0
  0
HATCH
  5
9B
330
8F
100
AcDbEntity
  8
レイヤー 1
 62
   250
420
  2299925
440
 33554687
100
AcDbHatch
 10
0.0
 20
0.0
 30
0.0
210
0.0
220
0.0
230
1.0
  2
SOLID
 70
     1
 71
     1
 91
        3
 92
        1
 93
        1
 72
     4
 94
        3
 73
     0
 74
     0
 95
       17
 96
       13
 40
0.0
 40
0.0
 40
0.0
 40
0.0
 40
1.0
 40
1.0
 40
1.0
 40
2.0
 40
2.0
 40
2.0
 40
3.0
 40
3.0
 40
3.0
 40
4.0
 40
4.0
 40
4.0
 40
4.0
 10
122.6509114276706
 20
-139.9311658721352
 10
122.6509114276706
 20
-140.0848171307774
 10
122.7377278338989
 20
-140.2474256376812
 10
122.9406439579801
 20
-140.2474256376812
 10
123.145971648901
 20
-140.2474256376812
 10
123.2472574561673
 20
-140.1120333851109
 10
123.2472574561673
 20
-139.9311658721352
 10
123.2472574561673
 20
-139.7320393530878
 10
123.1246120568924
 20
-139.6145615970408
 10
122.9468451298535
 20
-139.6145615970408
 10
122.7249809806034
 20
-139.6145615970408
 10
122.6509114276706
 20
-139.7885389190459
 10
122.6509114276706
 20
-139.9311658721352
 97
        0
 97
        1
330
98
 92
        1
 93
        1
 72
     4
 94
        3
 73
     0
 74
     0
 95
       17
 96
       13
 40
0.0
 40
0.0
 40
0.0
 40
0.0
 40
1.0
 40
1.0
 40
1.0
 40
2.0
 40
2.0
 40
2.0
 40
3.0
 40
3.0
 40
3.0
 40
4.0
 40
4.0
 40
4.0
 40
4.0
 10
121.9908311326967
 20
-139.9311658721352
 10
121.9908311326967
 20
-140.1072102514315
 10
122.0859157680896
 20
-140.1978162626936
 10
122.2213080206599
 20
-140.1978162626936
 10
122.3439534199348
 20
-140.1978162626936
 10
122.4624647046274
 20
-140.1209906333725
 10
122.4624647046274
 20
-139.9311658721352
 10
122.4624647046274
 20
-139.7409966013495
 10
122.3439534199348
 20
-139.6641709720284
 10
122.2213080206599
 20
-139.6641709720284
 10
122.0859157680896
 20
-139.6641709720284
 10
121.9908311326967
 20
-139.7568440405816
 10
121.9908311326967
 20
-139.9311658721352
 97
        0
 97
        1
330
99
 92
        1
 93
        1
 72
     4
 94
        3
 73
     0
 74
     0
 95
       29
 96
       25
 40
0.0
 40
0.0
 40
0.0
 40
0.0
 40
1.0
 40
1.0
 40
1.0
 40
2.0
 40
2.0
 40
2.0
 40
3.0
 40
3.0
 40
3.0
 40
4.0
 40
4.0
 40
4.0
 40
5.0
 40
5.0
 40
5.0
 40
6.0
 40
6.0
 40
6.0
 40
7.0
 40
7.0
 40
7.0
 40
8.0
 40
8.0
 40
8.0
 40
8.0
 10
123.4419053510839
 20
-139.9311658721352
 10
123.4419053510839
 20
-140.2160752687654
 10
123.3044460412225
 20
-140.4872042834545
 10
122.9554578685667
 20
-140.4872042834545
 10
122.6994872740126
 20
-140.4872042834545
 10
122.6044026386197
 20
-140.3356200821036
 10
122.5430799389823
 20
-140.2226209501874
 10
122.483824296636
 20
-140.3559461454666
 10
122.3694471265257
 20
-140.437594908467
 10
122.2085611673645
 20
-140.437594908467
 10
121.9336425476416
 20
-140.437594908467
 10
121.7982502950712
 20
-140.225032517027
 10
121.7982502950712
 20
-139.9311658721352
 10
121.7982502950712
 20
-139.6279974694333
 10
121.9422552863547
 20
-139.4247368358035
 10
122.2085611673645
 20
-139.4247368358035
 10
122.3694471265257
 20
-139.4247368358035
 10
122.483824296636
 20
-139.5081081465466
 10
122.5430799389823
 20
-139.6417778513743
 10
122.5937228426154
 20
-139.5466932159814
 10
122.6888074780083
 20
-139.3771945181071
 10
122.9513237539844
 20
-139.3771945181071
 10
123.325805633231
 20
-139.3771945181071
 10
123.4419053510839
 20
-139.6755397871297
 10
123.4419053510839
 20
-139.9311658721352
 97
        0
 97
        1
330
9A
 75
     2
 76
     1
 98
        1
 10
0.0
 20
0.0
450
        0
451
        0
460
0.0
461
0.0
452
        0
462
0.0
453
        0
470

  0
ENDBLK
  5
92
330
8F
100
AcDbEntity
  8
0
100
AcDbBlockEnd
  0
BLOCK
  5
A0
330
9E
100
AcDbEntity
  8
0
100
AcDbBlockBegin
  2
Block_3
 70
     0
 10
0.0
 20
0.0
 30
0.0
  3
Block_3
  1

  0
INSERT
  5
A3
330
9E
100
AcDbEntity
  8
レイヤー 1
100
AcDbBlockReference
  2
Block_4
 10
0.0
 20
0.0
 30
0.0
  0
ENDBLK
  5
A1
330
9E
100
AcDbEntity
  8
0
100
AcDbBlockEnd
  0
BLOCK
  5
A4
330
A2
100
AcDbEntity
  8
0
100
AcDbBlockBegin
  2
Block_4
 70
     0
 10
0.0
 20
0.0
 30
0.0
  3
Block_4
  1

  0
SPLINE
  5
A6
330
A2
100
AcDbEntity
  8
レイヤー 1
100
AcDbSpline
210
0.0
220
0.0
230
1.0
 70
    11
 71
     3
 72
    26
 73
    22
 74
     0
 42
0.0000000001
 43
0.0000000001
 40
0.0
 40
0.0
 40
0.0
 40
0.0
 40
1.0
 40
1.0
 40
1.0
 40
2.0
 40
2.0
 40
2.0
 40
3.0
 40
3.0
 40
3.0
 40
4.0
 40
4.0
 40
4.0
 40
5.0
 40
5.0
 40
5.0
 40
6.0
 40
6.0
 40
6.0
 40
7.0
 40
7.0
 40
7.0
 40
7.0
 10
123.3912624474508
 20
-150.3339761993957
 30
0.0
 10
123.3912624474508
 20
-150.3339761993957
 30
0.0
 10
122.2871093444282
 20
-150.3339761993957
 30
0.0
 10
122.2871093444282
 20
-150.3339761993957
 30
0.0
 10
122.2871093444282
 20
-150.3339761993957
 30
0.0
 10
122.2871093444282
 20
-150.6864094675367
 30
0.0
 10
122.2871093444282
 20
-150.6864094675367
 30
0.0
 10
122.2871093444282
 20
-150.6864094675367
 30
0.0
 10
122.1389702385625
 20
-150.6864094675367
 30
0.0
 10
122.1389702385625
 20
-150.6864094675367
 30
0.0
 10
122.1241563279759
 20
-150.331564632556
 30
0.0
 10
121.9612033115236
 20
-150.2819552575684
 30
0.0
 10
121.8468261414133
 20
-150.2502603791041
 30
0.0
 10
121.8468261414133
 20
-150.2502603791041
 30
0.0
 10
121.8468261414133
 20
-150.0941975536222
 30
0.0
 10
121.8468261414133
 20
-150.0941975536222
 30
0.0
 10
121.8468261414133
 20
-150.0941975536222
 30
0.0
 10
123.3912624474508
 20
-150.0941975536222
 30
0.0
 10
123.3912624474508
 20
-150.0941975536222
 30
0.0
 10
123.3912624474508
 20
-150.0941975536222
 30
0.0
 10
123.3912624474508
 20
-150.3339761993957
 30
0.0
 10
123.3912624474508
 20
-150.3339761993957
 30
0.0
  0
HATCH
  5
A7
330
A2
100
AcDbEntity
  8
レイヤー 1
 62
   250
420
  2299925
440
 33554687
100
AcDbHatch
 10
0.0
 20
0.0
 30
0.0
210
0.0
220
0.0
230
1.0
  2
SOLID
 70
     1
 71
     1
 91
        1
 92
        1
 93
        1
 72
     4
 94
        3
 73
     0
 74
     0
 95
       26
 96
       22
 40
0.0
 40
0.0
 40
0.0
 40
0.0
 40
1.0
 40
1.0
 40
1.0
 40
2.0
 40
2.0
 40
2.0
 40
3.0
 40
3.0
 40
3.0
 40
4.0
 40
4.0
 40
4.0
 40
5.0
 40
5.0
 40
5.0
 40
6.0
 40
6.0
 40
6.0
 40
7.0
 40
7.0
 40
7.0
 40
7.0
 10
123.3912624474508
 20
-150.3339761993957
 10
123.3912624474508
 20
-150.3339761993957
 10
122.2871093444282
 20
-150.3339761993957
 10
122.2871093444282
 20
-150.3339761993957
 10
122.2871093444282
 20
-150.3339761993957
 10
122.2871093444282
 20
-150.6864094675367
 10
122.2871093444282
 20
-150.6864094675367
 10
122.2871093444282
 20
-150.6864094675367
 10
122.1389702385625
 20
-150.6864094675367
 10
122.1389702385625
 20
-150.6864094675367
 10
122.1241563279759
 20
-150.331564632556
 10
121.9612033115236
 20
-150.2819552575684
 10
121.8468261414133
 20
-150.2502603791041
 10
121.8468261414133
 20
-150.2502603791041
 10
121.8468261414133
 20
-150.0941975536222
 10
121.8468261414133
 20
-150.0941975536222
 10
121.8468261414133
 20
-150.0941975536222
 10
123.3912624474508
 20
-150.0941975536222
 10
123.3912624474508
 20
-150.0941975536222
 10
123.3912624474508
 20
-150.0941975536222
 10
123.3912624474508
 20
-150.3339761993957
 10
123.3912624474508
 20
-150.3339761993957
 97
        0
 97
        1
330
A6
 75
     2
 76
     1
 98
        1
 10
0.0
 20
0.0
450
        0
451
        0
460
0.0
461
0.0
452
        0
462
0.0
453
        0
470

  0
SPLINE
  5
A8
330
A2
100
AcDbEntity
  8
レイヤー 1
100
AcDbSpline
210
0.0
220
0.0
230
1.0
 70
     9
 71
     3
 72
    17
 73
    13
 74
     0
 42
0.0000000001
 43
0.0000000001
 40
0.0
 40
0.0
 40
0.0
 40
0.0
 40
1.0
 40
1.0
 40
1.0
 40
2.0
 40
2.0
 40
2.0
 40
3.0
 40
3.0
 40
3.0
 40
4.0
 40
4.0
 40
4.0
 40
4.0
 10
121.9908311326967
 20
-149.0241508959037
 30
0.0
 10
121.9908311326967
 20
-149.290801286462
 30
0.0
 10
122.2743624911328
 20
-149.3404106614496
 30
0.0
 10
122.6192165492063
 20
-149.3404106614496
 30
0.0
 10
122.9385769006889
 20
-149.3404106614496
 30
0.0
 10
123.2472574561673
 20
-149.3021701015633
 30
0.0
 10
123.2472574561673
 20
-149.0241508959037
 30
0.0
 10
123.2472574561673
 20
-148.7595675626365
 30
0.0
 10
122.9661376645709
 20
-148.7075466208092
 30
0.0
 10
122.6192165492063
 20
-148.7075466208092
 30
0.0
 10
122.2995116881751
 20
-148.7075466208092
 30
0.0
 10
121.9908311326967
 20
-148.7481987475351
 30
0.0
 10
121.9908311326967
 20
-149.0241508959037
 30
0.0
  0
SPLINE
  5
A9
330
A2
100
AcDbEntity
  8
レイヤー 1
100
AcDbSpline
210
0.0
220
0.0
230
1.0
 70
     9
 71
     3
 72
    29
 73
    25
 74
     0
 42
0.0000000001
 43
0.0000000001
 40
0.0
 40
0.0
 40
0.0
 40
0.0
 40
1.0
 40
1.0
 40
1.0
 40
2.0
 40
2.0
 40
2.0
 40
3.0
 40
3.0
 40
3.0
 40
4.0
 40
4.0
 40
4.0
 40
5.0
 40
5.0
 40
5.0
 40
6.0
 40
6.0
 40
6.0
 40
7.0
 40
7.0
 40
7.0
 40
8.0
 40
8.0
 40
8.0
 40
8.0
 10
123.2134955204119
 20
-148.5990261130238
 30
0.0
 10
123.4229573259151
 20
-148.7144368117797
 30
0.0
 10
123.4419053510839
 20
-148.8997829488862
 30
0.0
 10
123.4419053510839
 20
-149.0241508959037
 30
0.0
 10
123.4419053510839
 20
-149.1957166510691
 30
0.0
 10
123.3953965620331
 20
-149.3473008524201
 30
0.0
 10
123.2134955204119
 20
-149.448931169235
 30
0.0
 10
123.0188476254953
 20
-149.55986324386
 30
0.0
 10
122.7821695656586
 20
-149.580189307223
 30
0.0
 10
122.6192165492063
 20
-149.580189307223
 30
0.0
 10
122.4752115579228
 20
-149.580189307223
 30
0.0
 10
122.2233750779511
 20
-149.5619303011512
 30
0.0
 10
122.0245930684522
 20
-149.448931169235
 30
0.0
 10
121.821676944371
 20
-149.3338649800276
 30
0.0
 10
121.7982502950712
 20
-149.1619547153137
 30
0.0
 10
121.7982502950712
 20
-149.0241508959037
 30
0.0
 10
121.7982502950712
 20
-148.8543076884808
 30
0.0
 10
121.842692026831
 20
-148.7006564298387
 30
0.0
 10
122.0245930684522
 20
-148.5990261130238
 30
0.0
 10
122.2171739060776
 20
-148.4925726625296
 30
0.0
 10
122.4455837367497
 20
-148.4677679750358
 30
0.0
 10
122.6192165492063
 20
-148.4677679750358
 30
0.0
 10
122.7904377948232
 20
-148.4677679750358
 30
0.0
 10
123.0209146827864
 20
-148.4905056052385
 30
0.0
 10
123.2134955204119
 20
-148.5990261130238
 30
0.0
  0
HATCH
  5
AA
330
A2
100
AcDbEntity
  8
レイヤー 1
 62
   250
420
  2299925
440
 33554687
100
AcDbHatch
 10
0.0
 20
0.0
 30
0.0
210
0.0
220
0.0
230
1.0
  2
SOLID
 70
     1
 71
     1
 91
        2
 92
        1
 93
        1
 72
     4
 94
        3
 73
     0
 74
     0
 95
       17
 96
       13
 40
0.0
 40
0.0
 40
0.0
 40
0.0
 40
1.0
 40
1.0
 40
1.0
 40
2.0
 40
2.0
 40
2.0
 40
3.0
 40
3.0
 40
3.0
 40
4.0
 40
4.0
 40
4.0
 40
4.0
 10
121.9908311326967
 20
-149.0241508959037
 10
121.9908311326967
 20
-149.290801286462
 10
122.2743624911328
 20
-149.3404106614496
 10
122.6192165492063
 20
-149.3404106614496
 10
122.9385769006889
 20
-149.3404106614496
 10
123.2472574561673
 20
-149.3021701015633
 10
123.2472574561673
 20
-149.0241508959037
 10
123.2472574561673
 20
-148.7595675626365
 10
122.9661376645709
 20
-148.7075466208092
 10
122.6192165492063
 20
-148.7075466208092
 10
122.2995116881751
 20
-148.7075466208092
 10
121.9908311326967
 20
-148.7481987475351
 10
121.9908311326967
 20
-149.0241508959037
 97
        0
 97
        1
330
A8
 92
        1
 93
        1
 72
     4
 94
        3
 73
     0
 74
     0
 95
       29
 96
       25
 40
0.0
 40
0.0
 40
0.0
 40
0.0
 40
1.0
 40
1.0
 40
1.0
 40
2.0
 40
2.0
 40
2.0
 40
3.0
 40
3.0
 40
3.0
 40
4.0
 40
4.0
 40
4.0
 40
5.0
 40
5.0
 40
5.0
 40
6.0
 40
6.0
 40
6.0
 40
7.0
 40
7.0
 40
7.0
 40
8.0
 40
8.0
 40
8.0
 40
8.0
 10
123.2134955204119
 20
-148.5990261130238
 10
123.4229573259151
 20
-148.7144368117797
 10
123.4419053510839
 20
-148.8997829488862
 10
123.4419053510839
 20
-149.0241508959037
 10
123.4419053510839
 20
-149.1957166510691
 10
123.3953965620331
 20
-149.3473008524201
 10
123.2134955204119
 20
-149.448931169235
 10
123.0188476254953
 20
-149.55986324386
 10
122.7821695656586
 20
-149.580189307223
 10
122.6192165492063
 20
-149.580189307223
 10
122.4752115579228
 20
-149.580189307223
 10
122.2233750779511
 20
-149.5619303011512
 10
122.0245930684522
 20
-149.448931169235
 10
121.821676944371
 20
-149.3338649800276
 10
121.7982502950712
 20
-149.1619547153137
 10
121.7982502950712
 20
-149.0241508959037
 10
121.7982502950712
 20
-148.8543076884808
 10
121.842692026831
 20
-148.7006564298387
 10
122.0245930684522
 20
-148.5990261130238
 10
122.2171739060776
 20
-148.4925726625296
 10
122.4455837367497
 20
-148.4677679750358
 10
122.6192165492063
 20
-148.4677679750358
 10
122.7904377948232
 20
-148.4677679750358
 10
123.0209146827864
 20
-148.4905056052385
 10
123.2134955204119
 20
-148.5990261130238
 97
        0
 97
        1
330
A9
 75
     2
 76
     1
 98
        1
 10
0.0
 20
0.0
450
        0
451
        0
460
0.0
461
0.0
452
        0
462
0.0
453
        0
470

  0
ENDBLK
  5
A5
330
A2
100
AcDbEntity
  8
0
100
AcDbBlockEnd
  0
BLOCK
  5
AF
330
AD
100
AcDbEntity
  8
0
100
AcDbBlockBegin
  2
Block_5
 70
     0
 10
0.0
 20
0.0
 30
0.0
  3
Block_5
  1

  0
SPLINE
  5
B1
330
AD
100
AcDbEntity
  8
レイヤー 1
100
AcDbSpline
210
0.0
220
0.0
230
1.0
 70
     9
 71
     3
 72
    62
 73
    58
 74
     0
 42
0.0000000001
 43
0.0000000001
 40
0.0
 40
0.0
 40
0.0
 40
0.0
 40
1.0
 40
1.0
 40
1.0
 40
2.0
 40
2.0
 40
2.0
 40
3.0
 40
3.0
 40
3.0
 40
4.0
 40
4.0
 40
4.0
 40
5.0
 40
5.0
 40
5.0
 40
6.0
 40
6.0
 40
6.0
 40
7.0
 40
7.0
 40
7.0
 40
8.0
 40
8.0
 40
8.0
 40
9.0
 40
9.0
 40
9.0
 40
10.0
 40
10.0
 40
10.0
 40
11.0
 40
11.0
 40
11.0
 40
12.0
 40
12.0
 40
12.0
 40
13.0
 40
13.0
 40
13.0
 40
14.0
 40
14.0
 40
14.0
 40
15.0
 40
15.0
 40
15.0
 40
16.0
 40
16.0
 40
16.0
 40
17.0
 40
17.0
 40
17.0
 40
18.0
 40
18.0
 40
18.0
 40
19.0
 40
19.0
 40
19.0
 40
19.0
 10
123.4419053510839
 20
-156.1620442317928
 30
0.0
 10
123.4419053510839
 20
-156.2636745486077
 30
0.0
 10
123.4208902686239
 20
-156.4965630034106
 30
0.0
 10
123.2348551124204
 20
-156.6298881986897
 30
0.0
 10
123.1225449996013
 20
-156.7091253948505
 30
0.0
 10
123.0233262496261
 20
-156.7136040189813
 30
0.0
 10
122.9385769006889
 20
-156.7180826431121
 30
0.0
 10
122.9385769006889
 20
-156.7180826431121
 30
0.0
 10
122.9385769006889
 20
-156.4831271310181
 30
0.0
 10
122.9385769006889
 20
-156.4831271310181
 30
0.0
 10
123.0126464536218
 20
-156.4807155641784
 30
0.0
 10
123.2472574561673
 20
-156.4693467490771
 30
0.0
 10
123.2472574561673
 20
-156.1665228559236
 30
0.0
 10
123.2472574561673
 20
-156.0194172787035
 30
0.0
 10
123.1776665273653
 20
-155.8568087717997
 30
0.0
 10
122.9492566966932
 20
-155.8568087717997
 30
0.0
 10
122.8328124692918
 20
-155.8568087717997
 30
0.0
 10
122.7842366229497
 20
-155.8974608985256
 30
0.0
 10
122.7525417444855
 20
-155.9312228342811
 30
0.0
 10
122.6784721915526
 20
-156.0104600304418
 30
0.0
 10
122.6657253382572
 20
-156.1348279774593
 30
0.0
 10
122.6657253382572
 20
-156.1937391102571
 30
0.0
 10
122.6657253382572
 20
-156.2140651736201
 30
0.0
 10
122.6677923955483
 20
-156.2523057335063
 30
0.0
 10
122.6719265101306
 20
-156.2819335546795
 30
0.0
 10
122.6719265101306
 20
-156.2819335546795
 30
0.0
 10
122.477278615214
 20
-156.2819335546795
 30
0.0
 10
122.477278615214
 20
-156.2819335546795
 30
0.0
 10
122.483824296636
 20
-156.2412814279535
 30
0.0
 10
122.4858913539271
 20
-156.1958061675483
 30
0.0
 10
122.4858913539271
 20
-156.1892604861263
 30
0.0
 10
122.4858913539271
 20
-156.1189805382272
 30
0.0
 10
122.4645317619186
 20
-155.9064181467873
 30
0.0
 10
122.2278537020819
 20
-155.9064181467873
 30
0.0
 10
122.050086775043
 20
-155.9064181467873
 30
0.0
 10
121.994965247279
 20
-156.0466335330369
 30
0.0
 10
121.994965247279
 20
-156.164111289084
 30
0.0
 10
121.994965247279
 20
-156.446953628423
 30
0.0
 10
122.2278537020819
 20
-156.4559108766846
 30
0.0
 10
122.2995116881751
 20
-156.4603895008154
 30
0.0
 10
122.2995116881751
 20
-156.4603895008154
 30
0.0
 10
122.2995116881751
 20
-156.6774305163862
 30
0.0
 10
122.2995116881751
 20
-156.6774305163862
 30
0.0
 10
122.1747992316091
 20
-156.6684732681245
 30
0.0
 10
121.7982502950712
 20
-156.6391899564999
 30
0.0
 10
121.7982502950712
 20
-156.1506754166915
 30
0.0
 10
121.7982502950712
 20
-155.9108967709181
 30
0.0
 10
121.925374318477
 20
-155.6532036286214
 30
0.0
 10
122.2213080206599
 20
-155.6532036286214
 30
0.0
 10
122.4076876864119
 20
-155.6532036286214
 30
0.0
 10
122.4900254685094
 20
-155.7551784549848
 30
0.0
 10
122.5513481681469
 20
-155.8612873959305
 30
0.0
 10
122.5789089320289
 20
-155.7958305817107
 30
0.0
 10
122.6591796568352
 20
-155.6011826867941
 30
0.0
 10
122.9365098433978
 20
-155.6011826867941
 30
0.0
 10
123.2748182200493
 20
-155.6011826867941
 30
0.0
 10
123.4419053510839
 20
-155.8657660200613
 30
0.0
 10
123.4419053510839
 20
-156.1620442317928
 30
0.0
  0
HATCH
  5
B2
330
AD
100
AcDbEntity
  8
レイヤー 1
 62
   250
420
  2299925
440
 33554687
100
AcDbHatch
 10
0.0
 20
0.0
 30
0.0
210
0.0
220
0.0
230
1.0
  2
SOLID
 70
     1
 71
     1
 91
        1
 92
        1
 93
        1
 72
     4
 94
        3
 73
     0
 74
     0
 95
       62
 96
       58
 40
0.0
 40
0.0
 40
0.0
 40
0.0
 40
1.0
 40
1.0
 40
1.0
 40
2.0
 40
2.0
 40
2.0
 40
3.0
 40
3.0
 40
3.0
 40
4.0
 40
4.0
 40
4.0
 40
5.0
 40
5.0
 40
5.0
 40
6.0
 40
6.0
 40
6.0
 40
7.0
 40
7.0
 40
7.0
 40
8.0
 40
8.0
 40
8.0
 40
9.0
 40
9.0
 40
9.0
 40
10.0
 40
10.0
 40
10.0
 40
11.0
 40
11.0
 40
11.0
 40
12.0
 40
12.0
 40
12.0
 40
13.0
 40
13.0
 40
13.0
 40
14.0
 40
14.0
 40
14.0
 40
15.0
 40
15.0
 40
15.0
 40
16.0
 40
16.0
 40
16.0
 40
17.0
 40
17.0
 40
17.0
 40
18.0
 40
18.0
 40
18.0
 40
19.0
 40
19.0
 40
19.0
 40
19.0
 10
123.4419053510839
 20
-156.1620442317928
 10
123.4419053510839
 20
-156.2636745486077
 10
123.4208902686239
 20
-156.4965630034106
 10
123.2348551124204
 20
-156.6298881986897
 10
123.1225449996013
 20
-156.7091253948505
 10
123.0233262496261
 20
-156.7136040189813
 10
122.9385769006889
 20
-156.7180826431121
 10
122.9385769006889
 20
-156.7180826431121
 10
122.9385769006889
 20
-156.4831271310181
 10
122.9385769006889
 20
-156.4831271310181
 10
123.0126464536218
 20
-156.4807155641784
 10
123.2472574561673
 20
-156.4693467490771
 10
123.2472574561673
 20
-156.1665228559236
 10
123.2472574561673
 20
-156.0194172787035
 10
123.1776665273653
 20
-155.8568087717997
 10
122.9492566966932
 20
-155.8568087717997
 10
122.8328124692918
 20
-155.8568087717997
 10
122.7842366229497
 20
-155.8974608985256
 10
122.7525417444855
 20
-155.9312228342811
 10
122.6784721915526
 20
-156.0104600304418
 10
122.6657253382572
 20
-156.1348279774593
 10
122.6657253382572
 20
-156.1937391102571
 10
122.6657253382572
 20
-156.2140651736201
 10
122.6677923955483
 20
-156.2523057335063
 10
122.6719265101306
 20
-156.2819335546795
 10
122.6719265101306
 20
-156.2819335546795
 10
122.477278615214
 20
-156.2819335546795
 10
122.477278615214
 20
-156.2819335546795
 10
122.483824296636
 20
-156.2412814279535
 10
122.4858913539271
 20
-156.1958061675483
 10
122.4858913539271
 20
-156.1892604861263
 10
122.4858913539271
 20
-156.1189805382272
 10
122.4645317619186
 20
-155.9064181467873
 10
122.2278537020819
 20
-155.9064181467873
 10
122.050086775043
 20
-155.9064181467873
 10
121.994965247279
 20
-156.0466335330369
 10
121.994965247279
 20
-156.164111289084
 10
121.994965247279
 20
-156.446953628423
 10
122.2278537020819
 20
-156.4559108766846
 10
122.2995116881751
 20
-156.4603895008154
 10
122.2995116881751
 20
-156.4603895008154
 10
122.2995116881751
 20
-156.6774305163862
 10
122.2995116881751
 20
-156.6774305163862
 10
122.1747992316091
 20
-156.6684732681245
 10
121.7982502950712
 20
-156.6391899564999
 10
121.7982502950712
 20
-156.1506754166915
 10
121.7982502950712
 20
-155.9108967709181
 10
121.925374318477
 20
-155.6532036286214
 10
122.2213080206599
 20
-155.6532036286214
 10
122.4076876864119
 20
-155.6532036286214
 10
122.4900254685094
 20
-155.7551784549848
 10
122.5513481681469
 20
-155.8612873959305
 10
122.5789089320289
 20
-155.7958305817107
 10
122.6591796568352
 20
-155.6011826867941
 10
122.9365098433978
 20
-155.6011826867941
 10
123.2748182200493
 20
-155.6011826867941
 10
123.4419053510839
 20
-155.8657660200613
 10
123.4419053510839
 20
-156.1620442317928
 97
        0
 97
        1
330
B1
 75
     2
 76
     1
 98
        1
 10
0.0
 20
0.0
450
        0
451
        0
460
0.0
461
0.0
452
        0
462
0.0
453
        0
470

  0
ENDBLK
  5
B0
330
AD
100
AcDbEntity
  8
0
100
AcDbBlockEnd
  0
BLOCK
  5
B8
330
B6
100
AcDbEntity
  8
0
100
AcDbBlockBegin
  2
Block_6
 70
     0
 10
0.0
 20
0.0
 30
0.0
  3
Block_6
  1

  0
INSERT
  5
BB
330
B6
100
AcDbEntity
  8
レイヤー 1
100
AcDbBlockReference
  2
Block_7
 10
0.0
 20
0.0
 30
0.0
  0
ENDBLK
  5
B9
330
B6
100
AcDbEntity
  8
0
100
AcDbBlockEnd
  0
BLOCK
  5
BC
330
BA
100
AcDbEntity
  8
0
100
AcDbBlockBegin
  2
Block_7
 70
     0
 10
0.0
 20
0.0
 30
0.0
  3
Block_7
  1

  0
SPLINE
  5
BE
330
BA
100
AcDbEntity
  8
レイヤー 1
100
AcDbSpline
210
0.0
220
0.0
230
1.0
 70
    11
 71
     3
 72
    26
 73
    22
 74
     0
 42
0.0000000001
 43
0.0000000001
 40
0.0
 40
0.0
 40
0.0
 40
0.0
 40
1.0
 40
1.0
 40
1.0
 40
2.0
 40
2.0
 40
2.0
 40
3.0
 40
3.0
 40
3.0
 40
4.0
 40
4.0
 40
4.0
 40
5.0
 40
5.0
 40
5.0
 40
6.0
 40
6.0
 40
6.0
 40
7.0
 40
7.0
 40
7.0
 40
7.0
 10
102.0612982600749
 20
-160.3030490050631
 30
0.0
 10
102.0612982600749
 20
-160.3030490050631
 30
0.0
 10
102.0612982600749
 20
-159.1988959020405
 30
0.0
 10
102.0612982600749
 20
-159.1988959020405
 30
0.0
 10
102.0612982600749
 20
-159.1988959020405
 30
0.0
 10
101.7085204823854
 20
-159.1988959020405
 30
0.0
 10
101.7085204823854
 20
-159.1988959020405
 30
0.0
 10
101.7085204823854
 20
-159.1988959020405
 30
0.0
 10
101.7085204823854
 20
-159.0507567961748
 30
0.0
 10
101.7085204823854
 20
-159.0507567961748
 30
0.0
 10
102.0635375721403
 20
-159.0359428855882
 30
0.0
 10
102.1133192019022
 20
-158.8729898691359
 30
0.0
 10
102.1448418255922
 20
-158.7586126990256
 30
0.0
 10
102.1448418255922
 20
-158.7586126990256
 30
0.0
 10
102.3009046510741
 20
-158.7586126990256
 30
0.0
 10
102.3009046510741
 20
-158.7586126990256
 30
0.0
 10
102.3009046510741
 20
-158.7586126990256
 30
0.0
 10
102.3009046510741
 20
-160.3030490050631
 30
0.0
 10
102.3009046510741
 20
-160.3030490050631
 30
0.0
 10
102.3009046510741
 20
-160.3030490050631
 30
0.0
 10
102.0612982600749
 20
-160.3030490050631
 30
0.0
 10
102.0612982600749
 20
-160.3030490050631
 30
0.0
  0
HATCH
  5
BF
330
BA
100
AcDbEntity
  8
レイヤー 1
 62
   250
420
  2299925
440
 33554687
100
AcDbHatch
 10
0.0
 20
0.0
 30
0.0
210
0.0
220
0.0
230
1.0
  2
SOLID
 70
     1
 71
     1
 91
        1
 92
        1
 93
        1
 72
     4
 94
        3
 73
     0
 74
     0
 95
       26
 96
       22
 40
0.0
 40
0.0
 40
0.0
 40
0.0
 40
1.0
 40
1.0
 40
1.0
 40
2.0
 40
2.0
 40
2.0
 40
3.0
 40
3.0
 40
3.0
 40
4.0
 40
4.0
 40
4.0
 40
5.0
 40
5.0
 40
5.0
 40
6.0
 40
6.0
 40
6.0
 40
7.0
 40
7.0
 40
7.0
 40
7.0
 10
102.0612982600749
 20
-160.3030490050631
 10
102.0612982600749
 20
-160.3030490050631
 10
102.0612982600749
 20
-159.1988959020405
 10
102.0612982600749
 20
-159.1988959020405
 10
102.0612982600749
 20
-159.1988959020405
 10
101.7085204823854
 20
-159.1988959020405
 10
101.7085204823854
 20
-159.1988959020405
 10
101.7085204823854
 20
-159.1988959020405
 10
101.7085204823854
 20
-159.0507567961748
 10
101.7085204823854
 20
-159.0507567961748
 10
102.0635375721403
 20
-159.0359428855882
 10
102.1133192019022
 20
-158.8729898691359
 10
102.1448418255922
 20
-158.7586126990256
 10
102.1448418255922
 20
-158.7586126990256
 10
102.3009046510741
 20
-158.7586126990256
 10
102.3009046510741
 20
-158.7586126990256
 10
102.3009046510741
 20
-158.7586126990256
 10
102.3009046510741
 20
-160.3030490050631
 10
102.3009046510741
 20
-160.3030490050631
 10
102.3009046510741
 20
-160.3030490050631
 10
102.0612982600749
 20
-160.3030490050631
 10
102.0612982600749
 20
-160.3030490050631
 97
        0
 97
        1
330
BE
 75
     2
 76
     1
 98
        1
 10
0.0
 20
0.0
450
        0
451
        0
460
0.0
461
0.0
452
        0
462
0.0
453
        0
470

  0
SPLINE
  5
C0
330
BA
100
AcDbEntity
  8
レイヤー 1
100
AcDbSpline
210
0.0
220
0.0
230
1.0
 70
     9
 71
     3
 72
    17
 73
    13
 74
     0
 42
0.0000000001
 43
0.0000000001
 40
0.0
 40
0.0
 40
0.0
 40
0.0
 40
1.0
 40
1.0
 40
1.0
 40
2.0
 40
2.0
 40
2.0
 40
3.0
 40
3.0
 40
3.0
 40
4.0
 40
4.0
 40
4.0
 40
4.0
 10
103.3711235635669
 20
-158.9026176903091
 30
0.0
 10
103.1043009182343
 20
-158.9026176903091
 30
0.0
 10
103.0545192884725
 20
-159.1861490487451
 30
0.0
 10
103.0545192884725
 20
-159.5310031068186
 30
0.0
 10
103.0545192884725
 20
-159.8503634583013
 30
0.0
 10
103.092932103133
 20
-160.1590440137797
 30
0.0
 10
103.3711235635669
 20
-160.1590440137797
 30
0.0
 10
103.6355346420599
 20
-160.1590440137797
 30
0.0
 10
103.6875555838871
 20
-159.8779242221833
 30
0.0
 10
103.6875555838871
 20
-159.5310031068186
 30
0.0
 10
103.6875555838871
 20
-159.2112982457874
 30
0.0
 10
103.6469034571612
 20
-158.9026176903091
 30
0.0
 10
103.3711235635669
 20
-158.9026176903091
 30
0.0
  0
SPLINE
  5
C1
330
BA
100
AcDbEntity
  8
レイヤー 1
100
AcDbSpline
210
0.0
220
0.0
230
1.0
 70
     9
 71
     3
 72
    29
 73
    25
 74
     0
 42
0.0000000001
 43
0.0000000001
 40
0.0
 40
0.0
 40
0.0
 40
0.0
 40
1.0
 40
1.0
 40
1.0
 40
2.0
 40
2.0
 40
2.0
 40
3.0
 40
3.0
 40
3.0
 40
4.0
 40
4.0
 40
4.0
 40
5.0
 40
5.0
 40
5.0
 40
6.0
 40
6.0
 40
6.0
 40
7.0
 40
7.0
 40
7.0
 40
8.0
 40
8.0
 40
8.0
 40
8.0
 10
103.7960760916725
 20
-160.1252820780242
 30
0.0
 10
103.6808376476909
 20
-160.3347438835274
 30
0.0
 10
103.4954915105845
 20
-160.3536919086963
 30
0.0
 10
103.3711235635669
 20
-160.3536919086963
 30
0.0
 10
103.1992132988529
 20
-160.3536919086963
 30
0.0
 10
103.0478013522762
 20
-160.3071831196454
 30
0.0
 10
102.9459987806871
 20
-160.1252820780242
 30
0.0
 10
102.8352389608363
 20
-159.9306341831076
 30
0.0
 10
102.8149128974733
 20
-159.6936116137224
 30
0.0
 10
102.8149128974733
 20
-159.5310031068186
 30
0.0
 10
102.8149128974733
 20
-159.3869981155352
 30
0.0
 10
102.8329996487709
 20
-159.1351616355634
 30
0.0
 10
102.9459987806871
 20
-158.9363796260645
 30
0.0
 10
103.061409479443
 20
-158.7334635019833
 30
0.0
 10
103.2331474893827
 20
-158.7100368526836
 30
0.0
 10
103.3711235635669
 20
-158.7100368526836
 30
0.0
 10
103.5406222614412
 20
-158.7100368526836
 30
0.0
 10
103.6944457748576
 20
-158.7544785844433
 30
0.0
 10
103.7960760916725
 20
-158.9363796260645
 30
0.0
 10
103.9023572873924
 20
-159.12896046369
 30
0.0
 10
103.9273342296605
 20
-159.357370294362
 30
0.0
 10
103.9273342296605
 20
-159.5310031068186
 30
0.0
 10
103.9273342296605
 20
-159.7022243524355
 30
0.0
 10
103.9045965994579
 20
-159.9327012403987
 30
0.0
 10
103.7960760916725
 20
-160.1252820780242
 30
0.0
  0
HATCH
  5
C2
330
BA
100
AcDbEntity
  8
レイヤー 1
 62
   250
420
  2299925
440
 33554687
100
AcDbHatch
 10
0.0
 20
0.0
 30
0.0
210
0.0
220
0.0
230
1.0
  2
SOLID
 70
     1
 71
     1
 91
        2
 92
        1
 93
        1
 72
     4
 94
        3
 73
     0
 74
     0
 95
       17
 96
       13
 40
0.0
 40
0.0
 40
0.0
 40
0.0
 40
1.0
 40
1.0
 40
1.0
 40
2.0
 40
2.0
 40
2.0
 40
3.0
 40
3.0
 40
3.0
 40
4.0
 40
4.0
 40
4.0
 40
4.0
 10
103.3711235635669
 20
-158.9026176903091
 10
103.1043009182343
 20
-158.9026176903091
 10
103.0545192884725
 20
-159.1861490487451
 10
103.0545192884725
 20
-159.5310031068186
 10
103.0545192884725
 20
-159.8503634583013
 10
103.092932103133
 20
-160.1590440137797
 10
103.3711235635669
 20
-160.1590440137797
 10
103.6355346420599
 20
-160.1590440137797
 10
103.6875555838871
 20
-159.8779242221833
 10
103.6875555838871
 20
-159.5310031068186
 10
103.6875555838871
 20
-159.2112982457874
 10
103.6469034571612
 20
-158.9026176903091
 10
103.3711235635669
 20
-158.9026176903091
 97
        0
 97
        1
330
C0
 92
        1
 93
        1
 72
     4
 94
        3
 73
     0
 74
     0
 95
       29
 96
       25
 40
0.0
 40
0.0
 40
0.0
 40
0.0
 40
1.0
 40
1.0
 40
1.0
 40
2.0
 40
2.0
 40
2.0
 40
3.0
 40
3.0
 40
3.0
 40
4.0
 40
4.0
 40
4.0
 40
5.0
 40
5.0
 40
5.0
 40
6.0
 40
6.0
 40
6.0
 40
7.0
 40
7.0
 40
7.0
 40
8.0
 40
8.0
 40
8.0
 40
8.0
 10
103.7960760916725
 20
-160.1252820780242
 10
103.6808376476909
 20
-160.3347438835274
 10
103.4954915105845
 20
-160.3536919086963
 10
103.3711235635669
 20
-160.3536919086963
 10
103.1992132988529
 20
-160.3536919086963
 10
103.0478013522762
 20
-160.3071831196454
 10
102.9459987806871
 20
-160.1252820780242
 10
102.8352389608363
 20
-159.9306341831076
 10
102.8149128974733
 20
-159.6936116137224
 10
102.8149128974733
 20
-159.5310031068186
 10
102.8149128974733
 20
-159.3869981155352
 10
102.8329996487709
 20
-159.1351616355634
 10
102.9459987806871
 20
-158.9363796260645
 10
103.061409479443
 20
-158.7334635019833
 10
103.2331474893827
 20
-158.7100368526836
 10
103.3711235635669
 20
-158.7100368526836
 10
103.5406222614412
 20
-158.7100368526836
 10
103.6944457748576
 20
-158.7544785844433
 10
103.7960760916725
 20
-158.9363796260645
 10
103.9023572873924
 20
-159.12896046369
 10
103.9273342296605
 20
-159.357370294362
 10
103.9273342296605
 20
-159.5310031068186
 10
103.9273342296605
 20
-159.7022243524355
 10
103.9045965994579
 20
-159.9327012403987
 10
103.7960760916725
 20
-160.1252820780242
 97
        0
 97
        1
330
C1
 75
     2
 76
     1
 98
        1
 10
0.0
 20
0.0
450
        0
451
        0
460
0.0
461
0.0
452
        0
462
0.0
453
        0
470

  0
ENDBLK
  5
BD
330
BA
100
AcDbEntity
  8
0
100
AcDbBlockEnd
  0
BLOCK
  5
C8
330
C6
100
AcDbEntity
  8
0
100
AcDbBlockBegin
  2
Block_8
 70
     0
 10
0.0
 20
0.0
 30
0.0
  3
Block_8
  1

  0
INSERT
  5
CB
330
C6
100
AcDbEntity
  8
レイヤー 1
100
AcDbBlockReference
  2
Block_9
 10
0.0
 20
0.0
 30
0.0
  0
ENDBLK
  5
C9
330
C6
100
AcDbEntity
  8
0
100
AcDbBlockEnd
  0
BLOCK
  5
CC
330
CA
100
AcDbEntity
  8
0
100
AcDbBlockBegin
  2
Block_9
 70
     0
 10
0.0
 20
0.0
 30
0.0
  3
Block_9
  1

  0
SPLINE
  5
CE
330
CA
100
AcDbEntity
  8
レイヤー 1
100
AcDbSpline
210
0.0
220
0.0
230
1.0
 70
     9
 71
     3
 72
    44
 73
    40
 74
     0
 42
0.0000000001
 43
0.0000000001
 40
0.0
 40
0.0
 40
0.0
 40
0.0
 40
1.0
 40
1.0
 40
1.0
 40
2.0
 40
2.0
 40
2.0
 40
3.0
 40
3.0
 40
3.0
 40
4.0
 40
4.0
 40
4.0
 40
5.0
 40
5.0
 40
5.0
 40
6.0
 40
6.0
 40
6.0
 40
7.0
 40
7.0
 40
7.0
 40
8.0
 40
8.0
 40
8.0
 40
9.0
 40
9.0
 40
9.0
 40
10.0
 40
10.0
 40
10.0
 40
11.0
 40
11.0
 40
11.0
 40
12.0
 40
12.0
 40
12.0
 40
13.0
 40
13.0
 40
13.0
 40
13.0
 10
108.7123996038983
 20
-137.9211249112662
 30
0.0
 10
108.4795111490954
 20
-138.079771558362
 30
0.0
 10
108.3799478895717
 20
-138.1538411112948
 30
0.0
 10
108.3279269477444
 20
-138.297673847804
 30
0.0
 10
108.3279269477444
 20
-138.297673847804
 30
0.0
 10
109.1602620169807
 20
-138.297673847804
 30
0.0
 10
109.1602620169807
 20
-138.297673847804
 30
0.0
 10
109.1602620169807
 20
-138.297673847804
 30
0.0
 10
109.1602620169807
 20
-138.5028292839507
 30
0.0
 10
109.1602620169807
 20
-138.5028292839507
 30
0.0
 10
109.1602620169807
 20
-138.5028292839507
 30
0.0
 10
108.061276557186
 20
-138.5028292839507
 30
0.0
 10
108.061276557186
 20
-138.5028292839507
 30
0.0
 10
108.09538300249
 20
-138.1452283725817
 30
0.0
 10
108.1653184408406
 20
-138.0670247050666
 30
0.0
 10
108.5766628417794
 20
-137.7686794360439
 30
0.0
 10
108.8502034233083
 20
-137.569897426545
 30
0.0
 10
108.9204833712074
 20
-137.5022013002599
 30
0.0
 10
108.9204833712074
 20
-137.3647419903984
 30
0.0
 10
108.9204833712074
 20
-137.2462307057058
 30
0.0
 10
108.8436577418863
 20
-137.115144822492
 30
0.0
 10
108.6331624077375
 20
-137.115144822492
 30
0.0
 10
108.3551432020779
 20
-137.115144822492
 30
0.0
 10
108.3461859538162
 20
-137.3456217104553
 30
0.0
 10
108.3417073296854
 20
-137.4620659378567
 30
0.0
 10
108.3417073296854
 20
-137.4620659378567
 30
0.0
 10
108.101928683912
 20
-137.4620659378567
 30
0.0
 10
108.101928683912
 20
-137.4620659378567
 30
0.0
 10
108.1108859321737
 20
-137.3351141692252
 30
0.0
 10
108.122254747275
 20
-137.2229763111803
 30
0.0
 10
108.2083821344062
 20
-137.1044650264878
 30
0.0
 10
108.3258598904532
 20
-136.9437513221008
 30
0.0
 10
108.5246418999521
 20
-136.9098171315711
 30
0.0
 10
108.6490098469697
 20
-136.9098171315711
 30
0.0
 10
108.9452880587012
 20
-136.9098171315711
 30
0.0
 10
109.1668076984027
 20
-137.0939574852577
 30
0.0
 10
109.1668076984027
 20
-137.3668090476895
 30
0.0
 10
109.1668076984027
 20
-137.5952188783616
 30
0.0
 10
109.0424397513852
 20
-137.6947821378853
 30
0.0
 10
108.7123996038983
 20
-137.9211249112662
 30
0.0
  0
HATCH
  5
CF
330
CA
100
AcDbEntity
  8
レイヤー 1
 62
   250
420
  2299925
440
 33554687
100
AcDbHatch
 10
0.0
 20
0.0
 30
0.0
210
0.0
220
0.0
230
1.0
  2
SOLID
 70
     1
 71
     1
 91
        1
 92
        1
 93
        1
 72
     4
 94
        3
 73
     0
 74
     0
 95
       44
 96
       40
 40
0.0
 40
0.0
 40
0.0
 40
0.0
 40
1.0
 40
1.0
 40
1.0
 40
2.0
 40
2.0
 40
2.0
 40
3.0
 40
3.0
 40
3.0
 40
4.0
 40
4.0
 40
4.0
 40
5.0
 40
5.0
 40
5.0
 40
6.0
 40
6.0
 40
6.0
 40
7.0
 40
7.0
 40
7.0
 40
8.0
 40
8.0
 40
8.0
 40
9.0
 40
9.0
 40
9.0
 40
10.0
 40
10.0
 40
10.0
 40
11.0
 40
11.0
 40
11.0
 40
12.0
 40
12.0
 40
12.0
 40
13.0
 40
13.0
 40
13.0
 40
13.0
 10
108.7123996038983
 20
-137.9211249112662
 10
108.4795111490954
 20
-138.079771558362
 10
108.3799478895717
 20
-138.1538411112948
 10
108.3279269477444
 20
-138.297673847804
 10
108.3279269477444
 20
-138.297673847804
 10
109.1602620169807
 20
-138.297673847804
 10
109.1602620169807
 20
-138.297673847804
 10
109.1602620169807
 20
-138.297673847804
 10
109.1602620169807
 20
-138.5028292839507
 10
109.1602620169807
 20
-138.5028292839507
 10
109.1602620169807
 20
-138.5028292839507
 10
108.061276557186
 20
-138.5028292839507
 10
108.061276557186
 20
-138.5028292839507
 10
108.09538300249
 20
-138.1452283725817
 10
108.1653184408406
 20
-138.0670247050666
 10
108.5766628417794
 20
-137.7686794360439
 10
108.8502034233083
 20
-137.569897426545
 10
108.9204833712074
 20
-137.5022013002599
 10
108.9204833712074
 20
-137.3647419903984
 10
108.9204833712074
 20
-137.2462307057058
 10
108.8436577418863
 20
-137.115144822492
 10
108.6331624077375
 20
-137.115144822492
 10
108.3551432020779
 20
-137.115144822492
 10
108.3461859538162
 20
-137.3456217104553
 10
108.3417073296854
 20
-137.4620659378567
 10
108.3417073296854
 20
-137.4620659378567
 10
108.101928683912
 20
-137.4620659378567
 10
108.101928683912
 20
-137.4620659378567
 10
108.1108859321737
 20
-137.3351141692252
 10
108.122254747275
 20
-137.2229763111803
 10
108.2083821344062
 20
-137.1044650264878
 10
108.3258598904532
 20
-136.9437513221008
 10
108.5246418999521
 20
-136.9098171315711
 10
108.6490098469697
 20
-136.9098171315711
 10
108.9452880587012
 20
-136.9098171315711
 10
109.1668076984027
 20
-137.0939574852577
 10
109.1668076984027
 20
-137.3668090476895
 10
109.1668076984027
 20
-137.5952188783616
 10
109.0424397513852
 20
-137.6947821378853
 10
108.7123996038983
 20
-137.9211249112662
 97
        0
 97
        1
330
CE
 75
     2
 76
     1
 98
        1
 10
0.0
 20
0.0
450
        0
451
        0
460
0.0
461
0.0
452
        0
462
0.0
453
        0
470

  0
SPLINE
  5
D0
330
CA
100
AcDbEntity
  8
レイヤー 1
100
AcDbSpline
210
0.0
220
0.0
230
1.0
 70
     9
 71
     3
 72
    62
 73
    58
 74
     0
 42
0.0000000001
 43
0.0000000001
 40
0.0
 40
0.0
 40
0.0
 40
0.0
 40
1.0
 40
1.0
 40
1.0
 40
2.0
 40
2.0
 40
2.0
 40
3.0
 40
3.0
 40
3.0
 40
4.0
 40
4.0
 40
4.0
 40
5.0
 40
5.0
 40
5.0
 40
6.0
 40
6.0
 40
6.0
 40
7.0
 40
7.0
 40
7.0
 40
8.0
 40
8.0
 40
8.0
 40
9.0
 40
9.0
 40
9.0
 40
10.0
 40
10.0
 40
10.0
 40
11.0
 40
11.0
 40
11.0
 40
12.0
 40
12.0
 40
12.0
 40
13.0
 40
13.0
 40
13.0
 40
14.0
 40
14.0
 40
14.0
 40
15.0
 40
15.0
 40
15.0
 40
16.0
 40
16.0
 40
16.0
 40
17.0
 40
17.0
 40
17.0
 40
18.0
 40
18.0
 40
18.0
 40
19.0
 40
19.0
 40
19.0
 40
19.0
 10
109.8616834577776
 20
-138.5536444423581
 30
0.0
 10
109.7600531409627
 20
-138.5536444423581
 30
0.0
 10
109.5271646861599
 20
-138.5324571051238
 30
0.0
 10
109.3938394908807
 20
-138.3462496941461
 30
0.0
 10
109.3146022947199
 20
-138.2341118361012
 30
0.0
 10
109.3101236705891
 20
-138.1347208313517
 30
0.0
 10
109.3056450464583
 20
-138.0501437371888
 30
0.0
 10
109.3056450464583
 20
-138.0501437371888
 30
0.0
 10
109.5406005585523
 20
-138.0501437371888
 30
0.0
 10
109.5406005585523
 20
-138.0501437371888
 30
0.0
 10
109.543012125392
 20
-138.1242132901217
 30
0.0
 10
109.5543809404933
 20
-138.3589965474415
 30
0.0
 10
109.8572048336468
 20
-138.3589965474415
 30
0.0
 10
110.004310410867
 20
-138.3589965474415
 30
0.0
 10
110.1669189177707
 20
-138.2892333638652
 30
0.0
 10
110.1669189177707
 20
-138.0606512784188
 30
0.0
 10
110.1669189177707
 20
-137.9443793057917
 30
0.0
 10
110.1262667910448
 20
-137.8956312046754
 30
0.0
 10
110.0925048552894
 20
-137.8639363262111
 30
0.0
 10
110.0132676591286
 20
-137.7898667732782
 30
0.0
 10
109.8888997121111
 20
-137.777292174757
 30
0.0
 10
109.8299885793133
 20
-137.777292174757
 30
0.0
 10
109.8096625159503
 20
-137.777292174757
 30
0.0
 10
109.7714219560641
 20
-137.7793592320482
 30
0.0
 10
109.7417941348909
 20
-137.7834933466305
 30
0.0
 10
109.7417941348909
 20
-137.7834933466305
 30
0.0
 10
109.7417941348909
 20
-137.5888454517139
 30
0.0
 10
109.7417941348909
 20
-137.5888454517139
 30
0.0
 10
109.7824462616169
 20
-137.5952188783616
 30
0.0
 10
109.8279215220222
 20
-137.597458190427
 30
0.0
 10
109.8344672034441
 20
-137.597458190427
 30
0.0
 10
109.9047471513432
 20
-137.597458190427
 30
0.0
 10
110.1173095427832
 20
-137.5762708531927
 30
0.0
 10
110.1173095427832
 20
-137.3392482838075
 30
0.0
 10
110.1173095427832
 20
-137.1616536115429
 30
0.0
 10
109.9770941565335
 20
-137.1065320837789
 30
0.0
 10
109.8596164004865
 20
-137.1065320837789
 30
0.0
 10
109.5767740611474
 20
-137.1065320837789
 30
0.0
 10
109.5678168128858
 20
-137.3392482838075
 30
0.0
 10
109.563338188755
 20
-137.4112507794493
 30
0.0
 10
109.563338188755
 20
-137.4112507794493
 30
0.0
 10
109.3462971731842
 20
-137.4112507794493
 30
0.0
 10
109.3462971731842
 20
-137.4112507794493
 30
0.0
 10
109.3552544214459
 20
-137.286366068109
 30
0.0
 10
109.3845377330705
 20
-136.9098171315711
 30
0.0
 10
109.8730522728789
 20
-136.9098171315711
 30
0.0
 10
110.1128309186523
 20
-136.9098171315711
 30
0.0
 10
110.370524060949
 20
-137.0367689002026
 30
0.0
 10
110.370524060949
 20
-137.3328748571598
 30
0.0
 10
110.370524060949
 20
-137.5190822681376
 30
0.0
 10
110.2685492345856
 20
-137.6015923050093
 30
0.0
 10
110.1624402936399
 20
-137.6629150046468
 30
0.0
 10
110.2278971078597
 20
-137.6904757685288
 30
0.0
 10
110.4225450027763
 20
-137.7709187481093
 30
0.0
 10
110.4225450027763
 20
-138.0480766798977
 30
0.0
 10
110.4225450027763
 20
-138.3865573113235
 30
0.0
 10
110.1579616695091
 20
-138.5536444423581
 30
0.0
 10
109.8616834577776
 20
-138.5536444423581
 30
0.0
  0
HATCH
  5
D1
330
CA
100
AcDbEntity
  8
レイヤー 1
 62
   250
420
  2299925
440
 33554687
100
AcDbHatch
 10
0.0
 20
0.0
 30
0.0
210
0.0
220
0.0
230
1.0
  2
SOLID
 70
     1
 71
     1
 91
        1
 92
        1
 93
        1
 72
     4
 94
        3
 73
     0
 74
     0
 95
       62
 96
       58
 40
0.0
 40
0.0
 40
0.0
 40
0.0
 40
1.0
 40
1.0
 40
1.0
 40
2.0
 40
2.0
 40
2.0
 40
3.0
 40
3.0
 40
3.0
 40
4.0
 40
4.0
 40
4.0
 40
5.0
 40
5.0
 40
5.0
 40
6.0
 40
6.0
 40
6.0
 40
7.0
 40
7.0
 40
7.0
 40
8.0
 40
8.0
 40
8.0
 40
9.0
 40
9.0
 40
9.0
 40
10.0
 40
10.0
 40
10.0
 40
11.0
 40
11.0
 40
11.0
 40
12.0
 40
12.0
 40
12.0
 40
13.0
 40
13.0
 40
13.0
 40
14.0
 40
14.0
 40
14.0
 40
15.0
 40
15.0
 40
15.0
 40
16.0
 40
16.0
 40
16.0
 40
17.0
 40
17.0
 40
17.0
 40
18.0
 40
18.0
 40
18.0
 40
19.0
 40
19.0
 40
19.0
 40
19.0
 10
109.8616834577776
 20
-138.5536444423581
 10
109.7600531409627
 20
-138.5536444423581
 10
109.5271646861599
 20
-138.5324571051238
 10
109.3938394908807
 20
-138.3462496941461
 10
109.3146022947199
 20
-138.2341118361012
 10
109.3101236705891
 20
-138.1347208313517
 10
109.3056450464583
 20
-138.0501437371888
 10
109.3056450464583
 20
-138.0501437371888
 10
109.5406005585523
 20
-138.0501437371888
 10
109.5406005585523
 20
-138.0501437371888
 10
109.543012125392
 20
-138.1242132901217
 10
109.5543809404933
 20
-138.3589965474415
 10
109.8572048336468
 20
-138.3589965474415
 10
110.004310410867
 20
-138.3589965474415
 10
110.1669189177707
 20
-138.2892333638652
 10
110.1669189177707
 20
-138.0606512784188
 10
110.1669189177707
 20
-137.9443793057917
 10
110.1262667910448
 20
-137.8956312046754
 10
110.0925048552894
 20
-137.8639363262111
 10
110.0132676591286
 20
-137.7898667732782
 10
109.8888997121111
 20
-137.777292174757
 10
109.8299885793133
 20
-137.777292174757
 10
109.8096625159503
 20
-137.777292174757
 10
109.7714219560641
 20
-137.7793592320482
 10
109.7417941348909
 20
-137.7834933466305
 10
109.7417941348909
 20
-137.7834933466305
 10
109.7417941348909
 20
-137.5888454517139
 10
109.7417941348909
 20
-137.5888454517139
 10
109.7824462616169
 20
-137.5952188783616
 10
109.8279215220222
 20
-137.597458190427
 10
109.8344672034441
 20
-137.597458190427
 10
109.9047471513432
 20
-137.597458190427
 10
110.1173095427832
 20
-137.5762708531927
 10
110.1173095427832
 20
-137.3392482838075
 10
110.1173095427832
 20
-137.1616536115429
 10
109.9770941565335
 20
-137.1065320837789
 10
109.8596164004865
 20
-137.1065320837789
 10
109.5767740611474
 20
-137.1065320837789
 10
109.5678168128858
 20
-137.3392482838075
 10
109.563338188755
 20
-137.4112507794493
 10
109.563338188755
 20
-137.4112507794493
 10
109.3462971731842
 20
-137.4112507794493
 10
109.3462971731842
 20
-137.4112507794493
 10
109.3552544214459
 20
-137.286366068109
 10
109.3845377330705
 20
-136.9098171315711
 10
109.8730522728789
 20
-136.9098171315711
 10
110.1128309186523
 20
-136.9098171315711
 10
110.370524060949
 20
-137.0367689002026
 10
110.370524060949
 20
-137.3328748571598
 10
110.370524060949
 20
-137.5190822681376
 10
110.2685492345856
 20
-137.6015923050093
 10
110.1624402936399
 20
-137.6629150046468
 10
110.2278971078597
 20
-137.6904757685288
 10
110.4225450027763
 20
-137.7709187481093
 10
110.4225450027763
 20
-138.0480766798977
 10
110.4225450027763
 20
-138.3865573113235
 10
110.1579616695091
 20
-138.5536444423581
 10
109.8616834577776
 20
-138.5536444423581
 97
        0
 97
        1
330
D0
 75
     2
 76
     1
 98
        1
 10
0.0
 20
0.0
450
        0
451
        0
460
0.0
461
0.0
452
        0
462
0.0
453
        0
470

  0
ENDBLK
  5
CD
330
CA
100
AcDbEntity
  8
0
100
AcDbBlockEnd
  0
BLOCK
  5
D9
330
D7
100
AcDbEntity
  8
0
100
AcDbBlockBegin
  2
Block_10
 70
     0
 10
0.0
 20
0.0
 30
0.0
  3
Block_10
  1

  0
INSERT
  5
DC
330
D7
100
AcDbEntity
  8
レイヤー 1
100
AcDbBlockReference
  2
Block_11
 10
0.0
 20
0.0
 30
0.0
  0
ENDBLK
  5
DA
330
D7
100
AcDbEntity
  8
0
100
AcDbBlockEnd
  0
BLOCK
  5
DD
330
DB
100
AcDbEntity
  8
0
100
AcDbBlockBegin
  2
Block_11
 70
     0
 10
0.0
 20
0.0
 30
0.0
  3
Block_11
  1

  0
SPLINE
  5
DF
330
DB
100
AcDbEntity
  8
レイヤー 1
100
AcDbSpline
210
0.0
220
0.0
230
1.0
 70
     9
 71
     3
 72
    17
 73
    13
 74
     0
 42
0.0000000001
 43
0.0000000001
 40
0.0
 40
0.0
 40
0.0
 40
0.0
 40
1.0
 40
1.0
 40
1.0
 40
2.0
 40
2.0
 40
2.0
 40
3.0
 40
3.0
 40
3.0
 40
4.0
 40
4.0
 40
4.0
 40
4.0
 10
85.51708846603393
 20
-157.915597833785
 30
0.0
 10
85.50020749815621
 20
-157.9448811454096
 30
0.0
 10
85.44956459452302
 20
-158.0382432330599
 30
0.0
 10
85.43888479851876
 20
-158.0571912582287
 30
0.0
 10
85.62939857885307
 20
-158.116446900575
 30
0.0
 10
85.65041366131309
 20
-158.1226480724485
 30
0.0
 10
85.72241615695482
 20
-158.1502088363305
 30
0.0
 10
85.77753768471881
 20
-158.0633924301022
 30
0.0
 10
85.80061982446999
 20
-157.9893228771693
 30
0.0
 10
85.81543373505656
 20
-157.915597833785
 30
0.0
 10
85.81543373505656
 20
-157.915597833785
 30
0.0
 10
85.51708846603393
 20
-157.915597833785
 30
0.0
 10
85.51708846603393
 20
-157.915597833785
 30
0.0
  0
SPLINE
  5
E0
330
DB
100
AcDbEntity
  8
レイヤー 1
100
AcDbSpline
210
0.0
220
0.0
230
1.0
 70
    11
 71
     3
 72
    20
 73
    16
 74
     0
 42
0.0000000001
 43
0.0000000001
 40
0.0
 40
0.0
 40
0.0
 40
0.0
 40
1.0
 40
1.0
 40
1.0
 40
2.0
 40
2.0
 40
2.0
 40
3.0
 40
3.0
 40
3.0
 40
4.0
 40
4.0
 40
4.0
 40
5.0
 40
5.0
 40
5.0
 40
5.0
 10
85.45369870910532
 20
-157.0650037584768
 30
0.0
 10
85.45369870910532
 20
-157.0650037584768
 30
0.0
 10
85.42200383064104
 20
-157.0650037584768
 30
0.0
 10
85.42200383064104
 20
-157.0650037584768
 30
0.0
 10
85.46851261969191
 20
-157.1645670180005
 30
0.0
 10
85.50020749815621
 20
-157.2448377428068
 30
0.0
 10
85.53396943391165
 20
-157.371617256664
 30
0.0
 10
85.53396943391165
 20
-157.371617256664
 30
0.0
 10
85.74136418212368
 20
-157.371617256664
 30
0.0
 10
85.74136418212368
 20
-157.371617256664
 30
0.0
 10
85.77305906058798
 20
-157.2785996785623
 30
0.0
 10
85.79648570988769
 20
-157.1941948391737
 30
0.0
 10
85.81956784963885
 20
-157.0650037584768
 30
0.0
 10
85.81956784963885
 20
-157.0650037584768
 30
0.0
 10
85.45369870910532
 20
-157.0650037584768
 30
0.0
 10
85.45369870910532
 20
-157.0650037584768
 30
0.0
  0
SPLINE
  5
E1
330
DB
100
AcDbEntity
  8
レイヤー 1
100
AcDbSpline
210
0.0
220
0.0
230
1.0
 70
     9
 71
     3
 72
   242
 73
   238
 74
     0
 42
0.0000000001
 43
0.0000000001
 40
0.0
 40
0.0
 40
0.0
 40
0.0
 40
1.0
 40
1.0
 40
1.0
 40
2.0
 40
2.0
 40
2.0
 40
3.0
 40
3.0
 40
3.0
 40
4.0
 40
4.0
 40
4.0
 40
5.0
 40
5.0
 40
5.0
 40
6.0
 40
6.0
 40
6.0
 40
7.0
 40
7.0
 40
7.0
 40
8.0
 40
8.0
 40
8.0
 40
9.0
 40
9.0
 40
9.0
 40
10.0
 40
10.0
 40
10.0
 40
11.0
 40
11.0
 40
11.0
 40
12.0
 40
12.0
 40
12.0
 40
13.0
 40
13.0
 40
13.0
 40
14.0
 40
14.0
 40
14.0
 40
15.0
 40
15.0
 40
15.0
 40
16.0
 40
16.0
 40
16.0
 40
17.0
 40
17.0
 40
17.0
 40
18.0
 40
18.0
 40
18.0
 40
19.0
 40
19.0
 40
19.0
 40
20.0
 40
20.0
 40
20.0
 40
21.0
 40
21.0
 40
21.0
 40
22.0
 40
22.0
 40
22.0
 40
23.0
 40
23.0
 40
23.0
 40
24.0
 40
24.0
 40
24.0
 40
25.0
 40
25.0
 40
25.0
 40
26.0
 40
26.0
 40
26.0
 40
27.0
 40
27.0
 40
27.0
 40
28.0
 40
28.0
 40
28.0
 40
29.0
 40
29.0
 40
29.0
 40
30.0
 40
30.0
 40
30.0
 40
31.0
 40
31.0
 40
31.0
 40
32.0
 40
32.0
 40
32.0
 40
33.0
 40
33.0
 40
33.0
 40
34.0
 40
34.0
 40
34.0
 40
35.0
 40
35.0
 40
35.0
 40
36.0
 40
36.0
 40
36.0
 40
37.0
 40
37.0
 40
37.0
 40
38.0
 40
38.0
 40
38.0
 40
39.0
 40
39.0
 40
39.0
 40
40.0
 40
40.0
 40
40.0
 40
41.0
 40
41.0
 40
41.0
 40
42.0
 40
42.0
 40
42.0
 40
43.0
 40
43.0
 40
43.0
 40
44.0
 40
44.0
 40
44.0
 40
45.0
 40
45.0
 40
45.0
 40
46.0
 40
46.0
 40
46.0
 40
47.0
 40
47.0
 40
47.0
 40
48.0
 40
48.0
 40
48.0
 40
49.0
 40
49.0
 40
49.0
 40
50.0
 40
50.0
 40
50.0
 40
51.0
 40
51.0
 40
51.0
 40
52.0
 40
52.0
 40
52.0
 40
53.0
 40
53.0
 40
53.0
 40
54.0
 40
54.0
 40
54.0
 40
55.0
 40
55.0
 40
55.0
 40
56.0
 40
56.0
 40
56.0
 40
57.0
 40
57.0
 40
57.0
 40
58.0
 40
58.0
 40
58.0
 40
59.0
 40
59.0
 40
59.0
 40
60.0
 40
60.0
 40
60.0
 40
61.0
 40
61.0
 40
61.0
 40
62.0
 40
62.0
 40
62.0
 40
63.0
 40
63.0
 40
63.0
 40
64.0
 40
64.0
 40
64.0
 40
65.0
 40
65.0
 40
65.0
 40
66.0
 40
66.0
 40
66.0
 40
67.0
 40
67.0
 40
67.0
 40
68.0
 40
68.0
 40
68.0
 40
69.0
 40
69.0
 40
69.0
 40
70.0
 40
70.0
 40
70.0
 40
71.0
 40
71.0
 40
71.0
 40
72.0
 40
72.0
 40
72.0
 40
73.0
 40
73.0
 40
73.0
 40
74.0
 40
74.0
 40
74.0
 40
75.0
 40
75.0
 40
75.0
 40
76.0
 40
76.0
 40
76.0
 40
77.0
 40
77.0
 40
77.0
 40
78.0
 40
78.0
 40
78.0
 40
79.0
 40
79.0
 40
79.0
 40
79.0
 10
86.0820841256149
 20
-157.530436158534
 30
0.0
 10
86.0820841256149
 20
-157.530436158534
 30
0.0
 10
85.82818058835199
 20
-157.530436158534
 30
0.0
 10
85.82818058835199
 20
-157.530436158534
 30
0.0
 10
85.82818058835199
 20
-157.530436158534
 30
0.0
 10
85.5511949113379
 20
-157.530436158534
 30
0.0
 10
85.5511949113379
 20
-157.530436158534
 30
0.0
 10
85.5511949113379
 20
-157.530436158534
 30
0.0
 10
85.67797442519509
 20
-157.5728108330026
 30
0.0
 10
85.67797442519509
 20
-157.5728108330026
 30
0.0
 10
85.68865422119937
 20
-157.5769449475849
 30
0.0
 10
85.7014010744948
 20
-157.5831461194584
 30
0.0
 10
85.7014010744948
 20
-157.5958929727538
 30
0.0
 10
85.7014010744948
 20
-157.6172525647623
 30
0.0
 10
85.66936168648195
 20
-157.6234537366358
 30
0.0
 10
85.64834660402194
 20
-157.6275878512181
 30
0.0
 10
85.63766680801768
 20
-157.6510145005178
 30
0.0
 10
85.60803898684453
 20
-157.7164713147375
 30
0.0
 10
85.58909096167566
 20
-157.7609130464973
 30
0.0
 10
85.58909096167566
 20
-157.7609130464973
 30
0.0
 10
85.85987546681629
 20
-157.7609130464973
 30
0.0
 10
85.85987546681629
 20
-157.7609130464973
 30
0.0
 10
85.95082598762688
 20
-157.7609130464973
 30
0.0
 10
86.14754093983464
 20
-157.7567789319149
 30
0.0
 10
86.28947887382693
 20
-157.7481661932018
 30
0.0
 10
86.28947887382693
 20
-157.7481661932018
 30
0.0
 10
86.28947887382693
 20
-157.9259331202407
 30
0.0
 10
86.28947887382693
 20
-157.9259331202407
 30
0.0
 10
86.20679658218094
 20
-157.9217990056584
 30
0.0
 10
86.18578149972092
 20
-157.9217990056584
 30
0.0
 10
86.00594751539087
 20
-157.9176648910761
 30
0.0
 10
85.97425263692658
 20
-158.0720051688153
 30
0.0
 10
85.92981090516685
 20
-158.1522758936216
 30
0.0
 10
85.88536917340713
 20
-158.2222113319722
 30
0.0
 10
86.00594751539087
 20
-158.2814669743185
 30
0.0
 10
86.11171194678805
 20
-158.3489908458294
 30
0.0
 10
86.21540932089407
 20
-158.4316731374754
 30
0.0
 10
86.21540932089407
 20
-158.4316731374754
 30
0.0
 10
86.09689803620147
 20
-158.59876026851
 30
0.0
 10
86.09689803620147
 20
-158.59876026851
 30
0.0
 10
86.07347138690178
 20
-158.5798122433411
 30
0.0
 10
86.06072453360635
 20
-158.571199504628
 30
0.0
 10
85.94875893033572
 20
-158.4864501556909
 30
0.0
 10
85.9001830839937
 20
-158.4485541053531
 30
0.0
 10
85.8409274416474
 20
-158.4127251123065
 30
0.0
 10
85.76031220729257
 20
-158.3682833805468
 30
0.0
 10
85.54878334449822
 20
-158.5543185367503
 30
0.0
 10
85.34380016312587
 20
-158.57774518605
 30
0.0
 10
85.05372312326782
 20
-158.6073730072232
 30
0.0
 10
85.05372312326782
 20
-158.6073730072232
 30
0.0
 10
84.95037025871033
 20
-158.4275390228931
 30
0.0
 10
84.95037025871033
 20
-158.4275390228931
 30
0.0
 10
85.26766355290183
 20
-158.4230603987623
 30
0.0
 10
85.44301891310105
 20
-158.39791120172
 30
0.0
 10
85.5952921335491
 20
-158.2876681461919
 30
0.0
 10
85.47712535840503
 20
-158.2370252425588
 30
0.0
 10
85.38824189488558
 20
-158.2094644786768
 30
0.0
 10
85.35206839229045
 20
-158.1967176253814
 30
0.0
 10
85.33312036712159
 20
-158.2242783892634
 30
0.0
 10
85.31830645653501
 20
-158.2432264144322
 30
0.0
 10
85.29074569265302
 20
-158.2773328597362
 30
0.0
 10
85.29074569265302
 20
-158.2773328597362
 30
0.0
 10
85.09403074044525
 20
-158.1946505680902
 30
0.0
 10
85.09403074044525
 20
-158.1946505680902
 30
0.0
 10
85.17671303209125
 20
-158.1143798432839
 30
0.0
 10
85.23803573172868
 20
-158.0189506983425
 30
0.0
 10
85.29487980723532
 20
-157.9176648910761
 30
0.0
 10
85.10471053644952
 20
-157.9217990056584
 30
0.0
 10
85.08335094444097
 20
-157.9217990056584
 30
0.0
 10
85.00101316234349
 20
-157.9259331202407
 30
0.0
 10
85.00101316234349
 20
-157.9259331202407
 30
0.0
 10
85.00101316234349
 20
-157.7481661932018
 30
0.0
 10
85.00101316234349
 20
-157.7481661932018
 30
0.0
 10
85.14053952949613
 20
-157.7547118746238
 30
0.0
 10
85.35000133499931
 20
-157.7588459892061
 30
0.0
 10
85.37549504159015
 20
-157.7588459892061
 30
0.0
 10
85.39237600946789
 20
-157.7250840534506
 30
0.0
 10
85.44749753723188
 20
-157.6045057114669
 30
0.0
 10
85.46644556240075
 20
-157.530436158534
 30
0.0
 10
85.44749753723188
 20
-157.530436158534
 30
0.0
 10
85.26973061019299
 20
-157.5366373304075
 30
0.0
 10
85.07508271527637
 20
-157.5493841837029
 30
0.0
 10
85.07508271527637
 20
-157.5493841837029
 30
0.0
 10
85.07508271527637
 20
-157.6827093789821
 30
0.0
 10
85.07508271527637
 20
-157.6827093789821
 30
0.0
 10
85.02650686893435
 20
-157.7082030855729
 30
0.0
 10
84.96725122658805
 20
-157.7398979640372
 30
0.0
 10
84.83392603130887
 20
-157.805354778257
 30
0.0
 10
84.83392603130887
 20
-157.805354778257
 30
0.0
 10
84.83392603130887
 20
-157.9514268268316
 30
0.0
 10
84.83392603130887
 20
-157.9514268268316
 30
0.0
 10
84.83392603130887
 20
-157.9514268268316
 30
0.0
 10
84.83392603130887
 20
-158.41892628418
 30
0.0
 10
84.83392603130887
 20
-158.41892628418
 30
0.0
 10
84.83392603130887
 20
-158.5457057980372
 30
0.0
 10
84.79775252871375
 20
-158.6049614403834
 30
0.0
 10
84.51456567982623
 20
-158.5966932112189
 30
0.0
 10
84.51456567982623
 20
-158.5966932112189
 30
0.0
 10
84.4108683057202
 20
-158.3892984630068
 30
0.0
 10
84.4108683057202
 20
-158.3892984630068
 30
0.0
 10
84.47425806264879
 20
-158.4020453163022
 30
0.0
 10
84.52283390899081
 20
-158.4061794308845
 30
0.0
 10
84.56314152616824
 20
-158.4061794308845
 30
0.0
 10
84.63927813639227
 20
-158.4061794308845
 30
0.0
 10
84.64995793239655
 20
-158.3830972911334
 30
0.0
 10
84.64995793239655
 20
-158.3172959673651
 30
0.0
 10
84.64995793239655
 20
-158.3172959673651
 30
0.0
 10
84.64995793239655
 20
-157.888037069903
 30
0.0
 10
84.64995793239655
 20
-157.888037069903
 30
0.0
 10
84.55246173016396
 20
-157.9280001775319
 30
0.0
 10
84.53558076228624
 20
-157.9345458589538
 30
0.0
 10
84.48907197323537
 20
-157.9534938841227
 30
0.0
 10
84.48493785865307
 20
-157.9745089665827
 30
0.0
 10
84.48045923452225
 20
-158.0041367877559
 30
0.0
 10
84.46151120935338
 20
-158.0041367877559
 30
0.0
 10
84.45324298018878
 20
-158.0041367877559
 30
0.0
 10
84.44256318418451
 20
-158.0000026731736
 30
0.0
 10
84.43601750276252
 20
-157.9769205334224
 30
0.0
 10
84.43601750276252
 20
-157.9769205334224
 30
0.0
 10
84.38330754183821
 20
-157.7843396957969
 30
0.0
 10
84.38330754183821
 20
-157.7843396957969
 30
0.0
 10
84.5293795904128
 20
-157.7378309067461
 30
0.0
 10
84.59483640463254
 20
-157.7144042574464
 30
0.0
 10
84.64995793239655
 20
-157.6933891749864
 30
0.0
 10
84.64995793239655
 20
-157.6933891749864
 30
0.0
 10
84.64995793239655
 20
-157.2806667358534
 30
0.0
 10
84.64995793239655
 20
-157.2806667358534
 30
0.0
 10
84.64995793239655
 20
-157.2806667358534
 30
0.0
 10
84.59690346192369
 20
-157.2806667358534
 30
0.0
 10
84.59690346192369
 20
-157.2806667358534
 30
0.0
 10
84.59690346192369
 20
-157.2806667358534
 30
0.0
 10
84.51869979440852
 20
-157.2806667358534
 30
0.0
 10
84.51869979440852
 20
-157.2806667358534
 30
0.0
 10
84.4508314133491
 20
-157.2806667358534
 30
0.0
 10
84.44256318418451
 20
-157.2806667358534
 30
0.0
 10
84.40638968158937
 20
-157.2872124172754
 30
0.0
 10
84.40638968158937
 20
-157.2872124172754
 30
0.0
 10
84.40638968158937
 20
-157.0925645223588
 30
0.0
 10
84.40638968158937
 20
-157.0925645223588
 30
0.0
 10
84.43395044547138
 20
-157.0987656942322
 30
0.0
 10
84.44256318418451
 20
-157.0987656942322
 30
0.0
 10
84.51215411298655
 20
-157.0987656942322
 30
0.0
 10
84.51215411298655
 20
-157.0987656942322
 30
0.0
 10
84.64547930826572
 20
-157.0987656942322
 30
0.0
 10
84.64547930826572
 20
-157.0987656942322
 30
0.0
 10
84.64547930826572
 20
-157.0291747654302
 30
0.0
 10
84.64547930826572
 20
-156.9464924737842
 30
0.0
 10
84.64341225097456
 20
-156.9423583592019
 30
0.0
 10
84.63514402180996
 20
-156.7625243748719
 30
0.0
 10
84.63514402180996
 20
-156.743576349703
 30
0.0
 10
84.63273245497029
 20
-156.6970675606521
 30
0.0
 10
84.63273245497029
 20
-156.6970675606521
 30
0.0
 10
84.84873994189547
 20
-156.7053357898167
 30
0.0
 10
84.84873994189547
 20
-156.7053357898167
 30
0.0
 10
84.85941973789973
 20
-156.7053357898167
 30
0.0
 10
84.88043482035974
 20
-156.7074028471079
 30
0.0
 10
84.88043482035974
 20
-156.7242838149856
 30
0.0
 10
84.88043482035974
 20
-156.743576349703
 30
0.0
 10
84.86562090977319
 20
-156.7539116361587
 30
0.0
 10
84.84012720318233
 20
-156.7732041708761
 30
0.0
 10
84.84012720318233
 20
-156.8238470745093
 30
0.0
 10
84.83392603130887
 20
-157.0522569051814
 30
0.0
 10
84.83599308860004
 20
-157.0987656942322
 30
0.0
 10
84.9651841692969
 20
-157.0987656942322
 30
0.0
 10
84.9775865130438
 20
-157.0987656942322
 30
0.0
 10
85.07508271527637
 20
-157.0904974650676
 30
0.0
 10
85.07508271527637
 20
-157.0904974650676
 30
0.0
 10
85.07508271527637
 20
-157.2851453599843
 30
0.0
 10
85.07508271527637
 20
-157.2851453599843
 30
0.0
 10
85.0368421553901
 20
-157.2827337931446
 30
0.0
 10
84.9693182838792
 20
-157.2785996785623
 30
0.0
 10
84.83392603130887
 20
-157.2806667358534
 30
0.0
 10
84.83392603130887
 20
-157.2806667358534
 30
0.0
 10
84.83392603130887
 20
-157.6193196220535
 30
0.0
 10
84.83392603130887
 20
-157.6193196220535
 30
0.0
 10
84.88904755907288
 20
-157.5958929727538
 30
0.0
 10
84.95450437329262
 20
-157.5683322088718
 30
0.0
 10
85.00308021963466
 20
-157.5452500691206
 30
0.0
 10
85.00308021963466
 20
-157.5452500691206
 30
0.0
 10
85.00308021963466
 20
-157.3674831420817
 30
0.0
 10
85.00308021963466
 20
-157.3674831420817
 30
0.0
 10
85.11745738974495
 20
-157.3802299953771
 30
0.0
 10
85.23596867443755
 20
-157.3802299953771
 30
0.0
 10
85.35206839229045
 20
-157.3802299953771
 30
0.0
 10
85.32898625253928
 20
-157.2851453599843
 30
0.0
 10
85.30142548865729
 20
-157.2024630683383
 30
0.0
 10
85.23803573172868
 20
-157.0691378730591
 30
0.0
 10
85.19359399996897
 20
-157.0712049303502
 30
0.0
 10
85.11091170832298
 20
-157.0756835544811
 30
0.0
 10
85.07301565798522
 20
-157.0777506117722
 30
0.0
 10
85.07301565798522
 20
-157.0777506117722
 30
0.0
 10
85.07301565798522
 20
-156.8979166274422
 30
0.0
 10
85.07301565798522
 20
-156.8979166274422
 30
0.0
 10
85.19772811455126
 20
-156.9061848566068
 30
0.0
 10
85.37136092700785
 20
-156.9106634807376
 30
0.0
 10
85.45369870910532
 20
-156.9106634807376
 30
0.0
 10
85.45369870910532
 20
-156.9106634807376
 30
0.0
 10
85.53638100075131
 20
-156.9106634807376
 30
0.0
 10
85.53638100075131
 20
-156.9106634807376
 30
0.0
 10
85.53638100075131
 20
-156.7477104642853
 30
0.0
 10
85.53638100075131
 20
-156.737030668281
 30
0.0
 10
85.53396943391165
 20
-156.6822536500655
 30
0.0
 10
85.53396943391165
 20
-156.6822536500655
 30
0.0
 10
85.75824515000141
 20
-156.7074028471079
 30
0.0
 10
85.75824515000141
 20
-156.7074028471079
 30
0.0
 10
85.76272377413223
 20
-156.7074028471079
 30
0.0
 10
85.78373885659226
 20
-156.709469904399
 30
0.0
 10
85.78373885659226
 20
-156.7263508722767
 30
0.0
 10
85.78373885659226
 20
-156.7411647828633
 30
0.0
 10
85.77305906058798
 20
-156.7497775215764
 30
0.0
 10
85.74549829670599
 20
-156.764591432163
 30
0.0
 10
85.73929712483254
 20
-156.8300482463827
 30
0.0
 10
85.73723006754139
 20
-156.8514078383913
 30
0.0
 10
85.73723006754139
 20
-156.9106634807376
 30
0.0
 10
85.73723006754139
 20
-156.9106634807376
 30
0.0
 10
85.83231470293428
 20
-156.9106634807376
 30
0.0
 10
85.83231470293428
 20
-156.9106634807376
 30
0.0
 10
85.91499699458028
 20
-156.9106634807376
 30
0.0
 10
86.08828529748835
 20
-156.9061848566068
 30
0.0
 10
86.21334226360293
 20
-156.8979166274422
 30
0.0
 10
86.21334226360293
 20
-156.8979166274422
 30
0.0
 10
86.21334226360293
 20
-157.0777506117722
 30
0.0
 10
86.21334226360293
 20
-157.0777506117722
 30
0.0
 10
86.18371444242978
 20
-157.0756835544811
 30
0.0
 10
86.06520315773718
 20
-157.0712049303502
 30
0.0
 10
86.02489554055976
 20
-157.0691378730591
 30
0.0
 10
86.01008162997317
 20
-157.1201252862408
 30
0.0
 10
85.97631969421774
 20
-157.2320908895114
 30
0.0
 10
85.91051837044945
 20
-157.371617256664
 30
0.0
 10
85.95289304491803
 20
-157.371617256664
 30
0.0
 10
86.23022323148063
 20
-157.3526692314952
 30
0.0
 10
86.2915459311181
 20
-157.350602174204
 30
0.0
 10
86.2915459311181
 20
-157.350602174204
 30
0.0
 10
86.2915459311181
 20
-157.5345702731163
 30
0.0
 10
86.2915459311181
 20
-157.5345702731163
 30
0.0
 10
86.26191810994495
 20
-157.5345702731163
 30
0.0
 10
86.24503714206722
 20
-157.530436158534
 30
0.0
 10
86.0820841256149
 20
-157.530436158534
 30
0.0
  0
HATCH
  5
E2
330
DB
100
AcDbEntity
  8
レイヤー 1
 62
   250
420
  2299925
440
 33554687
100
AcDbHatch
 10
0.0
 20
0.0
 30
0.0
210
0.0
220
0.0
230
1.0
  2
SOLID
 70
     1
 71
     1
 91
        3
 92
        1
 93
        1
 72
     4
 94
        3
 73
     0
 74
     0
 95
       17
 96
       13
 40
0.0
 40
0.0
 40
0.0
 40
0.0
 40
1.0
 40
1.0
 40
1.0
 40
2.0
 40
2.0
 40
2.0
 40
3.0
 40
3.0
 40
3.0
 40
4.0
 40
4.0
 40
4.0
 40
4.0
 10
85.51708846603393
 20
-157.915597833785
 10
85.50020749815621
 20
-157.9448811454096
 10
85.44956459452302
 20
-158.0382432330599
 10
85.43888479851876
 20
-158.0571912582287
 10
85.62939857885307
 20
-158.116446900575
 10
85.65041366131309
 20
-158.1226480724485
 10
85.72241615695482
 20
-158.1502088363305
 10
85.77753768471881
 20
-158.0633924301022
 10
85.80061982446999
 20
-157.9893228771693
 10
85.81543373505656
 20
-157.915597833785
 10
85.81543373505656
 20
-157.915597833785
 10
85.51708846603393
 20
-157.915597833785
 10
85.51708846603393
 20
-157.915597833785
 97
        0
 97
        1
330
DF
 92
        1
 93
        1
 72
     4
 94
        3
 73
     0
 74
     0
 95
       20
 96
       16
 40
0.0
 40
0.0
 40
0.0
 40
0.0
 40
1.0
 40
1.0
 40
1.0
 40
2.0
 40
2.0
 40
2.0
 40
3.0
 40
3.0
 40
3.0
 40
4.0
 40
4.0
 40
4.0
 40
5.0
 40
5.0
 40
5.0
 40
5.0
 10
85.45369870910532
 20
-157.0650037584768
 10
85.45369870910532
 20
-157.0650037584768
 10
85.42200383064104
 20
-157.0650037584768
 10
85.42200383064104
 20
-157.0650037584768
 10
85.46851261969191
 20
-157.1645670180005
 10
85.50020749815621
 20
-157.2448377428068
 10
85.53396943391165
 20
-157.371617256664
 10
85.53396943391165
 20
-157.371617256664
 10
85.74136418212368
 20
-157.371617256664
 10
85.74136418212368
 20
-157.371617256664
 10
85.77305906058798
 20
-157.2785996785623
 10
85.79648570988769
 20
-157.1941948391737
 10
85.81956784963885
 20
-157.0650037584768
 10
85.81956784963885
 20
-157.0650037584768
 10
85.45369870910532
 20
-157.0650037584768
 10
85.45369870910532
 20
-157.0650037584768
 97
        0
 97
        1
330
E0
 92
        1
 93
        1
 72
     4
 94
        3
 73
     0
 74
     0
 95
      242
 96
      238
 40
0.0
 40
0.0
 40
0.0
 40
0.0
 40
1.0
 40
1.0
 40
1.0
 40
2.0
 40
2.0
 40
2.0
 40
3.0
 40
3.0
 40
3.0
 40
4.0
 40
4.0
 40
4.0
 40
5.0
 40
5.0
 40
5.0
 40
6.0
 40
6.0
 40
6.0
 40
7.0
 40
7.0
 40
7.0
 40
8.0
 40
8.0
 40
8.0
 40
9.0
 40
9.0
 40
9.0
 40
10.0
 40
10.0
 40
10.0
 40
11.0
 40
11.0
 40
11.0
 40
12.0
 40
12.0
 40
12.0
 40
13.0
 40
13.0
 40
13.0
 40
14.0
 40
14.0
 40
14.0
 40
15.0
 40
15.0
 40
15.0
 40
16.0
 40
16.0
 40
16.0
 40
17.0
 40
17.0
 40
17.0
 40
18.0
 40
18.0
 40
18.0
 40
19.0
 40
19.0
 40
19.0
 40
20.0
 40
20.0
 40
20.0
 40
21.0
 40
21.0
 40
21.0
 40
22.0
 40
22.0
 40
22.0
 40
23.0
 40
23.0
 40
23.0
 40
24.0
 40
24.0
 40
24.0
 40
25.0
 40
25.0
 40
25.0
 40
26.0
 40
26.0
 40
26.0
 40
27.0
 40
27.0
 40
27.0
 40
28.0
 40
28.0
 40
28.0
 40
29.0
 40
29.0
 40
29.0
 40
30.0
 40
30.0
 40
30.0
 40
31.0
 40
31.0
 40
31.0
 40
32.0
 40
32.0
 40
32.0
 40
33.0
 40
33.0
 40
33.0
 40
34.0
 40
34.0
 40
34.0
 40
35.0
 40
35.0
 40
35.0
 40
36.0
 40
36.0
 40
36.0
 40
37.0
 40
37.0
 40
37.0
 40
38.0
 40
38.0
 40
38.0
 40
39.0
 40
39.0
 40
39.0
 40
40.0
 40
40.0
 40
40.0
 40
41.0
 40
41.0
 40
41.0
 40
42.0
 40
42.0
 40
42.0
 40
43.0
 40
43.0
 40
43.0
 40
44.0
 40
44.0
 40
44.0
 40
45.0
 40
45.0
 40
45.0
 40
46.0
 40
46.0
 40
46.0
 40
47.0
 40
47.0
 40
47.0
 40
48.0
 40
48.0
 40
48.0
 40
49.0
 40
49.0
 40
49.0
 40
50.0
 40
50.0
 40
50.0
 40
51.0
 40
51.0
 40
51.0
 40
52.0
 40
52.0
 40
52.0
 40
53.0
 40
53.0
 40
53.0
 40
54.0
 40
54.0
 40
54.0
 40
55.0
 40
55.0
 40
55.0
 40
56.0
 40
56.0
 40
56.0
 40
57.0
 40
57.0
 40
57.0
 40
58.0
 40
58.0
 40
58.0
 40
59.0
 40
59.0
 40
59.0
 40
60.0
 40
60.0
 40
60.0
 40
61.0
 40
61.0
 40
61.0
 40
62.0
 40
62.0
 40
62.0
 40
63.0
 40
63.0
 40
63.0
 40
64.0
 40
64.0
 40
64.0
 40
65.0
 40
65.0
 40
65.0
 40
66.0
 40
66.0
 40
66.0
 40
67.0
 40
67.0
 40
67.0
 40
68.0
 40
68.0
 40
68.0
 40
69.0
 40
69.0
 40
69.0
 40
70.0
 40
70.0
 40
70.0
 40
71.0
 40
71.0
 40
71.0
 40
72.0
 40
72.0
 40
72.0
 40
73.0
 40
73.0
 40
73.0
 40
74.0
 40
74.0
 40
74.0
 40
75.0
 40
75.0
 40
75.0
 40
76.0
 40
76.0
 40
76.0
 40
77.0
 40
77.0
 40
77.0
 40
78.0
 40
78.0
 40
78.0
 40
79.0
 40
79.0
 40
79.0
 40
79.0
 10
86.0820841256149
 20
-157.530436158534
 10
86.0820841256149
 20
-157.530436158534
 10
85.82818058835199
 20
-157.530436158534
 10
85.82818058835199
 20
-157.530436158534
 10
85.82818058835199
 20
-157.530436158534
 10
85.5511949113379
 20
-157.530436158534
 10
85.5511949113379
 20
-157.530436158534
 10
85.5511949113379
 20
-157.530436158534
 10
85.67797442519509
 20
-157.5728108330026
 10
85.67797442519509
 20
-157.5728108330026
 10
85.68865422119937
 20
-157.5769449475849
 10
85.7014010744948
 20
-157.5831461194584
 10
85.7014010744948
 20
-157.5958929727538
 10
85.7014010744948
 20
-157.6172525647623
 10
85.66936168648195
 20
-157.6234537366358
 10
85.64834660402194
 20
-157.6275878512181
 10
85.63766680801768
 20
-157.6510145005178
 10
85.60803898684453
 20
-157.7164713147375
 10
85.58909096167566
 20
-157.7609130464973
 10
85.58909096167566
 20
-157.7609130464973
 10
85.85987546681629
 20
-157.7609130464973
 10
85.85987546681629
 20
-157.7609130464973
 10
85.95082598762688
 20
-157.7609130464973
 10
86.14754093983464
 20
-157.7567789319149
 10
86.28947887382693
 20
-157.7481661932018
 10
86.28947887382693
 20
-157.7481661932018
 10
86.28947887382693
 20
-157.9259331202407
 10
86.28947887382693
 20
-157.9259331202407
 10
86.20679658218094
 20
-157.9217990056584
 10
86.18578149972092
 20
-157.9217990056584
 10
86.00594751539087
 20
-157.9176648910761
 10
85.97425263692658
 20
-158.0720051688153
 10
85.92981090516685
 20
-158.1522758936216
 10
85.88536917340713
 20
-158.2222113319722
 10
86.00594751539087
 20
-158.2814669743185
 10
86.11171194678805
 20
-158.3489908458294
 10
86.21540932089407
 20
-158.4316731374754
 10
86.21540932089407
 20
-158.4316731374754
 10
86.09689803620147
 20
-158.59876026851
 10
86.09689803620147
 20
-158.59876026851
 10
86.07347138690178
 20
-158.5798122433411
 10
86.06072453360635
 20
-158.571199504628
 10
85.94875893033572
 20
-158.4864501556909
 10
85.9001830839937
 20
-158.4485541053531
 10
85.8409274416474
 20
-158.4127251123065
 10
85.76031220729257
 20
-158.3682833805468
 10
85.54878334449822
 20
-158.5543185367503
 10
85.34380016312587
 20
-158.57774518605
 10
85.05372312326782
 20
-158.6073730072232
 10
85.05372312326782
 20
-158.6073730072232
 10
84.95037025871033
 20
-158.4275390228931
 10
84.95037025871033
 20
-158.4275390228931
 10
85.26766355290183
 20
-158.4230603987623
 10
85.44301891310105
 20
-158.39791120172
 10
85.5952921335491
 20
-158.2876681461919
 10
85.47712535840503
 20
-158.2370252425588
 10
85.38824189488558
 20
-158.2094644786768
 10
85.35206839229045
 20
-158.1967176253814
 10
85.33312036712159
 20
-158.2242783892634
 10
85.31830645653501
 20
-158.2432264144322
 10
85.29074569265302
 20
-158.2773328597362
 10
85.29074569265302
 20
-158.2773328597362
 10
85.09403074044525
 20
-158.1946505680902
 10
85.09403074044525
 20
-158.1946505680902
 10
85.17671303209125
 20
-158.1143798432839
 10
85.23803573172868
 20
-158.0189506983425
 10
85.29487980723532
 20
-157.9176648910761
 10
85.10471053644952
 20
-157.9217990056584
 10
85.08335094444097
 20
-157.9217990056584
 10
85.00101316234349
 20
-157.9259331202407
 10
85.00101316234349
 20
-157.9259331202407
 10
85.00101316234349
 20
-157.7481661932018
 10
85.00101316234349
 20
-157.7481661932018
 10
85.14053952949613
 20
-157.7547118746238
 10
85.35000133499931
 20
-157.7588459892061
 10
85.37549504159015
 20
-157.7588459892061
 10
85.39237600946789
 20
-157.7250840534506
 10
85.44749753723188
 20
-157.6045057114669
 10
85.46644556240075
 20
-157.530436158534
 10
85.44749753723188
 20
-157.530436158534
 10
85.26973061019299
 20
-157.5366373304075
 10
85.07508271527637
 20
-157.5493841837029
 10
85.07508271527637
 20
-157.5493841837029
 10
85.07508271527637
 20
-157.6827093789821
 10
85.07508271527637
 20
-157.6827093789821
 10
85.02650686893435
 20
-157.7082030855729
 10
84.96725122658805
 20
-157.7398979640372
 10
84.83392603130887
 20
-157.805354778257
 10
84.83392603130887
 20
-157.805354778257
 10
84.83392603130887
 20
-157.9514268268316
 10
84.83392603130887
 20
-157.9514268268316
 10
84.83392603130887
 20
-157.9514268268316
 10
84.83392603130887
 20
-158.41892628418
 10
84.83392603130887
 20
-158.41892628418
 10
84.83392603130887
 20
-158.5457057980372
 10
84.79775252871375
 20
-158.6049614403834
 10
84.51456567982623
 20
-158.5966932112189
 10
84.51456567982623
 20
-158.5966932112189
 10
84.4108683057202
 20
-158.3892984630068
 10
84.4108683057202
 20
-158.3892984630068
 10
84.47425806264879
 20
-158.4020453163022
 10
84.52283390899081
 20
-158.4061794308845
 10
84.56314152616824
 20
-158.4061794308845
 10
84.63927813639227
 20
-158.4061794308845
 10
84.64995793239655
 20
-158.3830972911334
 10
84.64995793239655
 20
-158.3172959673651
 10
84.64995793239655
 20
-158.3172959673651
 10
84.64995793239655
 20
-157.888037069903
 10
84.64995793239655
 20
-157.888037069903
 10
84.55246173016396
 20
-157.9280001775319
 10
84.53558076228624
 20
-157.9345458589538
 10
84.48907197323537
 20
-157.9534938841227
 10
84.48493785865307
 20
-157.9745089665827
 10
84.48045923452225
 20
-158.0041367877559
 10
84.46151120935338
 20
-158.0041367877559
 10
84.45324298018878
 20
-158.0041367877559
 10
84.44256318418451
 20
-158.0000026731736
 10
84.43601750276252
 20
-157.9769205334224
 10
84.43601750276252
 20
-157.9769205334224
 10
84.38330754183821
 20
-157.7843396957969
 10
84.38330754183821
 20
-157.7843396957969
 10
84.5293795904128
 20
-157.7378309067461
 10
84.59483640463254
 20
-157.7144042574464
 10
84.64995793239655
 20
-157.6933891749864
 10
84.64995793239655
 20
-157.6933891749864
 10
84.64995793239655
 20
-157.2806667358534
 10
84.64995793239655
 20
-157.2806667358534
 10
84.64995793239655
 20
-157.2806667358534
 10
84.59690346192369
 20
-157.2806667358534
 10
84.59690346192369
 20
-157.2806667358534
 10
84.59690346192369
 20
-157.2806667358534
 10
84.51869979440852
 20
-157.2806667358534
 10
84.51869979440852
 20
-157.2806667358534
 10
84.4508314133491
 20
-157.2806667358534
 10
84.44256318418451
 20
-157.2806667358534
 10
84.40638968158937
 20
-157.2872124172754
 10
84.40638968158937
 20
-157.2872124172754
 10
84.40638968158937
 20
-157.0925645223588
 10
84.40638968158937
 20
-157.0925645223588
 10
84.43395044547138
 20
-157.0987656942322
 10
84.44256318418451
 20
-157.0987656942322
 10
84.51215411298655
 20
-157.0987656942322
 10
84.51215411298655
 20
-157.0987656942322
 10
84.64547930826572
 20
-157.0987656942322
 10
84.64547930826572
 20
-157.0987656942322
 10
84.64547930826572
 20
-157.0291747654302
 10
84.64547930826572
 20
-156.9464924737842
 10
84.64341225097456
 20
-156.9423583592019
 10
84.63514402180996
 20
-156.7625243748719
 10
84.63514402180996
 20
-156.743576349703
 10
84.63273245497029
 20
-156.6970675606521
 10
84.63273245497029
 20
-156.6970675606521
 10
84.84873994189547
 20
-156.7053357898167
 10
84.84873994189547
 20
-156.7053357898167
 10
84.85941973789973
 20
-156.7053357898167
 10
84.88043482035974
 20
-156.7074028471079
 10
84.88043482035974
 20
-156.7242838149856
 10
84.88043482035974
 20
-156.743576349703
 10
84.86562090977319
 20
-156.7539116361587
 10
84.84012720318233
 20
-156.7732041708761
 10
84.84012720318233
 20
-156.8238470745093
 10
84.83392603130887
 20
-157.0522569051814
 10
84.83599308860004
 20
-157.0987656942322
 10
84.9651841692969
 20
-157.0987656942322
 10
84.9775865130438
 20
-157.0987656942322
 10
85.07508271527637
 20
-157.0904974650676
 10
85.07508271527637
 20
-157.0904974650676
 10
85.07508271527637
 20
-157.2851453599843
 10
85.07508271527637
 20
-157.2851453599843
 10
85.0368421553901
 20
-157.2827337931446
 10
84.9693182838792
 20
-157.2785996785623
 10
84.83392603130887
 20
-157.2806667358534
 10
84.83392603130887
 20
-157.2806667358534
 10
84.83392603130887
 20
-157.6193196220535
 10
84.83392603130887
 20
-157.6193196220535
 10
84.88904755907288
 20
-157.5958929727538
 10
84.95450437329262
 20
-157.5683322088718
 10
85.00308021963466
 20
-157.5452500691206
 10
85.00308021963466
 20
-157.5452500691206
 10
85.00308021963466
 20
-157.3674831420817
 10
85.00308021963466
 20
-157.3674831420817
 10
85.11745738974495
 20
-157.3802299953771
 10
85.23596867443755
 20
-157.3802299953771
 10
85.35206839229045
 20
-157.3802299953771
 10
85.32898625253928
 20
-157.2851453599843
 10
85.30142548865729
 20
-157.2024630683383
 10
85.23803573172868
 20
-157.0691378730591
 10
85.19359399996897
 20
-157.0712049303502
 10
85.11091170832298
 20
-157.0756835544811
 10
85.07301565798522
 20
-157.0777506117722
 10
85.07301565798522
 20
-157.0777506117722
 10
85.07301565798522
 20
-156.8979166274422
 10
85.07301565798522
 20
-156.8979166274422
 10
85.19772811455126
 20
-156.9061848566068
 10
85.37136092700785
 20
-156.9106634807376
 10
85.45369870910532
 20
-156.9106634807376
 10
85.45369870910532
 20
-156.9106634807376
 10
85.53638100075131
 20
-156.9106634807376
 10
85.53638100075131
 20
-156.9106634807376
 10
85.53638100075131
 20
-156.7477104642853
 10
85.53638100075131
 20
-156.737030668281
 10
85.53396943391165
 20
-156.6822536500655
 10
85.53396943391165
 20
-156.6822536500655
 10
85.75824515000141
 20
-156.7074028471079
 10
85.75824515000141
 20
-156.7074028471079
 10
85.76272377413223
 20
-156.7074028471079
 10
85.78373885659226
 20
-156.709469904399
 10
85.78373885659226
 20
-156.7263508722767
 10
85.78373885659226
 20
-156.7411647828633
 10
85.77305906058798
 20
-156.7497775215764
 10
85.74549829670599
 20
-156.764591432163
 10
85.73929712483254
 20
-156.8300482463827
 10
85.73723006754139
 20
-156.8514078383913
 10
85.73723006754139
 20
-156.9106634807376
 10
85.73723006754139
 20
-156.9106634807376
 10
85.83231470293428
 20
-156.9106634807376
 10
85.83231470293428
 20
-156.9106634807376
 10
85.91499699458028
 20
-156.9106634807376
 10
86.08828529748835
 20
-156.9061848566068
 10
86.21334226360293
 20
-156.8979166274422
 10
86.21334226360293
 20
-156.8979166274422
 10
86.21334226360293
 20
-157.0777506117722
 10
86.21334226360293
 20
-157.0777506117722
 10
86.18371444242978
 20
-157.0756835544811
 10
86.06520315773718
 20
-157.0712049303502
 10
86.02489554055976
 20
-157.0691378730591
 10
86.01008162997317
 20
-157.1201252862408
 10
85.97631969421774
 20
-157.2320908895114
 10
85.91051837044945
 20
-157.371617256664
 10
85.95289304491803
 20
-157.371617256664
 10
86.23022323148063
 20
-157.3526692314952
 10
86.2915459311181
 20
-157.350602174204
 10
86.2915459311181
 20
-157.350602174204
 10
86.2915459311181
 20
-157.5345702731163
 10
86.2915459311181
 20
-157.5345702731163
 10
86.26191810994495
 20
-157.5345702731163
 10
86.24503714206722
 20
-157.530436158534
 10
86.0820841256149
 20
-157.530436158534
 97
        0
 97
        1
330
E1
 75
     2
 76
     1
 98
        1
 10
0.0
 20
0.0
450
        0
451
        0
460
0.0
461
0.0
452
        0
462
0.0
453
        0
470

  0
SPLINE
  5
E3
330
DB
100
AcDbEntity
  8
レイヤー 1
100
AcDbSpline
210
0.0
220
0.0
230
1.0
 70
    11
 71
     3
 72
    17
 73
    13
 74
     0
 42
0.0000000001
 43
0.0000000001
 40
0.0
 40
0.0
 40
0.0
 40
0.0
 40
1.0
 40
1.0
 40
1.0
 40
2.0
 40
2.0
 40
2.0
 40
3.0
 40
3.0
 40
3.0
 40
4.0
 40
4.0
 40
4.0
 40
4.0
 10
87.93864608261603
 20
-158.3300428206605
 30
0.0
 10
87.93864608261603
 20
-158.3300428206605
 30
0.0
 10
87.23205699859128
 20
-158.3300428206605
 30
0.0
 10
87.23205699859128
 20
-158.3300428206605
 30
0.0
 10
87.23205699859128
 20
-158.3300428206605
 30
0.0
 10
87.23205699859128
 20
-158.4444199907708
 30
0.0
 10
87.23205699859128
 20
-158.4444199907708
 30
0.0
 10
87.23205699859128
 20
-158.4444199907708
 30
0.0
 10
87.93864608261603
 20
-158.4444199907708
 30
0.0
 10
87.93864608261603
 20
-158.4444199907708
 30
0.0
 10
87.93864608261603
 20
-158.4444199907708
 30
0.0
 10
87.93864608261603
 20
-158.3300428206605
 30
0.0
 10
87.93864608261603
 20
-158.3300428206605
 30
0.0
  0
SPLINE
  5
E4
330
DB
100
AcDbEntity
  8
レイヤー 1
100
AcDbSpline
210
0.0
220
0.0
230
1.0
 70
    11
 71
     3
 72
    17
 73
    13
 74
     0
 42
0.0000000001
 43
0.0000000001
 40
0.0
 40
0.0
 40
0.0
 40
0.0
 40
1.0
 40
1.0
 40
1.0
 40
2.0
 40
2.0
 40
2.0
 40
3.0
 40
3.0
 40
3.0
 40
4.0
 40
4.0
 40
4.0
 40
4.0
 10
87.93864608261603
 20
-158.0868190794019
 30
0.0
 10
87.93864608261603
 20
-158.0868190794019
 30
0.0
 10
87.23205699859128
 20
-158.0868190794019
 30
0.0
 10
87.23205699859128
 20
-158.0868190794019
 30
0.0
 10
87.23205699859128
 20
-158.0868190794019
 30
0.0
 10
87.23205699859128
 20
-158.2011962495122
 30
0.0
 10
87.23205699859128
 20
-158.2011962495122
 30
0.0
 10
87.23205699859128
 20
-158.2011962495122
 30
0.0
 10
87.93864608261603
 20
-158.2011962495122
 30
0.0
 10
87.93864608261603
 20
-158.2011962495122
 30
0.0
 10
87.93864608261603
 20
-158.2011962495122
 30
0.0
 10
87.93864608261603
 20
-158.0868190794019
 30
0.0
 10
87.93864608261603
 20
-158.0868190794019
 30
0.0
  0
SPLINE
  5
E5
330
DB
100
AcDbEntity
  8
レイヤー 1
100
AcDbSpline
210
0.0
220
0.0
230
1.0
 70
    11
 71
     3
 72
    17
 73
    13
 74
     0
 42
0.0000000001
 43
0.0000000001
 40
0.0
 40
0.0
 40
0.0
 40
0.0
 40
1.0
 40
1.0
 40
1.0
 40
2.0
 40
2.0
 40
2.0
 40
3.0
 40
3.0
 40
3.0
 40
4.0
 40
4.0
 40
4.0
 40
4.0
 10
87.93864608261603
 20
-157.853930624599
 30
0.0
 10
87.93864608261603
 20
-157.853930624599
 30
0.0
 10
87.23205699859128
 20
-157.853930624599
 30
0.0
 10
87.23205699859128
 20
-157.853930624599
 30
0.0
 10
87.23205699859128
 20
-157.853930624599
 30
0.0
 10
87.23205699859128
 20
-157.9621066228359
 30
0.0
 10
87.23205699859128
 20
-157.9621066228359
 30
0.0
 10
87.23205699859128
 20
-157.9621066228359
 30
0.0
 10
87.93864608261603
 20
-157.9621066228359
 30
0.0
 10
87.93864608261603
 20
-157.9621066228359
 30
0.0
 10
87.93864608261603
 20
-157.9621066228359
 30
0.0
 10
87.93864608261603
 20
-157.853930624599
 30
0.0
 10
87.93864608261603
 20
-157.853930624599
 30
0.0
  0
SPLINE
  5
E6
330
DB
100
AcDbEntity
  8
レイヤー 1
100
AcDbSpline
210
0.0
220
0.0
230
1.0
 70
     9
 71
     3
 72
   203
 73
   199
 74
     0
 42
0.0000000001
 43
0.0000000001
 40
0.0
 40
0.0
 40
0.0
 40
0.0
 40
1.0
 40
1.0
 40
1.0
 40
2.0
 40
2.0
 40
2.0
 40
3.0
 40
3.0
 40
3.0
 40
4.0
 40
4.0
 40
4.0
 40
5.0
 40
5.0
 40
5.0
 40
6.0
 40
6.0
 40
6.0
 40
7.0
 40
7.0
 40
7.0
 40
8.0
 40
8.0
 40
8.0
 40
9.0
 40
9.0
 40
9.0
 40
10.0
 40
10.0
 40
10.0
 40
11.0
 40
11.0
 40
11.0
 40
12.0
 40
12.0
 40
12.0
 40
13.0
 40
13.0
 40
13.0
 40
14.0
 40
14.0
 40
14.0
 40
15.0
 40
15.0
 40
15.0
 40
16.0
 40
16.0
 40
16.0
 40
17.0
 40
17.0
 40
17.0
 40
18.0
 40
18.0
 40
18.0
 40
19.0
 40
19.0
 40
19.0
 40
20.0
 40
20.0
 40
20.0
 40
21.0
 40
21.0
 40
21.0
 40
22.0
 40
22.0
 40
22.0
 40
23.0
 40
23.0
 40
23.0
 40
24.0
 40
24.0
 40
24.0
 40
25.0
 40
25.0
 40
25.0
 40
26.0
 40
26.0
 40
26.0
 40
27.0
 40
27.0
 40
27.0
 40
28.0
 40
28.0
 40
28.0
 40
29.0
 40
29.0
 40
29.0
 40
30.0
 40
30.0
 40
30.0
 40
31.0
 40
31.0
 40
31.0
 40
32.0
 40
32.0
 40
32.0
 40
33.0
 40
33.0
 40
33.0
 40
34.0
 40
34.0
 40
34.0
 40
35.0
 40
35.0
 40
35.0
 40
36.0
 40
36.0
 40
36.0
 40
37.0
 40
37.0
 40
37.0
 40
38.0
 40
38.0
 40
38.0
 40
39.0
 40
39.0
 40
39.0
 40
40.0
 40
40.0
 40
40.0
 40
41.0
 40
41.0
 40
41.0
 40
42.0
 40
42.0
 40
42.0
 40
43.0
 40
43.0
 40
43.0
 40
44.0
 40
44.0
 40
44.0
 40
45.0
 40
45.0
 40
45.0
 40
46.0
 40
46.0
 40
46.0
 40
47.0
 40
47.0
 40
47.0
 40
48.0
 40
48.0
 40
48.0
 40
49.0
 40
49.0
 40
49.0
 40
50.0
 40
50.0
 40
50.0
 40
51.0
 40
51.0
 40
51.0
 40
52.0
 40
52.0
 40
52.0
 40
53.0
 40
53.0
 40
53.0
 40
54.0
 40
54.0
 40
54.0
 40
55.0
 40
55.0
 40
55.0
 40
56.0
 40
56.0
 40
56.0
 40
57.0
 40
57.0
 40
57.0
 40
58.0
 40
58.0
 40
58.0
 40
59.0
 40
59.0
 40
59.0
 40
60.0
 40
60.0
 40
60.0
 40
61.0
 40
61.0
 40
61.0
 40
62.0
 40
62.0
 40
62.0
 40
63.0
 40
63.0
 40
63.0
 40
64.0
 40
64.0
 40
64.0
 40
65.0
 40
65.0
 40
65.0
 40
66.0
 40
66.0
 40
66.0
 40
66.0
 10
87.77362600887256
 20
-157.5979600300449
 30
0.0
 10
87.77362600887256
 20
-157.5979600300449
 30
0.0
 10
87.21483152116505
 20
-157.5979600300449
 30
0.0
 10
87.21483152116505
 20
-157.5979600300449
 30
0.0
 10
87.2044962347093
 20
-157.6424017618047
 30
0.0
 10
87.19588349599616
 20
-157.6740966402689
 30
0.0
 10
87.18313664270075
 20
-157.7123372001552
 30
0.0
 10
87.20863034929159
 20
-157.7123372001552
 30
0.0
 10
87.22344425987817
 20
-157.7144042574464
 30
0.0
 10
87.22964543175162
 20
-157.7144042574464
 30
0.0
 10
87.22964543175162
 20
-157.7144042574464
 30
0.0
 10
87.41809215479479
 20
-157.7144042574464
 30
0.0
 10
87.41809215479479
 20
-157.7144042574464
 30
0.0
 10
87.41809215479479
 20
-157.7144042574464
 30
0.0
 10
87.79257403404145
 20
-157.7144042574464
 30
0.0
 10
87.79257403404145
 20
-157.7144042574464
 30
0.0
 10
87.84321693767461
 20
-157.7144042574464
 30
0.0
 10
88.12674829611067
 20
-157.701657404151
 30
0.0
 10
88.15844317457496
 20
-157.701657404151
 30
0.0
 10
88.15637611728382
 20
-157.729218168033
 30
0.0
 10
88.15430905999267
 20
-157.7481661932018
 30
0.0
 10
88.15430905999267
 20
-157.777794014375
 30
0.0
 10
88.15224200270153
 20
-157.8094888928393
 30
0.0
 10
88.15224200270153
 20
-157.9448811454096
 30
0.0
 10
88.15224200270153
 20
-157.9724419092916
 30
0.0
 10
88.15224200270153
 20
-157.9724419092916
 30
0.0
 10
88.15224200270153
 20
-158.2180772173899
 30
0.0
 10
88.15224200270153
 20
-158.2180772173899
 30
0.0
 10
88.15224200270153
 20
-158.2625189491496
 30
0.0
 10
88.15637611728382
 20
-158.4592339013574
 30
0.0
 10
88.16051023186613
 20
-158.6115071218054
 30
0.0
 10
88.16051023186613
 20
-158.6115071218054
 30
0.0
 10
87.93416745848521
 20
-158.6115071218054
 30
0.0
 10
87.93416745848521
 20
-158.6115071218054
 30
0.0
 10
87.93416745848521
 20
-158.6115071218054
 30
0.0
 10
87.93623451577635
 20
-158.57774518605
 30
0.0
 10
87.93623451577635
 20
-158.57774518605
 30
0.0
 10
87.93623451577635
 20
-158.57774518605
 30
0.0
 10
87.23412405588245
 20
-158.57774518605
 30
0.0
 10
87.23412405588245
 20
-158.57774518605
 30
0.0
 10
87.23412405588245
 20
-158.57774518605
 30
0.0
 10
87.2361911131736
 20
-158.6115071218054
 30
0.0
 10
87.2361911131736
 20
-158.6115071218054
 30
0.0
 10
87.2361911131736
 20
-158.6115071218054
 30
0.0
 10
87.01811656895728
 20
-158.6115071218054
 30
0.0
 10
87.01811656895728
 20
-158.6115071218054
 30
0.0
 10
87.0225951930881
 20
-158.5563855940415
 30
0.0
 10
87.0225951930881
 20
-158.543638740746
 30
0.0
 10
87.02879636496154
 20
-158.4296060801842
 30
0.0
 10
87.03086342225271
 20
-158.4020453163022
 30
0.0
 10
87.03293047954385
 20
-158.2687201210231
 30
0.0
 10
87.03293047954385
 20
-158.2497720958542
 30
0.0
 10
87.03293047954385
 20
-158.2497720958542
 30
0.0
 10
87.03293047954385
 20
-158.0465114622245
 30
0.0
 10
87.03293047954385
 20
-158.0465114622245
 30
0.0
 10
86.89340411239124
 20
-158.2962808849051
 30
0.0
 10
86.72424992406547
 20
-158.4275390228931
 30
0.0
 10
86.6184854926683
 20
-158.4929958371128
 30
0.0
 10
86.6184854926683
 20
-158.4929958371128
 30
0.0
 10
86.44485268021171
 20
-158.3534694699602
 30
0.0
 10
86.44485268021171
 20
-158.3534694699602
 30
0.0
 10
86.53373614373114
 20
-158.3024820567785
 30
0.0
 10
86.6777411350146
 20
-158.2156656505502
 30
0.0
 10
86.81520044487607
 20
-158.0213622651822
 30
0.0
 10
86.90615096568667
 20
-157.8942382417764
 30
0.0
 10
86.97160777990641
 20
-157.7505777600415
 30
0.0
 10
87.00571422521038
 20
-157.5979600300449
 30
0.0
 10
86.7769598849898
 20
-157.6003715968846
 30
0.0
 10
86.59712590065975
 20
-157.6065727687581
 30
0.0
 10
86.50204126526686
 20
-157.6086398260492
 30
0.0
 10
86.50204126526686
 20
-157.6086398260492
 30
0.0
 10
86.50204126526686
 20
-157.4308728990103
 30
0.0
 10
86.50204126526686
 20
-157.4308728990103
 30
0.0
 10
86.69875621747463
 20
-157.4374185804323
 30
0.0
 10
86.98228757591067
 20
-157.4415526950146
 30
0.0
 10
87.13249373906757
 20
-157.4415526950146
 30
0.0
 10
87.13249373906757
 20
-157.4415526950146
 30
0.0
 10
87.34608965915306
 20
-157.4415526950146
 30
0.0
 10
87.34608965915306
 20
-157.4415526950146
 30
0.0
 10
87.34608965915306
 20
-157.4415526950146
 30
0.0
 10
87.34608965915306
 20
-157.3337212063263
 30
0.0
 10
87.34608965915306
 20
-157.3337212063263
 30
0.0
 10
87.34608965915306
 20
-157.3337212063263
 30
0.0
 10
87.20001761057847
 20
-157.3337212063263
 30
0.0
 10
87.20001761057847
 20
-157.3337212063263
 30
0.0
 10
87.03086342225271
 20
-157.3337212063263
 30
0.0
 10
86.86170923392694
 20
-157.3378553209086
 30
0.0
 10
86.69462210289232
 20
-157.3444010023306
 30
0.0
 10
86.69462210289232
 20
-157.3444010023306
 30
0.0
 10
86.69462210289232
 20
-157.1728352471651
 30
0.0
 10
86.69462210289232
 20
-157.1728352471651
 30
0.0
 10
86.84896238063151
 20
-157.1835150431694
 30
0.0
 10
87.034997536835
 20
-157.1835150431694
 30
0.0
 10
87.20001761057847
 20
-157.1835150431694
 30
0.0
 10
87.20001761057847
 20
-157.1835150431694
 30
0.0
 10
87.34608965915306
 20
-157.1835150431694
 30
0.0
 10
87.34608965915306
 20
-157.1835150431694
 30
0.0
 10
87.34608965915306
 20
-157.1835150431694
 30
0.0
 10
87.34608965915306
 20
-157.0650037584768
 30
0.0
 10
87.34608965915306
 20
-157.0650037584768
 30
0.0
 10
87.34608965915306
 20
-157.0650037584768
 30
0.0
 10
87.21483152116505
 20
-157.0650037584768
 30
0.0
 10
87.21483152116505
 20
-157.0650037584768
 30
0.0
 10
87.16832273211418
 20
-157.0650037584768
 30
0.0
 10
86.96540660803297
 20
-157.0736164971899
 30
0.0
 10
86.92303193356439
 20
-157.0736164971899
 30
0.0
 10
86.72011580948318
 20
-157.0777506117722
 30
0.0
 10
86.64363468971062
 20
-157.0798176690634
 30
0.0
 10
86.56543102219545
 20
-157.0818847263545
 30
0.0
 10
86.56543102219545
 20
-157.0818847263545
 30
0.0
 10
86.56543102219545
 20
-156.8979166274422
 30
0.0
 10
86.56543102219545
 20
-156.8979166274422
 30
0.0
 10
86.67980819230574
 20
-156.9061848566068
 30
0.0
 10
86.72424992406547
 20
-156.9061848566068
 30
0.0
 10
87.10700003247671
 20
-156.9147975953199
 30
0.0
 10
87.04361027554814
 20
-156.819712959927
 30
0.0
 10
87.01604951166613
 20
-156.792152196045
 30
0.0
 10
86.98022051861952
 20
-156.7559786934499
 30
0.0
 10
86.98022051861952
 20
-156.7559786934499
 30
0.0
 10
87.15557587881875
 20
-156.6736409113524
 30
0.0
 10
87.15557587881875
 20
-156.6736409113524
 30
0.0
 10
87.19588349599616
 20
-156.709469904399
 30
0.0
 10
87.24032522775589
 20
-156.7518445788676
 30
0.0
 10
87.31439478068876
 20
-156.861743124847
 30
0.0
 10
87.31439478068876
 20
-156.861743124847
 30
0.0
 10
87.20001761057847
 20
-156.9168646526111
 30
0.0
 10
87.20001761057847
 20
-156.9168646526111
 30
0.0
 10
87.20001761057847
 20
-156.9168646526111
 30
0.0
 10
87.21069740658276
 20
-156.9168646526111
 30
0.0
 10
87.21069740658276
 20
-156.9168646526111
 30
0.0
 10
87.21069740658276
 20
-156.9168646526111
 30
0.0
 10
87.73331839169514
 20
-156.9168646526111
 30
0.0
 10
87.73331839169514
 20
-156.9168646526111
 30
0.0
 10
87.73331839169514
 20
-156.9168646526111
 30
0.0
 10
87.63823375630225
 20
-156.8724229208513
 30
0.0
 10
87.63823375630225
 20
-156.8724229208513
 30
0.0
 10
87.66545001063573
 20
-156.8345268705136
 30
0.0
 10
87.72263859569086
 20
-156.7539116361587
 30
0.0
 10
87.73745250627746
 20
-156.6798420832258
 30
0.0
 10
87.73745250627746
 20
-156.6798420832258
 30
0.0
 10
87.95104842636293
 20
-156.743576349703
 30
0.0
 10
87.95104842636293
 20
-156.743576349703
 30
0.0
 10
87.95966116507605
 20
-156.7456434069941
 30
0.0
 10
87.98067624753608
 20
-156.7559786934499
 30
0.0
 10
87.98067624753608
 20
-156.7773382854584
 30
0.0
 10
87.98067624753608
 20
-156.8152343357962
 30
0.0
 10
87.91521943331634
 20
-156.8152343357962
 30
0.0
 10
87.89627140814747
 20
-156.8152343357962
 30
0.0
 10
87.88559161214319
 20
-156.8345268705136
 30
0.0
 10
87.8621649628435
 20
-156.8744899781425
 30
0.0
 10
87.83253714167035
 20
-156.9147975953199
 30
0.0
 10
88.23251272750786
 20
-156.9085964234465
 30
0.0
 10
88.26214054868101
 20
-156.9061848566068
 30
0.0
 10
88.33827715890501
 20
-156.8999836847333
 30
0.0
 10
88.33827715890501
 20
-156.8999836847333
 30
0.0
 10
88.33827715890501
 20
-157.0818847263545
 30
0.0
 10
88.33827715890501
 20
-157.0818847263545
 30
0.0
 10
88.31932913373615
 20
-157.0818847263545
 30
0.0
 10
88.29383542714529
 20
-157.0798176690634
 30
0.0
 10
88.07403833518636
 20
-157.0712049303502
 30
0.0
 10
88.02305092200466
 20
-157.0691378730591
 30
0.0
 10
87.80325383004571
 20
-157.0650037584768
 30
0.0
 10
87.758812098286
 20
-157.0650037584768
 30
0.0
 10
87.758812098286
 20
-157.0650037584768
 30
0.0
 10
87.54280461136083
 20
-157.0650037584768
 30
0.0
 10
87.54280461136083
 20
-157.0650037584768
 30
0.0
 10
87.54280461136083
 20
-157.0650037584768
 30
0.0
 10
87.54280461136083
 20
-157.1835150431694
 30
0.0
 10
87.54280461136083
 20
-157.1835150431694
 30
0.0
 10
87.54280461136083
 20
-157.1835150431694
 30
0.0
 10
87.71643742381742
 20
-157.1835150431694
 30
0.0
 10
87.71643742381742
 20
-157.1835150431694
 30
0.0
 10
87.87939044026975
 20
-157.1835150431694
 30
0.0
 10
88.06955971105553
 20
-157.1835150431694
 30
0.0
 10
88.2263115556344
 20
-157.1728352471651
 30
0.0
 10
88.2263115556344
 20
-157.1728352471651
 30
0.0
 10
88.2263115556344
 20
-157.3444010023306
 30
0.0
 10
88.2263115556344
 20
-157.3444010023306
 30
0.0
 10
88.01684975013122
 20
-157.3357882636174
 30
0.0
 10
87.82013479792345
 20
-157.3337212063263
 30
0.0
 10
87.71643742381742
 20
-157.3337212063263
 30
0.0
 10
87.71643742381742
 20
-157.3337212063263
 30
0.0
 10
87.54280461136083
 20
-157.3337212063263
 30
0.0
 10
87.54280461136083
 20
-157.3337212063263
 30
0.0
 10
87.54280461136083
 20
-157.3337212063263
 30
0.0
 10
87.54280461136083
 20
-157.4415526950146
 30
0.0
 10
87.54280461136083
 20
-157.4415526950146
 30
0.0
 10
87.54280461136083
 20
-157.4415526950146
 30
0.0
 10
87.77362600887256
 20
-157.4415526950146
 30
0.0
 10
87.77362600887256
 20
-157.4415526950146
 30
0.0
 10
87.9066066946032
 20
-157.4415526950146
 30
0.0
 10
88.19461667717011
 20
-157.4374185804323
 30
0.0
 10
88.40373397312475
 20
-157.4308728990103
 30
0.0
 10
88.40373397312475
 20
-157.4308728990103
 30
0.0
 10
88.40373397312475
 20
-157.6086398260492
 30
0.0
 10
88.40373397312475
 20
-157.6086398260492
 30
0.0
 10
88.21149764504783
 20
-157.6024386541758
 30
0.0
 10
87.89833846543862
 20
-157.5979600300449
 30
0.0
 10
87.77362600887256
 20
-157.5979600300449
 30
0.0
  0
HATCH
  5
E7
330
DB
100
AcDbEntity
  8
レイヤー 1
 62
   250
420
  2299925
440
 33554687
100
AcDbHatch
 10
0.0
 20
0.0
 30
0.0
210
0.0
220
0.0
230
1.0
  2
SOLID
 70
     1
 71
     1
 91
        4
 92
        1
 93
        1
 72
     4
 94
        3
 73
     0
 74
     0
 95
       17
 96
       13
 40
0.0
 40
0.0
 40
0.0
 40
0.0
 40
1.0
 40
1.0
 40
1.0
 40
2.0
 40
2.0
 40
2.0
 40
3.0
 40
3.0
 40
3.0
 40
4.0
 40
4.0
 40
4.0
 40
4.0
 10
87.93864608261603
 20
-158.3300428206605
 10
87.93864608261603
 20
-158.3300428206605
 10
87.23205699859128
 20
-158.3300428206605
 10
87.23205699859128
 20
-158.3300428206605
 10
87.23205699859128
 20
-158.3300428206605
 10
87.23205699859128
 20
-158.4444199907708
 10
87.23205699859128
 20
-158.4444199907708
 10
87.23205699859128
 20
-158.4444199907708
 10
87.93864608261603
 20
-158.4444199907708
 10
87.93864608261603
 20
-158.4444199907708
 10
87.93864608261603
 20
-158.4444199907708
 10
87.93864608261603
 20
-158.3300428206605
 10
87.93864608261603
 20
-158.3300428206605
 97
        0
 97
        1
330
E3
 92
        1
 93
        1
 72
     4
 94
        3
 73
     0
 74
     0
 95
       17
 96
       13
 40
0.0
 40
0.0
 40
0.0
 40
0.0
 40
1.0
 40
1.0
 40
1.0
 40
2.0
 40
2.0
 40
2.0
 40
3.0
 40
3.0
 40
3.0
 40
4.0
 40
4.0
 40
4.0
 40
4.0
 10
87.93864608261603
 20
-158.0868190794019
 10
87.93864608261603
 20
-158.0868190794019
 10
87.23205699859128
 20
-158.0868190794019
 10
87.23205699859128
 20
-158.0868190794019
 10
87.23205699859128
 20
-158.0868190794019
 10
87.23205699859128
 20
-158.2011962495122
 10
87.23205699859128
 20
-158.2011962495122
 10
87.23205699859128
 20
-158.2011962495122
 10
87.93864608261603
 20
-158.2011962495122
 10
87.93864608261603
 20
-158.2011962495122
 10
87.93864608261603
 20
-158.2011962495122
 10
87.93864608261603
 20
-158.0868190794019
 10
87.93864608261603
 20
-158.0868190794019
 97
        0
 97
        1
330
E4
 92
        1
 93
        1
 72
     4
 94
        3
 73
     0
 74
     0
 95
       17
 96
       13
 40
0.0
 40
0.0
 40
0.0
 40
0.0
 40
1.0
 40
1.0
 40
1.0
 40
2.0
 40
2.0
 40
2.0
 40
3.0
 40
3.0
 40
3.0
 40
4.0
 40
4.0
 40
4.0
 40
4.0
 10
87.93864608261603
 20
-157.853930624599
 10
87.93864608261603
 20
-157.853930624599
 10
87.23205699859128
 20
-157.853930624599
 10
87.23205699859128
 20
-157.853930624599
 10
87.23205699859128
 20
-157.853930624599
 10
87.23205699859128
 20
-157.9621066228359
 10
87.23205699859128
 20
-157.9621066228359
 10
87.23205699859128
 20
-157.9621066228359
 10
87.93864608261603
 20
-157.9621066228359
 10
87.93864608261603
 20
-157.9621066228359
 10
87.93864608261603
 20
-157.9621066228359
 10
87.93864608261603
 20
-157.853930624599
 10
87.93864608261603
 20
-157.853930624599
 97
        0
 97
        1
330
E5
 92
        1
 93
        1
 72
     4
 94
        3
 73
     0
 74
     0
 95
      203
 96
      199
 40
0.0
 40
0.0
 40
0.0
 40
0.0
 40
1.0
 40
1.0
 40
1.0
 40
2.0
 40
2.0
 40
2.0
 40
3.0
 40
3.0
 40
3.0
 40
4.0
 40
4.0
 40
4.0
 40
5.0
 40
5.0
 40
5.0
 40
6.0
 40
6.0
 40
6.0
 40
7.0
 40
7.0
 40
7.0
 40
8.0
 40
8.0
 40
8.0
 40
9.0
 40
9.0
 40
9.0
 40
10.0
 40
10.0
 40
10.0
 40
11.0
 40
11.0
 40
11.0
 40
12.0
 40
12.0
 40
12.0
 40
13.0
 40
13.0
 40
13.0
 40
14.0
 40
14.0
 40
14.0
 40
15.0
 40
15.0
 40
15.0
 40
16.0
 40
16.0
 40
16.0
 40
17.0
 40
17.0
 40
17.0
 40
18.0
 40
18.0
 40
18.0
 40
19.0
 40
19.0
 40
19.0
 40
20.0
 40
20.0
 40
20.0
 40
21.0
 40
21.0
 40
21.0
 40
22.0
 40
22.0
 40
22.0
 40
23.0
 40
23.0
 40
23.0
 40
24.0
 40
24.0
 40
24.0
 40
25.0
 40
25.0
 40
25.0
 40
26.0
 40
26.0
 40
26.0
 40
27.0
 40
27.0
 40
27.0
 40
28.0
 40
28.0
 40
28.0
 40
29.0
 40
29.0
 40
29.0
 40
30.0
 40
30.0
 40
30.0
 40
31.0
 40
31.0
 40
31.0
 40
32.0
 40
32.0
 40
32.0
 40
33.0
 40
33.0
 40
33.0
 40
34.0
 40
34.0
 40
34.0
 40
35.0
 40
35.0
 40
35.0
 40
36.0
 40
36.0
 40
36.0
 40
37.0
 40
37.0
 40
37.0
 40
38.0
 40
38.0
 40
38.0
 40
39.0
 40
39.0
 40
39.0
 40
40.0
 40
40.0
 40
40.0
 40
41.0
 40
41.0
 40
41.0
 40
42.0
 40
42.0
 40
42.0
 40
43.0
 40
43.0
 40
43.0
 40
44.0
 40
44.0
 40
44.0
 40
45.0
 40
45.0
 40
45.0
 40
46.0
 40
46.0
 40
46.0
 40
47.0
 40
47.0
 40
47.0
 40
48.0
 40
48.0
 40
48.0
 40
49.0
 40
49.0
 40
49.0
 40
50.0
 40
50.0
 40
50.0
 40
51.0
 40
51.0
 40
51.0
 40
52.0
 40
52.0
 40
52.0
 40
53.0
 40
53.0
 40
53.0
 40
54.0
 40
54.0
 40
54.0
 40
55.0
 40
55.0
 40
55.0
 40
56.0
 40
56.0
 40
56.0
 40
57.0
 40
57.0
 40
57.0
 40
58.0
 40
58.0
 40
58.0
 40
59.0
 40
59.0
 40
59.0
 40
60.0
 40
60.0
 40
60.0
 40
61.0
 40
61.0
 40
61.0
 40
62.0
 40
62.0
 40
62.0
 40
63.0
 40
63.0
 40
63.0
 40
64.0
 40
64.0
 40
64.0
 40
65.0
 40
65.0
 40
65.0
 40
66.0
 40
66.0
 40
66.0
 40
66.0
 10
87.77362600887256
 20
-157.5979600300449
 10
87.77362600887256
 20
-157.5979600300449
 10
87.21483152116505
 20
-157.5979600300449
 10
87.21483152116505
 20
-157.5979600300449
 10
87.2044962347093
 20
-157.6424017618047
 10
87.19588349599616
 20
-157.6740966402689
 10
87.18313664270075
 20
-157.7123372001552
 10
87.20863034929159
 20
-157.7123372001552
 10
87.22344425987817
 20
-157.7144042574464
 10
87.22964543175162
 20
-157.7144042574464
 10
87.22964543175162
 20
-157.7144042574464
 10
87.41809215479479
 20
-157.7144042574464
 10
87.41809215479479
 20
-157.7144042574464
 10
87.41809215479479
 20
-157.7144042574464
 10
87.79257403404145
 20
-157.7144042574464
 10
87.79257403404145
 20
-157.7144042574464
 10
87.84321693767461
 20
-157.7144042574464
 10
88.12674829611067
 20
-157.701657404151
 10
88.15844317457496
 20
-157.701657404151
 10
88.15637611728382
 20
-157.729218168033
 10
88.15430905999267
 20
-157.7481661932018
 10
88.15430905999267
 20
-157.777794014375
 10
88.15224200270153
 20
-157.8094888928393
 10
88.15224200270153
 20
-157.9448811454096
 10
88.15224200270153
 20
-157.9724419092916
 10
88.15224200270153
 20
-157.9724419092916
 10
88.15224200270153
 20
-158.2180772173899
 10
88.15224200270153
 20
-158.2180772173899
 10
88.15224200270153
 20
-158.2625189491496
 10
88.15637611728382
 20
-158.4592339013574
 10
88.16051023186613
 20
-158.6115071218054
 10
88.16051023186613
 20
-158.6115071218054
 10
87.93416745848521
 20
-158.6115071218054
 10
87.93416745848521
 20
-158.6115071218054
 10
87.93416745848521
 20
-158.6115071218054
 10
87.93623451577635
 20
-158.57774518605
 10
87.93623451577635
 20
-158.57774518605
 10
87.93623451577635
 20
-158.57774518605
 10
87.23412405588245
 20
-158.57774518605
 10
87.23412405588245
 20
-158.57774518605
 10
87.23412405588245
 20
-158.57774518605
 10
87.2361911131736
 20
-158.6115071218054
 10
87.2361911131736
 20
-158.6115071218054
 10
87.2361911131736
 20
-158.6115071218054
 10
87.01811656895728
 20
-158.6115071218054
 10
87.01811656895728
 20
-158.6115071218054
 10
87.0225951930881
 20
-158.5563855940415
 10
87.0225951930881
 20
-158.543638740746
 10
87.02879636496154
 20
-158.4296060801842
 10
87.03086342225271
 20
-158.4020453163022
 10
87.03293047954385
 20
-158.2687201210231
 10
87.03293047954385
 20
-158.2497720958542
 10
87.03293047954385
 20
-158.2497720958542
 10
87.03293047954385
 20
-158.0465114622245
 10
87.03293047954385
 20
-158.0465114622245
 10
86.89340411239124
 20
-158.2962808849051
 10
86.72424992406547
 20
-158.4275390228931
 10
86.6184854926683
 20
-158.4929958371128
 10
86.6184854926683
 20
-158.4929958371128
 10
86.44485268021171
 20
-158.3534694699602
 10
86.44485268021171
 20
-158.3534694699602
 10
86.53373614373114
 20
-158.3024820567785
 10
86.6777411350146
 20
-158.2156656505502
 10
86.81520044487607
 20
-158.0213622651822
 10
86.90615096568667
 20
-157.8942382417764
 10
86.97160777990641
 20
-157.7505777600415
 10
87.00571422521038
 20
-157.5979600300449
 10
86.7769598849898
 20
-157.6003715968846
 10
86.59712590065975
 20
-157.6065727687581
 10
86.50204126526686
 20
-157.6086398260492
 10
86.50204126526686
 20
-157.6086398260492
 10
86.50204126526686
 20
-157.4308728990103
 10
86.50204126526686
 20
-157.4308728990103
 10
86.69875621747463
 20
-157.4374185804323
 10
86.98228757591067
 20
-157.4415526950146
 10
87.13249373906757
 20
-157.4415526950146
 10
87.13249373906757
 20
-157.4415526950146
 10
87.34608965915306
 20
-157.4415526950146
 10
87.34608965915306
 20
-157.4415526950146
 10
87.34608965915306
 20
-157.4415526950146
 10
87.34608965915306
 20
-157.3337212063263
 10
87.34608965915306
 20
-157.3337212063263
 10
87.34608965915306
 20
-157.3337212063263
 10
87.20001761057847
 20
-157.3337212063263
 10
87.20001761057847
 20
-157.3337212063263
 10
87.03086342225271
 20
-157.3337212063263
 10
86.86170923392694
 20
-157.3378553209086
 10
86.69462210289232
 20
-157.3444010023306
 10
86.69462210289232
 20
-157.3444010023306
 10
86.69462210289232
 20
-157.1728352471651
 10
86.69462210289232
 20
-157.1728352471651
 10
86.84896238063151
 20
-157.1835150431694
 10
87.034997536835
 20
-157.1835150431694
 10
87.20001761057847
 20
-157.1835150431694
 10
87.20001761057847
 20
-157.1835150431694
 10
87.34608965915306
 20
-157.1835150431694
 10
87.34608965915306
 20
-157.1835150431694
 10
87.34608965915306
 20
-157.1835150431694
 10
87.34608965915306
 20
-157.0650037584768
 10
87.34608965915306
 20
-157.0650037584768
 10
87.34608965915306
 20
-157.0650037584768
 10
87.21483152116505
 20
-157.0650037584768
 10
87.21483152116505
 20
-157.0650037584768
 10
87.16832273211418
 20
-157.0650037584768
 10
86.96540660803297
 20
-157.0736164971899
 10
86.92303193356439
 20
-157.0736164971899
 10
86.72011580948318
 20
-157.0777506117722
 10
86.64363468971062
 20
-157.0798176690634
 10
86.56543102219545
 20
-157.0818847263545
 10
86.56543102219545
 20
-157.0818847263545
 10
86.56543102219545
 20
-156.8979166274422
 10
86.56543102219545
 20
-156.8979166274422
 10
86.67980819230574
 20
-156.9061848566068
 10
86.72424992406547
 20
-156.9061848566068
 10
87.10700003247671
 20
-156.9147975953199
 10
87.04361027554814
 20
-156.819712959927
 10
87.01604951166613
 20
-156.792152196045
 10
86.98022051861952
 20
-156.7559786934499
 10
86.98022051861952
 20
-156.7559786934499
 10
87.15557587881875
 20
-156.6736409113524
 10
87.15557587881875
 20
-156.6736409113524
 10
87.19588349599616
 20
-156.709469904399
 10
87.24032522775589
 20
-156.7518445788676
 10
87.31439478068876
 20
-156.861743124847
 10
87.31439478068876
 20
-156.861743124847
 10
87.20001761057847
 20
-156.9168646526111
 10
87.20001761057847
 20
-156.9168646526111
 10
87.20001761057847
 20
-156.9168646526111
 10
87.21069740658276
 20
-156.9168646526111
 10
87.21069740658276
 20
-156.9168646526111
 10
87.21069740658276
 20
-156.9168646526111
 10
87.73331839169514
 20
-156.9168646526111
 10
87.73331839169514
 20
-156.9168646526111
 10
87.73331839169514
 20
-156.9168646526111
 10
87.63823375630225
 20
-156.8724229208513
 10
87.63823375630225
 20
-156.8724229208513
 10
87.66545001063573
 20
-156.8345268705136
 10
87.72263859569086
 20
-156.7539116361587
 10
87.73745250627746
 20
-156.6798420832258
 10
87.73745250627746
 20
-156.6798420832258
 10
87.95104842636293
 20
-156.743576349703
 10
87.95104842636293
 20
-156.743576349703
 10
87.95966116507605
 20
-156.7456434069941
 10
87.98067624753608
 20
-156.7559786934499
 10
87.98067624753608
 20
-156.7773382854584
 10
87.98067624753608
 20
-156.8152343357962
 10
87.91521943331634
 20
-156.8152343357962
 10
87.89627140814747
 20
-156.8152343357962
 10
87.88559161214319
 20
-156.8345268705136
 10
87.8621649628435
 20
-156.8744899781425
 10
87.83253714167035
 20
-156.9147975953199
 10
88.23251272750786
 20
-156.9085964234465
 10
88.26214054868101
 20
-156.9061848566068
 10
88.33827715890501
 20
-156.8999836847333
 10
88.33827715890501
 20
-156.8999836847333
 10
88.33827715890501
 20
-157.0818847263545
 10
88.33827715890501
 20
-157.0818847263545
 10
88.31932913373615
 20
-157.0818847263545
 10
88.29383542714529
 20
-157.0798176690634
 10
88.07403833518636
 20
-157.0712049303502
 10
88.02305092200466
 20
-157.0691378730591
 10
87.80325383004571
 20
-157.0650037584768
 10
87.758812098286
 20
-157.0650037584768
 10
87.758812098286
 20
-157.0650037584768
 10
87.54280461136083
 20
-157.0650037584768
 10
87.54280461136083
 20
-157.0650037584768
 10
87.54280461136083
 20
-157.0650037584768
 10
87.54280461136083
 20
-157.1835150431694
 10
87.54280461136083
 20
-157.1835150431694
 10
87.54280461136083
 20
-157.1835150431694
 10
87.71643742381742
 20
-157.1835150431694
 10
87.71643742381742
 20
-157.1835150431694
 10
87.87939044026975
 20
-157.1835150431694
 10
88.06955971105553
 20
-157.1835150431694
 10
88.2263115556344
 20
-157.1728352471651
 10
88.2263115556344
 20
-157.1728352471651
 10
88.2263115556344
 20
-157.3444010023306
 10
88.2263115556344
 20
-157.3444010023306
 10
88.01684975013122
 20
-157.3357882636174
 10
87.82013479792345
 20
-157.3337212063263
 10
87.71643742381742
 20
-157.3337212063263
 10
87.71643742381742
 20
-157.3337212063263
 10
87.54280461136083
 20
-157.3337212063263
 10
87.54280461136083
 20
-157.3337212063263
 10
87.54280461136083
 20
-157.3337212063263
 10
87.54280461136083
 20
-157.4415526950146
 10
87.54280461136083
 20
-157.4415526950146
 10
87.54280461136083
 20
-157.4415526950146
 10
87.77362600887256
 20
-157.4415526950146
 10
87.77362600887256
 20
-157.4415526950146
 10
87.9066066946032
 20
-157.4415526950146
 10
88.19461667717011
 20
-157.4374185804323
 10
88.40373397312475
 20
-157.4308728990103
 10
88.40373397312475
 20
-157.4308728990103
 10
88.40373397312475
 20
-157.6086398260492
 10
88.40373397312475
 20
-157.6086398260492
 10
88.21149764504783
 20
-157.6024386541758
 10
87.89833846543862
 20
-157.5979600300449
 10
87.77362600887256
 20
-157.5979600300449
 97
        0
 97
        1
330
E6
 75
     2
 76
     1
 98
        1
 10
0.0
 20
0.0
450
        0
451
        0
460
0.0
461
0.0
452
        0
462
0.0
453
        0
470

  0
SPLINE
  5
E8
330
DB
100
AcDbEntity
  8
レイヤー 1
100
AcDbSpline
210
0.0
220
0.0
230
1.0
 70
     9
 71
     3
 72
    29
 73
    25
 74
     0
 42
0.0000000001
 43
0.0000000001
 40
0.0
 40
0.0
 40
0.0
 40
0.0
 40
1.0
 40
1.0
 40
1.0
 40
2.0
 40
2.0
 40
2.0
 40
3.0
 40
3.0
 40
3.0
 40
4.0
 40
4.0
 40
4.0
 40
5.0
 40
5.0
 40
5.0
 40
6.0
 40
6.0
 40
6.0
 40
7.0
 40
7.0
 40
7.0
 40
8.0
 40
8.0
 40
8.0
 40
8.0
 10
89.64879148149405
 20
-157.0460557333079
 30
0.0
 10
89.64879148149405
 20
-157.0460557333079
 30
0.0
 10
89.29532468470743
 20
-157.0460557333079
 30
0.0
 10
89.29532468470743
 20
-157.0460557333079
 30
0.0
 10
89.1833590814368
 20
-157.0460557333079
 30
0.0
 10
89.04383271428418
 20
-157.0522569051814
 30
0.0
 10
88.93600122559586
 20
-157.0650037584768
 30
0.0
 10
88.93600122559586
 20
-157.0650037584768
 30
0.0
 10
88.93600122559586
 20
-156.8300482463827
 30
0.0
 10
88.93600122559586
 20
-156.8300482463827
 30
0.0
 10
89.05416800073993
 20
-156.8448621569693
 30
0.0
 10
89.2384806092008
 20
-156.8493407811001
 30
0.0
 10
89.29532468470743
 20
-156.8493407811001
 30
0.0
 10
89.29532468470743
 20
-156.8493407811001
 30
0.0
 10
89.64879148149405
 20
-156.8493407811001
 30
0.0
 10
89.64879148149405
 20
-156.8493407811001
 30
0.0
 10
89.66773950666292
 20
-156.8493407811001
 30
0.0
 10
89.87100014029266
 20
-156.8493407811001
 30
0.0
 10
90.01259356473644
 20
-156.8300482463827
 30
0.0
 10
90.01259356473644
 20
-156.8300482463827
 30
0.0
 10
90.01259356473644
 20
-157.0650037584768
 30
0.0
 10
90.01259356473644
 20
-157.0650037584768
 30
0.0
 10
89.8561862297061
 20
-157.0460557333079
 30
0.0
 10
89.66567244937179
 20
-157.0460557333079
 30
0.0
 10
89.64879148149405
 20
-157.0460557333079
 30
0.0
  0
SPLINE
  5
E9
330
DB
100
AcDbEntity
  8
レイヤー 1
100
AcDbSpline
210
0.0
220
0.0
230
1.0
 70
     9
 71
     3
 72
    47
 73
    43
 74
     0
 42
0.0000000001
 43
0.0000000001
 40
0.0
 40
0.0
 40
0.0
 40
0.0
 40
1.0
 40
1.0
 40
1.0
 40
2.0
 40
2.0
 40
2.0
 40
3.0
 40
3.0
 40
3.0
 40
4.0
 40
4.0
 40
4.0
 40
5.0
 40
5.0
 40
5.0
 40
6.0
 40
6.0
 40
6.0
 40
7.0
 40
7.0
 40
7.0
 40
8.0
 40
8.0
 40
8.0
 40
9.0
 40
9.0
 40
9.0
 40
10.0
 40
10.0
 40
10.0
 40
11.0
 40
11.0
 40
11.0
 40
12.0
 40
12.0
 40
12.0
 40
13.0
 40
13.0
 40
13.0
 40
14.0
 40
14.0
 40
14.0
 40
14.0
 10
89.75042179830891
 20
-157.5748778902938
 30
0.0
 10
89.75042179830891
 20
-157.5748778902938
 30
0.0
 10
89.64879148149405
 20
-157.5748778902938
 30
0.0
 10
89.64879148149405
 20
-157.5748778902938
 30
0.0
 10
89.64879148149405
 20
-157.6616942965221
 30
0.0
 10
89.62777639903404
 20
-158.0509900863553
 30
0.0
 10
89.43106144682626
 20
-158.2707871783142
 30
0.0
 10
89.2784437168297
 20
-158.43994136664
 30
0.0
 10
89.07139347816618
 20
-158.5098768049906
 30
0.0
 10
88.98664412922903
 20
-158.5374375688726
 30
0.0
 10
88.98664412922903
 20
-158.5374375688726
 30
0.0
 10
88.79199623431242
 20
-158.3703504378379
 30
0.0
 10
88.79199623431242
 20
-158.3703504378379
 30
0.0
 10
88.88949243654499
 20
-158.3576035845425
 30
0.0
 10
89.06484779674419
 20
-158.3341769352428
 30
0.0
 10
89.25329451978738
 20
-158.1460747217482
 30
0.0
 10
89.32736407272024
 20
-158.0740722261065
 30
0.0
 10
89.43106144682626
 20
-157.9345458589538
 30
0.0
 10
89.43106144682626
 20
-157.5748778902938
 30
0.0
 10
89.43106144682626
 20
-157.5748778902938
 30
0.0
 10
89.20024004931454
 20
-157.5748778902938
 30
0.0
 10
89.20024004931454
 20
-157.5748778902938
 30
0.0
 10
89.01420489311105
 20
-157.5748778902938
 30
0.0
 10
88.82782522735901
 20
-157.5790120048761
 30
0.0
 10
88.64179007115552
 20
-157.5938259154626
 30
0.0
 10
88.64179007115552
 20
-157.5938259154626
 30
0.0
 10
88.64179007115552
 20
-157.3740288235037
 30
0.0
 10
88.64179007115552
 20
-157.3740288235037
 30
0.0
 10
88.83023679419869
 20
-157.3888427340903
 30
0.0
 10
89.11583520992591
 20
-157.3929768486726
 30
0.0
 10
89.20024004931454
 20
-157.3929768486726
 30
0.0
 10
89.20024004931454
 20
-157.3929768486726
 30
0.0
 10
89.75042179830891
 20
-157.3929768486726
 30
0.0
 10
89.75042179830891
 20
-157.3929768486726
 30
0.0
 10
89.7693698234778
 20
-157.3929768486726
 30
0.0
 10
90.08666311766932
 20
-157.3929768486726
 30
0.0
 10
90.31507294834138
 20
-157.3740288235037
 30
0.0
 10
90.31507294834138
 20
-157.3740288235037
 30
0.0
 10
90.31507294834138
 20
-157.5938259154626
 30
0.0
 10
90.31507294834138
 20
-157.5938259154626
 30
0.0
 10
90.12697073484673
 20
-157.5790120048761
 30
0.0
 10
89.93852401180356
 20
-157.5748778902938
 30
0.0
 10
89.75042179830891
 20
-157.5748778902938
 30
0.0
  0
HATCH
  5
EA
330
DB
100
AcDbEntity
  8
レイヤー 1
 62
   250
420
  2299925
440
 33554687
100
AcDbHatch
 10
0.0
 20
0.0
 30
0.0
210
0.0
220
0.0
230
1.0
  2
SOLID
 70
     1
 71
     1
 91
        2
 92
        1
 93
        1
 72
     4
 94
        3
 73
     0
 74
     0
 95
       29
 96
       25
 40
0.0
 40
0.0
 40
0.0
 40
0.0
 40
1.0
 40
1.0
 40
1.0
 40
2.0
 40
2.0
 40
2.0
 40
3.0
 40
3.0
 40
3.0
 40
4.0
 40
4.0
 40
4.0
 40
5.0
 40
5.0
 40
5.0
 40
6.0
 40
6.0
 40
6.0
 40
7.0
 40
7.0
 40
7.0
 40
8.0
 40
8.0
 40
8.0
 40
8.0
 10
89.64879148149405
 20
-157.0460557333079
 10
89.64879148149405
 20
-157.0460557333079
 10
89.29532468470743
 20
-157.0460557333079
 10
89.29532468470743
 20
-157.0460557333079
 10
89.1833590814368
 20
-157.0460557333079
 10
89.04383271428418
 20
-157.0522569051814
 10
88.93600122559586
 20
-157.0650037584768
 10
88.93600122559586
 20
-157.0650037584768
 10
88.93600122559586
 20
-156.8300482463827
 10
88.93600122559586
 20
-156.8300482463827
 10
89.05416800073993
 20
-156.8448621569693
 10
89.2384806092008
 20
-156.8493407811001
 10
89.29532468470743
 20
-156.8493407811001
 10
89.29532468470743
 20
-156.8493407811001
 10
89.64879148149405
 20
-156.8493407811001
 10
89.64879148149405
 20
-156.8493407811001
 10
89.66773950666292
 20
-156.8493407811001
 10
89.87100014029266
 20
-156.8493407811001
 10
90.01259356473644
 20
-156.8300482463827
 10
90.01259356473644
 20
-156.8300482463827
 10
90.01259356473644
 20
-157.0650037584768
 10
90.01259356473644
 20
-157.0650037584768
 10
89.8561862297061
 20
-157.0460557333079
 10
89.66567244937179
 20
-157.0460557333079
 10
89.64879148149405
 20
-157.0460557333079
 97
        0
 97
        1
330
E8
 92
        1
 93
        1
 72
     4
 94
        3
 73
     0
 74
     0
 95
       47
 96
       43
 40
0.0
 40
0.0
 40
0.0
 40
0.0
 40
1.0
 40
1.0
 40
1.0
 40
2.0
 40
2.0
 40
2.0
 40
3.0
 40
3.0
 40
3.0
 40
4.0
 40
4.0
 40
4.0
 40
5.0
 40
5.0
 40
5.0
 40
6.0
 40
6.0
 40
6.0
 40
7.0
 40
7.0
 40
7.0
 40
8.0
 40
8.0
 40
8.0
 40
9.0
 40
9.0
 40
9.0
 40
10.0
 40
10.0
 40
10.0
 40
11.0
 40
11.0
 40
11.0
 40
12.0
 40
12.0
 40
12.0
 40
13.0
 40
13.0
 40
13.0
 40
14.0
 40
14.0
 40
14.0
 40
14.0
 10
89.75042179830891
 20
-157.5748778902938
 10
89.75042179830891
 20
-157.5748778902938
 10
89.64879148149405
 20
-157.5748778902938
 10
89.64879148149405
 20
-157.5748778902938
 10
89.64879148149405
 20
-157.6616942965221
 10
89.62777639903404
 20
-158.0509900863553
 10
89.43106144682626
 20
-158.2707871783142
 10
89.2784437168297
 20
-158.43994136664
 10
89.07139347816618
 20
-158.5098768049906
 10
88.98664412922903
 20
-158.5374375688726
 10
88.98664412922903
 20
-158.5374375688726
 10
88.79199623431242
 20
-158.3703504378379
 10
88.79199623431242
 20
-158.3703504378379
 10
88.88949243654499
 20
-158.3576035845425
 10
89.06484779674419
 20
-158.3341769352428
 10
89.25329451978738
 20
-158.1460747217482
 10
89.32736407272024
 20
-158.0740722261065
 10
89.43106144682626
 20
-157.9345458589538
 10
89.43106144682626
 20
-157.5748778902938
 10
89.43106144682626
 20
-157.5748778902938
 10
89.20024004931454
 20
-157.5748778902938
 10
89.20024004931454
 20
-157.5748778902938
 10
89.01420489311105
 20
-157.5748778902938
 10
88.82782522735901
 20
-157.5790120048761
 10
88.64179007115552
 20
-157.5938259154626
 10
88.64179007115552
 20
-157.5938259154626
 10
88.64179007115552
 20
-157.3740288235037
 10
88.64179007115552
 20
-157.3740288235037
 10
88.83023679419869
 20
-157.3888427340903
 10
89.11583520992591
 20
-157.3929768486726
 10
89.20024004931454
 20
-157.3929768486726
 10
89.20024004931454
 20
-157.3929768486726
 10
89.75042179830891
 20
-157.3929768486726
 10
89.75042179830891
 20
-157.3929768486726
 10
89.7693698234778
 20
-157.3929768486726
 10
90.08666311766932
 20
-157.3929768486726
 10
90.31507294834138
 20
-157.3740288235037
 10
90.31507294834138
 20
-157.3740288235037
 10
90.31507294834138
 20
-157.5938259154626
 10
90.31507294834138
 20
-157.5938259154626
 10
90.12697073484673
 20
-157.5790120048761
 10
89.93852401180356
 20
-157.5748778902938
 10
89.75042179830891
 20
-157.5748778902938
 97
        0
 97
        1
330
E9
 75
     2
 76
     1
 98
        1
 10
0.0
 20
0.0
450
        0
451
        0
460
0.0
461
0.0
452
        0
462
0.0
453
        0
470

  0
SPLINE
  5
EB
330
DB
100
AcDbEntity
  8
レイヤー 1
100
AcDbSpline
210
0.0
220
0.0
230
1.0
 70
     9
 71
     3
 72
    29
 73
    25
 74
     0
 42
0.0000000001
 43
0.0000000001
 40
0.0
 40
0.0
 40
0.0
 40
0.0
 40
1.0
 40
1.0
 40
1.0
 40
2.0
 40
2.0
 40
2.0
 40
3.0
 40
3.0
 40
3.0
 40
4.0
 40
4.0
 40
4.0
 40
5.0
 40
5.0
 40
5.0
 40
6.0
 40
6.0
 40
6.0
 40
7.0
 40
7.0
 40
7.0
 40
8.0
 40
8.0
 40
8.0
 40
8.0
 10
91.59630395930578
 20
-157.7378309067461
 30
0.0
 10
91.59630395930578
 20
-157.7378309067461
 30
0.0
 10
91.11192353407966
 20
-157.7378309067461
 30
0.0
 10
91.11192353407966
 20
-157.7378309067461
 30
0.0
 10
91.08436277019766
 20
-157.7378309067461
 30
0.0
 10
90.76706947600616
 20
-157.7378309067461
 30
0.0
 10
90.55554061321181
 20
-157.7629801037884
 30
0.0
 10
90.55554061321181
 20
-157.7629801037884
 30
0.0
 10
90.55554061321181
 20
-157.5325032158252
 30
0.0
 10
90.55554061321181
 20
-157.5325032158252
 30
0.0
 10
90.71401500553331
 20
-157.5559298651249
 30
0.0
 10
90.90452878586763
 20
-157.557996922416
 30
0.0
 10
91.11192353407966
 20
-157.557996922416
 30
0.0
 10
91.11192353407966
 20
-157.557996922416
 30
0.0
 10
91.59630395930578
 20
-157.557996922416
 30
0.0
 10
91.59630395930578
 20
-157.557996922416
 30
0.0
 10
91.78233911550927
 20
-157.557996922416
 30
0.0
 10
91.96871878126129
 20
-157.5559298651249
 30
0.0
 10
92.15268688017363
 20
-157.5325032158252
 30
0.0
 10
92.15268688017363
 20
-157.5325032158252
 30
0.0
 10
92.15268688017363
 20
-157.7629801037884
 30
0.0
 10
92.15268688017363
 20
-157.7629801037884
 30
0.0
 10
91.96871878126129
 20
-157.7398979640372
 30
0.0
 10
91.72101641587182
 20
-157.7378309067461
 30
0.0
 10
91.59630395930578
 20
-157.7378309067461
 30
0.0
  0
HATCH
  5
EC
330
DB
100
AcDbEntity
  8
レイヤー 1
 62
   250
420
  2299925
440
 33554687
100
AcDbHatch
 10
0.0
 20
0.0
 30
0.0
210
0.0
220
0.0
230
1.0
  2
SOLID
 70
     1
 71
     1
 91
        1
 92
        1
 93
        1
 72
     4
 94
        3
 73
     0
 74
     0
 95
       29
 96
       25
 40
0.0
 40
0.0
 40
0.0
 40
0.0
 40
1.0
 40
1.0
 40
1.0
 40
2.0
 40
2.0
 40
2.0
 40
3.0
 40
3.0
 40
3.0
 40
4.0
 40
4.0
 40
4.0
 40
5.0
 40
5.0
 40
5.0
 40
6.0
 40
6.0
 40
6.0
 40
7.0
 40
7.0
 40
7.0
 40
8.0
 40
8.0
 40
8.0
 40
8.0
 10
91.59630395930578
 20
-157.7378309067461
 10
91.59630395930578
 20
-157.7378309067461
 10
91.11192353407966
 20
-157.7378309067461
 10
91.11192353407966
 20
-157.7378309067461
 10
91.08436277019766
 20
-157.7378309067461
 10
90.76706947600616
 20
-157.7378309067461
 10
90.55554061321181
 20
-157.7629801037884
 10
90.55554061321181
 20
-157.7629801037884
 10
90.55554061321181
 20
-157.5325032158252
 10
90.55554061321181
 20
-157.5325032158252
 10
90.71401500553331
 20
-157.5559298651249
 10
90.90452878586763
 20
-157.557996922416
 10
91.11192353407966
 20
-157.557996922416
 10
91.11192353407966
 20
-157.557996922416
 10
91.59630395930578
 20
-157.557996922416
 10
91.59630395930578
 20
-157.557996922416
 10
91.78233911550927
 20
-157.557996922416
 10
91.96871878126129
 20
-157.5559298651249
 10
92.15268688017363
 20
-157.5325032158252
 10
92.15268688017363
 20
-157.5325032158252
 10
92.15268688017363
 20
-157.7629801037884
 10
92.15268688017363
 20
-157.7629801037884
 10
91.96871878126129
 20
-157.7398979640372
 10
91.72101641587182
 20
-157.7378309067461
 10
91.59630395930578
 20
-157.7378309067461
 97
        0
 97
        1
330
EB
 75
     2
 76
     1
 98
        1
 10
0.0
 20
0.0
450
        0
451
        0
460
0.0
461
0.0
452
        0
462
0.0
453
        0
470

  0
SPLINE
  5
ED
330
DB
100
AcDbEntity
  8
レイヤー 1
100
AcDbSpline
210
0.0
220
0.0
230
1.0
 70
     9
 71
     3
 72
    17
 73
    13
 74
     0
 42
0.0000000001
 43
0.0000000001
 40
0.0
 40
0.0
 40
0.0
 40
0.0
 40
1.0
 40
1.0
 40
1.0
 40
2.0
 40
2.0
 40
2.0
 40
3.0
 40
3.0
 40
3.0
 40
4.0
 40
4.0
 40
4.0
 40
4.0
 10
94.0151054994997
 20
-156.7707926040364
 30
0.0
 10
93.96032848128422
 20
-156.7707926040364
 30
0.0
 10
93.91588674952449
 20
-156.8152343357962
 30
0.0
 10
93.91588674952449
 20
-156.8703558635602
 30
0.0
 10
93.91588674952449
 20
-156.9275444486153
 30
0.0
 10
93.96032848128422
 20
-156.9761202949573
 30
0.0
 10
94.01923961408199
 20
-156.9761202949573
 30
0.0
 10
94.07849525642829
 20
-156.9761202949573
 30
0.0
 10
94.11880287360572
 20
-156.9254773913242
 30
0.0
 10
94.11880287360572
 20
-156.8724229208513
 30
0.0
 10
94.11880287360572
 20
-156.8152343357962
 30
0.0
 10
94.07229408455483
 20
-156.7707926040364
 30
0.0
 10
94.0151054994997
 20
-156.7707926040364
 30
0.0
  0
SPLINE
  5
EE
330
DB
100
AcDbEntity
  8
レイヤー 1
100
AcDbSpline
210
0.0
220
0.0
230
1.0
 70
     9
 71
     3
 72
    17
 73
    13
 74
     0
 42
0.0000000001
 43
0.0000000001
 40
0.0
 40
0.0
 40
0.0
 40
0.0
 40
1.0
 40
1.0
 40
1.0
 40
2.0
 40
2.0
 40
2.0
 40
3.0
 40
3.0
 40
3.0
 40
4.0
 40
4.0
 40
4.0
 40
4.0
 10
94.01717255679086
 20
-157.1008327515234
 30
0.0
 10
93.89039304293365
 20
-157.1008327515234
 30
0.0
 10
93.78876272611879
 20
-156.9995469442571
 30
0.0
 10
93.78876272611879
 20
-156.8724229208513
 30
0.0
 10
93.78876272611879
 20
-156.7456434069941
 30
0.0
 10
93.89039304293365
 20
-156.6419460328881
 30
0.0
 10
94.01717255679086
 20
-156.6419460328881
 30
0.0
 10
94.14429658019656
 20
-156.6419460328881
 30
0.0
 10
94.24799395430259
 20
-156.7456434069941
 30
0.0
 10
94.24799395430259
 20
-156.8724229208513
 30
0.0
 10
94.24799395430259
 20
-156.9995469442571
 30
0.0
 10
94.14429658019656
 20
-157.1008327515234
 30
0.0
 10
94.01717255679086
 20
-157.1008327515234
 30
0.0
  0
SPLINE
  5
EF
330
DB
100
AcDbEntity
  8
レイヤー 1
100
AcDbSpline
210
0.0
220
0.0
230
1.0
 70
     9
 71
     3
 72
    44
 73
    40
 74
     0
 42
0.0000000001
 43
0.0000000001
 40
0.0
 40
0.0
 40
0.0
 40
0.0
 40
1.0
 40
1.0
 40
1.0
 40
2.0
 40
2.0
 40
2.0
 40
3.0
 40
3.0
 40
3.0
 40
4.0
 40
4.0
 40
4.0
 40
5.0
 40
5.0
 40
5.0
 40
6.0
 40
6.0
 40
6.0
 40
7.0
 40
7.0
 40
7.0
 40
8.0
 40
8.0
 40
8.0
 40
9.0
 40
9.0
 40
9.0
 40
10.0
 40
10.0
 40
10.0
 40
11.0
 40
11.0
 40
11.0
 40
12.0
 40
12.0
 40
12.0
 40
13.0
 40
13.0
 40
13.0
 40
13.0
 10
93.80771075128766
 20
-157.2999592705708
 30
0.0
 10
93.69574514801703
 20
-157.6678954683955
 30
0.0
 10
93.64510224438387
 20
-157.8267143702655
 30
0.0
 10
93.44838729217611
 20
-158.0761392833976
 30
0.0
 10
93.26407468371524
 20
-158.3069606809094
 30
0.0
 10
93.02739662387857
 20
-158.4929958371128
 30
0.0
 10
92.7479993800248
 20
-158.5860134152146
 30
0.0
 10
92.7479993800248
 20
-158.5860134152146
 30
0.0
 10
92.55541854239934
 20
-158.4061794308845
 30
0.0
 10
92.55541854239934
 20
-158.4061794308845
 30
0.0
 10
93.19655081220433
 20
-158.2539062104365
 30
0.0
 10
93.52659095969128
 20
-157.6975232895687
 30
0.0
 10
93.58998071661988
 20
-157.2575845961023
 30
0.0
 10
93.58998071661988
 20
-157.2575845961023
 30
0.0
 10
92.82413599024883
 20
-157.2575845961023
 30
0.0
 10
92.82413599024883
 20
-157.2575845961023
 30
0.0
 10
92.73111841214708
 20
-157.2575845961023
 30
0.0
 10
92.54715031323474
 20
-157.2617187106846
 30
0.0
 10
92.39039846865587
 20
-157.2806667358534
 30
0.0
 10
92.39039846865587
 20
-157.2806667358534
 30
0.0
 10
92.39039846865587
 20
-157.0608696438945
 30
0.0
 10
92.39039846865587
 20
-157.0608696438945
 30
0.0
 10
92.47721487488417
 20
-157.0818847263545
 30
0.0
 10
92.72905135485594
 20
-157.0818847263545
 30
0.0
 10
92.82827010483114
 20
-157.0818847263545
 30
0.0
 10
92.82827010483114
 20
-157.0818847263545
 30
0.0
 10
93.25994056913293
 20
-157.0818847263545
 30
0.0
 10
93.25994056913293
 20
-157.0818847263545
 30
0.0
 10
93.30231524360151
 20
-157.0818847263545
 30
0.0
 10
93.53692624614701
 20
-157.0798176690634
 30
0.0
 10
93.5751668060333
 20
-157.0736164971899
 30
0.0
 10
93.61754148050186
 20
-157.0670708157679
 30
0.0
 10
93.61960853779301
 20
-157.0650037584768
 30
0.0
 10
93.68093123743047
 20
-157.0246961412994
 30
0.0
 10
93.68093123743047
 20
-157.0246961412994
 30
0.0
 10
93.86903345092511
 20
-157.1793809285871
 30
0.0
 10
93.86903345092511
 20
-157.1793809285871
 30
0.0
 10
93.83975013930047
 20
-157.2090087497602
 30
0.0
 10
93.82493622871391
 20
-157.2407036282245
 30
0.0
 10
93.80771075128766
 20
-157.2999592705708
 30
0.0
  0
HATCH
  5
F0
330
DB
100
AcDbEntity
  8
レイヤー 1
 62
   250
420
  2299925
440
 33554687
100
AcDbHatch
 10
0.0
 20
0.0
 30
0.0
210
0.0
220
0.0
230
1.0
  2
SOLID
 70
     1
 71
     1
 91
        3
 92
        1
 93
        1
 72
     4
 94
        3
 73
     0
 74
     0
 95
       17
 96
       13
 40
0.0
 40
0.0
 40
0.0
 40
0.0
 40
1.0
 40
1.0
 40
1.0
 40
2.0
 40
2.0
 40
2.0
 40
3.0
 40
3.0
 40
3.0
 40
4.0
 40
4.0
 40
4.0
 40
4.0
 10
94.0151054994997
 20
-156.7707926040364
 10
93.96032848128422
 20
-156.7707926040364
 10
93.91588674952449
 20
-156.8152343357962
 10
93.91588674952449
 20
-156.8703558635602
 10
93.91588674952449
 20
-156.9275444486153
 10
93.96032848128422
 20
-156.9761202949573
 10
94.01923961408199
 20
-156.9761202949573
 10
94.07849525642829
 20
-156.9761202949573
 10
94.11880287360572
 20
-156.9254773913242
 10
94.11880287360572
 20
-156.8724229208513
 10
94.11880287360572
 20
-156.8152343357962
 10
94.07229408455483
 20
-156.7707926040364
 10
94.0151054994997
 20
-156.7707926040364
 97
        0
 97
        1
330
ED
 92
        1
 93
        1
 72
     4
 94
        3
 73
     0
 74
     0
 95
       17
 96
       13
 40
0.0
 40
0.0
 40
0.0
 40
0.0
 40
1.0
 40
1.0
 40
1.0
 40
2.0
 40
2.0
 40
2.0
 40
3.0
 40
3.0
 40
3.0
 40
4.0
 40
4.0
 40
4.0
 40
4.0
 10
94.01717255679086
 20
-157.1008327515234
 10
93.89039304293365
 20
-157.1008327515234
 10
93.78876272611879
 20
-156.9995469442571
 10
93.78876272611879
 20
-156.8724229208513
 10
93.78876272611879
 20
-156.7456434069941
 10
93.89039304293365
 20
-156.6419460328881
 10
94.01717255679086
 20
-156.6419460328881
 10
94.14429658019656
 20
-156.6419460328881
 10
94.24799395430259
 20
-156.7456434069941
 10
94.24799395430259
 20
-156.8724229208513
 10
94.24799395430259
 20
-156.9995469442571
 10
94.14429658019656
 20
-157.1008327515234
 10
94.01717255679086
 20
-157.1008327515234
 97
        0
 97
        1
330
EE
 92
        1
 93
        1
 72
     4
 94
        3
 73
     0
 74
     0
 95
       44
 96
       40
 40
0.0
 40
0.0
 40
0.0
 40
0.0
 40
1.0
 40
1.0
 40
1.0
 40
2.0
 40
2.0
 40
2.0
 40
3.0
 40
3.0
 40
3.0
 40
4.0
 40
4.0
 40
4.0
 40
5.0
 40
5.0
 40
5.0
 40
6.0
 40
6.0
 40
6.0
 40
7.0
 40
7.0
 40
7.0
 40
8.0
 40
8.0
 40
8.0
 40
9.0
 40
9.0
 40
9.0
 40
10.0
 40
10.0
 40
10.0
 40
11.0
 40
11.0
 40
11.0
 40
12.0
 40
12.0
 40
12.0
 40
13.0
 40
13.0
 40
13.0
 40
13.0
 10
93.80771075128766
 20
-157.2999592705708
 10
93.69574514801703
 20
-157.6678954683955
 10
93.64510224438387
 20
-157.8267143702655
 10
93.44838729217611
 20
-158.0761392833976
 10
93.26407468371524
 20
-158.3069606809094
 10
93.02739662387857
 20
-158.4929958371128
 10
92.7479993800248
 20
-158.5860134152146
 10
92.7479993800248
 20
-158.5860134152146
 10
92.55541854239934
 20
-158.4061794308845
 10
92.55541854239934
 20
-158.4061794308845
 10
93.19655081220433
 20
-158.2539062104365
 10
93.52659095969128
 20
-157.6975232895687
 10
93.58998071661988
 20
-157.2575845961023
 10
93.58998071661988
 20
-157.2575845961023
 10
92.82413599024883
 20
-157.2575845961023
 10
92.82413599024883
 20
-157.2575845961023
 10
92.73111841214708
 20
-157.2575845961023
 10
92.54715031323474
 20
-157.2617187106846
 10
92.39039846865587
 20
-157.2806667358534
 10
92.39039846865587
 20
-157.2806667358534
 10
92.39039846865587
 20
-157.0608696438945
 10
92.39039846865587
 20
-157.0608696438945
 10
92.47721487488417
 20
-157.0818847263545
 10
92.72905135485594
 20
-157.0818847263545
 10
92.82827010483114
 20
-157.0818847263545
 10
92.82827010483114
 20
-157.0818847263545
 10
93.25994056913293
 20
-157.0818847263545
 10
93.25994056913293
 20
-157.0818847263545
 10
93.30231524360151
 20
-157.0818847263545
 10
93.53692624614701
 20
-157.0798176690634
 10
93.5751668060333
 20
-157.0736164971899
 10
93.61754148050186
 20
-157.0670708157679
 10
93.61960853779301
 20
-157.0650037584768
 10
93.68093123743047
 20
-157.0246961412994
 10
93.68093123743047
 20
-157.0246961412994
 10
93.86903345092511
 20
-157.1793809285871
 10
93.86903345092511
 20
-157.1793809285871
 10
93.83975013930047
 20
-157.2090087497602
 10
93.82493622871391
 20
-157.2407036282245
 10
93.80771075128766
 20
-157.2999592705708
 97
        0
 97
        1
330
EF
 75
     2
 76
     1
 98
        1
 10
0.0
 20
0.0
450
        0
451
        0
460
0.0
461
0.0
452
        0
462
0.0
453
        0
470

  0
ENDBLK
  5
DE
330
DB
100
AcDbEntity
  8
0
100
AcDbBlockEnd
  0
ENDSEC
  0
SECTION
  2
ENTITIES
  0
INSERT
  5
7A
330
70
100
AcDbEntity
  8
レイヤー 1
100
AcDbBlockReference
  2
Block_0
 10
0.0
 20
0.0
 30
0.0
  0
LINE
  5
D2
330
70
100
AcDbEntity
  8
レイヤー 1
  6
AI-Linetype-0
 62
   154
420
    23468
370
    25
100
AcDbLine
 10
96.9618308494441
 20
-143.8397003114546
 30
0.0
 11
96.9618308494441
 21
-151.8398869405186
 31
0.0
  0
LINE
  5
D4
330
70
100
AcDbEntity
  8
レイヤー 1
 62
   250
420
  2299925
370
     9
100
AcDbLine
 10
96.78269250452384
 20
-151.901907050215
 30
0.0
 11
95.91658559833275
 21
-152.4021459263417
 31
0.0
  0
LINE
  5
D5
330
70
100
AcDbEntity
  8
レイヤー 1
 62
   250
420
  2299925
370
     9
100
AcDbLine
 10
96.78269250452384
 20
-151.901907050215
 30
0.0
 11
92.80876962365098
 21
-155.8762065434295
 31
0.0
  0
LINE
  5
D6
330
70
100
AcDbEntity
  8
レイヤー 1
 62
   250
420
  2299925
370
     9
100
AcDbLine
 10
96.78269250452384
 20
-151.901907050215
 30
0.0
 11
96.28245361575917
 21
-152.7680117503411
 31
0.0
  0
INSERT
  5
D8
330
70
100
AcDbEntity
  8
レイヤー 1
100
AcDbBlockReference
  2
Block_10
 10
0.0
 20
0.0
 30
0.0
  0
ENDSEC
  0
SECTION
  2
OBJECTS
  0
DICTIONARY
  5
C
330
0
100
AcDbDictionary
281
     1
  3
ACAD_COLOR
350
63
  3
ACAD_DETAILVIEWSTYLE
350
6A
  3
ACAD_GROUP
350
D
  3
ACAD_LAYOUT
350
62
  3
ACAD_MATERIAL
350
10
  3
ACAD_MLEADERSTYLE
350
66
  3
ACAD_MLINESTYLE
350
5F
  3
ACAD_PLOTSETTINGS
350
61
  3
ACAD_PLOTSTYLENAME
350
E
  3
ACAD_SCALELIST
350
42
  3
ACAD_SECTIONVIEWSTYLE
350
68
  3
ACAD_TABLESTYLE
350
64
  3
ACAD_VISUALSTYLE
350
29
  3
ACDB_RECOMPOSE_DATA
350
F9
  3
AcDbVariableDictionary
350
F1
  0
DICTIONARY
  5
63
102
{ACAD_REACTORS
330
C
102
}
330
C
100
AcDbDictionary
281
     1
  0
DICTIONARY
  5
6A
102
{ACAD_REACTORS
330
C
102
}
330
C
100
AcDbDictionary
281
     1
  3
Imperial24
350
6B
  0
DICTIONARY
  5
D
102
{ACAD_REACTORS
330
C
102
}
330
C
100
AcDbDictionary
281
     1
  0
DICTIONARY
  5
62
102
{ACAD_REACTORS
330
C
102
}
330
C
100
AcDbDictionary
281
     1
  3
Layout1
350
6F
  3
Layout2
350
77
  3
Model
350
73
  0
DICTIONARY
  5
10
102
{ACAD_REACTORS
330
C
102
}
330
C
100
AcDbDictionary
281
     1
  3
ByBlock
350
19
  3
ByLayer
350
11
  3
Global
350
21
  0
DICTIONARY
  5
66
102
{ACAD_REACTORS
330
C
102
}
330
C
100
AcDbDictionary
281
     1
  3
Standard
350
67
  0
DICTIONARY
  5
5F
102
{ACAD_REACTORS
330
C
102
}
330
C
100
AcDbDictionary
281
     1
  3
Standard
350
60
  0
DICTIONARY
  5
61
102
{ACAD_REACTORS
330
C
102
}
330
C
100
AcDbDictionary
281
     1
  0
ACDBDICTIONARYWDFLT
  5
E
102
{ACAD_REACTORS
330
C
102
}
330
C
100
AcDbDictionary
281
     1
  3
Normal
350
F
100
AcDbDictionaryWithDefault
340
F
  0
DICTIONARY
  5
42
102
{ACAD_REACTORS
330
C
102
}
330
C
100
AcDbDictionary
281
     1
  3
A0
350
43
  3
A1
350
44
  3
A2
350
45
  3
A3
350
46
  3
A4
350
47
  3
A5
350
48
  3
A6
350
49
  3
A7
350
4A
  3
A8
350
4B
  3
A9
350
4C
  3
B0
350
4D
  3
B1
350
4E
  3
B2
350
4F
  3
B3
350
50
  3
B4
350
51
  3
B5
350
52
  3
B6
350
53
  0
DICTIONARY
  5
68
102
{ACAD_REACTORS
330
C
102
}
330
C
100
AcDbDictionary
281
     1
  3
Imperial24
350
69
  0
DICTIONARY
  5
64
102
{ACAD_REACTORS
330
C
102
}
330
C
100
AcDbDictionary
281
     1
  3
Standard
350
65
  0
DICTIONARY
  5
29
102
{ACAD_REACTORS
330
C
102
}
330
C
100
AcDbDictionary
281
     1
  3
2dWireframe
350
2F
  3
Basic
350
2E
  3
Brighten
350
35
  3
ColorChange
350
39
  3
Conceptual
350
32
  3
Dim
350
34
  3
EdgeColorOff
350
41
  3
Facepattern
350
38
  3
Flat
350
2A
  3
FlatWithEdges
350
2B
  3
Gouraud
350
2C
  3
GouraudWithEdges
350
2D
  3
Hidden
350
31
  3
JitterOff
350
3F
  3
Linepattern
350
37
  3
OverhangOff
350
40
  3
Realistic
350
33
  3
Shaded
350
3E
  3
Shaded with edges
350
3D
  3
Shades of Gray
350
3A
  3
Sketchy
350
3B
  3
Thicken
350
36
  3
Wireframe
350
30
  3
X-Ray
350
3C
  0
XRECORD
  5
F9
102
{ACAD_REACTORS
330
C
102
}
330
C
100
AcDbXrecord
280
     1
 90
        1
330
65
  0
DICTIONARY
  5
F1
102
{ACAD_REACTORS
330
C
102
}
330
C
100
AcDbDictionary
281
     1
  3
CANNOSCALE
350
F6
  3
CMLEADERSTYLE
350
F3
  3
CTABLESTYLE
350
F2
  3
CVIEWDETAILSTYLE
350
F4
  3
CVIEWSECTIONSTYLE
350
F5
  0
ACDBDETAILVIEWSTYLE
  5
6B
102
{ACAD_XDICTIONARY
360
12E
102
}
102
{ACAD_REACTORS
330
6A
102
}
330
6A
100
AcDbModelDocViewStyle
 70
     0
  3
Imperial24
290
     0
100
AcDbDetailViewStyle
 70
     0
 71
     0
 90
        3
 71
     1
340
55
 62
   256
 40
0.24
340
0
 62
   256
 40
0.24
300

 40
0.36
280
     3
 71
     2
340
5D
 90
       25
 62
   256
 71
     3
340
55
 62
   256
 40
0.24
 90
        1
 40
0.75
 90
        1
300
%<\AcVar ViewType \f "%tc1">% %<\AcVar ViewDetailId>%\PSCALE %<\AcVar ViewScale \f "%sn">%
 71
     4
340
5D
 90
       25
 62
   256
340
5D
 90
       25
 62
   256
280
     0
  0
LAYOUT
  5
6F
102
{ACAD_REACTORS
330
62
102
}
330
62
100
AcDbPlotSettings
  1

  2

  4

  6

 40
0.0
 41
0.0
 42
0.0
 43
0.0
 44
0.0
 45
0.0
 46
0.0
 47
0.0
 48
0.0
 49
0.0
140
0.0
141
0.0
142
1.0
143
1.0
 70
   688
 72
     0
 73
     0
 74
     5
  7

 75
    16
147
1.0
 76
     0
 77
     2
 78
   300
148
0.0
149
0.0
100
AcDbLayout
  1
Layout1
 70
     1
 71
     1
 10
0.0
 20
0.0
 11
12.0
 21
9.0
 12
0.0
 22
0.0
 32
0.0
 14
0.0
 24
0.0
 34
0.0
 15
0.0
 25
0.0
 35
0.0
146
0.0
 13
0.0
 23
0.0
 33
0.0
 16
1.0
 26
0.0
 36
0.0
 17
0.0
 27
1.0
 37
0.0
 76
     0
330
6C
  0
LAYOUT
  5
77
102
{ACAD_REACTORS
330
62
102
}
330
62
100
AcDbPlotSettings
  1

  2

  4

  6

 40
0.0
 41
0.0
 42
0.0
 43
0.0
 44
0.0
 45
0.0
 46
0.0
 47
0.0
 48
0.0
 49
0.0
140
0.0
141
0.0
142
1.0
143
1.0
 70
   688
 72
     0
 73
     0
 74
     5
  7

 75
    16
147
1.0
 76
     0
 77
     2
 78
   300
148
0.0
149
0.0
100
AcDbLayout
  1
Layout2
 70
     1
 71
     2
 10
0.0
 20
0.0
 11
12.0
 21
9.0
 12
0.0
 22
0.0
 32
0.0
 14
0.0
 24
0.0
 34
0.0
 15
0.0
 25
0.0
 35
0.0
146
0.0
 13
0.0
 23
0.0
 33
0.0
 16
1.0
 26
0.0
 36
0.0
 17
0.0
 27
1.0
 37
0.0
 76
     0
330
74
  0
LAYOUT
  5
73
102
{ACAD_REACTORS
330
62
102
}
330
62
100
AcDbPlotSettings
  1

  2

  4

  6

 40
0.0
 41
0.0
 42
0.0
 43
0.0
 44
0.0
 45
0.0
 46
0.0
 47
0.0
 48
0.0
 49
0.0
140
0.0
141
0.0
142
1.0
143
1.0
 70
  1712
 72
     0
 73
     0
 74
     0
  7

 75
     0
147
1.0
 76
     0
 77
     2
 78
   300
148
0.0
149
0.0
100
AcDbLayout
  1
Model
 70
     1
 71
     0
 10
0.0
 20
0.0
 11
12.0
 21
9.0
 12
0.0
 22
0.0
 32
0.0
 14
0.0
 24
0.0
 34
0.0
 15
0.0
 25
0.0
 35
0.0
146
0.0
 13
0.0
 23
0.0
 33
0.0
 16
1.0
 26
0.0
 36
0.0
 17
0.0
 27
1.0
 37
0.0
 76
     0
330
70
  0
MATERIAL
  5
19
102
{ACAD_XDICTIONARY
360
1A
102
}
102
{ACAD_REACTORS
330
10
102
}
330
10
100
AcDbMaterial
  1
ByBlock
 72
     0
 43
0.0208333333333333
 43
0.0
 43
0.0
 43
0.0
 43
0.0
 43
0.0208333333333333
 43
0.0
 43
0.0
 43
0.0
 43
0.0
 43
1.0
 43
0.0
 43
0.0
 43
0.0
 43
0.0
 43
1.0
 77
     0
 47
0.0208333333333333
 47
0.0
 47
0.0
 47
0.0
 47
0.0
 47
0.0208333333333333
 47
0.0
 47
0.0
 47
0.0
 47
0.0
 47
1.0
 47
0.0
 47
0.0
 47
0.0
 47
0.0
 47
1.0
171
     0
 49
0.0208333333333333
 49
0.0
 49
0.0
 49
0.0
 49
0.0
 49
0.0208333333333333
 49
0.0
 49
0.0
 49
0.0
 49
0.0
 49
1.0
 49
0.0
 49
0.0
 49
0.0
 49
0.0
 49
1.0
175
     0
142
0.0208333333333333
142
0.0
142
0.0
142
0.0
142
0.0
142
0.0208333333333333
142
0.0
142
0.0
142
0.0
142
0.0
142
1.0
142
0.0
142
0.0
142
0.0
142
0.0
142
1.0
179
     0
144
0.0208333333333333
144
0.0
144
0.0
144
0.0
144
0.0
144
0.0208333333333333
144
0.0
144
0.0
144
0.0
144
0.0
144
1.0
144
0.0
144
0.0
144
0.0
144
0.0
144
1.0
147
0.0208333333333333
147
0.0
147
0.0
147
0.0
147
0.0
147
0.0208333333333333
147
0.0
147
0.0
147
0.0
147
0.0
147
1.0
147
0.0
147
0.0
147
0.0
147
0.0
147
1.0
  0
MATERIAL
  5
11
102
{ACAD_XDICTIONARY
360
12
102
}
102
{ACAD_REACTORS
330
10
102
}
330
10
100
AcDbMaterial
  1
ByLayer
 72
     0
 43
0.0208333333333333
 43
0.0
 43
0.0
 43
0.0
 43
0.0
 43
0.0208333333333333
 43
0.0
 43
0.0
 43
0.0
 43
0.0
 43
1.0
 43
0.0
 43
0.0
 43
0.0
 43
0.0
 43
1.0
 77
     0
 47
0.0208333333333333
 47
0.0
 47
0.0
 47
0.0
 47
0.0
 47
0.0208333333333333
 47
0.0
 47
0.0
 47
0.0
 47
0.0
 47
1.0
 47
0.0
 47
0.0
 47
0.0
 47
0.0
 47
1.0
171
     0
 49
0.0208333333333333
 49
0.0
 49
0.0
 49
0.0
 49
0.0
 49
0.0208333333333333
 49
0.0
 49
0.0
 49
0.0
 49
0.0
 49
1.0
 49
0.0
 49
0.0
 49
0.0
 49
0.0
 49
1.0
175
     0
142
0.0208333333333333
142
0.0
142
0.0
142
0.0
142
0.0
142
0.0208333333333333
142
0.0
142
0.0
142
0.0
142
0.0
142
1.0
142
0.0
142
0.0
142
0.0
142
0.0
142
1.0
179
     0
144
0.0208333333333333
144
0.0
144
0.0
144
0.0
144
0.0
144
0.0208333333333333
144
0.0
144
0.0
144
0.0
144
0.0
144
1.0
144
0.0
144
0.0
144
0.0
144
0.0
144
1.0
147
0.0208333333333333
147
0.0
147
0.0
147
0.0
147
0.0
147
0.0208333333333333
147
0.0
147
0.0
147
0.0
147
0.0
147
1.0
147
0.0
147
0.0
147
0.0
147
0.0
147
1.0
  0
MATERIAL
  5
21
102
{ACAD_XDICTIONARY
360
22
102
}
102
{ACAD_REACTORS
330
10
102
}
330
10
100
AcDbMaterial
  1
Global
 72
     0
 43
0.0208333333333333
 43
0.0
 43
0.0
 43
0.0
 43
0.0
 43
0.0208333333333333
 43
0.0
 43
0.0
 43
0.0
 43
0.0
 43
1.0
 43
0.0
 43
0.0
 43
0.0
 43
0.0
 43
1.0
 77
     0
 47
0.0208333333333333
 47
0.0
 47
0.0
 47
0.0
 47
0.0
 47
0.0208333333333333
 47
0.0
 47
0.0
 47
0.0
 47
0.0
 47
1.0
 47
0.0
 47
0.0
 47
0.0
 47
0.0
 47
1.0
171
     0
 49
0.0208333333333333
 49
0.0
 49
0.0
 49
0.0
 49
0.0
 49
0.0208333333333333
 49
0.0
 49
0.0
 49
0.0
 49
0.0
 49
1.0
 49
0.0
 49
0.0
 49
0.0
 49
0.0
 49
1.0
175
     0
142
0.0208333333333333
142
0.0
142
0.0
142
0.0
142
0.0
142
0.0208333333333333
142
0.0
142
0.0
142
0.0
142
0.0
142
1.0
142
0.0
142
0.0
142
0.0
142
0.0
142
1.0
179
     0
144
0.0208333333333333
144
0.0
144
0.0
144
0.0
144
0.0
144
0.0208333333333333
144
0.0
144
0.0
144
0.0
144
0.0
144
1.0
144
0.0
144
0.0
144
0.0
144
0.0
144
1.0
147
0.0208333333333333
147
0.0
147
0.0
147
0.0
147
0.0
147
0.0208333333333333
147
0.0
147
0.0
147
0.0
147
0.0
147
1.0
147
0.0
147
0.0
147
0.0
147
0.0
147
1.0
  0
MLEADERSTYLE
  5
67
102
{ACAD_XDICTIONARY
360
12A
102
}
102
{ACAD_REACTORS
330
66
102
}
330
66
100
AcDbMLeaderStyle
179
     2
170
     2
171
     1
172
     0
 90
        2
 40
0.0
 41
0.0
173
     1
 91
-1056964608
340
5B
 92
       -2
290
     1
 42
0.09
291
     1
 43
0.36
  3
Standard
 44
0.18
300

342
55
174
     1
178
     6
175
     1
176
     0
 93
-1056964608
 45
0.18
292
     0
297
     0
 46
0.18
 94
-1056964608
 47
1.0
 49
1.0
140
1.0
293
     1
141
0.0
294
     1
177
     0
142
1.0
295
     0
296
     0
143
0.125
271
     0
272
     9
273
     9
  0
MLINESTYLE
  5
60
102
{ACAD_REACTORS
330
5F
102
}
330
5F
100
AcDbMlineStyle
  2
STANDARD
 70
     0
  3

 62
   256
 51
90.0
 52
90.0
 71
     2
 49
0.5
 62
   256
  6
BYLAYER
 49
-0.5
 62
   256
  6
BYLAYER
  0
ACDBPLACEHOLDER
  5
F
102
{ACAD_REACTORS
330
E
102
}
330
E
  0
SCALE
  5
43
102
{ACAD_REACTORS
330
42
102
}
330
42
100
AcDbScale
 70
     0
300
1:1
140
1.0
141
1.0
290
     1
  0
SCALE
  5
44
102
{ACAD_REACTORS
330
42
102
}
330
42
100
AcDbScale
 70
     0
300
1/128" = 1'-0"
140
0.0078125
141
12.0
290
     0
  0
SCALE
  5
45
102
{ACAD_REACTORS
330
42
102
}
330
42
100
AcDbScale
 70
     0
300
1/64" = 1'-0"
140
0.015625
141
12.0
290
     0
  0
SCALE
  5
46
102
{ACAD_REACTORS
330
42
102
}
330
42
100
AcDbScale
 70
     0
300
1/32" = 1'-0"
140
0.03125
141
12.0
290
     0
  0
SCALE
  5
47
102
{ACAD_REACTORS
330
42
102
}
330
42
100
AcDbScale
 70
     0
300
1/16" = 1'-0"
140
0.0625
141
12.0
290
     0
  0
SCALE
  5
48
102
{ACAD_REACTORS
330
42
102
}
330
42
100
AcDbScale
 70
     0
300
3/32" = 1'-0"
140
0.09375
141
12.0
290
     0
  0
SCALE
  5
49
102
{ACAD_REACTORS
330
42
102
}
330
42
100
AcDbScale
 70
     0
300
1/8" = 1'-0"
140
0.125
141
12.0
290
     0
  0
SCALE
  5
4A
102
{ACAD_REACTORS
330
42
102
}
330
42
100
AcDbScale
 70
     0
300
3/16" = 1'-0"
140
0.1875
141
12.0
290
     0
  0
SCALE
  5
4B
102
{ACAD_REACTORS
330
42
102
}
330
42
100
AcDbScale
 70
     0
300
1/4" = 1'-0"
140
0.25
141
12.0
290
     0
  0
SCALE
  5
4C
102
{ACAD_REACTORS
330
42
102
}
330
42
100
AcDbScale
 70
     0
300
3/8" = 1'-0"
140
0.375
141
12.0
290
     0
  0
SCALE
  5
4D
102
{ACAD_REACTORS
330
42
102
}
330
42
100
AcDbScale
 70
     0
300
1/2" = 1'-0"
140
0.5
141
12.0
290
     0
  0
SCALE
  5
4E
102
{ACAD_REACTORS
330
42
102
}
330
42
100
AcDbScale
 70
     0
300
3/4" = 1'-0"
140
0.75
141
12.0
290
     0
  0
SCALE
  5
4F
102
{ACAD_REACTORS
330
42
102
}
330
42
100
AcDbScale
 70
     0
300
1" = 1'-0"
140
1.0
141
12.0
290
     0
  0
SCALE
  5
50
102
{ACAD_REACTORS
330
42
102
}
330
42
100
AcDbScale
 70
     0
300
1-1/2" = 1'-0"
140
1.5
141
12.0
290
     0
  0
SCALE
  5
51
102
{ACAD_REACTORS
330
42
102
}
330
42
100
AcDbScale
 70
     0
300
3" = 1'-0"
140
3.0
141
12.0
290
     0
  0
SCALE
  5
52
102
{ACAD_REACTORS
330
42
102
}
330
42
100
AcDbScale
 70
     0
300
6" = 1'-0"
140
6.0
141
12.0
290
     0
  0
SCALE
  5
53
102
{ACAD_REACTORS
330
42
102
}
330
42
100
AcDbScale
 70
     0
300
1'-0" = 1'-0"
140
12.0
141
12.0
290
     0
  0
ACDBSECTIONVIEWSTYLE
  5
69
102
{ACAD_XDICTIONARY
360
12C
102
}
102
{ACAD_REACTORS
330
68
102
}
330
68
100
AcDbModelDocViewStyle
 70
     0
  3
Imperial24
290
     0
100
AcDbSectionViewStyle
 70
     0
 71
     0
 90
       78
 71
     1
340
55
 62
   256
 40
0.24
340
0
340
0
 62
   256
 40
0.24
300
I, O, Q, S, X, Z
 40
0.48
 90
        3
 40
0.18
 90
        1
 71
     2
340
5D
 90
       25
 62
   256
340
5D
 90
       50
 62
   256
 40
0.24
 40
0.0
 40
0.24
 71
     3
340
55
 62
   256
 40
0.24
 90
        1
 40
0.75
 90
        1
300
%<\AcVar ViewType \f "%tc1">% %<\AcVar ViewSectionStartId>%-%<\AcVar ViewSectionEndId>%\PSCALE %<\AcVar ViewScale \f "%sn">%
 71
     4
 62
   256
 62
   257
300
ANSI31
 40
1.0
 90
        0
290
     0
290
     0
 90
        6
 40
0.0
 40
1.570796326794896
 40
0.2617993877991494
 40
1.308996938995747
 40
-0.2617993877991494
 40
1.832595714594046
  0
TABLESTYLE
  5
65
102
{ACAD_XDICTIONARY
360
F7
102
}
102
{ACAD_REACTORS
330
64
102
}
330
64
100
AcDbTableStyle
280
     0
  3
Standard
 70
     0
 71
     0
 40
0.06
 41
0.06
280
     0
281
     0
  7
Standard
140
0.18
170
     2
 62
     0
 63
     7
283
     0
 90
      512
 91
        0
  1

274
    -2
284
     1
 64
     0
275
    -2
285
     1
 65
     0
276
    -2
286
     1
 66
     0
277
    -2
287
     1
 67
     0
278
    -2
288
     1
 68
     0
279
    -2
289
     1
 69
     0
  7
Standard
140
0.25
170
     5
 62
     0
 63
     7
283
     0
 90
      512
 91
        0
  1

274
    -2
284
     1
 64
     0
275
    -2
285
     1
 65
     0
276
    -2
286
     1
 66
     0
277
    -2
287
     1
 67
     0
278
    -2
288
     1
 68
     0
279
    -2
289
     1
 69
     0
  7
Standard
140
0.18
170
     5
 62
     0
 63
     7
283
     0
 90
      512
 91
        0
  1

274
    -2
284
     1
 64
     0
275
    -2
285
     1
 65
     0
276
    -2
286
     1
 66
     0
277
    -2
287
     1
 67
     0
278
    -2
288
     1
 68
     0
279
    -2
289
     1
 69
     0
  0
VISUALSTYLE
  5
2F
102
{ACAD_XDICTIONARY
360
104
102
}
102
{ACAD_REACTORS
330
29
102
}
330
29
100
AcDbVisualStyle
  2
2dWireframe
 70
     4
177
     2
291
     0
 71
     0
176
     1
 72
     2
176
     1
 73
     0
176
     1
 90
        0
176
     1
 40
0.6
176
     1
 41
30.0
176
     1
 63
     7
421
 16777215
176
     1
 74
     1
176
     1
 91
        4
176
     1
 64
     7
176
     1
 65
   257
176
     1
 75
     1
176
     1
175
     1
176
     1
 42
1.0
176
     1
 92
        0
176
     1
 66
   257
176
     1
 43
1.0
176
     1
 76
     1
176
     1
 77
     6
176
     1
 78
     2
176
     1
 67
     7
176
     1
 79
     5
176
     1
170
     0
176
     1
171
     0
176
     1
290
     0
176
     1
 93
        1
176
     1
 44
0.0
176
     1
173
     0
176
     1
1001
ACAD
1000
AcDbSavedByObjectVersion
1070
     0
  0
VISUALSTYLE
  5
2E
102
{ACAD_XDICTIONARY
360
102
102
}
102
{ACAD_REACTORS
330
29
102
}
330
29
100
AcDbVisualStyle
  2
Basic
 70
     7
177
     2
291
     1
 71
     1
176
     1
 72
     0
176
     1
 73
     1
176
     1
 90
        0
176
     1
 40
0.6
176
     1
 41
30.0
176
     1
 63
     7
421
 16777215
176
     1
 74
     0
176
     1
 91
        4
176
     1
 64
     7
176
     1
 65
   257
176
     1
 75
     1
176
     1
175
     1
176
     1
 42
1.0
176
     1
 92
        8
176
     1
 66
     7
176
     1
 43
1.0
176
     1
 76
     1
176
     1
 77
     6
176
     1
 78
     2
176
     1
 67
     7
176
     1
 79
     5
176
     1
170
     0
176
     1
171
     0
176
     1
290
     0
176
     1
 93
        1
176
     1
 44
0.0
176
     1
173
     0
176
     1
1001
ACAD
1000
AcDbSavedByObjectVersion
1070
     0
  0
VISUALSTYLE
  5
35
102
{ACAD_XDICTIONARY
360
110
102
}
102
{ACAD_REACTORS
330
29
102
}
330
29
100
AcDbVisualStyle
  2
Brighten
 70
    12
177
     2
291
     1
 71
     2
176
     1
 72
     2
176
     1
 73
     0
176
     1
 90
        0
176
     1
 40
0.6
176
     1
 41
30.0
176
     1
 63
     7
421
 16777215
176
     1
 74
     1
176
     1
 91
        4
176
     1
 64
     7
176
     1
 65
   257
176
     1
 75
     1
176
     1
175
     1
176
     1
 42
1.0
176
     1
 92
        8
176
     1
 66
     7
176
     1
 43
1.0
176
     1
 76
     1
176
     1
 77
     6
176
     1
 78
     2
176
     1
 67
     7
176
     1
 79
     5
176
     1
170
     0
176
     1
171
     0
176
     1
290
     0
176
     1
 93
        1
176
     1
 44
50.0
176
     1
173
     0
176
     1
1001
ACAD
1000
AcDbSavedByObjectVersion
1070
     0
  0
VISUALSTYLE
  5
39
102
{ACAD_XDICTIONARY
360
118
102
}
102
{ACAD_REACTORS
330
29
102
}
330
29
100
AcDbVisualStyle
  2
ColorChange
 70
    16
177
     2
291
     1
 71
     2
176
     1
 72
     2
176
     1
 73
     3
176
     1
 90
        0
176
     1
 40
0.6
176
     1
 41
30.0
176
     1
 63
     8
421
  8421504
176
     1
 74
     1
176
     1
 91
        4
176
     1
 64
     7
176
     1
 65
   257
176
     1
 75
     1
176
     1
175
     1
176
     1
 42
1.0
176
     1
 92
        8
176
     1
 66
     8
424
  8421504
176
     1
 43
1.0
176
     1
 76
     1
176
     1
 77
     6
176
     1
 78
     2
176
     1
 67
     7
176
     1
 79
     5
176
     1
170
     0
176
     1
171
     0
176
     1
290
     0
176
     1
 93
        1
176
     1
 44
0.0
176
     1
173
     0
176
     1
1001
ACAD
1000
AcDbSavedByObjectVersion
1070
     0
  0
VISUALSTYLE
  5
32
102
{ACAD_XDICTIONARY
360
10A
102
}
102
{ACAD_REACTORS
330
29
102
}
330
29
100
AcDbVisualStyle
  2
Conceptual
 70
     9
177
     2
291
     0
 71
     3
176
     1
 72
     2
176
     1
 73
     0
176
     1
 90
        0
176
     1
 40
0.6
176
     1
 41
30.0
176
     1
 63
     7
421
 16777215
176
     1
 74
     2
176
     1
 91
        2
176
     1
 64
     7
176
     1
 65
   257
176
     1
 75
     1
176
     1
175
     1
176
     1
 42
179.0
176
     1
 92
        8
176
     1
 66
     7
176
     1
 43
1.0
176
     1
 76
     1
176
     1
 77
     6
176
     1
 78
     2
176
     1
 67
     7
176
     1
 79
     3
176
     1
170
     0
176
     1
171
     0
176
     1
290
     0
176
     1
 93
        1
176
     1
 44
0.0
176
     1
173
     0
176
     1
1001
ACAD
1000
AcDbSavedByObjectVersion
1070
     0
  0
VISUALSTYLE
  5
34
102
{ACAD_XDICTIONARY
360
10E
102
}
102
{ACAD_REACTORS
330
29
102
}
330
29
100
AcDbVisualStyle
  2
Dim
 70
    11
177
     2
291
     1
 71
     2
176
     1
 72
     2
176
     1
 73
     0
176
     1
 90
        0
176
     1
 40
0.6
176
     1
 41
30.0
176
     1
 63
     7
421
 16777215
176
     1
 74
     1
176
     1
 91
        4
176
     1
 64
     7
176
     1
 65
   257
176
     1
 75
     1
176
     1
175
     1
176
     1
 42
1.0
176
     1
 92
        8
176
     1
 66
     7
176
     1
 43
1.0
176
     1
 76
     1
176
     1
 77
     6
176
     1
 78
     2
176
     1
 67
     7
176
     1
 79
     5
176
     1
170
     0
176
     1
171
     0
176
     1
290
     0
176
     1
 93
        1
176
     1
 44
-50.0
176
     1
173
     0
176
     1
1001
ACAD
1000
AcDbSavedByObjectVersion
1070
     0
  0
VISUALSTYLE
  5
41
102
{ACAD_XDICTIONARY
360
128
102
}
102
{ACAD_REACTORS
330
29
102
}
330
29
100
AcDbVisualStyle
  2
EdgeColorOff
 70
    22
177
     2
291
     1
 71
     2
176
     0
 72
     2
176
     0
 73
     0
176
     0
 90
        0
176
     0
 40
0.6
176
     0
 41
30.0
176
     0
 63
     7
421
 16777215
176
     0
 74
     1
176
     0
 91
        4
176
     0
 64
     7
176
     0
 65
   257
176
     0
 75
     1
176
     0
175
     1
176
     0
 42
1.0
176
     0
 92
        8
176
     2
 66
     7
176
     0
 43
1.0
176
     0
 76
     1
176
     0
 77
     6
176
     0
 78
     2
176
     0
 67
     7
176
     0
 79
     5
176
     0
170
     0
176
     0
171
     0
176
     0
290
     0
176
     0
 93
        1
176
     0
 44
0.0
176
     0
173
     0
176
     0
1001
ACAD
1000
AcDbSavedByObjectVersion
1070
     0
  0
VISUALSTYLE
  5
38
102
{ACAD_XDICTIONARY
360
116
102
}
102
{ACAD_REACTORS
330
29
102
}
330
29
100
AcDbVisualStyle
  2
Facepattern
 70
    15
177
     2
291
     1
 71
     2
176
     1
 72
     2
176
     1
 73
     0
176
     1
 90
        0
176
     1
 40
0.6
176
     1
 41
30.0
176
     1
 63
     7
421
 16777215
176
     1
 74
     1
176
     1
 91
        4
176
     1
 64
     7
176
     1
 65
   257
176
     1
 75
     1
176
     1
175
     1
176
     1
 42
1.0
176
     1
 92
        8
176
     1
 66
     7
176
     1
 43
1.0
176
     1
 76
     1
176
     1
 77
     6
176
     1
 78
     2
176
     1
 67
     7
176
     1
 79
     5
176
     1
170
     0
176
     1
171
     0
176
     1
290
     0
176
     1
 93
        1
176
     1
 44
0.0
176
     1
173
     0
176
     1
1001
ACAD
1000
AcDbSavedByObjectVersion
1070
     0
  0
VISUALSTYLE
  5
2A
102
{ACAD_XDICTIONARY
360
FA
102
}
102
{ACAD_REACTORS
330
29
102
}
330
29
100
AcDbVisualStyle
  2
Flat
 70
     0
177
     2
291
     1
 71
     2
176
     1
 72
     1
176
     1
 73
     1
176
     1
 90
        2
176
     1
 40
0.6
176
     1
 41
30.0
176
     1
 63
     7
421
 16777215
176
     1
 74
     0
176
     1
 91
        0
176
     1
 64
     7
176
     1
 65
   257
176
     1
 75
     1
176
     1
175
     1
176
     1
 42
1.0
176
     1
 92
        8
176
     1
 66
     7
176
     1
 43
1.0
176
     1
 76
     1
176
     1
 77
     6
176
     1
 78
     2
176
     1
 67
     7
176
     1
 79
     5
176
     1
170
     0
176
     1
171
     0
176
     1
290
     0
176
     1
 93
       13
176
     1
 44
0.0
176
     1
173
     0
176
     1
1001
ACAD
1000
AcDbSavedByObjectVersion
1070
     0
  0
VISUALSTYLE
  5
2B
102
{ACAD_XDICTIONARY
360
FC
102
}
102
{ACAD_REACTORS
330
29
102
}
330
29
100
AcDbVisualStyle
  2
FlatWithEdges
 70
     1
177
     2
291
     1
 71
     2
176
     1
 72
     1
176
     1
 73
     1
176
     1
 90
        2
176
     1
 40
0.6
176
     1
 41
30.0
176
     1
 63
     7
421
 16777215
176
     1
 74
     1
176
     1
 91
        0
176
     1
 64
     7
176
     1
 65
   257
176
     1
 75
     1
176
     1
175
     1
176
     1
 42
1.0
176
     1
 92
        0
176
     1
 66
   257
176
     1
 43
1.0
176
     1
 76
     1
176
     1
 77
     6
176
     1
 78
     2
176
     1
 67
     7
176
     1
 79
     5
176
     1
170
     0
176
     1
171
     0
176
     1
290
     0
176
     1
 93
       13
176
     1
 44
0.0
176
     1
173
     0
176
     1
1001
ACAD
1000
AcDbSavedByObjectVersion
1070
     0
  0
VISUALSTYLE
  5
2C
102
{ACAD_XDICTIONARY
360
FE
102
}
102
{ACAD_REACTORS
330
29
102
}
330
29
100
AcDbVisualStyle
  2
Gouraud
 70
     2
177
     2
291
     1
 71
     2
176
     1
 72
     2
176
     1
 73
     1
176
     1
 90
        2
176
     1
 40
0.6
176
     1
 41
30.0
176
     1
 63
     7
421
 16777215
176
     1
 74
     0
176
     1
 91
        0
176
     1
 64
     7
176
     1
 65
   257
176
     1
 75
     1
176
     1
175
     1
176
     1
 42
1.0
176
     1
 92
        0
176
     1
 66
     7
176
     1
 43
1.0
176
     1
 76
     1
176
     1
 77
     6
176
     1
 78
     2
176
     1
 67
     7
176
     1
 79
     5
176
     1
170
     0
176
     1
171
     0
176
     1
290
     0
176
     1
 93
       13
176
     1
 44
0.0
176
     1
173
     0
176
     1
1001
ACAD
1000
AcDbSavedByObjectVersion
1070
     0
  0
VISUALSTYLE
  5
2D
102
{ACAD_XDICTIONARY
360
100
102
}
102
{ACAD_REACTORS
330
29
102
}
330
29
100
AcDbVisualStyle
  2
GouraudWithEdges
 70
     3
177
     2
291
     1
 71
     2
176
     1
 72
     2
176
     1
 73
     1
176
     1
 90
        2
176
     1
 40
0.6
176
     1
 41
30.0
176
     1
 63
     7
421
 16777215
176
     1
 74
     1
176
     1
 91
        0
176
     1
 64
     7
176
     1
 65
   257
176
     1
 75
     1
176
     1
175
     1
176
     1
 42
1.0
176
     1
 92
        0
176
     1
 66
   257
176
     1
 43
1.0
176
     1
 76
     1
176
     1
 77
     6
176
     1
 78
     2
176
     1
 67
     7
176
     1
 79
     5
176
     1
170
     0
176
     1
171
     0
176
     1
290
     0
176
     1
 93
       13
176
     1
 44
0.0
176
     1
173
     0
176
     1
1001
ACAD
1000
AcDbSavedByObjectVersion
1070
     0
  0
VISUALSTYLE
  5
31
102
{ACAD_XDICTIONARY
360
108
102
}
102
{ACAD_REACTORS
330
29
102
}
330
29
100
AcDbVisualStyle
  2
Hidden
 70
     6
177
     2
291
     0
 71
     1
176
     1
 72
     2
176
     1
 73
     2
176
     1
 90
        0
176
     1
 40
0.6
176
     1
 41
30.0
176
     1
 63
     7
421
 16777215
176
     1
 74
     2
176
     1
 91
        2
176
     1
 64
     7
176
     1
 65
   257
176
     1
 75
     2
176
     1
175
     1
176
     1
 42
40.0
176
     1
 92
        0
176
     1
 66
   257
176
     1
 43
1.0
176
     1
 76
     1
176
     1
 77
     6
176
     1
 78
     2
176
     1
 67
     7
176
     1
 79
     3
176
     1
170
     0
176
     1
171
     0
176
     1
290
     0
176
     1
 93
        1
176
     1
 44
0.0
176
     1
173
     0
176
     1
1001
ACAD
1000
AcDbSavedByObjectVersion
1070
     0
  0
VISUALSTYLE
  5
3F
102
{ACAD_XDICTIONARY
360
124
102
}
102
{ACAD_REACTORS
330
29
102
}
330
29
100
AcDbVisualStyle
  2
JitterOff
 70
    20
177
     2
291
     1
 71
     2
176
     0
 72
     2
176
     0
 73
     0
176
     0
 90
        0
176
     0
 40
0.6
176
     0
 41
30.0
176
     0
 63
     7
421
 16777215
176
     0
 74
     1
176
     0
 91
        4
176
     0
 64
     7
176
     0
 65
   257
176
     0
 75
     1
176
     0
175
     1
176
     0
 42
1.0
176
     0
 92
       10
176
     2
 66
     7
176
     0
 43
1.0
176
     0
 76
     1
176
     0
 77
     6
176
     0
 78
     2
176
     0
 67
     7
176
     0
 79
     5
176
     0
170
     0
176
     0
171
     0
176
     0
290
     0
176
     0
 93
        1
176
     0
 44
0.0
176
     0
173
     0
176
     0
1001
ACAD
1000
AcDbSavedByObjectVersion
1070
     0
  0
VISUALSTYLE
  5
37
102
{ACAD_XDICTIONARY
360
114
102
}
102
{ACAD_REACTORS
330
29
102
}
330
29
100
AcDbVisualStyle
  2
Linepattern
 70
    14
177
     2
291
     1
 71
     2
176
     1
 72
     2
176
     1
 73
     0
176
     1
 90
        0
176
     1
 40
0.6
176
     1
 41
30.0
176
     1
 63
     7
421
 16777215
176
     1
 74
     1
176
     1
 91
        4
176
     1
 64
     7
176
     1
 65
   257
176
     1
 75
     7
176
     1
175
     7
176
     1
 42
1.0
176
     1
 92
        8
176
     1
 66
     7
176
     1
 43
1.0
176
     1
 76
     1
176
     1
 77
     6
176
     1
 78
     2
176
     1
 67
     7
176
     1
 79
     5
176
     1
170
     0
176
     1
171
     0
176
     1
290
     0
176
     1
 93
        1
176
     1
 44
0.0
176
     1
173
     0
176
     1
1001
ACAD
1000
AcDbSavedByObjectVersion
1070
     0
  0
VISUALSTYLE
  5
40
102
{ACAD_XDICTIONARY
360
126
102
}
102
{ACAD_REACTORS
330
29
102
}
330
29
100
AcDbVisualStyle
  2
OverhangOff
 70
    21
177
     2
291
     1
 71
     2
176
     0
 72
     2
176
     0
 73
     0
176
     0
 90
        0
176
     0
 40
0.6
176
     0
 41
30.0
176
     0
 63
     7
421
 16777215
176
     0
 74
     1
176
     0
 91
        4
176
     0
 64
     7
176
     0
 65
   257
176
     0
 75
     1
176
     0
175
     1
176
     0
 42
1.0
176
     0
 92
        9
176
     2
 66
     7
176
     0
 43
1.0
176
     0
 76
     1
176
     0
 77
     6
176
     0
 78
     2
176
     0
 67
     7
176
     0
 79
     5
176
     0
170
     0
176
     0
171
     0
176
     0
290
     0
176
     0
 93
        1
176
     0
 44
0.0
176
     0
173
     0
176
     0
1001
ACAD
1000
AcDbSavedByObjectVersion
1070
     0
  0
VISUALSTYLE
  5
33
102
{ACAD_XDICTIONARY
360
10C
102
}
102
{ACAD_REACTORS
330
29
102
}
330
29
100
AcDbVisualStyle
  2
Realistic
 70
     8
177
     2
291
     0
 71
     2
176
     1
 72
     3
176
     1
 73
     0
176
     1
 90
        2
176
     1
 40
0.6
176
     1
 41
30.0
176
     1
 63
     7
421
 16777215
176
     1
 74
     0
176
     1
 91
        0
176
     1
 64
     7
176
     1
 65
   257
176
     1
 75
     1
176
     1
175
     1
176
     1
 42
1.0
176
     1
 92
        8
176
     1
 66
   257
176
     1
 43
1.0
176
     1
 76
     1
176
     1
 77
     6
176
     1
 78
     2
176
     1
 67
     7
176
     1
 79
     3
176
     1
170
     0
176
     1
171
     0
176
     1
290
     0
176
     1
 93
       13
176
     1
 44
0.0
176
     1
173
     0
176
     1
1001
ACAD
1000
AcDbSavedByObjectVersion
1070
     0
  0
VISUALSTYLE
  5
3E
102
{ACAD_XDICTIONARY
360
122
102
}
102
{ACAD_REACTORS
330
29
102
}
330
29
100
AcDbVisualStyle
  2
Shaded
 70
    27
177
     2
291
     0
 71
     2
176
     1
 72
     2
176
     1
 73
     1
176
     1
 90
        2
176
     1
 40
0.6
176
     1
 41
30.0
176
     1
 63
     7
421
 16777215
176
     1
 74
     0
176
     1
 91
        4
176
     1
 64
     7
176
     1
 65
   257
176
     1
 75
     1
176
     1
175
     1
176
     1
 42
1.0
176
     1
 92
        8
176
     1
 66
   257
176
     1
 43
1.0
176
     1
 76
     1
176
     1
 77
     6
176
     1
 78
     2
176
     1
 67
     8
425
  7895160
176
     1
 79
     3
176
     1
170
     0
176
     1
171
     0
176
     1
290
     0
176
     1
 93
        5
176
     1
 44
0.0
176
     1
173
     0
176
     1
1001
ACAD
1000
AcDbSavedByObjectVersion
1070
     0
  0
VISUALSTYLE
  5
3D
102
{ACAD_XDICTIONARY
360
120
102
}
102
{ACAD_REACTORS
330
29
102
}
330
29
100
AcDbVisualStyle
  2
Shaded with edges
 70
    26
177
     2
291
     0
 71
     2
176
     1
 72
     2
176
     1
 73
     1
176
     1
 90
        2
176
     1
 40
0.6
176
     1
 41
30.0
176
     1
 63
     7
421
 16777215
176
     1
 74
     1
176
     1
 91
        2
176
     1
 64
     7
176
     1
 65
   257
176
     1
 75
     2
176
     1
175
     1
176
     1
 42
1.0
176
     1
 92
        8
176
     1
 66
   257
176
     1
 43
1.0
176
     1
 76
     1
176
     1
 77
     6
176
     1
 78
     2
176
     1
 67
     7
176
     1
 79
     3
176
     1
170
     0
176
     1
171
     0
176
     1
290
     0
176
     1
 93
        5
176
     1
 44
0.0
176
     1
173
     0
176
     1
1001
ACAD
1000
AcDbSavedByObjectVersion
1070
     0
  0
VISUALSTYLE
  5
3A
102
{ACAD_XDICTIONARY
360
11A
102
}
102
{ACAD_REACTORS
330
29
102
}
330
29
100
AcDbVisualStyle
  2
Shades of Gray
 70
    23
177
     2
291
     0
 71
     2
176
     1
 72
     2
176
     1
 73
     3
176
     1
 90
        0
176
     1
 40
0.6
176
     1
 41
30.0
176
     1
 63
     7
421
 16777215
176
     1
 74
     2
176
     1
 91
        2
176
     1
 64
     7
176
     1
 65
     7
176
     1
 75
     1
176
     1
175
     1
176
     1
 42
40.0
176
     1
 92
        8
176
     1
 66
     7
176
     1
 43
1.0
176
     1
 76
     1
176
     1
 77
     6
176
     1
 78
     2
176
     1
 67
     7
176
     1
 79
     3
176
     1
170
     0
176
     1
171
     0
176
     1
290
     0
176
     1
 93
        1
176
     1
 44
0.0
176
     1
173
     0
176
     1
1001
ACAD
1000
AcDbSavedByObjectVersion
1070
     0
  0
VISUALSTYLE
  5
3B
102
{ACAD_XDICTIONARY
360
11C
102
}
102
{ACAD_REACTORS
330
29
102
}
330
29
100
AcDbVisualStyle
  2
Sketchy
 70
    24
177
     2
291
     0
 71
     1
176
     1
 72
     2
176
     1
 73
     2
176
     1
 90
        0
176
     1
 40
0.6
176
     1
 41
30.0
176
     1
 63
     7
421
 16777215
176
     1
 74
     2
176
     1
 91
        2
176
     1
 64
     7
176
     1
 65
     7
176
     1
 75
     1
176
     1
175
     1
176
     1
 42
40.0
176
     1
 92
       11
176
     1
 66
     7
176
     1
 43
1.0
176
     1
 76
     1
176
     1
 77
     6
176
     1
 78
     2
176
     1
 67
     7
176
     1
 79
     6
176
     1
170
     0
176
     1
171
     0
176
     1
290
     0
176
     1
 93
        1
176
     1
 44
0.0
176
     1
173
     0
176
     1
1001
ACAD
1000
AcDbSavedByObjectVersion
1070
     0
  0
VISUALSTYLE
  5
36
102
{ACAD_XDICTIONARY
360
112
102
}
102
{ACAD_REACTORS
330
29
102
}
330
29
100
AcDbVisualStyle
  2
Thicken
 70
    13
177
     2
291
     1
 71
     2
176
     1
 72
     2
176
     1
 73
     0
176
     1
 90
        0
176
     1
 40
0.6
176
     1
 41
30.0
176
     1
 63
     7
421
 16777215
176
     1
 74
     1
176
     1
 91
        4
176
     1
 64
     7
176
     1
 65
   257
176
     1
 75
     1
176
     1
175
     1
176
     1
 42
1.0
176
     1
 92
       12
176
     1
 66
     7
176
     1
 43
1.0
176
     1
 76
     1
176
     1
 77
     6
176
     1
 78
     2
176
     1
 67
     7
176
     1
 79
     5
176
     1
170
     0
176
     1
171
     0
176
     1
290
     0
176
     1
 93
        1
176
     1
 44
0.0
176
     1
173
     0
176
     1
1001
ACAD
1000
AcDbSavedByObjectVersion
1070
     0
  0
VISUALSTYLE
  5
30
102
{ACAD_XDICTIONARY
360
106
102
}
102
{ACAD_REACTORS
330
29
102
}
330
29
100
AcDbVisualStyle
  2
Wireframe
 70
     5
177
     2
291
     0
 71
     0
176
     1
 72
     2
176
     1
 73
     0
176
     1
 90
        0
176
     1
 40
0.6
176
     1
 41
30.0
176
     1
 63
     7
421
 16777215
176
     1
 74
     1
176
     1
 91
        4
176
     1
 64
     7
176
     1
 65
   257
176
     1
 75
     1
176
     1
175
     1
176
     1
 42
1.0
176
     1
 92
        0
176
     1
 66
   257
176
     1
 43
1.0
176
     1
 76
     1
176
     1
 77
     6
176
     1
 78
     2
176
     1
 67
     7
176
     1
 79
     3
176
     1
170
     0
176
     1
171
     0
176
     1
290
     0
176
     1
 93
        1
176
     1
 44
0.0
176
     1
173
     0
176
     1
1001
ACAD
1000
AcDbSavedByObjectVersion
1070
     0
  0
VISUALSTYLE
  5
3C
102
{ACAD_XDICTIONARY
360
11E
102
}
102
{ACAD_REACTORS
330
29
102
}
330
29
100
AcDbVisualStyle
  2
X-Ray
 70
    25
177
     2
291
     0
 71
     2
176
     1
 72
     2
176
     1
 73
     1
176
     1
 90
        1
176
     1
 40
0.5
176
     1
 41
30.0
176
     1
 63
     7
421
 16777215
176
     1
 74
     1
176
     1
 91
        0
176
     1
 64
     7
176
     1
 65
   257
176
     1
 75
     1
176
     1
175
     1
176
     1
 42
1.0
176
     1
 92
        8
176
     1
 66
     7
176
     1
 43
1.0
176
     1
 76
     1
176
     1
 77
     6
176
     1
 78
     2
176
     1
 67
     7
176
     1
 79
     3
176
     1
170
     0
176
     1
171
     0
176
     1
290
     0
176
     1
 93
       13
176
     1
 44
0.0
176
     1
173
     0
176
     1
1001
ACAD
1000
AcDbSavedByObjectVersion
1070
     0
  0
DICTIONARYVAR
  5
F6
102
{ACAD_REACTORS
330
F1
102
}
330
F1
100
DictionaryVariables
280
     0
  1
1:1
  0
DICTIONARYVAR
  5
F3
102
{ACAD_REACTORS
330
F1
102
}
330
F1
100
DictionaryVariables
280
     0
  1
STANDARD
  0
DICTIONARYVAR
  5
F2
102
{ACAD_REACTORS
330
F1
102
}
330
F1
100
DictionaryVariables
280
     0
  1
STANDARD
  0
DICTIONARYVAR
  5
F4
102
{ACAD_REACTORS
330
F1
102
}
330
F1
100
DictionaryVariables
280
     0
  1
Imperial24
  0
DICTIONARYVAR
  5
F5
102
{ACAD_REACTORS
330
F1
102
}
330
F1
100
DictionaryVariables
280
     0
  1
Imperial24
  0
DICTIONARY
  5
12E
330
6B
100
AcDbDictionary
280
     1
281
     1
  3
ACAD_XREC_ROUNDTRIP
360
12F
  0
DICTIONARY
  5
1A
330
19
100
AcDbDictionary
280
     1
281
     1
  3
BUMPTILE
360
1C
  3
DIFFUSETILE
360
1B
  3
OPACITYTILE
360
1F
  3
REFLECTIONTILE
360
1E
  3
REFRACTIONTILE
360
20
  3
SPECULARTILE
360
1D
  0
DICTIONARY
  5
12
330
11
100
AcDbDictionary
280
     1
281
     1
  3
BUMPTILE
360
14
  3
DIFFUSETILE
360
13
  3
OPACITYTILE
360
17
  3
REFLECTIONTILE
360
16
  3
REFRACTIONTILE
360
18
  3
SPECULARTILE
360
15
  0
DICTIONARY
  5
22
330
21
100
AcDbDictionary
280
     1
281
     1
  3
BUMPTILE
360
24
  3
DIFFUSETILE
360
23
  3
OPACITYTILE
360
27
  3
REFLECTIONTILE
360
26
  3
REFRACTIONTILE
360
28
  3
SPECULARTILE
360
25
  0
DICTIONARY
  5
12A
330
67
100
AcDbDictionary
280
     1
281
     1
  3
ACAD_XREC_ROUNDTRIP
360
12B
  0
DICTIONARY
  5
12C
330
69
100
AcDbDictionary
280
     1
281
     1
  3
ACAD_XREC_ROUNDTRIP
360
12D
  0
DICTIONARY
  5
F7
330
65
100
AcDbDictionary
280
     1
281
     1
  3
ACAD_ROUNDTRIP_2008_TABLESTYLE_CELLSTYLEMAP
360
F8
  0
DICTIONARY
  5
104
330
2F
100
AcDbDictionary
280
     1
281
     1
  3
ACAD_XREC_ROUNDTRIP
360
105
  0
DICTIONARY
  5
102
330
2E
100
AcDbDictionary
280
     1
281
     1
  3
ACAD_XREC_ROUNDTRIP
360
103
  0
DICTIONARY
  5
110
330
35
100
AcDbDictionary
280
     1
281
     1
  3
ACAD_XREC_ROUNDTRIP
360
111
  0
DICTIONARY
  5
118
330
39
100
AcDbDictionary
280
     1
281
     1
  3
ACAD_XREC_ROUNDTRIP
360
119
  0
DICTIONARY
  5
10A
330
32
100
AcDbDictionary
280
     1
281
     1
  3
ACAD_XREC_ROUNDTRIP
360
10B
  0
DICTIONARY
  5
10E
330
34
100
AcDbDictionary
280
     1
281
     1
  3
ACAD_XREC_ROUNDTRIP
360
10F
  0
DICTIONARY
  5
128
330
41
100
AcDbDictionary
280
     1
281
     1
  3
ACAD_XREC_ROUNDTRIP
360
129
  0
DICTIONARY
  5
116
330
38
100
AcDbDictionary
280
     1
281
     1
  3
ACAD_XREC_ROUNDTRIP
360
117
  0
DICTIONARY
  5
FA
330
2A
100
AcDbDictionary
280
     1
281
     1
  3
ACAD_XREC_ROUNDTRIP
360
FB
  0
DICTIONARY
  5
FC
330
2B
100
AcDbDictionary
280
     1
281
     1
  3
ACAD_XREC_ROUNDTRIP
360
FD
  0
DICTIONARY
  5
FE
330
2C
100
AcDbDictionary
280
     1
281
     1
  3
ACAD_XREC_ROUNDTRIP
360
FF
  0
DICTIONARY
  5
100
330
2D
100
AcDbDictionary
280
     1
281
     1
  3
ACAD_XREC_ROUNDTRIP
360
101
  0
DICTIONARY
  5
108
330
31
100
AcDbDictionary
280
     1
281
     1
  3
ACAD_XREC_ROUNDTRIP
360
109
  0
DICTIONARY
  5
124
330
3F
100
AcDbDictionary
280
     1
281
     1
  3
ACAD_XREC_ROUNDTRIP
360
125
  0
DICTIONARY
  5
114
330
37
100
AcDbDictionary
280
     1
281
     1
  3
ACAD_XREC_ROUNDTRIP
360
115
  0
DICTIONARY
  5
126
330
40
100
AcDbDictionary
280
     1
281
     1
  3
ACAD_XREC_ROUNDTRIP
360
127
  0
DICTIONARY
  5
10C
330
33
100
AcDbDictionary
280
     1
281
     1
  3
ACAD_XREC_ROUNDTRIP
360
10D
  0
DICTIONARY
  5
122
330
3E
100
AcDbDictionary
280
     1
281
     1
  3
ACAD_XREC_ROUNDTRIP
360
123
  0
DICTIONARY
  5
120
330
3D
100
AcDbDictionary
280
     1
281
     1
  3
ACAD_XREC_ROUNDTRIP
360
121
  0
DICTIONARY
  5
11A
330
3A
100
AcDbDictionary
280
     1
281
     1
  3
ACAD_XREC_ROUNDTRIP
360
11B
  0
DICTIONARY
  5
11C
330
3B
100
AcDbDictionary
280
     1
281
     1
  3
ACAD_XREC_ROUNDTRIP
360
11D
  0
DICTIONARY
  5
112
330
36
100
AcDbDictionary
280
     1
281
     1
  3
ACAD_XREC_ROUNDTRIP
360
113
  0
DICTIONARY
  5
106
330
30
100
AcDbDictionary
280
     1
281
     1
  3
ACAD_XREC_ROUNDTRIP
360
107
  0
DICTIONARY
  5
11E
330
3C
100
AcDbDictionary
280
     1
281
     1
  3
ACAD_XREC_ROUNDTRIP
360
11F
  0
XRECORD
  5
12F
102
{ACAD_REACTORS
330
12E
102
}
330
12E
100
AcDbXrecord
280
     1
102
DISPLAYNAME
  1
Imperial24
102
FLAGS
 90
        0
  0
XRECORD
  5
1C
102
{ACAD_REACTORS
330
1A
102
}
330
1A
100
AcDbXrecord
280
     1
270
     1
271
     1
  0
XRECORD
  5
1B
102
{ACAD_REACTORS
330
1A
102
}
330
1A
100
AcDbXrecord
280
     1
270
     1
271
     1
  0
XRECORD
  5
1F
102
{ACAD_REACTORS
330
1A
102
}
330
1A
100
AcDbXrecord
280
     1
270
     1
271
     1
  0
XRECORD
  5
1E
102
{ACAD_REACTORS
330
1A
102
}
330
1A
100
AcDbXrecord
280
     1
270
     1
271
     1
  0
XRECORD
  5
20
102
{ACAD_REACTORS
330
1A
102
}
330
1A
100
AcDbXrecord
280
     1
270
     1
271
     1
  0
XRECORD
  5
1D
102
{ACAD_REACTORS
330
1A
102
}
330
1A
100
AcDbXrecord
280
     1
270
     1
271
     1
  0
XRECORD
  5
14
102
{ACAD_REACTORS
330
12
102
}
330
12
100
AcDbXrecord
280
     1
270
     1
271
     1
  0
XRECORD
  5
13
102
{ACAD_REACTORS
330
12
102
}
330
12
100
AcDbXrecord
280
     1
270
     1
271
     1
  0
XRECORD
  5
17
102
{ACAD_REACTORS
330
12
102
}
330
12
100
AcDbXrecord
280
     1
270
     1
271
     1
  0
XRECORD
  5
16
102
{ACAD_REACTORS
330
12
102
}
330
12
100
AcDbXrecord
280
     1
270
     1
271
     1
  0
XRECORD
  5
18
102
{ACAD_REACTORS
330
12
102
}
330
12
100
AcDbXrecord
280
     1
270
     1
271
     1
  0
XRECORD
  5
15
102
{ACAD_REACTORS
330
12
102
}
330
12
100
AcDbXrecord
280
     1
270
     1
271
     1
  0
XRECORD
  5
24
102
{ACAD_REACTORS
330
22
102
}
330
22
100
AcDbXrecord
280
     1
270
     1
271
     1
  0
XRECORD
  5
23
102
{ACAD_REACTORS
330
22
102
}
330
22
100
AcDbXrecord
280
     1
270
     1
271
     1
  0
XRECORD
  5
27
102
{ACAD_REACTORS
330
22
102
}
330
22
100
AcDbXrecord
280
     1
270
     1
271
     1
  0
XRECORD
  5
26
102
{ACAD_REACTORS
330
22
102
}
330
22
100
AcDbXrecord
280
     1
270
     1
271
     1
  0
XRECORD
  5
28
102
{ACAD_REACTORS
330
22
102
}
330
22
100
AcDbXrecord
280
     1
270
     1
271
     1
  0
XRECORD
  5
25
102
{ACAD_REACTORS
330
22
102
}
330
22
100
AcDbXrecord
280
     1
270
     1
271
     1
  0
XRECORD
  5
12B
102
{ACAD_REACTORS
330
12A
102
}
330
12A
100
AcDbXrecord
280
     1
102
ACAD_ROUNDTRIP_2012_MLEADER_STYLE
298
     1
  0
XRECORD
  5
12D
102
{ACAD_REACTORS
330
12C
102
}
330
12C
100
AcDbXrecord
280
     1
102
DISPLAYNAME
  1
Imperial24
102
FLAGS
 90
        0
  0
CELLSTYLEMAP
  5
F8
102
{ACAD_REACTORS
330
F7
102
}
330
F7
100
AcDbCellStyleMap
 90
        3
300
CELLSTYLE
  1
TABLEFORMAT_BEGIN
 90
        5
170
     1
 91
        0
 92
    32768
 62
   257
 93
        1
300
CONTENTFORMAT
  1
CONTENTFORMAT_BEGIN
 90
        0
 91
        0
 92
      512
 93
        0
300

 40
0.0
140
1.0
 94
        5
 62
     0
340
55
144
0.25
309
CONTENTFORMAT_END
171
     0
 94
        0
309
TABLEFORMAT_END
  1
CELLSTYLE_BEGIN
 90
        1
 91
        1
300
_TITLE
309
CELLSTYLE_END
300
CELLSTYLE
  1
TABLEFORMAT_BEGIN
 90
        5
170
     1
 91
        0
 92
        0
 62
   257
 93
        1
300
CONTENTFORMAT
  1
CONTENTFORMAT_BEGIN
 90
        0
 91
        0
 92
      512
 93
        0
300

 40
0.0
140
1.0
 94
        5
 62
     0
340
55
144
0.18
309
CONTENTFORMAT_END
171
     0
 94
        0
309
TABLEFORMAT_END
  1
CELLSTYLE_BEGIN
 90
        2
 91
        1
300
_HEADER
309
CELLSTYLE_END
300
CELLSTYLE
  1
TABLEFORMAT_BEGIN
 90
        5
170
     1
 91
        0
 92
        0
 62
   257
 93
        1
300
CONTENTFORMAT
  1
CONTENTFORMAT_BEGIN
 90
        0
 91
        0
 92
      512
 93
        0
300

 40
0.0
140
1.0
 94
        2
 62
     0
340
55
144
0.18
309
CONTENTFORMAT_END
171
     0
 94
        0
309
TABLEFORMAT_END
  1
CELLSTYLE_BEGIN
 90
        3
 91
        2
300
_DATA
309
CELLSTYLE_END
  0
XRECORD
  5
105
102
{ACAD_REACTORS
330
104
102
}
330
104
100
AcDbXrecord
280
     1
102
RTVSPost2010Prop28
280
     1
102
RTVSPost2010PropOp28
 70
     1
102
RTVSPost2010Prop29
280
     1
102
RTVSPost2010PropOp29
 70
     1
102
RTVSPost2010Prop30
280
     0
102
RTVSPost2010PropOp30
 70
     1
102
RTVSPost2010Prop31
280
     0
102
RTVSPost2010PropOp31
 70
     1
102
RTVSPost2010Prop32
280
     0
102
RTVSPost2010PropOp32
 70
     1
102
RTVSPost2010Prop33
280
     0
102
RTVSPost2010PropOp33
 70
     1
102
RTVSPost2010Prop34
280
     0
102
RTVSPost2010PropOp34
 70
     1
102
RTVSPost2010Prop35
280
     0
102
RTVSPost2010PropOp35
 70
     1
102
RTVSPost2010Prop36
280
     0
102
RTVSPost2010PropOp36
 70
     1
102
RTVSPost2010Prop37
 90
       50
102
RTVSPost2010PropOp37
 70
     1
102
RTVSPost2010Prop38
140
0.0
102
RTVSPost2010PropOp38
 70
     1
102
RTVSPost2010Prop39
140
1.0
102
RTVSPost2010PropOp39
 70
     1
102
RTVSPost2010Prop40
 90
        0
102
RTVSPost2010PropOp40
 70
     1
102
RTVSPost2010Prop41ColorIndex
 90
       18
102
RTVSPost2010Prop41ColorRGB
 90
        0
102
RTVSPost2010PropOp41
 70
     1
102
RTVSPost2010Prop42
 90
       50
102
RTVSPost2010PropOp42
 70
     1
102
RTVSPost2010Prop43
 90
        3
102
RTVSPost2010PropOp43
 70
     1
102
RTVSPost2010Prop44ColorIndex
 90
        5
102
RTVSPost2010Prop44ColorRGB
 90
      255
102
RTVSPost2010PropOp44
 70
     1
102
RTVSPost2010Prop45
280
     0
102
RTVSPost2010PropOp45
 70
     1
102
RTVSPost2010Prop46
 90
       50
102
RTVSPost2010PropOp46
 70
     1
102
RTVSPost2010Prop47
 90
       50
102
RTVSPost2010PropOp47
 70
     1
102
RTVSPost2010Prop48
 90
       50
102
RTVSPost2010PropOp48
 70
     1
102
RTVSPost2010Prop49
280
     0
102
RTVSPost2010PropOp49
 70
     1
102
RTVSPost2010Prop50
 90
       50
102
RTVSPost2010PropOp50
 70
     1
102
RTVSPost2010Prop51ColorIndex
 90
      256
102
RTVSPost2010Prop51ColorRGB
 90
-16777216
102
RTVSPost2010PropOp51
 70
     0
102
RTVSPost2010Prop52
140
1.0
102
RTVSPost2010PropOp52
 70
     0
102
RTVSPost2010Prop53
 90
        2
102
RTVSPost2010PropOp53
 70
     1
102
RTVSPost2010Prop54
  1
strokes_ogs.tif
102
RTVSPost2010PropOp54
 70
     1
102
RTVSPost2010Prop55
280
     0
102
RTVSPost2010PropOp55
 70
     1
102
RTVSPost2010Prop56
140
1.0
102
RTVSPost2010PropOp56
 70
     1
102
RTVSPost2010Prop57
140
1.0
102
RTVSPost2010PropOp57
 70
     1
  0
XRECORD
  5
103
102
{ACAD_REACTORS
330
102
102
}
330
102
100
AcDbXrecord
280
     1
102
RTVSPost2010Prop28
280
     0
102
RTVSPost2010PropOp28
 70
     1
102
RTVSPost2010Prop29
280
     1
102
RTVSPost2010PropOp29
 70
     1
102
RTVSPost2010Prop30
280
     1
102
RTVSPost2010PropOp30
 70
     1
102
RTVSPost2010Prop31
280
     0
102
RTVSPost2010PropOp31
 70
     1
102
RTVSPost2010Prop32
280
     0
102
RTVSPost2010PropOp32
 70
     1
102
RTVSPost2010Prop33
280
     0
102
RTVSPost2010PropOp33
 70
     1
102
RTVSPost2010Prop34
280
     0
102
RTVSPost2010PropOp34
 70
     1
102
RTVSPost2010Prop35
280
     0
102
RTVSPost2010PropOp35
 70
     1
102
RTVSPost2010Prop36
280
     0
102
RTVSPost2010PropOp36
 70
     1
102
RTVSPost2010Prop37
 90
       50
102
RTVSPost2010PropOp37
 70
     1
102
RTVSPost2010Prop38
140
0.0
102
RTVSPost2010PropOp38
 70
     1
102
RTVSPost2010Prop39
140
1.0
102
RTVSPost2010PropOp39
 70
     1
102
RTVSPost2010Prop40
 90
        0
102
RTVSPost2010PropOp40
 70
     1
102
RTVSPost2010Prop41ColorIndex
 90
       18
102
RTVSPost2010Prop41ColorRGB
 90
        0
102
RTVSPost2010PropOp41
 70
     1
102
RTVSPost2010Prop42
 90
       50
102
RTVSPost2010PropOp42
 70
     1
102
RTVSPost2010Prop43
 90
        3
102
RTVSPost2010PropOp43
 70
     1
102
RTVSPost2010Prop44ColorIndex
 90
        5
102
RTVSPost2010Prop44ColorRGB
 90
      255
102
RTVSPost2010PropOp44
 70
     1
102
RTVSPost2010Prop45
280
     0
102
RTVSPost2010PropOp45
 70
     1
102
RTVSPost2010Prop46
 90
       50
102
RTVSPost2010PropOp46
 70
     1
102
RTVSPost2010Prop47
 90
       50
102
RTVSPost2010PropOp47
 70
     1
102
RTVSPost2010Prop48
 90
       50
102
RTVSPost2010PropOp48
 70
     1
102
RTVSPost2010Prop49
280
     0
102
RTVSPost2010PropOp49
 70
     1
102
RTVSPost2010Prop50
 90
       50
102
RTVSPost2010PropOp50
 70
     1
102
RTVSPost2010Prop51ColorIndex
 90
      256
102
RTVSPost2010Prop51ColorRGB
 90
-16777216
102
RTVSPost2010PropOp51
 70
     0
102
RTVSPost2010Prop52
140
1.0
102
RTVSPost2010PropOp52
 70
     0
102
RTVSPost2010Prop53
 90
        2
102
RTVSPost2010PropOp53
 70
     1
102
RTVSPost2010Prop54
  1
strokes_ogs.tif
102
RTVSPost2010PropOp54
 70
     1
102
RTVSPost2010Prop55
280
     0
102
RTVSPost2010PropOp55
 70
     1
102
RTVSPost2010Prop56
140
1.0
102
RTVSPost2010PropOp56
 70
     1
102
RTVSPost2010Prop57
140
1.0
102
RTVSPost2010PropOp57
 70
     1
  0
XRECORD
  5
111
102
{ACAD_REACTORS
330
110
102
}
330
110
100
AcDbXrecord
280
     1
102
RTVSPost2010Prop28
280
     0
102
RTVSPost2010PropOp28
 70
     1
102
RTVSPost2010Prop29
280
     1
102
RTVSPost2010PropOp29
 70
     1
102
RTVSPost2010Prop30
280
     1
102
RTVSPost2010PropOp30
 70
     1
102
RTVSPost2010Prop31
280
     0
102
RTVSPost2010PropOp31
 70
     1
102
RTVSPost2010Prop32
280
     0
102
RTVSPost2010PropOp32
 70
     1
102
RTVSPost2010Prop33
280
     0
102
RTVSPost2010PropOp33
 70
     1
102
RTVSPost2010Prop34
280
     0
102
RTVSPost2010PropOp34
 70
     1
102
RTVSPost2010Prop35
280
     0
102
RTVSPost2010PropOp35
 70
     1
102
RTVSPost2010Prop36
280
     0
102
RTVSPost2010PropOp36
 70
     1
102
RTVSPost2010Prop37
 90
       50
102
RTVSPost2010PropOp37
 70
     1
102
RTVSPost2010Prop38
140
0.0
102
RTVSPost2010PropOp38
 70
     1
102
RTVSPost2010Prop39
140
1.0
102
RTVSPost2010PropOp39
 70
     1
102
RTVSPost2010Prop40
 90
        0
102
RTVSPost2010PropOp40
 70
     1
102
RTVSPost2010Prop41ColorIndex
 90
       18
102
RTVSPost2010Prop41ColorRGB
 90
        0
102
RTVSPost2010PropOp41
 70
     1
102
RTVSPost2010Prop42
 90
       50
102
RTVSPost2010PropOp42
 70
     1
102
RTVSPost2010Prop43
 90
        3
102
RTVSPost2010PropOp43
 70
     1
102
RTVSPost2010Prop44ColorIndex
 90
        5
102
RTVSPost2010Prop44ColorRGB
 90
      255
102
RTVSPost2010PropOp44
 70
     1
102
RTVSPost2010Prop45
280
     0
102
RTVSPost2010PropOp45
 70
     1
102
RTVSPost2010Prop46
 90
       50
102
RTVSPost2010PropOp46
 70
     1
102
RTVSPost2010Prop47
 90
       50
102
RTVSPost2010PropOp47
 70
     1
102
RTVSPost2010Prop48
 90
       50
102
RTVSPost2010PropOp48
 70
     1
102
RTVSPost2010Prop49
280
     0
102
RTVSPost2010PropOp49
 70
     1
102
RTVSPost2010Prop50
 90
       50
102
RTVSPost2010PropOp50
 70
     1
102
RTVSPost2010Prop51ColorIndex
 90
      256
102
RTVSPost2010Prop51ColorRGB
 90
-16777216
102
RTVSPost2010PropOp51
 70
     0
102
RTVSPost2010Prop52
140
1.0
102
RTVSPost2010PropOp52
 70
     0
102
RTVSPost2010Prop53
 90
        2
102
RTVSPost2010PropOp53
 70
     1
102
RTVSPost2010Prop54
  1
strokes_ogs.tif
102
RTVSPost2010PropOp54
 70
     1
102
RTVSPost2010Prop55
280
     0
102
RTVSPost2010PropOp55
 70
     1
102
RTVSPost2010Prop56
140
1.0
102
RTVSPost2010PropOp56
 70
     1
102
RTVSPost2010Prop57
140
1.0
102
RTVSPost2010PropOp57
 70
     1
  0
XRECORD
  5
119
102
{ACAD_REACTORS
330
118
102
}
330
118
100
AcDbXrecord
280
     1
102
RTVSPost2010Prop28
280
     0
102
RTVSPost2010PropOp28
 70
     1
102
RTVSPost2010Prop29
280
     1
102
RTVSPost2010PropOp29
 70
     1
102
RTVSPost2010Prop30
280
     1
102
RTVSPost2010PropOp30
 70
     1
102
RTVSPost2010Prop31
280
     0
102
RTVSPost2010PropOp31
 70
     1
102
RTVSPost2010Prop32
280
     0
102
RTVSPost2010PropOp32
 70
     1
102
RTVSPost2010Prop33
280
     0
102
RTVSPost2010PropOp33
 70
     1
102
RTVSPost2010Prop34
280
     0
102
RTVSPost2010PropOp34
 70
     1
102
RTVSPost2010Prop35
280
     0
102
RTVSPost2010PropOp35
 70
     1
102
RTVSPost2010Prop36
280
     0
102
RTVSPost2010PropOp36
 70
     1
102
RTVSPost2010Prop37
 90
       50
102
RTVSPost2010PropOp37
 70
     1
102
RTVSPost2010Prop38
140
0.0
102
RTVSPost2010PropOp38
 70
     1
102
RTVSPost2010Prop39
140
1.0
102
RTVSPost2010PropOp39
 70
     1
102
RTVSPost2010Prop40
 90
        0
102
RTVSPost2010PropOp40
 70
     1
102
RTVSPost2010Prop41ColorIndex
 90
       18
102
RTVSPost2010Prop41ColorRGB
 90
        0
102
RTVSPost2010PropOp41
 70
     1
102
RTVSPost2010Prop42
 90
       50
102
RTVSPost2010PropOp42
 70
     1
102
RTVSPost2010Prop43
 90
        3
102
RTVSPost2010PropOp43
 70
     1
102
RTVSPost2010Prop44ColorIndex
 90
        5
102
RTVSPost2010Prop44ColorRGB
 90
      255
102
RTVSPost2010PropOp44
 70
     1
102
RTVSPost2010Prop45
280
     0
102
RTVSPost2010PropOp45
 70
     1
102
RTVSPost2010Prop46
 90
       50
102
RTVSPost2010PropOp46
 70
     1
102
RTVSPost2010Prop47
 90
       50
102
RTVSPost2010PropOp47
 70
     1
102
RTVSPost2010Prop48
 90
       50
102
RTVSPost2010PropOp48
 70
     1
102
RTVSPost2010Prop49
280
     0
102
RTVSPost2010PropOp49
 70
     1
102
RTVSPost2010Prop50
 90
       50
102
RTVSPost2010PropOp50
 70
     1
102
RTVSPost2010Prop51ColorIndex
 90
      256
102
RTVSPost2010Prop51ColorRGB
 90
-16777216
102
RTVSPost2010PropOp51
 70
     0
102
RTVSPost2010Prop52
140
1.0
102
RTVSPost2010PropOp52
 70
     0
102
RTVSPost2010Prop53
 90
        2
102
RTVSPost2010PropOp53
 70
     1
102
RTVSPost2010Prop54
  1
strokes_ogs.tif
102
RTVSPost2010PropOp54
 70
     1
102
RTVSPost2010Prop55
280
     0
102
RTVSPost2010PropOp55
 70
     1
102
RTVSPost2010Prop56
140
1.0
102
RTVSPost2010PropOp56
 70
     1
102
RTVSPost2010Prop57
140
1.0
102
RTVSPost2010PropOp57
 70
     1
  0
XRECORD
  5
10B
102
{ACAD_REACTORS
330
10A
102
}
330
10A
100
AcDbXrecord
280
     1
102
RTVSPost2010Prop28
280
     0
102
RTVSPost2010PropOp28
 70
     1
102
RTVSPost2010Prop29
280
     1
102
RTVSPost2010PropOp29
 70
     1
102
RTVSPost2010Prop30
280
     1
102
RTVSPost2010PropOp30
 70
     1
102
RTVSPost2010Prop31
280
     0
102
RTVSPost2010PropOp31
 70
     1
102
RTVSPost2010Prop32
280
     0
102
RTVSPost2010PropOp32
 70
     1
102
RTVSPost2010Prop33
280
     0
102
RTVSPost2010PropOp33
 70
     1
102
RTVSPost2010Prop34
280
     0
102
RTVSPost2010PropOp34
 70
     1
102
RTVSPost2010Prop35
280
     0
102
RTVSPost2010PropOp35
 70
     1
102
RTVSPost2010Prop36
280
     0
102
RTVSPost2010PropOp36
 70
     1
102
RTVSPost2010Prop37
 90
       50
102
RTVSPost2010PropOp37
 70
     1
102
RTVSPost2010Prop38
140
0.0
102
RTVSPost2010PropOp38
 70
     1
102
RTVSPost2010Prop39
140
1.0
102
RTVSPost2010PropOp39
 70
     1
102
RTVSPost2010Prop40
 90
        0
102
RTVSPost2010PropOp40
 70
     1
102
RTVSPost2010Prop41ColorIndex
 90
       18
102
RTVSPost2010Prop41ColorRGB
 90
        0
102
RTVSPost2010PropOp41
 70
     1
102
RTVSPost2010Prop42
 90
       50
102
RTVSPost2010PropOp42
 70
     1
102
RTVSPost2010Prop43
 90
        3
102
RTVSPost2010PropOp43
 70
     1
102
RTVSPost2010Prop44ColorIndex
 90
        5
102
RTVSPost2010Prop44ColorRGB
 90
      255
102
RTVSPost2010PropOp44
 70
     1
102
RTVSPost2010Prop45
280
     0
102
RTVSPost2010PropOp45
 70
     1
102
RTVSPost2010Prop46
 90
       50
102
RTVSPost2010PropOp46
 70
     1
102
RTVSPost2010Prop47
 90
       50
102
RTVSPost2010PropOp47
 70
     1
102
RTVSPost2010Prop48
 90
       50
102
RTVSPost2010PropOp48
 70
     1
102
RTVSPost2010Prop49
280
     0
102
RTVSPost2010PropOp49
 70
     1
102
RTVSPost2010Prop50
 90
       50
102
RTVSPost2010PropOp50
 70
     1
102
RTVSPost2010Prop51ColorIndex
 90
      256
102
RTVSPost2010Prop51ColorRGB
 90
-16777216
102
RTVSPost2010PropOp51
 70
     0
102
RTVSPost2010Prop52
140
1.0
102
RTVSPost2010PropOp52
 70
     0
102
RTVSPost2010Prop53
 90
        2
102
RTVSPost2010PropOp53
 70
     1
102
RTVSPost2010Prop54
  1
strokes_ogs.tif
102
RTVSPost2010PropOp54
 70
     1
102
RTVSPost2010Prop55
280
     0
102
RTVSPost2010PropOp55
 70
     1
102
RTVSPost2010Prop56
140
1.0
102
RTVSPost2010PropOp56
 70
     1
102
RTVSPost2010Prop57
140
1.0
102
RTVSPost2010PropOp57
 70
     1
  0
XRECORD
  5
10F
102
{ACAD_REACTORS
330
10E
102
}
330
10E
100
AcDbXrecord
280
     1
102
RTVSPost2010Prop28
280
     0
102
RTVSPost2010PropOp28
 70
     1
102
RTVSPost2010Prop29
280
     1
102
RTVSPost2010PropOp29
 70
     1
102
RTVSPost2010Prop30
280
     1
102
RTVSPost2010PropOp30
 70
     1
102
RTVSPost2010Prop31
280
     0
102
RTVSPost2010PropOp31
 70
     1
102
RTVSPost2010Prop32
280
     0
102
RTVSPost2010PropOp32
 70
     1
102
RTVSPost2010Prop33
280
     0
102
RTVSPost2010PropOp33
 70
     1
102
RTVSPost2010Prop34
280
     0
102
RTVSPost2010PropOp34
 70
     1
102
RTVSPost2010Prop35
280
     0
102
RTVSPost2010PropOp35
 70
     1
102
RTVSPost2010Prop36
280
     0
102
RTVSPost2010PropOp36
 70
     1
102
RTVSPost2010Prop37
 90
       50
102
RTVSPost2010PropOp37
 70
     1
102
RTVSPost2010Prop38
140
0.0
102
RTVSPost2010PropOp38
 70
     1
102
RTVSPost2010Prop39
140
1.0
102
RTVSPost2010PropOp39
 70
     1
102
RTVSPost2010Prop40
 90
        0
102
RTVSPost2010PropOp40
 70
     1
102
RTVSPost2010Prop41ColorIndex
 90
       18
102
RTVSPost2010Prop41ColorRGB
 90
        0
102
RTVSPost2010PropOp41
 70
     1
102
RTVSPost2010Prop42
 90
       50
102
RTVSPost2010PropOp42
 70
     1
102
RTVSPost2010Prop43
 90
        3
102
RTVSPost2010PropOp43
 70
     1
102
RTVSPost2010Prop44ColorIndex
 90
        5
102
RTVSPost2010Prop44ColorRGB
 90
      255
102
RTVSPost2010PropOp44
 70
     1
102
RTVSPost2010Prop45
280
     0
102
RTVSPost2010PropOp45
 70
     1
102
RTVSPost2010Prop46
 90
       50
102
RTVSPost2010PropOp46
 70
     1
102
RTVSPost2010Prop47
 90
       50
102
RTVSPost2010PropOp47
 70
     1
102
RTVSPost2010Prop48
 90
       50
102
RTVSPost2010PropOp48
 70
     1
102
RTVSPost2010Prop49
280
     0
102
RTVSPost2010PropOp49
 70
     1
102
RTVSPost2010Prop50
 90
       50
102
RTVSPost2010PropOp50
 70
     1
102
RTVSPost2010Prop51ColorIndex
 90
      256
102
RTVSPost2010Prop51ColorRGB
 90
-16777216
102
RTVSPost2010PropOp51
 70
     0
102
RTVSPost2010Prop52
140
1.0
102
RTVSPost2010PropOp52
 70
     0
102
RTVSPost2010Prop53
 90
        2
102
RTVSPost2010PropOp53
 70
     1
102
RTVSPost2010Prop54
  1
strokes_ogs.tif
102
RTVSPost2010PropOp54
 70
     1
102
RTVSPost2010Prop55
280
     0
102
RTVSPost2010PropOp55
 70
     1
102
RTVSPost2010Prop56
140
1.0
102
RTVSPost2010PropOp56
 70
     1
102
RTVSPost2010Prop57
140
1.0
102
RTVSPost2010PropOp57
 70
     1
  0
XRECORD
  5
129
102
{ACAD_REACTORS
330
128
102
}
330
128
100
AcDbXrecord
280
     1
102
RTVSPost2010Prop28
280
     0
102
RTVSPost2010PropOp28
 70
     0
102
RTVSPost2010Prop29
280
     1
102
RTVSPost2010PropOp29
 70
     0
102
RTVSPost2010Prop30
280
     1
102
RTVSPost2010PropOp30
 70
     0
102
RTVSPost2010Prop31
280
     0
102
RTVSPost2010PropOp31
 70
     0
102
RTVSPost2010Prop32
280
     0
102
RTVSPost2010PropOp32
 70
     0
102
RTVSPost2010Prop33
280
     0
102
RTVSPost2010PropOp33
 70
     0
102
RTVSPost2010Prop34
280
     0
102
RTVSPost2010PropOp34
 70
     0
102
RTVSPost2010Prop35
280
     0
102
RTVSPost2010PropOp35
 70
     0
102
RTVSPost2010Prop36
280
     0
102
RTVSPost2010PropOp36
 70
     0
102
RTVSPost2010Prop37
 90
       50
102
RTVSPost2010PropOp37
 70
     0
102
RTVSPost2010Prop38
140
0.0
102
RTVSPost2010PropOp38
 70
     0
102
RTVSPost2010Prop39
140
1.0
102
RTVSPost2010PropOp39
 70
     0
102
RTVSPost2010Prop40
 90
        0
102
RTVSPost2010PropOp40
 70
     0
102
RTVSPost2010Prop41ColorIndex
 90
       18
102
RTVSPost2010Prop41ColorRGB
 90
        0
102
RTVSPost2010PropOp41
 70
     0
102
RTVSPost2010Prop42
 90
       50
102
RTVSPost2010PropOp42
 70
     0
102
RTVSPost2010Prop43
 90
        3
102
RTVSPost2010PropOp43
 70
     0
102
RTVSPost2010Prop44ColorIndex
 90
        5
102
RTVSPost2010Prop44ColorRGB
 90
      255
102
RTVSPost2010PropOp44
 70
     0
102
RTVSPost2010Prop45
280
     0
102
RTVSPost2010PropOp45
 70
     0
102
RTVSPost2010Prop46
 90
       50
102
RTVSPost2010PropOp46
 70
     0
102
RTVSPost2010Prop47
 90
       50
102
RTVSPost2010PropOp47
 70
     0
102
RTVSPost2010Prop48
 90
       50
102
RTVSPost2010PropOp48
 70
     0
102
RTVSPost2010Prop49
280
     0
102
RTVSPost2010PropOp49
 70
     0
102
RTVSPost2010Prop50
 90
       50
102
RTVSPost2010PropOp50
 70
     0
102
RTVSPost2010Prop51ColorIndex
 90
      256
102
RTVSPost2010Prop51ColorRGB
 90
-16777216
102
RTVSPost2010PropOp51
 70
     0
102
RTVSPost2010Prop52
140
1.0
102
RTVSPost2010PropOp52
 70
     0
102
RTVSPost2010Prop53
 90
        2
102
RTVSPost2010PropOp53
 70
     0
102
RTVSPost2010Prop54
  1
strokes_ogs.tif
102
RTVSPost2010PropOp54
 70
     0
102
RTVSPost2010Prop55
280
     0
102
RTVSPost2010PropOp55
 70
     0
102
RTVSPost2010Prop56
140
1.0
102
RTVSPost2010PropOp56
 70
     0
102
RTVSPost2010Prop57
140
1.0
102
RTVSPost2010PropOp57
 70
     0
  0
XRECORD
  5
117
102
{ACAD_REACTORS
330
116
102
}
330
116
100
AcDbXrecord
280
     1
102
RTVSPost2010Prop28
280
     0
102
RTVSPost2010PropOp28
 70
     1
102
RTVSPost2010Prop29
280
     1
102
RTVSPost2010PropOp29
 70
     1
102
RTVSPost2010Prop30
280
     1
102
RTVSPost2010PropOp30
 70
     1
102
RTVSPost2010Prop31
280
     0
102
RTVSPost2010PropOp31
 70
     1
102
RTVSPost2010Prop32
280
     0
102
RTVSPost2010PropOp32
 70
     1
102
RTVSPost2010Prop33
280
     0
102
RTVSPost2010PropOp33
 70
     1
102
RTVSPost2010Prop34
280
     0
102
RTVSPost2010PropOp34
 70
     1
102
RTVSPost2010Prop35
280
     0
102
RTVSPost2010PropOp35
 70
     1
102
RTVSPost2010Prop36
280
     0
102
RTVSPost2010PropOp36
 70
     1
102
RTVSPost2010Prop37
 90
       50
102
RTVSPost2010PropOp37
 70
     1
102
RTVSPost2010Prop38
140
0.0
102
RTVSPost2010PropOp38
 70
     1
102
RTVSPost2010Prop39
140
1.0
102
RTVSPost2010PropOp39
 70
     1
102
RTVSPost2010Prop40
 90
        0
102
RTVSPost2010PropOp40
 70
     1
102
RTVSPost2010Prop41ColorIndex
 90
       18
102
RTVSPost2010Prop41ColorRGB
 90
        0
102
RTVSPost2010PropOp41
 70
     1
102
RTVSPost2010Prop42
 90
       50
102
RTVSPost2010PropOp42
 70
     1
102
RTVSPost2010Prop43
 90
        3
102
RTVSPost2010PropOp43
 70
     1
102
RTVSPost2010Prop44ColorIndex
 90
        5
102
RTVSPost2010Prop44ColorRGB
 90
      255
102
RTVSPost2010PropOp44
 70
     1
102
RTVSPost2010Prop45
280
     0
102
RTVSPost2010PropOp45
 70
     1
102
RTVSPost2010Prop46
 90
       50
102
RTVSPost2010PropOp46
 70
     1
102
RTVSPost2010Prop47
 90
       50
102
RTVSPost2010PropOp47
 70
     1
102
RTVSPost2010Prop48
 90
       50
102
RTVSPost2010PropOp48
 70
     1
102
RTVSPost2010Prop49
280
     0
102
RTVSPost2010PropOp49
 70
     1
102
RTVSPost2010Prop50
 90
       50
102
RTVSPost2010PropOp50
 70
     1
102
RTVSPost2010Prop51ColorIndex
 90
      256
102
RTVSPost2010Prop51ColorRGB
 90
-16777216
102
RTVSPost2010PropOp51
 70
     0
102
RTVSPost2010Prop52
140
1.0
102
RTVSPost2010PropOp52
 70
     0
102
RTVSPost2010Prop53
 90
        2
102
RTVSPost2010PropOp53
 70
     1
102
RTVSPost2010Prop54
  1
strokes_ogs.tif
102
RTVSPost2010PropOp54
 70
     1
102
RTVSPost2010Prop55
280
     0
102
RTVSPost2010PropOp55
 70
     1
102
RTVSPost2010Prop56
140
1.0
102
RTVSPost2010PropOp56
 70
     1
102
RTVSPost2010Prop57
140
1.0
102
RTVSPost2010PropOp57
 70
     1
  0
XRECORD
  5
FB
102
{ACAD_REACTORS
330
FA
102
}
330
FA
100
AcDbXrecord
280
     1
102
RTVSPost2010Prop28
280
     0
102
RTVSPost2010PropOp28
 70
     1
102
RTVSPost2010Prop29
280
     1
102
RTVSPost2010PropOp29
 70
     1
102
RTVSPost2010Prop30
280
     1
102
RTVSPost2010PropOp30
 70
     1
102
RTVSPost2010Prop31
280
     0
102
RTVSPost2010PropOp31
 70
     1
102
RTVSPost2010Prop32
280
     0
102
RTVSPost2010PropOp32
 70
     1
102
RTVSPost2010Prop33
280
     0
102
RTVSPost2010PropOp33
 70
     1
102
RTVSPost2010Prop34
280
     0
102
RTVSPost2010PropOp34
 70
     1
102
RTVSPost2010Prop35
280
     0
102
RTVSPost2010PropOp35
 70
     1
102
RTVSPost2010Prop36
280
     0
102
RTVSPost2010PropOp36
 70
     1
102
RTVSPost2010Prop37
 90
       50
102
RTVSPost2010PropOp37
 70
     1
102
RTVSPost2010Prop38
140
0.0
102
RTVSPost2010PropOp38
 70
     1
102
RTVSPost2010Prop39
140
1.0
102
RTVSPost2010PropOp39
 70
     1
102
RTVSPost2010Prop40
 90
        0
102
RTVSPost2010PropOp40
 70
     1
102
RTVSPost2010Prop41ColorIndex
 90
       18
102
RTVSPost2010Prop41ColorRGB
 90
        0
102
RTVSPost2010PropOp41
 70
     1
102
RTVSPost2010Prop42
 90
       50
102
RTVSPost2010PropOp42
 70
     1
102
RTVSPost2010Prop43
 90
        3
102
RTVSPost2010PropOp43
 70
     1
102
RTVSPost2010Prop44ColorIndex
 90
        5
102
RTVSPost2010Prop44ColorRGB
 90
      255
102
RTVSPost2010PropOp44
 70
     1
102
RTVSPost2010Prop45
280
     0
102
RTVSPost2010PropOp45
 70
     1
102
RTVSPost2010Prop46
 90
       50
102
RTVSPost2010PropOp46
 70
     1
102
RTVSPost2010Prop47
 90
       50
102
RTVSPost2010PropOp47
 70
     1
102
RTVSPost2010Prop48
 90
       50
102
RTVSPost2010PropOp48
 70
     1
102
RTVSPost2010Prop49
280
     0
102
RTVSPost2010PropOp49
 70
     1
102
RTVSPost2010Prop50
 90
       50
102
RTVSPost2010PropOp50
 70
     1
102
RTVSPost2010Prop51ColorIndex
 90
      256
102
RTVSPost2010Prop51ColorRGB
 90
-16777216
102
RTVSPost2010PropOp51
 70
     0
102
RTVSPost2010Prop52
140
1.0
102
RTVSPost2010PropOp52
 70
     0
102
RTVSPost2010Prop53
 90
        2
102
RTVSPost2010PropOp53
 70
     1
102
RTVSPost2010Prop54
  1
strokes_ogs.tif
102
RTVSPost2010PropOp54
 70
     1
102
RTVSPost2010Prop55
280
     0
102
RTVSPost2010PropOp55
 70
     1
102
RTVSPost2010Prop56
140
1.0
102
RTVSPost2010PropOp56
 70
     1
102
RTVSPost2010Prop57
140
1.0
102
RTVSPost2010PropOp57
 70
     1
  0
XRECORD
  5
FD
102
{ACAD_REACTORS
330
FC
102
}
330
FC
100
AcDbXrecord
280
     1
102
RTVSPost2010Prop28
280
     0
102
RTVSPost2010PropOp28
 70
     1
102
RTVSPost2010Prop29
280
     1
102
RTVSPost2010PropOp29
 70
     1
102
RTVSPost2010Prop30
280
     1
102
RTVSPost2010PropOp30
 70
     1
102
RTVSPost2010Prop31
280
     0
102
RTVSPost2010PropOp31
 70
     1
102
RTVSPost2010Prop32
280
     0
102
RTVSPost2010PropOp32
 70
     1
102
RTVSPost2010Prop33
280
     0
102
RTVSPost2010PropOp33
 70
     1
102
RTVSPost2010Prop34
280
     0
102
RTVSPost2010PropOp34
 70
     1
102
RTVSPost2010Prop35
280
     0
102
RTVSPost2010PropOp35
 70
     1
102
RTVSPost2010Prop36
280
     0
102
RTVSPost2010PropOp36
 70
     1
102
RTVSPost2010Prop37
 90
       50
102
RTVSPost2010PropOp37
 70
     1
102
RTVSPost2010Prop38
140
0.0
102
RTVSPost2010PropOp38
 70
     1
102
RTVSPost2010Prop39
140
1.0
102
RTVSPost2010PropOp39
 70
     1
102
RTVSPost2010Prop40
 90
        0
102
RTVSPost2010PropOp40
 70
     1
102
RTVSPost2010Prop41ColorIndex
 90
       18
102
RTVSPost2010Prop41ColorRGB
 90
        0
102
RTVSPost2010PropOp41
 70
     1
102
RTVSPost2010Prop42
 90
       50
102
RTVSPost2010PropOp42
 70
     1
102
RTVSPost2010Prop43
 90
        3
102
RTVSPost2010PropOp43
 70
     1
102
RTVSPost2010Prop44ColorIndex
 90
        5
102
RTVSPost2010Prop44ColorRGB
 90
      255
102
RTVSPost2010PropOp44
 70
     1
102
RTVSPost2010Prop45
280
     0
102
RTVSPost2010PropOp45
 70
     1
102
RTVSPost2010Prop46
 90
       50
102
RTVSPost2010PropOp46
 70
     1
102
RTVSPost2010Prop47
 90
       50
102
RTVSPost2010PropOp47
 70
     1
102
RTVSPost2010Prop48
 90
       50
102
RTVSPost2010PropOp48
 70
     1
102
RTVSPost2010Prop49
280
     0
102
RTVSPost2010PropOp49
 70
     1
102
RTVSPost2010Prop50
 90
       50
102
RTVSPost2010PropOp50
 70
     1
102
RTVSPost2010Prop51ColorIndex
 90
      256
102
RTVSPost2010Prop51ColorRGB
 90
-16777216
102
RTVSPost2010PropOp51
 70
     0
102
RTVSPost2010Prop52
140
1.0
102
RTVSPost2010PropOp52
 70
     0
102
RTVSPost2010Prop53
 90
        2
102
RTVSPost2010PropOp53
 70
     1
102
RTVSPost2010Prop54
  1
strokes_ogs.tif
102
RTVSPost2010PropOp54
 70
     1
102
RTVSPost2010Prop55
280
     0
102
RTVSPost2010PropOp55
 70
     1
102
RTVSPost2010Prop56
140
1.0
102
RTVSPost2010PropOp56
 70
     1
102
RTVSPost2010Prop57
140
1.0
102
RTVSPost2010PropOp57
 70
     1
  0
XRECORD
  5
FF
102
{ACAD_REACTORS
330
FE
102
}
330
FE
100
AcDbXrecord
280
     1
102
RTVSPost2010Prop28
280
     0
102
RTVSPost2010PropOp28
 70
     1
102
RTVSPost2010Prop29
280
     1
102
RTVSPost2010PropOp29
 70
     1
102
RTVSPost2010Prop30
280
     1
102
RTVSPost2010PropOp30
 70
     1
102
RTVSPost2010Prop31
280
     0
102
RTVSPost2010PropOp31
 70
     1
102
RTVSPost2010Prop32
280
     0
102
RTVSPost2010PropOp32
 70
     1
102
RTVSPost2010Prop33
280
     0
102
RTVSPost2010PropOp33
 70
     1
102
RTVSPost2010Prop34
280
     0
102
RTVSPost2010PropOp34
 70
     1
102
RTVSPost2010Prop35
280
     0
102
RTVSPost2010PropOp35
 70
     1
102
RTVSPost2010Prop36
280
     0
102
RTVSPost2010PropOp36
 70
     1
102
RTVSPost2010Prop37
 90
       50
102
RTVSPost2010PropOp37
 70
     1
102
RTVSPost2010Prop38
140
0.0
102
RTVSPost2010PropOp38
 70
     1
102
RTVSPost2010Prop39
140
1.0
102
RTVSPost2010PropOp39
 70
     1
102
RTVSPost2010Prop40
 90
        0
102
RTVSPost2010PropOp40
 70
     1
102
RTVSPost2010Prop41ColorIndex
 90
       18
102
RTVSPost2010Prop41ColorRGB
 90
        0
102
RTVSPost2010PropOp41
 70
     1
102
RTVSPost2010Prop42
 90
       50
102
RTVSPost2010PropOp42
 70
     1
102
RTVSPost2010Prop43
 90
        3
102
RTVSPost2010PropOp43
 70
     1
102
RTVSPost2010Prop44ColorIndex
 90
        5
102
RTVSPost2010Prop44ColorRGB
 90
      255
102
RTVSPost2010PropOp44
 70
     1
102
RTVSPost2010Prop45
280
     0
102
RTVSPost2010PropOp45
 70
     1
102
RTVSPost2010Prop46
 90
       50
102
RTVSPost2010PropOp46
 70
     1
102
RTVSPost2010Prop47
 90
       50
102
RTVSPost2010PropOp47
 70
     1
102
RTVSPost2010Prop48
 90
       50
102
RTVSPost2010PropOp48
 70
     1
102
RTVSPost2010Prop49
280
     0
102
RTVSPost2010PropOp49
 70
     1
102
RTVSPost2010Prop50
 90
       50
102
RTVSPost2010PropOp50
 70
     1
102
RTVSPost2010Prop51ColorIndex
 90
      256
102
RTVSPost2010Prop51ColorRGB
 90
-16777216
102
RTVSPost2010PropOp51
 70
     0
102
RTVSPost2010Prop52
140
1.0
102
RTVSPost2010PropOp52
 70
     0
102
RTVSPost2010Prop53
 90
        2
102
RTVSPost2010PropOp53
 70
     1
102
RTVSPost2010Prop54
  1
strokes_ogs.tif
102
RTVSPost2010PropOp54
 70
     1
102
RTVSPost2010Prop55
280
     0
102
RTVSPost2010PropOp55
 70
     1
102
RTVSPost2010Prop56
140
1.0
102
RTVSPost2010PropOp56
 70
     1
102
RTVSPost2010Prop57
140
1.0
102
RTVSPost2010PropOp57
 70
     1
  0
XRECORD
  5
101
102
{ACAD_REACTORS
330
100
102
}
330
100
100
AcDbXrecord
280
     1
102
RTVSPost2010Prop28
280
     0
102
RTVSPost2010PropOp28
 70
     1
102
RTVSPost2010Prop29
280
     1
102
RTVSPost2010PropOp29
 70
     1
102
RTVSPost2010Prop30
280
     1
102
RTVSPost2010PropOp30
 70
     1
102
RTVSPost2010Prop31
280
     0
102
RTVSPost2010PropOp31
 70
     1
102
RTVSPost2010Prop32
280
     0
102
RTVSPost2010PropOp32
 70
     1
102
RTVSPost2010Prop33
280
     0
102
RTVSPost2010PropOp33
 70
     1
102
RTVSPost2010Prop34
280
     0
102
RTVSPost2010PropOp34
 70
     1
102
RTVSPost2010Prop35
280
     0
102
RTVSPost2010PropOp35
 70
     1
102
RTVSPost2010Prop36
280
     0
102
RTVSPost2010PropOp36
 70
     1
102
RTVSPost2010Prop37
 90
       50
102
RTVSPost2010PropOp37
 70
     1
102
RTVSPost2010Prop38
140
0.0
102
RTVSPost2010PropOp38
 70
     1
102
RTVSPost2010Prop39
140
1.0
102
RTVSPost2010PropOp39
 70
     1
102
RTVSPost2010Prop40
 90
        0
102
RTVSPost2010PropOp40
 70
     1
102
RTVSPost2010Prop41ColorIndex
 90
       18
102
RTVSPost2010Prop41ColorRGB
 90
        0
102
RTVSPost2010PropOp41
 70
     1
102
RTVSPost2010Prop42
 90
       50
102
RTVSPost2010PropOp42
 70
     1
102
RTVSPost2010Prop43
 90
        3
102
RTVSPost2010PropOp43
 70
     1
102
RTVSPost2010Prop44ColorIndex
 90
        5
102
RTVSPost2010Prop44ColorRGB
 90
      255
102
RTVSPost2010PropOp44
 70
     1
102
RTVSPost2010Prop45
280
     0
102
RTVSPost2010PropOp45
 70
     1
102
RTVSPost2010Prop46
 90
       50
102
RTVSPost2010PropOp46
 70
     1
102
RTVSPost2010Prop47
 90
       50
102
RTVSPost2010PropOp47
 70
     1
102
RTVSPost2010Prop48
 90
       50
102
RTVSPost2010PropOp48
 70
     1
102
RTVSPost2010Prop49
280
     0
102
RTVSPost2010PropOp49
 70
     1
102
RTVSPost2010Prop50
 90
       50
102
RTVSPost2010PropOp50
 70
     1
102
RTVSPost2010Prop51ColorIndex
 90
      256
102
RTVSPost2010Prop51ColorRGB
 90
-16777216
102
RTVSPost2010PropOp51
 70
     0
102
RTVSPost2010Prop52
140
1.0
102
RTVSPost2010PropOp52
 70
     0
102
RTVSPost2010Prop53
 90
        2
102
RTVSPost2010PropOp53
 70
     1
102
RTVSPost2010Prop54
  1
strokes_ogs.tif
102
RTVSPost2010PropOp54
 70
     1
102
RTVSPost2010Prop55
280
     0
102
RTVSPost2010PropOp55
 70
     1
102
RTVSPost2010Prop56
140
1.0
102
RTVSPost2010PropOp56
 70
     1
102
RTVSPost2010Prop57
140
1.0
102
RTVSPost2010PropOp57
 70
     1
  0
XRECORD
  5
109
102
{ACAD_REACTORS
330
108
102
}
330
108
100
AcDbXrecord
280
     1
102
RTVSPost2010Prop28
280
     0
102
RTVSPost2010PropOp28
 70
     1
102
RTVSPost2010Prop29
280
     1
102
RTVSPost2010PropOp29
 70
     1
102
RTVSPost2010Prop30
280
     1
102
RTVSPost2010PropOp30
 70
     1
102
RTVSPost2010Prop31
280
     0
102
RTVSPost2010PropOp31
 70
     1
102
RTVSPost2010Prop32
280
     0
102
RTVSPost2010PropOp32
 70
     1
102
RTVSPost2010Prop33
280
     0
102
RTVSPost2010PropOp33
 70
     1
102
RTVSPost2010Prop34
280
     0
102
RTVSPost2010PropOp34
 70
     1
102
RTVSPost2010Prop35
280
     0
102
RTVSPost2010PropOp35
 70
     1
102
RTVSPost2010Prop36
280
     0
102
RTVSPost2010PropOp36
 70
     1
102
RTVSPost2010Prop37
 90
       50
102
RTVSPost2010PropOp37
 70
     1
102
RTVSPost2010Prop38
140
0.0
102
RTVSPost2010PropOp38
 70
     1
102
RTVSPost2010Prop39
140
1.0
102
RTVSPost2010PropOp39
 70
     1
102
RTVSPost2010Prop40
 90
        0
102
RTVSPost2010PropOp40
 70
     1
102
RTVSPost2010Prop41ColorIndex
 90
       18
102
RTVSPost2010Prop41ColorRGB
 90
        0
102
RTVSPost2010PropOp41
 70
     1
102
RTVSPost2010Prop42
 90
       50
102
RTVSPost2010PropOp42
 70
     1
102
RTVSPost2010Prop43
 90
        3
102
RTVSPost2010PropOp43
 70
     1
102
RTVSPost2010Prop44ColorIndex
 90
        5
102
RTVSPost2010Prop44ColorRGB
 90
      255
102
RTVSPost2010PropOp44
 70
     1
102
RTVSPost2010Prop45
280
     0
102
RTVSPost2010PropOp45
 70
     1
102
RTVSPost2010Prop46
 90
       50
102
RTVSPost2010PropOp46
 70
     1
102
RTVSPost2010Prop47
 90
       50
102
RTVSPost2010PropOp47
 70
     1
102
RTVSPost2010Prop48
 90
       50
102
RTVSPost2010PropOp48
 70
     1
102
RTVSPost2010Prop49
280
     0
102
RTVSPost2010PropOp49
 70
     1
102
RTVSPost2010Prop50
 90
       50
102
RTVSPost2010PropOp50
 70
     1
102
RTVSPost2010Prop51ColorIndex
 90
      256
102
RTVSPost2010Prop51ColorRGB
 90
-16777216
102
RTVSPost2010PropOp51
 70
     0
102
RTVSPost2010Prop52
140
1.0
102
RTVSPost2010PropOp52
 70
     0
102
RTVSPost2010Prop53
 90
        2
102
RTVSPost2010PropOp53
 70
     1
102
RTVSPost2010Prop54
  1
strokes_ogs.tif
102
RTVSPost2010PropOp54
 70
     1
102
RTVSPost2010Prop55
280
     0
102
RTVSPost2010PropOp55
 70
     1
102
RTVSPost2010Prop56
140
1.0
102
RTVSPost2010PropOp56
 70
     1
102
RTVSPost2010Prop57
140
1.0
102
RTVSPost2010PropOp57
 70
     1
  0
XRECORD
  5
125
102
{ACAD_REACTORS
330
124
102
}
330
124
100
AcDbXrecord
280
     1
102
RTVSPost2010Prop28
280
     0
102
RTVSPost2010PropOp28
 70
     0
102
RTVSPost2010Prop29
280
     1
102
RTVSPost2010PropOp29
 70
     0
102
RTVSPost2010Prop30
280
     1
102
RTVSPost2010PropOp30
 70
     0
102
RTVSPost2010Prop31
280
     0
102
RTVSPost2010PropOp31
 70
     0
102
RTVSPost2010Prop32
280
     0
102
RTVSPost2010PropOp32
 70
     0
102
RTVSPost2010Prop33
280
     0
102
RTVSPost2010PropOp33
 70
     0
102
RTVSPost2010Prop34
280
     0
102
RTVSPost2010PropOp34
 70
     0
102
RTVSPost2010Prop35
280
     0
102
RTVSPost2010PropOp35
 70
     0
102
RTVSPost2010Prop36
280
     0
102
RTVSPost2010PropOp36
 70
     0
102
RTVSPost2010Prop37
 90
       50
102
RTVSPost2010PropOp37
 70
     0
102
RTVSPost2010Prop38
140
0.0
102
RTVSPost2010PropOp38
 70
     0
102
RTVSPost2010Prop39
140
1.0
102
RTVSPost2010PropOp39
 70
     0
102
RTVSPost2010Prop40
 90
        0
102
RTVSPost2010PropOp40
 70
     0
102
RTVSPost2010Prop41ColorIndex
 90
       18
102
RTVSPost2010Prop41ColorRGB
 90
        0
102
RTVSPost2010PropOp41
 70
     0
102
RTVSPost2010Prop42
 90
       50
102
RTVSPost2010PropOp42
 70
     0
102
RTVSPost2010Prop43
 90
        3
102
RTVSPost2010PropOp43
 70
     0
102
RTVSPost2010Prop44ColorIndex
 90
        5
102
RTVSPost2010Prop44ColorRGB
 90
      255
102
RTVSPost2010PropOp44
 70
     0
102
RTVSPost2010Prop45
280
     0
102
RTVSPost2010PropOp45
 70
     0
102
RTVSPost2010Prop46
 90
       50
102
RTVSPost2010PropOp46
 70
     0
102
RTVSPost2010Prop47
 90
       50
102
RTVSPost2010PropOp47
 70
     0
102
RTVSPost2010Prop48
 90
       50
102
RTVSPost2010PropOp48
 70
     0
102
RTVSPost2010Prop49
280
     0
102
RTVSPost2010PropOp49
 70
     0
102
RTVSPost2010Prop50
 90
       50
102
RTVSPost2010PropOp50
 70
     0
102
RTVSPost2010Prop51ColorIndex
 90
      256
102
RTVSPost2010Prop51ColorRGB
 90
-16777216
102
RTVSPost2010PropOp51
 70
     0
102
RTVSPost2010Prop52
140
1.0
102
RTVSPost2010PropOp52
 70
     0
102
RTVSPost2010Prop53
 90
        2
102
RTVSPost2010PropOp53
 70
     0
102
RTVSPost2010Prop54
  1
strokes_ogs.tif
102
RTVSPost2010PropOp54
 70
     0
102
RTVSPost2010Prop55
280
     0
102
RTVSPost2010PropOp55
 70
     0
102
RTVSPost2010Prop56
140
1.0
102
RTVSPost2010PropOp56
 70
     0
102
RTVSPost2010Prop57
140
1.0
102
RTVSPost2010PropOp57
 70
     0
  0
XRECORD
  5
115
102
{ACAD_REACTORS
330
114
102
}
330
114
100
AcDbXrecord
280
     1
102
RTVSPost2010Prop28
280
     0
102
RTVSPost2010PropOp28
 70
     1
102
RTVSPost2010Prop29
280
     1
102
RTVSPost2010PropOp29
 70
     1
102
RTVSPost2010Prop30
280
     1
102
RTVSPost2010PropOp30
 70
     1
102
RTVSPost2010Prop31
280
     0
102
RTVSPost2010PropOp31
 70
     1
102
RTVSPost2010Prop32
280
     0
102
RTVSPost2010PropOp32
 70
     1
102
RTVSPost2010Prop33
280
     0
102
RTVSPost2010PropOp33
 70
     1
102
RTVSPost2010Prop34
280
     0
102
RTVSPost2010PropOp34
 70
     1
102
RTVSPost2010Prop35
280
     0
102
RTVSPost2010PropOp35
 70
     1
102
RTVSPost2010Prop36
280
     0
102
RTVSPost2010PropOp36
 70
     1
102
RTVSPost2010Prop37
 90
       50
102
RTVSPost2010PropOp37
 70
     1
102
RTVSPost2010Prop38
140
0.0
102
RTVSPost2010PropOp38
 70
     1
102
RTVSPost2010Prop39
140
1.0
102
RTVSPost2010PropOp39
 70
     1
102
RTVSPost2010Prop40
 90
        0
102
RTVSPost2010PropOp40
 70
     1
102
RTVSPost2010Prop41ColorIndex
 90
       18
102
RTVSPost2010Prop41ColorRGB
 90
        0
102
RTVSPost2010PropOp41
 70
     1
102
RTVSPost2010Prop42
 90
       50
102
RTVSPost2010PropOp42
 70
     1
102
RTVSPost2010Prop43
 90
        3
102
RTVSPost2010PropOp43
 70
     1
102
RTVSPost2010Prop44ColorIndex
 90
        5
102
RTVSPost2010Prop44ColorRGB
 90
      255
102
RTVSPost2010PropOp44
 70
     1
102
RTVSPost2010Prop45
280
     0
102
RTVSPost2010PropOp45
 70
     1
102
RTVSPost2010Prop46
 90
       50
102
RTVSPost2010PropOp46
 70
     1
102
RTVSPost2010Prop47
 90
       50
102
RTVSPost2010PropOp47
 70
     1
102
RTVSPost2010Prop48
 90
       50
102
RTVSPost2010PropOp48
 70
     1
102
RTVSPost2010Prop49
280
     0
102
RTVSPost2010PropOp49
 70
     1
102
RTVSPost2010Prop50
 90
       50
102
RTVSPost2010PropOp50
 70
     1
102
RTVSPost2010Prop51ColorIndex
 90
      256
102
RTVSPost2010Prop51ColorRGB
 90
-16777216
102
RTVSPost2010PropOp51
 70
     0
102
RTVSPost2010Prop52
140
1.0
102
RTVSPost2010PropOp52
 70
     0
102
RTVSPost2010Prop53
 90
        2
102
RTVSPost2010PropOp53
 70
     1
102
RTVSPost2010Prop54
  1
strokes_ogs.tif
102
RTVSPost2010PropOp54
 70
     1
102
RTVSPost2010Prop55
280
     0
102
RTVSPost2010PropOp55
 70
     1
102
RTVSPost2010Prop56
140
1.0
102
RTVSPost2010PropOp56
 70
     1
102
RTVSPost2010Prop57
140
1.0
102
RTVSPost2010PropOp57
 70
     1
  0
XRECORD
  5
127
102
{ACAD_REACTORS
330
126
102
}
330
126
100
AcDbXrecord
280
     1
102
RTVSPost2010Prop28
280
     0
102
RTVSPost2010PropOp28
 70
     0
102
RTVSPost2010Prop29
280
     1
102
RTVSPost2010PropOp29
 70
     0
102
RTVSPost2010Prop30
280
     1
102
RTVSPost2010PropOp30
 70
     0
102
RTVSPost2010Prop31
280
     0
102
RTVSPost2010PropOp31
 70
     0
102
RTVSPost2010Prop32
280
     0
102
RTVSPost2010PropOp32
 70
     0
102
RTVSPost2010Prop33
280
     0
102
RTVSPost2010PropOp33
 70
     0
102
RTVSPost2010Prop34
280
     0
102
RTVSPost2010PropOp34
 70
     0
102
RTVSPost2010Prop35
280
     0
102
RTVSPost2010PropOp35
 70
     0
102
RTVSPost2010Prop36
280
     0
102
RTVSPost2010PropOp36
 70
     0
102
RTVSPost2010Prop37
 90
       50
102
RTVSPost2010PropOp37
 70
     0
102
RTVSPost2010Prop38
140
0.0
102
RTVSPost2010PropOp38
 70
     0
102
RTVSPost2010Prop39
140
1.0
102
RTVSPost2010PropOp39
 70
     0
102
RTVSPost2010Prop40
 90
        0
102
RTVSPost2010PropOp40
 70
     0
102
RTVSPost2010Prop41ColorIndex
 90
       18
102
RTVSPost2010Prop41ColorRGB
 90
        0
102
RTVSPost2010PropOp41
 70
     0
102
RTVSPost2010Prop42
 90
       50
102
RTVSPost2010PropOp42
 70
     0
102
RTVSPost2010Prop43
 90
        3
102
RTVSPost2010PropOp43
 70
     0
102
RTVSPost2010Prop44ColorIndex
 90
        5
102
RTVSPost2010Prop44ColorRGB
 90
      255
102
RTVSPost2010PropOp44
 70
     0
102
RTVSPost2010Prop45
280
     0
102
RTVSPost2010PropOp45
 70
     0
102
RTVSPost2010Prop46
 90
       50
102
RTVSPost2010PropOp46
 70
     0
102
RTVSPost2010Prop47
 90
       50
102
RTVSPost2010PropOp47
 70
     0
102
RTVSPost2010Prop48
 90
       50
102
RTVSPost2010PropOp48
 70
     0
102
RTVSPost2010Prop49
280
     0
102
RTVSPost2010PropOp49
 70
     0
102
RTVSPost2010Prop50
 90
       50
102
RTVSPost2010PropOp50
 70
     0
102
RTVSPost2010Prop51ColorIndex
 90
      256
102
RTVSPost2010Prop51ColorRGB
 90
-16777216
102
RTVSPost2010PropOp51
 70
     0
102
RTVSPost2010Prop52
140
1.0
102
RTVSPost2010PropOp52
 70
     0
102
RTVSPost2010Prop53
 90
        2
102
RTVSPost2010PropOp53
 70
     0
102
RTVSPost2010Prop54
  1
strokes_ogs.tif
102
RTVSPost2010PropOp54
 70
     0
102
RTVSPost2010Prop55
280
     0
102
RTVSPost2010PropOp55
 70
     0
102
RTVSPost2010Prop56
140
1.0
102
RTVSPost2010PropOp56
 70
     0
102
RTVSPost2010Prop57
140
1.0
102
RTVSPost2010PropOp57
 70
     0
  0
XRECORD
  5
10D
102
{ACAD_REACTORS
330
10C
102
}
330
10C
100
AcDbXrecord
280
     1
102
RTVSPost2010Prop28
280
     0
102
RTVSPost2010PropOp28
 70
     1
102
RTVSPost2010Prop29
280
     1
102
RTVSPost2010PropOp29
 70
     1
102
RTVSPost2010Prop30
280
     1
102
RTVSPost2010PropOp30
 70
     1
102
RTVSPost2010Prop31
280
     0
102
RTVSPost2010PropOp31
 70
     1
102
RTVSPost2010Prop32
280
     0
102
RTVSPost2010PropOp32
 70
     1
102
RTVSPost2010Prop33
280
     0
102
RTVSPost2010PropOp33
 70
     1
102
RTVSPost2010Prop34
280
     0
102
RTVSPost2010PropOp34
 70
     1
102
RTVSPost2010Prop35
280
     0
102
RTVSPost2010PropOp35
 70
     1
102
RTVSPost2010Prop36
280
     0
102
RTVSPost2010PropOp36
 70
     1
102
RTVSPost2010Prop37
 90
       50
102
RTVSPost2010PropOp37
 70
     1
102
RTVSPost2010Prop38
140
0.0
102
RTVSPost2010PropOp38
 70
     1
102
RTVSPost2010Prop39
140
1.0
102
RTVSPost2010PropOp39
 70
     1
102
RTVSPost2010Prop40
 90
        0
102
RTVSPost2010PropOp40
 70
     1
102
RTVSPost2010Prop41ColorIndex
 90
       18
102
RTVSPost2010Prop41ColorRGB
 90
        0
102
RTVSPost2010PropOp41
 70
     1
102
RTVSPost2010Prop42
 90
       50
102
RTVSPost2010PropOp42
 70
     1
102
RTVSPost2010Prop43
 90
        3
102
RTVSPost2010PropOp43
 70
     1
102
RTVSPost2010Prop44ColorIndex
 90
        5
102
RTVSPost2010Prop44ColorRGB
 90
      255
102
RTVSPost2010PropOp44
 70
     1
102
RTVSPost2010Prop45
280
     0
102
RTVSPost2010PropOp45
 70
     1
102
RTVSPost2010Prop46
 90
       50
102
RTVSPost2010PropOp46
 70
     1
102
RTVSPost2010Prop47
 90
       50
102
RTVSPost2010PropOp47
 70
     1
102
RTVSPost2010Prop48
 90
       50
102
RTVSPost2010PropOp48
 70
     1
102
RTVSPost2010Prop49
280
     0
102
RTVSPost2010PropOp49
 70
     1
102
RTVSPost2010Prop50
 90
       50
102
RTVSPost2010PropOp50
 70
     1
102
RTVSPost2010Prop51ColorIndex
 90
      256
102
RTVSPost2010Prop51ColorRGB
 90
-16777216
102
RTVSPost2010PropOp51
 70
     0
102
RTVSPost2010Prop52
140
1.0
102
RTVSPost2010PropOp52
 70
     0
102
RTVSPost2010Prop53
 90
        2
102
RTVSPost2010PropOp53
 70
     1
102
RTVSPost2010Prop54
  1
strokes_ogs.tif
102
RTVSPost2010PropOp54
 70
     1
102
RTVSPost2010Prop55
280
     0
102
RTVSPost2010PropOp55
 70
     1
102
RTVSPost2010Prop56
140
1.0
102
RTVSPost2010PropOp56
 70
     1
102
RTVSPost2010Prop57
140
1.0
102
RTVSPost2010PropOp57
 70
     1
  0
XRECORD
  5
123
102
{ACAD_REACTORS
330
122
102
}
330
122
100
AcDbXrecord
280
     1
102
RTVSPost2010Prop28
280
     0
102
RTVSPost2010PropOp28
 70
     1
102
RTVSPost2010Prop29
280
     1
102
RTVSPost2010PropOp29
 70
     1
102
RTVSPost2010Prop30
280
     1
102
RTVSPost2010PropOp30
 70
     1
102
RTVSPost2010Prop31
280
     0
102
RTVSPost2010PropOp31
 70
     1
102
RTVSPost2010Prop32
280
     0
102
RTVSPost2010PropOp32
 70
     1
102
RTVSPost2010Prop33
280
     0
102
RTVSPost2010PropOp33
 70
     1
102
RTVSPost2010Prop34
280
     0
102
RTVSPost2010PropOp34
 70
     1
102
RTVSPost2010Prop35
280
     0
102
RTVSPost2010PropOp35
 70
     1
102
RTVSPost2010Prop36
280
     0
102
RTVSPost2010PropOp36
 70
     1
102
RTVSPost2010Prop37
 90
       50
102
RTVSPost2010PropOp37
 70
     1
102
RTVSPost2010Prop38
140
0.0
102
RTVSPost2010PropOp38
 70
     1
102
RTVSPost2010Prop39
140
1.0
102
RTVSPost2010PropOp39
 70
     1
102
RTVSPost2010Prop40
 90
        0
102
RTVSPost2010PropOp40
 70
     1
102
RTVSPost2010Prop41ColorIndex
 90
       18
102
RTVSPost2010Prop41ColorRGB
 90
        0
102
RTVSPost2010PropOp41
 70
     1
102
RTVSPost2010Prop42
 90
       50
102
RTVSPost2010PropOp42
 70
     1
102
RTVSPost2010Prop43
 90
        3
102
RTVSPost2010PropOp43
 70
     1
102
RTVSPost2010Prop44ColorIndex
 90
        5
102
RTVSPost2010Prop44ColorRGB
 90
      255
102
RTVSPost2010PropOp44
 70
     1
102
RTVSPost2010Prop45
280
     0
102
RTVSPost2010PropOp45
 70
     1
102
RTVSPost2010Prop46
 90
       50
102
RTVSPost2010PropOp46
 70
     1
102
RTVSPost2010Prop47
 90
       50
102
RTVSPost2010PropOp47
 70
     1
102
RTVSPost2010Prop48
 90
       50
102
RTVSPost2010PropOp48
 70
     1
102
RTVSPost2010Prop49
280
     0
102
RTVSPost2010PropOp49
 70
     1
102
RTVSPost2010Prop50
 90
       50
102
RTVSPost2010PropOp50
 70
     1
102
RTVSPost2010Prop51ColorIndex
 90
      256
102
RTVSPost2010Prop51ColorRGB
 90
-16777216
102
RTVSPost2010PropOp51
 70
     0
102
RTVSPost2010Prop52
140
1.0
102
RTVSPost2010PropOp52
 70
     0
102
RTVSPost2010Prop53
 90
        2
102
RTVSPost2010PropOp53
 70
     1
102
RTVSPost2010Prop54
  1
strokes_ogs.tif
102
RTVSPost2010PropOp54
 70
     1
102
RTVSPost2010Prop55
280
     0
102
RTVSPost2010PropOp55
 70
     1
102
RTVSPost2010Prop56
140
1.0
102
RTVSPost2010PropOp56
 70
     1
102
RTVSPost2010Prop57
140
1.0
102
RTVSPost2010PropOp57
 70
     1
  0
XRECORD
  5
121
102
{ACAD_REACTORS
330
120
102
}
330
120
100
AcDbXrecord
280
     1
102
RTVSPost2010Prop28
280
     0
102
RTVSPost2010PropOp28
 70
     1
102
RTVSPost2010Prop29
280
     1
102
RTVSPost2010PropOp29
 70
     1
102
RTVSPost2010Prop30
280
     1
102
RTVSPost2010PropOp30
 70
     1
102
RTVSPost2010Prop31
280
     0
102
RTVSPost2010PropOp31
 70
     1
102
RTVSPost2010Prop32
280
     0
102
RTVSPost2010PropOp32
 70
     1
102
RTVSPost2010Prop33
280
     0
102
RTVSPost2010PropOp33
 70
     1
102
RTVSPost2010Prop34
280
     0
102
RTVSPost2010PropOp34
 70
     1
102
RTVSPost2010Prop35
280
     0
102
RTVSPost2010PropOp35
 70
     1
102
RTVSPost2010Prop36
280
     0
102
RTVSPost2010PropOp36
 70
     1
102
RTVSPost2010Prop37
 90
       50
102
RTVSPost2010PropOp37
 70
     1
102
RTVSPost2010Prop38
140
0.0
102
RTVSPost2010PropOp38
 70
     1
102
RTVSPost2010Prop39
140
1.0
102
RTVSPost2010PropOp39
 70
     1
102
RTVSPost2010Prop40
 90
        0
102
RTVSPost2010PropOp40
 70
     1
102
RTVSPost2010Prop41ColorIndex
 90
       18
102
RTVSPost2010Prop41ColorRGB
 90
        0
102
RTVSPost2010PropOp41
 70
     1
102
RTVSPost2010Prop42
 90
       50
102
RTVSPost2010PropOp42
 70
     1
102
RTVSPost2010Prop43
 90
        3
102
RTVSPost2010PropOp43
 70
     1
102
RTVSPost2010Prop44ColorIndex
 90
        5
102
RTVSPost2010Prop44ColorRGB
 90
      255
102
RTVSPost2010PropOp44
 70
     1
102
RTVSPost2010Prop45
280
     0
102
RTVSPost2010PropOp45
 70
     1
102
RTVSPost2010Prop46
 90
       50
102
RTVSPost2010PropOp46
 70
     1
102
RTVSPost2010Prop47
 90
       50
102
RTVSPost2010PropOp47
 70
     1
102
RTVSPost2010Prop48
 90
       50
102
RTVSPost2010PropOp48
 70
     1
102
RTVSPost2010Prop49
280
     0
102
RTVSPost2010PropOp49
 70
     1
102
RTVSPost2010Prop50
 90
       50
102
RTVSPost2010PropOp50
 70
     1
102
RTVSPost2010Prop51ColorIndex
 90
      256
102
RTVSPost2010Prop51ColorRGB
 90
-16777216
102
RTVSPost2010PropOp51
 70
     0
102
RTVSPost2010Prop52
140
1.0
102
RTVSPost2010PropOp52
 70
     0
102
RTVSPost2010Prop53
 90
        2
102
RTVSPost2010PropOp53
 70
     1
102
RTVSPost2010Prop54
  1
strokes_ogs.tif
102
RTVSPost2010PropOp54
 70
     1
102
RTVSPost2010Prop55
280
     0
102
RTVSPost2010PropOp55
 70
     1
102
RTVSPost2010Prop56
140
1.0
102
RTVSPost2010PropOp56
 70
     1
102
RTVSPost2010Prop57
140
1.0
102
RTVSPost2010PropOp57
 70
     1
  0
XRECORD
  5
11B
102
{ACAD_REACTORS
330
11A
102
}
330
11A
100
AcDbXrecord
280
     1
102
RTVSPost2010Prop28
280
     0
102
RTVSPost2010PropOp28
 70
     1
102
RTVSPost2010Prop29
280
     1
102
RTVSPost2010PropOp29
 70
     1
102
RTVSPost2010Prop30
280
     1
102
RTVSPost2010PropOp30
 70
     1
102
RTVSPost2010Prop31
280
     0
102
RTVSPost2010PropOp31
 70
     1
102
RTVSPost2010Prop32
280
     0
102
RTVSPost2010PropOp32
 70
     1
102
RTVSPost2010Prop33
280
     0
102
RTVSPost2010PropOp33
 70
     1
102
RTVSPost2010Prop34
280
     0
102
RTVSPost2010PropOp34
 70
     1
102
RTVSPost2010Prop35
280
     0
102
RTVSPost2010PropOp35
 70
     1
102
RTVSPost2010Prop36
280
     0
102
RTVSPost2010PropOp36
 70
     1
102
RTVSPost2010Prop37
 90
       50
102
RTVSPost2010PropOp37
 70
     1
102
RTVSPost2010Prop38
140
0.0
102
RTVSPost2010PropOp38
 70
     1
102
RTVSPost2010Prop39
140
1.0
102
RTVSPost2010PropOp39
 70
     1
102
RTVSPost2010Prop40
 90
        0
102
RTVSPost2010PropOp40
 70
     1
102
RTVSPost2010Prop41ColorIndex
 90
       18
102
RTVSPost2010Prop41ColorRGB
 90
        0
102
RTVSPost2010PropOp41
 70
     1
102
RTVSPost2010Prop42
 90
       50
102
RTVSPost2010PropOp42
 70
     1
102
RTVSPost2010Prop43
 90
        3
102
RTVSPost2010PropOp43
 70
     1
102
RTVSPost2010Prop44ColorIndex
 90
        5
102
RTVSPost2010Prop44ColorRGB
 90
      255
102
RTVSPost2010PropOp44
 70
     1
102
RTVSPost2010Prop45
280
     0
102
RTVSPost2010PropOp45
 70
     1
102
RTVSPost2010Prop46
 90
       50
102
RTVSPost2010PropOp46
 70
     1
102
RTVSPost2010Prop47
 90
       50
102
RTVSPost2010PropOp47
 70
     1
102
RTVSPost2010Prop48
 90
       50
102
RTVSPost2010PropOp48
 70
     1
102
RTVSPost2010Prop49
280
     0
102
RTVSPost2010PropOp49
 70
     1
102
RTVSPost2010Prop50
 90
       50
102
RTVSPost2010PropOp50
 70
     1
102
RTVSPost2010Prop51ColorIndex
 90
      256
102
RTVSPost2010Prop51ColorRGB
 90
-16777216
102
RTVSPost2010PropOp51
 70
     0
102
RTVSPost2010Prop52
140
1.0
102
RTVSPost2010PropOp52
 70
     0
102
RTVSPost2010Prop53
 90
        2
102
RTVSPost2010PropOp53
 70
     1
102
RTVSPost2010Prop54
  1
strokes_ogs.tif
102
RTVSPost2010PropOp54
 70
     1
102
RTVSPost2010Prop55
280
     0
102
RTVSPost2010PropOp55
 70
     1
102
RTVSPost2010Prop56
140
1.0
102
RTVSPost2010PropOp56
 70
     1
102
RTVSPost2010Prop57
140
1.0
102
RTVSPost2010PropOp57
 70
     1
  0
XRECORD
  5
11D
102
{ACAD_REACTORS
330
11C
102
}
330
11C
100
AcDbXrecord
280
     1
102
RTVSPost2010Prop28
280
     0
102
RTVSPost2010PropOp28
 70
     1
102
RTVSPost2010Prop29
280
     1
102
RTVSPost2010PropOp29
 70
     1
102
RTVSPost2010Prop30
280
     1
102
RTVSPost2010PropOp30
 70
     1
102
RTVSPost2010Prop31
280
     0
102
RTVSPost2010PropOp31
 70
     1
102
RTVSPost2010Prop32
280
     0
102
RTVSPost2010PropOp32
 70
     1
102
RTVSPost2010Prop33
280
     0
102
RTVSPost2010PropOp33
 70
     1
102
RTVSPost2010Prop34
280
     0
102
RTVSPost2010PropOp34
 70
     1
102
RTVSPost2010Prop35
280
     0
102
RTVSPost2010PropOp35
 70
     1
102
RTVSPost2010Prop36
280
     0
102
RTVSPost2010PropOp36
 70
     1
102
RTVSPost2010Prop37
 90
       50
102
RTVSPost2010PropOp37
 70
     1
102
RTVSPost2010Prop38
140
0.0
102
RTVSPost2010PropOp38
 70
     1
102
RTVSPost2010Prop39
140
1.0
102
RTVSPost2010PropOp39
 70
     1
102
RTVSPost2010Prop40
 90
        0
102
RTVSPost2010PropOp40
 70
     1
102
RTVSPost2010Prop41ColorIndex
 90
       18
102
RTVSPost2010Prop41ColorRGB
 90
        0
102
RTVSPost2010PropOp41
 70
     1
102
RTVSPost2010Prop42
 90
       50
102
RTVSPost2010PropOp42
 70
     1
102
RTVSPost2010Prop43
 90
        3
102
RTVSPost2010PropOp43
 70
     1
102
RTVSPost2010Prop44ColorIndex
 90
        5
102
RTVSPost2010Prop44ColorRGB
 90
      255
102
RTVSPost2010PropOp44
 70
     1
102
RTVSPost2010Prop45
280
     0
102
RTVSPost2010PropOp45
 70
     1
102
RTVSPost2010Prop46
 90
       50
102
RTVSPost2010PropOp46
 70
     1
102
RTVSPost2010Prop47
 90
       50
102
RTVSPost2010PropOp47
 70
     1
102
RTVSPost2010Prop48
 90
       50
102
RTVSPost2010PropOp48
 70
     1
102
RTVSPost2010Prop49
280
     0
102
RTVSPost2010PropOp49
 70
     1
102
RTVSPost2010Prop50
 90
       50
102
RTVSPost2010PropOp50
 70
     1
102
RTVSPost2010Prop51ColorIndex
 90
      256
102
RTVSPost2010Prop51ColorRGB
 90
-16777216
102
RTVSPost2010PropOp51
 70
     0
102
RTVSPost2010Prop52
140
1.0
102
RTVSPost2010PropOp52
 70
     0
102
RTVSPost2010Prop53
 90
        2
102
RTVSPost2010PropOp53
 70
     1
102
RTVSPost2010Prop54
  1
strokes_ogs.tif
102
RTVSPost2010PropOp54
 70
     1
102
RTVSPost2010Prop55
280
     0
102
RTVSPost2010PropOp55
 70
     1
102
RTVSPost2010Prop56
140
1.0
102
RTVSPost2010PropOp56
 70
     1
102
RTVSPost2010Prop57
140
1.0
102
RTVSPost2010PropOp57
 70
     1
  0
XRECORD
  5
113
102
{ACAD_REACTORS
330
112
102
}
330
112
100
AcDbXrecord
280
     1
102
RTVSPost2010Prop28
280
     0
102
RTVSPost2010PropOp28
 70
     1
102
RTVSPost2010Prop29
280
     1
102
RTVSPost2010PropOp29
 70
     1
102
RTVSPost2010Prop30
280
     1
102
RTVSPost2010PropOp30
 70
     1
102
RTVSPost2010Prop31
280
     0
102
RTVSPost2010PropOp31
 70
     1
102
RTVSPost2010Prop32
280
     0
102
RTVSPost2010PropOp32
 70
     1
102
RTVSPost2010Prop33
280
     0
102
RTVSPost2010PropOp33
 70
     1
102
RTVSPost2010Prop34
280
     0
102
RTVSPost2010PropOp34
 70
     1
102
RTVSPost2010Prop35
280
     0
102
RTVSPost2010PropOp35
 70
     1
102
RTVSPost2010Prop36
280
     0
102
RTVSPost2010PropOp36
 70
     1
102
RTVSPost2010Prop37
 90
       50
102
RTVSPost2010PropOp37
 70
     1
102
RTVSPost2010Prop38
140
0.0
102
RTVSPost2010PropOp38
 70
     1
102
RTVSPost2010Prop39
140
1.0
102
RTVSPost2010PropOp39
 70
     1
102
RTVSPost2010Prop40
 90
        0
102
RTVSPost2010PropOp40
 70
     1
102
RTVSPost2010Prop41ColorIndex
 90
       18
102
RTVSPost2010Prop41ColorRGB
 90
        0
102
RTVSPost2010PropOp41
 70
     1
102
RTVSPost2010Prop42
 90
       50
102
RTVSPost2010PropOp42
 70
     1
102
RTVSPost2010Prop43
 90
        3
102
RTVSPost2010PropOp43
 70
     1
102
RTVSPost2010Prop44ColorIndex
 90
        5
102
RTVSPost2010Prop44ColorRGB
 90
      255
102
RTVSPost2010PropOp44
 70
     1
102
RTVSPost2010Prop45
280
     0
102
RTVSPost2010PropOp45
 70
     1
102
RTVSPost2010Prop46
 90
       50
102
RTVSPost2010PropOp46
 70
     1
102
RTVSPost2010Prop47
 90
       50
102
RTVSPost2010PropOp47
 70
     1
102
RTVSPost2010Prop48
 90
       50
102
RTVSPost2010PropOp48
 70
     1
102
RTVSPost2010Prop49
280
     0
102
RTVSPost2010PropOp49
 70
     1
102
RTVSPost2010Prop50
 90
       50
102
RTVSPost2010PropOp50
 70
     1
102
RTVSPost2010Prop51ColorIndex
 90
      256
102
RTVSPost2010Prop51ColorRGB
 90
-16777216
102
RTVSPost2010PropOp51
 70
     0
102
RTVSPost2010Prop52
140
1.0
102
RTVSPost2010PropOp52
 70
     0
102
RTVSPost2010Prop53
 90
        2
102
RTVSPost2010PropOp53
 70
     1
102
RTVSPost2010Prop54
  1
strokes_ogs.tif
102
RTVSPost2010PropOp54
 70
     1
102
RTVSPost2010Prop55
280
     0
102
RTVSPost2010PropOp55
 70
     1
102
RTVSPost2010Prop56
140
1.0
102
RTVSPost2010PropOp56
 70
     1
102
RTVSPost2010Prop57
140
1.0
102
RTVSPost2010PropOp57
 70
     1
  0
XRECORD
  5
107
102
{ACAD_REACTORS
330
106
102
}
330
106
100
AcDbXrecord
280
     1
102
RTVSPost2010Prop28
280
     0
102
RTVSPost2010PropOp28
 70
     1
102
RTVSPost2010Prop29
280
     1
102
RTVSPost2010PropOp29
 70
     1
102
RTVSPost2010Prop30
280
     1
102
RTVSPost2010PropOp30
 70
     1
102
RTVSPost2010Prop31
280
     0
102
RTVSPost2010PropOp31
 70
     1
102
RTVSPost2010Prop32
280
     0
102
RTVSPost2010PropOp32
 70
     1
102
RTVSPost2010Prop33
280
     0
102
RTVSPost2010PropOp33
 70
     1
102
RTVSPost2010Prop34
280
     0
102
RTVSPost2010PropOp34
 70
     1
102
RTVSPost2010Prop35
280
     0
102
RTVSPost2010PropOp35
 70
     1
102
RTVSPost2010Prop36
280
     0
102
RTVSPost2010PropOp36
 70
     1
102
RTVSPost2010Prop37
 90
       50
102
RTVSPost2010PropOp37
 70
     1
102
RTVSPost2010Prop38
140
0.0
102
RTVSPost2010PropOp38
 70
     1
102
RTVSPost2010Prop39
140
1.0
102
RTVSPost2010PropOp39
 70
     1
102
RTVSPost2010Prop40
 90
        0
102
RTVSPost2010PropOp40
 70
     1
102
RTVSPost2010Prop41ColorIndex
 90
       18
102
RTVSPost2010Prop41ColorRGB
 90
        0
102
RTVSPost2010PropOp41
 70
     1
102
RTVSPost2010Prop42
 90
       50
102
RTVSPost2010PropOp42
 70
     1
102
RTVSPost2010Prop43
 90
        3
102
RTVSPost2010PropOp43
 70
     1
102
RTVSPost2010Prop44ColorIndex
 90
        5
102
RTVSPost2010Prop44ColorRGB
 90
      255
102
RTVSPost2010PropOp44
 70
     1
102
RTVSPost2010Prop45
280
     0
102
RTVSPost2010PropOp45
 70
     1
102
RTVSPost2010Prop46
 90
       50
102
RTVSPost2010PropOp46
 70
     1
102
RTVSPost2010Prop47
 90
       50
102
RTVSPost2010PropOp47
 70
     1
102
RTVSPost2010Prop48
 90
       50
102
RTVSPost2010PropOp48
 70
     1
102
RTVSPost2010Prop49
280
     0
102
RTVSPost2010PropOp49
 70
     1
102
RTVSPost2010Prop50
 90
       50
102
RTVSPost2010PropOp50
 70
     1
102
RTVSPost2010Prop51ColorIndex
 90
      256
102
RTVSPost2010Prop51ColorRGB
 90
-16777216
102
RTVSPost2010PropOp51
 70
     0
102
RTVSPost2010Prop52
140
1.0
102
RTVSPost2010PropOp52
 70
     0
102
RTVSPost2010Prop53
 90
        2
102
RTVSPost2010PropOp53
 70
     1
102
RTVSPost2010Prop54
  1
strokes_ogs.tif
102
RTVSPost2010PropOp54
 70
     1
102
RTVSPost2010Prop55
280
     0
102
RTVSPost2010PropOp55
 70
     1
102
RTVSPost2010Prop56
140
1.0
102
RTVSPost2010PropOp56
 70
     1
102
RTVSPost2010Prop57
140
1.0
102
RTVSPost2010PropOp57
 70
     1
  0
XRECORD
  5
11F
102
{ACAD_REACTORS
330
11E
102
}
330
11E
100
AcDbXrecord
280
     1
102
RTVSPost2010Prop28
280
     0
102
RTVSPost2010PropOp28
 70
     1
102
RTVSPost2010Prop29
280
     1
102
RTVSPost2010PropOp29
 70
     1
102
RTVSPost2010Prop30
280
     1
102
RTVSPost2010PropOp30
 70
     1
102
RTVSPost2010Prop31
280
     0
102
RTVSPost2010PropOp31
 70
     1
102
RTVSPost2010Prop32
280
     0
102
RTVSPost2010PropOp32
 70
     1
102
RTVSPost2010Prop33
280
     0
102
RTVSPost2010PropOp33
 70
     1
102
RTVSPost2010Prop34
280
     0
102
RTVSPost2010PropOp34
 70
     1
102
RTVSPost2010Prop35
280
     0
102
RTVSPost2010PropOp35
 70
     1
102
RTVSPost2010Prop36
280
     0
102
RTVSPost2010PropOp36
 70
     1
102
RTVSPost2010Prop37
 90
       50
102
RTVSPost2010PropOp37
 70
     1
102
RTVSPost2010Prop38
140
0.0
102
RTVSPost2010PropOp38
 70
     1
102
RTVSPost2010Prop39
140
1.0
102
RTVSPost2010PropOp39
 70
     1
102
RTVSPost2010Prop40
 90
        0
102
RTVSPost2010PropOp40
 70
     1
102
RTVSPost2010Prop41ColorIndex
 90
       18
102
RTVSPost2010Prop41ColorRGB
 90
        0
102
RTVSPost2010PropOp41
 70
     1
102
RTVSPost2010Prop42
 90
       50
102
RTVSPost2010PropOp42
 70
     1
102
RTVSPost2010Prop43
 90
        3
102
RTVSPost2010PropOp43
 70
     1
102
RTVSPost2010Prop44ColorIndex
 90
        5
102
RTVSPost2010Prop44ColorRGB
 90
      255
102
RTVSPost2010PropOp44
 70
     1
102
RTVSPost2010Prop45
280
     0
102
RTVSPost2010PropOp45
 70
     1
102
RTVSPost2010Prop46
 90
       50
102
RTVSPost2010PropOp46
 70
     1
102
RTVSPost2010Prop47
 90
       50
102
RTVSPost2010PropOp47
 70
     1
102
RTVSPost2010Prop48
 90
       50
102
RTVSPost2010PropOp48
 70
     1
102
RTVSPost2010Prop49
280
     0
102
RTVSPost2010PropOp49
 70
     1
102
RTVSPost2010Prop50
 90
       50
102
RTVSPost2010PropOp50
 70
     1
102
RTVSPost2010Prop51ColorIndex
 90
      256
102
RTVSPost2010Prop51ColorRGB
 90
-16777216
102
RTVSPost2010PropOp51
 70
     0
102
RTVSPost2010Prop52
140
1.0
102
RTVSPost2010PropOp52
 70
     0
102
RTVSPost2010Prop53
 90
        2
102
RTVSPost2010PropOp53
 70
     1
102
RTVSPost2010Prop54
  1
strokes_ogs.tif
102
RTVSPost2010PropOp54
 70
     1
102
RTVSPost2010Prop55
280
     0
102
RTVSPost2010PropOp55
 70
     1
102
RTVSPost2010Prop56
140
1.0
102
RTVSPost2010PropOp56
 70
     1
102
RTVSPost2010Prop57
140
1.0
102
RTVSPost2010PropOp57
 70
     1
  0
ENDSEC
  0
EOF
