  0
SECTION
  2
HEADER
  9
$ACADVER
  1
AC1024
  9
$ACADMAINTVER
 70
   226
  9
$DWGCODEPAGE
  3
ANSI_932
  9
$INSBASE
 10
0.0
 20
0.0
 30
0.0
  9
$EXTMIN
 10
1.000000000000000E+20
 20
1.000000000000000E+20
 30
1.000000000000000E+20
  9
$EXTMAX
 10
-1.000000000000000E+20
 20
-1.000000000000000E+20
 30
-1.000000000000000E+20
  9
$LIMMIN
 10
0.0
 20
0.0
  9
$LIMMAX
 10
12.0
 20
9.0
  9
$ORTHOMODE
 70
     0
  9
$REGENMODE
 70
     1
  9
$FILLMODE
 70
     1
  9
$QTEXTMODE
 70
     0
  9
$MIRRTEXT
 70
     0
  9
$LTSCALE
 40
1.0
  9
$ATTMODE
 70
     1
  9
$TEXTSIZE
 40
0.2
  9
$TRACEWID
 40
0.05
  9
$TEXTSTYLE
  7
Standard
  9
$CLAYER
  8
0
  9
$CELTYPE
  6
ByLayer
  9
$CECOLOR
 62
   256
  9
$CELTSCALE
 40
1.0
  9
$DISPSILH
 70
     0
  9
$DIMSCALE
 40
1.0
  9
$DIMASZ
 40
0.18
  9
$DIMEXO
 40
0.0625
  9
$DIMDLI
 40
0.38
  9
$DIMRND
 40
0.0
  9
$DIMDLE
 40
0.0
  9
$DIMEXE
 40
0.18
  9
$DIMTP
 40
0.0
  9
$DIMTM
 40
0.0
  9
$DIMTXT
 40
0.18
  9
$DIMCEN
 40
0.09
  9
$DIMTSZ
 40
0.0
  9
$DIMTOL
 70
     0
  9
$DIMLIM
 70
     0
  9
$DIMTIH
 70
     1
  9
$DIMTOH
 70
     1
  9
$DIMSE1
 70
     0
  9
$DIMSE2
 70
     0
  9
$DIMTAD
 70
     0
  9
$DIMZIN
 70
     0
  9
$DIMBLK
  1

  9
$DIMASO
 70
     1
  9
$DIMSHO
 70
     1
  9
$DIMPOST
  1

  9
$DIMAPOST
  1

  9
$DIMALT
 70
     0
  9
$DIMALTD
 70
     2
  9
$DIMALTF
 40
25.4
  9
$DIMLFAC
 40
1.0
  9
$DIMTOFL
 70
     0
  9
$DIMTVP
 40
0.0
  9
$DIMTIX
 70
     0
  9
$DIMSOXD
 70
     0
  9
$DIMSAH
 70
     0
  9
$DIMBLK1
  1

  9
$DIMBLK2
  1

  9
$DIMSTYLE
  2
Standard
  9
$DIMCLRD
 70
     0
  9
$DIMCLRE
 70
     0
  9
$DIMCLRT
 70
     0
  9
$DIMTFAC
 40
1.0
  9
$DIMGAP
 40
0.09
  9
$DIMJUST
 70
     0
  9
$DIMSD1
 70
     0
  9
$DIMSD2
 70
     0
  9
$DIMTOLJ
 70
     1
  9
$DIMTZIN
 70
     0
  9
$DIMALTZ
 70
     0
  9
$DIMALTTZ
 70
     0
  9
$DIMUPT
 70
     0
  9
$DIMDEC
 70
     4
  9
$DIMTDEC
 70
     4
  9
$DIMALTU
 70
     2
  9
$DIMALTTD
 70
     2
  9
$DIMTXSTY
  7
Standard
  9
$DIMAUNIT
 70
     0
  9
$DIMADEC
 70
     0
  9
$DIMALTRND
 40
0.0
  9
$DIMAZIN
 70
     0
  9
$DIMDSEP
 70
    46
  9
$DIMATFIT
 70
     3
  9
$DIMFRAC
 70
     0
  9
$DIMLDRBLK
  1

  9
$DIMLUNIT
 70
     2
  9
$DIMLWD
 70
    -2
  9
$DIMLWE
 70
    -2
  9
$DIMTMOVE
 70
     0
  9
$DIMFXL
 40
1.0
  9
$DIMFXLON
 70
     0
  9
$DIMJOGANG
 40
0.7853981633974483
  9
$DIMTFILL
 70
     0
  9
$DIMTFILLCLR
 70
     0
  9
$DIMARCSYM
 70
     0
  9
$DIMLTYPE
  6

  9
$DIMLTEX1
  6

  9
$DIMLTEX2
  6

  9
$DIMTXTDIRECTION
 70
     0
  9
$LUNITS
 70
     2
  9
$LUPREC
 70
     4
  9
$SKETCHINC
 40
0.1
  9
$FILLETRAD
 40
0.0
  9
$AUNITS
 70
     0
  9
$AUPREC
 70
     0
  9
$MENU
  1
.
  9
$ELEVATION
 40
0.0
  9
$PELEVATION
 40
0.0
  9
$THICKNESS
 40
0.0
  9
$LIMCHECK
 70
     0
  9
$CHAMFERA
 40
0.0
  9
$CHAMFERB
 40
0.0
  9
$CHAMFERC
 40
0.0
  9
$CHAMFERD
 40
0.0
  9
$SKPOLY
 70
     0
  9
$TDCREATE
 40
2459569.489872685
  9
$TDUCREATE
 40
2459569.114872685
  9
$TDUPDATE
 40
2459569.489872685
  9
$TDUUPDATE
 40
2459569.114872685
  9
$TDINDWG
 40
0.0000000000
  9
$TDUSRTIMER
 40
0.0000000000
  9
$USRTIMER
 70
     1
  9
$ANGBASE
 50
0.0
  9
$ANGDIR
 70
     0
  9
$PDMODE
 70
     0
  9
$PDSIZE
 40
0.0
  9
$PLINEWID
 40
0.0
  9
$SPLFRAME
 70
     0
  9
$SPLINETYPE
 70
     6
  9
$SPLINESEGS
 70
     8
  9
$HANDSEED
  5
12F
  9
$SURFTAB1
 70
     6
  9
$SURFTAB2
 70
     6
  9
$SURFTYPE
 70
     6
  9
$SURFU
 70
     6
  9
$SURFV
 70
     6
  9
$UCSBASE
  2

  9
$UCSNAME
  2

  9
$UCSORG
 10
0.0
 20
0.0
 30
0.0
  9
$UCSXDIR
 10
1.0
 20
0.0
 30
0.0
  9
$UCSYDIR
 10
0.0
 20
1.0
 30
0.0
  9
$UCSORTHOREF
  2

  9
$UCSORTHOVIEW
 70
     0
  9
$UCSORGTOP
 10
0.0
 20
0.0
 30
0.0
  9
$UCSORGBOTTOM
 10
0.0
 20
0.0
 30
0.0
  9
$UCSORGLEFT
 10
0.0
 20
0.0
 30
0.0
  9
$UCSORGRIGHT
 10
0.0
 20
0.0
 30
0.0
  9
$UCSORGFRONT
 10
0.0
 20
0.0
 30
0.0
  9
$UCSORGBACK
 10
0.0
 20
0.0
 30
0.0
  9
$PUCSBASE
  2

  9
$PUCSNAME
  2

  9
$PUCSORG
 10
0.0
 20
0.0
 30
0.0
  9
$PUCSXDIR
 10
1.0
 20
0.0
 30
0.0
  9
$PUCSYDIR
 10
0.0
 20
1.0
 30
0.0
  9
$PUCSORTHOREF
  2

  9
$PUCSORTHOVIEW
 70
     0
  9
$PUCSORGTOP
 10
0.0
 20
0.0
 30
0.0
  9
$PUCSORGBOTTOM
 10
0.0
 20
0.0
 30
0.0
  9
$PUCSORGLEFT
 10
0.0
 20
0.0
 30
0.0
  9
$PUCSORGRIGHT
 10
0.0
 20
0.0
 30
0.0
  9
$PUCSORGFRONT
 10
0.0
 20
0.0
 30
0.0
  9
$PUCSORGBACK
 10
0.0
 20
0.0
 30
0.0
  9
$USERI1
 70
     0
  9
$USERI2
 70
     0
  9
$USERI3
 70
     0
  9
$USERI4
 70
     0
  9
$USERI5
 70
     0
  9
$USERR1
 40
0.0
  9
$USERR2
 40
0.0
  9
$USERR3
 40
0.0
  9
$USERR4
 40
0.0
  9
$USERR5
 40
0.0
  9
$WORLDVIEW
 70
     1
  9
$SHADEDGE
 70
     3
  9
$SHADEDIF
 70
    70
  9
$TILEMODE
 70
     1
  9
$MAXACTVP
 70
    64
  9
$PINSBASE
 10
0.0
 20
0.0
 30
0.0
  9
$PLIMCHECK
 70
     0
  9
$PEXTMIN
 10
1.000000000000000E+20
 20
1.000000000000000E+20
 30
1.000000000000000E+20
  9
$PEXTMAX
 10
-1.000000000000000E+20
 20
-1.000000000000000E+20
 30
-1.000000000000000E+20
  9
$PLIMMIN
 10
0.0
 20
0.0
  9
$PLIMMAX
 10
12.0
 20
9.0
  9
$UNITMODE
 70
     0
  9
$VISRETAIN
 70
     1
  9
$PLINEGEN
 70
     0
  9
$PSLTSCALE
 70
     1
  9
$TREEDEPTH
 70
  3020
  9
$CMLSTYLE
  2
Standard
  9
$CMLJUST
 70
     0
  9
$CMLSCALE
 40
1.0
  9
$PROXYGRAPHICS
 70
     1
  9
$MEASUREMENT
 70
     0
  9
$CELWEIGHT
370
    -1
  9
$ENDCAPS
280
     0
  9
$JOINSTYLE
280
     0
  9
$LWDISPLAY
290
     1
  9
$INSUNITS
 70
     4
  9
$HYPERLINKBASE
  1

  9
$STYLESHEET
  1

  9
$XEDIT
290
     1
  9
$CEPSNTYPE
380
     0
  9
$PSTYLEMODE
290
     1
  9
$FINGERPRINTGUID
  2
{0693B244-E379-0D4A-A54D-27CDA71BD5B6}
  9
$VERSIONGUID
  2
{F9CB98CD-E951-D648-82DE-AF9FA0970637}
  9
$EXTNAMES
290
     1
  9
$PSVPSCALE
 40
0.0
  9
$OLESTARTUP
290
     0
  9
$SORTENTS
280
   127
  9
$INDEXCTL
280
     0
  9
$HIDETEXT
280
     1
  9
$XCLIPFRAME
280
     2
  9
$HALOGAP
280
     0
  9
$OBSCOLOR
 70
   257
  9
$OBSLTYPE
280
     0
  9
$INTERSECTIONDISPLAY
280
     0
  9
$INTERSECTIONCOLOR
 70
   257
  9
$DIMASSOC
280
     2
  9
$PROJECTNAME
  1

  9
$CAMERADISPLAY
290
     0
  9
$LENSLENGTH
 40
50.0
  9
$CAMERAHEIGHT
 40
0.0
  9
$STEPSPERSEC
 40
2.0
  9
$STEPSIZE
 40
6.0
  9
$3DDWFPREC
 40
2.0
  9
$PSOLWIDTH
 40
0.25
  9
$PSOLHEIGHT
 40
4.0
  9
$LOFTANG1
 40
1.570796326794896
  9
$LOFTANG2
 40
1.570796326794896
  9
$LOFTMAG1
 40
0.0
  9
$LOFTMAG2
 40
0.0
  9
$LOFTPARAM
 70
     7
  9
$LOFTNORMALS
280
     1
  9
$LATITUDE
 40
37.795
  9
$LONGITUDE
 40
-122.394
  9
$NORTHDIRECTION
 40
0.0
  9
$TIMEZONE
 70
 -8000
  9
$LIGHTGLYPHDISPLAY
280
     1
  9
$TILEMODELIGHTSYNCH
280
     1
  9
$CMATERIAL
347
11
  9
$SOLIDHIST
280
     0
  9
$SHOWHIST
280
     1
  9
$DWFFRAME
280
     2
  9
$DGNFRAME
280
     0
  9
$REALWORLDSCALE
290
     1
  9
$INTERFERECOLOR
 62
     1
  9
$INTERFEREOBJVS
345
33
  9
$INTERFEREVPVS
346
30
  9
$CSHADOW
280
     0
  9
$SHADOWPLANELOCATION
 40
0.0
  0
ENDSEC
  0
SECTION
  2
CLASSES
  0
CLASS
  1
ACDBDICTIONARYWDFLT
  2
AcDbDictionaryWithDefault
  3
ObjectDBX Classes
 90
        0
 91
        1
280
     0
281
     0
  0
CLASS
  1
MATERIAL
  2
AcDbMaterial
  3
ObjectDBX Classes
 90
     1153
 91
        3
280
     0
281
     0
  0
CLASS
  1
VISUALSTYLE
  2
AcDbVisualStyle
  3
ObjectDBX Classes
 90
     4095
 91
       24
280
     0
281
     0
  0
CLASS
  1
SCALE
  2
AcDbScale
  3
ObjectDBX Classes
 90
     1153
 91
       17
280
     0
281
     0
  0
CLASS
  1
TABLESTYLE
  2
AcDbTableStyle
  3
ObjectDBX Classes
 90
     4095
 91
        1
280
     0
281
     0
  0
CLASS
  1
MLEADERSTYLE
  2
AcDbMLeaderStyle
  3
ACDB_MLEADERSTYLE_CLASS
 90
     4095
 91
        1
280
     0
281
     0
  0
CLASS
  1
ACDBSECTIONVIEWSTYLE
  2
AcDbSectionViewStyle
  3
ObjectDBX Classes
 90
     1025
 91
        1
280
     0
281
     0
  0
CLASS
  1
ACDBDETAILVIEWSTYLE
  2
AcDbDetailViewStyle
  3
ObjectDBX Classes
 90
     1025
 91
        1
280
     0
281
     0
  0
CLASS
  1
DICTIONARYVAR
  2
AcDbDictionaryVar
  3
ObjectDBX Classes
 90
        0
 91
        5
280
     0
281
     0
  0
CLASS
  1
CELLSTYLEMAP
  2
AcDbCellStyleMap
  3
ObjectDBX Classes
 90
     1152
 91
        1
280
     0
281
     0
  0
ENDSEC
  0
SECTION
  2
TABLES
  0
TABLE
  2
VPORT
  5
8
330
0
100
AcDbSymbolTable
 70
     1
  0
VPORT
  5
57
330
8
100
AcDbSymbolTableRecord
100
AcDbViewportTableRecord
  2
*Active
 70
     0
 10
0.0
 20
0.0
 11
1.0
 21
1.0
 12
0.0
 22
0.0
 13
0.0
 23
0.0
 14
1.0
 24
1.0
 15
0.0
 25
0.0
 16
0.0
 26
0.0
 36
1.0
 17
104.9999999737534
 27
-148.4999999628701
 37
0.0
 40
302.939999924255
 41
0.7070707070707534
 42
50.0
 43
0.0
 44
0.0
 50
0.0
 51
0.0
 71
     0
 72
   100
 73
     1
 74
     0
 75
     1
 76
     0
 77
     0
 78
     0
281
     0
 65
     1
110
0.0
120
0.0
130
0.0
111
1.0
121
0.0
131
0.0
112
0.0
122
1.0
132
0.0
 79
     0
146
0.0
 60
     3
 61
     5
292
     1
282
     1
141
0.0
142
0.0
 63
   250
421
  3355443
  0
ENDTAB
  0
TABLE
  2
LTYPE
  5
5
330
0
100
AcDbSymbolTable
 70
     2
  0
LTYPE
  5
5B
330
5
100
AcDbSymbolTableRecord
100
AcDbLinetypeTableRecord
  2
ByBlock
 70
     0
  3

 72
    65
 73
     0
 40
0.0
  0
LTYPE
  5
5C
330
5
100
AcDbSymbolTableRecord
100
AcDbLinetypeTableRecord
  2
ByLayer
 70
     0
  3

 72
    65
 73
     0
 40
0.0
  0
LTYPE
  5
5D
330
5
100
AcDbSymbolTableRecord
100
AcDbLinetypeTableRecord
  2
Continuous
 70
     0
  3
Solid line
 72
    65
 73
     0
 40
0.0
  0
LTYPE
  5
D2
330
5
100
AcDbSymbolTableRecord
100
AcDbLinetypeTableRecord
  2
AI-Linetype-0
 70
     0
  3
Adobe Illustrator Linetype No. 0
 72
    65
 73
     2
 40
1.411111110758333
 49
0.7055555553791667
 74
     0
 49
-0.7055555553791667
 74
     0
  0
ENDTAB
  0
TABLE
  2
LAYER
  5
2
330
0
100
AcDbSymbolTable
 70
     2
  0
LAYER
  5
54
330
2
100
AcDbSymbolTableRecord
100
AcDbLayerTableRecord
  2
0
 70
     0
 62
     7
  6
Continuous
370
    -3
390
F
347
21
  0
LAYER
  5
78
330
2
100
AcDbSymbolTableRecord
100
AcDbLayerTableRecord
  2
レイヤー 1
 70
     0
 62
     7
  6
Continuous
370
     0
390
F
347
21
  0
ENDTAB
  0
TABLE
  2
STYLE
  5
3
330
0
100
AcDbSymbolTable
 70
     2
  0
STYLE
  5
55
330
3
100
AcDbSymbolTableRecord
100
AcDbTextStyleTableRecord
  2
Standard
 70
     0
 40
0.0
 41
1.0
 50
0.0
 71
     0
 42
0.2
  3
txt
  4

  0
STYLE
  5
5A
330
3
100
AcDbSymbolTableRecord
100
AcDbTextStyleTableRecord
  2
Annotative
 70
     0
 40
0.0
 41
1.0
 50
0.0
 71
     0
 42
0.2
  3
txt
  4

1001
AcadAnnotative
1000
AnnotativeData
1002
{
1070
     1
1070
     1
1002
}
  0
ENDTAB
  0
TABLE
  2
VIEW
  5
6
330
0
100
AcDbSymbolTable
 70
     0
  0
ENDTAB
  0
TABLE
  2
UCS
  5
7
330
0
100
AcDbSymbolTable
 70
     0
  0
ENDTAB
  0
TABLE
  2
APPID
  5
9
330
0
100
AcDbSymbolTable
 70
     2
  0
APPID
  5
56
330
9
100
AcDbSymbolTableRecord
100
AcDbRegAppTableRecord
  2
ACAD
 70
     0
  0
APPID
  5
5E
330
9
100
AcDbSymbolTableRecord
100
AcDbRegAppTableRecord
  2
AcadAnnotative
 70
     0
  0
ENDTAB
  0
TABLE
  2
DIMSTYLE
  5
A
330
0
100
AcDbSymbolTable
 70
     2
100
AcDbDimStyleTable
 71
     0
  0
DIMSTYLE
105
58
330
A
100
AcDbSymbolTableRecord
100
AcDbDimStyleTableRecord
  2
Standard
 70
     0
340
55
  0
DIMSTYLE
105
59
330
A
100
AcDbSymbolTableRecord
100
AcDbDimStyleTableRecord
  2
Annotative
 70
     0
340
55
1001
AcadAnnotative
1000
AnnotativeData
1002
{
1070
     1
1070
     1
1002
}
  0
ENDTAB
  0
TABLE
  2
BLOCK_RECORD
  5
1
330
0
100
AcDbSymbolTable
 70
    12
  0
BLOCK_RECORD
  5
70
330
1
100
AcDbSymbolTableRecord
100
AcDbBlockTableRecord
  2
*Model_Space
340
73
 70
     0
280
     1
281
     0
  0
BLOCK_RECORD
  5
6C
330
1
100
AcDbSymbolTableRecord
100
AcDbBlockTableRecord
  2
*Paper_Space
340
6F
 70
     0
280
     1
281
     0
  0
BLOCK_RECORD
  5
74
330
1
100
AcDbSymbolTableRecord
100
AcDbBlockTableRecord
  2
*Paper_Space0
340
77
 70
     0
280
     1
281
     0
  0
BLOCK_RECORD
  5
79
330
1
100
AcDbSymbolTableRecord
100
AcDbBlockTableRecord
  2
Block_0
340
0
102
{BLKREFS
331
7A
102
}
 70
     0
280
     1
281
     0
  0
BLOCK_RECORD
  5
7D
330
1
100
AcDbSymbolTableRecord
100
AcDbBlockTableRecord
  2
Block_1
340
0
102
{BLKREFS
331
7E
102
}
 70
     0
280
     1
281
     0
  0
BLOCK_RECORD
  5
8A
330
1
100
AcDbSymbolTableRecord
100
AcDbBlockTableRecord
  2
Block_2
340
0
102
{BLKREFS
331
8B
102
}
 70
     0
280
     1
281
     0
  0
BLOCK_RECORD
  5
8E
330
1
100
AcDbSymbolTableRecord
100
AcDbBlockTableRecord
  2
Block_3
340
0
102
{BLKREFS
331
8F
102
}
 70
     0
280
     1
281
     0
  0
BLOCK_RECORD
  5
99
330
1
100
AcDbSymbolTableRecord
100
AcDbBlockTableRecord
  2
Block_4
340
0
102
{BLKREFS
331
9A
102
}
 70
     0
280
     1
281
     0
  0
BLOCK_RECORD
  5
9F
330
1
100
AcDbSymbolTableRecord
100
AcDbBlockTableRecord
  2
Block_5
340
0
102
{BLKREFS
331
A0
102
}
 70
     0
280
     1
281
     0
  0
BLOCK_RECORD
  5
A3
330
1
100
AcDbSymbolTableRecord
100
AcDbBlockTableRecord
  2
Block_6
340
0
102
{BLKREFS
331
A4
102
}
 70
     0
280
     1
281
     0
  0
BLOCK_RECORD
  5
AC
330
1
100
AcDbSymbolTableRecord
100
AcDbBlockTableRecord
  2
Block_7
340
0
102
{BLKREFS
331
AD
102
}
 70
     0
280
     1
281
     0
  0
BLOCK_RECORD
  5
B0
330
1
100
AcDbSymbolTableRecord
100
AcDbBlockTableRecord
  2
Block_8
340
0
102
{BLKREFS
331
B1
102
}
 70
     0
280
     1
281
     0
  0
BLOCK_RECORD
  5
D6
330
1
100
AcDbSymbolTableRecord
100
AcDbBlockTableRecord
  2
Block_9
340
0
102
{BLKREFS
331
D7
102
}
 70
     0
280
     1
281
     0
  0
BLOCK_RECORD
  5
DA
330
1
100
AcDbSymbolTableRecord
100
AcDbBlockTableRecord
  2
Block_10
340
0
102
{BLKREFS
331
DB
102
}
 70
     0
280
     1
281
     0
  0
ENDTAB
  0
ENDSEC
  0
SECTION
  2
BLOCKS
  0
BLOCK
  5
71
330
70
100
AcDbEntity
  8
0
100
AcDbBlockBegin
  2
*Model_Space
 70
     0
 10
0.0
 20
0.0
 30
0.0
  3
*Model_Space
  1

  0
ENDBLK
  5
72
330
70
100
AcDbEntity
  8
0
100
AcDbBlockEnd
  0
BLOCK
  5
6D
330
6C
100
AcDbEntity
 67
     1
  8
0
100
AcDbBlockBegin
  2
*Paper_Space
 70
     0
 10
0.0
 20
0.0
 30
0.0
  3
*Paper_Space
  1

  0
ENDBLK
  5
6E
330
6C
100
AcDbEntity
 67
     1
  8
0
100
AcDbBlockEnd
  0
BLOCK
  5
75
330
74
100
AcDbEntity
 67
     1
  8
0
100
AcDbBlockBegin
  2
*Paper_Space0
 70
     0
 10
0.0
 20
0.0
 30
0.0
  3
*Paper_Space0
  1

  0
ENDBLK
  5
76
330
74
100
AcDbEntity
 67
     1
  8
0
100
AcDbBlockEnd
  0
BLOCK
  5
7B
330
79
100
AcDbEntity
  8
0
100
AcDbBlockBegin
  2
Block_0
 70
     0
 10
0.0
 20
0.0
 30
0.0
  3
Block_0
  1

  0
INSERT
  5
7E
330
79
100
AcDbEntity
  8
レイヤー 1
100
AcDbBlockReference
  2
Block_1
 10
0.0
 20
0.0
 30
0.0
  0
ENDBLK
  5
7C
330
79
100
AcDbEntity
  8
0
100
AcDbBlockEnd
  0
BLOCK
  5
7F
330
7D
100
AcDbEntity
  8
0
100
AcDbBlockBegin
  2
Block_1
 70
     0
 10
0.0
 20
0.0
 30
0.0
  3
Block_1
  1

  0
SPLINE
  5
81
330
7D
100
AcDbEntity
  8
レイヤー 1
100
AcDbSpline
210
0.0
220
0.0
230
1.0
 70
     9
 71
     3
 72
    17
 73
    13
 74
     0
 42
0.0000000001
 43
0.0000000001
 40
0.0
 40
0.0
 40
0.0
 40
0.0
 40
1.0
 40
1.0
 40
1.0
 40
2.0
 40
2.0
 40
2.0
 40
3.0
 40
3.0
 40
3.0
 40
4.0
 40
4.0
 40
4.0
 40
4.0
 10
122.3839165275637
 20
-143.5939913920529
 30
0.0
 10
122.3839165275637
 20
-143.8606417826112
 30
0.0
 10
122.6674478859998
 20
-143.9102511575988
 30
0.0
 10
123.0123019440733
 20
-143.9102511575988
 30
0.0
 10
123.3316622955559
 20
-143.9102511575988
 30
0.0
 10
123.6403428510343
 20
-143.8720105977125
 30
0.0
 10
123.6403428510343
 20
-143.5939913920529
 30
0.0
 10
123.6403428510343
 20
-143.3294080587857
 30
0.0
 10
123.359223059438
 20
-143.2773871169584
 30
0.0
 10
123.0123019440733
 20
-143.2773871169584
 30
0.0
 10
122.6925970830421
 20
-143.2773871169584
 30
0.0
 10
122.3839165275637
 20
-143.3180392436844
 30
0.0
 10
122.3839165275637
 20
-143.5939913920529
 30
0.0
  0
SPLINE
  5
82
330
7D
100
AcDbEntity
  8
レイヤー 1
100
AcDbSpline
210
0.0
220
0.0
230
1.0
 70
     9
 71
     3
 72
    29
 73
    25
 74
     0
 42
0.0000000001
 43
0.0000000001
 40
0.0
 40
0.0
 40
0.0
 40
0.0
 40
1.0
 40
1.0
 40
1.0
 40
2.0
 40
2.0
 40
2.0
 40
3.0
 40
3.0
 40
3.0
 40
4.0
 40
4.0
 40
4.0
 40
5.0
 40
5.0
 40
5.0
 40
6.0
 40
6.0
 40
6.0
 40
7.0
 40
7.0
 40
7.0
 40
8.0
 40
8.0
 40
8.0
 40
8.0
 10
123.6065809152789
 20
-143.168866609173
 30
0.0
 10
123.8160427207821
 20
-143.2842773079289
 30
0.0
 10
123.8349907459509
 20
-143.4696234450353
 30
0.0
 10
123.8349907459509
 20
-143.5939913920529
 30
0.0
 10
123.8349907459509
 20
-143.7655571472183
 30
0.0
 10
123.7884819569001
 20
-143.9171413485693
 30
0.0
 10
123.6065809152789
 20
-144.0187716653842
 30
0.0
 10
123.4119330203623
 20
-144.1297037400092
 30
0.0
 10
123.1752549605256
 20
-144.1500298033722
 30
0.0
 10
123.0123019440733
 20
-144.1500298033722
 30
0.0
 10
122.8682969527898
 20
-144.1500298033722
 30
0.0
 10
122.6164604728181
 20
-144.1317707973004
 30
0.0
 10
122.4176784633192
 20
-144.0187716653842
 30
0.0
 10
122.214762339238
 20
-143.9037054761769
 30
0.0
 10
122.1913356899383
 20
-143.7317952114629
 30
0.0
 10
122.1913356899383
 20
-143.5939913920529
 30
0.0
 10
122.1913356899383
 20
-143.42414818463
 30
0.0
 10
122.235777421698
 20
-143.2704969259879
 30
0.0
 10
122.4176784633192
 20
-143.168866609173
 30
0.0
 10
122.6102593009446
 20
-143.0624131586788
 30
0.0
 10
122.8386691316167
 20
-143.037608471185
 30
0.0
 10
123.0123019440733
 20
-143.037608471185
 30
0.0
 10
123.1835231896902
 20
-143.037608471185
 30
0.0
 10
123.4140000776534
 20
-143.0603461013877
 30
0.0
 10
123.6065809152789
 20
-143.168866609173
 30
0.0
  0
HATCH
  5
83
330
7D
100
AcDbEntity
  8
レイヤー 1
 62
   250
420
  2299925
440
 33554687
100
AcDbHatch
 10
0.0
 20
0.0
 30
0.0
210
0.0
220
0.0
230
1.0
  2
SOLID
 70
     1
 71
     1
 91
        2
 92
        1
 93
        1
 72
     4
 94
        3
 73
     0
 74
     0
 95
       17
 96
       13
 40
0.0
 40
0.0
 40
0.0
 40
0.0
 40
1.0
 40
1.0
 40
1.0
 40
2.0
 40
2.0
 40
2.0
 40
3.0
 40
3.0
 40
3.0
 40
4.0
 40
4.0
 40
4.0
 40
4.0
 10
122.3839165275637
 20
-143.5939913920529
 10
122.3839165275637
 20
-143.8606417826112
 10
122.6674478859998
 20
-143.9102511575988
 10
123.0123019440733
 20
-143.9102511575988
 10
123.3316622955559
 20
-143.9102511575988
 10
123.6403428510343
 20
-143.8720105977125
 10
123.6403428510343
 20
-143.5939913920529
 10
123.6403428510343
 20
-143.3294080587857
 10
123.359223059438
 20
-143.2773871169584
 10
123.0123019440733
 20
-143.2773871169584
 10
122.6925970830421
 20
-143.2773871169584
 10
122.3839165275637
 20
-143.3180392436844
 10
122.3839165275637
 20
-143.5939913920529
 97
        0
 97
        1
330
81
 92
        1
 93
        1
 72
     4
 94
        3
 73
     0
 74
     0
 95
       29
 96
       25
 40
0.0
 40
0.0
 40
0.0
 40
0.0
 40
1.0
 40
1.0
 40
1.0
 40
2.0
 40
2.0
 40
2.0
 40
3.0
 40
3.0
 40
3.0
 40
4.0
 40
4.0
 40
4.0
 40
5.0
 40
5.0
 40
5.0
 40
6.0
 40
6.0
 40
6.0
 40
7.0
 40
7.0
 40
7.0
 40
8.0
 40
8.0
 40
8.0
 40
8.0
 10
123.6065809152789
 20
-143.168866609173
 10
123.8160427207821
 20
-143.2842773079289
 10
123.8349907459509
 20
-143.4696234450353
 10
123.8349907459509
 20
-143.5939913920529
 10
123.8349907459509
 20
-143.7655571472183
 10
123.7884819569001
 20
-143.9171413485693
 10
123.6065809152789
 20
-144.0187716653842
 10
123.4119330203623
 20
-144.1297037400092
 10
123.1752549605256
 20
-144.1500298033722
 10
123.0123019440733
 20
-144.1500298033722
 10
122.8682969527898
 20
-144.1500298033722
 10
122.6164604728181
 20
-144.1317707973004
 10
122.4176784633192
 20
-144.0187716653842
 10
122.214762339238
 20
-143.9037054761769
 10
122.1913356899383
 20
-143.7317952114629
 10
122.1913356899383
 20
-143.5939913920529
 10
122.1913356899383
 20
-143.42414818463
 10
122.235777421698
 20
-143.2704969259879
 10
122.4176784633192
 20
-143.168866609173
 10
122.6102593009446
 20
-143.0624131586788
 10
122.8386691316167
 20
-143.037608471185
 10
123.0123019440733
 20
-143.037608471185
 10
123.1835231896902
 20
-143.037608471185
 10
123.4140000776534
 20
-143.0603461013877
 10
123.6065809152789
 20
-143.168866609173
 97
        0
 97
        1
330
82
 75
     2
 76
     1
 98
        1
 10
0.0
 20
0.0
450
        0
451
        0
460
0.0
461
0.0
452
        0
462
0.0
453
        0
470

  0
SPLINE
  5
84
330
7D
100
AcDbEntity
  8
レイヤー 1
100
AcDbSpline
210
0.0
220
0.0
230
1.0
 70
    11
 71
     3
 72
    17
 73
    13
 74
     0
 42
0.0000000001
 43
0.0000000001
 40
0.0
 40
0.0
 40
0.0
 40
0.0
 40
1.0
 40
1.0
 40
1.0
 40
2.0
 40
2.0
 40
2.0
 40
3.0
 40
3.0
 40
3.0
 40
4.0
 40
4.0
 40
4.0
 40
4.0
 10
123.7843478423178
 20
-142.8064425641248
 30
0.0
 10
123.7843478423178
 20
-142.8064425641248
 30
0.0
 10
123.532511362346
 20
-142.8064425641248
 30
0.0
 10
123.532511362346
 20
-142.8064425641248
 30
0.0
 10
123.532511362346
 20
-142.8064425641248
 30
0.0
 10
123.532511362346
 20
-142.5373806067268
 30
0.0
 10
123.532511362346
 20
-142.5373806067268
 30
0.0
 10
123.532511362346
 20
-142.5373806067268
 30
0.0
 10
123.7843478423178
 20
-142.5373806067268
 30
0.0
 10
123.7843478423178
 20
-142.5373806067268
 30
0.0
 10
123.7843478423178
 20
-142.5373806067268
 30
0.0
 10
123.7843478423178
 20
-142.8064425641248
 30
0.0
 10
123.7843478423178
 20
-142.8064425641248
 30
0.0
  0
HATCH
  5
85
330
7D
100
AcDbEntity
  8
レイヤー 1
 62
   250
420
  2299925
440
 33554687
100
AcDbHatch
 10
0.0
 20
0.0
 30
0.0
210
0.0
220
0.0
230
1.0
  2
SOLID
 70
     1
 71
     1
 91
        1
 92
        1
 93
        1
 72
     4
 94
        3
 73
     0
 74
     0
 95
       17
 96
       13
 40
0.0
 40
0.0
 40
0.0
 40
0.0
 40
1.0
 40
1.0
 40
1.0
 40
2.0
 40
2.0
 40
2.0
 40
3.0
 40
3.0
 40
3.0
 40
4.0
 40
4.0
 40
4.0
 40
4.0
 10
123.7843478423178
 20
-142.8064425641248
 10
123.7843478423178
 20
-142.8064425641248
 10
123.532511362346
 20
-142.8064425641248
 10
123.532511362346
 20
-142.8064425641248
 10
123.532511362346
 20
-142.8064425641248
 10
123.532511362346
 20
-142.5373806067268
 10
123.532511362346
 20
-142.5373806067268
 10
123.532511362346
 20
-142.5373806067268
 10
123.7843478423178
 20
-142.5373806067268
 10
123.7843478423178
 20
-142.5373806067268
 10
123.7843478423178
 20
-142.5373806067268
 10
123.7843478423178
 20
-142.8064425641248
 10
123.7843478423178
 20
-142.8064425641248
 97
        0
 97
        1
330
84
 75
     2
 76
     1
 98
        1
 10
0.0
 20
0.0
450
        0
451
        0
460
0.0
461
0.0
452
        0
462
0.0
453
        0
470

  0
SPLINE
  5
86
330
7D
100
AcDbEntity
  8
レイヤー 1
100
AcDbSpline
210
0.0
220
0.0
230
1.0
 70
     9
 71
     3
 72
    17
 73
    13
 74
     0
 42
0.0000000001
 43
0.0000000001
 40
0.0
 40
0.0
 40
0.0
 40
0.0
 40
1.0
 40
1.0
 40
1.0
 40
2.0
 40
2.0
 40
2.0
 40
3.0
 40
3.0
 40
3.0
 40
4.0
 40
4.0
 40
4.0
 40
4.0
 10
123.0439968225376
 20
-141.7501762883472
 30
0.0
 10
123.0439968225376
 20
-141.9038275469893
 30
0.0
 10
123.1308132287659
 20
-142.0664360538931
 30
0.0
 10
123.3337293528471
 20
-142.0664360538931
 30
0.0
 10
123.539057043768
 20
-142.0664360538931
 30
0.0
 10
123.6403428510343
 20
-141.9310438013228
 30
0.0
 10
123.6403428510343
 20
-141.7501762883472
 30
0.0
 10
123.6403428510343
 20
-141.5510497692997
 30
0.0
 10
123.5176974517594
 20
-141.4335720132527
 30
0.0
 10
123.3399305247205
 20
-141.4335720132527
 30
0.0
 10
123.1180663754705
 20
-141.4335720132527
 30
0.0
 10
123.0439968225376
 20
-141.6075493352578
 30
0.0
 10
123.0439968225376
 20
-141.7501762883472
 30
0.0
  0
SPLINE
  5
87
330
7D
100
AcDbEntity
  8
レイヤー 1
100
AcDbSpline
210
0.0
220
0.0
230
1.0
 70
     9
 71
     3
 72
    17
 73
    13
 74
     0
 42
0.0000000001
 43
0.0000000001
 40
0.0
 40
0.0
 40
0.0
 40
0.0
 40
1.0
 40
1.0
 40
1.0
 40
2.0
 40
2.0
 40
2.0
 40
3.0
 40
3.0
 40
3.0
 40
4.0
 40
4.0
 40
4.0
 40
4.0
 10
122.3839165275637
 20
-141.7501762883472
 30
0.0
 10
122.3839165275637
 20
-141.9262206676434
 30
0.0
 10
122.4790011629566
 20
-142.0168266789055
 30
0.0
 10
122.6143934155269
 20
-142.0168266789055
 30
0.0
 10
122.7370388148018
 20
-142.0168266789055
 30
0.0
 10
122.8555500994944
 20
-141.9400010495844
 30
0.0
 10
122.8555500994944
 20
-141.7501762883472
 30
0.0
 10
122.8555500994944
 20
-141.5600070175614
 30
0.0
 10
122.7370388148018
 20
-141.4831813882403
 30
0.0
 10
122.6143934155269
 20
-141.4831813882403
 30
0.0
 10
122.4790011629566
 20
-141.4831813882403
 30
0.0
 10
122.3839165275637
 20
-141.5758544567935
 30
0.0
 10
122.3839165275637
 20
-141.7501762883472
 30
0.0
  0
SPLINE
  5
88
330
7D
100
AcDbEntity
  8
レイヤー 1
100
AcDbSpline
210
0.0
220
0.0
230
1.0
 70
     9
 71
     3
 72
    29
 73
    25
 74
     0
 42
0.0000000001
 43
0.0000000001
 40
0.0
 40
0.0
 40
0.0
 40
0.0
 40
1.0
 40
1.0
 40
1.0
 40
2.0
 40
2.0
 40
2.0
 40
3.0
 40
3.0
 40
3.0
 40
4.0
 40
4.0
 40
4.0
 40
5.0
 40
5.0
 40
5.0
 40
6.0
 40
6.0
 40
6.0
 40
7.0
 40
7.0
 40
7.0
 40
8.0
 40
8.0
 40
8.0
 40
8.0
 10
123.8349907459509
 20
-141.7501762883472
 30
0.0
 10
123.8349907459509
 20
-142.0350856849773
 30
0.0
 10
123.6975314360895
 20
-142.3062146996665
 30
0.0
 10
123.3485432634337
 20
-142.3062146996665
 30
0.0
 10
123.0925726688796
 20
-142.3062146996665
 30
0.0
 10
122.9974880334867
 20
-142.1546304983155
 30
0.0
 10
122.9361653338493
 20
-142.0416313663993
 30
0.0
 10
122.876909691503
 20
-142.1749565616785
 30
0.0
 10
122.7625325213927
 20
-142.2566053246789
 30
0.0
 10
122.6016465622315
 20
-142.2566053246789
 30
0.0
 10
122.3267279425086
 20
-142.2566053246789
 30
0.0
 10
122.1913356899383
 20
-142.044042933239
 30
0.0
 10
122.1913356899383
 20
-141.7501762883472
 30
0.0
 10
122.1913356899383
 20
-141.4470078856452
 30
0.0
 10
122.3353406812217
 20
-141.2437472520154
 30
0.0
 10
122.6016465622315
 20
-141.2437472520154
 30
0.0
 10
122.7625325213927
 20
-141.2437472520154
 30
0.0
 10
122.876909691503
 20
-141.3271185627585
 30
0.0
 10
122.9361653338493
 20
-141.4607882675862
 30
0.0
 10
122.9868082374824
 20
-141.3657036321933
 30
0.0
 10
123.0818928728753
 20
-141.196204934319
 30
0.0
 10
123.3444091488514
 20
-141.196204934319
 30
0.0
 10
123.718891028098
 20
-141.196204934319
 30
0.0
 10
123.8349907459509
 20
-141.4945502033416
 30
0.0
 10
123.8349907459509
 20
-141.7501762883472
 30
0.0
  0
HATCH
  5
89
330
7D
100
AcDbEntity
  8
レイヤー 1
 62
   250
420
  2299925
440
 33554687
100
AcDbHatch
 10
0.0
 20
0.0
 30
0.0
210
0.0
220
0.0
230
1.0
  2
SOLID
 70
     1
 71
     1
 91
        3
 92
        1
 93
        1
 72
     4
 94
        3
 73
     0
 74
     0
 95
       17
 96
       13
 40
0.0
 40
0.0
 40
0.0
 40
0.0
 40
1.0
 40
1.0
 40
1.0
 40
2.0
 40
2.0
 40
2.0
 40
3.0
 40
3.0
 40
3.0
 40
4.0
 40
4.0
 40
4.0
 40
4.0
 10
123.0439968225376
 20
-141.7501762883472
 10
123.0439968225376
 20
-141.9038275469893
 10
123.1308132287659
 20
-142.0664360538931
 10
123.3337293528471
 20
-142.0664360538931
 10
123.539057043768
 20
-142.0664360538931
 10
123.6403428510343
 20
-141.9310438013228
 10
123.6403428510343
 20
-141.7501762883472
 10
123.6403428510343
 20
-141.5510497692997
 10
123.5176974517594
 20
-141.4335720132527
 10
123.3399305247205
 20
-141.4335720132527
 10
123.1180663754705
 20
-141.4335720132527
 10
123.0439968225376
 20
-141.6075493352578
 10
123.0439968225376
 20
-141.7501762883472
 97
        0
 97
        1
330
86
 92
        1
 93
        1
 72
     4
 94
        3
 73
     0
 74
     0
 95
       17
 96
       13
 40
0.0
 40
0.0
 40
0.0
 40
0.0
 40
1.0
 40
1.0
 40
1.0
 40
2.0
 40
2.0
 40
2.0
 40
3.0
 40
3.0
 40
3.0
 40
4.0
 40
4.0
 40
4.0
 40
4.0
 10
122.3839165275637
 20
-141.7501762883472
 10
122.3839165275637
 20
-141.9262206676434
 10
122.4790011629566
 20
-142.0168266789055
 10
122.6143934155269
 20
-142.0168266789055
 10
122.7370388148018
 20
-142.0168266789055
 10
122.8555500994944
 20
-141.9400010495844
 10
122.8555500994944
 20
-141.7501762883472
 10
122.8555500994944
 20
-141.5600070175614
 10
122.7370388148018
 20
-141.4831813882403
 10
122.6143934155269
 20
-141.4831813882403
 10
122.4790011629566
 20
-141.4831813882403
 10
122.3839165275637
 20
-141.5758544567935
 10
122.3839165275637
 20
-141.7501762883472
 97
        0
 97
        1
330
87
 92
        1
 93
        1
 72
     4
 94
        3
 73
     0
 74
     0
 95
       29
 96
       25
 40
0.0
 40
0.0
 40
0.0
 40
0.0
 40
1.0
 40
1.0
 40
1.0
 40
2.0
 40
2.0
 40
2.0
 40
3.0
 40
3.0
 40
3.0
 40
4.0
 40
4.0
 40
4.0
 40
5.0
 40
5.0
 40
5.0
 40
6.0
 40
6.0
 40
6.0
 40
7.0
 40
7.0
 40
7.0
 40
8.0
 40
8.0
 40
8.0
 40
8.0
 10
123.8349907459509
 20
-141.7501762883472
 10
123.8349907459509
 20
-142.0350856849773
 10
123.6975314360895
 20
-142.3062146996665
 10
123.3485432634337
 20
-142.3062146996665
 10
123.0925726688796
 20
-142.3062146996665
 10
122.9974880334867
 20
-142.1546304983155
 10
122.9361653338493
 20
-142.0416313663993
 10
122.876909691503
 20
-142.1749565616785
 10
122.7625325213927
 20
-142.2566053246789
 10
122.6016465622315
 20
-142.2566053246789
 10
122.3267279425086
 20
-142.2566053246789
 10
122.1913356899383
 20
-142.044042933239
 10
122.1913356899383
 20
-141.7501762883472
 10
122.1913356899383
 20
-141.4470078856452
 10
122.3353406812217
 20
-141.2437472520154
 10
122.6016465622315
 20
-141.2437472520154
 10
122.7625325213927
 20
-141.2437472520154
 10
122.876909691503
 20
-141.3271185627585
 10
122.9361653338493
 20
-141.4607882675862
 10
122.9868082374824
 20
-141.3657036321933
 10
123.0818928728753
 20
-141.196204934319
 10
123.3444091488514
 20
-141.196204934319
 10
123.718891028098
 20
-141.196204934319
 10
123.8349907459509
 20
-141.4945502033416
 10
123.8349907459509
 20
-141.7501762883472
 97
        0
 97
        1
330
88
 75
     2
 76
     1
 98
        1
 10
0.0
 20
0.0
450
        0
451
        0
460
0.0
461
0.0
452
        0
462
0.0
453
        0
470

  0
ENDBLK
  5
80
330
7D
100
AcDbEntity
  8
0
100
AcDbBlockEnd
  0
BLOCK
  5
8C
330
8A
100
AcDbEntity
  8
0
100
AcDbBlockBegin
  2
Block_2
 70
     0
 10
0.0
 20
0.0
 30
0.0
  3
Block_2
  1

  0
INSERT
  5
8F
330
8A
100
AcDbEntity
  8
レイヤー 1
100
AcDbBlockReference
  2
Block_3
 10
0.0
 20
0.0
 30
0.0
  0
ENDBLK
  5
8D
330
8A
100
AcDbEntity
  8
0
100
AcDbBlockEnd
  0
BLOCK
  5
90
330
8E
100
AcDbEntity
  8
0
100
AcDbBlockBegin
  2
Block_3
 70
     0
 10
0.0
 20
0.0
 30
0.0
  3
Block_3
  1

  0
SPLINE
  5
92
330
8E
100
AcDbEntity
  8
レイヤー 1
100
AcDbSpline
210
0.0
220
0.0
230
1.0
 70
     9
 71
     3
 72
    17
 73
    13
 74
     0
 42
0.0000000001
 43
0.0000000001
 40
0.0
 40
0.0
 40
0.0
 40
0.0
 40
1.0
 40
1.0
 40
1.0
 40
2.0
 40
2.0
 40
2.0
 40
3.0
 40
3.0
 40
3.0
 40
4.0
 40
4.0
 40
4.0
 40
4.0
 10
122.8586506854312
 20
-150.2543944936864
 30
0.0
 10
122.8586506854312
 20
-150.5348252661857
 30
0.0
 10
123.0701795482255
 20
-150.5754773929117
 30
0.0
 10
123.1866237756269
 20
-150.5754773929117
 30
0.0
 10
123.3623236453747
 20
-150.5754773929117
 30
0.0
 10
123.525276661827
 20
-150.4738470760968
 30
0.0
 10
123.525276661827
 20
-150.277132123889
 30
0.0
 10
123.525276661827
 20
-150.1482855527407
 30
0.0
 10
123.4660210194807
 20
-149.9605278487946
 30
0.0
 10
123.1804226037535
 20
-149.9605278487946
 30
0.0
 10
122.9561468876637
 20
-149.9605278487946
 30
0.0
 10
122.8586506854312
 20
-150.1097004833059
 30
0.0
 10
122.8586506854312
 20
-150.2543944936864
 30
0.0
  0
SPLINE
  5
93
330
8E
100
AcDbEntity
  8
レイヤー 1
100
AcDbSpline
210
0.0
220
0.0
230
1.0
 70
     9
 71
     3
 72
    32
 73
    28
 74
     0
 42
0.0000000001
 43
0.0000000001
 40
0.0
 40
0.0
 40
0.0
 40
0.0
 40
1.0
 40
1.0
 40
1.0
 40
2.0
 40
2.0
 40
2.0
 40
3.0
 40
3.0
 40
3.0
 40
4.0
 40
4.0
 40
4.0
 40
5.0
 40
5.0
 40
5.0
 40
6.0
 40
6.0
 40
6.0
 40
7.0
 40
7.0
 40
7.0
 40
8.0
 40
8.0
 40
8.0
 40
9.0
 40
9.0
 40
9.0
 40
9.0
 10
123.7175129899039
 20
-150.2723089902097
 30
0.0
 10
123.7175129899039
 20
-150.8242132869467
 30
0.0
 10
123.1635416358758
 20
-150.8331705352084
 30
0.0
 10
122.9496012062417
 20
-150.8331705352084
 30
0.0
 10
122.7191243182785
 20
-150.8331705352084
 30
0.0
 10
122.0717908766001
 20
-150.8128444718454
 30
0.0
 10
122.0717908766001
 20
-150.2316568634837
 30
0.0
 10
122.0717908766001
 20
-150.0463107263773
 30
0.0
 10
122.1417263149507
 20
-149.7841389599498
 30
0.0
 10
122.4738335197288
 20
-149.7434868332238
 30
0.0
 10
122.4738335197288
 20
-149.7434868332238
 30
0.0
 10
122.4738335197288
 20
-149.9718966638959
 30
0.0
 10
122.4738335197288
 20
-149.9718966638959
 30
0.0
 10
122.4166449346736
 20
-149.9829209694487
 30
0.0
 10
122.2685058288079
 20
-150.0170274147527
 30
0.0
 10
122.2685058288079
 20
-150.2340684303234
 30
0.0
 10
122.2685058288079
 20
-150.546194081287
 30
0.0
 10
122.5964789190036
 20
-150.5889132653041
 30
0.0
 10
122.801462100376
 20
-150.6026936472451
 30
0.0
 10
122.7232584328608
 20
-150.5031303877214
 30
0.0
 10
122.6640027905145
 20
-150.4307833825312
 30
0.0
 10
122.6640027905145
 20
-150.2364799971631
 30
0.0
 10
122.6640027905145
 20
-150.0442436690861
 30
0.0
 10
122.7721787887514
 20
-149.7207492030212
 30
0.0
 10
123.1783555464623
 20
-149.7207492030212
 30
0.0
 10
123.497715897945
 20
-149.7207492030212
 30
0.0
 10
123.7175129899039
 20
-149.9333115944611
 30
0.0
 10
123.7175129899039
 20
-150.2723089902097
 30
0.0
  0
HATCH
  5
94
330
8E
100
AcDbEntity
  8
レイヤー 1
 62
   250
420
  2299925
440
 33554687
100
AcDbHatch
 10
0.0
 20
0.0
 30
0.0
210
0.0
220
0.0
230
1.0
  2
SOLID
 70
     1
 71
     1
 91
        2
 92
        1
 93
        1
 72
     4
 94
        3
 73
     0
 74
     0
 95
       17
 96
       13
 40
0.0
 40
0.0
 40
0.0
 40
0.0
 40
1.0
 40
1.0
 40
1.0
 40
2.0
 40
2.0
 40
2.0
 40
3.0
 40
3.0
 40
3.0
 40
4.0
 40
4.0
 40
4.0
 40
4.0
 10
122.8586506854312
 20
-150.2543944936864
 10
122.8586506854312
 20
-150.5348252661857
 10
123.0701795482255
 20
-150.5754773929117
 10
123.1866237756269
 20
-150.5754773929117
 10
123.3623236453747
 20
-150.5754773929117
 10
123.525276661827
 20
-150.4738470760968
 10
123.525276661827
 20
-150.277132123889
 10
123.525276661827
 20
-150.1482855527407
 10
123.4660210194807
 20
-149.9605278487946
 10
123.1804226037535
 20
-149.9605278487946
 10
122.9561468876637
 20
-149.9605278487946
 10
122.8586506854312
 20
-150.1097004833059
 10
122.8586506854312
 20
-150.2543944936864
 97
        0
 97
        1
330
92
 92
        1
 93
        1
 72
     4
 94
        3
 73
     0
 74
     0
 95
       32
 96
       28
 40
0.0
 40
0.0
 40
0.0
 40
0.0
 40
1.0
 40
1.0
 40
1.0
 40
2.0
 40
2.0
 40
2.0
 40
3.0
 40
3.0
 40
3.0
 40
4.0
 40
4.0
 40
4.0
 40
5.0
 40
5.0
 40
5.0
 40
6.0
 40
6.0
 40
6.0
 40
7.0
 40
7.0
 40
7.0
 40
8.0
 40
8.0
 40
8.0
 40
9.0
 40
9.0
 40
9.0
 40
9.0
 10
123.7175129899039
 20
-150.2723089902097
 10
123.7175129899039
 20
-150.8242132869467
 10
123.1635416358758
 20
-150.8331705352084
 10
122.9496012062417
 20
-150.8331705352084
 10
122.7191243182785
 20
-150.8331705352084
 10
122.0717908766001
 20
-150.8128444718454
 10
122.0717908766001
 20
-150.2316568634837
 10
122.0717908766001
 20
-150.0463107263773
 10
122.1417263149507
 20
-149.7841389599498
 10
122.4738335197288
 20
-149.7434868332238
 10
122.4738335197288
 20
-149.7434868332238
 10
122.4738335197288
 20
-149.9718966638959
 10
122.4738335197288
 20
-149.9718966638959
 10
122.4166449346736
 20
-149.9829209694487
 10
122.2685058288079
 20
-150.0170274147527
 10
122.2685058288079
 20
-150.2340684303234
 10
122.2685058288079
 20
-150.546194081287
 10
122.5964789190036
 20
-150.5889132653041
 10
122.801462100376
 20
-150.6026936472451
 10
122.7232584328608
 20
-150.5031303877214
 10
122.6640027905145
 20
-150.4307833825312
 10
122.6640027905145
 20
-150.2364799971631
 10
122.6640027905145
 20
-150.0442436690861
 10
122.7721787887514
 20
-149.7207492030212
 10
123.1783555464623
 20
-149.7207492030212
 10
123.497715897945
 20
-149.7207492030212
 10
123.7175129899039
 20
-149.9333115944611
 10
123.7175129899039
 20
-150.2723089902097
 97
        0
 97
        1
330
93
 75
     2
 76
     1
 98
        1
 10
0.0
 20
0.0
450
        0
451
        0
460
0.0
461
0.0
452
        0
462
0.0
453
        0
470

  0
SPLINE
  5
95
330
8E
100
AcDbEntity
  8
レイヤー 1
100
AcDbSpline
210
0.0
220
0.0
230
1.0
 70
    11
 71
     3
 72
    17
 73
    13
 74
     0
 42
0.0000000001
 43
0.0000000001
 40
0.0
 40
0.0
 40
0.0
 40
0.0
 40
1.0
 40
1.0
 40
1.0
 40
2.0
 40
2.0
 40
2.0
 40
3.0
 40
3.0
 40
3.0
 40
4.0
 40
4.0
 40
4.0
 40
4.0
 10
123.6668700862708
 20
-149.4895832959609
 30
0.0
 10
123.6668700862708
 20
-149.4895832959609
 30
0.0
 10
123.415033606299
 20
-149.4895832959609
 30
0.0
 10
123.415033606299
 20
-149.4895832959609
 30
0.0
 10
123.415033606299
 20
-149.4895832959609
 30
0.0
 10
123.415033606299
 20
-149.2205213385629
 30
0.0
 10
123.415033606299
 20
-149.2205213385629
 30
0.0
 10
123.415033606299
 20
-149.2205213385629
 30
0.0
 10
123.6668700862708
 20
-149.2205213385629
 30
0.0
 10
123.6668700862708
 20
-149.2205213385629
 30
0.0
 10
123.6668700862708
 20
-149.2205213385629
 30
0.0
 10
123.6668700862708
 20
-149.4895832959609
 30
0.0
 10
123.6668700862708
 20
-149.4895832959609
 30
0.0
  0
HATCH
  5
96
330
8E
100
AcDbEntity
  8
レイヤー 1
 62
   250
420
  2299925
440
 33554687
100
AcDbHatch
 10
0.0
 20
0.0
 30
0.0
210
0.0
220
0.0
230
1.0
  2
SOLID
 70
     1
 71
     1
 91
        1
 92
        1
 93
        1
 72
     4
 94
        3
 73
     0
 74
     0
 95
       17
 96
       13
 40
0.0
 40
0.0
 40
0.0
 40
0.0
 40
1.0
 40
1.0
 40
1.0
 40
2.0
 40
2.0
 40
2.0
 40
3.0
 40
3.0
 40
3.0
 40
4.0
 40
4.0
 40
4.0
 40
4.0
 10
123.6668700862708
 20
-149.4895832959609
 10
123.6668700862708
 20
-149.4895832959609
 10
123.415033606299
 20
-149.4895832959609
 10
123.415033606299
 20
-149.4895832959609
 10
123.415033606299
 20
-149.4895832959609
 10
123.415033606299
 20
-149.2205213385629
 10
123.415033606299
 20
-149.2205213385629
 10
123.415033606299
 20
-149.2205213385629
 10
123.6668700862708
 20
-149.2205213385629
 10
123.6668700862708
 20
-149.2205213385629
 10
123.6668700862708
 20
-149.2205213385629
 10
123.6668700862708
 20
-149.4895832959609
 10
123.6668700862708
 20
-149.4895832959609
 97
        0
 97
        1
330
95
 75
     2
 76
     1
 98
        1
 10
0.0
 20
0.0
450
        0
451
        0
460
0.0
461
0.0
452
        0
462
0.0
453
        0
470

  0
SPLINE
  5
97
330
8E
100
AcDbEntity
  8
レイヤー 1
100
AcDbSpline
210
0.0
220
0.0
230
1.0
 70
     9
 71
     3
 72
    53
 73
    49
 74
     0
 42
0.0000000001
 43
0.0000000001
 40
0.0
 40
0.0
 40
0.0
 40
0.0
 40
1.0
 40
1.0
 40
1.0
 40
2.0
 40
2.0
 40
2.0
 40
3.0
 40
3.0
 40
3.0
 40
4.0
 40
4.0
 40
4.0
 40
5.0
 40
5.0
 40
5.0
 40
6.0
 40
6.0
 40
6.0
 40
7.0
 40
7.0
 40
7.0
 40
8.0
 40
8.0
 40
8.0
 40
9.0
 40
9.0
 40
9.0
 40
10.0
 40
10.0
 40
10.0
 40
11.0
 40
11.0
 40
11.0
 40
12.0
 40
12.0
 40
12.0
 40
13.0
 40
13.0
 40
13.0
 40
14.0
 40
14.0
 40
14.0
 40
15.0
 40
15.0
 40
15.0
 40
16.0
 40
16.0
 40
16.0
 40
16.0
 10
123.7175129899039
 20
-148.4536430835463
 30
0.0
 10
123.7175129899039
 20
-148.5373589038379
 30
0.0
 10
123.7006320220262
 20
-148.6455349020747
 30
0.0
 10
123.6372422650976
 20
-148.7543999194086
 30
0.0
 10
123.5273437191181
 20
-148.939746056515
 30
0.0
 10
123.3960855811301
 20
-148.9621391771692
 30
0.0
 10
123.2882540924418
 20
-148.9824652405322
 30
0.0
 10
123.2882540924418
 20
-148.9824652405322
 30
0.0
 10
123.2882540924418
 20
-148.7450981615984
 30
0.0
 10
123.2882540924418
 20
-148.7450981615984
 30
0.0
 10
123.4870361019407
 20
-148.6865315383492
 30
0.0
 10
123.5166639231139
 20
-148.5507947762303
 30
0.0
 10
123.5166639231139
 20
-148.4512315167066
 30
0.0
 10
123.5166639231139
 20
-148.3020588821953
 30
0.0
 10
123.4171006635901
 20
-148.139105865743
 30
0.0
 10
123.1845567183358
 20
-148.139105865743
 30
0.0
 10
122.9285861237817
 20
-148.139105865743
 30
0.0
 10
122.8586506854312
 20
-148.3313421938199
 30
0.0
 10
122.8586506854312
 20
-148.4601887649683
 30
0.0
 10
122.8586506854312
 20
-148.4942952102722
 30
0.0
 10
122.8586506854312
 20
-148.6455349020747
 30
0.0
 10
122.987841766128
 20
-148.7406195374676
 30
0.0
 10
122.987841766128
 20
-148.7406195374676
 30
0.0
 10
122.9688937409592
 20
-148.9283772414137
 30
0.0
 10
122.9688937409592
 20
-148.9283772414137
 30
0.0
 10
122.9688937409592
 20
-148.9283772414137
 30
0.0
 10
122.1224337802333
 20
-148.7995306702654
 30
0.0
 10
122.1224337802333
 20
-148.7995306702654
 30
0.0
 10
122.1224337802333
 20
-148.7995306702654
 30
0.0
 10
122.1224337802333
 20
-147.9675401105776
 30
0.0
 10
122.1224337802333
 20
-147.9675401105776
 30
0.0
 10
122.1224337802333
 20
-147.9675401105776
 30
0.0
 10
122.3170816751499
 20
-147.9675401105776
 30
0.0
 10
122.3170816751499
 20
-147.9675401105776
 30
0.0
 10
122.3170816751499
 20
-147.9675401105776
 30
0.0
 10
122.3170816751499
 20
-148.6252088387117
 30
0.0
 10
122.3170816751499
 20
-148.6252088387117
 30
0.0
 10
122.3170816751499
 20
-148.6252088387117
 30
0.0
 10
122.7401394007386
 20
-148.6954887866108
 30
0.0
 10
122.7401394007386
 20
-148.6954887866108
 30
0.0
 10
122.7063774649831
 20
-148.6300319723911
 30
0.0
 10
122.6660698478057
 20
-148.5418375279687
 30
0.0
 10
122.6660698478057
 20
-148.4150580141115
 30
0.0
 10
122.6660698478057
 20
-148.1439289994223
 30
0.0
 10
122.8524495135577
 20
-147.8907144812565
 30
0.0
 10
123.1656086931669
 20
-147.8907144812565
 30
0.0
 10
123.4829019873584
 20
-147.8907144812565
 30
0.0
 10
123.7175129899039
 20
-148.1301486174813
 30
0.0
 10
123.7175129899039
 20
-148.4536430835463
 30
0.0
  0
HATCH
  5
98
330
8E
100
AcDbEntity
  8
レイヤー 1
 62
   250
420
  2299925
440
 33554687
100
AcDbHatch
 10
0.0
 20
0.0
 30
0.0
210
0.0
220
0.0
230
1.0
  2
SOLID
 70
     1
 71
     1
 91
        1
 92
        1
 93
        1
 72
     4
 94
        3
 73
     0
 74
     0
 95
       53
 96
       49
 40
0.0
 40
0.0
 40
0.0
 40
0.0
 40
1.0
 40
1.0
 40
1.0
 40
2.0
 40
2.0
 40
2.0
 40
3.0
 40
3.0
 40
3.0
 40
4.0
 40
4.0
 40
4.0
 40
5.0
 40
5.0
 40
5.0
 40
6.0
 40
6.0
 40
6.0
 40
7.0
 40
7.0
 40
7.0
 40
8.0
 40
8.0
 40
8.0
 40
9.0
 40
9.0
 40
9.0
 40
10.0
 40
10.0
 40
10.0
 40
11.0
 40
11.0
 40
11.0
 40
12.0
 40
12.0
 40
12.0
 40
13.0
 40
13.0
 40
13.0
 40
14.0
 40
14.0
 40
14.0
 40
15.0
 40
15.0
 40
15.0
 40
16.0
 40
16.0
 40
16.0
 40
16.0
 10
123.7175129899039
 20
-148.4536430835463
 10
123.7175129899039
 20
-148.5373589038379
 10
123.7006320220262
 20
-148.6455349020747
 10
123.6372422650976
 20
-148.7543999194086
 10
123.5273437191181
 20
-148.939746056515
 10
123.3960855811301
 20
-148.9621391771692
 10
123.2882540924418
 20
-148.9824652405322
 10
123.2882540924418
 20
-148.9824652405322
 10
123.2882540924418
 20
-148.7450981615984
 10
123.2882540924418
 20
-148.7450981615984
 10
123.4870361019407
 20
-148.6865315383492
 10
123.5166639231139
 20
-148.5507947762303
 10
123.5166639231139
 20
-148.4512315167066
 10
123.5166639231139
 20
-148.3020588821953
 10
123.4171006635901
 20
-148.139105865743
 10
123.1845567183358
 20
-148.139105865743
 10
122.9285861237817
 20
-148.139105865743
 10
122.8586506854312
 20
-148.3313421938199
 10
122.8586506854312
 20
-148.4601887649683
 10
122.8586506854312
 20
-148.4942952102722
 10
122.8586506854312
 20
-148.6455349020747
 10
122.987841766128
 20
-148.7406195374676
 10
122.987841766128
 20
-148.7406195374676
 10
122.9688937409592
 20
-148.9283772414137
 10
122.9688937409592
 20
-148.9283772414137
 10
122.9688937409592
 20
-148.9283772414137
 10
122.1224337802333
 20
-148.7995306702654
 10
122.1224337802333
 20
-148.7995306702654
 10
122.1224337802333
 20
-148.7995306702654
 10
122.1224337802333
 20
-147.9675401105776
 10
122.1224337802333
 20
-147.9675401105776
 10
122.1224337802333
 20
-147.9675401105776
 10
122.3170816751499
 20
-147.9675401105776
 10
122.3170816751499
 20
-147.9675401105776
 10
122.3170816751499
 20
-147.9675401105776
 10
122.3170816751499
 20
-148.6252088387117
 10
122.3170816751499
 20
-148.6252088387117
 10
122.3170816751499
 20
-148.6252088387117
 10
122.7401394007386
 20
-148.6954887866108
 10
122.7401394007386
 20
-148.6954887866108
 10
122.7063774649831
 20
-148.6300319723911
 10
122.6660698478057
 20
-148.5418375279687
 10
122.6660698478057
 20
-148.4150580141115
 10
122.6660698478057
 20
-148.1439289994223
 10
122.8524495135577
 20
-147.8907144812565
 10
123.1656086931669
 20
-147.8907144812565
 10
123.4829019873584
 20
-147.8907144812565
 10
123.7175129899039
 20
-148.1301486174813
 10
123.7175129899039
 20
-148.4536430835463
 97
        0
 97
        1
330
97
 75
     2
 76
     1
 98
        1
 10
0.0
 20
0.0
450
        0
451
        0
460
0.0
461
0.0
452
        0
462
0.0
453
        0
470

  0
ENDBLK
  5
91
330
8E
100
AcDbEntity
  8
0
100
AcDbBlockEnd
  0
BLOCK
  5
9B
330
99
100
AcDbEntity
  8
0
100
AcDbBlockBegin
  2
Block_4
 70
     0
 10
0.0
 20
0.0
 30
0.0
  3
Block_4
  1

  0
SPLINE
  5
9D
330
99
100
AcDbEntity
  8
レイヤー 1
100
AcDbSpline
210
0.0
220
0.0
230
1.0
 70
     9
 71
     3
 72
    62
 73
    58
 74
     0
 42
0.0000000001
 43
0.0000000001
 40
0.0
 40
0.0
 40
0.0
 40
0.0
 40
1.0
 40
1.0
 40
1.0
 40
2.0
 40
2.0
 40
2.0
 40
3.0
 40
3.0
 40
3.0
 40
4.0
 40
4.0
 40
4.0
 40
5.0
 40
5.0
 40
5.0
 40
6.0
 40
6.0
 40
6.0
 40
7.0
 40
7.0
 40
7.0
 40
8.0
 40
8.0
 40
8.0
 40
9.0
 40
9.0
 40
9.0
 40
10.0
 40
10.0
 40
10.0
 40
11.0
 40
11.0
 40
11.0
 40
12.0
 40
12.0
 40
12.0
 40
13.0
 40
13.0
 40
13.0
 40
14.0
 40
14.0
 40
14.0
 40
15.0
 40
15.0
 40
15.0
 40
16.0
 40
16.0
 40
16.0
 40
17.0
 40
17.0
 40
17.0
 40
18.0
 40
18.0
 40
18.0
 40
19.0
 40
19.0
 40
19.0
 40
19.0
 10
123.8349907459509
 20
-153.9819878087267
 30
0.0
 10
123.8349907459509
 20
-154.0836181255416
 30
0.0
 10
123.8139756634909
 20
-154.3165065803445
 30
0.0
 10
123.6279405072874
 20
-154.4498317756236
 30
0.0
 10
123.5156303944683
 20
-154.5290689717844
 30
0.0
 10
123.4164116444931
 20
-154.5335475959152
 30
0.0
 10
123.3316622955559
 20
-154.538026220046
 30
0.0
 10
123.3316622955559
 20
-154.538026220046
 30
0.0
 10
123.3316622955559
 20
-154.303070707952
 30
0.0
 10
123.3316622955559
 20
-154.303070707952
 30
0.0
 10
123.4057318484888
 20
-154.3006591411123
 30
0.0
 10
123.6403428510343
 20
-154.289290326011
 30
0.0
 10
123.6403428510343
 20
-153.9864664328575
 30
0.0
 10
123.6403428510343
 20
-153.8393608556374
 30
0.0
 10
123.5707519222323
 20
-153.6767523487336
 30
0.0
 10
123.3423420915602
 20
-153.6767523487336
 30
0.0
 10
123.2258978641588
 20
-153.6767523487336
 30
0.0
 10
123.1773220178168
 20
-153.7174044754595
 30
0.0
 10
123.1456271393525
 20
-153.751166411215
 30
0.0
 10
123.0715575864196
 20
-153.8304036073757
 30
0.0
 10
123.0588107331242
 20
-153.9547715543932
 30
0.0
 10
123.0588107331242
 20
-154.013682687191
 30
0.0
 10
123.0588107331242
 20
-154.034008750554
 30
0.0
 10
123.0608777904153
 20
-154.0722493104403
 30
0.0
 10
123.0650119049976
 20
-154.1018771316134
 30
0.0
 10
123.0650119049976
 20
-154.1018771316134
 30
0.0
 10
122.870364010081
 20
-154.1018771316134
 30
0.0
 10
122.870364010081
 20
-154.1018771316134
 30
0.0
 10
122.876909691503
 20
-154.0612250048875
 30
0.0
 10
122.8789767487941
 20
-154.0157497444821
 30
0.0
 10
122.8789767487941
 20
-154.0092040630602
 30
0.0
 10
122.8789767487941
 20
-153.9389241151611
 30
0.0
 10
122.8576171567856
 20
-153.7263617237212
 30
0.0
 10
122.6209390969489
 20
-153.7263617237212
 30
0.0
 10
122.44317216991
 20
-153.7263617237212
 30
0.0
 10
122.388050642146
 20
-153.8665771099708
 30
0.0
 10
122.388050642146
 20
-153.9840548660179
 30
0.0
 10
122.388050642146
 20
-154.2668972053569
 30
0.0
 10
122.6209390969489
 20
-154.2758544536185
 30
0.0
 10
122.6925970830421
 20
-154.2803330777493
 30
0.0
 10
122.6925970830421
 20
-154.2803330777493
 30
0.0
 10
122.6925970830421
 20
-154.4973740933201
 30
0.0
 10
122.6925970830421
 20
-154.4973740933201
 30
0.0
 10
122.5678846264761
 20
-154.4884168450584
 30
0.0
 10
122.1913356899383
 20
-154.4591335334338
 30
0.0
 10
122.1913356899383
 20
-153.9706189936254
 30
0.0
 10
122.1913356899383
 20
-153.730840347852
 30
0.0
 10
122.318459713344
 20
-153.4731472055553
 30
0.0
 10
122.6143934155269
 20
-153.4731472055553
 30
0.0
 10
122.8007730812789
 20
-153.4731472055553
 30
0.0
 10
122.8831108633764
 20
-153.5751220319187
 30
0.0
 10
122.9444335630139
 20
-153.6812309728644
 30
0.0
 10
122.9719943268959
 20
-153.6157741586447
 30
0.0
 10
123.0522650517022
 20
-153.421126263728
 30
0.0
 10
123.3295952382648
 20
-153.421126263728
 30
0.0
 10
123.6679036149163
 20
-153.421126263728
 30
0.0
 10
123.8349907459509
 20
-153.6857095969952
 30
0.0
 10
123.8349907459509
 20
-153.9819878087267
 30
0.0
  0
HATCH
  5
9E
330
99
100
AcDbEntity
  8
レイヤー 1
 62
   250
420
  2299925
440
 33554687
100
AcDbHatch
 10
0.0
 20
0.0
 30
0.0
210
0.0
220
0.0
230
1.0
  2
SOLID
 70
     1
 71
     1
 91
        1
 92
        1
 93
        1
 72
     4
 94
        3
 73
     0
 74
     0
 95
       62
 96
       58
 40
0.0
 40
0.0
 40
0.0
 40
0.0
 40
1.0
 40
1.0
 40
1.0
 40
2.0
 40
2.0
 40
2.0
 40
3.0
 40
3.0
 40
3.0
 40
4.0
 40
4.0
 40
4.0
 40
5.0
 40
5.0
 40
5.0
 40
6.0
 40
6.0
 40
6.0
 40
7.0
 40
7.0
 40
7.0
 40
8.0
 40
8.0
 40
8.0
 40
9.0
 40
9.0
 40
9.0
 40
10.0
 40
10.0
 40
10.0
 40
11.0
 40
11.0
 40
11.0
 40
12.0
 40
12.0
 40
12.0
 40
13.0
 40
13.0
 40
13.0
 40
14.0
 40
14.0
 40
14.0
 40
15.0
 40
15.0
 40
15.0
 40
16.0
 40
16.0
 40
16.0
 40
17.0
 40
17.0
 40
17.0
 40
18.0
 40
18.0
 40
18.0
 40
19.0
 40
19.0
 40
19.0
 40
19.0
 10
123.8349907459509
 20
-153.9819878087267
 10
123.8349907459509
 20
-154.0836181255416
 10
123.8139756634909
 20
-154.3165065803445
 10
123.6279405072874
 20
-154.4498317756236
 10
123.5156303944683
 20
-154.5290689717844
 10
123.4164116444931
 20
-154.5335475959152
 10
123.3316622955559
 20
-154.538026220046
 10
123.3316622955559
 20
-154.538026220046
 10
123.3316622955559
 20
-154.303070707952
 10
123.3316622955559
 20
-154.303070707952
 10
123.4057318484888
 20
-154.3006591411123
 10
123.6403428510343
 20
-154.289290326011
 10
123.6403428510343
 20
-153.9864664328575
 10
123.6403428510343
 20
-153.8393608556374
 10
123.5707519222323
 20
-153.6767523487336
 10
123.3423420915602
 20
-153.6767523487336
 10
123.2258978641588
 20
-153.6767523487336
 10
123.1773220178168
 20
-153.7174044754595
 10
123.1456271393525
 20
-153.751166411215
 10
123.0715575864196
 20
-153.8304036073757
 10
123.0588107331242
 20
-153.9547715543932
 10
123.0588107331242
 20
-154.013682687191
 10
123.0588107331242
 20
-154.034008750554
 10
123.0608777904153
 20
-154.0722493104403
 10
123.0650119049976
 20
-154.1018771316134
 10
123.0650119049976
 20
-154.1018771316134
 10
122.870364010081
 20
-154.1018771316134
 10
122.870364010081
 20
-154.1018771316134
 10
122.876909691503
 20
-154.0612250048875
 10
122.8789767487941
 20
-154.0157497444821
 10
122.8789767487941
 20
-154.0092040630602
 10
122.8789767487941
 20
-153.9389241151611
 10
122.8576171567856
 20
-153.7263617237212
 10
122.6209390969489
 20
-153.7263617237212
 10
122.44317216991
 20
-153.7263617237212
 10
122.388050642146
 20
-153.8665771099708
 10
122.388050642146
 20
-153.9840548660179
 10
122.388050642146
 20
-154.2668972053569
 10
122.6209390969489
 20
-154.2758544536185
 10
122.6925970830421
 20
-154.2803330777493
 10
122.6925970830421
 20
-154.2803330777493
 10
122.6925970830421
 20
-154.4973740933201
 10
122.6925970830421
 20
-154.4973740933201
 10
122.5678846264761
 20
-154.4884168450584
 10
122.1913356899383
 20
-154.4591335334338
 10
122.1913356899383
 20
-153.9706189936254
 10
122.1913356899383
 20
-153.730840347852
 10
122.318459713344
 20
-153.4731472055553
 10
122.6143934155269
 20
-153.4731472055553
 10
122.8007730812789
 20
-153.4731472055553
 10
122.8831108633764
 20
-153.5751220319187
 10
122.9444335630139
 20
-153.6812309728644
 10
122.9719943268959
 20
-153.6157741586447
 10
123.0522650517022
 20
-153.421126263728
 10
123.3295952382648
 20
-153.421126263728
 10
123.6679036149163
 20
-153.421126263728
 10
123.8349907459509
 20
-153.6857095969952
 10
123.8349907459509
 20
-153.9819878087267
 97
        0
 97
        1
330
9D
 75
     2
 76
     1
 98
        1
 10
0.0
 20
0.0
450
        0
451
        0
460
0.0
461
0.0
452
        0
462
0.0
453
        0
470

  0
ENDBLK
  5
9C
330
99
100
AcDbEntity
  8
0
100
AcDbBlockEnd
  0
BLOCK
  5
A1
330
9F
100
AcDbEntity
  8
0
100
AcDbBlockBegin
  2
Block_5
 70
     0
 10
0.0
 20
0.0
 30
0.0
  3
Block_5
  1

  0
INSERT
  5
A4
330
9F
100
AcDbEntity
  8
レイヤー 1
100
AcDbBlockReference
  2
Block_6
 10
0.0
 20
0.0
 30
0.0
  0
ENDBLK
  5
A2
330
9F
100
AcDbEntity
  8
0
100
AcDbBlockEnd
  0
BLOCK
  5
A5
330
A3
100
AcDbEntity
  8
0
100
AcDbBlockBegin
  2
Block_6
 70
     0
 10
0.0
 20
0.0
 30
0.0
  3
Block_6
  1

  0
SPLINE
  5
A7
330
A3
100
AcDbEntity
  8
レイヤー 1
100
AcDbSpline
210
0.0
220
0.0
230
1.0
 70
    11
 71
     3
 72
    26
 73
    22
 74
     0
 42
0.0000000001
 43
0.0000000001
 40
0.0
 40
0.0
 40
0.0
 40
0.0
 40
1.0
 40
1.0
 40
1.0
 40
2.0
 40
2.0
 40
2.0
 40
3.0
 40
3.0
 40
3.0
 40
4.0
 40
4.0
 40
4.0
 40
5.0
 40
5.0
 40
5.0
 40
6.0
 40
6.0
 40
6.0
 40
7.0
 40
7.0
 40
7.0
 40
7.0
 10
101.9843003759796
 20
-158.1223035628999
 30
0.0
 10
101.9843003759796
 20
-158.1223035628999
 30
0.0
 10
101.9843003759796
 20
-157.0181504598774
 30
0.0
 10
101.9843003759796
 20
-157.0181504598774
 30
0.0
 10
101.9843003759796
 20
-157.0181504598774
 30
0.0
 10
101.63152259829
 20
-157.0181504598774
 30
0.0
 10
101.63152259829
 20
-157.0181504598774
 30
0.0
 10
101.63152259829
 20
-157.0181504598774
 30
0.0
 10
101.63152259829
 20
-156.8700113540116
 30
0.0
 10
101.63152259829
 20
-156.8700113540116
 30
0.0
 10
101.986539688045
 20
-156.8551974434251
 30
0.0
 10
102.0363213178069
 20
-156.6922444269728
 30
0.0
 10
102.0678439414969
 20
-156.5778672568624
 30
0.0
 10
102.0678439414969
 20
-156.5778672568624
 30
0.0
 10
102.2239067669787
 20
-156.5778672568624
 30
0.0
 10
102.2239067669787
 20
-156.5778672568624
 30
0.0
 10
102.2239067669787
 20
-156.5778672568624
 30
0.0
 10
102.2239067669787
 20
-158.1223035628999
 30
0.0
 10
102.2239067669787
 20
-158.1223035628999
 30
0.0
 10
102.2239067669787
 20
-158.1223035628999
 30
0.0
 10
101.9843003759796
 20
-158.1223035628999
 30
0.0
 10
101.9843003759796
 20
-158.1223035628999
 30
0.0
  0
HATCH
  5
A8
330
A3
100
AcDbEntity
  8
レイヤー 1
 62
   250
420
  2299925
440
 33554687
100
AcDbHatch
 10
0.0
 20
0.0
 30
0.0
210
0.0
220
0.0
230
1.0
  2
SOLID
 70
     1
 71
     1
 91
        1
 92
        1
 93
        1
 72
     4
 94
        3
 73
     0
 74
     0
 95
       26
 96
       22
 40
0.0
 40
0.0
 40
0.0
 40
0.0
 40
1.0
 40
1.0
 40
1.0
 40
2.0
 40
2.0
 40
2.0
 40
3.0
 40
3.0
 40
3.0
 40
4.0
 40
4.0
 40
4.0
 40
5.0
 40
5.0
 40
5.0
 40
6.0
 40
6.0
 40
6.0
 40
7.0
 40
7.0
 40
7.0
 40
7.0
 10
101.9843003759796
 20
-158.1223035628999
 10
101.9843003759796
 20
-158.1223035628999
 10
101.9843003759796
 20
-157.0181504598774
 10
101.9843003759796
 20
-157.0181504598774
 10
101.9843003759796
 20
-157.0181504598774
 10
101.63152259829
 20
-157.0181504598774
 10
101.63152259829
 20
-157.0181504598774
 10
101.63152259829
 20
-157.0181504598774
 10
101.63152259829
 20
-156.8700113540116
 10
101.63152259829
 20
-156.8700113540116
 10
101.986539688045
 20
-156.8551974434251
 10
102.0363213178069
 20
-156.6922444269728
 10
102.0678439414969
 20
-156.5778672568624
 10
102.0678439414969
 20
-156.5778672568624
 10
102.2239067669787
 20
-156.5778672568624
 10
102.2239067669787
 20
-156.5778672568624
 10
102.2239067669787
 20
-156.5778672568624
 10
102.2239067669787
 20
-158.1223035628999
 10
102.2239067669787
 20
-158.1223035628999
 10
102.2239067669787
 20
-158.1223035628999
 10
101.9843003759796
 20
-158.1223035628999
 10
101.9843003759796
 20
-158.1223035628999
 97
        0
 97
        1
330
A7
 75
     2
 76
     1
 98
        1
 10
0.0
 20
0.0
450
        0
451
        0
460
0.0
461
0.0
452
        0
462
0.0
453
        0
470

  0
SPLINE
  5
A9
330
A3
100
AcDbEntity
  8
レイヤー 1
100
AcDbSpline
210
0.0
220
0.0
230
1.0
 70
     9
 71
     3
 72
    17
 73
    13
 74
     0
 42
0.0000000001
 43
0.0000000001
 40
0.0
 40
0.0
 40
0.0
 40
0.0
 40
1.0
 40
1.0
 40
1.0
 40
2.0
 40
2.0
 40
2.0
 40
3.0
 40
3.0
 40
3.0
 40
4.0
 40
4.0
 40
4.0
 40
4.0
 10
103.2941256794716
 20
-156.7218722481459
 30
0.0
 10
103.027303034139
 20
-156.7218722481459
 30
0.0
 10
102.9775214043771
 20
-157.0054036065819
 30
0.0
 10
102.9775214043771
 20
-157.3502576646555
 30
0.0
 10
102.9775214043771
 20
-157.6696180161381
 30
0.0
 10
103.0159342190377
 20
-157.9782985716165
 30
0.0
 10
103.2941256794716
 20
-157.9782985716165
 30
0.0
 10
103.5585367579645
 20
-157.9782985716165
 30
0.0
 10
103.6105576997918
 20
-157.6971787800201
 30
0.0
 10
103.6105576997918
 20
-157.3502576646555
 30
0.0
 10
103.6105576997918
 20
-157.0305528036243
 30
0.0
 10
103.5699055730658
 20
-156.7218722481459
 30
0.0
 10
103.2941256794716
 20
-156.7218722481459
 30
0.0
  0
SPLINE
  5
AA
330
A3
100
AcDbEntity
  8
レイヤー 1
100
AcDbSpline
210
0.0
220
0.0
230
1.0
 70
     9
 71
     3
 72
    29
 73
    25
 74
     0
 42
0.0000000001
 43
0.0000000001
 40
0.0
 40
0.0
 40
0.0
 40
0.0
 40
1.0
 40
1.0
 40
1.0
 40
2.0
 40
2.0
 40
2.0
 40
3.0
 40
3.0
 40
3.0
 40
4.0
 40
4.0
 40
4.0
 40
5.0
 40
5.0
 40
5.0
 40
6.0
 40
6.0
 40
6.0
 40
7.0
 40
7.0
 40
7.0
 40
8.0
 40
8.0
 40
8.0
 40
8.0
 10
103.7190782075771
 20
-157.944536635861
 30
0.0
 10
103.6038397635955
 20
-158.1539984413643
 30
0.0
 10
103.4184936264891
 20
-158.1729464665331
 30
0.0
 10
103.2941256794716
 20
-158.1729464665331
 30
0.0
 10
103.1222154147576
 20
-158.1729464665331
 30
0.0
 10
102.9708034681809
 20
-158.1264376774823
 30
0.0
 10
102.8690008965918
 20
-157.944536635861
 30
0.0
 10
102.758241076741
 20
-157.7498887409444
 30
0.0
 10
102.737915013378
 20
-157.5128661715593
 30
0.0
 10
102.737915013378
 20
-157.3502576646555
 30
0.0
 10
102.737915013378
 20
-157.206252673372
 30
0.0
 10
102.7560017646756
 20
-156.9544161934003
 30
0.0
 10
102.8690008965918
 20
-156.7556341839013
 30
0.0
 10
102.9844115953476
 20
-156.5527180598201
 30
0.0
 10
103.1561496052873
 20
-156.5292914105205
 30
0.0
 10
103.2941256794716
 20
-156.5292914105205
 30
0.0
 10
103.4636243773459
 20
-156.5292914105205
 30
0.0
 10
103.6174478907623
 20
-156.5737331422802
 30
0.0
 10
103.7190782075771
 20
-156.7556341839013
 30
0.0
 10
103.8253594032971
 20
-156.9482150215268
 30
0.0
 10
103.8503363455652
 20
-157.1766248521989
 30
0.0
 10
103.8503363455652
 20
-157.3502576646555
 30
0.0
 10
103.8503363455652
 20
-157.5214789102724
 30
0.0
 10
103.8275987153625
 20
-157.7519557982356
 30
0.0
 10
103.7190782075771
 20
-157.944536635861
 30
0.0
  0
HATCH
  5
AB
330
A3
100
AcDbEntity
  8
レイヤー 1
 62
   250
420
  2299925
440
 33554687
100
AcDbHatch
 10
0.0
 20
0.0
 30
0.0
210
0.0
220
0.0
230
1.0
  2
SOLID
 70
     1
 71
     1
 91
        2
 92
        1
 93
        1
 72
     4
 94
        3
 73
     0
 74
     0
 95
       17
 96
       13
 40
0.0
 40
0.0
 40
0.0
 40
0.0
 40
1.0
 40
1.0
 40
1.0
 40
2.0
 40
2.0
 40
2.0
 40
3.0
 40
3.0
 40
3.0
 40
4.0
 40
4.0
 40
4.0
 40
4.0
 10
103.2941256794716
 20
-156.7218722481459
 10
103.027303034139
 20
-156.7218722481459
 10
102.9775214043771
 20
-157.0054036065819
 10
102.9775214043771
 20
-157.3502576646555
 10
102.9775214043771
 20
-157.6696180161381
 10
103.0159342190377
 20
-157.9782985716165
 10
103.2941256794716
 20
-157.9782985716165
 10
103.5585367579645
 20
-157.9782985716165
 10
103.6105576997918
 20
-157.6971787800201
 10
103.6105576997918
 20
-157.3502576646555
 10
103.6105576997918
 20
-157.0305528036243
 10
103.5699055730658
 20
-156.7218722481459
 10
103.2941256794716
 20
-156.7218722481459
 97
        0
 97
        1
330
A9
 92
        1
 93
        1
 72
     4
 94
        3
 73
     0
 74
     0
 95
       29
 96
       25
 40
0.0
 40
0.0
 40
0.0
 40
0.0
 40
1.0
 40
1.0
 40
1.0
 40
2.0
 40
2.0
 40
2.0
 40
3.0
 40
3.0
 40
3.0
 40
4.0
 40
4.0
 40
4.0
 40
5.0
 40
5.0
 40
5.0
 40
6.0
 40
6.0
 40
6.0
 40
7.0
 40
7.0
 40
7.0
 40
8.0
 40
8.0
 40
8.0
 40
8.0
 10
103.7190782075771
 20
-157.944536635861
 10
103.6038397635955
 20
-158.1539984413643
 10
103.4184936264891
 20
-158.1729464665331
 10
103.2941256794716
 20
-158.1729464665331
 10
103.1222154147576
 20
-158.1729464665331
 10
102.9708034681809
 20
-158.1264376774823
 10
102.8690008965918
 20
-157.944536635861
 10
102.758241076741
 20
-157.7498887409444
 10
102.737915013378
 20
-157.5128661715593
 10
102.737915013378
 20
-157.3502576646555
 10
102.737915013378
 20
-157.206252673372
 10
102.7560017646756
 20
-156.9544161934003
 10
102.8690008965918
 20
-156.7556341839013
 10
102.9844115953476
 20
-156.5527180598201
 10
103.1561496052873
 20
-156.5292914105205
 10
103.2941256794716
 20
-156.5292914105205
 10
103.4636243773459
 20
-156.5292914105205
 10
103.6174478907623
 20
-156.5737331422802
 10
103.7190782075771
 20
-156.7556341839013
 10
103.8253594032971
 20
-156.9482150215268
 10
103.8503363455652
 20
-157.1766248521989
 10
103.8503363455652
 20
-157.3502576646555
 10
103.8503363455652
 20
-157.5214789102724
 10
103.8275987153625
 20
-157.7519557982356
 10
103.7190782075771
 20
-157.944536635861
 97
        0
 97
        1
330
AA
 75
     2
 76
     1
 98
        1
 10
0.0
 20
0.0
450
        0
451
        0
460
0.0
461
0.0
452
        0
462
0.0
453
        0
470

  0
ENDBLK
  5
A6
330
A3
100
AcDbEntity
  8
0
100
AcDbBlockEnd
  0
BLOCK
  5
AE
330
AC
100
AcDbEntity
  8
0
100
AcDbBlockBegin
  2
Block_7
 70
     0
 10
0.0
 20
0.0
 30
0.0
  3
Block_7
  1

  0
INSERT
  5
B1
330
AC
100
AcDbEntity
  8
レイヤー 1
100
AcDbBlockReference
  2
Block_8
 10
0.0
 20
0.0
 30
0.0
  0
ENDBLK
  5
AF
330
AC
100
AcDbEntity
  8
0
100
AcDbBlockEnd
  0
BLOCK
  5
B2
330
B0
100
AcDbEntity
  8
0
100
AcDbBlockBegin
  2
Block_8
 70
     0
 10
0.0
 20
0.0
 30
0.0
  3
Block_8
  1

  0
SPLINE
  5
B4
330
B0
100
AcDbEntity
  8
レイヤー 1
100
AcDbSpline
210
0.0
220
0.0
230
1.0
 70
     9
 71
     3
 72
    44
 73
    40
 74
     0
 42
0.0000000001
 43
0.0000000001
 40
0.0
 40
0.0
 40
0.0
 40
0.0
 40
1.0
 40
1.0
 40
1.0
 40
2.0
 40
2.0
 40
2.0
 40
3.0
 40
3.0
 40
3.0
 40
4.0
 40
4.0
 40
4.0
 40
5.0
 40
5.0
 40
5.0
 40
6.0
 40
6.0
 40
6.0
 40
7.0
 40
7.0
 40
7.0
 40
8.0
 40
8.0
 40
8.0
 40
9.0
 40
9.0
 40
9.0
 40
10.0
 40
10.0
 40
10.0
 40
11.0
 40
11.0
 40
11.0
 40
12.0
 40
12.0
 40
12.0
 40
13.0
 40
13.0
 40
13.0
 40
13.0
 10
109.1058295083138
 20
-139.7389295440583
 30
0.0
 10
108.8729410535109
 20
-139.8975761911541
 30
0.0
 10
108.7733777939872
 20
-139.9716457440869
 30
0.0
 10
108.7213568521599
 20
-140.1154784805961
 30
0.0
 10
108.7213568521599
 20
-140.1154784805961
 30
0.0
 10
109.5536919213963
 20
-140.1154784805961
 30
0.0
 10
109.5536919213963
 20
-140.1154784805961
 30
0.0
 10
109.5536919213963
 20
-140.1154784805961
 30
0.0
 10
109.5536919213963
 20
-140.3206339167427
 30
0.0
 10
109.5536919213963
 20
-140.3206339167427
 30
0.0
 10
109.5536919213963
 20
-140.3206339167427
 30
0.0
 10
108.4547064616016
 20
-140.3206339167427
 30
0.0
 10
108.4547064616016
 20
-140.3206339167427
 30
0.0
 10
108.4888129069055
 20
-139.9630330053738
 30
0.0
 10
108.5587483452561
 20
-139.8848293378586
 30
0.0
 10
108.970092746195
 20
-139.586484068836
 30
0.0
 10
109.2436333277238
 20
-139.3877020593371
 30
0.0
 10
109.3139132756229
 20
-139.3200059330519
 30
0.0
 10
109.3139132756229
 20
-139.1825466231905
 30
0.0
 10
109.3139132756229
 20
-139.0640353384979
 30
0.0
 10
109.2370876463018
 20
-138.9329494552841
 30
0.0
 10
109.0265923121531
 20
-138.9329494552841
 30
0.0
 10
108.7485731064934
 20
-138.9329494552841
 30
0.0
 10
108.7396158582317
 20
-139.1634263432473
 30
0.0
 10
108.7351372341009
 20
-139.2798705706488
 30
0.0
 10
108.7351372341009
 20
-139.2798705706488
 30
0.0
 10
108.4953585883275
 20
-139.2798705706488
 30
0.0
 10
108.4953585883275
 20
-139.2798705706488
 30
0.0
 10
108.5043158365892
 20
-139.1529188020173
 30
0.0
 10
108.5156846516905
 20
-139.0407809439724
 30
0.0
 10
108.6018120388217
 20
-138.9222696592798
 30
0.0
 10
108.7192897948688
 20
-138.7615559548929
 30
0.0
 10
108.9180718043677
 20
-138.7276217643632
 30
0.0
 10
109.0424397513852
 20
-138.7276217643632
 30
0.0
 10
109.3387179631167
 20
-138.7276217643632
 30
0.0
 10
109.5602376028183
 20
-138.9117621180498
 30
0.0
 10
109.5602376028183
 20
-139.1846136804816
 30
0.0
 10
109.5602376028183
 20
-139.4130235111536
 30
0.0
 10
109.4358696558007
 20
-139.5125867706774
 30
0.0
 10
109.1058295083138
 20
-139.7389295440583
 30
0.0
  0
HATCH
  5
B5
330
B0
100
AcDbEntity
  8
レイヤー 1
 62
   250
420
  2299925
440
 33554687
100
AcDbHatch
 10
0.0
 20
0.0
 30
0.0
210
0.0
220
0.0
230
1.0
  2
SOLID
 70
     1
 71
     1
 91
        1
 92
        1
 93
        1
 72
     4
 94
        3
 73
     0
 74
     0
 95
       44
 96
       40
 40
0.0
 40
0.0
 40
0.0
 40
0.0
 40
1.0
 40
1.0
 40
1.0
 40
2.0
 40
2.0
 40
2.0
 40
3.0
 40
3.0
 40
3.0
 40
4.0
 40
4.0
 40
4.0
 40
5.0
 40
5.0
 40
5.0
 40
6.0
 40
6.0
 40
6.0
 40
7.0
 40
7.0
 40
7.0
 40
8.0
 40
8.0
 40
8.0
 40
9.0
 40
9.0
 40
9.0
 40
10.0
 40
10.0
 40
10.0
 40
11.0
 40
11.0
 40
11.0
 40
12.0
 40
12.0
 40
12.0
 40
13.0
 40
13.0
 40
13.0
 40
13.0
 10
109.1058295083138
 20
-139.7389295440583
 10
108.8729410535109
 20
-139.8975761911541
 10
108.7733777939872
 20
-139.9716457440869
 10
108.7213568521599
 20
-140.1154784805961
 10
108.7213568521599
 20
-140.1154784805961
 10
109.5536919213963
 20
-140.1154784805961
 10
109.5536919213963
 20
-140.1154784805961
 10
109.5536919213963
 20
-140.1154784805961
 10
109.5536919213963
 20
-140.3206339167427
 10
109.5536919213963
 20
-140.3206339167427
 10
109.5536919213963
 20
-140.3206339167427
 10
108.4547064616016
 20
-140.3206339167427
 10
108.4547064616016
 20
-140.3206339167427
 10
108.4888129069055
 20
-139.9630330053738
 10
108.5587483452561
 20
-139.8848293378586
 10
108.970092746195
 20
-139.586484068836
 10
109.2436333277238
 20
-139.3877020593371
 10
109.3139132756229
 20
-139.3200059330519
 10
109.3139132756229
 20
-139.1825466231905
 10
109.3139132756229
 20
-139.0640353384979
 10
109.2370876463018
 20
-138.9329494552841
 10
109.0265923121531
 20
-138.9329494552841
 10
108.7485731064934
 20
-138.9329494552841
 10
108.7396158582317
 20
-139.1634263432473
 10
108.7351372341009
 20
-139.2798705706488
 10
108.7351372341009
 20
-139.2798705706488
 10
108.4953585883275
 20
-139.2798705706488
 10
108.4953585883275
 20
-139.2798705706488
 10
108.5043158365892
 20
-139.1529188020173
 10
108.5156846516905
 20
-139.0407809439724
 10
108.6018120388217
 20
-138.9222696592798
 10
108.7192897948688
 20
-138.7615559548929
 10
108.9180718043677
 20
-138.7276217643632
 10
109.0424397513852
 20
-138.7276217643632
 10
109.3387179631167
 20
-138.7276217643632
 10
109.5602376028183
 20
-138.9117621180498
 10
109.5602376028183
 20
-139.1846136804816
 10
109.5602376028183
 20
-139.4130235111536
 10
109.4358696558007
 20
-139.5125867706774
 10
109.1058295083138
 20
-139.7389295440583
 97
        0
 97
        1
330
B4
 75
     2
 76
     1
 98
        1
 10
0.0
 20
0.0
450
        0
451
        0
460
0.0
461
0.0
452
        0
462
0.0
453
        0
470

  0
SPLINE
  5
B6
330
B0
100
AcDbEntity
  8
レイヤー 1
100
AcDbSpline
210
0.0
220
0.0
230
1.0
 70
     9
 71
     3
 72
    62
 73
    58
 74
     0
 42
0.0000000001
 43
0.0000000001
 40
0.0
 40
0.0
 40
0.0
 40
0.0
 40
1.0
 40
1.0
 40
1.0
 40
2.0
 40
2.0
 40
2.0
 40
3.0
 40
3.0
 40
3.0
 40
4.0
 40
4.0
 40
4.0
 40
5.0
 40
5.0
 40
5.0
 40
6.0
 40
6.0
 40
6.0
 40
7.0
 40
7.0
 40
7.0
 40
8.0
 40
8.0
 40
8.0
 40
9.0
 40
9.0
 40
9.0
 40
10.0
 40
10.0
 40
10.0
 40
11.0
 40
11.0
 40
11.0
 40
12.0
 40
12.0
 40
12.0
 40
13.0
 40
13.0
 40
13.0
 40
14.0
 40
14.0
 40
14.0
 40
15.0
 40
15.0
 40
15.0
 40
16.0
 40
16.0
 40
16.0
 40
17.0
 40
17.0
 40
17.0
 40
18.0
 40
18.0
 40
18.0
 40
19.0
 40
19.0
 40
19.0
 40
19.0
 10
110.2551133621932
 20
-140.3714490751502
 30
0.0
 10
110.1534830453783
 20
-140.3714490751502
 30
0.0
 10
109.9205945905754
 20
-140.3502617379159
 30
0.0
 10
109.7872693952962
 20
-140.1640543269381
 30
0.0
 10
109.7080321991355
 20
-140.0519164688932
 30
0.0
 10
109.7035535750046
 20
-139.9525254641438
 30
0.0
 10
109.6990749508738
 20
-139.8679483699809
 30
0.0
 10
109.6990749508738
 20
-139.8679483699809
 30
0.0
 10
109.9340304629679
 20
-139.8679483699809
 30
0.0
 10
109.9340304629679
 20
-139.8679483699809
 30
0.0
 10
109.9364420298075
 20
-139.9420179229138
 30
0.0
 10
109.9478108449089
 20
-140.1768011802336
 30
0.0
 10
110.2506347380623
 20
-140.1768011802336
 30
0.0
 10
110.3977403152825
 20
-140.1768011802336
 30
0.0
 10
110.5603488221863
 20
-140.1070379966573
 30
0.0
 10
110.5603488221863
 20
-139.8784559112109
 30
0.0
 10
110.5603488221863
 20
-139.7621839385837
 30
0.0
 10
110.5196966954603
 20
-139.7134358374674
 30
0.0
 10
110.4859347597049
 20
-139.6817409590032
 30
0.0
 10
110.4066975635441
 20
-139.6076714060703
 30
0.0
 10
110.2823296165266
 20
-139.5950968075491
 30
0.0
 10
110.2234184837288
 20
-139.5950968075491
 30
0.0
 10
110.2030924203659
 20
-139.5950968075491
 30
0.0
 10
110.1648518604796
 20
-139.5971638648403
 30
0.0
 10
110.1352240393065
 20
-139.6012979794226
 30
0.0
 10
110.1352240393065
 20
-139.6012979794226
 30
0.0
 10
110.1352240393065
 20
-139.4066500845059
 30
0.0
 10
110.1352240393065
 20
-139.4066500845059
 30
0.0
 10
110.1758761660324
 20
-139.4130235111536
 30
0.0
 10
110.2213514264377
 20
-139.4152628232191
 30
0.0
 10
110.2278971078597
 20
-139.4152628232191
 30
0.0
 10
110.2981770557588
 20
-139.4152628232191
 30
0.0
 10
110.5107394471987
 20
-139.3940754859848
 30
0.0
 10
110.5107394471987
 20
-139.1570529165996
 30
0.0
 10
110.5107394471987
 20
-138.979458244335
 30
0.0
 10
110.370524060949
 20
-138.924336716571
 30
0.0
 10
110.253046304902
 20
-138.924336716571
 30
0.0
 10
109.970203965563
 20
-138.924336716571
 30
0.0
 10
109.9612467173013
 20
-139.1570529165996
 30
0.0
 10
109.9567680931705
 20
-139.2290554122413
 30
0.0
 10
109.9567680931705
 20
-139.2290554122413
 30
0.0
 10
109.7397270775998
 20
-139.2290554122413
 30
0.0
 10
109.7397270775998
 20
-139.2290554122413
 30
0.0
 10
109.7486843258614
 20
-139.104170700901
 30
0.0
 10
109.7779676374861
 20
-138.7276217643632
 30
0.0
 10
110.2664821772945
 20
-138.7276217643632
 30
0.0
 10
110.5062608230679
 20
-138.7276217643632
 30
0.0
 10
110.7639539653646
 20
-138.8545735329947
 30
0.0
 10
110.7639539653646
 20
-139.1506794899519
 30
0.0
 10
110.7639539653646
 20
-139.3368869009296
 30
0.0
 10
110.6619791390011
 20
-139.4193969378014
 30
0.0
 10
110.5558701980555
 20
-139.4807196374388
 30
0.0
 10
110.6213270122752
 20
-139.5082804013208
 30
0.0
 10
110.8159749071918
 20
-139.5887233809014
 30
0.0
 10
110.8159749071918
 20
-139.8658813126898
 30
0.0
 10
110.8159749071918
 20
-140.2043619441156
 30
0.0
 10
110.5513915739246
 20
-140.3714490751502
 30
0.0
 10
110.2551133621932
 20
-140.3714490751502
 30
0.0
  0
HATCH
  5
B7
330
B0
100
AcDbEntity
  8
レイヤー 1
 62
   250
420
  2299925
440
 33554687
100
AcDbHatch
 10
0.0
 20
0.0
 30
0.0
210
0.0
220
0.0
230
1.0
  2
SOLID
 70
     1
 71
     1
 91
        1
 92
        1
 93
        1
 72
     4
 94
        3
 73
     0
 74
     0
 95
       62
 96
       58
 40
0.0
 40
0.0
 40
0.0
 40
0.0
 40
1.0
 40
1.0
 40
1.0
 40
2.0
 40
2.0
 40
2.0
 40
3.0
 40
3.0
 40
3.0
 40
4.0
 40
4.0
 40
4.0
 40
5.0
 40
5.0
 40
5.0
 40
6.0
 40
6.0
 40
6.0
 40
7.0
 40
7.0
 40
7.0
 40
8.0
 40
8.0
 40
8.0
 40
9.0
 40
9.0
 40
9.0
 40
10.0
 40
10.0
 40
10.0
 40
11.0
 40
11.0
 40
11.0
 40
12.0
 40
12.0
 40
12.0
 40
13.0
 40
13.0
 40
13.0
 40
14.0
 40
14.0
 40
14.0
 40
15.0
 40
15.0
 40
15.0
 40
16.0
 40
16.0
 40
16.0
 40
17.0
 40
17.0
 40
17.0
 40
18.0
 40
18.0
 40
18.0
 40
19.0
 40
19.0
 40
19.0
 40
19.0
 10
110.2551133621932
 20
-140.3714490751502
 10
110.1534830453783
 20
-140.3714490751502
 10
109.9205945905754
 20
-140.3502617379159
 10
109.7872693952962
 20
-140.1640543269381
 10
109.7080321991355
 20
-140.0519164688932
 10
109.7035535750046
 20
-139.9525254641438
 10
109.6990749508738
 20
-139.8679483699809
 10
109.6990749508738
 20
-139.8679483699809
 10
109.9340304629679
 20
-139.8679483699809
 10
109.9340304629679
 20
-139.8679483699809
 10
109.9364420298075
 20
-139.9420179229138
 10
109.9478108449089
 20
-140.1768011802336
 10
110.2506347380623
 20
-140.1768011802336
 10
110.3977403152825
 20
-140.1768011802336
 10
110.5603488221863
 20
-140.1070379966573
 10
110.5603488221863
 20
-139.8784559112109
 10
110.5603488221863
 20
-139.7621839385837
 10
110.5196966954603
 20
-139.7134358374674
 10
110.4859347597049
 20
-139.6817409590032
 10
110.4066975635441
 20
-139.6076714060703
 10
110.2823296165266
 20
-139.5950968075491
 10
110.2234184837288
 20
-139.5950968075491
 10
110.2030924203659
 20
-139.5950968075491
 10
110.1648518604796
 20
-139.5971638648403
 10
110.1352240393065
 20
-139.6012979794226
 10
110.1352240393065
 20
-139.6012979794226
 10
110.1352240393065
 20
-139.4066500845059
 10
110.1352240393065
 20
-139.4066500845059
 10
110.1758761660324
 20
-139.4130235111536
 10
110.2213514264377
 20
-139.4152628232191
 10
110.2278971078597
 20
-139.4152628232191
 10
110.2981770557588
 20
-139.4152628232191
 10
110.5107394471987
 20
-139.3940754859848
 10
110.5107394471987
 20
-139.1570529165996
 10
110.5107394471987
 20
-138.979458244335
 10
110.370524060949
 20
-138.924336716571
 10
110.253046304902
 20
-138.924336716571
 10
109.970203965563
 20
-138.924336716571
 10
109.9612467173013
 20
-139.1570529165996
 10
109.9567680931705
 20
-139.2290554122413
 10
109.9567680931705
 20
-139.2290554122413
 10
109.7397270775998
 20
-139.2290554122413
 10
109.7397270775998
 20
-139.2290554122413
 10
109.7486843258614
 20
-139.104170700901
 10
109.7779676374861
 20
-138.7276217643632
 10
110.2664821772945
 20
-138.7276217643632
 10
110.5062608230679
 20
-138.7276217643632
 10
110.7639539653646
 20
-138.8545735329947
 10
110.7639539653646
 20
-139.1506794899519
 10
110.7639539653646
 20
-139.3368869009296
 10
110.6619791390011
 20
-139.4193969378014
 10
110.5558701980555
 20
-139.4807196374388
 10
110.6213270122752
 20
-139.5082804013208
 10
110.8159749071918
 20
-139.5887233809014
 10
110.8159749071918
 20
-139.8658813126898
 10
110.8159749071918
 20
-140.2043619441156
 10
110.5513915739246
 20
-140.3714490751502
 10
110.2551133621932
 20
-140.3714490751502
 97
        0
 97
        1
330
B6
 75
     2
 76
     1
 98
        1
 10
0.0
 20
0.0
450
        0
451
        0
460
0.0
461
0.0
452
        0
462
0.0
453
        0
470

  0
ENDBLK
  5
B3
330
B0
100
AcDbEntity
  8
0
100
AcDbBlockEnd
  0
BLOCK
  5
D8
330
D6
100
AcDbEntity
  8
0
100
AcDbBlockBegin
  2
Block_9
 70
     0
 10
0.0
 20
0.0
 30
0.0
  3
Block_9
  1

  0
INSERT
  5
DB
330
D6
100
AcDbEntity
  8
レイヤー 1
100
AcDbBlockReference
  2
Block_10
 10
0.0
 20
0.0
 30
0.0
  0
ENDBLK
  5
D9
330
D6
100
AcDbEntity
  8
0
100
AcDbBlockEnd
  0
BLOCK
  5
DC
330
DA
100
AcDbEntity
  8
0
100
AcDbBlockBegin
  2
Block_10
 70
     0
 10
0.0
 20
0.0
 30
0.0
  3
Block_10
  1

  0
SPLINE
  5
DE
330
DA
100
AcDbEntity
  8
レイヤー 1
100
AcDbSpline
210
0.0
220
0.0
230
1.0
 70
     9
 71
     3
 72
    17
 73
    13
 74
     0
 42
0.0000000001
 43
0.0000000001
 40
0.0
 40
0.0
 40
0.0
 40
0.0
 40
1.0
 40
1.0
 40
1.0
 40
2.0
 40
2.0
 40
2.0
 40
3.0
 40
3.0
 40
3.0
 40
4.0
 40
4.0
 40
4.0
 40
4.0
 10
85.12400307116692
 20
-159.7122151293428
 30
0.0
 10
85.1071221032892
 20
-159.7414984409674
 30
0.0
 10
85.05647919965602
 20
-159.8348605286176
 30
0.0
 10
85.04579940365173
 20
-159.8538085537865
 30
0.0
 10
85.23631318398606
 20
-159.9130641961328
 30
0.0
 10
85.2573282664461
 20
-159.9192653680063
 30
0.0
 10
85.32933076208781
 20
-159.9468261318883
 30
0.0
 10
85.3844522898518
 20
-159.86000972566
 30
0.0
 10
85.40753442960298
 20
-159.7859401727271
 30
0.0
 10
85.42234834018955
 20
-159.7122151293428
 30
0.0
 10
85.42234834018955
 20
-159.7122151293428
 30
0.0
 10
85.12400307116692
 20
-159.7122151293428
 30
0.0
 10
85.12400307116692
 20
-159.7122151293428
 30
0.0
  0
SPLINE
  5
DF
330
DA
100
AcDbEntity
  8
レイヤー 1
100
AcDbSpline
210
0.0
220
0.0
230
1.0
 70
    11
 71
     3
 72
    20
 73
    16
 74
     0
 42
0.0000000001
 43
0.0000000001
 40
0.0
 40
0.0
 40
0.0
 40
0.0
 40
1.0
 40
1.0
 40
1.0
 40
2.0
 40
2.0
 40
2.0
 40
3.0
 40
3.0
 40
3.0
 40
4.0
 40
4.0
 40
4.0
 40
5.0
 40
5.0
 40
5.0
 40
5.0
 10
85.06061331423833
 20
-158.8616210540346
 30
0.0
 10
85.06061331423833
 20
-158.8616210540346
 30
0.0
 10
85.02891843577403
 20
-158.8616210540346
 30
0.0
 10
85.02891843577403
 20
-158.8616210540346
 30
0.0
 10
85.07542722482488
 20
-158.9611843135583
 30
0.0
 10
85.1071221032892
 20
-159.0414550383646
 30
0.0
 10
85.14088403904464
 20
-159.1682345522218
 30
0.0
 10
85.14088403904464
 20
-159.1682345522218
 30
0.0
 10
85.34827878725669
 20
-159.1682345522218
 30
0.0
 10
85.34827878725669
 20
-159.1682345522218
 30
0.0
 10
85.37997366572097
 20
-159.07521697412
 30
0.0
 10
85.40340031502067
 20
-158.9908121347314
 30
0.0
 10
85.42648245477186
 20
-158.8616210540346
 30
0.0
 10
85.42648245477186
 20
-158.8616210540346
 30
0.0
 10
85.06061331423833
 20
-158.8616210540346
 30
0.0
 10
85.06061331423833
 20
-158.8616210540346
 30
0.0
  0
SPLINE
  5
E0
330
DA
100
AcDbEntity
  8
レイヤー 1
100
AcDbSpline
210
0.0
220
0.0
230
1.0
 70
     9
 71
     3
 72
   242
 73
   238
 74
     0
 42
0.0000000001
 43
0.0000000001
 40
0.0
 40
0.0
 40
0.0
 40
0.0
 40
1.0
 40
1.0
 40
1.0
 40
2.0
 40
2.0
 40
2.0
 40
3.0
 40
3.0
 40
3.0
 40
4.0
 40
4.0
 40
4.0
 40
5.0
 40
5.0
 40
5.0
 40
6.0
 40
6.0
 40
6.0
 40
7.0
 40
7.0
 40
7.0
 40
8.0
 40
8.0
 40
8.0
 40
9.0
 40
9.0
 40
9.0
 40
10.0
 40
10.0
 40
10.0
 40
11.0
 40
11.0
 40
11.0
 40
12.0
 40
12.0
 40
12.0
 40
13.0
 40
13.0
 40
13.0
 40
14.0
 40
14.0
 40
14.0
 40
15.0
 40
15.0
 40
15.0
 40
16.0
 40
16.0
 40
16.0
 40
17.0
 40
17.0
 40
17.0
 40
18.0
 40
18.0
 40
18.0
 40
19.0
 40
19.0
 40
19.0
 40
20.0
 40
20.0
 40
20.0
 40
21.0
 40
21.0
 40
21.0
 40
22.0
 40
22.0
 40
22.0
 40
23.0
 40
23.0
 40
23.0
 40
24.0
 40
24.0
 40
24.0
 40
25.0
 40
25.0
 40
25.0
 40
26.0
 40
26.0
 40
26.0
 40
27.0
 40
27.0
 40
27.0
 40
28.0
 40
28.0
 40
28.0
 40
29.0
 40
29.0
 40
29.0
 40
30.0
 40
30.0
 40
30.0
 40
31.0
 40
31.0
 40
31.0
 40
32.0
 40
32.0
 40
32.0
 40
33.0
 40
33.0
 40
33.0
 40
34.0
 40
34.0
 40
34.0
 40
35.0
 40
35.0
 40
35.0
 40
36.0
 40
36.0
 40
36.0
 40
37.0
 40
37.0
 40
37.0
 40
38.0
 40
38.0
 40
38.0
 40
39.0
 40
39.0
 40
39.0
 40
40.0
 40
40.0
 40
40.0
 40
41.0
 40
41.0
 40
41.0
 40
42.0
 40
42.0
 40
42.0
 40
43.0
 40
43.0
 40
43.0
 40
44.0
 40
44.0
 40
44.0
 40
45.0
 40
45.0
 40
45.0
 40
46.0
 40
46.0
 40
46.0
 40
47.0
 40
47.0
 40
47.0
 40
48.0
 40
48.0
 40
48.0
 40
49.0
 40
49.0
 40
49.0
 40
50.0
 40
50.0
 40
50.0
 40
51.0
 40
51.0
 40
51.0
 40
52.0
 40
52.0
 40
52.0
 40
53.0
 40
53.0
 40
53.0
 40
54.0
 40
54.0
 40
54.0
 40
55.0
 40
55.0
 40
55.0
 40
56.0
 40
56.0
 40
56.0
 40
57.0
 40
57.0
 40
57.0
 40
58.0
 40
58.0
 40
58.0
 40
59.0
 40
59.0
 40
59.0
 40
60.0
 40
60.0
 40
60.0
 40
61.0
 40
61.0
 40
61.0
 40
62.0
 40
62.0
 40
62.0
 40
63.0
 40
63.0
 40
63.0
 40
64.0
 40
64.0
 40
64.0
 40
65.0
 40
65.0
 40
65.0
 40
66.0
 40
66.0
 40
66.0
 40
67.0
 40
67.0
 40
67.0
 40
68.0
 40
68.0
 40
68.0
 40
69.0
 40
69.0
 40
69.0
 40
70.0
 40
70.0
 40
70.0
 40
71.0
 40
71.0
 40
71.0
 40
72.0
 40
72.0
 40
72.0
 40
73.0
 40
73.0
 40
73.0
 40
74.0
 40
74.0
 40
74.0
 40
75.0
 40
75.0
 40
75.0
 40
76.0
 40
76.0
 40
76.0
 40
77.0
 40
77.0
 40
77.0
 40
78.0
 40
78.0
 40
78.0
 40
79.0
 40
79.0
 40
79.0
 40
79.0
 10
85.68899873074789
 20
-159.3270534540918
 30
0.0
 10
85.68899873074789
 20
-159.3270534540918
 30
0.0
 10
85.43509519348498
 20
-159.3270534540918
 30
0.0
 10
85.43509519348498
 20
-159.3270534540918
 30
0.0
 10
85.43509519348498
 20
-159.3270534540918
 30
0.0
 10
85.15810951647088
 20
-159.3270534540918
 30
0.0
 10
85.15810951647088
 20
-159.3270534540918
 30
0.0
 10
85.15810951647088
 20
-159.3270534540918
 30
0.0
 10
85.28488903032808
 20
-159.3694281285604
 30
0.0
 10
85.28488903032808
 20
-159.3694281285604
 30
0.0
 10
85.29556882633235
 20
-159.3735622431427
 30
0.0
 10
85.30831567962778
 20
-159.3797634150162
 30
0.0
 10
85.30831567962778
 20
-159.3925102683116
 30
0.0
 10
85.30831567962778
 20
-159.4138698603201
 30
0.0
 10
85.27627629161496
 20
-159.4200710321936
 30
0.0
 10
85.25526120915493
 20
-159.4242051467759
 30
0.0
 10
85.24458141315067
 20
-159.4476317960756
 30
0.0
 10
85.21495359197752
 20
-159.5130886102953
 30
0.0
 10
85.19600556680863
 20
-159.557530342055
 30
0.0
 10
85.19600556680863
 20
-159.557530342055
 30
0.0
 10
85.46679007194928
 20
-159.557530342055
 30
0.0
 10
85.46679007194928
 20
-159.557530342055
 30
0.0
 10
85.55774059275988
 20
-159.557530342055
 30
0.0
 10
85.75445554496765
 20
-159.5533962274727
 30
0.0
 10
85.89639347895994
 20
-159.5447834887596
 30
0.0
 10
85.89639347895994
 20
-159.5447834887596
 30
0.0
 10
85.89639347895994
 20
-159.7225504157985
 30
0.0
 10
85.89639347895994
 20
-159.7225504157985
 30
0.0
 10
85.81371118731395
 20
-159.7184163012162
 30
0.0
 10
85.79269610485392
 20
-159.7184163012162
 30
0.0
 10
85.61286212052387
 20
-159.7142821866339
 30
0.0
 10
85.58116724205957
 20
-159.8686224643731
 30
0.0
 10
85.53672551029984
 20
-159.9488931891794
 30
0.0
 10
85.49228377854012
 20
-160.01882862753
 30
0.0
 10
85.61286212052387
 20
-160.0780842698763
 30
0.0
 10
85.71862655192104
 20
-160.1456081413872
 30
0.0
 10
85.82232392602707
 20
-160.2282904330332
 30
0.0
 10
85.82232392602707
 20
-160.2282904330332
 30
0.0
 10
85.70381264133446
 20
-160.3953775640678
 30
0.0
 10
85.70381264133446
 20
-160.3953775640678
 30
0.0
 10
85.68038599203477
 20
-160.3764295388989
 30
0.0
 10
85.66763913873934
 20
-160.3678168001858
 30
0.0
 10
85.55567353546873
 20
-160.2830674512487
 30
0.0
 10
85.50709768912669
 20
-160.2451714009109
 30
0.0
 10
85.44784204678041
 20
-160.2093424078643
 30
0.0
 10
85.36722681242556
 20
-160.1649006761046
 30
0.0
 10
85.15569794963122
 20
-160.3509358323081
 30
0.0
 10
84.95071476825884
 20
-160.3743624816078
 30
0.0
 10
84.66063772840081
 20
-160.4039903027809
 30
0.0
 10
84.66063772840081
 20
-160.4039903027809
 30
0.0
 10
84.55728486384332
 20
-160.2241563184509
 30
0.0
 10
84.55728486384332
 20
-160.2241563184509
 30
0.0
 10
84.87457815803484
 20
-160.2196776943201
 30
0.0
 10
85.04993351823404
 20
-160.1945284972777
 30
0.0
 10
85.20220673868209
 20
-160.0842854417497
 30
0.0
 10
85.08403996353802
 20
-160.0336425381166
 30
0.0
 10
84.99515650001859
 20
-160.0060817742346
 30
0.0
 10
84.95898299742345
 20
-159.9933349209391
 30
0.0
 10
84.94003497225458
 20
-160.0208956848211
 30
0.0
 10
84.925221061668
 20
-160.03984370999
 30
0.0
 10
84.897660297786
 20
-160.073950155294
 30
0.0
 10
84.897660297786
 20
-160.073950155294
 30
0.0
 10
84.70094534557823
 20
-159.991267863648
 30
0.0
 10
84.70094534557823
 20
-159.991267863648
 30
0.0
 10
84.78362763722424
 20
-159.9109971388417
 30
0.0
 10
84.84495033686169
 20
-159.8155679939003
 30
0.0
 10
84.90179441236831
 20
-159.7142821866339
 30
0.0
 10
84.71162514158251
 20
-159.7184163012162
 30
0.0
 10
84.69026554957396
 20
-159.7184163012162
 30
0.0
 10
84.6079277674765
 20
-159.7225504157985
 30
0.0
 10
84.6079277674765
 20
-159.7225504157985
 30
0.0
 10
84.6079277674765
 20
-159.5447834887596
 30
0.0
 10
84.6079277674765
 20
-159.5447834887596
 30
0.0
 10
84.7474541346291
 20
-159.5513291701816
 30
0.0
 10
84.9569159401323
 20
-159.5554632847639
 30
0.0
 10
84.98240964672316
 20
-159.5554632847639
 30
0.0
 10
84.99929061460088
 20
-159.5217013490085
 30
0.0
 10
85.05441214236487
 20
-159.4011230070247
 30
0.0
 10
85.07336016753376
 20
-159.3270534540918
 30
0.0
 10
85.05441214236487
 20
-159.3270534540918
 30
0.0
 10
84.87664521532598
 20
-159.3332546259653
 30
0.0
 10
84.68199732040936
 20
-159.3460014792607
 30
0.0
 10
84.68199732040936
 20
-159.3460014792607
 30
0.0
 10
84.68199732040936
 20
-159.4793266745399
 30
0.0
 10
84.68199732040936
 20
-159.4793266745399
 30
0.0
 10
84.63342147406734
 20
-159.5048203811307
 30
0.0
 10
84.57416583172104
 20
-159.536515259595
 30
0.0
 10
84.44084063644188
 20
-159.6019720738148
 30
0.0
 10
84.44084063644188
 20
-159.6019720738148
 30
0.0
 10
84.44084063644188
 20
-159.7480441223894
 30
0.0
 10
84.44084063644188
 20
-159.7480441223894
 30
0.0
 10
84.44084063644188
 20
-159.7480441223894
 30
0.0
 10
84.44084063644188
 20
-160.2155435797378
 30
0.0
 10
84.44084063644188
 20
-160.2155435797378
 30
0.0
 10
84.44084063644188
 20
-160.342323093595
 30
0.0
 10
84.40466713384676
 20
-160.4015787359413
 30
0.0
 10
84.12148028495922
 20
-160.3933105067767
 30
0.0
 10
84.12148028495922
 20
-160.3933105067767
 30
0.0
 10
84.01778291085319
 20
-160.1859157585646
 30
0.0
 10
84.01778291085319
 20
-160.1859157585646
 30
0.0
 10
84.0811726677818
 20
-160.19866261186
 30
0.0
 10
84.12974851412382
 20
-160.2027967264423
 30
0.0
 10
84.17005613130124
 20
-160.2027967264423
 30
0.0
 10
84.24619274152526
 20
-160.2027967264423
 30
0.0
 10
84.25687253752952
 20
-160.1797145866911
 30
0.0
 10
84.25687253752952
 20
-160.1139132629229
 30
0.0
 10
84.25687253752952
 20
-160.1139132629229
 30
0.0
 10
84.25687253752952
 20
-159.6846543654608
 30
0.0
 10
84.25687253752952
 20
-159.6846543654608
 30
0.0
 10
84.15937633529697
 20
-159.7246174730897
 30
0.0
 10
84.14249536741925
 20
-159.7311631545116
 30
0.0
 10
84.09598657836836
 20
-159.7501111796805
 30
0.0
 10
84.09185246378607
 20
-159.7711262621406
 30
0.0
 10
84.08737383965524
 20
-159.8007540833137
 30
0.0
 10
84.06842581448637
 20
-159.8007540833137
 30
0.0
 10
84.06015758532177
 20
-159.8007540833137
 30
0.0
 10
84.04947778931749
 20
-159.7966199687314
 30
0.0
 10
84.04293210789552
 20
-159.7735378289802
 30
0.0
 10
84.04293210789552
 20
-159.7735378289802
 30
0.0
 10
83.99022214697119
 20
-159.5809569913548
 30
0.0
 10
83.99022214697119
 20
-159.5809569913548
 30
0.0
 10
84.13629419554579
 20
-159.5344482023039
 30
0.0
 10
84.20175100976555
 20
-159.5110215530042
 30
0.0
 10
84.25687253752952
 20
-159.4900064705441
 30
0.0
 10
84.25687253752952
 20
-159.4900064705441
 30
0.0
 10
84.25687253752952
 20
-159.0772840314112
 30
0.0
 10
84.25687253752952
 20
-159.0772840314112
 30
0.0
 10
84.25687253752952
 20
-159.0772840314112
 30
0.0
 10
84.20381806705668
 20
-159.0772840314112
 30
0.0
 10
84.20381806705668
 20
-159.0772840314112
 30
0.0
 10
84.20381806705668
 20
-159.0772840314112
 30
0.0
 10
84.12561439954151
 20
-159.0772840314112
 30
0.0
 10
84.12561439954151
 20
-159.0772840314112
 30
0.0
 10
84.05774601848209
 20
-159.0772840314112
 30
0.0
 10
84.04947778931749
 20
-159.0772840314112
 30
0.0
 10
84.01330428672237
 20
-159.0838297128332
 30
0.0
 10
84.01330428672237
 20
-159.0838297128332
 30
0.0
 10
84.01330428672237
 20
-158.8891818179166
 30
0.0
 10
84.01330428672237
 20
-158.8891818179166
 30
0.0
 10
84.04086505060437
 20
-158.89538298979
 30
0.0
 10
84.04947778931749
 20
-158.89538298979
 30
0.0
 10
84.11906871811954
 20
-158.89538298979
 30
0.0
 10
84.11906871811954
 20
-158.89538298979
 30
0.0
 10
84.2523939133987
 20
-158.89538298979
 30
0.0
 10
84.2523939133987
 20
-158.89538298979
 30
0.0
 10
84.2523939133987
 20
-158.825792060988
 30
0.0
 10
84.2523939133987
 20
-158.743109769342
 30
0.0
 10
84.25032685610757
 20
-158.7389756547597
 30
0.0
 10
84.24205862694297
 20
-158.5591416704296
 30
0.0
 10
84.24205862694297
 20
-158.5401936452608
 30
0.0
 10
84.23964706010329
 20
-158.4936848562099
 30
0.0
 10
84.23964706010329
 20
-158.4936848562099
 30
0.0
 10
84.45565454702844
 20
-158.5019530853745
 30
0.0
 10
84.45565454702844
 20
-158.5019530853745
 30
0.0
 10
84.46633434303272
 20
-158.5019530853745
 30
0.0
 10
84.48734942549275
 20
-158.5040201426656
 30
0.0
 10
84.48734942549275
 20
-158.5209011105434
 30
0.0
 10
84.48734942549275
 20
-158.5401936452608
 30
0.0
 10
84.47253551490616
 20
-158.5505289317165
 30
0.0
 10
84.44704180831534
 20
-158.5698214664339
 30
0.0
 10
84.44704180831534
 20
-158.6204643700671
 30
0.0
 10
84.44084063644188
 20
-158.8488742007392
 30
0.0
 10
84.44290769373303
 20
-158.89538298979
 30
0.0
 10
84.5720987744299
 20
-158.89538298979
 30
0.0
 10
84.58450111817679
 20
-158.89538298979
 30
0.0
 10
84.68199732040936
 20
-158.8871147606254
 30
0.0
 10
84.68199732040936
 20
-158.8871147606254
 30
0.0
 10
84.68199732040936
 20
-159.081762655542
 30
0.0
 10
84.68199732040936
 20
-159.081762655542
 30
0.0
 10
84.64375676052309
 20
-159.0793510887024
 30
0.0
 10
84.57623288901219
 20
-159.07521697412
 30
0.0
 10
84.44084063644188
 20
-159.0772840314112
 30
0.0
 10
84.44084063644188
 20
-159.0772840314112
 30
0.0
 10
84.44084063644188
 20
-159.4159369176113
 30
0.0
 10
84.44084063644188
 20
-159.4159369176113
 30
0.0
 10
84.49596216420587
 20
-159.3925102683116
 30
0.0
 10
84.56141897842561
 20
-159.3649495044296
 30
0.0
 10
84.60999482476763
 20
-159.3418673646784
 30
0.0
 10
84.60999482476763
 20
-159.3418673646784
 30
0.0
 10
84.60999482476763
 20
-159.1641004376395
 30
0.0
 10
84.60999482476763
 20
-159.1641004376395
 30
0.0
 10
84.72437199487794
 20
-159.1768472909349
 30
0.0
 10
84.84288327957052
 20
-159.1768472909349
 30
0.0
 10
84.95898299742345
 20
-159.1768472909349
 30
0.0
 10
84.93590085767229
 20
-159.081762655542
 30
0.0
 10
84.90834009379028
 20
-158.999080363896
 30
0.0
 10
84.84495033686169
 20
-158.8657551686169
 30
0.0
 10
84.80050860510194
 20
-158.867822225908
 30
0.0
 10
84.71782631345595
 20
-158.8723008500388
 30
0.0
 10
84.67993026311821
 20
-158.87436790733
 30
0.0
 10
84.67993026311821
 20
-158.87436790733
 30
0.0
 10
84.67993026311821
 20
-158.694533923
 30
0.0
 10
84.67993026311821
 20
-158.694533923
 30
0.0
 10
84.80464271968426
 20
-158.7028021521646
 30
0.0
 10
84.97827553214085
 20
-158.7072807762954
 30
0.0
 10
85.06061331423833
 20
-158.7072807762954
 30
0.0
 10
85.06061331423833
 20
-158.7072807762954
 30
0.0
 10
85.14329560588432
 20
-158.7072807762954
 30
0.0
 10
85.14329560588432
 20
-158.7072807762954
 30
0.0
 10
85.14329560588432
 20
-158.5443277598431
 30
0.0
 10
85.14329560588432
 20
-158.5336479638388
 30
0.0
 10
85.14088403904464
 20
-158.4788709456233
 30
0.0
 10
85.14088403904464
 20
-158.4788709456233
 30
0.0
 10
85.36515975513442
 20
-158.5040201426656
 30
0.0
 10
85.36515975513442
 20
-158.5040201426656
 30
0.0
 10
85.36963837926524
 20
-158.5040201426656
 30
0.0
 10
85.39065346172526
 20
-158.5060871999568
 30
0.0
 10
85.39065346172526
 20
-158.5229681678345
 30
0.0
 10
85.39065346172526
 20
-158.5377820784211
 30
0.0
 10
85.37997366572097
 20
-158.5463948171342
 30
0.0
 10
85.35241290183899
 20
-158.5612087277208
 30
0.0
 10
85.34621172996553
 20
-158.6266655419405
 30
0.0
 10
85.34414467267438
 20
-158.6480251339491
 30
0.0
 10
85.34414467267438
 20
-158.7072807762954
 30
0.0
 10
85.34414467267438
 20
-158.7072807762954
 30
0.0
 10
85.43922930806727
 20
-158.7072807762954
 30
0.0
 10
85.43922930806727
 20
-158.7072807762954
 30
0.0
 10
85.52191159971327
 20
-158.7072807762954
 30
0.0
 10
85.69519990262135
 20
-158.7028021521646
 30
0.0
 10
85.8202568687359
 20
-158.694533923
 30
0.0
 10
85.8202568687359
 20
-158.694533923
 30
0.0
 10
85.8202568687359
 20
-158.87436790733
 30
0.0
 10
85.8202568687359
 20
-158.87436790733
 30
0.0
 10
85.79062904756275
 20
-158.8723008500388
 30
0.0
 10
85.67211776287017
 20
-158.867822225908
 30
0.0
 10
85.63181014569273
 20
-158.8657551686169
 30
0.0
 10
85.61699623510618
 20
-158.9167425817986
 30
0.0
 10
85.58323429935072
 20
-159.0287081850692
 30
0.0
 10
85.51743297558244
 20
-159.1682345522218
 30
0.0
 10
85.55980765005102
 20
-159.1682345522218
 30
0.0
 10
85.83713783661364
 20
-159.1492865270529
 30
0.0
 10
85.89846053625107
 20
-159.1472194697618
 30
0.0
 10
85.89846053625107
 20
-159.1472194697618
 30
0.0
 10
85.89846053625107
 20
-159.3311875686741
 30
0.0
 10
85.89846053625107
 20
-159.3311875686741
 30
0.0
 10
85.86883271507792
 20
-159.3311875686741
 30
0.0
 10
85.8519517472002
 20
-159.3270534540918
 30
0.0
 10
85.68899873074789
 20
-159.3270534540918
 30
0.0
  0
HATCH
  5
E1
330
DA
100
AcDbEntity
  8
レイヤー 1
 62
   250
420
  2299925
440
 33554687
100
AcDbHatch
 10
0.0
 20
0.0
 30
0.0
210
0.0
220
0.0
230
1.0
  2
SOLID
 70
     1
 71
     1
 91
        3
 92
        1
 93
        1
 72
     4
 94
        3
 73
     0
 74
     0
 95
       17
 96
       13
 40
0.0
 40
0.0
 40
0.0
 40
0.0
 40
1.0
 40
1.0
 40
1.0
 40
2.0
 40
2.0
 40
2.0
 40
3.0
 40
3.0
 40
3.0
 40
4.0
 40
4.0
 40
4.0
 40
4.0
 10
85.12400307116692
 20
-159.7122151293428
 10
85.1071221032892
 20
-159.7414984409674
 10
85.05647919965602
 20
-159.8348605286176
 10
85.04579940365173
 20
-159.8538085537865
 10
85.23631318398606
 20
-159.9130641961328
 10
85.2573282664461
 20
-159.9192653680063
 10
85.32933076208781
 20
-159.9468261318883
 10
85.3844522898518
 20
-159.86000972566
 10
85.40753442960298
 20
-159.7859401727271
 10
85.42234834018955
 20
-159.7122151293428
 10
85.42234834018955
 20
-159.7122151293428
 10
85.12400307116692
 20
-159.7122151293428
 10
85.12400307116692
 20
-159.7122151293428
 97
        0
 97
        1
330
DE
 92
        1
 93
        1
 72
     4
 94
        3
 73
     0
 74
     0
 95
       20
 96
       16
 40
0.0
 40
0.0
 40
0.0
 40
0.0
 40
1.0
 40
1.0
 40
1.0
 40
2.0
 40
2.0
 40
2.0
 40
3.0
 40
3.0
 40
3.0
 40
4.0
 40
4.0
 40
4.0
 40
5.0
 40
5.0
 40
5.0
 40
5.0
 10
85.06061331423833
 20
-158.8616210540346
 10
85.06061331423833
 20
-158.8616210540346
 10
85.02891843577403
 20
-158.8616210540346
 10
85.02891843577403
 20
-158.8616210540346
 10
85.07542722482488
 20
-158.9611843135583
 10
85.1071221032892
 20
-159.0414550383646
 10
85.14088403904464
 20
-159.1682345522218
 10
85.14088403904464
 20
-159.1682345522218
 10
85.34827878725669
 20
-159.1682345522218
 10
85.34827878725669
 20
-159.1682345522218
 10
85.37997366572097
 20
-159.07521697412
 10
85.40340031502067
 20
-158.9908121347314
 10
85.42648245477186
 20
-158.8616210540346
 10
85.42648245477186
 20
-158.8616210540346
 10
85.06061331423833
 20
-158.8616210540346
 10
85.06061331423833
 20
-158.8616210540346
 97
        0
 97
        1
330
DF
 92
        1
 93
        1
 72
     4
 94
        3
 73
     0
 74
     0
 95
      242
 96
      238
 40
0.0
 40
0.0
 40
0.0
 40
0.0
 40
1.0
 40
1.0
 40
1.0
 40
2.0
 40
2.0
 40
2.0
 40
3.0
 40
3.0
 40
3.0
 40
4.0
 40
4.0
 40
4.0
 40
5.0
 40
5.0
 40
5.0
 40
6.0
 40
6.0
 40
6.0
 40
7.0
 40
7.0
 40
7.0
 40
8.0
 40
8.0
 40
8.0
 40
9.0
 40
9.0
 40
9.0
 40
10.0
 40
10.0
 40
10.0
 40
11.0
 40
11.0
 40
11.0
 40
12.0
 40
12.0
 40
12.0
 40
13.0
 40
13.0
 40
13.0
 40
14.0
 40
14.0
 40
14.0
 40
15.0
 40
15.0
 40
15.0
 40
16.0
 40
16.0
 40
16.0
 40
17.0
 40
17.0
 40
17.0
 40
18.0
 40
18.0
 40
18.0
 40
19.0
 40
19.0
 40
19.0
 40
20.0
 40
20.0
 40
20.0
 40
21.0
 40
21.0
 40
21.0
 40
22.0
 40
22.0
 40
22.0
 40
23.0
 40
23.0
 40
23.0
 40
24.0
 40
24.0
 40
24.0
 40
25.0
 40
25.0
 40
25.0
 40
26.0
 40
26.0
 40
26.0
 40
27.0
 40
27.0
 40
27.0
 40
28.0
 40
28.0
 40
28.0
 40
29.0
 40
29.0
 40
29.0
 40
30.0
 40
30.0
 40
30.0
 40
31.0
 40
31.0
 40
31.0
 40
32.0
 40
32.0
 40
32.0
 40
33.0
 40
33.0
 40
33.0
 40
34.0
 40
34.0
 40
34.0
 40
35.0
 40
35.0
 40
35.0
 40
36.0
 40
36.0
 40
36.0
 40
37.0
 40
37.0
 40
37.0
 40
38.0
 40
38.0
 40
38.0
 40
39.0
 40
39.0
 40
39.0
 40
40.0
 40
40.0
 40
40.0
 40
41.0
 40
41.0
 40
41.0
 40
42.0
 40
42.0
 40
42.0
 40
43.0
 40
43.0
 40
43.0
 40
44.0
 40
44.0
 40
44.0
 40
45.0
 40
45.0
 40
45.0
 40
46.0
 40
46.0
 40
46.0
 40
47.0
 40
47.0
 40
47.0
 40
48.0
 40
48.0
 40
48.0
 40
49.0
 40
49.0
 40
49.0
 40
50.0
 40
50.0
 40
50.0
 40
51.0
 40
51.0
 40
51.0
 40
52.0
 40
52.0
 40
52.0
 40
53.0
 40
53.0
 40
53.0
 40
54.0
 40
54.0
 40
54.0
 40
55.0
 40
55.0
 40
55.0
 40
56.0
 40
56.0
 40
56.0
 40
57.0
 40
57.0
 40
57.0
 40
58.0
 40
58.0
 40
58.0
 40
59.0
 40
59.0
 40
59.0
 40
60.0
 40
60.0
 40
60.0
 40
61.0
 40
61.0
 40
61.0
 40
62.0
 40
62.0
 40
62.0
 40
63.0
 40
63.0
 40
63.0
 40
64.0
 40
64.0
 40
64.0
 40
65.0
 40
65.0
 40
65.0
 40
66.0
 40
66.0
 40
66.0
 40
67.0
 40
67.0
 40
67.0
 40
68.0
 40
68.0
 40
68.0
 40
69.0
 40
69.0
 40
69.0
 40
70.0
 40
70.0
 40
70.0
 40
71.0
 40
71.0
 40
71.0
 40
72.0
 40
72.0
 40
72.0
 40
73.0
 40
73.0
 40
73.0
 40
74.0
 40
74.0
 40
74.0
 40
75.0
 40
75.0
 40
75.0
 40
76.0
 40
76.0
 40
76.0
 40
77.0
 40
77.0
 40
77.0
 40
78.0
 40
78.0
 40
78.0
 40
79.0
 40
79.0
 40
79.0
 40
79.0
 10
85.68899873074789
 20
-159.3270534540918
 10
85.68899873074789
 20
-159.3270534540918
 10
85.43509519348498
 20
-159.3270534540918
 10
85.43509519348498
 20
-159.3270534540918
 10
85.43509519348498
 20
-159.3270534540918
 10
85.15810951647088
 20
-159.3270534540918
 10
85.15810951647088
 20
-159.3270534540918
 10
85.15810951647088
 20
-159.3270534540918
 10
85.28488903032808
 20
-159.3694281285604
 10
85.28488903032808
 20
-159.3694281285604
 10
85.29556882633235
 20
-159.3735622431427
 10
85.30831567962778
 20
-159.3797634150162
 10
85.30831567962778
 20
-159.3925102683116
 10
85.30831567962778
 20
-159.4138698603201
 10
85.27627629161496
 20
-159.4200710321936
 10
85.25526120915493
 20
-159.4242051467759
 10
85.24458141315067
 20
-159.4476317960756
 10
85.21495359197752
 20
-159.5130886102953
 10
85.19600556680863
 20
-159.557530342055
 10
85.19600556680863
 20
-159.557530342055
 10
85.46679007194928
 20
-159.557530342055
 10
85.46679007194928
 20
-159.557530342055
 10
85.55774059275988
 20
-159.557530342055
 10
85.75445554496765
 20
-159.5533962274727
 10
85.89639347895994
 20
-159.5447834887596
 10
85.89639347895994
 20
-159.5447834887596
 10
85.89639347895994
 20
-159.7225504157985
 10
85.89639347895994
 20
-159.7225504157985
 10
85.81371118731395
 20
-159.7184163012162
 10
85.79269610485392
 20
-159.7184163012162
 10
85.61286212052387
 20
-159.7142821866339
 10
85.58116724205957
 20
-159.8686224643731
 10
85.53672551029984
 20
-159.9488931891794
 10
85.49228377854012
 20
-160.01882862753
 10
85.61286212052387
 20
-160.0780842698763
 10
85.71862655192104
 20
-160.1456081413872
 10
85.82232392602707
 20
-160.2282904330332
 10
85.82232392602707
 20
-160.2282904330332
 10
85.70381264133446
 20
-160.3953775640678
 10
85.70381264133446
 20
-160.3953775640678
 10
85.68038599203477
 20
-160.3764295388989
 10
85.66763913873934
 20
-160.3678168001858
 10
85.55567353546873
 20
-160.2830674512487
 10
85.50709768912669
 20
-160.2451714009109
 10
85.44784204678041
 20
-160.2093424078643
 10
85.36722681242556
 20
-160.1649006761046
 10
85.15569794963122
 20
-160.3509358323081
 10
84.95071476825884
 20
-160.3743624816078
 10
84.66063772840081
 20
-160.4039903027809
 10
84.66063772840081
 20
-160.4039903027809
 10
84.55728486384332
 20
-160.2241563184509
 10
84.55728486384332
 20
-160.2241563184509
 10
84.87457815803484
 20
-160.2196776943201
 10
85.04993351823404
 20
-160.1945284972777
 10
85.20220673868209
 20
-160.0842854417497
 10
85.08403996353802
 20
-160.0336425381166
 10
84.99515650001859
 20
-160.0060817742346
 10
84.95898299742345
 20
-159.9933349209391
 10
84.94003497225458
 20
-160.0208956848211
 10
84.925221061668
 20
-160.03984370999
 10
84.897660297786
 20
-160.073950155294
 10
84.897660297786
 20
-160.073950155294
 10
84.70094534557823
 20
-159.991267863648
 10
84.70094534557823
 20
-159.991267863648
 10
84.78362763722424
 20
-159.9109971388417
 10
84.84495033686169
 20
-159.8155679939003
 10
84.90179441236831
 20
-159.7142821866339
 10
84.71162514158251
 20
-159.7184163012162
 10
84.69026554957396
 20
-159.7184163012162
 10
84.6079277674765
 20
-159.7225504157985
 10
84.6079277674765
 20
-159.7225504157985
 10
84.6079277674765
 20
-159.5447834887596
 10
84.6079277674765
 20
-159.5447834887596
 10
84.7474541346291
 20
-159.5513291701816
 10
84.9569159401323
 20
-159.5554632847639
 10
84.98240964672316
 20
-159.5554632847639
 10
84.99929061460088
 20
-159.5217013490085
 10
85.05441214236487
 20
-159.4011230070247
 10
85.07336016753376
 20
-159.3270534540918
 10
85.05441214236487
 20
-159.3270534540918
 10
84.87664521532598
 20
-159.3332546259653
 10
84.68199732040936
 20
-159.3460014792607
 10
84.68199732040936
 20
-159.3460014792607
 10
84.68199732040936
 20
-159.4793266745399
 10
84.68199732040936
 20
-159.4793266745399
 10
84.63342147406734
 20
-159.5048203811307
 10
84.57416583172104
 20
-159.536515259595
 10
84.44084063644188
 20
-159.6019720738148
 10
84.44084063644188
 20
-159.6019720738148
 10
84.44084063644188
 20
-159.7480441223894
 10
84.44084063644188
 20
-159.7480441223894
 10
84.44084063644188
 20
-159.7480441223894
 10
84.44084063644188
 20
-160.2155435797378
 10
84.44084063644188
 20
-160.2155435797378
 10
84.44084063644188
 20
-160.342323093595
 10
84.40466713384676
 20
-160.4015787359413
 10
84.12148028495922
 20
-160.3933105067767
 10
84.12148028495922
 20
-160.3933105067767
 10
84.01778291085319
 20
-160.1859157585646
 10
84.01778291085319
 20
-160.1859157585646
 10
84.0811726677818
 20
-160.19866261186
 10
84.12974851412382
 20
-160.2027967264423
 10
84.17005613130124
 20
-160.2027967264423
 10
84.24619274152526
 20
-160.2027967264423
 10
84.25687253752952
 20
-160.1797145866911
 10
84.25687253752952
 20
-160.1139132629229
 10
84.25687253752952
 20
-160.1139132629229
 10
84.25687253752952
 20
-159.6846543654608
 10
84.25687253752952
 20
-159.6846543654608
 10
84.15937633529697
 20
-159.7246174730897
 10
84.14249536741925
 20
-159.7311631545116
 10
84.09598657836836
 20
-159.7501111796805
 10
84.09185246378607
 20
-159.7711262621406
 10
84.08737383965524
 20
-159.8007540833137
 10
84.06842581448637
 20
-159.8007540833137
 10
84.06015758532177
 20
-159.8007540833137
 10
84.04947778931749
 20
-159.7966199687314
 10
84.04293210789552
 20
-159.7735378289802
 10
84.04293210789552
 20
-159.7735378289802
 10
83.99022214697119
 20
-159.5809569913548
 10
83.99022214697119
 20
-159.5809569913548
 10
84.13629419554579
 20
-159.5344482023039
 10
84.20175100976555
 20
-159.5110215530042
 10
84.25687253752952
 20
-159.4900064705441
 10
84.25687253752952
 20
-159.4900064705441
 10
84.25687253752952
 20
-159.0772840314112
 10
84.25687253752952
 20
-159.0772840314112
 10
84.25687253752952
 20
-159.0772840314112
 10
84.20381806705668
 20
-159.0772840314112
 10
84.20381806705668
 20
-159.0772840314112
 10
84.20381806705668
 20
-159.0772840314112
 10
84.12561439954151
 20
-159.0772840314112
 10
84.12561439954151
 20
-159.0772840314112
 10
84.05774601848209
 20
-159.0772840314112
 10
84.04947778931749
 20
-159.0772840314112
 10
84.01330428672237
 20
-159.0838297128332
 10
84.01330428672237
 20
-159.0838297128332
 10
84.01330428672237
 20
-158.8891818179166
 10
84.01330428672237
 20
-158.8891818179166
 10
84.04086505060437
 20
-158.89538298979
 10
84.04947778931749
 20
-158.89538298979
 10
84.11906871811954
 20
-158.89538298979
 10
84.11906871811954
 20
-158.89538298979
 10
84.2523939133987
 20
-158.89538298979
 10
84.2523939133987
 20
-158.89538298979
 10
84.2523939133987
 20
-158.825792060988
 10
84.2523939133987
 20
-158.743109769342
 10
84.25032685610757
 20
-158.7389756547597
 10
84.24205862694297
 20
-158.5591416704296
 10
84.24205862694297
 20
-158.5401936452608
 10
84.23964706010329
 20
-158.4936848562099
 10
84.23964706010329
 20
-158.4936848562099
 10
84.45565454702844
 20
-158.5019530853745
 10
84.45565454702844
 20
-158.5019530853745
 10
84.46633434303272
 20
-158.5019530853745
 10
84.48734942549275
 20
-158.5040201426656
 10
84.48734942549275
 20
-158.5209011105434
 10
84.48734942549275
 20
-158.5401936452608
 10
84.47253551490616
 20
-158.5505289317165
 10
84.44704180831534
 20
-158.5698214664339
 10
84.44704180831534
 20
-158.6204643700671
 10
84.44084063644188
 20
-158.8488742007392
 10
84.44290769373303
 20
-158.89538298979
 10
84.5720987744299
 20
-158.89538298979
 10
84.58450111817679
 20
-158.89538298979
 10
84.68199732040936
 20
-158.8871147606254
 10
84.68199732040936
 20
-158.8871147606254
 10
84.68199732040936
 20
-159.081762655542
 10
84.68199732040936
 20
-159.081762655542
 10
84.64375676052309
 20
-159.0793510887024
 10
84.57623288901219
 20
-159.07521697412
 10
84.44084063644188
 20
-159.0772840314112
 10
84.44084063644188
 20
-159.0772840314112
 10
84.44084063644188
 20
-159.4159369176113
 10
84.44084063644188
 20
-159.4159369176113
 10
84.49596216420587
 20
-159.3925102683116
 10
84.56141897842561
 20
-159.3649495044296
 10
84.60999482476763
 20
-159.3418673646784
 10
84.60999482476763
 20
-159.3418673646784
 10
84.60999482476763
 20
-159.1641004376395
 10
84.60999482476763
 20
-159.1641004376395
 10
84.72437199487794
 20
-159.1768472909349
 10
84.84288327957052
 20
-159.1768472909349
 10
84.95898299742345
 20
-159.1768472909349
 10
84.93590085767229
 20
-159.081762655542
 10
84.90834009379028
 20
-158.999080363896
 10
84.84495033686169
 20
-158.8657551686169
 10
84.80050860510194
 20
-158.867822225908
 10
84.71782631345595
 20
-158.8723008500388
 10
84.67993026311821
 20
-158.87436790733
 10
84.67993026311821
 20
-158.87436790733
 10
84.67993026311821
 20
-158.694533923
 10
84.67993026311821
 20
-158.694533923
 10
84.80464271968426
 20
-158.7028021521646
 10
84.97827553214085
 20
-158.7072807762954
 10
85.06061331423833
 20
-158.7072807762954
 10
85.06061331423833
 20
-158.7072807762954
 10
85.14329560588432
 20
-158.7072807762954
 10
85.14329560588432
 20
-158.7072807762954
 10
85.14329560588432
 20
-158.5443277598431
 10
85.14329560588432
 20
-158.5336479638388
 10
85.14088403904464
 20
-158.4788709456233
 10
85.14088403904464
 20
-158.4788709456233
 10
85.36515975513442
 20
-158.5040201426656
 10
85.36515975513442
 20
-158.5040201426656
 10
85.36963837926524
 20
-158.5040201426656
 10
85.39065346172526
 20
-158.5060871999568
 10
85.39065346172526
 20
-158.5229681678345
 10
85.39065346172526
 20
-158.5377820784211
 10
85.37997366572097
 20
-158.5463948171342
 10
85.35241290183899
 20
-158.5612087277208
 10
85.34621172996553
 20
-158.6266655419405
 10
85.34414467267438
 20
-158.6480251339491
 10
85.34414467267438
 20
-158.7072807762954
 10
85.34414467267438
 20
-158.7072807762954
 10
85.43922930806727
 20
-158.7072807762954
 10
85.43922930806727
 20
-158.7072807762954
 10
85.52191159971327
 20
-158.7072807762954
 10
85.69519990262135
 20
-158.7028021521646
 10
85.8202568687359
 20
-158.694533923
 10
85.8202568687359
 20
-158.694533923
 10
85.8202568687359
 20
-158.87436790733
 10
85.8202568687359
 20
-158.87436790733
 10
85.79062904756275
 20
-158.8723008500388
 10
85.67211776287017
 20
-158.867822225908
 10
85.63181014569273
 20
-158.8657551686169
 10
85.61699623510618
 20
-158.9167425817986
 10
85.58323429935072
 20
-159.0287081850692
 10
85.51743297558244
 20
-159.1682345522218
 10
85.55980765005102
 20
-159.1682345522218
 10
85.83713783661364
 20
-159.1492865270529
 10
85.89846053625107
 20
-159.1472194697618
 10
85.89846053625107
 20
-159.1472194697618
 10
85.89846053625107
 20
-159.3311875686741
 10
85.89846053625107
 20
-159.3311875686741
 10
85.86883271507792
 20
-159.3311875686741
 10
85.8519517472002
 20
-159.3270534540918
 10
85.68899873074789
 20
-159.3270534540918
 97
        0
 97
        1
330
E0
 75
     2
 76
     1
 98
        1
 10
0.0
 20
0.0
450
        0
451
        0
460
0.0
461
0.0
452
        0
462
0.0
453
        0
470

  0
SPLINE
  5
E2
330
DA
100
AcDbEntity
  8
レイヤー 1
100
AcDbSpline
210
0.0
220
0.0
230
1.0
 70
    11
 71
     3
 72
    17
 73
    13
 74
     0
 42
0.0000000001
 43
0.0000000001
 40
0.0
 40
0.0
 40
0.0
 40
0.0
 40
1.0
 40
1.0
 40
1.0
 40
2.0
 40
2.0
 40
2.0
 40
3.0
 40
3.0
 40
3.0
 40
4.0
 40
4.0
 40
4.0
 40
4.0
 10
87.54556068774903
 20
-160.1266601162183
 30
0.0
 10
87.54556068774903
 20
-160.1266601162183
 30
0.0
 10
86.83897160372429
 20
-160.1266601162183
 30
0.0
 10
86.83897160372429
 20
-160.1266601162183
 30
0.0
 10
86.83897160372429
 20
-160.1266601162183
 30
0.0
 10
86.83897160372429
 20
-160.2410372863286
 30
0.0
 10
86.83897160372429
 20
-160.2410372863286
 30
0.0
 10
86.83897160372429
 20
-160.2410372863286
 30
0.0
 10
87.54556068774903
 20
-160.2410372863286
 30
0.0
 10
87.54556068774903
 20
-160.2410372863286
 30
0.0
 10
87.54556068774903
 20
-160.2410372863286
 30
0.0
 10
87.54556068774903
 20
-160.1266601162183
 30
0.0
 10
87.54556068774903
 20
-160.1266601162183
 30
0.0
  0
SPLINE
  5
E3
330
DA
100
AcDbEntity
  8
レイヤー 1
100
AcDbSpline
210
0.0
220
0.0
230
1.0
 70
    11
 71
     3
 72
    17
 73
    13
 74
     0
 42
0.0000000001
 43
0.0000000001
 40
0.0
 40
0.0
 40
0.0
 40
0.0
 40
1.0
 40
1.0
 40
1.0
 40
2.0
 40
2.0
 40
2.0
 40
3.0
 40
3.0
 40
3.0
 40
4.0
 40
4.0
 40
4.0
 40
4.0
 10
87.54556068774903
 20
-159.8834363749597
 30
0.0
 10
87.54556068774903
 20
-159.8834363749597
 30
0.0
 10
86.83897160372429
 20
-159.8834363749597
 30
0.0
 10
86.83897160372429
 20
-159.8834363749597
 30
0.0
 10
86.83897160372429
 20
-159.8834363749597
 30
0.0
 10
86.83897160372429
 20
-159.99781354507
 30
0.0
 10
86.83897160372429
 20
-159.99781354507
 30
0.0
 10
86.83897160372429
 20
-159.99781354507
 30
0.0
 10
87.54556068774903
 20
-159.99781354507
 30
0.0
 10
87.54556068774903
 20
-159.99781354507
 30
0.0
 10
87.54556068774903
 20
-159.99781354507
 30
0.0
 10
87.54556068774903
 20
-159.8834363749597
 30
0.0
 10
87.54556068774903
 20
-159.8834363749597
 30
0.0
  0
SPLINE
  5
E4
330
DA
100
AcDbEntity
  8
レイヤー 1
100
AcDbSpline
210
0.0
220
0.0
230
1.0
 70
    11
 71
     3
 72
    17
 73
    13
 74
     0
 42
0.0000000001
 43
0.0000000001
 40
0.0
 40
0.0
 40
0.0
 40
0.0
 40
1.0
 40
1.0
 40
1.0
 40
2.0
 40
2.0
 40
2.0
 40
3.0
 40
3.0
 40
3.0
 40
4.0
 40
4.0
 40
4.0
 40
4.0
 10
87.54556068774903
 20
-159.6505479201568
 30
0.0
 10
87.54556068774903
 20
-159.6505479201568
 30
0.0
 10
86.83897160372429
 20
-159.6505479201568
 30
0.0
 10
86.83897160372429
 20
-159.6505479201568
 30
0.0
 10
86.83897160372429
 20
-159.6505479201568
 30
0.0
 10
86.83897160372429
 20
-159.7587239183936
 30
0.0
 10
86.83897160372429
 20
-159.7587239183936
 30
0.0
 10
86.83897160372429
 20
-159.7587239183936
 30
0.0
 10
87.54556068774903
 20
-159.7587239183936
 30
0.0
 10
87.54556068774903
 20
-159.7587239183936
 30
0.0
 10
87.54556068774903
 20
-159.7587239183936
 30
0.0
 10
87.54556068774903
 20
-159.6505479201568
 30
0.0
 10
87.54556068774903
 20
-159.6505479201568
 30
0.0
  0
SPLINE
  5
E5
330
DA
100
AcDbEntity
  8
レイヤー 1
100
AcDbSpline
210
0.0
220
0.0
230
1.0
 70
     9
 71
     3
 72
   203
 73
   199
 74
     0
 42
0.0000000001
 43
0.0000000001
 40
0.0
 40
0.0
 40
0.0
 40
0.0
 40
1.0
 40
1.0
 40
1.0
 40
2.0
 40
2.0
 40
2.0
 40
3.0
 40
3.0
 40
3.0
 40
4.0
 40
4.0
 40
4.0
 40
5.0
 40
5.0
 40
5.0
 40
6.0
 40
6.0
 40
6.0
 40
7.0
 40
7.0
 40
7.0
 40
8.0
 40
8.0
 40
8.0
 40
9.0
 40
9.0
 40
9.0
 40
10.0
 40
10.0
 40
10.0
 40
11.0
 40
11.0
 40
11.0
 40
12.0
 40
12.0
 40
12.0
 40
13.0
 40
13.0
 40
13.0
 40
14.0
 40
14.0
 40
14.0
 40
15.0
 40
15.0
 40
15.0
 40
16.0
 40
16.0
 40
16.0
 40
17.0
 40
17.0
 40
17.0
 40
18.0
 40
18.0
 40
18.0
 40
19.0
 40
19.0
 40
19.0
 40
20.0
 40
20.0
 40
20.0
 40
21.0
 40
21.0
 40
21.0
 40
22.0
 40
22.0
 40
22.0
 40
23.0
 40
23.0
 40
23.0
 40
24.0
 40
24.0
 40
24.0
 40
25.0
 40
25.0
 40
25.0
 40
26.0
 40
26.0
 40
26.0
 40
27.0
 40
27.0
 40
27.0
 40
28.0
 40
28.0
 40
28.0
 40
29.0
 40
29.0
 40
29.0
 40
30.0
 40
30.0
 40
30.0
 40
31.0
 40
31.0
 40
31.0
 40
32.0
 40
32.0
 40
32.0
 40
33.0
 40
33.0
 40
33.0
 40
34.0
 40
34.0
 40
34.0
 40
35.0
 40
35.0
 40
35.0
 40
36.0
 40
36.0
 40
36.0
 40
37.0
 40
37.0
 40
37.0
 40
38.0
 40
38.0
 40
38.0
 40
39.0
 40
39.0
 40
39.0
 40
40.0
 40
40.0
 40
40.0
 40
41.0
 40
41.0
 40
41.0
 40
42.0
 40
42.0
 40
42.0
 40
43.0
 40
43.0
 40
43.0
 40
44.0
 40
44.0
 40
44.0
 40
45.0
 40
45.0
 40
45.0
 40
46.0
 40
46.0
 40
46.0
 40
47.0
 40
47.0
 40
47.0
 40
48.0
 40
48.0
 40
48.0
 40
49.0
 40
49.0
 40
49.0
 40
50.0
 40
50.0
 40
50.0
 40
51.0
 40
51.0
 40
51.0
 40
52.0
 40
52.0
 40
52.0
 40
53.0
 40
53.0
 40
53.0
 40
54.0
 40
54.0
 40
54.0
 40
55.0
 40
55.0
 40
55.0
 40
56.0
 40
56.0
 40
56.0
 40
57.0
 40
57.0
 40
57.0
 40
58.0
 40
58.0
 40
58.0
 40
59.0
 40
59.0
 40
59.0
 40
60.0
 40
60.0
 40
60.0
 40
61.0
 40
61.0
 40
61.0
 40
62.0
 40
62.0
 40
62.0
 40
63.0
 40
63.0
 40
63.0
 40
64.0
 40
64.0
 40
64.0
 40
65.0
 40
65.0
 40
65.0
 40
66.0
 40
66.0
 40
66.0
 40
66.0
 10
87.38054061400557
 20
-159.3945773256027
 30
0.0
 10
87.38054061400557
 20
-159.3945773256027
 30
0.0
 10
86.82174612629804
 20
-159.3945773256027
 30
0.0
 10
86.82174612629804
 20
-159.3945773256027
 30
0.0
 10
86.81141083984229
 20
-159.4390190573625
 30
0.0
 10
86.80279810112917
 20
-159.4707139358268
 30
0.0
 10
86.79005124783374
 20
-159.508954495713
 30
0.0
 10
86.8155449544246
 20
-159.508954495713
 30
0.0
 10
86.83035886501116
 20
-159.5110215530042
 30
0.0
 10
86.83656003688462
 20
-159.5110215530042
 30
0.0
 10
86.83656003688462
 20
-159.5110215530042
 30
0.0
 10
87.02500675992778
 20
-159.5110215530042
 30
0.0
 10
87.02500675992778
 20
-159.5110215530042
 30
0.0
 10
87.02500675992778
 20
-159.5110215530042
 30
0.0
 10
87.39948863917444
 20
-159.5110215530042
 30
0.0
 10
87.39948863917444
 20
-159.5110215530042
 30
0.0
 10
87.4501315428076
 20
-159.5110215530042
 30
0.0
 10
87.73366290124368
 20
-159.4982746997087
 30
0.0
 10
87.76535777970797
 20
-159.4982746997087
 30
0.0
 10
87.76329072241683
 20
-159.5258354635907
 30
0.0
 10
87.76122366512566
 20
-159.5447834887596
 30
0.0
 10
87.76122366512566
 20
-159.5744113099328
 30
0.0
 10
87.75915660783452
 20
-159.6061061883971
 30
0.0
 10
87.75915660783452
 20
-159.7414984409674
 30
0.0
 10
87.75915660783452
 20
-159.7690592048494
 30
0.0
 10
87.75915660783452
 20
-159.7690592048494
 30
0.0
 10
87.75915660783452
 20
-160.0146945129477
 30
0.0
 10
87.75915660783452
 20
-160.0146945129477
 30
0.0
 10
87.75915660783452
 20
-160.0591362447074
 30
0.0
 10
87.76329072241683
 20
-160.2558511969152
 30
0.0
 10
87.76742483699912
 20
-160.4081244173632
 30
0.0
 10
87.76742483699912
 20
-160.4081244173632
 30
0.0
 10
87.5410820636182
 20
-160.4081244173632
 30
0.0
 10
87.5410820636182
 20
-160.4081244173632
 30
0.0
 10
87.5410820636182
 20
-160.4081244173632
 30
0.0
 10
87.54314912090936
 20
-160.3743624816078
 30
0.0
 10
87.54314912090936
 20
-160.3743624816078
 30
0.0
 10
87.54314912090936
 20
-160.3743624816078
 30
0.0
 10
86.84103866101542
 20
-160.3743624816078
 30
0.0
 10
86.84103866101542
 20
-160.3743624816078
 30
0.0
 10
86.84103866101542
 20
-160.3743624816078
 30
0.0
 10
86.84310571830659
 20
-160.4081244173632
 30
0.0
 10
86.84310571830659
 20
-160.4081244173632
 30
0.0
 10
86.84310571830659
 20
-160.4081244173632
 30
0.0
 10
86.62503117409027
 20
-160.4081244173632
 30
0.0
 10
86.62503117409027
 20
-160.4081244173632
 30
0.0
 10
86.6295097982211
 20
-160.3530028895992
 30
0.0
 10
86.6295097982211
 20
-160.3402560363038
 30
0.0
 10
86.63571097009455
 20
-160.226223375742
 30
0.0
 10
86.6377780273857
 20
-160.19866261186
 30
0.0
 10
86.63984508467684
 20
-160.0653374165809
 30
0.0
 10
86.63984508467684
 20
-160.046389391412
 30
0.0
 10
86.63984508467684
 20
-160.046389391412
 30
0.0
 10
86.63984508467684
 20
-159.8431287577822
 30
0.0
 10
86.63984508467684
 20
-159.8431287577822
 30
0.0
 10
86.50031871752423
 20
-160.0928981804629
 30
0.0
 10
86.33116452919846
 20
-160.2241563184509
 30
0.0
 10
86.22540009780129
 20
-160.2896131326706
 30
0.0
 10
86.22540009780129
 20
-160.2896131326706
 30
0.0
 10
86.0517672853447
 20
-160.150086765518
 30
0.0
 10
86.0517672853447
 20
-160.150086765518
 30
0.0
 10
86.14065074886415
 20
-160.0990993523363
 30
0.0
 10
86.28465574014759
 20
-160.012282946108
 30
0.0
 10
86.42211505000906
 20
-159.8179795607399
 30
0.0
 10
86.51306557081964
 20
-159.6908555373342
 30
0.0
 10
86.5785223850394
 20
-159.5471950555993
 30
0.0
 10
86.61262883034337
 20
-159.3945773256027
 30
0.0
 10
86.38387449012277
 20
-159.3969888924424
 30
0.0
 10
86.20404050579274
 20
-159.4031900643159
 30
0.0
 10
86.10895587039985
 20
-159.405257121607
 30
0.0
 10
86.10895587039985
 20
-159.405257121607
 30
0.0
 10
86.10895587039985
 20
-159.2274901945681
 30
0.0
 10
86.10895587039985
 20
-159.2274901945681
 30
0.0
 10
86.3056708226076
 20
-159.2340358759901
 30
0.0
 10
86.58920218104368
 20
-159.2381699905724
 30
0.0
 10
86.73940834420056
 20
-159.2381699905724
 30
0.0
 10
86.73940834420056
 20
-159.2381699905724
 30
0.0
 10
86.95300426428607
 20
-159.2381699905724
 30
0.0
 10
86.95300426428607
 20
-159.2381699905724
 30
0.0
 10
86.95300426428607
 20
-159.2381699905724
 30
0.0
 10
86.95300426428607
 20
-159.1303385018841
 30
0.0
 10
86.95300426428607
 20
-159.1303385018841
 30
0.0
 10
86.95300426428607
 20
-159.1303385018841
 30
0.0
 10
86.80693221571146
 20
-159.1303385018841
 30
0.0
 10
86.80693221571146
 20
-159.1303385018841
 30
0.0
 10
86.6377780273857
 20
-159.1303385018841
 30
0.0
 10
86.46862383905993
 20
-159.1344726164664
 30
0.0
 10
86.30153670802531
 20
-159.1410182978883
 30
0.0
 10
86.30153670802531
 20
-159.1410182978883
 30
0.0
 10
86.30153670802531
 20
-158.9694525427229
 30
0.0
 10
86.30153670802531
 20
-158.9694525427229
 30
0.0
 10
86.4558769857645
 20
-158.9801323387272
 30
0.0
 10
86.64191214196799
 20
-158.9801323387272
 30
0.0
 10
86.80693221571146
 20
-158.9801323387272
 30
0.0
 10
86.80693221571146
 20
-158.9801323387272
 30
0.0
 10
86.95300426428607
 20
-158.9801323387272
 30
0.0
 10
86.95300426428607
 20
-158.9801323387272
 30
0.0
 10
86.95300426428607
 20
-158.9801323387272
 30
0.0
 10
86.95300426428607
 20
-158.8616210540346
 30
0.0
 10
86.95300426428607
 20
-158.8616210540346
 30
0.0
 10
86.95300426428607
 20
-158.8616210540346
 30
0.0
 10
86.82174612629804
 20
-158.8616210540346
 30
0.0
 10
86.82174612629804
 20
-158.8616210540346
 30
0.0
 10
86.77523733724717
 20
-158.8616210540346
 30
0.0
 10
86.57232121316594
 20
-158.8702337927477
 30
0.0
 10
86.52994653869738
 20
-158.8702337927477
 30
0.0
 10
86.32703041461615
 20
-158.87436790733
 30
0.0
 10
86.25054929484361
 20
-158.8764349646212
 30
0.0
 10
86.17234562732845
 20
-158.8785020219123
 30
0.0
 10
86.17234562732845
 20
-158.8785020219123
 30
0.0
 10
86.17234562732845
 20
-158.694533923
 30
0.0
 10
86.17234562732845
 20
-158.694533923
 30
0.0
 10
86.28672279743874
 20
-158.7028021521646
 30
0.0
 10
86.33116452919846
 20
-158.7028021521646
 30
0.0
 10
86.71391463760972
 20
-158.7114148908777
 30
0.0
 10
86.65052488068111
 20
-158.6163302554848
 30
0.0
 10
86.62296411679912
 20
-158.5887694916028
 30
0.0
 10
86.58713512375253
 20
-158.5525959890077
 30
0.0
 10
86.58713512375253
 20
-158.5525959890077
 30
0.0
 10
86.76249048395174
 20
-158.4702582069102
 30
0.0
 10
86.76249048395174
 20
-158.4702582069102
 30
0.0
 10
86.80279810112917
 20
-158.5060871999568
 30
0.0
 10
86.84723983288888
 20
-158.5484618744254
 30
0.0
 10
86.92130938582176
 20
-158.6583604204049
 30
0.0
 10
86.92130938582176
 20
-158.6583604204049
 30
0.0
 10
86.80693221571146
 20
-158.7134819481688
 30
0.0
 10
86.80693221571146
 20
-158.7134819481688
 30
0.0
 10
86.80693221571146
 20
-158.7134819481688
 30
0.0
 10
86.81761201171573
 20
-158.7134819481688
 30
0.0
 10
86.81761201171573
 20
-158.7134819481688
 30
0.0
 10
86.81761201171573
 20
-158.7134819481688
 30
0.0
 10
87.34023299682814
 20
-158.7134819481688
 30
0.0
 10
87.34023299682814
 20
-158.7134819481688
 30
0.0
 10
87.34023299682814
 20
-158.7134819481688
 30
0.0
 10
87.24514836143525
 20
-158.6690402164091
 30
0.0
 10
87.24514836143525
 20
-158.6690402164091
 30
0.0
 10
87.27236461576872
 20
-158.6311441660714
 30
0.0
 10
87.32955320082387
 20
-158.5505289317165
 30
0.0
 10
87.34436711141043
 20
-158.4764593787836
 30
0.0
 10
87.34436711141043
 20
-158.4764593787836
 30
0.0
 10
87.55796303149592
 20
-158.5401936452608
 30
0.0
 10
87.55796303149592
 20
-158.5401936452608
 30
0.0
 10
87.56657577020906
 20
-158.5422607025519
 30
0.0
 10
87.58759085266907
 20
-158.5525959890077
 30
0.0
 10
87.58759085266907
 20
-158.5739555810162
 30
0.0
 10
87.58759085266907
 20
-158.611851631354
 30
0.0
 10
87.52213403844933
 20
-158.611851631354
 30
0.0
 10
87.50318601328045
 20
-158.611851631354
 30
0.0
 10
87.49250621727618
 20
-158.6311441660714
 30
0.0
 10
87.46907956797647
 20
-158.6711072737003
 30
0.0
 10
87.43945174680332
 20
-158.7114148908777
 30
0.0
 10
87.83942733264083
 20
-158.7052137190042
 30
0.0
 10
87.86905515381398
 20
-158.7028021521646
 30
0.0
 10
87.94519176403801
 20
-158.6966009802911
 30
0.0
 10
87.94519176403801
 20
-158.6966009802911
 30
0.0
 10
87.94519176403801
 20
-158.8785020219123
 30
0.0
 10
87.94519176403801
 20
-158.8785020219123
 30
0.0
 10
87.92624373886914
 20
-158.8785020219123
 30
0.0
 10
87.90075003227828
 20
-158.8764349646212
 30
0.0
 10
87.68095294031935
 20
-158.867822225908
 30
0.0
 10
87.62996552713765
 20
-158.8657551686169
 30
0.0
 10
87.41016843517872
 20
-158.8616210540346
 30
0.0
 10
87.36572670341898
 20
-158.8616210540346
 30
0.0
 10
87.36572670341898
 20
-158.8616210540346
 30
0.0
 10
87.14971921649382
 20
-158.8616210540346
 30
0.0
 10
87.14971921649382
 20
-158.8616210540346
 30
0.0
 10
87.14971921649382
 20
-158.8616210540346
 30
0.0
 10
87.14971921649382
 20
-158.9801323387272
 30
0.0
 10
87.14971921649382
 20
-158.9801323387272
 30
0.0
 10
87.14971921649382
 20
-158.9801323387272
 30
0.0
 10
87.32335202895042
 20
-158.9801323387272
 30
0.0
 10
87.32335202895042
 20
-158.9801323387272
 30
0.0
 10
87.48630504540273
 20
-158.9801323387272
 30
0.0
 10
87.67647431618852
 20
-158.9801323387272
 30
0.0
 10
87.83322616076739
 20
-158.9694525427229
 30
0.0
 10
87.83322616076739
 20
-158.9694525427229
 30
0.0
 10
87.83322616076739
 20
-159.1410182978883
 30
0.0
 10
87.83322616076739
 20
-159.1410182978883
 30
0.0
 10
87.62376435526419
 20
-159.1324055591752
 30
0.0
 10
87.42704940305642
 20
-159.1303385018841
 30
0.0
 10
87.32335202895042
 20
-159.1303385018841
 30
0.0
 10
87.32335202895042
 20
-159.1303385018841
 30
0.0
 10
87.14971921649382
 20
-159.1303385018841
 30
0.0
 10
87.14971921649382
 20
-159.1303385018841
 30
0.0
 10
87.14971921649382
 20
-159.1303385018841
 30
0.0
 10
87.14971921649382
 20
-159.2381699905724
 30
0.0
 10
87.14971921649382
 20
-159.2381699905724
 30
0.0
 10
87.14971921649382
 20
-159.2381699905724
 30
0.0
 10
87.38054061400557
 20
-159.2381699905724
 30
0.0
 10
87.38054061400557
 20
-159.2381699905724
 30
0.0
 10
87.51352129973621
 20
-159.2381699905724
 30
0.0
 10
87.80153128230308
 20
-159.2340358759901
 30
0.0
 10
88.01064857825776
 20
-159.2274901945681
 30
0.0
 10
88.01064857825776
 20
-159.2274901945681
 30
0.0
 10
88.01064857825776
 20
-159.405257121607
 30
0.0
 10
88.01064857825776
 20
-159.405257121607
 30
0.0
 10
87.81841225018082
 20
-159.3990559497335
 30
0.0
 10
87.50525307057161
 20
-159.3945773256027
 30
0.0
 10
87.38054061400557
 20
-159.3945773256027
 30
0.0
  0
HATCH
  5
E6
330
DA
100
AcDbEntity
  8
レイヤー 1
 62
   250
420
  2299925
440
 33554687
100
AcDbHatch
 10
0.0
 20
0.0
 30
0.0
210
0.0
220
0.0
230
1.0
  2
SOLID
 70
     1
 71
     1
 91
        4
 92
        1
 93
        1
 72
     4
 94
        3
 73
     0
 74
     0
 95
       17
 96
       13
 40
0.0
 40
0.0
 40
0.0
 40
0.0
 40
1.0
 40
1.0
 40
1.0
 40
2.0
 40
2.0
 40
2.0
 40
3.0
 40
3.0
 40
3.0
 40
4.0
 40
4.0
 40
4.0
 40
4.0
 10
87.54556068774903
 20
-160.1266601162183
 10
87.54556068774903
 20
-160.1266601162183
 10
86.83897160372429
 20
-160.1266601162183
 10
86.83897160372429
 20
-160.1266601162183
 10
86.83897160372429
 20
-160.1266601162183
 10
86.83897160372429
 20
-160.2410372863286
 10
86.83897160372429
 20
-160.2410372863286
 10
86.83897160372429
 20
-160.2410372863286
 10
87.54556068774903
 20
-160.2410372863286
 10
87.54556068774903
 20
-160.2410372863286
 10
87.54556068774903
 20
-160.2410372863286
 10
87.54556068774903
 20
-160.1266601162183
 10
87.54556068774903
 20
-160.1266601162183
 97
        0
 97
        1
330
E2
 92
        1
 93
        1
 72
     4
 94
        3
 73
     0
 74
     0
 95
       17
 96
       13
 40
0.0
 40
0.0
 40
0.0
 40
0.0
 40
1.0
 40
1.0
 40
1.0
 40
2.0
 40
2.0
 40
2.0
 40
3.0
 40
3.0
 40
3.0
 40
4.0
 40
4.0
 40
4.0
 40
4.0
 10
87.54556068774903
 20
-159.8834363749597
 10
87.54556068774903
 20
-159.8834363749597
 10
86.83897160372429
 20
-159.8834363749597
 10
86.83897160372429
 20
-159.8834363749597
 10
86.83897160372429
 20
-159.8834363749597
 10
86.83897160372429
 20
-159.99781354507
 10
86.83897160372429
 20
-159.99781354507
 10
86.83897160372429
 20
-159.99781354507
 10
87.54556068774903
 20
-159.99781354507
 10
87.54556068774903
 20
-159.99781354507
 10
87.54556068774903
 20
-159.99781354507
 10
87.54556068774903
 20
-159.8834363749597
 10
87.54556068774903
 20
-159.8834363749597
 97
        0
 97
        1
330
E3
 92
        1
 93
        1
 72
     4
 94
        3
 73
     0
 74
     0
 95
       17
 96
       13
 40
0.0
 40
0.0
 40
0.0
 40
0.0
 40
1.0
 40
1.0
 40
1.0
 40
2.0
 40
2.0
 40
2.0
 40
3.0
 40
3.0
 40
3.0
 40
4.0
 40
4.0
 40
4.0
 40
4.0
 10
87.54556068774903
 20
-159.6505479201568
 10
87.54556068774903
 20
-159.6505479201568
 10
86.83897160372429
 20
-159.6505479201568
 10
86.83897160372429
 20
-159.6505479201568
 10
86.83897160372429
 20
-159.6505479201568
 10
86.83897160372429
 20
-159.7587239183936
 10
86.83897160372429
 20
-159.7587239183936
 10
86.83897160372429
 20
-159.7587239183936
 10
87.54556068774903
 20
-159.7587239183936
 10
87.54556068774903
 20
-159.7587239183936
 10
87.54556068774903
 20
-159.7587239183936
 10
87.54556068774903
 20
-159.6505479201568
 10
87.54556068774903
 20
-159.6505479201568
 97
        0
 97
        1
330
E4
 92
        1
 93
        1
 72
     4
 94
        3
 73
     0
 74
     0
 95
      203
 96
      199
 40
0.0
 40
0.0
 40
0.0
 40
0.0
 40
1.0
 40
1.0
 40
1.0
 40
2.0
 40
2.0
 40
2.0
 40
3.0
 40
3.0
 40
3.0
 40
4.0
 40
4.0
 40
4.0
 40
5.0
 40
5.0
 40
5.0
 40
6.0
 40
6.0
 40
6.0
 40
7.0
 40
7.0
 40
7.0
 40
8.0
 40
8.0
 40
8.0
 40
9.0
 40
9.0
 40
9.0
 40
10.0
 40
10.0
 40
10.0
 40
11.0
 40
11.0
 40
11.0
 40
12.0
 40
12.0
 40
12.0
 40
13.0
 40
13.0
 40
13.0
 40
14.0
 40
14.0
 40
14.0
 40
15.0
 40
15.0
 40
15.0
 40
16.0
 40
16.0
 40
16.0
 40
17.0
 40
17.0
 40
17.0
 40
18.0
 40
18.0
 40
18.0
 40
19.0
 40
19.0
 40
19.0
 40
20.0
 40
20.0
 40
20.0
 40
21.0
 40
21.0
 40
21.0
 40
22.0
 40
22.0
 40
22.0
 40
23.0
 40
23.0
 40
23.0
 40
24.0
 40
24.0
 40
24.0
 40
25.0
 40
25.0
 40
25.0
 40
26.0
 40
26.0
 40
26.0
 40
27.0
 40
27.0
 40
27.0
 40
28.0
 40
28.0
 40
28.0
 40
29.0
 40
29.0
 40
29.0
 40
30.0
 40
30.0
 40
30.0
 40
31.0
 40
31.0
 40
31.0
 40
32.0
 40
32.0
 40
32.0
 40
33.0
 40
33.0
 40
33.0
 40
34.0
 40
34.0
 40
34.0
 40
35.0
 40
35.0
 40
35.0
 40
36.0
 40
36.0
 40
36.0
 40
37.0
 40
37.0
 40
37.0
 40
38.0
 40
38.0
 40
38.0
 40
39.0
 40
39.0
 40
39.0
 40
40.0
 40
40.0
 40
40.0
 40
41.0
 40
41.0
 40
41.0
 40
42.0
 40
42.0
 40
42.0
 40
43.0
 40
43.0
 40
43.0
 40
44.0
 40
44.0
 40
44.0
 40
45.0
 40
45.0
 40
45.0
 40
46.0
 40
46.0
 40
46.0
 40
47.0
 40
47.0
 40
47.0
 40
48.0
 40
48.0
 40
48.0
 40
49.0
 40
49.0
 40
49.0
 40
50.0
 40
50.0
 40
50.0
 40
51.0
 40
51.0
 40
51.0
 40
52.0
 40
52.0
 40
52.0
 40
53.0
 40
53.0
 40
53.0
 40
54.0
 40
54.0
 40
54.0
 40
55.0
 40
55.0
 40
55.0
 40
56.0
 40
56.0
 40
56.0
 40
57.0
 40
57.0
 40
57.0
 40
58.0
 40
58.0
 40
58.0
 40
59.0
 40
59.0
 40
59.0
 40
60.0
 40
60.0
 40
60.0
 40
61.0
 40
61.0
 40
61.0
 40
62.0
 40
62.0
 40
62.0
 40
63.0
 40
63.0
 40
63.0
 40
64.0
 40
64.0
 40
64.0
 40
65.0
 40
65.0
 40
65.0
 40
66.0
 40
66.0
 40
66.0
 40
66.0
 10
87.38054061400557
 20
-159.3945773256027
 10
87.38054061400557
 20
-159.3945773256027
 10
86.82174612629804
 20
-159.3945773256027
 10
86.82174612629804
 20
-159.3945773256027
 10
86.81141083984229
 20
-159.4390190573625
 10
86.80279810112917
 20
-159.4707139358268
 10
86.79005124783374
 20
-159.508954495713
 10
86.8155449544246
 20
-159.508954495713
 10
86.83035886501116
 20
-159.5110215530042
 10
86.83656003688462
 20
-159.5110215530042
 10
86.83656003688462
 20
-159.5110215530042
 10
87.02500675992778
 20
-159.5110215530042
 10
87.02500675992778
 20
-159.5110215530042
 10
87.02500675992778
 20
-159.5110215530042
 10
87.39948863917444
 20
-159.5110215530042
 10
87.39948863917444
 20
-159.5110215530042
 10
87.4501315428076
 20
-159.5110215530042
 10
87.73366290124368
 20
-159.4982746997087
 10
87.76535777970797
 20
-159.4982746997087
 10
87.76329072241683
 20
-159.5258354635907
 10
87.76122366512566
 20
-159.5447834887596
 10
87.76122366512566
 20
-159.5744113099328
 10
87.75915660783452
 20
-159.6061061883971
 10
87.75915660783452
 20
-159.7414984409674
 10
87.75915660783452
 20
-159.7690592048494
 10
87.75915660783452
 20
-159.7690592048494
 10
87.75915660783452
 20
-160.0146945129477
 10
87.75915660783452
 20
-160.0146945129477
 10
87.75915660783452
 20
-160.0591362447074
 10
87.76329072241683
 20
-160.2558511969152
 10
87.76742483699912
 20
-160.4081244173632
 10
87.76742483699912
 20
-160.4081244173632
 10
87.5410820636182
 20
-160.4081244173632
 10
87.5410820636182
 20
-160.4081244173632
 10
87.5410820636182
 20
-160.4081244173632
 10
87.54314912090936
 20
-160.3743624816078
 10
87.54314912090936
 20
-160.3743624816078
 10
87.54314912090936
 20
-160.3743624816078
 10
86.84103866101542
 20
-160.3743624816078
 10
86.84103866101542
 20
-160.3743624816078
 10
86.84103866101542
 20
-160.3743624816078
 10
86.84310571830659
 20
-160.4081244173632
 10
86.84310571830659
 20
-160.4081244173632
 10
86.84310571830659
 20
-160.4081244173632
 10
86.62503117409027
 20
-160.4081244173632
 10
86.62503117409027
 20
-160.4081244173632
 10
86.6295097982211
 20
-160.3530028895992
 10
86.6295097982211
 20
-160.3402560363038
 10
86.63571097009455
 20
-160.226223375742
 10
86.6377780273857
 20
-160.19866261186
 10
86.63984508467684
 20
-160.0653374165809
 10
86.63984508467684
 20
-160.046389391412
 10
86.63984508467684
 20
-160.046389391412
 10
86.63984508467684
 20
-159.8431287577822
 10
86.63984508467684
 20
-159.8431287577822
 10
86.50031871752423
 20
-160.0928981804629
 10
86.33116452919846
 20
-160.2241563184509
 10
86.22540009780129
 20
-160.2896131326706
 10
86.22540009780129
 20
-160.2896131326706
 10
86.0517672853447
 20
-160.150086765518
 10
86.0517672853447
 20
-160.150086765518
 10
86.14065074886415
 20
-160.0990993523363
 10
86.28465574014759
 20
-160.012282946108
 10
86.42211505000906
 20
-159.8179795607399
 10
86.51306557081964
 20
-159.6908555373342
 10
86.5785223850394
 20
-159.5471950555993
 10
86.61262883034337
 20
-159.3945773256027
 10
86.38387449012277
 20
-159.3969888924424
 10
86.20404050579274
 20
-159.4031900643159
 10
86.10895587039985
 20
-159.405257121607
 10
86.10895587039985
 20
-159.405257121607
 10
86.10895587039985
 20
-159.2274901945681
 10
86.10895587039985
 20
-159.2274901945681
 10
86.3056708226076
 20
-159.2340358759901
 10
86.58920218104368
 20
-159.2381699905724
 10
86.73940834420056
 20
-159.2381699905724
 10
86.73940834420056
 20
-159.2381699905724
 10
86.95300426428607
 20
-159.2381699905724
 10
86.95300426428607
 20
-159.2381699905724
 10
86.95300426428607
 20
-159.2381699905724
 10
86.95300426428607
 20
-159.1303385018841
 10
86.95300426428607
 20
-159.1303385018841
 10
86.95300426428607
 20
-159.1303385018841
 10
86.80693221571146
 20
-159.1303385018841
 10
86.80693221571146
 20
-159.1303385018841
 10
86.6377780273857
 20
-159.1303385018841
 10
86.46862383905993
 20
-159.1344726164664
 10
86.30153670802531
 20
-159.1410182978883
 10
86.30153670802531
 20
-159.1410182978883
 10
86.30153670802531
 20
-158.9694525427229
 10
86.30153670802531
 20
-158.9694525427229
 10
86.4558769857645
 20
-158.9801323387272
 10
86.64191214196799
 20
-158.9801323387272
 10
86.80693221571146
 20
-158.9801323387272
 10
86.80693221571146
 20
-158.9801323387272
 10
86.95300426428607
 20
-158.9801323387272
 10
86.95300426428607
 20
-158.9801323387272
 10
86.95300426428607
 20
-158.9801323387272
 10
86.95300426428607
 20
-158.8616210540346
 10
86.95300426428607
 20
-158.8616210540346
 10
86.95300426428607
 20
-158.8616210540346
 10
86.82174612629804
 20
-158.8616210540346
 10
86.82174612629804
 20
-158.8616210540346
 10
86.77523733724717
 20
-158.8616210540346
 10
86.57232121316594
 20
-158.8702337927477
 10
86.52994653869738
 20
-158.8702337927477
 10
86.32703041461615
 20
-158.87436790733
 10
86.25054929484361
 20
-158.8764349646212
 10
86.17234562732845
 20
-158.8785020219123
 10
86.17234562732845
 20
-158.8785020219123
 10
86.17234562732845
 20
-158.694533923
 10
86.17234562732845
 20
-158.694533923
 10
86.28672279743874
 20
-158.7028021521646
 10
86.33116452919846
 20
-158.7028021521646
 10
86.71391463760972
 20
-158.7114148908777
 10
86.65052488068111
 20
-158.6163302554848
 10
86.62296411679912
 20
-158.5887694916028
 10
86.58713512375253
 20
-158.5525959890077
 10
86.58713512375253
 20
-158.5525959890077
 10
86.76249048395174
 20
-158.4702582069102
 10
86.76249048395174
 20
-158.4702582069102
 10
86.80279810112917
 20
-158.5060871999568
 10
86.84723983288888
 20
-158.5484618744254
 10
86.92130938582176
 20
-158.6583604204049
 10
86.92130938582176
 20
-158.6583604204049
 10
86.80693221571146
 20
-158.7134819481688
 10
86.80693221571146
 20
-158.7134819481688
 10
86.80693221571146
 20
-158.7134819481688
 10
86.81761201171573
 20
-158.7134819481688
 10
86.81761201171573
 20
-158.7134819481688
 10
86.81761201171573
 20
-158.7134819481688
 10
87.34023299682814
 20
-158.7134819481688
 10
87.34023299682814
 20
-158.7134819481688
 10
87.34023299682814
 20
-158.7134819481688
 10
87.24514836143525
 20
-158.6690402164091
 10
87.24514836143525
 20
-158.6690402164091
 10
87.27236461576872
 20
-158.6311441660714
 10
87.32955320082387
 20
-158.5505289317165
 10
87.34436711141043
 20
-158.4764593787836
 10
87.34436711141043
 20
-158.4764593787836
 10
87.55796303149592
 20
-158.5401936452608
 10
87.55796303149592
 20
-158.5401936452608
 10
87.56657577020906
 20
-158.5422607025519
 10
87.58759085266907
 20
-158.5525959890077
 10
87.58759085266907
 20
-158.5739555810162
 10
87.58759085266907
 20
-158.611851631354
 10
87.52213403844933
 20
-158.611851631354
 10
87.50318601328045
 20
-158.611851631354
 10
87.49250621727618
 20
-158.6311441660714
 10
87.46907956797647
 20
-158.6711072737003
 10
87.43945174680332
 20
-158.7114148908777
 10
87.83942733264083
 20
-158.7052137190042
 10
87.86905515381398
 20
-158.7028021521646
 10
87.94519176403801
 20
-158.6966009802911
 10
87.94519176403801
 20
-158.6966009802911
 10
87.94519176403801
 20
-158.8785020219123
 10
87.94519176403801
 20
-158.8785020219123
 10
87.92624373886914
 20
-158.8785020219123
 10
87.90075003227828
 20
-158.8764349646212
 10
87.68095294031935
 20
-158.867822225908
 10
87.62996552713765
 20
-158.8657551686169
 10
87.41016843517872
 20
-158.8616210540346
 10
87.36572670341898
 20
-158.8616210540346
 10
87.36572670341898
 20
-158.8616210540346
 10
87.14971921649382
 20
-158.8616210540346
 10
87.14971921649382
 20
-158.8616210540346
 10
87.14971921649382
 20
-158.8616210540346
 10
87.14971921649382
 20
-158.9801323387272
 10
87.14971921649382
 20
-158.9801323387272
 10
87.14971921649382
 20
-158.9801323387272
 10
87.32335202895042
 20
-158.9801323387272
 10
87.32335202895042
 20
-158.9801323387272
 10
87.48630504540273
 20
-158.9801323387272
 10
87.67647431618852
 20
-158.9801323387272
 10
87.83322616076739
 20
-158.9694525427229
 10
87.83322616076739
 20
-158.9694525427229
 10
87.83322616076739
 20
-159.1410182978883
 10
87.83322616076739
 20
-159.1410182978883
 10
87.62376435526419
 20
-159.1324055591752
 10
87.42704940305642
 20
-159.1303385018841
 10
87.32335202895042
 20
-159.1303385018841
 10
87.32335202895042
 20
-159.1303385018841
 10
87.14971921649382
 20
-159.1303385018841
 10
87.14971921649382
 20
-159.1303385018841
 10
87.14971921649382
 20
-159.1303385018841
 10
87.14971921649382
 20
-159.2381699905724
 10
87.14971921649382
 20
-159.2381699905724
 10
87.14971921649382
 20
-159.2381699905724
 10
87.38054061400557
 20
-159.2381699905724
 10
87.38054061400557
 20
-159.2381699905724
 10
87.51352129973621
 20
-159.2381699905724
 10
87.80153128230308
 20
-159.2340358759901
 10
88.01064857825776
 20
-159.2274901945681
 10
88.01064857825776
 20
-159.2274901945681
 10
88.01064857825776
 20
-159.405257121607
 10
88.01064857825776
 20
-159.405257121607
 10
87.81841225018082
 20
-159.3990559497335
 10
87.50525307057161
 20
-159.3945773256027
 10
87.38054061400557
 20
-159.3945773256027
 97
        0
 97
        1
330
E5
 75
     2
 76
     1
 98
        1
 10
0.0
 20
0.0
450
        0
451
        0
460
0.0
461
0.0
452
        0
462
0.0
453
        0
470

  0
SPLINE
  5
E7
330
DA
100
AcDbEntity
  8
レイヤー 1
100
AcDbSpline
210
0.0
220
0.0
230
1.0
 70
     9
 71
     3
 72
    29
 73
    25
 74
     0
 42
0.0000000001
 43
0.0000000001
 40
0.0
 40
0.0
 40
0.0
 40
0.0
 40
1.0
 40
1.0
 40
1.0
 40
2.0
 40
2.0
 40
2.0
 40
3.0
 40
3.0
 40
3.0
 40
4.0
 40
4.0
 40
4.0
 40
5.0
 40
5.0
 40
5.0
 40
6.0
 40
6.0
 40
6.0
 40
7.0
 40
7.0
 40
7.0
 40
8.0
 40
8.0
 40
8.0
 40
8.0
 10
89.25570608662704
 20
-158.8426730288657
 30
0.0
 10
89.25570608662704
 20
-158.8426730288657
 30
0.0
 10
88.90223928984042
 20
-158.8426730288657
 30
0.0
 10
88.90223928984042
 20
-158.8426730288657
 30
0.0
 10
88.79027368656979
 20
-158.8426730288657
 30
0.0
 10
88.65074731941717
 20
-158.8488742007392
 30
0.0
 10
88.54291583072885
 20
-158.8616210540346
 30
0.0
 10
88.54291583072885
 20
-158.8616210540346
 30
0.0
 10
88.54291583072885
 20
-158.6266655419405
 30
0.0
 10
88.54291583072885
 20
-158.6266655419405
 30
0.0
 10
88.66108260587294
 20
-158.6414794525271
 30
0.0
 10
88.8453952143338
 20
-158.6459580766579
 30
0.0
 10
88.90223928984042
 20
-158.6459580766579
 30
0.0
 10
88.90223928984042
 20
-158.6459580766579
 30
0.0
 10
89.25570608662704
 20
-158.6459580766579
 30
0.0
 10
89.25570608662704
 20
-158.6459580766579
 30
0.0
 10
89.27465411179593
 20
-158.6459580766579
 30
0.0
 10
89.47791474542567
 20
-158.6459580766579
 30
0.0
 10
89.61950816986943
 20
-158.6266655419405
 30
0.0
 10
89.61950816986943
 20
-158.6266655419405
 30
0.0
 10
89.61950816986943
 20
-158.8616210540346
 30
0.0
 10
89.61950816986943
 20
-158.8616210540346
 30
0.0
 10
89.46310083483909
 20
-158.8426730288657
 30
0.0
 10
89.27258705450476
 20
-158.8426730288657
 30
0.0
 10
89.25570608662704
 20
-158.8426730288657
 30
0.0
  0
SPLINE
  5
E8
330
DA
100
AcDbEntity
  8
レイヤー 1
100
AcDbSpline
210
0.0
220
0.0
230
1.0
 70
     9
 71
     3
 72
    47
 73
    43
 74
     0
 42
0.0000000001
 43
0.0000000001
 40
0.0
 40
0.0
 40
0.0
 40
0.0
 40
1.0
 40
1.0
 40
1.0
 40
2.0
 40
2.0
 40
2.0
 40
3.0
 40
3.0
 40
3.0
 40
4.0
 40
4.0
 40
4.0
 40
5.0
 40
5.0
 40
5.0
 40
6.0
 40
6.0
 40
6.0
 40
7.0
 40
7.0
 40
7.0
 40
8.0
 40
8.0
 40
8.0
 40
9.0
 40
9.0
 40
9.0
 40
10.0
 40
10.0
 40
10.0
 40
11.0
 40
11.0
 40
11.0
 40
12.0
 40
12.0
 40
12.0
 40
13.0
 40
13.0
 40
13.0
 40
14.0
 40
14.0
 40
14.0
 40
14.0
 10
89.35733640344192
 20
-159.3714951858516
 30
0.0
 10
89.35733640344192
 20
-159.3714951858516
 30
0.0
 10
89.25570608662704
 20
-159.3714951858516
 30
0.0
 10
89.25570608662704
 20
-159.3714951858516
 30
0.0
 10
89.25570608662704
 20
-159.4583115920798
 30
0.0
 10
89.23469100416703
 20
-159.8476073819131
 30
0.0
 10
89.03797605195926
 20
-160.067404473872
 30
0.0
 10
88.8853583219627
 20
-160.2365586621978
 30
0.0
 10
88.67830808329918
 20
-160.3064941005484
 30
0.0
 10
88.59355873436204
 20
-160.3340548644304
 30
0.0
 10
88.59355873436204
 20
-160.3340548644304
 30
0.0
 10
88.39891083944541
 20
-160.1669677333958
 30
0.0
 10
88.39891083944541
 20
-160.1669677333958
 30
0.0
 10
88.49640704167798
 20
-160.1542208801003
 30
0.0
 10
88.6717624018772
 20
-160.1307942308006
 30
0.0
 10
88.86020912492037
 20
-159.942692017306
 30
0.0
 10
88.93427867785325
 20
-159.8706895216642
 30
0.0
 10
89.03797605195926
 20
-159.7311631545116
 30
0.0
 10
89.03797605195926
 20
-159.3714951858516
 30
0.0
 10
89.03797605195926
 20
-159.3714951858516
 30
0.0
 10
88.80715465444751
 20
-159.3714951858516
 30
0.0
 10
88.80715465444751
 20
-159.3714951858516
 30
0.0
 10
88.62111949824402
 20
-159.3714951858516
 30
0.0
 10
88.43473983249202
 20
-159.3756293004338
 30
0.0
 10
88.24870467628853
 20
-159.3904432110204
 30
0.0
 10
88.24870467628853
 20
-159.3904432110204
 30
0.0
 10
88.24870467628853
 20
-159.1706461190615
 30
0.0
 10
88.24870467628853
 20
-159.1706461190615
 30
0.0
 10
88.43715139933168
 20
-159.1854600296481
 30
0.0
 10
88.7227498150589
 20
-159.1895941442304
 30
0.0
 10
88.80715465444751
 20
-159.1895941442304
 30
0.0
 10
88.80715465444751
 20
-159.1895941442304
 30
0.0
 10
89.35733640344192
 20
-159.1895941442304
 30
0.0
 10
89.35733640344192
 20
-159.1895941442304
 30
0.0
 10
89.37628442861079
 20
-159.1895941442304
 30
0.0
 10
89.69357772280231
 20
-159.1895941442304
 30
0.0
 10
89.92198755347436
 20
-159.1706461190615
 30
0.0
 10
89.92198755347436
 20
-159.1706461190615
 30
0.0
 10
89.92198755347436
 20
-159.3904432110204
 30
0.0
 10
89.92198755347436
 20
-159.3904432110204
 30
0.0
 10
89.73388533997972
 20
-159.3756293004338
 30
0.0
 10
89.54543861693656
 20
-159.3714951858516
 30
0.0
 10
89.35733640344192
 20
-159.3714951858516
 30
0.0
  0
HATCH
  5
E9
330
DA
100
AcDbEntity
  8
レイヤー 1
 62
   250
420
  2299925
440
 33554687
100
AcDbHatch
 10
0.0
 20
0.0
 30
0.0
210
0.0
220
0.0
230
1.0
  2
SOLID
 70
     1
 71
     1
 91
        2
 92
        1
 93
        1
 72
     4
 94
        3
 73
     0
 74
     0
 95
       29
 96
       25
 40
0.0
 40
0.0
 40
0.0
 40
0.0
 40
1.0
 40
1.0
 40
1.0
 40
2.0
 40
2.0
 40
2.0
 40
3.0
 40
3.0
 40
3.0
 40
4.0
 40
4.0
 40
4.0
 40
5.0
 40
5.0
 40
5.0
 40
6.0
 40
6.0
 40
6.0
 40
7.0
 40
7.0
 40
7.0
 40
8.0
 40
8.0
 40
8.0
 40
8.0
 10
89.25570608662704
 20
-158.8426730288657
 10
89.25570608662704
 20
-158.8426730288657
 10
88.90223928984042
 20
-158.8426730288657
 10
88.90223928984042
 20
-158.8426730288657
 10
88.79027368656979
 20
-158.8426730288657
 10
88.65074731941717
 20
-158.8488742007392
 10
88.54291583072885
 20
-158.8616210540346
 10
88.54291583072885
 20
-158.8616210540346
 10
88.54291583072885
 20
-158.6266655419405
 10
88.54291583072885
 20
-158.6266655419405
 10
88.66108260587294
 20
-158.6414794525271
 10
88.8453952143338
 20
-158.6459580766579
 10
88.90223928984042
 20
-158.6459580766579
 10
88.90223928984042
 20
-158.6459580766579
 10
89.25570608662704
 20
-158.6459580766579
 10
89.25570608662704
 20
-158.6459580766579
 10
89.27465411179593
 20
-158.6459580766579
 10
89.47791474542567
 20
-158.6459580766579
 10
89.61950816986943
 20
-158.6266655419405
 10
89.61950816986943
 20
-158.6266655419405
 10
89.61950816986943
 20
-158.8616210540346
 10
89.61950816986943
 20
-158.8616210540346
 10
89.46310083483909
 20
-158.8426730288657
 10
89.27258705450476
 20
-158.8426730288657
 10
89.25570608662704
 20
-158.8426730288657
 97
        0
 97
        1
330
E7
 92
        1
 93
        1
 72
     4
 94
        3
 73
     0
 74
     0
 95
       47
 96
       43
 40
0.0
 40
0.0
 40
0.0
 40
0.0
 40
1.0
 40
1.0
 40
1.0
 40
2.0
 40
2.0
 40
2.0
 40
3.0
 40
3.0
 40
3.0
 40
4.0
 40
4.0
 40
4.0
 40
5.0
 40
5.0
 40
5.0
 40
6.0
 40
6.0
 40
6.0
 40
7.0
 40
7.0
 40
7.0
 40
8.0
 40
8.0
 40
8.0
 40
9.0
 40
9.0
 40
9.0
 40
10.0
 40
10.0
 40
10.0
 40
11.0
 40
11.0
 40
11.0
 40
12.0
 40
12.0
 40
12.0
 40
13.0
 40
13.0
 40
13.0
 40
14.0
 40
14.0
 40
14.0
 40
14.0
 10
89.35733640344192
 20
-159.3714951858516
 10
89.35733640344192
 20
-159.3714951858516
 10
89.25570608662704
 20
-159.3714951858516
 10
89.25570608662704
 20
-159.3714951858516
 10
89.25570608662704
 20
-159.4583115920798
 10
89.23469100416703
 20
-159.8476073819131
 10
89.03797605195926
 20
-160.067404473872
 10
88.8853583219627
 20
-160.2365586621978
 10
88.67830808329918
 20
-160.3064941005484
 10
88.59355873436204
 20
-160.3340548644304
 10
88.59355873436204
 20
-160.3340548644304
 10
88.39891083944541
 20
-160.1669677333958
 10
88.39891083944541
 20
-160.1669677333958
 10
88.49640704167798
 20
-160.1542208801003
 10
88.6717624018772
 20
-160.1307942308006
 10
88.86020912492037
 20
-159.942692017306
 10
88.93427867785325
 20
-159.8706895216642
 10
89.03797605195926
 20
-159.7311631545116
 10
89.03797605195926
 20
-159.3714951858516
 10
89.03797605195926
 20
-159.3714951858516
 10
88.80715465444751
 20
-159.3714951858516
 10
88.80715465444751
 20
-159.3714951858516
 10
88.62111949824402
 20
-159.3714951858516
 10
88.43473983249202
 20
-159.3756293004338
 10
88.24870467628853
 20
-159.3904432110204
 10
88.24870467628853
 20
-159.3904432110204
 10
88.24870467628853
 20
-159.1706461190615
 10
88.24870467628853
 20
-159.1706461190615
 10
88.43715139933168
 20
-159.1854600296481
 10
88.7227498150589
 20
-159.1895941442304
 10
88.80715465444751
 20
-159.1895941442304
 10
88.80715465444751
 20
-159.1895941442304
 10
89.35733640344192
 20
-159.1895941442304
 10
89.35733640344192
 20
-159.1895941442304
 10
89.37628442861079
 20
-159.1895941442304
 10
89.69357772280231
 20
-159.1895941442304
 10
89.92198755347436
 20
-159.1706461190615
 10
89.92198755347436
 20
-159.1706461190615
 10
89.92198755347436
 20
-159.3904432110204
 10
89.92198755347436
 20
-159.3904432110204
 10
89.73388533997972
 20
-159.3756293004338
 10
89.54543861693656
 20
-159.3714951858516
 10
89.35733640344192
 20
-159.3714951858516
 97
        0
 97
        1
330
E8
 75
     2
 76
     1
 98
        1
 10
0.0
 20
0.0
450
        0
451
        0
460
0.0
461
0.0
452
        0
462
0.0
453
        0
470

  0
SPLINE
  5
EA
330
DA
100
AcDbEntity
  8
レイヤー 1
100
AcDbSpline
210
0.0
220
0.0
230
1.0
 70
     9
 71
     3
 72
    29
 73
    25
 74
     0
 42
0.0000000001
 43
0.0000000001
 40
0.0
 40
0.0
 40
0.0
 40
0.0
 40
1.0
 40
1.0
 40
1.0
 40
2.0
 40
2.0
 40
2.0
 40
3.0
 40
3.0
 40
3.0
 40
4.0
 40
4.0
 40
4.0
 40
5.0
 40
5.0
 40
5.0
 40
6.0
 40
6.0
 40
6.0
 40
7.0
 40
7.0
 40
7.0
 40
8.0
 40
8.0
 40
8.0
 40
8.0
 10
91.20321856443878
 20
-159.5344482023039
 30
0.0
 10
91.20321856443878
 20
-159.5344482023039
 30
0.0
 10
90.71883813921266
 20
-159.5344482023039
 30
0.0
 10
90.71883813921266
 20
-159.5344482023039
 30
0.0
 10
90.69127737533065
 20
-159.5344482023039
 30
0.0
 10
90.37398408113913
 20
-159.5344482023039
 30
0.0
 10
90.16245521834481
 20
-159.5595973993462
 30
0.0
 10
90.16245521834481
 20
-159.5595973993462
 30
0.0
 10
90.16245521834481
 20
-159.329120511383
 30
0.0
 10
90.16245521834481
 20
-159.329120511383
 30
0.0
 10
90.32092961066629
 20
-159.3525471606827
 30
0.0
 10
90.5114433910006
 20
-159.3546142179738
 30
0.0
 10
90.71883813921266
 20
-159.3546142179738
 30
0.0
 10
90.71883813921266
 20
-159.3546142179738
 30
0.0
 10
91.20321856443878
 20
-159.3546142179738
 30
0.0
 10
91.20321856443878
 20
-159.3546142179738
 30
0.0
 10
91.38925372064226
 20
-159.3546142179738
 30
0.0
 10
91.57563338639429
 20
-159.3525471606827
 30
0.0
 10
91.75960148530663
 20
-159.329120511383
 30
0.0
 10
91.75960148530663
 20
-159.329120511383
 30
0.0
 10
91.75960148530663
 20
-159.5595973993462
 30
0.0
 10
91.75960148530663
 20
-159.5595973993462
 30
0.0
 10
91.57563338639429
 20
-159.536515259595
 30
0.0
 10
91.32793102100484
 20
-159.5344482023039
 30
0.0
 10
91.20321856443878
 20
-159.5344482023039
 30
0.0
  0
HATCH
  5
EB
330
DA
100
AcDbEntity
  8
レイヤー 1
 62
   250
420
  2299925
440
 33554687
100
AcDbHatch
 10
0.0
 20
0.0
 30
0.0
210
0.0
220
0.0
230
1.0
  2
SOLID
 70
     1
 71
     1
 91
        1
 92
        1
 93
        1
 72
     4
 94
        3
 73
     0
 74
     0
 95
       29
 96
       25
 40
0.0
 40
0.0
 40
0.0
 40
0.0
 40
1.0
 40
1.0
 40
1.0
 40
2.0
 40
2.0
 40
2.0
 40
3.0
 40
3.0
 40
3.0
 40
4.0
 40
4.0
 40
4.0
 40
5.0
 40
5.0
 40
5.0
 40
6.0
 40
6.0
 40
6.0
 40
7.0
 40
7.0
 40
7.0
 40
8.0
 40
8.0
 40
8.0
 40
8.0
 10
91.20321856443878
 20
-159.5344482023039
 10
91.20321856443878
 20
-159.5344482023039
 10
90.71883813921266
 20
-159.5344482023039
 10
90.71883813921266
 20
-159.5344482023039
 10
90.69127737533065
 20
-159.5344482023039
 10
90.37398408113913
 20
-159.5344482023039
 10
90.16245521834481
 20
-159.5595973993462
 10
90.16245521834481
 20
-159.5595973993462
 10
90.16245521834481
 20
-159.329120511383
 10
90.16245521834481
 20
-159.329120511383
 10
90.32092961066629
 20
-159.3525471606827
 10
90.5114433910006
 20
-159.3546142179738
 10
90.71883813921266
 20
-159.3546142179738
 10
90.71883813921266
 20
-159.3546142179738
 10
91.20321856443878
 20
-159.3546142179738
 10
91.20321856443878
 20
-159.3546142179738
 10
91.38925372064226
 20
-159.3546142179738
 10
91.57563338639429
 20
-159.3525471606827
 10
91.75960148530663
 20
-159.329120511383
 10
91.75960148530663
 20
-159.329120511383
 10
91.75960148530663
 20
-159.5595973993462
 10
91.75960148530663
 20
-159.5595973993462
 10
91.57563338639429
 20
-159.536515259595
 10
91.32793102100484
 20
-159.5344482023039
 10
91.20321856443878
 20
-159.5344482023039
 97
        0
 97
        1
330
EA
 75
     2
 76
     1
 98
        1
 10
0.0
 20
0.0
450
        0
451
        0
460
0.0
461
0.0
452
        0
462
0.0
453
        0
470

  0
SPLINE
  5
EC
330
DA
100
AcDbEntity
  8
レイヤー 1
100
AcDbSpline
210
0.0
220
0.0
230
1.0
 70
     9
 71
     3
 72
    17
 73
    13
 74
     0
 42
0.0000000001
 43
0.0000000001
 40
0.0
 40
0.0
 40
0.0
 40
0.0
 40
1.0
 40
1.0
 40
1.0
 40
2.0
 40
2.0
 40
2.0
 40
3.0
 40
3.0
 40
3.0
 40
4.0
 40
4.0
 40
4.0
 40
4.0
 10
93.62202010463269
 20
-158.5674098995942
 30
0.0
 10
93.56724308641721
 20
-158.5674098995942
 30
0.0
 10
93.5228013546575
 20
-158.611851631354
 30
0.0
 10
93.5228013546575
 20
-158.666973159118
 30
0.0
 10
93.5228013546575
 20
-158.7241617441731
 30
0.0
 10
93.56724308641721
 20
-158.7727375905151
 30
0.0
 10
93.626154219215
 20
-158.7727375905151
 30
0.0
 10
93.6854098615613
 20
-158.7727375905151
 30
0.0
 10
93.72571747873871
 20
-158.722094686882
 30
0.0
 10
93.72571747873871
 20
-158.6690402164091
 30
0.0
 10
93.72571747873871
 20
-158.611851631354
 30
0.0
 10
93.67920868968784
 20
-158.5674098995942
 30
0.0
 10
93.62202010463269
 20
-158.5674098995942
 30
0.0
  0
SPLINE
  5
ED
330
DA
100
AcDbEntity
  8
レイヤー 1
100
AcDbSpline
210
0.0
220
0.0
230
1.0
 70
     9
 71
     3
 72
    17
 73
    13
 74
     0
 42
0.0000000001
 43
0.0000000001
 40
0.0
 40
0.0
 40
0.0
 40
0.0
 40
1.0
 40
1.0
 40
1.0
 40
2.0
 40
2.0
 40
2.0
 40
3.0
 40
3.0
 40
3.0
 40
4.0
 40
4.0
 40
4.0
 40
4.0
 10
93.62408716192383
 20
-158.8974500470812
 30
0.0
 10
93.49730764806665
 20
-158.8974500470812
 30
0.0
 10
93.39567733125177
 20
-158.7961642398148
 30
0.0
 10
93.39567733125177
 20
-158.6690402164091
 30
0.0
 10
93.39567733125177
 20
-158.5422607025519
 30
0.0
 10
93.49730764806665
 20
-158.4385633284459
 30
0.0
 10
93.62408716192383
 20
-158.4385633284459
 30
0.0
 10
93.75121118532957
 20
-158.4385633284459
 30
0.0
 10
93.85490855943558
 20
-158.5422607025519
 30
0.0
 10
93.85490855943558
 20
-158.6690402164091
 30
0.0
 10
93.85490855943558
 20
-158.7961642398148
 30
0.0
 10
93.75121118532957
 20
-158.8974500470812
 30
0.0
 10
93.62408716192383
 20
-158.8974500470812
 30
0.0
  0
SPLINE
  5
EE
330
DA
100
AcDbEntity
  8
レイヤー 1
100
AcDbSpline
210
0.0
220
0.0
230
1.0
 70
     9
 71
     3
 72
    44
 73
    40
 74
     0
 42
0.0000000001
 43
0.0000000001
 40
0.0
 40
0.0
 40
0.0
 40
0.0
 40
1.0
 40
1.0
 40
1.0
 40
2.0
 40
2.0
 40
2.0
 40
3.0
 40
3.0
 40
3.0
 40
4.0
 40
4.0
 40
4.0
 40
5.0
 40
5.0
 40
5.0
 40
6.0
 40
6.0
 40
6.0
 40
7.0
 40
7.0
 40
7.0
 40
8.0
 40
8.0
 40
8.0
 40
9.0
 40
9.0
 40
9.0
 40
10.0
 40
10.0
 40
10.0
 40
11.0
 40
11.0
 40
11.0
 40
12.0
 40
12.0
 40
12.0
 40
13.0
 40
13.0
 40
13.0
 40
13.0
 10
93.41462535642065
 20
-159.0965765661286
 30
0.0
 10
93.30265975315004
 20
-159.4645127639533
 30
0.0
 10
93.25201684951686
 20
-159.6233316658233
 30
0.0
 10
93.05530189730909
 20
-159.8727565789554
 30
0.0
 10
92.87098928884823
 20
-160.1035779764671
 30
0.0
 10
92.63431122901156
 20
-160.2896131326706
 30
0.0
 10
92.35491398515781
 20
-160.3826307107724
 30
0.0
 10
92.35491398515781
 20
-160.3826307107724
 30
0.0
 10
92.16233314753234
 20
-160.2027967264423
 30
0.0
 10
92.16233314753234
 20
-160.2027967264423
 30
0.0
 10
92.80346541733733
 20
-160.0505235059943
 30
0.0
 10
93.13350556482426
 20
-159.4941405851264
 30
0.0
 10
93.19689532175287
 20
-159.05420189166
 30
0.0
 10
93.19689532175287
 20
-159.05420189166
 30
0.0
 10
92.43105059538182
 20
-159.05420189166
 30
0.0
 10
92.43105059538182
 20
-159.05420189166
 30
0.0
 10
92.33803301728007
 20
-159.05420189166
 30
0.0
 10
92.15406491836773
 20
-159.0583360062423
 30
0.0
 10
91.99731307378888
 20
-159.0772840314112
 30
0.0
 10
91.99731307378888
 20
-159.0772840314112
 30
0.0
 10
91.99731307378888
 20
-158.8574869394523
 30
0.0
 10
91.99731307378888
 20
-158.8574869394523
 30
0.0
 10
92.08412948001717
 20
-158.8785020219123
 30
0.0
 10
92.33596595998893
 20
-158.8785020219123
 30
0.0
 10
92.43518470996411
 20
-158.8785020219123
 30
0.0
 10
92.43518470996411
 20
-158.8785020219123
 30
0.0
 10
92.86685517426594
 20
-158.8785020219123
 30
0.0
 10
92.86685517426594
 20
-158.8785020219123
 30
0.0
 10
92.9092298487345
 20
-158.8785020219123
 30
0.0
 10
93.14384085128002
 20
-158.8764349646212
 30
0.0
 10
93.18208141116629
 20
-158.8702337927477
 30
0.0
 10
93.22445608563485
 20
-158.8636881113257
 30
0.0
 10
93.22652314292602
 20
-158.8616210540346
 30
0.0
 10
93.28784584256345
 20
-158.8213134368571
 30
0.0
 10
93.28784584256345
 20
-158.8213134368571
 30
0.0
 10
93.4759480560581
 20
-158.9759982241449
 30
0.0
 10
93.4759480560581
 20
-158.9759982241449
 30
0.0
 10
93.44666474443348
 20
-159.005626045318
 30
0.0
 10
93.43185083384691
 20
-159.0373209237823
 30
0.0
 10
93.41462535642065
 20
-159.0965765661286
 30
0.0
  0
HATCH
  5
EF
330
DA
100
AcDbEntity
  8
レイヤー 1
 62
   250
420
  2299925
440
 33554687
100
AcDbHatch
 10
0.0
 20
0.0
 30
0.0
210
0.0
220
0.0
230
1.0
  2
SOLID
 70
     1
 71
     1
 91
        3
 92
        1
 93
        1
 72
     4
 94
        3
 73
     0
 74
     0
 95
       17
 96
       13
 40
0.0
 40
0.0
 40
0.0
 40
0.0
 40
1.0
 40
1.0
 40
1.0
 40
2.0
 40
2.0
 40
2.0
 40
3.0
 40
3.0
 40
3.0
 40
4.0
 40
4.0
 40
4.0
 40
4.0
 10
93.62202010463269
 20
-158.5674098995942
 10
93.56724308641721
 20
-158.5674098995942
 10
93.5228013546575
 20
-158.611851631354
 10
93.5228013546575
 20
-158.666973159118
 10
93.5228013546575
 20
-158.7241617441731
 10
93.56724308641721
 20
-158.7727375905151
 10
93.626154219215
 20
-158.7727375905151
 10
93.6854098615613
 20
-158.7727375905151
 10
93.72571747873871
 20
-158.722094686882
 10
93.72571747873871
 20
-158.6690402164091
 10
93.72571747873871
 20
-158.611851631354
 10
93.67920868968784
 20
-158.5674098995942
 10
93.62202010463269
 20
-158.5674098995942
 97
        0
 97
        1
330
EC
 92
        1
 93
        1
 72
     4
 94
        3
 73
     0
 74
     0
 95
       17
 96
       13
 40
0.0
 40
0.0
 40
0.0
 40
0.0
 40
1.0
 40
1.0
 40
1.0
 40
2.0
 40
2.0
 40
2.0
 40
3.0
 40
3.0
 40
3.0
 40
4.0
 40
4.0
 40
4.0
 40
4.0
 10
93.62408716192383
 20
-158.8974500470812
 10
93.49730764806665
 20
-158.8974500470812
 10
93.39567733125177
 20
-158.7961642398148
 10
93.39567733125177
 20
-158.6690402164091
 10
93.39567733125177
 20
-158.5422607025519
 10
93.49730764806665
 20
-158.4385633284459
 10
93.62408716192383
 20
-158.4385633284459
 10
93.75121118532957
 20
-158.4385633284459
 10
93.85490855943558
 20
-158.5422607025519
 10
93.85490855943558
 20
-158.6690402164091
 10
93.85490855943558
 20
-158.7961642398148
 10
93.75121118532957
 20
-158.8974500470812
 10
93.62408716192383
 20
-158.8974500470812
 97
        0
 97
        1
330
ED
 92
        1
 93
        1
 72
     4
 94
        3
 73
     0
 74
     0
 95
       44
 96
       40
 40
0.0
 40
0.0
 40
0.0
 40
0.0
 40
1.0
 40
1.0
 40
1.0
 40
2.0
 40
2.0
 40
2.0
 40
3.0
 40
3.0
 40
3.0
 40
4.0
 40
4.0
 40
4.0
 40
5.0
 40
5.0
 40
5.0
 40
6.0
 40
6.0
 40
6.0
 40
7.0
 40
7.0
 40
7.0
 40
8.0
 40
8.0
 40
8.0
 40
9.0
 40
9.0
 40
9.0
 40
10.0
 40
10.0
 40
10.0
 40
11.0
 40
11.0
 40
11.0
 40
12.0
 40
12.0
 40
12.0
 40
13.0
 40
13.0
 40
13.0
 40
13.0
 10
93.41462535642065
 20
-159.0965765661286
 10
93.30265975315004
 20
-159.4645127639533
 10
93.25201684951686
 20
-159.6233316658233
 10
93.05530189730909
 20
-159.8727565789554
 10
92.87098928884823
 20
-160.1035779764671
 10
92.63431122901156
 20
-160.2896131326706
 10
92.35491398515781
 20
-160.3826307107724
 10
92.35491398515781
 20
-160.3826307107724
 10
92.16233314753234
 20
-160.2027967264423
 10
92.16233314753234
 20
-160.2027967264423
 10
92.80346541733733
 20
-160.0505235059943
 10
93.13350556482426
 20
-159.4941405851264
 10
93.19689532175287
 20
-159.05420189166
 10
93.19689532175287
 20
-159.05420189166
 10
92.43105059538182
 20
-159.05420189166
 10
92.43105059538182
 20
-159.05420189166
 10
92.33803301728007
 20
-159.05420189166
 10
92.15406491836773
 20
-159.0583360062423
 10
91.99731307378888
 20
-159.0772840314112
 10
91.99731307378888
 20
-159.0772840314112
 10
91.99731307378888
 20
-158.8574869394523
 10
91.99731307378888
 20
-158.8574869394523
 10
92.08412948001717
 20
-158.8785020219123
 10
92.33596595998893
 20
-158.8785020219123
 10
92.43518470996411
 20
-158.8785020219123
 10
92.43518470996411
 20
-158.8785020219123
 10
92.86685517426594
 20
-158.8785020219123
 10
92.86685517426594
 20
-158.8785020219123
 10
92.9092298487345
 20
-158.8785020219123
 10
93.14384085128002
 20
-158.8764349646212
 10
93.18208141116629
 20
-158.8702337927477
 10
93.22445608563485
 20
-158.8636881113257
 10
93.22652314292602
 20
-158.8616210540346
 10
93.28784584256345
 20
-158.8213134368571
 10
93.28784584256345
 20
-158.8213134368571
 10
93.4759480560581
 20
-158.9759982241449
 10
93.4759480560581
 20
-158.9759982241449
 10
93.44666474443348
 20
-159.005626045318
 10
93.43185083384691
 20
-159.0373209237823
 10
93.41462535642065
 20
-159.0965765661286
 97
        0
 97
        1
330
EE
 75
     2
 76
     1
 98
        1
 10
0.0
 20
0.0
450
        0
451
        0
460
0.0
461
0.0
452
        0
462
0.0
453
        0
470

  0
ENDBLK
  5
DD
330
DA
100
AcDbEntity
  8
0
100
AcDbBlockEnd
  0
ENDSEC
  0
SECTION
  2
ENTITIES
  0
INSERT
  5
7A
330
70
100
AcDbEntity
  8
レイヤー 1
100
AcDbBlockReference
  2
Block_0
 10
0.0
 20
0.0
 30
0.0
  0
INSERT
  5
8B
330
70
100
AcDbEntity
  8
レイヤー 1
100
AcDbBlockReference
  2
Block_2
 10
0.0
 20
0.0
 30
0.0
  0
INSERT
  5
9A
330
70
100
AcDbEntity
  8
レイヤー 1
100
AcDbBlockReference
  2
Block_4
 10
0.0
 20
0.0
 30
0.0
  0
INSERT
  5
A0
330
70
100
AcDbEntity
  8
レイヤー 1
100
AcDbBlockReference
  2
Block_5
 10
0.0
 20
0.0
 30
0.0
  0
INSERT
  5
AD
330
70
100
AcDbEntity
  8
レイヤー 1
100
AcDbBlockReference
  2
Block_7
 10
0.0
 20
0.0
 30
0.0
  0
LWPOLYLINE
  5
B8
330
70
100
AcDbEntity
  8
レイヤー 1
 62
   250
420
  2299925
370
    25
100
AcDbPolyline
 90
       12
 70
     0
 43
0.0
 10
98.38657401931154
 20
-154.6747950701082
 10
106.7863890827925
 20
-154.6747950701082
 10
106.7863890827925
 20
-153.2746906613834
 10
103.5862361088793
 20
-153.2746906613834
 10
103.5862361088793
 20
-152.47476707068
 10
107.5863479512727
 20
-152.47476707068
 10
107.5863479512727
 20
-155.4747539385884
 10
97.58661515083129
 20
-155.4747539385884
 10
97.58661515083129
 20
-145.6734586330848
 10
120.5872670640361
 20
-145.6734586330848
 10
120.5872670640361
 20
-146.4733822237881
 10
98.38657401931154
 20
-146.4733822237881
  0
HATCH
  5
B9
330
70
100
AcDbEntity
  8
レイヤー 1
 62
   250
420
  2299925
440
 33554687
100
AcDbHatch
 10
0.0
 20
0.0
 30
0.0
210
0.0
220
0.0
230
1.0
  2
SOLID
 70
     1
 71
     1
 91
        1
 92
        3
 72
     0
 73
     1
 93
       12
 10
98.38657401931154
 20
-154.6747950701082
 10
106.7863890827925
 20
-154.6747950701082
 10
106.7863890827925
 20
-153.2746906613834
 10
103.5862361088793
 20
-153.2746906613834
 10
103.5862361088793
 20
-152.47476707068
 10
107.5863479512727
 20
-152.47476707068
 10
107.5863479512727
 20
-155.4747539385884
 10
97.58661515083129
 20
-155.4747539385884
 10
97.58661515083129
 20
-145.6734586330848
 10
120.5872670640361
 20
-145.6734586330848
 10
120.5872670640361
 20
-146.4733822237881
 10
98.38657401931154
 20
-146.4733822237881
 97
        0
 75
     2
 76
     1
 98
        1
 10
0.0
 20
0.0
450
        0
451
        0
460
0.0
461
0.0
452
        0
462
0.0
453
        0
470

  0
LINE
  5
BA
330
70
100
AcDbEntity
  8
レイヤー 1
 62
   250
420
  2299925
370
    25
100
AcDbLine
 10
98.38657401931154
 20
-146.4747580570867
 30
0.0
 11
98.38657401931154
 21
-154.6747950701082
 31
0.0
  0
CIRCLE
  5
BB
330
70
100
AcDbEntity
  8
レイヤー 1
 62
   250
420
  2299925
370
     9
100
AcDbCircle
 10
124.5870261286604
 20
-145.6734586330848
 30
0.0
 40
0.0999066641178353
  0
SPLINE
  5
BC
330
70
100
AcDbEntity
  8
レイヤー 1
 62
   250
420
  2299925
370
     9
100
AcDbSpline
210
0.0
220
0.0
230
1.0
 70
     9
 71
     3
 72
    17
 73
    13
 74
     0
 42
0.0000000001
 43
0.0000000001
 40
0.0
 40
0.0
 40
0.0
 40
0.0
 40
1.0
 40
1.0
 40
1.0
 40
2.0
 40
2.0
 40
2.0
 40
3.0
 40
3.0
 40
3.0
 40
4.0
 40
4.0
 40
4.0
 40
4.0
 10
124.6869327927782
 20
-146.4733822237881
 30
0.0
 10
124.6869327927782
 20
-146.418278336305
 30
0.0
 10
124.6421682137049
 20
-146.3734755596703
 30
0.0
 10
124.5870261286604
 20
-146.3734755596703
 30
0.0
 10
124.5319222411773
 20
-146.3734755596703
 30
0.0
 10
124.4871194645426
 20
-146.418278336305
 30
0.0
 10
124.4871194645426
 20
-146.4733822237881
 30
0.0
 10
124.4871194645426
 20
-146.5285213890481
 30
0.0
 10
124.5319222411773
 20
-146.5732847228685
 30
0.0
 10
124.5870261286604
 20
-146.5732847228685
 30
0.0
 10
124.6421682137049
 20
-146.5732847228685
 30
0.0
 10
124.6869327927782
 20
-146.5285213890481
 30
0.0
 10
124.6869327927782
 20
-146.4733822237881
 30
0.0
  0
SPLINE
  5
BD
330
70
100
AcDbEntity
  8
レイヤー 1
 62
   250
420
  2299925
370
     9
100
AcDbSpline
210
0.0
220
0.0
230
1.0
 70
     9
 71
     3
 72
    17
 73
    13
 74
     0
 42
0.0000000001
 43
0.0000000001
 40
0.0
 40
0.0
 40
0.0
 40
0.0
 40
1.0
 40
1.0
 40
1.0
 40
2.0
 40
2.0
 40
2.0
 40
3.0
 40
3.0
 40
3.0
 40
4.0
 40
4.0
 40
4.0
 40
4.0
 10
120.6871765480259
 20
-141.6729940129229
 30
0.0
 10
120.6871765480259
 20
-141.6178901254398
 30
0.0
 10
120.642406229296
 20
-141.573087348805
 30
0.0
 10
120.5872670640361
 20
-141.573087348805
 30
0.0
 10
120.532163176553
 20
-141.573087348805
 30
0.0
 10
120.4873603999182
 20
-141.6178901254398
 30
0.0
 10
120.4873603999182
 20
-141.6729940129229
 30
0.0
 10
120.4873603999182
 20
-141.7281331781828
 30
0.0
 10
120.532163176553
 20
-141.7729006770407
 30
0.0
 10
120.5872670640361
 20
-141.7729006770407
 30
0.0
 10
120.642406229296
 20
-141.7729006770407
 30
0.0
 10
120.6871765480259
 20
-141.7281331781828
 30
0.0
 10
120.6871765480259
 20
-141.6729940129229
 30
0.0
  0
SPLINE
  5
BE
330
70
100
AcDbEntity
  8
レイヤー 1
 62
   250
420
  2299925
370
     9
100
AcDbSpline
210
0.0
220
0.0
230
1.0
 70
     9
 71
     3
 72
    17
 73
    13
 74
     0
 42
0.0000000001
 43
0.0000000001
 40
0.0
 40
0.0
 40
0.0
 40
0.0
 40
1.0
 40
1.0
 40
1.0
 40
2.0
 40
2.0
 40
2.0
 40
3.0
 40
3.0
 40
3.0
 40
4.0
 40
4.0
 40
4.0
 40
4.0
 10
107.6869248931512
 20
-159.4751832809734
 30
0.0
 10
107.6869248931512
 20
-159.4193738379528
 30
0.0
 10
107.6421598846208
 20
-159.3746063390949
 30
0.0
 10
107.5863479512727
 20
-159.3746063390949
 30
0.0
 10
107.5312087860128
 20
-159.3746063390949
 30
0.0
 10
107.4864412871549
 20
-159.4193738379528
 30
0.0
 10
107.4864412871549
 20
-159.4751832809734
 30
0.0
 10
107.4864412871549
 20
-159.5303224462334
 30
0.0
 10
107.5312087860128
 20
-159.5750899450913
 30
0.0
 10
107.5863479512727
 20
-159.5750899450913
 30
0.0
 10
107.6421598846208
 20
-159.5750899450913
 30
0.0
 10
107.6869248931512
 20
-159.5303224462334
 30
0.0
 10
107.6869248931512
 20
-159.4751832809734
 30
0.0
  0
CIRCLE
  5
BF
330
70
100
AcDbEntity
  8
レイヤー 1
 62
   250
420
  2299925
370
     9
100
AcDbCircle
 10
124.5870261286604
 20
-155.4747539385884
 30
0.0
 40
0.0999066641178353
  0
CIRCLE
  5
C0
330
70
100
AcDbEntity
  8
レイヤー 1
 62
   250
420
  2299925
370
     9
100
AcDbCircle
 10
124.5870261286604
 20
-152.47476707068
 30
0.0
 40
0.0999066641178353
  0
CIRCLE
  5
C1
330
70
100
AcDbEntity
  8
レイヤー 1
 62
   250
420
  2299925
370
     9
100
AcDbCircle
 10
97.58661515083138
 20
-141.6729940129229
 30
0.0
 40
0.099906664117715
  0
SPLINE
  5
C2
330
70
100
AcDbEntity
  8
レイヤー 1
 62
   250
420
  2299925
370
     9
100
AcDbSpline
210
0.0
220
0.0
230
1.0
 70
     9
 71
     3
 72
    17
 73
    13
 74
     0
 42
0.0000000001
 43
0.0000000001
 40
0.0
 40
0.0
 40
0.0
 40
0.0
 40
1.0
 40
1.0
 40
1.0
 40
2.0
 40
2.0
 40
2.0
 40
3.0
 40
3.0
 40
3.0
 40
4.0
 40
4.0
 40
4.0
 40
4.0
 10
97.68652181494914
 20
-159.4751832809734
 30
0.0
 10
97.68652181494914
 20
-159.4193738379528
 30
0.0
 10
97.64171903831437
 20
-159.3746063390949
 30
0.0
 10
97.58661515083129
 20
-159.3746063390949
 30
0.0
 10
97.53147598557134
 20
-159.3746063390949
 30
0.0
 10
97.48670848671379
 20
-159.4193738379528
 30
0.0
 10
97.48670848671379
 20
-159.4751832809734
 30
0.0
 10
97.48670848671379
 20
-159.5303224462334
 30
0.0
 10
97.53147598557134
 20
-159.5750899450913
 30
0.0
 10
97.58661515083129
 20
-159.5750899450913
 30
0.0
 10
97.64171903831437
 20
-159.5750899450913
 30
0.0
 10
97.68652181494914
 20
-159.5303224462334
 30
0.0
 10
97.68652181494914
 20
-159.4751832809734
 30
0.0
  0
LINE
  5
C3
330
70
100
AcDbEntity
  8
レイヤー 1
 62
   250
420
  2299925
370
     9
100
AcDbLine
 10
124.5870261286604
 20
-145.6734586330848
 30
0.0
 11
124.5870261286604
 21
-140.4155486132968
 31
0.0
  0
LINE
  5
C4
330
70
100
AcDbEntity
  8
レイヤー 1
 62
   250
420
  2299925
370
     9
100
AcDbLine
 10
124.5870261286604
 20
-145.6734586330848
 30
0.0
 11
124.5870261286604
 21
-146.4733822237881
 31
0.0
  0
LINE
  5
C5
330
70
100
AcDbEntity
  8
レイヤー 1
 62
   250
420
  2299925
370
     9
100
AcDbLine
 10
123.1269876585274
 20
-145.6734586330848
 30
0.0
 11
125.587468603137
 21
-145.6734586330848
 31
0.0
  0
LINE
  5
C6
330
70
100
AcDbEntity
  8
レイヤー 1
 62
   250
420
  2299925
370
     9
100
AcDbLine
 10
123.1269876585274
 20
-146.4733822237881
 30
0.0
 11
125.587468603137
 21
-146.4733822237881
 31
0.0
  0
LINE
  5
C7
330
70
100
AcDbEntity
  8
レイヤー 1
 62
   250
420
  2299925
370
     9
100
AcDbLine
 10
124.5870261286604
 20
-152.47476707068
 30
0.0
 11
124.5870261286604
 21
-146.4747580570867
 31
0.0
  0
LINE
  5
C8
330
70
100
AcDbEntity
  8
レイヤー 1
 62
   250
420
  2299925
370
     9
100
AcDbLine
 10
110.126773772889
 20
-152.47476707068
 30
0.0
 11
125.587468603137
 21
-152.47476707068
 31
0.0
  0
LINE
  5
C9
330
70
100
AcDbEntity
  8
レイヤー 1
 62
   250
420
  2299925
370
     9
100
AcDbLine
 10
124.5870261286604
 20
-152.47476707068
 30
0.0
 11
124.5870261286604
 21
-155.4747539385884
 31
0.0
  0
LINE
  5
CA
330
70
100
AcDbEntity
  8
レイヤー 1
 62
   250
420
  2299925
370
     9
100
AcDbLine
 10
110.126773772889
 20
-155.4747539385884
 30
0.0
 11
125.587468603137
 21
-155.4747539385884
 31
0.0
  0
LINE
  5
CB
330
70
100
AcDbEntity
  8
レイヤー 1
 62
   250
420
  2299925
370
     9
100
AcDbLine
 10
97.58661515083129
 20
-159.4751832809734
 30
0.0
 11
107.5863479512727
 21
-159.4751832809734
 31
0.0
  0
LINE
  5
CC
330
70
100
AcDbEntity
  8
レイヤー 1
 62
   250
420
  2299925
370
     9
100
AcDbLine
 10
97.58661515083129
 20
-158.0151419293333
 30
0.0
 11
97.58661515083129
 21
-160.4749554776893
 31
0.0
  0
LINE
  5
CD
330
70
100
AcDbEntity
  8
レイヤー 1
 62
   250
420
  2299925
370
     9
100
AcDbLine
 10
107.5863479512727
 20
-158.0151419293333
 30
0.0
 11
107.5863479512727
 21
-160.4749554776893
 31
0.0
  0
LINE
  5
CE
330
70
100
AcDbEntity
  8
レイヤー 1
 62
   250
420
  2299925
370
     9
100
AcDbLine
 10
97.58661515083129
 20
-141.6729940129229
 30
0.0
 11
120.5872670640361
 21
-141.6729940129229
 31
0.0
  0
LINE
  5
CF
330
70
100
AcDbEntity
  8
レイヤー 1
 62
   250
420
  2299925
370
     9
100
AcDbLine
 10
97.58661515083129
 20
-143.1330353645633
 30
0.0
 11
97.58661515083129
 21
-140.673221816207
 31
0.0
  0
LINE
  5
D0
330
70
100
AcDbEntity
  8
レイヤー 1
 62
   250
420
  2299925
370
     9
100
AcDbLine
 10
120.5872670640361
 20
-143.1330353645633
 30
0.0
 11
120.5872670640361
 21
-140.673221816207
 31
0.0
  0
LINE
  5
D1
330
70
100
AcDbEntity
  8
レイヤー 1
  6
AI-Linetype-0
 62
   154
420
    23468
370
    25
100
AcDbLine
 10
96.88416405764121
 20
-145.7065097230851
 30
0.0
 11
96.88416405764121
 21
-153.7067023170285
 31
0.0
  0
LINE
  5
D3
330
70
100
AcDbEntity
  8
レイヤー 1
 62
   250
420
  2299925
370
     9
100
AcDbLine
 10
96.38960710965683
 20
-153.6985717831227
 30
0.0
 11
95.52350020346574
 21
-154.1988106592495
 31
0.0
  0
LINE
  5
D4
330
70
100
AcDbEntity
  8
レイヤー 1
 62
   250
420
  2299925
370
     9
100
AcDbLine
 10
96.38960710965683
 20
-153.6985717831227
 30
0.0
 11
92.41568422878399
 21
-157.6728712763373
 31
0.0
  0
LINE
  5
D5
330
70
100
AcDbEntity
  8
レイヤー 1
 62
   250
420
  2299925
370
     9
100
AcDbLine
 10
96.38960710965683
 20
-153.6985717831227
 30
0.0
 11
95.88936822089216
 21
-154.5646764832488
 31
0.0
  0
INSERT
  5
D7
330
70
100
AcDbEntity
  8
レイヤー 1
100
AcDbBlockReference
  2
Block_9
 10
0.0
 20
0.0
 30
0.0
  0
ENDSEC
  0
SECTION
  2
OBJECTS
  0
DICTIONARY
  5
C
330
0
100
AcDbDictionary
281
     1
  3
ACAD_COLOR
350
63
  3
ACAD_DETAILVIEWSTYLE
350
6A
  3
ACAD_GROUP
350
D
  3
ACAD_LAYOUT
350
62
  3
ACAD_MATERIAL
350
10
  3
ACAD_MLEADERSTYLE
350
66
  3
ACAD_MLINESTYLE
350
5F
  3
ACAD_PLOTSETTINGS
350
61
  3
ACAD_PLOTSTYLENAME
350
E
  3
ACAD_SCALELIST
350
42
  3
ACAD_SECTIONVIEWSTYLE
350
68
  3
ACAD_TABLESTYLE
350
64
  3
ACAD_VISUALSTYLE
350
29
  3
ACDB_RECOMPOSE_DATA
350
F8
  3
AcDbVariableDictionary
350
F0
  0
DICTIONARY
  5
63
102
{ACAD_REACTORS
330
C
102
}
330
C
100
AcDbDictionary
281
     1
  0
DICTIONARY
  5
6A
102
{ACAD_REACTORS
330
C
102
}
330
C
100
AcDbDictionary
281
     1
  3
Imperial24
350
6B
  0
DICTIONARY
  5
D
102
{ACAD_REACTORS
330
C
102
}
330
C
100
AcDbDictionary
281
     1
  0
DICTIONARY
  5
62
102
{ACAD_REACTORS
330
C
102
}
330
C
100
AcDbDictionary
281
     1
  3
Layout1
350
6F
  3
Layout2
350
77
  3
Model
350
73
  0
DICTIONARY
  5
10
102
{ACAD_REACTORS
330
C
102
}
330
C
100
AcDbDictionary
281
     1
  3
ByBlock
350
19
  3
ByLayer
350
11
  3
Global
350
21
  0
DICTIONARY
  5
66
102
{ACAD_REACTORS
330
C
102
}
330
C
100
AcDbDictionary
281
     1
  3
Standard
350
67
  0
DICTIONARY
  5
5F
102
{ACAD_REACTORS
330
C
102
}
330
C
100
AcDbDictionary
281
     1
  3
Standard
350
60
  0
DICTIONARY
  5
61
102
{ACAD_REACTORS
330
C
102
}
330
C
100
AcDbDictionary
281
     1
  0
ACDBDICTIONARYWDFLT
  5
E
102
{ACAD_REACTORS
330
C
102
}
330
C
100
AcDbDictionary
281
     1
  3
Normal
350
F
100
AcDbDictionaryWithDefault
340
F
  0
DICTIONARY
  5
42
102
{ACAD_REACTORS
330
C
102
}
330
C
100
AcDbDictionary
281
     1
  3
A0
350
43
  3
A1
350
44
  3
A2
350
45
  3
A3
350
46
  3
A4
350
47
  3
A5
350
48
  3
A6
350
49
  3
A7
350
4A
  3
A8
350
4B
  3
A9
350
4C
  3
B0
350
4D
  3
B1
350
4E
  3
B2
350
4F
  3
B3
350
50
  3
B4
350
51
  3
B5
350
52
  3
B6
350
53
  0
DICTIONARY
  5
68
102
{ACAD_REACTORS
330
C
102
}
330
C
100
AcDbDictionary
281
     1
  3
Imperial24
350
69
  0
DICTIONARY
  5
64
102
{ACAD_REACTORS
330
C
102
}
330
C
100
AcDbDictionary
281
     1
  3
Standard
350
65
  0
DICTIONARY
  5
29
102
{ACAD_REACTORS
330
C
102
}
330
C
100
AcDbDictionary
281
     1
  3
2dWireframe
350
2F
  3
Basic
350
2E
  3
Brighten
350
35
  3
ColorChange
350
39
  3
Conceptual
350
32
  3
Dim
350
34
  3
EdgeColorOff
350
41
  3
Facepattern
350
38
  3
Flat
350
2A
  3
FlatWithEdges
350
2B
  3
Gouraud
350
2C
  3
GouraudWithEdges
350
2D
  3
Hidden
350
31
  3
JitterOff
350
3F
  3
Linepattern
350
37
  3
OverhangOff
350
40
  3
Realistic
350
33
  3
Shaded
350
3E
  3
Shaded with edges
350
3D
  3
Shades of Gray
350
3A
  3
Sketchy
350
3B
  3
Thicken
350
36
  3
Wireframe
350
30
  3
X-Ray
350
3C
  0
XRECORD
  5
F8
102
{ACAD_REACTORS
330
C
102
}
330
C
100
AcDbXrecord
280
     1
 90
        1
330
65
  0
DICTIONARY
  5
F0
102
{ACAD_REACTORS
330
C
102
}
330
C
100
AcDbDictionary
281
     1
  3
CANNOSCALE
350
F5
  3
CMLEADERSTYLE
350
F2
  3
CTABLESTYLE
350
F1
  3
CVIEWDETAILSTYLE
350
F3
  3
CVIEWSECTIONSTYLE
350
F4
  0
ACDBDETAILVIEWSTYLE
  5
6B
102
{ACAD_XDICTIONARY
360
12D
102
}
102
{ACAD_REACTORS
330
6A
102
}
330
6A
100
AcDbModelDocViewStyle
 70
     0
  3
Imperial24
290
     0
100
AcDbDetailViewStyle
 70
     0
 71
     0
 90
        3
 71
     1
340
55
 62
   256
 40
0.24
340
0
 62
   256
 40
0.24
300

 40
0.36
280
     3
 71
     2
340
5D
 90
       25
 62
   256
 71
     3
340
55
 62
   256
 40
0.24
 90
        1
 40
0.75
 90
        1
300
%<\AcVar ViewType \f "%tc1">% %<\AcVar ViewDetailId>%\PSCALE %<\AcVar ViewScale \f "%sn">%
 71
     4
340
5D
 90
       25
 62
   256
340
5D
 90
       25
 62
   256
280
     0
  0
LAYOUT
  5
6F
102
{ACAD_REACTORS
330
62
102
}
330
62
100
AcDbPlotSettings
  1

  2

  4

  6

 40
0.0
 41
0.0
 42
0.0
 43
0.0
 44
0.0
 45
0.0
 46
0.0
 47
0.0
 48
0.0
 49
0.0
140
0.0
141
0.0
142
1.0
143
1.0
 70
   688
 72
     0
 73
     0
 74
     5
  7

 75
    16
147
1.0
 76
     0
 77
     2
 78
   300
148
0.0
149
0.0
100
AcDbLayout
  1
Layout1
 70
     1
 71
     1
 10
0.0
 20
0.0
 11
12.0
 21
9.0
 12
0.0
 22
0.0
 32
0.0
 14
0.0
 24
0.0
 34
0.0
 15
0.0
 25
0.0
 35
0.0
146
0.0
 13
0.0
 23
0.0
 33
0.0
 16
1.0
 26
0.0
 36
0.0
 17
0.0
 27
1.0
 37
0.0
 76
     0
330
6C
  0
LAYOUT
  5
77
102
{ACAD_REACTORS
330
62
102
}
330
62
100
AcDbPlotSettings
  1

  2

  4

  6

 40
0.0
 41
0.0
 42
0.0
 43
0.0
 44
0.0
 45
0.0
 46
0.0
 47
0.0
 48
0.0
 49
0.0
140
0.0
141
0.0
142
1.0
143
1.0
 70
   688
 72
     0
 73
     0
 74
     5
  7

 75
    16
147
1.0
 76
     0
 77
     2
 78
   300
148
0.0
149
0.0
100
AcDbLayout
  1
Layout2
 70
     1
 71
     2
 10
0.0
 20
0.0
 11
12.0
 21
9.0
 12
0.0
 22
0.0
 32
0.0
 14
0.0
 24
0.0
 34
0.0
 15
0.0
 25
0.0
 35
0.0
146
0.0
 13
0.0
 23
0.0
 33
0.0
 16
1.0
 26
0.0
 36
0.0
 17
0.0
 27
1.0
 37
0.0
 76
     0
330
74
  0
LAYOUT
  5
73
102
{ACAD_REACTORS
330
62
102
}
330
62
100
AcDbPlotSettings
  1

  2

  4

  6

 40
0.0
 41
0.0
 42
0.0
 43
0.0
 44
0.0
 45
0.0
 46
0.0
 47
0.0
 48
0.0
 49
0.0
140
0.0
141
0.0
142
1.0
143
1.0
 70
  1712
 72
     0
 73
     0
 74
     0
  7

 75
     0
147
1.0
 76
     0
 77
     2
 78
   300
148
0.0
149
0.0
100
AcDbLayout
  1
Model
 70
     1
 71
     0
 10
0.0
 20
0.0
 11
12.0
 21
9.0
 12
0.0
 22
0.0
 32
0.0
 14
0.0
 24
0.0
 34
0.0
 15
0.0
 25
0.0
 35
0.0
146
0.0
 13
0.0
 23
0.0
 33
0.0
 16
1.0
 26
0.0
 36
0.0
 17
0.0
 27
1.0
 37
0.0
 76
     0
330
70
  0
MATERIAL
  5
19
102
{ACAD_XDICTIONARY
360
1A
102
}
102
{ACAD_REACTORS
330
10
102
}
330
10
100
AcDbMaterial
  1
ByBlock
 72
     0
 43
0.0208333333333333
 43
0.0
 43
0.0
 43
0.0
 43
0.0
 43
0.0208333333333333
 43
0.0
 43
0.0
 43
0.0
 43
0.0
 43
1.0
 43
0.0
 43
0.0
 43
0.0
 43
0.0
 43
1.0
 77
     0
 47
0.0208333333333333
 47
0.0
 47
0.0
 47
0.0
 47
0.0
 47
0.0208333333333333
 47
0.0
 47
0.0
 47
0.0
 47
0.0
 47
1.0
 47
0.0
 47
0.0
 47
0.0
 47
0.0
 47
1.0
171
     0
 49
0.0208333333333333
 49
0.0
 49
0.0
 49
0.0
 49
0.0
 49
0.0208333333333333
 49
0.0
 49
0.0
 49
0.0
 49
0.0
 49
1.0
 49
0.0
 49
0.0
 49
0.0
 49
0.0
 49
1.0
175
     0
142
0.0208333333333333
142
0.0
142
0.0
142
0.0
142
0.0
142
0.0208333333333333
142
0.0
142
0.0
142
0.0
142
0.0
142
1.0
142
0.0
142
0.0
142
0.0
142
0.0
142
1.0
179
     0
144
0.0208333333333333
144
0.0
144
0.0
144
0.0
144
0.0
144
0.0208333333333333
144
0.0
144
0.0
144
0.0
144
0.0
144
1.0
144
0.0
144
0.0
144
0.0
144
0.0
144
1.0
147
0.0208333333333333
147
0.0
147
0.0
147
0.0
147
0.0
147
0.0208333333333333
147
0.0
147
0.0
147
0.0
147
0.0
147
1.0
147
0.0
147
0.0
147
0.0
147
0.0
147
1.0
  0
MATERIAL
  5
11
102
{ACAD_XDICTIONARY
360
12
102
}
102
{ACAD_REACTORS
330
10
102
}
330
10
100
AcDbMaterial
  1
ByLayer
 72
     0
 43
0.0208333333333333
 43
0.0
 43
0.0
 43
0.0
 43
0.0
 43
0.0208333333333333
 43
0.0
 43
0.0
 43
0.0
 43
0.0
 43
1.0
 43
0.0
 43
0.0
 43
0.0
 43
0.0
 43
1.0
 77
     0
 47
0.0208333333333333
 47
0.0
 47
0.0
 47
0.0
 47
0.0
 47
0.0208333333333333
 47
0.0
 47
0.0
 47
0.0
 47
0.0
 47
1.0
 47
0.0
 47
0.0
 47
0.0
 47
0.0
 47
1.0
171
     0
 49
0.0208333333333333
 49
0.0
 49
0.0
 49
0.0
 49
0.0
 49
0.0208333333333333
 49
0.0
 49
0.0
 49
0.0
 49
0.0
 49
1.0
 49
0.0
 49
0.0
 49
0.0
 49
0.0
 49
1.0
175
     0
142
0.0208333333333333
142
0.0
142
0.0
142
0.0
142
0.0
142
0.0208333333333333
142
0.0
142
0.0
142
0.0
142
0.0
142
1.0
142
0.0
142
0.0
142
0.0
142
0.0
142
1.0
179
     0
144
0.0208333333333333
144
0.0
144
0.0
144
0.0
144
0.0
144
0.0208333333333333
144
0.0
144
0.0
144
0.0
144
0.0
144
1.0
144
0.0
144
0.0
144
0.0
144
0.0
144
1.0
147
0.0208333333333333
147
0.0
147
0.0
147
0.0
147
0.0
147
0.0208333333333333
147
0.0
147
0.0
147
0.0
147
0.0
147
1.0
147
0.0
147
0.0
147
0.0
147
0.0
147
1.0
  0
MATERIAL
  5
21
102
{ACAD_XDICTIONARY
360
22
102
}
102
{ACAD_REACTORS
330
10
102
}
330
10
100
AcDbMaterial
  1
Global
 72
     0
 43
0.0208333333333333
 43
0.0
 43
0.0
 43
0.0
 43
0.0
 43
0.0208333333333333
 43
0.0
 43
0.0
 43
0.0
 43
0.0
 43
1.0
 43
0.0
 43
0.0
 43
0.0
 43
0.0
 43
1.0
 77
     0
 47
0.0208333333333333
 47
0.0
 47
0.0
 47
0.0
 47
0.0
 47
0.0208333333333333
 47
0.0
 47
0.0
 47
0.0
 47
0.0
 47
1.0
 47
0.0
 47
0.0
 47
0.0
 47
0.0
 47
1.0
171
     0
 49
0.0208333333333333
 49
0.0
 49
0.0
 49
0.0
 49
0.0
 49
0.0208333333333333
 49
0.0
 49
0.0
 49
0.0
 49
0.0
 49
1.0
 49
0.0
 49
0.0
 49
0.0
 49
0.0
 49
1.0
175
     0
142
0.0208333333333333
142
0.0
142
0.0
142
0.0
142
0.0
142
0.0208333333333333
142
0.0
142
0.0
142
0.0
142
0.0
142
1.0
142
0.0
142
0.0
142
0.0
142
0.0
142
1.0
179
     0
144
0.0208333333333333
144
0.0
144
0.0
144
0.0
144
0.0
144
0.0208333333333333
144
0.0
144
0.0
144
0.0
144
0.0
144
1.0
144
0.0
144
0.0
144
0.0
144
0.0
144
1.0
147
0.0208333333333333
147
0.0
147
0.0
147
0.0
147
0.0
147
0.0208333333333333
147
0.0
147
0.0
147
0.0
147
0.0
147
1.0
147
0.0
147
0.0
147
0.0
147
0.0
147
1.0
  0
MLEADERSTYLE
  5
67
102
{ACAD_XDICTIONARY
360
129
102
}
102
{ACAD_REACTORS
330
66
102
}
330
66
100
AcDbMLeaderStyle
179
     2
170
     2
171
     1
172
     0
 90
        2
 40
0.0
 41
0.0
173
     1
 91
-1056964608
340
5B
 92
       -2
290
     1
 42
0.09
291
     1
 43
0.36
  3
Standard
 44
0.18
300

342
55
174
     1
178
     6
175
     1
176
     0
 93
-1056964608
 45
0.18
292
     0
297
     0
 46
0.18
 94
-1056964608
 47
1.0
 49
1.0
140
1.0
293
     1
141
0.0
294
     1
177
     0
142
1.0
295
     0
296
     0
143
0.125
271
     0
272
     9
273
     9
  0
MLINESTYLE
  5
60
102
{ACAD_REACTORS
330
5F
102
}
330
5F
100
AcDbMlineStyle
  2
STANDARD
 70
     0
  3

 62
   256
 51
90.0
 52
90.0
 71
     2
 49
0.5
 62
   256
  6
BYLAYER
 49
-0.5
 62
   256
  6
BYLAYER
  0
ACDBPLACEHOLDER
  5
F
102
{ACAD_REACTORS
330
E
102
}
330
E
  0
SCALE
  5
43
102
{ACAD_REACTORS
330
42
102
}
330
42
100
AcDbScale
 70
     0
300
1:1
140
1.0
141
1.0
290
     1
  0
SCALE
  5
44
102
{ACAD_REACTORS
330
42
102
}
330
42
100
AcDbScale
 70
     0
300
1/128" = 1'-0"
140
0.0078125
141
12.0
290
     0
  0
SCALE
  5
45
102
{ACAD_REACTORS
330
42
102
}
330
42
100
AcDbScale
 70
     0
300
1/64" = 1'-0"
140
0.015625
141
12.0
290
     0
  0
SCALE
  5
46
102
{ACAD_REACTORS
330
42
102
}
330
42
100
AcDbScale
 70
     0
300
1/32" = 1'-0"
140
0.03125
141
12.0
290
     0
  0
SCALE
  5
47
102
{ACAD_REACTORS
330
42
102
}
330
42
100
AcDbScale
 70
     0
300
1/16" = 1'-0"
140
0.0625
141
12.0
290
     0
  0
SCALE
  5
48
102
{ACAD_REACTORS
330
42
102
}
330
42
100
AcDbScale
 70
     0
300
3/32" = 1'-0"
140
0.09375
141
12.0
290
     0
  0
SCALE
  5
49
102
{ACAD_REACTORS
330
42
102
}
330
42
100
AcDbScale
 70
     0
300
1/8" = 1'-0"
140
0.125
141
12.0
290
     0
  0
SCALE
  5
4A
102
{ACAD_REACTORS
330
42
102
}
330
42
100
AcDbScale
 70
     0
300
3/16" = 1'-0"
140
0.1875
141
12.0
290
     0
  0
SCALE
  5
4B
102
{ACAD_REACTORS
330
42
102
}
330
42
100
AcDbScale
 70
     0
300
1/4" = 1'-0"
140
0.25
141
12.0
290
     0
  0
SCALE
  5
4C
102
{ACAD_REACTORS
330
42
102
}
330
42
100
AcDbScale
 70
     0
300
3/8" = 1'-0"
140
0.375
141
12.0
290
     0
  0
SCALE
  5
4D
102
{ACAD_REACTORS
330
42
102
}
330
42
100
AcDbScale
 70
     0
300
1/2" = 1'-0"
140
0.5
141
12.0
290
     0
  0
SCALE
  5
4E
102
{ACAD_REACTORS
330
42
102
}
330
42
100
AcDbScale
 70
     0
300
3/4" = 1'-0"
140
0.75
141
12.0
290
     0
  0
SCALE
  5
4F
102
{ACAD_REACTORS
330
42
102
}
330
42
100
AcDbScale
 70
     0
300
1" = 1'-0"
140
1.0
141
12.0
290
     0
  0
SCALE
  5
50
102
{ACAD_REACTORS
330
42
102
}
330
42
100
AcDbScale
 70
     0
300
1-1/2" = 1'-0"
140
1.5
141
12.0
290
     0
  0
SCALE
  5
51
102
{ACAD_REACTORS
330
42
102
}
330
42
100
AcDbScale
 70
     0
300
3" = 1'-0"
140
3.0
141
12.0
290
     0
  0
SCALE
  5
52
102
{ACAD_REACTORS
330
42
102
}
330
42
100
AcDbScale
 70
     0
300
6" = 1'-0"
140
6.0
141
12.0
290
     0
  0
SCALE
  5
53
102
{ACAD_REACTORS
330
42
102
}
330
42
100
AcDbScale
 70
     0
300
1'-0" = 1'-0"
140
12.0
141
12.0
290
     0
  0
ACDBSECTIONVIEWSTYLE
  5
69
102
{ACAD_XDICTIONARY
360
12B
102
}
102
{ACAD_REACTORS
330
68
102
}
330
68
100
AcDbModelDocViewStyle
 70
     0
  3
Imperial24
290
     0
100
AcDbSectionViewStyle
 70
     0
 71
     0
 90
       78
 71
     1
340
55
 62
   256
 40
0.24
340
0
340
0
 62
   256
 40
0.24
300
I, O, Q, S, X, Z
 40
0.48
 90
        3
 40
0.18
 90
        1
 71
     2
340
5D
 90
       25
 62
   256
340
5D
 90
       50
 62
   256
 40
0.24
 40
0.0
 40
0.24
 71
     3
340
55
 62
   256
 40
0.24
 90
        1
 40
0.75
 90
        1
300
%<\AcVar ViewType \f "%tc1">% %<\AcVar ViewSectionStartId>%-%<\AcVar ViewSectionEndId>%\PSCALE %<\AcVar ViewScale \f "%sn">%
 71
     4
 62
   256
 62
   257
300
ANSI31
 40
1.0
 90
        0
290
     0
290
     0
 90
        6
 40
0.0
 40
1.570796326794896
 40
0.2617993877991494
 40
1.308996938995747
 40
-0.2617993877991494
 40
1.832595714594046
  0
TABLESTYLE
  5
65
102
{ACAD_XDICTIONARY
360
F6
102
}
102
{ACAD_REACTORS
330
64
102
}
330
64
100
AcDbTableStyle
280
     0
  3
Standard
 70
     0
 71
     0
 40
0.06
 41
0.06
280
     0
281
     0
  7
Standard
140
0.18
170
     2
 62
     0
 63
     7
283
     0
 90
      512
 91
        0
  1

274
    -2
284
     1
 64
     0
275
    -2
285
     1
 65
     0
276
    -2
286
     1
 66
     0
277
    -2
287
     1
 67
     0
278
    -2
288
     1
 68
     0
279
    -2
289
     1
 69
     0
  7
Standard
140
0.25
170
     5
 62
     0
 63
     7
283
     0
 90
      512
 91
        0
  1

274
    -2
284
     1
 64
     0
275
    -2
285
     1
 65
     0
276
    -2
286
     1
 66
     0
277
    -2
287
     1
 67
     0
278
    -2
288
     1
 68
     0
279
    -2
289
     1
 69
     0
  7
Standard
140
0.18
170
     5
 62
     0
 63
     7
283
     0
 90
      512
 91
        0
  1

274
    -2
284
     1
 64
     0
275
    -2
285
     1
 65
     0
276
    -2
286
     1
 66
     0
277
    -2
287
     1
 67
     0
278
    -2
288
     1
 68
     0
279
    -2
289
     1
 69
     0
  0
VISUALSTYLE
  5
2F
102
{ACAD_XDICTIONARY
360
103
102
}
102
{ACAD_REACTORS
330
29
102
}
330
29
100
AcDbVisualStyle
  2
2dWireframe
 70
     4
177
     2
291
     0
 71
     0
176
     1
 72
     2
176
     1
 73
     0
176
     1
 90
        0
176
     1
 40
0.6
176
     1
 41
30.0
176
     1
 63
     7
421
 16777215
176
     1
 74
     1
176
     1
 91
        4
176
     1
 64
     7
176
     1
 65
   257
176
     1
 75
     1
176
     1
175
     1
176
     1
 42
1.0
176
     1
 92
        0
176
     1
 66
   257
176
     1
 43
1.0
176
     1
 76
     1
176
     1
 77
     6
176
     1
 78
     2
176
     1
 67
     7
176
     1
 79
     5
176
     1
170
     0
176
     1
171
     0
176
     1
290
     0
176
     1
 93
        1
176
     1
 44
0.0
176
     1
173
     0
176
     1
1001
ACAD
1000
AcDbSavedByObjectVersion
1070
     0
  0
VISUALSTYLE
  5
2E
102
{ACAD_XDICTIONARY
360
101
102
}
102
{ACAD_REACTORS
330
29
102
}
330
29
100
AcDbVisualStyle
  2
Basic
 70
     7
177
     2
291
     1
 71
     1
176
     1
 72
     0
176
     1
 73
     1
176
     1
 90
        0
176
     1
 40
0.6
176
     1
 41
30.0
176
     1
 63
     7
421
 16777215
176
     1
 74
     0
176
     1
 91
        4
176
     1
 64
     7
176
     1
 65
   257
176
     1
 75
     1
176
     1
175
     1
176
     1
 42
1.0
176
     1
 92
        8
176
     1
 66
     7
176
     1
 43
1.0
176
     1
 76
     1
176
     1
 77
     6
176
     1
 78
     2
176
     1
 67
     7
176
     1
 79
     5
176
     1
170
     0
176
     1
171
     0
176
     1
290
     0
176
     1
 93
        1
176
     1
 44
0.0
176
     1
173
     0
176
     1
1001
ACAD
1000
AcDbSavedByObjectVersion
1070
     0
  0
VISUALSTYLE
  5
35
102
{ACAD_XDICTIONARY
360
10F
102
}
102
{ACAD_REACTORS
330
29
102
}
330
29
100
AcDbVisualStyle
  2
Brighten
 70
    12
177
     2
291
     1
 71
     2
176
     1
 72
     2
176
     1
 73
     0
176
     1
 90
        0
176
     1
 40
0.6
176
     1
 41
30.0
176
     1
 63
     7
421
 16777215
176
     1
 74
     1
176
     1
 91
        4
176
     1
 64
     7
176
     1
 65
   257
176
     1
 75
     1
176
     1
175
     1
176
     1
 42
1.0
176
     1
 92
        8
176
     1
 66
     7
176
     1
 43
1.0
176
     1
 76
     1
176
     1
 77
     6
176
     1
 78
     2
176
     1
 67
     7
176
     1
 79
     5
176
     1
170
     0
176
     1
171
     0
176
     1
290
     0
176
     1
 93
        1
176
     1
 44
50.0
176
     1
173
     0
176
     1
1001
ACAD
1000
AcDbSavedByObjectVersion
1070
     0
  0
VISUALSTYLE
  5
39
102
{ACAD_XDICTIONARY
360
117
102
}
102
{ACAD_REACTORS
330
29
102
}
330
29
100
AcDbVisualStyle
  2
ColorChange
 70
    16
177
     2
291
     1
 71
     2
176
     1
 72
     2
176
     1
 73
     3
176
     1
 90
        0
176
     1
 40
0.6
176
     1
 41
30.0
176
     1
 63
     8
421
  8421504
176
     1
 74
     1
176
     1
 91
        4
176
     1
 64
     7
176
     1
 65
   257
176
     1
 75
     1
176
     1
175
     1
176
     1
 42
1.0
176
     1
 92
        8
176
     1
 66
     8
424
  8421504
176
     1
 43
1.0
176
     1
 76
     1
176
     1
 77
     6
176
     1
 78
     2
176
     1
 67
     7
176
     1
 79
     5
176
     1
170
     0
176
     1
171
     0
176
     1
290
     0
176
     1
 93
        1
176
     1
 44
0.0
176
     1
173
     0
176
     1
1001
ACAD
1000
AcDbSavedByObjectVersion
1070
     0
  0
VISUALSTYLE
  5
32
102
{ACAD_XDICTIONARY
360
109
102
}
102
{ACAD_REACTORS
330
29
102
}
330
29
100
AcDbVisualStyle
  2
Conceptual
 70
     9
177
     2
291
     0
 71
     3
176
     1
 72
     2
176
     1
 73
     0
176
     1
 90
        0
176
     1
 40
0.6
176
     1
 41
30.0
176
     1
 63
     7
421
 16777215
176
     1
 74
     2
176
     1
 91
        2
176
     1
 64
     7
176
     1
 65
   257
176
     1
 75
     1
176
     1
175
     1
176
     1
 42
179.0
176
     1
 92
        8
176
     1
 66
     7
176
     1
 43
1.0
176
     1
 76
     1
176
     1
 77
     6
176
     1
 78
     2
176
     1
 67
     7
176
     1
 79
     3
176
     1
170
     0
176
     1
171
     0
176
     1
290
     0
176
     1
 93
        1
176
     1
 44
0.0
176
     1
173
     0
176
     1
1001
ACAD
1000
AcDbSavedByObjectVersion
1070
     0
  0
VISUALSTYLE
  5
34
102
{ACAD_XDICTIONARY
360
10D
102
}
102
{ACAD_REACTORS
330
29
102
}
330
29
100
AcDbVisualStyle
  2
Dim
 70
    11
177
     2
291
     1
 71
     2
176
     1
 72
     2
176
     1
 73
     0
176
     1
 90
        0
176
     1
 40
0.6
176
     1
 41
30.0
176
     1
 63
     7
421
 16777215
176
     1
 74
     1
176
     1
 91
        4
176
     1
 64
     7
176
     1
 65
   257
176
     1
 75
     1
176
     1
175
     1
176
     1
 42
1.0
176
     1
 92
        8
176
     1
 66
     7
176
     1
 43
1.0
176
     1
 76
     1
176
     1
 77
     6
176
     1
 78
     2
176
     1
 67
     7
176
     1
 79
     5
176
     1
170
     0
176
     1
171
     0
176
     1
290
     0
176
     1
 93
        1
176
     1
 44
-50.0
176
     1
173
     0
176
     1
1001
ACAD
1000
AcDbSavedByObjectVersion
1070
     0
  0
VISUALSTYLE
  5
41
102
{ACAD_XDICTIONARY
360
127
102
}
102
{ACAD_REACTORS
330
29
102
}
330
29
100
AcDbVisualStyle
  2
EdgeColorOff
 70
    22
177
     2
291
     1
 71
     2
176
     0
 72
     2
176
     0
 73
     0
176
     0
 90
        0
176
     0
 40
0.6
176
     0
 41
30.0
176
     0
 63
     7
421
 16777215
176
     0
 74
     1
176
     0
 91
        4
176
     0
 64
     7
176
     0
 65
   257
176
     0
 75
     1
176
     0
175
     1
176
     0
 42
1.0
176
     0
 92
        8
176
     2
 66
     7
176
     0
 43
1.0
176
     0
 76
     1
176
     0
 77
     6
176
     0
 78
     2
176
     0
 67
     7
176
     0
 79
     5
176
     0
170
     0
176
     0
171
     0
176
     0
290
     0
176
     0
 93
        1
176
     0
 44
0.0
176
     0
173
     0
176
     0
1001
ACAD
1000
AcDbSavedByObjectVersion
1070
     0
  0
VISUALSTYLE
  5
38
102
{ACAD_XDICTIONARY
360
115
102
}
102
{ACAD_REACTORS
330
29
102
}
330
29
100
AcDbVisualStyle
  2
Facepattern
 70
    15
177
     2
291
     1
 71
     2
176
     1
 72
     2
176
     1
 73
     0
176
     1
 90
        0
176
     1
 40
0.6
176
     1
 41
30.0
176
     1
 63
     7
421
 16777215
176
     1
 74
     1
176
     1
 91
        4
176
     1
 64
     7
176
     1
 65
   257
176
     1
 75
     1
176
     1
175
     1
176
     1
 42
1.0
176
     1
 92
        8
176
     1
 66
     7
176
     1
 43
1.0
176
     1
 76
     1
176
     1
 77
     6
176
     1
 78
     2
176
     1
 67
     7
176
     1
 79
     5
176
     1
170
     0
176
     1
171
     0
176
     1
290
     0
176
     1
 93
        1
176
     1
 44
0.0
176
     1
173
     0
176
     1
1001
ACAD
1000
AcDbSavedByObjectVersion
1070
     0
  0
VISUALSTYLE
  5
2A
102
{ACAD_XDICTIONARY
360
F9
102
}
102
{ACAD_REACTORS
330
29
102
}
330
29
100
AcDbVisualStyle
  2
Flat
 70
     0
177
     2
291
     1
 71
     2
176
     1
 72
     1
176
     1
 73
     1
176
     1
 90
        2
176
     1
 40
0.6
176
     1
 41
30.0
176
     1
 63
     7
421
 16777215
176
     1
 74
     0
176
     1
 91
        0
176
     1
 64
     7
176
     1
 65
   257
176
     1
 75
     1
176
     1
175
     1
176
     1
 42
1.0
176
     1
 92
        8
176
     1
 66
     7
176
     1
 43
1.0
176
     1
 76
     1
176
     1
 77
     6
176
     1
 78
     2
176
     1
 67
     7
176
     1
 79
     5
176
     1
170
     0
176
     1
171
     0
176
     1
290
     0
176
     1
 93
       13
176
     1
 44
0.0
176
     1
173
     0
176
     1
1001
ACAD
1000
AcDbSavedByObjectVersion
1070
     0
  0
VISUALSTYLE
  5
2B
102
{ACAD_XDICTIONARY
360
FB
102
}
102
{ACAD_REACTORS
330
29
102
}
330
29
100
AcDbVisualStyle
  2
FlatWithEdges
 70
     1
177
     2
291
     1
 71
     2
176
     1
 72
     1
176
     1
 73
     1
176
     1
 90
        2
176
     1
 40
0.6
176
     1
 41
30.0
176
     1
 63
     7
421
 16777215
176
     1
 74
     1
176
     1
 91
        0
176
     1
 64
     7
176
     1
 65
   257
176
     1
 75
     1
176
     1
175
     1
176
     1
 42
1.0
176
     1
 92
        0
176
     1
 66
   257
176
     1
 43
1.0
176
     1
 76
     1
176
     1
 77
     6
176
     1
 78
     2
176
     1
 67
     7
176
     1
 79
     5
176
     1
170
     0
176
     1
171
     0
176
     1
290
     0
176
     1
 93
       13
176
     1
 44
0.0
176
     1
173
     0
176
     1
1001
ACAD
1000
AcDbSavedByObjectVersion
1070
     0
  0
VISUALSTYLE
  5
2C
102
{ACAD_XDICTIONARY
360
FD
102
}
102
{ACAD_REACTORS
330
29
102
}
330
29
100
AcDbVisualStyle
  2
Gouraud
 70
     2
177
     2
291
     1
 71
     2
176
     1
 72
     2
176
     1
 73
     1
176
     1
 90
        2
176
     1
 40
0.6
176
     1
 41
30.0
176
     1
 63
     7
421
 16777215
176
     1
 74
     0
176
     1
 91
        0
176
     1
 64
     7
176
     1
 65
   257
176
     1
 75
     1
176
     1
175
     1
176
     1
 42
1.0
176
     1
 92
        0
176
     1
 66
     7
176
     1
 43
1.0
176
     1
 76
     1
176
     1
 77
     6
176
     1
 78
     2
176
     1
 67
     7
176
     1
 79
     5
176
     1
170
     0
176
     1
171
     0
176
     1
290
     0
176
     1
 93
       13
176
     1
 44
0.0
176
     1
173
     0
176
     1
1001
ACAD
1000
AcDbSavedByObjectVersion
1070
     0
  0
VISUALSTYLE
  5
2D
102
{ACAD_XDICTIONARY
360
FF
102
}
102
{ACAD_REACTORS
330
29
102
}
330
29
100
AcDbVisualStyle
  2
GouraudWithEdges
 70
     3
177
     2
291
     1
 71
     2
176
     1
 72
     2
176
     1
 73
     1
176
     1
 90
        2
176
     1
 40
0.6
176
     1
 41
30.0
176
     1
 63
     7
421
 16777215
176
     1
 74
     1
176
     1
 91
        0
176
     1
 64
     7
176
     1
 65
   257
176
     1
 75
     1
176
     1
175
     1
176
     1
 42
1.0
176
     1
 92
        0
176
     1
 66
   257
176
     1
 43
1.0
176
     1
 76
     1
176
     1
 77
     6
176
     1
 78
     2
176
     1
 67
     7
176
     1
 79
     5
176
     1
170
     0
176
     1
171
     0
176
     1
290
     0
176
     1
 93
       13
176
     1
 44
0.0
176
     1
173
     0
176
     1
1001
ACAD
1000
AcDbSavedByObjectVersion
1070
     0
  0
VISUALSTYLE
  5
31
102
{ACAD_XDICTIONARY
360
107
102
}
102
{ACAD_REACTORS
330
29
102
}
330
29
100
AcDbVisualStyle
  2
Hidden
 70
     6
177
     2
291
     0
 71
     1
176
     1
 72
     2
176
     1
 73
     2
176
     1
 90
        0
176
     1
 40
0.6
176
     1
 41
30.0
176
     1
 63
     7
421
 16777215
176
     1
 74
     2
176
     1
 91
        2
176
     1
 64
     7
176
     1
 65
   257
176
     1
 75
     2
176
     1
175
     1
176
     1
 42
40.0
176
     1
 92
        0
176
     1
 66
   257
176
     1
 43
1.0
176
     1
 76
     1
176
     1
 77
     6
176
     1
 78
     2
176
     1
 67
     7
176
     1
 79
     3
176
     1
170
     0
176
     1
171
     0
176
     1
290
     0
176
     1
 93
        1
176
     1
 44
0.0
176
     1
173
     0
176
     1
1001
ACAD
1000
AcDbSavedByObjectVersion
1070
     0
  0
VISUALSTYLE
  5
3F
102
{ACAD_XDICTIONARY
360
123
102
}
102
{ACAD_REACTORS
330
29
102
}
330
29
100
AcDbVisualStyle
  2
JitterOff
 70
    20
177
     2
291
     1
 71
     2
176
     0
 72
     2
176
     0
 73
     0
176
     0
 90
        0
176
     0
 40
0.6
176
     0
 41
30.0
176
     0
 63
     7
421
 16777215
176
     0
 74
     1
176
     0
 91
        4
176
     0
 64
     7
176
     0
 65
   257
176
     0
 75
     1
176
     0
175
     1
176
     0
 42
1.0
176
     0
 92
       10
176
     2
 66
     7
176
     0
 43
1.0
176
     0
 76
     1
176
     0
 77
     6
176
     0
 78
     2
176
     0
 67
     7
176
     0
 79
     5
176
     0
170
     0
176
     0
171
     0
176
     0
290
     0
176
     0
 93
        1
176
     0
 44
0.0
176
     0
173
     0
176
     0
1001
ACAD
1000
AcDbSavedByObjectVersion
1070
     0
  0
VISUALSTYLE
  5
37
102
{ACAD_XDICTIONARY
360
113
102
}
102
{ACAD_REACTORS
330
29
102
}
330
29
100
AcDbVisualStyle
  2
Linepattern
 70
    14
177
     2
291
     1
 71
     2
176
     1
 72
     2
176
     1
 73
     0
176
     1
 90
        0
176
     1
 40
0.6
176
     1
 41
30.0
176
     1
 63
     7
421
 16777215
176
     1
 74
     1
176
     1
 91
        4
176
     1
 64
     7
176
     1
 65
   257
176
     1
 75
     7
176
     1
175
     7
176
     1
 42
1.0
176
     1
 92
        8
176
     1
 66
     7
176
     1
 43
1.0
176
     1
 76
     1
176
     1
 77
     6
176
     1
 78
     2
176
     1
 67
     7
176
     1
 79
     5
176
     1
170
     0
176
     1
171
     0
176
     1
290
     0
176
     1
 93
        1
176
     1
 44
0.0
176
     1
173
     0
176
     1
1001
ACAD
1000
AcDbSavedByObjectVersion
1070
     0
  0
VISUALSTYLE
  5
40
102
{ACAD_XDICTIONARY
360
125
102
}
102
{ACAD_REACTORS
330
29
102
}
330
29
100
AcDbVisualStyle
  2
OverhangOff
 70
    21
177
     2
291
     1
 71
     2
176
     0
 72
     2
176
     0
 73
     0
176
     0
 90
        0
176
     0
 40
0.6
176
     0
 41
30.0
176
     0
 63
     7
421
 16777215
176
     0
 74
     1
176
     0
 91
        4
176
     0
 64
     7
176
     0
 65
   257
176
     0
 75
     1
176
     0
175
     1
176
     0
 42
1.0
176
     0
 92
        9
176
     2
 66
     7
176
     0
 43
1.0
176
     0
 76
     1
176
     0
 77
     6
176
     0
 78
     2
176
     0
 67
     7
176
     0
 79
     5
176
     0
170
     0
176
     0
171
     0
176
     0
290
     0
176
     0
 93
        1
176
     0
 44
0.0
176
     0
173
     0
176
     0
1001
ACAD
1000
AcDbSavedByObjectVersion
1070
     0
  0
VISUALSTYLE
  5
33
102
{ACAD_XDICTIONARY
360
10B
102
}
102
{ACAD_REACTORS
330
29
102
}
330
29
100
AcDbVisualStyle
  2
Realistic
 70
     8
177
     2
291
     0
 71
     2
176
     1
 72
     3
176
     1
 73
     0
176
     1
 90
        2
176
     1
 40
0.6
176
     1
 41
30.0
176
     1
 63
     7
421
 16777215
176
     1
 74
     0
176
     1
 91
        0
176
     1
 64
     7
176
     1
 65
   257
176
     1
 75
     1
176
     1
175
     1
176
     1
 42
1.0
176
     1
 92
        8
176
     1
 66
   257
176
     1
 43
1.0
176
     1
 76
     1
176
     1
 77
     6
176
     1
 78
     2
176
     1
 67
     7
176
     1
 79
     3
176
     1
170
     0
176
     1
171
     0
176
     1
290
     0
176
     1
 93
       13
176
     1
 44
0.0
176
     1
173
     0
176
     1
1001
ACAD
1000
AcDbSavedByObjectVersion
1070
     0
  0
VISUALSTYLE
  5
3E
102
{ACAD_XDICTIONARY
360
121
102
}
102
{ACAD_REACTORS
330
29
102
}
330
29
100
AcDbVisualStyle
  2
Shaded
 70
    27
177
     2
291
     0
 71
     2
176
     1
 72
     2
176
     1
 73
     1
176
     1
 90
        2
176
     1
 40
0.6
176
     1
 41
30.0
176
     1
 63
     7
421
 16777215
176
     1
 74
     0
176
     1
 91
        4
176
     1
 64
     7
176
     1
 65
   257
176
     1
 75
     1
176
     1
175
     1
176
     1
 42
1.0
176
     1
 92
        8
176
     1
 66
   257
176
     1
 43
1.0
176
     1
 76
     1
176
     1
 77
     6
176
     1
 78
     2
176
     1
 67
     8
425
  7895160
176
     1
 79
     3
176
     1
170
     0
176
     1
171
     0
176
     1
290
     0
176
     1
 93
        5
176
     1
 44
0.0
176
     1
173
     0
176
     1
1001
ACAD
1000
AcDbSavedByObjectVersion
1070
     0
  0
VISUALSTYLE
  5
3D
102
{ACAD_XDICTIONARY
360
11F
102
}
102
{ACAD_REACTORS
330
29
102
}
330
29
100
AcDbVisualStyle
  2
Shaded with edges
 70
    26
177
     2
291
     0
 71
     2
176
     1
 72
     2
176
     1
 73
     1
176
     1
 90
        2
176
     1
 40
0.6
176
     1
 41
30.0
176
     1
 63
     7
421
 16777215
176
     1
 74
     1
176
     1
 91
        2
176
     1
 64
     7
176
     1
 65
   257
176
     1
 75
     2
176
     1
175
     1
176
     1
 42
1.0
176
     1
 92
        8
176
     1
 66
   257
176
     1
 43
1.0
176
     1
 76
     1
176
     1
 77
     6
176
     1
 78
     2
176
     1
 67
     7
176
     1
 79
     3
176
     1
170
     0
176
     1
171
     0
176
     1
290
     0
176
     1
 93
        5
176
     1
 44
0.0
176
     1
173
     0
176
     1
1001
ACAD
1000
AcDbSavedByObjectVersion
1070
     0
  0
VISUALSTYLE
  5
3A
102
{ACAD_XDICTIONARY
360
119
102
}
102
{ACAD_REACTORS
330
29
102
}
330
29
100
AcDbVisualStyle
  2
Shades of Gray
 70
    23
177
     2
291
     0
 71
     2
176
     1
 72
     2
176
     1
 73
     3
176
     1
 90
        0
176
     1
 40
0.6
176
     1
 41
30.0
176
     1
 63
     7
421
 16777215
176
     1
 74
     2
176
     1
 91
        2
176
     1
 64
     7
176
     1
 65
     7
176
     1
 75
     1
176
     1
175
     1
176
     1
 42
40.0
176
     1
 92
        8
176
     1
 66
     7
176
     1
 43
1.0
176
     1
 76
     1
176
     1
 77
     6
176
     1
 78
     2
176
     1
 67
     7
176
     1
 79
     3
176
     1
170
     0
176
     1
171
     0
176
     1
290
     0
176
     1
 93
        1
176
     1
 44
0.0
176
     1
173
     0
176
     1
1001
ACAD
1000
AcDbSavedByObjectVersion
1070
     0
  0
VISUALSTYLE
  5
3B
102
{ACAD_XDICTIONARY
360
11B
102
}
102
{ACAD_REACTORS
330
29
102
}
330
29
100
AcDbVisualStyle
  2
Sketchy
 70
    24
177
     2
291
     0
 71
     1
176
     1
 72
     2
176
     1
 73
     2
176
     1
 90
        0
176
     1
 40
0.6
176
     1
 41
30.0
176
     1
 63
     7
421
 16777215
176
     1
 74
     2
176
     1
 91
        2
176
     1
 64
     7
176
     1
 65
     7
176
     1
 75
     1
176
     1
175
     1
176
     1
 42
40.0
176
     1
 92
       11
176
     1
 66
     7
176
     1
 43
1.0
176
     1
 76
     1
176
     1
 77
     6
176
     1
 78
     2
176
     1
 67
     7
176
     1
 79
     6
176
     1
170
     0
176
     1
171
     0
176
     1
290
     0
176
     1
 93
        1
176
     1
 44
0.0
176
     1
173
     0
176
     1
1001
ACAD
1000
AcDbSavedByObjectVersion
1070
     0
  0
VISUALSTYLE
  5
36
102
{ACAD_XDICTIONARY
360
111
102
}
102
{ACAD_REACTORS
330
29
102
}
330
29
100
AcDbVisualStyle
  2
Thicken
 70
    13
177
     2
291
     1
 71
     2
176
     1
 72
     2
176
     1
 73
     0
176
     1
 90
        0
176
     1
 40
0.6
176
     1
 41
30.0
176
     1
 63
     7
421
 16777215
176
     1
 74
     1
176
     1
 91
        4
176
     1
 64
     7
176
     1
 65
   257
176
     1
 75
     1
176
     1
175
     1
176
     1
 42
1.0
176
     1
 92
       12
176
     1
 66
     7
176
     1
 43
1.0
176
     1
 76
     1
176
     1
 77
     6
176
     1
 78
     2
176
     1
 67
     7
176
     1
 79
     5
176
     1
170
     0
176
     1
171
     0
176
     1
290
     0
176
     1
 93
        1
176
     1
 44
0.0
176
     1
173
     0
176
     1
1001
ACAD
1000
AcDbSavedByObjectVersion
1070
     0
  0
VISUALSTYLE
  5
30
102
{ACAD_XDICTIONARY
360
105
102
}
102
{ACAD_REACTORS
330
29
102
}
330
29
100
AcDbVisualStyle
  2
Wireframe
 70
     5
177
     2
291
     0
 71
     0
176
     1
 72
     2
176
     1
 73
     0
176
     1
 90
        0
176
     1
 40
0.6
176
     1
 41
30.0
176
     1
 63
     7
421
 16777215
176
     1
 74
     1
176
     1
 91
        4
176
     1
 64
     7
176
     1
 65
   257
176
     1
 75
     1
176
     1
175
     1
176
     1
 42
1.0
176
     1
 92
        0
176
     1
 66
   257
176
     1
 43
1.0
176
     1
 76
     1
176
     1
 77
     6
176
     1
 78
     2
176
     1
 67
     7
176
     1
 79
     3
176
     1
170
     0
176
     1
171
     0
176
     1
290
     0
176
     1
 93
        1
176
     1
 44
0.0
176
     1
173
     0
176
     1
1001
ACAD
1000
AcDbSavedByObjectVersion
1070
     0
  0
VISUALSTYLE
  5
3C
102
{ACAD_XDICTIONARY
360
11D
102
}
102
{ACAD_REACTORS
330
29
102
}
330
29
100
AcDbVisualStyle
  2
X-Ray
 70
    25
177
     2
291
     0
 71
     2
176
     1
 72
     2
176
     1
 73
     1
176
     1
 90
        1
176
     1
 40
0.5
176
     1
 41
30.0
176
     1
 63
     7
421
 16777215
176
     1
 74
     1
176
     1
 91
        0
176
     1
 64
     7
176
     1
 65
   257
176
     1
 75
     1
176
     1
175
     1
176
     1
 42
1.0
176
     1
 92
        8
176
     1
 66
     7
176
     1
 43
1.0
176
     1
 76
     1
176
     1
 77
     6
176
     1
 78
     2
176
     1
 67
     7
176
     1
 79
     3
176
     1
170
     0
176
     1
171
     0
176
     1
290
     0
176
     1
 93
       13
176
     1
 44
0.0
176
     1
173
     0
176
     1
1001
ACAD
1000
AcDbSavedByObjectVersion
1070
     0
  0
DICTIONARYVAR
  5
F5
102
{ACAD_REACTORS
330
F0
102
}
330
F0
100
DictionaryVariables
280
     0
  1
1:1
  0
DICTIONARYVAR
  5
F2
102
{ACAD_REACTORS
330
F0
102
}
330
F0
100
DictionaryVariables
280
     0
  1
STANDARD
  0
DICTIONARYVAR
  5
F1
102
{ACAD_REACTORS
330
F0
102
}
330
F0
100
DictionaryVariables
280
     0
  1
STANDARD
  0
DICTIONARYVAR
  5
F3
102
{ACAD_REACTORS
330
F0
102
}
330
F0
100
DictionaryVariables
280
     0
  1
Imperial24
  0
DICTIONARYVAR
  5
F4
102
{ACAD_REACTORS
330
F0
102
}
330
F0
100
DictionaryVariables
280
     0
  1
Imperial24
  0
DICTIONARY
  5
12D
330
6B
100
AcDbDictionary
280
     1
281
     1
  3
ACAD_XREC_ROUNDTRIP
360
12E
  0
DICTIONARY
  5
1A
330
19
100
AcDbDictionary
280
     1
281
     1
  3
BUMPTILE
360
1C
  3
DIFFUSETILE
360
1B
  3
OPACITYTILE
360
1F
  3
REFLECTIONTILE
360
1E
  3
REFRACTIONTILE
360
20
  3
SPECULARTILE
360
1D
  0
DICTIONARY
  5
12
330
11
100
AcDbDictionary
280
     1
281
     1
  3
BUMPTILE
360
14
  3
DIFFUSETILE
360
13
  3
OPACITYTILE
360
17
  3
REFLECTIONTILE
360
16
  3
REFRACTIONTILE
360
18
  3
SPECULARTILE
360
15
  0
DICTIONARY
  5
22
330
21
100
AcDbDictionary
280
     1
281
     1
  3
BUMPTILE
360
24
  3
DIFFUSETILE
360
23
  3
OPACITYTILE
360
27
  3
REFLECTIONTILE
360
26
  3
REFRACTIONTILE
360
28
  3
SPECULARTILE
360
25
  0
DICTIONARY
  5
129
330
67
100
AcDbDictionary
280
     1
281
     1
  3
ACAD_XREC_ROUNDTRIP
360
12A
  0
DICTIONARY
  5
12B
330
69
100
AcDbDictionary
280
     1
281
     1
  3
ACAD_XREC_ROUNDTRIP
360
12C
  0
DICTIONARY
  5
F6
330
65
100
AcDbDictionary
280
     1
281
     1
  3
ACAD_ROUNDTRIP_2008_TABLESTYLE_CELLSTYLEMAP
360
F7
  0
DICTIONARY
  5
103
330
2F
100
AcDbDictionary
280
     1
281
     1
  3
ACAD_XREC_ROUNDTRIP
360
104
  0
DICTIONARY
  5
101
330
2E
100
AcDbDictionary
280
     1
281
     1
  3
ACAD_XREC_ROUNDTRIP
360
102
  0
DICTIONARY
  5
10F
330
35
100
AcDbDictionary
280
     1
281
     1
  3
ACAD_XREC_ROUNDTRIP
360
110
  0
DICTIONARY
  5
117
330
39
100
AcDbDictionary
280
     1
281
     1
  3
ACAD_XREC_ROUNDTRIP
360
118
  0
DICTIONARY
  5
109
330
32
100
AcDbDictionary
280
     1
281
     1
  3
ACAD_XREC_ROUNDTRIP
360
10A
  0
DICTIONARY
  5
10D
330
34
100
AcDbDictionary
280
     1
281
     1
  3
ACAD_XREC_ROUNDTRIP
360
10E
  0
DICTIONARY
  5
127
330
41
100
AcDbDictionary
280
     1
281
     1
  3
ACAD_XREC_ROUNDTRIP
360
128
  0
DICTIONARY
  5
115
330
38
100
AcDbDictionary
280
     1
281
     1
  3
ACAD_XREC_ROUNDTRIP
360
116
  0
DICTIONARY
  5
F9
330
2A
100
AcDbDictionary
280
     1
281
     1
  3
ACAD_XREC_ROUNDTRIP
360
FA
  0
DICTIONARY
  5
FB
330
2B
100
AcDbDictionary
280
     1
281
     1
  3
ACAD_XREC_ROUNDTRIP
360
FC
  0
DICTIONARY
  5
FD
330
2C
100
AcDbDictionary
280
     1
281
     1
  3
ACAD_XREC_ROUNDTRIP
360
FE
  0
DICTIONARY
  5
FF
330
2D
100
AcDbDictionary
280
     1
281
     1
  3
ACAD_XREC_ROUNDTRIP
360
100
  0
DICTIONARY
  5
107
330
31
100
AcDbDictionary
280
     1
281
     1
  3
ACAD_XREC_ROUNDTRIP
360
108
  0
DICTIONARY
  5
123
330
3F
100
AcDbDictionary
280
     1
281
     1
  3
ACAD_XREC_ROUNDTRIP
360
124
  0
DICTIONARY
  5
113
330
37
100
AcDbDictionary
280
     1
281
     1
  3
ACAD_XREC_ROUNDTRIP
360
114
  0
DICTIONARY
  5
125
330
40
100
AcDbDictionary
280
     1
281
     1
  3
ACAD_XREC_ROUNDTRIP
360
126
  0
DICTIONARY
  5
10B
330
33
100
AcDbDictionary
280
     1
281
     1
  3
ACAD_XREC_ROUNDTRIP
360
10C
  0
DICTIONARY
  5
121
330
3E
100
AcDbDictionary
280
     1
281
     1
  3
ACAD_XREC_ROUNDTRIP
360
122
  0
DICTIONARY
  5
11F
330
3D
100
AcDbDictionary
280
     1
281
     1
  3
ACAD_XREC_ROUNDTRIP
360
120
  0
DICTIONARY
  5
119
330
3A
100
AcDbDictionary
280
     1
281
     1
  3
ACAD_XREC_ROUNDTRIP
360
11A
  0
DICTIONARY
  5
11B
330
3B
100
AcDbDictionary
280
     1
281
     1
  3
ACAD_XREC_ROUNDTRIP
360
11C
  0
DICTIONARY
  5
111
330
36
100
AcDbDictionary
280
     1
281
     1
  3
ACAD_XREC_ROUNDTRIP
360
112
  0
DICTIONARY
  5
105
330
30
100
AcDbDictionary
280
     1
281
     1
  3
ACAD_XREC_ROUNDTRIP
360
106
  0
DICTIONARY
  5
11D
330
3C
100
AcDbDictionary
280
     1
281
     1
  3
ACAD_XREC_ROUNDTRIP
360
11E
  0
XRECORD
  5
12E
102
{ACAD_REACTORS
330
12D
102
}
330
12D
100
AcDbXrecord
280
     1
102
DISPLAYNAME
  1
Imperial24
102
FLAGS
 90
        0
  0
XRECORD
  5
1C
102
{ACAD_REACTORS
330
1A
102
}
330
1A
100
AcDbXrecord
280
     1
270
     1
271
     1
  0
XRECORD
  5
1B
102
{ACAD_REACTORS
330
1A
102
}
330
1A
100
AcDbXrecord
280
     1
270
     1
271
     1
  0
XRECORD
  5
1F
102
{ACAD_REACTORS
330
1A
102
}
330
1A
100
AcDbXrecord
280
     1
270
     1
271
     1
  0
XRECORD
  5
1E
102
{ACAD_REACTORS
330
1A
102
}
330
1A
100
AcDbXrecord
280
     1
270
     1
271
     1
  0
XRECORD
  5
20
102
{ACAD_REACTORS
330
1A
102
}
330
1A
100
AcDbXrecord
280
     1
270
     1
271
     1
  0
XRECORD
  5
1D
102
{ACAD_REACTORS
330
1A
102
}
330
1A
100
AcDbXrecord
280
     1
270
     1
271
     1
  0
XRECORD
  5
14
102
{ACAD_REACTORS
330
12
102
}
330
12
100
AcDbXrecord
280
     1
270
     1
271
     1
  0
XRECORD
  5
13
102
{ACAD_REACTORS
330
12
102
}
330
12
100
AcDbXrecord
280
     1
270
     1
271
     1
  0
XRECORD
  5
17
102
{ACAD_REACTORS
330
12
102
}
330
12
100
AcDbXrecord
280
     1
270
     1
271
     1
  0
XRECORD
  5
16
102
{ACAD_REACTORS
330
12
102
}
330
12
100
AcDbXrecord
280
     1
270
     1
271
     1
  0
XRECORD
  5
18
102
{ACAD_REACTORS
330
12
102
}
330
12
100
AcDbXrecord
280
     1
270
     1
271
     1
  0
XRECORD
  5
15
102
{ACAD_REACTORS
330
12
102
}
330
12
100
AcDbXrecord
280
     1
270
     1
271
     1
  0
XRECORD
  5
24
102
{ACAD_REACTORS
330
22
102
}
330
22
100
AcDbXrecord
280
     1
270
     1
271
     1
  0
XRECORD
  5
23
102
{ACAD_REACTORS
330
22
102
}
330
22
100
AcDbXrecord
280
     1
270
     1
271
     1
  0
XRECORD
  5
27
102
{ACAD_REACTORS
330
22
102
}
330
22
100
AcDbXrecord
280
     1
270
     1
271
     1
  0
XRECORD
  5
26
102
{ACAD_REACTORS
330
22
102
}
330
22
100
AcDbXrecord
280
     1
270
     1
271
     1
  0
XRECORD
  5
28
102
{ACAD_REACTORS
330
22
102
}
330
22
100
AcDbXrecord
280
     1
270
     1
271
     1
  0
XRECORD
  5
25
102
{ACAD_REACTORS
330
22
102
}
330
22
100
AcDbXrecord
280
     1
270
     1
271
     1
  0
XRECORD
  5
12A
102
{ACAD_REACTORS
330
129
102
}
330
129
100
AcDbXrecord
280
     1
102
ACAD_ROUNDTRIP_2012_MLEADER_STYLE
298
     1
  0
XRECORD
  5
12C
102
{ACAD_REACTORS
330
12B
102
}
330
12B
100
AcDbXrecord
280
     1
102
DISPLAYNAME
  1
Imperial24
102
FLAGS
 90
        0
  0
CELLSTYLEMAP
  5
F7
102
{ACAD_REACTORS
330
F6
102
}
330
F6
100
AcDbCellStyleMap
 90
        3
300
CELLSTYLE
  1
TABLEFORMAT_BEGIN
 90
        5
170
     1
 91
        0
 92
    32768
 62
   257
 93
        1
300
CONTENTFORMAT
  1
CONTENTFORMAT_BEGIN
 90
        0
 91
        0
 92
      512
 93
        0
300

 40
0.0
140
1.0
 94
        5
 62
     0
340
55
144
0.25
309
CONTENTFORMAT_END
171
     0
 94
        0
309
TABLEFORMAT_END
  1
CELLSTYLE_BEGIN
 90
        1
 91
        1
300
_TITLE
309
CELLSTYLE_END
300
CELLSTYLE
  1
TABLEFORMAT_BEGIN
 90
        5
170
     1
 91
        0
 92
        0
 62
   257
 93
        1
300
CONTENTFORMAT
  1
CONTENTFORMAT_BEGIN
 90
        0
 91
        0
 92
      512
 93
        0
300

 40
0.0
140
1.0
 94
        5
 62
     0
340
55
144
0.18
309
CONTENTFORMAT_END
171
     0
 94
        0
309
TABLEFORMAT_END
  1
CELLSTYLE_BEGIN
 90
        2
 91
        1
300
_HEADER
309
CELLSTYLE_END
300
CELLSTYLE
  1
TABLEFORMAT_BEGIN
 90
        5
170
     1
 91
        0
 92
        0
 62
   257
 93
        1
300
CONTENTFORMAT
  1
CONTENTFORMAT_BEGIN
 90
        0
 91
        0
 92
      512
 93
        0
300

 40
0.0
140
1.0
 94
        2
 62
     0
340
55
144
0.18
309
CONTENTFORMAT_END
171
     0
 94
        0
309
TABLEFORMAT_END
  1
CELLSTYLE_BEGIN
 90
        3
 91
        2
300
_DATA
309
CELLSTYLE_END
  0
XRECORD
  5
104
102
{ACAD_REACTORS
330
103
102
}
330
103
100
AcDbXrecord
280
     1
102
RTVSPost2010Prop28
280
     1
102
RTVSPost2010PropOp28
 70
     1
102
RTVSPost2010Prop29
280
     1
102
RTVSPost2010PropOp29
 70
     1
102
RTVSPost2010Prop30
280
     0
102
RTVSPost2010PropOp30
 70
     1
102
RTVSPost2010Prop31
280
     0
102
RTVSPost2010PropOp31
 70
     1
102
RTVSPost2010Prop32
280
     0
102
RTVSPost2010PropOp32
 70
     1
102
RTVSPost2010Prop33
280
     0
102
RTVSPost2010PropOp33
 70
     1
102
RTVSPost2010Prop34
280
     0
102
RTVSPost2010PropOp34
 70
     1
102
RTVSPost2010Prop35
280
     0
102
RTVSPost2010PropOp35
 70
     1
102
RTVSPost2010Prop36
280
     0
102
RTVSPost2010PropOp36
 70
     1
102
RTVSPost2010Prop37
 90
       50
102
RTVSPost2010PropOp37
 70
     1
102
RTVSPost2010Prop38
140
0.0
102
RTVSPost2010PropOp38
 70
     1
102
RTVSPost2010Prop39
140
1.0
102
RTVSPost2010PropOp39
 70
     1
102
RTVSPost2010Prop40
 90
        0
102
RTVSPost2010PropOp40
 70
     1
102
RTVSPost2010Prop41ColorIndex
 90
       18
102
RTVSPost2010Prop41ColorRGB
 90
        0
102
RTVSPost2010PropOp41
 70
     1
102
RTVSPost2010Prop42
 90
       50
102
RTVSPost2010PropOp42
 70
     1
102
RTVSPost2010Prop43
 90
        3
102
RTVSPost2010PropOp43
 70
     1
102
RTVSPost2010Prop44ColorIndex
 90
        5
102
RTVSPost2010Prop44ColorRGB
 90
      255
102
RTVSPost2010PropOp44
 70
     1
102
RTVSPost2010Prop45
280
     0
102
RTVSPost2010PropOp45
 70
     1
102
RTVSPost2010Prop46
 90
       50
102
RTVSPost2010PropOp46
 70
     1
102
RTVSPost2010Prop47
 90
       50
102
RTVSPost2010PropOp47
 70
     1
102
RTVSPost2010Prop48
 90
       50
102
RTVSPost2010PropOp48
 70
     1
102
RTVSPost2010Prop49
280
     0
102
RTVSPost2010PropOp49
 70
     1
102
RTVSPost2010Prop50
 90
       50
102
RTVSPost2010PropOp50
 70
     1
102
RTVSPost2010Prop51ColorIndex
 90
      256
102
RTVSPost2010Prop51ColorRGB
 90
-16777216
102
RTVSPost2010PropOp51
 70
     0
102
RTVSPost2010Prop52
140
1.0
102
RTVSPost2010PropOp52
 70
     0
102
RTVSPost2010Prop53
 90
        2
102
RTVSPost2010PropOp53
 70
     1
102
RTVSPost2010Prop54
  1
strokes_ogs.tif
102
RTVSPost2010PropOp54
 70
     1
102
RTVSPost2010Prop55
280
     0
102
RTVSPost2010PropOp55
 70
     1
102
RTVSPost2010Prop56
140
1.0
102
RTVSPost2010PropOp56
 70
     1
102
RTVSPost2010Prop57
140
1.0
102
RTVSPost2010PropOp57
 70
     1
  0
XRECORD
  5
102
102
{ACAD_REACTORS
330
101
102
}
330
101
100
AcDbXrecord
280
     1
102
RTVSPost2010Prop28
280
     0
102
RTVSPost2010PropOp28
 70
     1
102
RTVSPost2010Prop29
280
     1
102
RTVSPost2010PropOp29
 70
     1
102
RTVSPost2010Prop30
280
     1
102
RTVSPost2010PropOp30
 70
     1
102
RTVSPost2010Prop31
280
     0
102
RTVSPost2010PropOp31
 70
     1
102
RTVSPost2010Prop32
280
     0
102
RTVSPost2010PropOp32
 70
     1
102
RTVSPost2010Prop33
280
     0
102
RTVSPost2010PropOp33
 70
     1
102
RTVSPost2010Prop34
280
     0
102
RTVSPost2010PropOp34
 70
     1
102
RTVSPost2010Prop35
280
     0
102
RTVSPost2010PropOp35
 70
     1
102
RTVSPost2010Prop36
280
     0
102
RTVSPost2010PropOp36
 70
     1
102
RTVSPost2010Prop37
 90
       50
102
RTVSPost2010PropOp37
 70
     1
102
RTVSPost2010Prop38
140
0.0
102
RTVSPost2010PropOp38
 70
     1
102
RTVSPost2010Prop39
140
1.0
102
RTVSPost2010PropOp39
 70
     1
102
RTVSPost2010Prop40
 90
        0
102
RTVSPost2010PropOp40
 70
     1
102
RTVSPost2010Prop41ColorIndex
 90
       18
102
RTVSPost2010Prop41ColorRGB
 90
        0
102
RTVSPost2010PropOp41
 70
     1
102
RTVSPost2010Prop42
 90
       50
102
RTVSPost2010PropOp42
 70
     1
102
RTVSPost2010Prop43
 90
        3
102
RTVSPost2010PropOp43
 70
     1
102
RTVSPost2010Prop44ColorIndex
 90
        5
102
RTVSPost2010Prop44ColorRGB
 90
      255
102
RTVSPost2010PropOp44
 70
     1
102
RTVSPost2010Prop45
280
     0
102
RTVSPost2010PropOp45
 70
     1
102
RTVSPost2010Prop46
 90
       50
102
RTVSPost2010PropOp46
 70
     1
102
RTVSPost2010Prop47
 90
       50
102
RTVSPost2010PropOp47
 70
     1
102
RTVSPost2010Prop48
 90
       50
102
RTVSPost2010PropOp48
 70
     1
102
RTVSPost2010Prop49
280
     0
102
RTVSPost2010PropOp49
 70
     1
102
RTVSPost2010Prop50
 90
       50
102
RTVSPost2010PropOp50
 70
     1
102
RTVSPost2010Prop51ColorIndex
 90
      256
102
RTVSPost2010Prop51ColorRGB
 90
-16777216
102
RTVSPost2010PropOp51
 70
     0
102
RTVSPost2010Prop52
140
1.0
102
RTVSPost2010PropOp52
 70
     0
102
RTVSPost2010Prop53
 90
        2
102
RTVSPost2010PropOp53
 70
     1
102
RTVSPost2010Prop54
  1
strokes_ogs.tif
102
RTVSPost2010PropOp54
 70
     1
102
RTVSPost2010Prop55
280
     0
102
RTVSPost2010PropOp55
 70
     1
102
RTVSPost2010Prop56
140
1.0
102
RTVSPost2010PropOp56
 70
     1
102
RTVSPost2010Prop57
140
1.0
102
RTVSPost2010PropOp57
 70
     1
  0
XRECORD
  5
110
102
{ACAD_REACTORS
330
10F
102
}
330
10F
100
AcDbXrecord
280
     1
102
RTVSPost2010Prop28
280
     0
102
RTVSPost2010PropOp28
 70
     1
102
RTVSPost2010Prop29
280
     1
102
RTVSPost2010PropOp29
 70
     1
102
RTVSPost2010Prop30
280
     1
102
RTVSPost2010PropOp30
 70
     1
102
RTVSPost2010Prop31
280
     0
102
RTVSPost2010PropOp31
 70
     1
102
RTVSPost2010Prop32
280
     0
102
RTVSPost2010PropOp32
 70
     1
102
RTVSPost2010Prop33
280
     0
102
RTVSPost2010PropOp33
 70
     1
102
RTVSPost2010Prop34
280
     0
102
RTVSPost2010PropOp34
 70
     1
102
RTVSPost2010Prop35
280
     0
102
RTVSPost2010PropOp35
 70
     1
102
RTVSPost2010Prop36
280
     0
102
RTVSPost2010PropOp36
 70
     1
102
RTVSPost2010Prop37
 90
       50
102
RTVSPost2010PropOp37
 70
     1
102
RTVSPost2010Prop38
140
0.0
102
RTVSPost2010PropOp38
 70
     1
102
RTVSPost2010Prop39
140
1.0
102
RTVSPost2010PropOp39
 70
     1
102
RTVSPost2010Prop40
 90
        0
102
RTVSPost2010PropOp40
 70
     1
102
RTVSPost2010Prop41ColorIndex
 90
       18
102
RTVSPost2010Prop41ColorRGB
 90
        0
102
RTVSPost2010PropOp41
 70
     1
102
RTVSPost2010Prop42
 90
       50
102
RTVSPost2010PropOp42
 70
     1
102
RTVSPost2010Prop43
 90
        3
102
RTVSPost2010PropOp43
 70
     1
102
RTVSPost2010Prop44ColorIndex
 90
        5
102
RTVSPost2010Prop44ColorRGB
 90
      255
102
RTVSPost2010PropOp44
 70
     1
102
RTVSPost2010Prop45
280
     0
102
RTVSPost2010PropOp45
 70
     1
102
RTVSPost2010Prop46
 90
       50
102
RTVSPost2010PropOp46
 70
     1
102
RTVSPost2010Prop47
 90
       50
102
RTVSPost2010PropOp47
 70
     1
102
RTVSPost2010Prop48
 90
       50
102
RTVSPost2010PropOp48
 70
     1
102
RTVSPost2010Prop49
280
     0
102
RTVSPost2010PropOp49
 70
     1
102
RTVSPost2010Prop50
 90
       50
102
RTVSPost2010PropOp50
 70
     1
102
RTVSPost2010Prop51ColorIndex
 90
      256
102
RTVSPost2010Prop51ColorRGB
 90
-16777216
102
RTVSPost2010PropOp51
 70
     0
102
RTVSPost2010Prop52
140
1.0
102
RTVSPost2010PropOp52
 70
     0
102
RTVSPost2010Prop53
 90
        2
102
RTVSPost2010PropOp53
 70
     1
102
RTVSPost2010Prop54
  1
strokes_ogs.tif
102
RTVSPost2010PropOp54
 70
     1
102
RTVSPost2010Prop55
280
     0
102
RTVSPost2010PropOp55
 70
     1
102
RTVSPost2010Prop56
140
1.0
102
RTVSPost2010PropOp56
 70
     1
102
RTVSPost2010Prop57
140
1.0
102
RTVSPost2010PropOp57
 70
     1
  0
XRECORD
  5
118
102
{ACAD_REACTORS
330
117
102
}
330
117
100
AcDbXrecord
280
     1
102
RTVSPost2010Prop28
280
     0
102
RTVSPost2010PropOp28
 70
     1
102
RTVSPost2010Prop29
280
     1
102
RTVSPost2010PropOp29
 70
     1
102
RTVSPost2010Prop30
280
     1
102
RTVSPost2010PropOp30
 70
     1
102
RTVSPost2010Prop31
280
     0
102
RTVSPost2010PropOp31
 70
     1
102
RTVSPost2010Prop32
280
     0
102
RTVSPost2010PropOp32
 70
     1
102
RTVSPost2010Prop33
280
     0
102
RTVSPost2010PropOp33
 70
     1
102
RTVSPost2010Prop34
280
     0
102
RTVSPost2010PropOp34
 70
     1
102
RTVSPost2010Prop35
280
     0
102
RTVSPost2010PropOp35
 70
     1
102
RTVSPost2010Prop36
280
     0
102
RTVSPost2010PropOp36
 70
     1
102
RTVSPost2010Prop37
 90
       50
102
RTVSPost2010PropOp37
 70
     1
102
RTVSPost2010Prop38
140
0.0
102
RTVSPost2010PropOp38
 70
     1
102
RTVSPost2010Prop39
140
1.0
102
RTVSPost2010PropOp39
 70
     1
102
RTVSPost2010Prop40
 90
        0
102
RTVSPost2010PropOp40
 70
     1
102
RTVSPost2010Prop41ColorIndex
 90
       18
102
RTVSPost2010Prop41ColorRGB
 90
        0
102
RTVSPost2010PropOp41
 70
     1
102
RTVSPost2010Prop42
 90
       50
102
RTVSPost2010PropOp42
 70
     1
102
RTVSPost2010Prop43
 90
        3
102
RTVSPost2010PropOp43
 70
     1
102
RTVSPost2010Prop44ColorIndex
 90
        5
102
RTVSPost2010Prop44ColorRGB
 90
      255
102
RTVSPost2010PropOp44
 70
     1
102
RTVSPost2010Prop45
280
     0
102
RTVSPost2010PropOp45
 70
     1
102
RTVSPost2010Prop46
 90
       50
102
RTVSPost2010PropOp46
 70
     1
102
RTVSPost2010Prop47
 90
       50
102
RTVSPost2010PropOp47
 70
     1
102
RTVSPost2010Prop48
 90
       50
102
RTVSPost2010PropOp48
 70
     1
102
RTVSPost2010Prop49
280
     0
102
RTVSPost2010PropOp49
 70
     1
102
RTVSPost2010Prop50
 90
       50
102
RTVSPost2010PropOp50
 70
     1
102
RTVSPost2010Prop51ColorIndex
 90
      256
102
RTVSPost2010Prop51ColorRGB
 90
-16777216
102
RTVSPost2010PropOp51
 70
     0
102
RTVSPost2010Prop52
140
1.0
102
RTVSPost2010PropOp52
 70
     0
102
RTVSPost2010Prop53
 90
        2
102
RTVSPost2010PropOp53
 70
     1
102
RTVSPost2010Prop54
  1
strokes_ogs.tif
102
RTVSPost2010PropOp54
 70
     1
102
RTVSPost2010Prop55
280
     0
102
RTVSPost2010PropOp55
 70
     1
102
RTVSPost2010Prop56
140
1.0
102
RTVSPost2010PropOp56
 70
     1
102
RTVSPost2010Prop57
140
1.0
102
RTVSPost2010PropOp57
 70
     1
  0
XRECORD
  5
10A
102
{ACAD_REACTORS
330
109
102
}
330
109
100
AcDbXrecord
280
     1
102
RTVSPost2010Prop28
280
     0
102
RTVSPost2010PropOp28
 70
     1
102
RTVSPost2010Prop29
280
     1
102
RTVSPost2010PropOp29
 70
     1
102
RTVSPost2010Prop30
280
     1
102
RTVSPost2010PropOp30
 70
     1
102
RTVSPost2010Prop31
280
     0
102
RTVSPost2010PropOp31
 70
     1
102
RTVSPost2010Prop32
280
     0
102
RTVSPost2010PropOp32
 70
     1
102
RTVSPost2010Prop33
280
     0
102
RTVSPost2010PropOp33
 70
     1
102
RTVSPost2010Prop34
280
     0
102
RTVSPost2010PropOp34
 70
     1
102
RTVSPost2010Prop35
280
     0
102
RTVSPost2010PropOp35
 70
     1
102
RTVSPost2010Prop36
280
     0
102
RTVSPost2010PropOp36
 70
     1
102
RTVSPost2010Prop37
 90
       50
102
RTVSPost2010PropOp37
 70
     1
102
RTVSPost2010Prop38
140
0.0
102
RTVSPost2010PropOp38
 70
     1
102
RTVSPost2010Prop39
140
1.0
102
RTVSPost2010PropOp39
 70
     1
102
RTVSPost2010Prop40
 90
        0
102
RTVSPost2010PropOp40
 70
     1
102
RTVSPost2010Prop41ColorIndex
 90
       18
102
RTVSPost2010Prop41ColorRGB
 90
        0
102
RTVSPost2010PropOp41
 70
     1
102
RTVSPost2010Prop42
 90
       50
102
RTVSPost2010PropOp42
 70
     1
102
RTVSPost2010Prop43
 90
        3
102
RTVSPost2010PropOp43
 70
     1
102
RTVSPost2010Prop44ColorIndex
 90
        5
102
RTVSPost2010Prop44ColorRGB
 90
      255
102
RTVSPost2010PropOp44
 70
     1
102
RTVSPost2010Prop45
280
     0
102
RTVSPost2010PropOp45
 70
     1
102
RTVSPost2010Prop46
 90
       50
102
RTVSPost2010PropOp46
 70
     1
102
RTVSPost2010Prop47
 90
       50
102
RTVSPost2010PropOp47
 70
     1
102
RTVSPost2010Prop48
 90
       50
102
RTVSPost2010PropOp48
 70
     1
102
RTVSPost2010Prop49
280
     0
102
RTVSPost2010PropOp49
 70
     1
102
RTVSPost2010Prop50
 90
       50
102
RTVSPost2010PropOp50
 70
     1
102
RTVSPost2010Prop51ColorIndex
 90
      256
102
RTVSPost2010Prop51ColorRGB
 90
-16777216
102
RTVSPost2010PropOp51
 70
     0
102
RTVSPost2010Prop52
140
1.0
102
RTVSPost2010PropOp52
 70
     0
102
RTVSPost2010Prop53
 90
        2
102
RTVSPost2010PropOp53
 70
     1
102
RTVSPost2010Prop54
  1
strokes_ogs.tif
102
RTVSPost2010PropOp54
 70
     1
102
RTVSPost2010Prop55
280
     0
102
RTVSPost2010PropOp55
 70
     1
102
RTVSPost2010Prop56
140
1.0
102
RTVSPost2010PropOp56
 70
     1
102
RTVSPost2010Prop57
140
1.0
102
RTVSPost2010PropOp57
 70
     1
  0
XRECORD
  5
10E
102
{ACAD_REACTORS
330
10D
102
}
330
10D
100
AcDbXrecord
280
     1
102
RTVSPost2010Prop28
280
     0
102
RTVSPost2010PropOp28
 70
     1
102
RTVSPost2010Prop29
280
     1
102
RTVSPost2010PropOp29
 70
     1
102
RTVSPost2010Prop30
280
     1
102
RTVSPost2010PropOp30
 70
     1
102
RTVSPost2010Prop31
280
     0
102
RTVSPost2010PropOp31
 70
     1
102
RTVSPost2010Prop32
280
     0
102
RTVSPost2010PropOp32
 70
     1
102
RTVSPost2010Prop33
280
     0
102
RTVSPost2010PropOp33
 70
     1
102
RTVSPost2010Prop34
280
     0
102
RTVSPost2010PropOp34
 70
     1
102
RTVSPost2010Prop35
280
     0
102
RTVSPost2010PropOp35
 70
     1
102
RTVSPost2010Prop36
280
     0
102
RTVSPost2010PropOp36
 70
     1
102
RTVSPost2010Prop37
 90
       50
102
RTVSPost2010PropOp37
 70
     1
102
RTVSPost2010Prop38
140
0.0
102
RTVSPost2010PropOp38
 70
     1
102
RTVSPost2010Prop39
140
1.0
102
RTVSPost2010PropOp39
 70
     1
102
RTVSPost2010Prop40
 90
        0
102
RTVSPost2010PropOp40
 70
     1
102
RTVSPost2010Prop41ColorIndex
 90
       18
102
RTVSPost2010Prop41ColorRGB
 90
        0
102
RTVSPost2010PropOp41
 70
     1
102
RTVSPost2010Prop42
 90
       50
102
RTVSPost2010PropOp42
 70
     1
102
RTVSPost2010Prop43
 90
        3
102
RTVSPost2010PropOp43
 70
     1
102
RTVSPost2010Prop44ColorIndex
 90
        5
102
RTVSPost2010Prop44ColorRGB
 90
      255
102
RTVSPost2010PropOp44
 70
     1
102
RTVSPost2010Prop45
280
     0
102
RTVSPost2010PropOp45
 70
     1
102
RTVSPost2010Prop46
 90
       50
102
RTVSPost2010PropOp46
 70
     1
102
RTVSPost2010Prop47
 90
       50
102
RTVSPost2010PropOp47
 70
     1
102
RTVSPost2010Prop48
 90
       50
102
RTVSPost2010PropOp48
 70
     1
102
RTVSPost2010Prop49
280
     0
102
RTVSPost2010PropOp49
 70
     1
102
RTVSPost2010Prop50
 90
       50
102
RTVSPost2010PropOp50
 70
     1
102
RTVSPost2010Prop51ColorIndex
 90
      256
102
RTVSPost2010Prop51ColorRGB
 90
-16777216
102
RTVSPost2010PropOp51
 70
     0
102
RTVSPost2010Prop52
140
1.0
102
RTVSPost2010PropOp52
 70
     0
102
RTVSPost2010Prop53
 90
        2
102
RTVSPost2010PropOp53
 70
     1
102
RTVSPost2010Prop54
  1
strokes_ogs.tif
102
RTVSPost2010PropOp54
 70
     1
102
RTVSPost2010Prop55
280
     0
102
RTVSPost2010PropOp55
 70
     1
102
RTVSPost2010Prop56
140
1.0
102
RTVSPost2010PropOp56
 70
     1
102
RTVSPost2010Prop57
140
1.0
102
RTVSPost2010PropOp57
 70
     1
  0
XRECORD
  5
128
102
{ACAD_REACTORS
330
127
102
}
330
127
100
AcDbXrecord
280
     1
102
RTVSPost2010Prop28
280
     0
102
RTVSPost2010PropOp28
 70
     0
102
RTVSPost2010Prop29
280
     1
102
RTVSPost2010PropOp29
 70
     0
102
RTVSPost2010Prop30
280
     1
102
RTVSPost2010PropOp30
 70
     0
102
RTVSPost2010Prop31
280
     0
102
RTVSPost2010PropOp31
 70
     0
102
RTVSPost2010Prop32
280
     0
102
RTVSPost2010PropOp32
 70
     0
102
RTVSPost2010Prop33
280
     0
102
RTVSPost2010PropOp33
 70
     0
102
RTVSPost2010Prop34
280
     0
102
RTVSPost2010PropOp34
 70
     0
102
RTVSPost2010Prop35
280
     0
102
RTVSPost2010PropOp35
 70
     0
102
RTVSPost2010Prop36
280
     0
102
RTVSPost2010PropOp36
 70
     0
102
RTVSPost2010Prop37
 90
       50
102
RTVSPost2010PropOp37
 70
     0
102
RTVSPost2010Prop38
140
0.0
102
RTVSPost2010PropOp38
 70
     0
102
RTVSPost2010Prop39
140
1.0
102
RTVSPost2010PropOp39
 70
     0
102
RTVSPost2010Prop40
 90
        0
102
RTVSPost2010PropOp40
 70
     0
102
RTVSPost2010Prop41ColorIndex
 90
       18
102
RTVSPost2010Prop41ColorRGB
 90
        0
102
RTVSPost2010PropOp41
 70
     0
102
RTVSPost2010Prop42
 90
       50
102
RTVSPost2010PropOp42
 70
     0
102
RTVSPost2010Prop43
 90
        3
102
RTVSPost2010PropOp43
 70
     0
102
RTVSPost2010Prop44ColorIndex
 90
        5
102
RTVSPost2010Prop44ColorRGB
 90
      255
102
RTVSPost2010PropOp44
 70
     0
102
RTVSPost2010Prop45
280
     0
102
RTVSPost2010PropOp45
 70
     0
102
RTVSPost2010Prop46
 90
       50
102
RTVSPost2010PropOp46
 70
     0
102
RTVSPost2010Prop47
 90
       50
102
RTVSPost2010PropOp47
 70
     0
102
RTVSPost2010Prop48
 90
       50
102
RTVSPost2010PropOp48
 70
     0
102
RTVSPost2010Prop49
280
     0
102
RTVSPost2010PropOp49
 70
     0
102
RTVSPost2010Prop50
 90
       50
102
RTVSPost2010PropOp50
 70
     0
102
RTVSPost2010Prop51ColorIndex
 90
      256
102
RTVSPost2010Prop51ColorRGB
 90
-16777216
102
RTVSPost2010PropOp51
 70
     0
102
RTVSPost2010Prop52
140
1.0
102
RTVSPost2010PropOp52
 70
     0
102
RTVSPost2010Prop53
 90
        2
102
RTVSPost2010PropOp53
 70
     0
102
RTVSPost2010Prop54
  1
strokes_ogs.tif
102
RTVSPost2010PropOp54
 70
     0
102
RTVSPost2010Prop55
280
     0
102
RTVSPost2010PropOp55
 70
     0
102
RTVSPost2010Prop56
140
1.0
102
RTVSPost2010PropOp56
 70
     0
102
RTVSPost2010Prop57
140
1.0
102
RTVSPost2010PropOp57
 70
     0
  0
XRECORD
  5
116
102
{ACAD_REACTORS
330
115
102
}
330
115
100
AcDbXrecord
280
     1
102
RTVSPost2010Prop28
280
     0
102
RTVSPost2010PropOp28
 70
     1
102
RTVSPost2010Prop29
280
     1
102
RTVSPost2010PropOp29
 70
     1
102
RTVSPost2010Prop30
280
     1
102
RTVSPost2010PropOp30
 70
     1
102
RTVSPost2010Prop31
280
     0
102
RTVSPost2010PropOp31
 70
     1
102
RTVSPost2010Prop32
280
     0
102
RTVSPost2010PropOp32
 70
     1
102
RTVSPost2010Prop33
280
     0
102
RTVSPost2010PropOp33
 70
     1
102
RTVSPost2010Prop34
280
     0
102
RTVSPost2010PropOp34
 70
     1
102
RTVSPost2010Prop35
280
     0
102
RTVSPost2010PropOp35
 70
     1
102
RTVSPost2010Prop36
280
     0
102
RTVSPost2010PropOp36
 70
     1
102
RTVSPost2010Prop37
 90
       50
102
RTVSPost2010PropOp37
 70
     1
102
RTVSPost2010Prop38
140
0.0
102
RTVSPost2010PropOp38
 70
     1
102
RTVSPost2010Prop39
140
1.0
102
RTVSPost2010PropOp39
 70
     1
102
RTVSPost2010Prop40
 90
        0
102
RTVSPost2010PropOp40
 70
     1
102
RTVSPost2010Prop41ColorIndex
 90
       18
102
RTVSPost2010Prop41ColorRGB
 90
        0
102
RTVSPost2010PropOp41
 70
     1
102
RTVSPost2010Prop42
 90
       50
102
RTVSPost2010PropOp42
 70
     1
102
RTVSPost2010Prop43
 90
        3
102
RTVSPost2010PropOp43
 70
     1
102
RTVSPost2010Prop44ColorIndex
 90
        5
102
RTVSPost2010Prop44ColorRGB
 90
      255
102
RTVSPost2010PropOp44
 70
     1
102
RTVSPost2010Prop45
280
     0
102
RTVSPost2010PropOp45
 70
     1
102
RTVSPost2010Prop46
 90
       50
102
RTVSPost2010PropOp46
 70
     1
102
RTVSPost2010Prop47
 90
       50
102
RTVSPost2010PropOp47
 70
     1
102
RTVSPost2010Prop48
 90
       50
102
RTVSPost2010PropOp48
 70
     1
102
RTVSPost2010Prop49
280
     0
102
RTVSPost2010PropOp49
 70
     1
102
RTVSPost2010Prop50
 90
       50
102
RTVSPost2010PropOp50
 70
     1
102
RTVSPost2010Prop51ColorIndex
 90
      256
102
RTVSPost2010Prop51ColorRGB
 90
-16777216
102
RTVSPost2010PropOp51
 70
     0
102
RTVSPost2010Prop52
140
1.0
102
RTVSPost2010PropOp52
 70
     0
102
RTVSPost2010Prop53
 90
        2
102
RTVSPost2010PropOp53
 70
     1
102
RTVSPost2010Prop54
  1
strokes_ogs.tif
102
RTVSPost2010PropOp54
 70
     1
102
RTVSPost2010Prop55
280
     0
102
RTVSPost2010PropOp55
 70
     1
102
RTVSPost2010Prop56
140
1.0
102
RTVSPost2010PropOp56
 70
     1
102
RTVSPost2010Prop57
140
1.0
102
RTVSPost2010PropOp57
 70
     1
  0
XRECORD
  5
FA
102
{ACAD_REACTORS
330
F9
102
}
330
F9
100
AcDbXrecord
280
     1
102
RTVSPost2010Prop28
280
     0
102
RTVSPost2010PropOp28
 70
     1
102
RTVSPost2010Prop29
280
     1
102
RTVSPost2010PropOp29
 70
     1
102
RTVSPost2010Prop30
280
     1
102
RTVSPost2010PropOp30
 70
     1
102
RTVSPost2010Prop31
280
     0
102
RTVSPost2010PropOp31
 70
     1
102
RTVSPost2010Prop32
280
     0
102
RTVSPost2010PropOp32
 70
     1
102
RTVSPost2010Prop33
280
     0
102
RTVSPost2010PropOp33
 70
     1
102
RTVSPost2010Prop34
280
     0
102
RTVSPost2010PropOp34
 70
     1
102
RTVSPost2010Prop35
280
     0
102
RTVSPost2010PropOp35
 70
     1
102
RTVSPost2010Prop36
280
     0
102
RTVSPost2010PropOp36
 70
     1
102
RTVSPost2010Prop37
 90
       50
102
RTVSPost2010PropOp37
 70
     1
102
RTVSPost2010Prop38
140
0.0
102
RTVSPost2010PropOp38
 70
     1
102
RTVSPost2010Prop39
140
1.0
102
RTVSPost2010PropOp39
 70
     1
102
RTVSPost2010Prop40
 90
        0
102
RTVSPost2010PropOp40
 70
     1
102
RTVSPost2010Prop41ColorIndex
 90
       18
102
RTVSPost2010Prop41ColorRGB
 90
        0
102
RTVSPost2010PropOp41
 70
     1
102
RTVSPost2010Prop42
 90
       50
102
RTVSPost2010PropOp42
 70
     1
102
RTVSPost2010Prop43
 90
        3
102
RTVSPost2010PropOp43
 70
     1
102
RTVSPost2010Prop44ColorIndex
 90
        5
102
RTVSPost2010Prop44ColorRGB
 90
      255
102
RTVSPost2010PropOp44
 70
     1
102
RTVSPost2010Prop45
280
     0
102
RTVSPost2010PropOp45
 70
     1
102
RTVSPost2010Prop46
 90
       50
102
RTVSPost2010PropOp46
 70
     1
102
RTVSPost2010Prop47
 90
       50
102
RTVSPost2010PropOp47
 70
     1
102
RTVSPost2010Prop48
 90
       50
102
RTVSPost2010PropOp48
 70
     1
102
RTVSPost2010Prop49
280
     0
102
RTVSPost2010PropOp49
 70
     1
102
RTVSPost2010Prop50
 90
       50
102
RTVSPost2010PropOp50
 70
     1
102
RTVSPost2010Prop51ColorIndex
 90
      256
102
RTVSPost2010Prop51ColorRGB
 90
-16777216
102
RTVSPost2010PropOp51
 70
     0
102
RTVSPost2010Prop52
140
1.0
102
RTVSPost2010PropOp52
 70
     0
102
RTVSPost2010Prop53
 90
        2
102
RTVSPost2010PropOp53
 70
     1
102
RTVSPost2010Prop54
  1
strokes_ogs.tif
102
RTVSPost2010PropOp54
 70
     1
102
RTVSPost2010Prop55
280
     0
102
RTVSPost2010PropOp55
 70
     1
102
RTVSPost2010Prop56
140
1.0
102
RTVSPost2010PropOp56
 70
     1
102
RTVSPost2010Prop57
140
1.0
102
RTVSPost2010PropOp57
 70
     1
  0
XRECORD
  5
FC
102
{ACAD_REACTORS
330
FB
102
}
330
FB
100
AcDbXrecord
280
     1
102
RTVSPost2010Prop28
280
     0
102
RTVSPost2010PropOp28
 70
     1
102
RTVSPost2010Prop29
280
     1
102
RTVSPost2010PropOp29
 70
     1
102
RTVSPost2010Prop30
280
     1
102
RTVSPost2010PropOp30
 70
     1
102
RTVSPost2010Prop31
280
     0
102
RTVSPost2010PropOp31
 70
     1
102
RTVSPost2010Prop32
280
     0
102
RTVSPost2010PropOp32
 70
     1
102
RTVSPost2010Prop33
280
     0
102
RTVSPost2010PropOp33
 70
     1
102
RTVSPost2010Prop34
280
     0
102
RTVSPost2010PropOp34
 70
     1
102
RTVSPost2010Prop35
280
     0
102
RTVSPost2010PropOp35
 70
     1
102
RTVSPost2010Prop36
280
     0
102
RTVSPost2010PropOp36
 70
     1
102
RTVSPost2010Prop37
 90
       50
102
RTVSPost2010PropOp37
 70
     1
102
RTVSPost2010Prop38
140
0.0
102
RTVSPost2010PropOp38
 70
     1
102
RTVSPost2010Prop39
140
1.0
102
RTVSPost2010PropOp39
 70
     1
102
RTVSPost2010Prop40
 90
        0
102
RTVSPost2010PropOp40
 70
     1
102
RTVSPost2010Prop41ColorIndex
 90
       18
102
RTVSPost2010Prop41ColorRGB
 90
        0
102
RTVSPost2010PropOp41
 70
     1
102
RTVSPost2010Prop42
 90
       50
102
RTVSPost2010PropOp42
 70
     1
102
RTVSPost2010Prop43
 90
        3
102
RTVSPost2010PropOp43
 70
     1
102
RTVSPost2010Prop44ColorIndex
 90
        5
102
RTVSPost2010Prop44ColorRGB
 90
      255
102
RTVSPost2010PropOp44
 70
     1
102
RTVSPost2010Prop45
280
     0
102
RTVSPost2010PropOp45
 70
     1
102
RTVSPost2010Prop46
 90
       50
102
RTVSPost2010PropOp46
 70
     1
102
RTVSPost2010Prop47
 90
       50
102
RTVSPost2010PropOp47
 70
     1
102
RTVSPost2010Prop48
 90
       50
102
RTVSPost2010PropOp48
 70
     1
102
RTVSPost2010Prop49
280
     0
102
RTVSPost2010PropOp49
 70
     1
102
RTVSPost2010Prop50
 90
       50
102
RTVSPost2010PropOp50
 70
     1
102
RTVSPost2010Prop51ColorIndex
 90
      256
102
RTVSPost2010Prop51ColorRGB
 90
-16777216
102
RTVSPost2010PropOp51
 70
     0
102
RTVSPost2010Prop52
140
1.0
102
RTVSPost2010PropOp52
 70
     0
102
RTVSPost2010Prop53
 90
        2
102
RTVSPost2010PropOp53
 70
     1
102
RTVSPost2010Prop54
  1
strokes_ogs.tif
102
RTVSPost2010PropOp54
 70
     1
102
RTVSPost2010Prop55
280
     0
102
RTVSPost2010PropOp55
 70
     1
102
RTVSPost2010Prop56
140
1.0
102
RTVSPost2010PropOp56
 70
     1
102
RTVSPost2010Prop57
140
1.0
102
RTVSPost2010PropOp57
 70
     1
  0
XRECORD
  5
FE
102
{ACAD_REACTORS
330
FD
102
}
330
FD
100
AcDbXrecord
280
     1
102
RTVSPost2010Prop28
280
     0
102
RTVSPost2010PropOp28
 70
     1
102
RTVSPost2010Prop29
280
     1
102
RTVSPost2010PropOp29
 70
     1
102
RTVSPost2010Prop30
280
     1
102
RTVSPost2010PropOp30
 70
     1
102
RTVSPost2010Prop31
280
     0
102
RTVSPost2010PropOp31
 70
     1
102
RTVSPost2010Prop32
280
     0
102
RTVSPost2010PropOp32
 70
     1
102
RTVSPost2010Prop33
280
     0
102
RTVSPost2010PropOp33
 70
     1
102
RTVSPost2010Prop34
280
     0
102
RTVSPost2010PropOp34
 70
     1
102
RTVSPost2010Prop35
280
     0
102
RTVSPost2010PropOp35
 70
     1
102
RTVSPost2010Prop36
280
     0
102
RTVSPost2010PropOp36
 70
     1
102
RTVSPost2010Prop37
 90
       50
102
RTVSPost2010PropOp37
 70
     1
102
RTVSPost2010Prop38
140
0.0
102
RTVSPost2010PropOp38
 70
     1
102
RTVSPost2010Prop39
140
1.0
102
RTVSPost2010PropOp39
 70
     1
102
RTVSPost2010Prop40
 90
        0
102
RTVSPost2010PropOp40
 70
     1
102
RTVSPost2010Prop41ColorIndex
 90
       18
102
RTVSPost2010Prop41ColorRGB
 90
        0
102
RTVSPost2010PropOp41
 70
     1
102
RTVSPost2010Prop42
 90
       50
102
RTVSPost2010PropOp42
 70
     1
102
RTVSPost2010Prop43
 90
        3
102
RTVSPost2010PropOp43
 70
     1
102
RTVSPost2010Prop44ColorIndex
 90
        5
102
RTVSPost2010Prop44ColorRGB
 90
      255
102
RTVSPost2010PropOp44
 70
     1
102
RTVSPost2010Prop45
280
     0
102
RTVSPost2010PropOp45
 70
     1
102
RTVSPost2010Prop46
 90
       50
102
RTVSPost2010PropOp46
 70
     1
102
RTVSPost2010Prop47
 90
       50
102
RTVSPost2010PropOp47
 70
     1
102
RTVSPost2010Prop48
 90
       50
102
RTVSPost2010PropOp48
 70
     1
102
RTVSPost2010Prop49
280
     0
102
RTVSPost2010PropOp49
 70
     1
102
RTVSPost2010Prop50
 90
       50
102
RTVSPost2010PropOp50
 70
     1
102
RTVSPost2010Prop51ColorIndex
 90
      256
102
RTVSPost2010Prop51ColorRGB
 90
-16777216
102
RTVSPost2010PropOp51
 70
     0
102
RTVSPost2010Prop52
140
1.0
102
RTVSPost2010PropOp52
 70
     0
102
RTVSPost2010Prop53
 90
        2
102
RTVSPost2010PropOp53
 70
     1
102
RTVSPost2010Prop54
  1
strokes_ogs.tif
102
RTVSPost2010PropOp54
 70
     1
102
RTVSPost2010Prop55
280
     0
102
RTVSPost2010PropOp55
 70
     1
102
RTVSPost2010Prop56
140
1.0
102
RTVSPost2010PropOp56
 70
     1
102
RTVSPost2010Prop57
140
1.0
102
RTVSPost2010PropOp57
 70
     1
  0
XRECORD
  5
100
102
{ACAD_REACTORS
330
FF
102
}
330
FF
100
AcDbXrecord
280
     1
102
RTVSPost2010Prop28
280
     0
102
RTVSPost2010PropOp28
 70
     1
102
RTVSPost2010Prop29
280
     1
102
RTVSPost2010PropOp29
 70
     1
102
RTVSPost2010Prop30
280
     1
102
RTVSPost2010PropOp30
 70
     1
102
RTVSPost2010Prop31
280
     0
102
RTVSPost2010PropOp31
 70
     1
102
RTVSPost2010Prop32
280
     0
102
RTVSPost2010PropOp32
 70
     1
102
RTVSPost2010Prop33
280
     0
102
RTVSPost2010PropOp33
 70
     1
102
RTVSPost2010Prop34
280
     0
102
RTVSPost2010PropOp34
 70
     1
102
RTVSPost2010Prop35
280
     0
102
RTVSPost2010PropOp35
 70
     1
102
RTVSPost2010Prop36
280
     0
102
RTVSPost2010PropOp36
 70
     1
102
RTVSPost2010Prop37
 90
       50
102
RTVSPost2010PropOp37
 70
     1
102
RTVSPost2010Prop38
140
0.0
102
RTVSPost2010PropOp38
 70
     1
102
RTVSPost2010Prop39
140
1.0
102
RTVSPost2010PropOp39
 70
     1
102
RTVSPost2010Prop40
 90
        0
102
RTVSPost2010PropOp40
 70
     1
102
RTVSPost2010Prop41ColorIndex
 90
       18
102
RTVSPost2010Prop41ColorRGB
 90
        0
102
RTVSPost2010PropOp41
 70
     1
102
RTVSPost2010Prop42
 90
       50
102
RTVSPost2010PropOp42
 70
     1
102
RTVSPost2010Prop43
 90
        3
102
RTVSPost2010PropOp43
 70
     1
102
RTVSPost2010Prop44ColorIndex
 90
        5
102
RTVSPost2010Prop44ColorRGB
 90
      255
102
RTVSPost2010PropOp44
 70
     1
102
RTVSPost2010Prop45
280
     0
102
RTVSPost2010PropOp45
 70
     1
102
RTVSPost2010Prop46
 90
       50
102
RTVSPost2010PropOp46
 70
     1
102
RTVSPost2010Prop47
 90
       50
102
RTVSPost2010PropOp47
 70
     1
102
RTVSPost2010Prop48
 90
       50
102
RTVSPost2010PropOp48
 70
     1
102
RTVSPost2010Prop49
280
     0
102
RTVSPost2010PropOp49
 70
     1
102
RTVSPost2010Prop50
 90
       50
102
RTVSPost2010PropOp50
 70
     1
102
RTVSPost2010Prop51ColorIndex
 90
      256
102
RTVSPost2010Prop51ColorRGB
 90
-16777216
102
RTVSPost2010PropOp51
 70
     0
102
RTVSPost2010Prop52
140
1.0
102
RTVSPost2010PropOp52
 70
     0
102
RTVSPost2010Prop53
 90
        2
102
RTVSPost2010PropOp53
 70
     1
102
RTVSPost2010Prop54
  1
strokes_ogs.tif
102
RTVSPost2010PropOp54
 70
     1
102
RTVSPost2010Prop55
280
     0
102
RTVSPost2010PropOp55
 70
     1
102
RTVSPost2010Prop56
140
1.0
102
RTVSPost2010PropOp56
 70
     1
102
RTVSPost2010Prop57
140
1.0
102
RTVSPost2010PropOp57
 70
     1
  0
XRECORD
  5
108
102
{ACAD_REACTORS
330
107
102
}
330
107
100
AcDbXrecord
280
     1
102
RTVSPost2010Prop28
280
     0
102
RTVSPost2010PropOp28
 70
     1
102
RTVSPost2010Prop29
280
     1
102
RTVSPost2010PropOp29
 70
     1
102
RTVSPost2010Prop30
280
     1
102
RTVSPost2010PropOp30
 70
     1
102
RTVSPost2010Prop31
280
     0
102
RTVSPost2010PropOp31
 70
     1
102
RTVSPost2010Prop32
280
     0
102
RTVSPost2010PropOp32
 70
     1
102
RTVSPost2010Prop33
280
     0
102
RTVSPost2010PropOp33
 70
     1
102
RTVSPost2010Prop34
280
     0
102
RTVSPost2010PropOp34
 70
     1
102
RTVSPost2010Prop35
280
     0
102
RTVSPost2010PropOp35
 70
     1
102
RTVSPost2010Prop36
280
     0
102
RTVSPost2010PropOp36
 70
     1
102
RTVSPost2010Prop37
 90
       50
102
RTVSPost2010PropOp37
 70
     1
102
RTVSPost2010Prop38
140
0.0
102
RTVSPost2010PropOp38
 70
     1
102
RTVSPost2010Prop39
140
1.0
102
RTVSPost2010PropOp39
 70
     1
102
RTVSPost2010Prop40
 90
        0
102
RTVSPost2010PropOp40
 70
     1
102
RTVSPost2010Prop41ColorIndex
 90
       18
102
RTVSPost2010Prop41ColorRGB
 90
        0
102
RTVSPost2010PropOp41
 70
     1
102
RTVSPost2010Prop42
 90
       50
102
RTVSPost2010PropOp42
 70
     1
102
RTVSPost2010Prop43
 90
        3
102
RTVSPost2010PropOp43
 70
     1
102
RTVSPost2010Prop44ColorIndex
 90
        5
102
RTVSPost2010Prop44ColorRGB
 90
      255
102
RTVSPost2010PropOp44
 70
     1
102
RTVSPost2010Prop45
280
     0
102
RTVSPost2010PropOp45
 70
     1
102
RTVSPost2010Prop46
 90
       50
102
RTVSPost2010PropOp46
 70
     1
102
RTVSPost2010Prop47
 90
       50
102
RTVSPost2010PropOp47
 70
     1
102
RTVSPost2010Prop48
 90
       50
102
RTVSPost2010PropOp48
 70
     1
102
RTVSPost2010Prop49
280
     0
102
RTVSPost2010PropOp49
 70
     1
102
RTVSPost2010Prop50
 90
       50
102
RTVSPost2010PropOp50
 70
     1
102
RTVSPost2010Prop51ColorIndex
 90
      256
102
RTVSPost2010Prop51ColorRGB
 90
-16777216
102
RTVSPost2010PropOp51
 70
     0
102
RTVSPost2010Prop52
140
1.0
102
RTVSPost2010PropOp52
 70
     0
102
RTVSPost2010Prop53
 90
        2
102
RTVSPost2010PropOp53
 70
     1
102
RTVSPost2010Prop54
  1
strokes_ogs.tif
102
RTVSPost2010PropOp54
 70
     1
102
RTVSPost2010Prop55
280
     0
102
RTVSPost2010PropOp55
 70
     1
102
RTVSPost2010Prop56
140
1.0
102
RTVSPost2010PropOp56
 70
     1
102
RTVSPost2010Prop57
140
1.0
102
RTVSPost2010PropOp57
 70
     1
  0
XRECORD
  5
124
102
{ACAD_REACTORS
330
123
102
}
330
123
100
AcDbXrecord
280
     1
102
RTVSPost2010Prop28
280
     0
102
RTVSPost2010PropOp28
 70
     0
102
RTVSPost2010Prop29
280
     1
102
RTVSPost2010PropOp29
 70
     0
102
RTVSPost2010Prop30
280
     1
102
RTVSPost2010PropOp30
 70
     0
102
RTVSPost2010Prop31
280
     0
102
RTVSPost2010PropOp31
 70
     0
102
RTVSPost2010Prop32
280
     0
102
RTVSPost2010PropOp32
 70
     0
102
RTVSPost2010Prop33
280
     0
102
RTVSPost2010PropOp33
 70
     0
102
RTVSPost2010Prop34
280
     0
102
RTVSPost2010PropOp34
 70
     0
102
RTVSPost2010Prop35
280
     0
102
RTVSPost2010PropOp35
 70
     0
102
RTVSPost2010Prop36
280
     0
102
RTVSPost2010PropOp36
 70
     0
102
RTVSPost2010Prop37
 90
       50
102
RTVSPost2010PropOp37
 70
     0
102
RTVSPost2010Prop38
140
0.0
102
RTVSPost2010PropOp38
 70
     0
102
RTVSPost2010Prop39
140
1.0
102
RTVSPost2010PropOp39
 70
     0
102
RTVSPost2010Prop40
 90
        0
102
RTVSPost2010PropOp40
 70
     0
102
RTVSPost2010Prop41ColorIndex
 90
       18
102
RTVSPost2010Prop41ColorRGB
 90
        0
102
RTVSPost2010PropOp41
 70
     0
102
RTVSPost2010Prop42
 90
       50
102
RTVSPost2010PropOp42
 70
     0
102
RTVSPost2010Prop43
 90
        3
102
RTVSPost2010PropOp43
 70
     0
102
RTVSPost2010Prop44ColorIndex
 90
        5
102
RTVSPost2010Prop44ColorRGB
 90
      255
102
RTVSPost2010PropOp44
 70
     0
102
RTVSPost2010Prop45
280
     0
102
RTVSPost2010PropOp45
 70
     0
102
RTVSPost2010Prop46
 90
       50
102
RTVSPost2010PropOp46
 70
     0
102
RTVSPost2010Prop47
 90
       50
102
RTVSPost2010PropOp47
 70
     0
102
RTVSPost2010Prop48
 90
       50
102
RTVSPost2010PropOp48
 70
     0
102
RTVSPost2010Prop49
280
     0
102
RTVSPost2010PropOp49
 70
     0
102
RTVSPost2010Prop50
 90
       50
102
RTVSPost2010PropOp50
 70
     0
102
RTVSPost2010Prop51ColorIndex
 90
      256
102
RTVSPost2010Prop51ColorRGB
 90
-16777216
102
RTVSPost2010PropOp51
 70
     0
102
RTVSPost2010Prop52
140
1.0
102
RTVSPost2010PropOp52
 70
     0
102
RTVSPost2010Prop53
 90
        2
102
RTVSPost2010PropOp53
 70
     0
102
RTVSPost2010Prop54
  1
strokes_ogs.tif
102
RTVSPost2010PropOp54
 70
     0
102
RTVSPost2010Prop55
280
     0
102
RTVSPost2010PropOp55
 70
     0
102
RTVSPost2010Prop56
140
1.0
102
RTVSPost2010PropOp56
 70
     0
102
RTVSPost2010Prop57
140
1.0
102
RTVSPost2010PropOp57
 70
     0
  0
XRECORD
  5
114
102
{ACAD_REACTORS
330
113
102
}
330
113
100
AcDbXrecord
280
     1
102
RTVSPost2010Prop28
280
     0
102
RTVSPost2010PropOp28
 70
     1
102
RTVSPost2010Prop29
280
     1
102
RTVSPost2010PropOp29
 70
     1
102
RTVSPost2010Prop30
280
     1
102
RTVSPost2010PropOp30
 70
     1
102
RTVSPost2010Prop31
280
     0
102
RTVSPost2010PropOp31
 70
     1
102
RTVSPost2010Prop32
280
     0
102
RTVSPost2010PropOp32
 70
     1
102
RTVSPost2010Prop33
280
     0
102
RTVSPost2010PropOp33
 70
     1
102
RTVSPost2010Prop34
280
     0
102
RTVSPost2010PropOp34
 70
     1
102
RTVSPost2010Prop35
280
     0
102
RTVSPost2010PropOp35
 70
     1
102
RTVSPost2010Prop36
280
     0
102
RTVSPost2010PropOp36
 70
     1
102
RTVSPost2010Prop37
 90
       50
102
RTVSPost2010PropOp37
 70
     1
102
RTVSPost2010Prop38
140
0.0
102
RTVSPost2010PropOp38
 70
     1
102
RTVSPost2010Prop39
140
1.0
102
RTVSPost2010PropOp39
 70
     1
102
RTVSPost2010Prop40
 90
        0
102
RTVSPost2010PropOp40
 70
     1
102
RTVSPost2010Prop41ColorIndex
 90
       18
102
RTVSPost2010Prop41ColorRGB
 90
        0
102
RTVSPost2010PropOp41
 70
     1
102
RTVSPost2010Prop42
 90
       50
102
RTVSPost2010PropOp42
 70
     1
102
RTVSPost2010Prop43
 90
        3
102
RTVSPost2010PropOp43
 70
     1
102
RTVSPost2010Prop44ColorIndex
 90
        5
102
RTVSPost2010Prop44ColorRGB
 90
      255
102
RTVSPost2010PropOp44
 70
     1
102
RTVSPost2010Prop45
280
     0
102
RTVSPost2010PropOp45
 70
     1
102
RTVSPost2010Prop46
 90
       50
102
RTVSPost2010PropOp46
 70
     1
102
RTVSPost2010Prop47
 90
       50
102
RTVSPost2010PropOp47
 70
     1
102
RTVSPost2010Prop48
 90
       50
102
RTVSPost2010PropOp48
 70
     1
102
RTVSPost2010Prop49
280
     0
102
RTVSPost2010PropOp49
 70
     1
102
RTVSPost2010Prop50
 90
       50
102
RTVSPost2010PropOp50
 70
     1
102
RTVSPost2010Prop51ColorIndex
 90
      256
102
RTVSPost2010Prop51ColorRGB
 90
-16777216
102
RTVSPost2010PropOp51
 70
     0
102
RTVSPost2010Prop52
140
1.0
102
RTVSPost2010PropOp52
 70
     0
102
RTVSPost2010Prop53
 90
        2
102
RTVSPost2010PropOp53
 70
     1
102
RTVSPost2010Prop54
  1
strokes_ogs.tif
102
RTVSPost2010PropOp54
 70
     1
102
RTVSPost2010Prop55
280
     0
102
RTVSPost2010PropOp55
 70
     1
102
RTVSPost2010Prop56
140
1.0
102
RTVSPost2010PropOp56
 70
     1
102
RTVSPost2010Prop57
140
1.0
102
RTVSPost2010PropOp57
 70
     1
  0
XRECORD
  5
126
102
{ACAD_REACTORS
330
125
102
}
330
125
100
AcDbXrecord
280
     1
102
RTVSPost2010Prop28
280
     0
102
RTVSPost2010PropOp28
 70
     0
102
RTVSPost2010Prop29
280
     1
102
RTVSPost2010PropOp29
 70
     0
102
RTVSPost2010Prop30
280
     1
102
RTVSPost2010PropOp30
 70
     0
102
RTVSPost2010Prop31
280
     0
102
RTVSPost2010PropOp31
 70
     0
102
RTVSPost2010Prop32
280
     0
102
RTVSPost2010PropOp32
 70
     0
102
RTVSPost2010Prop33
280
     0
102
RTVSPost2010PropOp33
 70
     0
102
RTVSPost2010Prop34
280
     0
102
RTVSPost2010PropOp34
 70
     0
102
RTVSPost2010Prop35
280
     0
102
RTVSPost2010PropOp35
 70
     0
102
RTVSPost2010Prop36
280
     0
102
RTVSPost2010PropOp36
 70
     0
102
RTVSPost2010Prop37
 90
       50
102
RTVSPost2010PropOp37
 70
     0
102
RTVSPost2010Prop38
140
0.0
102
RTVSPost2010PropOp38
 70
     0
102
RTVSPost2010Prop39
140
1.0
102
RTVSPost2010PropOp39
 70
     0
102
RTVSPost2010Prop40
 90
        0
102
RTVSPost2010PropOp40
 70
     0
102
RTVSPost2010Prop41ColorIndex
 90
       18
102
RTVSPost2010Prop41ColorRGB
 90
        0
102
RTVSPost2010PropOp41
 70
     0
102
RTVSPost2010Prop42
 90
       50
102
RTVSPost2010PropOp42
 70
     0
102
RTVSPost2010Prop43
 90
        3
102
RTVSPost2010PropOp43
 70
     0
102
RTVSPost2010Prop44ColorIndex
 90
        5
102
RTVSPost2010Prop44ColorRGB
 90
      255
102
RTVSPost2010PropOp44
 70
     0
102
RTVSPost2010Prop45
280
     0
102
RTVSPost2010PropOp45
 70
     0
102
RTVSPost2010Prop46
 90
       50
102
RTVSPost2010PropOp46
 70
     0
102
RTVSPost2010Prop47
 90
       50
102
RTVSPost2010PropOp47
 70
     0
102
RTVSPost2010Prop48
 90
       50
102
RTVSPost2010PropOp48
 70
     0
102
RTVSPost2010Prop49
280
     0
102
RTVSPost2010PropOp49
 70
     0
102
RTVSPost2010Prop50
 90
       50
102
RTVSPost2010PropOp50
 70
     0
102
RTVSPost2010Prop51ColorIndex
 90
      256
102
RTVSPost2010Prop51ColorRGB
 90
-16777216
102
RTVSPost2010PropOp51
 70
     0
102
RTVSPost2010Prop52
140
1.0
102
RTVSPost2010PropOp52
 70
     0
102
RTVSPost2010Prop53
 90
        2
102
RTVSPost2010PropOp53
 70
     0
102
RTVSPost2010Prop54
  1
strokes_ogs.tif
102
RTVSPost2010PropOp54
 70
     0
102
RTVSPost2010Prop55
280
     0
102
RTVSPost2010PropOp55
 70
     0
102
RTVSPost2010Prop56
140
1.0
102
RTVSPost2010PropOp56
 70
     0
102
RTVSPost2010Prop57
140
1.0
102
RTVSPost2010PropOp57
 70
     0
  0
XRECORD
  5
10C
102
{ACAD_REACTORS
330
10B
102
}
330
10B
100
AcDbXrecord
280
     1
102
RTVSPost2010Prop28
280
     0
102
RTVSPost2010PropOp28
 70
     1
102
RTVSPost2010Prop29
280
     1
102
RTVSPost2010PropOp29
 70
     1
102
RTVSPost2010Prop30
280
     1
102
RTVSPost2010PropOp30
 70
     1
102
RTVSPost2010Prop31
280
     0
102
RTVSPost2010PropOp31
 70
     1
102
RTVSPost2010Prop32
280
     0
102
RTVSPost2010PropOp32
 70
     1
102
RTVSPost2010Prop33
280
     0
102
RTVSPost2010PropOp33
 70
     1
102
RTVSPost2010Prop34
280
     0
102
RTVSPost2010PropOp34
 70
     1
102
RTVSPost2010Prop35
280
     0
102
RTVSPost2010PropOp35
 70
     1
102
RTVSPost2010Prop36
280
     0
102
RTVSPost2010PropOp36
 70
     1
102
RTVSPost2010Prop37
 90
       50
102
RTVSPost2010PropOp37
 70
     1
102
RTVSPost2010Prop38
140
0.0
102
RTVSPost2010PropOp38
 70
     1
102
RTVSPost2010Prop39
140
1.0
102
RTVSPost2010PropOp39
 70
     1
102
RTVSPost2010Prop40
 90
        0
102
RTVSPost2010PropOp40
 70
     1
102
RTVSPost2010Prop41ColorIndex
 90
       18
102
RTVSPost2010Prop41ColorRGB
 90
        0
102
RTVSPost2010PropOp41
 70
     1
102
RTVSPost2010Prop42
 90
       50
102
RTVSPost2010PropOp42
 70
     1
102
RTVSPost2010Prop43
 90
        3
102
RTVSPost2010PropOp43
 70
     1
102
RTVSPost2010Prop44ColorIndex
 90
        5
102
RTVSPost2010Prop44ColorRGB
 90
      255
102
RTVSPost2010PropOp44
 70
     1
102
RTVSPost2010Prop45
280
     0
102
RTVSPost2010PropOp45
 70
     1
102
RTVSPost2010Prop46
 90
       50
102
RTVSPost2010PropOp46
 70
     1
102
RTVSPost2010Prop47
 90
       50
102
RTVSPost2010PropOp47
 70
     1
102
RTVSPost2010Prop48
 90
       50
102
RTVSPost2010PropOp48
 70
     1
102
RTVSPost2010Prop49
280
     0
102
RTVSPost2010PropOp49
 70
     1
102
RTVSPost2010Prop50
 90
       50
102
RTVSPost2010PropOp50
 70
     1
102
RTVSPost2010Prop51ColorIndex
 90
      256
102
RTVSPost2010Prop51ColorRGB
 90
-16777216
102
RTVSPost2010PropOp51
 70
     0
102
RTVSPost2010Prop52
140
1.0
102
RTVSPost2010PropOp52
 70
     0
102
RTVSPost2010Prop53
 90
        2
102
RTVSPost2010PropOp53
 70
     1
102
RTVSPost2010Prop54
  1
strokes_ogs.tif
102
RTVSPost2010PropOp54
 70
     1
102
RTVSPost2010Prop55
280
     0
102
RTVSPost2010PropOp55
 70
     1
102
RTVSPost2010Prop56
140
1.0
102
RTVSPost2010PropOp56
 70
     1
102
RTVSPost2010Prop57
140
1.0
102
RTVSPost2010PropOp57
 70
     1
  0
XRECORD
  5
122
102
{ACAD_REACTORS
330
121
102
}
330
121
100
AcDbXrecord
280
     1
102
RTVSPost2010Prop28
280
     0
102
RTVSPost2010PropOp28
 70
     1
102
RTVSPost2010Prop29
280
     1
102
RTVSPost2010PropOp29
 70
     1
102
RTVSPost2010Prop30
280
     1
102
RTVSPost2010PropOp30
 70
     1
102
RTVSPost2010Prop31
280
     0
102
RTVSPost2010PropOp31
 70
     1
102
RTVSPost2010Prop32
280
     0
102
RTVSPost2010PropOp32
 70
     1
102
RTVSPost2010Prop33
280
     0
102
RTVSPost2010PropOp33
 70
     1
102
RTVSPost2010Prop34
280
     0
102
RTVSPost2010PropOp34
 70
     1
102
RTVSPost2010Prop35
280
     0
102
RTVSPost2010PropOp35
 70
     1
102
RTVSPost2010Prop36
280
     0
102
RTVSPost2010PropOp36
 70
     1
102
RTVSPost2010Prop37
 90
       50
102
RTVSPost2010PropOp37
 70
     1
102
RTVSPost2010Prop38
140
0.0
102
RTVSPost2010PropOp38
 70
     1
102
RTVSPost2010Prop39
140
1.0
102
RTVSPost2010PropOp39
 70
     1
102
RTVSPost2010Prop40
 90
        0
102
RTVSPost2010PropOp40
 70
     1
102
RTVSPost2010Prop41ColorIndex
 90
       18
102
RTVSPost2010Prop41ColorRGB
 90
        0
102
RTVSPost2010PropOp41
 70
     1
102
RTVSPost2010Prop42
 90
       50
102
RTVSPost2010PropOp42
 70
     1
102
RTVSPost2010Prop43
 90
        3
102
RTVSPost2010PropOp43
 70
     1
102
RTVSPost2010Prop44ColorIndex
 90
        5
102
RTVSPost2010Prop44ColorRGB
 90
      255
102
RTVSPost2010PropOp44
 70
     1
102
RTVSPost2010Prop45
280
     0
102
RTVSPost2010PropOp45
 70
     1
102
RTVSPost2010Prop46
 90
       50
102
RTVSPost2010PropOp46
 70
     1
102
RTVSPost2010Prop47
 90
       50
102
RTVSPost2010PropOp47
 70
     1
102
RTVSPost2010Prop48
 90
       50
102
RTVSPost2010PropOp48
 70
     1
102
RTVSPost2010Prop49
280
     0
102
RTVSPost2010PropOp49
 70
     1
102
RTVSPost2010Prop50
 90
       50
102
RTVSPost2010PropOp50
 70
     1
102
RTVSPost2010Prop51ColorIndex
 90
      256
102
RTVSPost2010Prop51ColorRGB
 90
-16777216
102
RTVSPost2010PropOp51
 70
     0
102
RTVSPost2010Prop52
140
1.0
102
RTVSPost2010PropOp52
 70
     0
102
RTVSPost2010Prop53
 90
        2
102
RTVSPost2010PropOp53
 70
     1
102
RTVSPost2010Prop54
  1
strokes_ogs.tif
102
RTVSPost2010PropOp54
 70
     1
102
RTVSPost2010Prop55
280
     0
102
RTVSPost2010PropOp55
 70
     1
102
RTVSPost2010Prop56
140
1.0
102
RTVSPost2010PropOp56
 70
     1
102
RTVSPost2010Prop57
140
1.0
102
RTVSPost2010PropOp57
 70
     1
  0
XRECORD
  5
120
102
{ACAD_REACTORS
330
11F
102
}
330
11F
100
AcDbXrecord
280
     1
102
RTVSPost2010Prop28
280
     0
102
RTVSPost2010PropOp28
 70
     1
102
RTVSPost2010Prop29
280
     1
102
RTVSPost2010PropOp29
 70
     1
102
RTVSPost2010Prop30
280
     1
102
RTVSPost2010PropOp30
 70
     1
102
RTVSPost2010Prop31
280
     0
102
RTVSPost2010PropOp31
 70
     1
102
RTVSPost2010Prop32
280
     0
102
RTVSPost2010PropOp32
 70
     1
102
RTVSPost2010Prop33
280
     0
102
RTVSPost2010PropOp33
 70
     1
102
RTVSPost2010Prop34
280
     0
102
RTVSPost2010PropOp34
 70
     1
102
RTVSPost2010Prop35
280
     0
102
RTVSPost2010PropOp35
 70
     1
102
RTVSPost2010Prop36
280
     0
102
RTVSPost2010PropOp36
 70
     1
102
RTVSPost2010Prop37
 90
       50
102
RTVSPost2010PropOp37
 70
     1
102
RTVSPost2010Prop38
140
0.0
102
RTVSPost2010PropOp38
 70
     1
102
RTVSPost2010Prop39
140
1.0
102
RTVSPost2010PropOp39
 70
     1
102
RTVSPost2010Prop40
 90
        0
102
RTVSPost2010PropOp40
 70
     1
102
RTVSPost2010Prop41ColorIndex
 90
       18
102
RTVSPost2010Prop41ColorRGB
 90
        0
102
RTVSPost2010PropOp41
 70
     1
102
RTVSPost2010Prop42
 90
       50
102
RTVSPost2010PropOp42
 70
     1
102
RTVSPost2010Prop43
 90
        3
102
RTVSPost2010PropOp43
 70
     1
102
RTVSPost2010Prop44ColorIndex
 90
        5
102
RTVSPost2010Prop44ColorRGB
 90
      255
102
RTVSPost2010PropOp44
 70
     1
102
RTVSPost2010Prop45
280
     0
102
RTVSPost2010PropOp45
 70
     1
102
RTVSPost2010Prop46
 90
       50
102
RTVSPost2010PropOp46
 70
     1
102
RTVSPost2010Prop47
 90
       50
102
RTVSPost2010PropOp47
 70
     1
102
RTVSPost2010Prop48
 90
       50
102
RTVSPost2010PropOp48
 70
     1
102
RTVSPost2010Prop49
280
     0
102
RTVSPost2010PropOp49
 70
     1
102
RTVSPost2010Prop50
 90
       50
102
RTVSPost2010PropOp50
 70
     1
102
RTVSPost2010Prop51ColorIndex
 90
      256
102
RTVSPost2010Prop51ColorRGB
 90
-16777216
102
RTVSPost2010PropOp51
 70
     0
102
RTVSPost2010Prop52
140
1.0
102
RTVSPost2010PropOp52
 70
     0
102
RTVSPost2010Prop53
 90
        2
102
RTVSPost2010PropOp53
 70
     1
102
RTVSPost2010Prop54
  1
strokes_ogs.tif
102
RTVSPost2010PropOp54
 70
     1
102
RTVSPost2010Prop55
280
     0
102
RTVSPost2010PropOp55
 70
     1
102
RTVSPost2010Prop56
140
1.0
102
RTVSPost2010PropOp56
 70
     1
102
RTVSPost2010Prop57
140
1.0
102
RTVSPost2010PropOp57
 70
     1
  0
XRECORD
  5
11A
102
{ACAD_REACTORS
330
119
102
}
330
119
100
AcDbXrecord
280
     1
102
RTVSPost2010Prop28
280
     0
102
RTVSPost2010PropOp28
 70
     1
102
RTVSPost2010Prop29
280
     1
102
RTVSPost2010PropOp29
 70
     1
102
RTVSPost2010Prop30
280
     1
102
RTVSPost2010PropOp30
 70
     1
102
RTVSPost2010Prop31
280
     0
102
RTVSPost2010PropOp31
 70
     1
102
RTVSPost2010Prop32
280
     0
102
RTVSPost2010PropOp32
 70
     1
102
RTVSPost2010Prop33
280
     0
102
RTVSPost2010PropOp33
 70
     1
102
RTVSPost2010Prop34
280
     0
102
RTVSPost2010PropOp34
 70
     1
102
RTVSPost2010Prop35
280
     0
102
RTVSPost2010PropOp35
 70
     1
102
RTVSPost2010Prop36
280
     0
102
RTVSPost2010PropOp36
 70
     1
102
RTVSPost2010Prop37
 90
       50
102
RTVSPost2010PropOp37
 70
     1
102
RTVSPost2010Prop38
140
0.0
102
RTVSPost2010PropOp38
 70
     1
102
RTVSPost2010Prop39
140
1.0
102
RTVSPost2010PropOp39
 70
     1
102
RTVSPost2010Prop40
 90
        0
102
RTVSPost2010PropOp40
 70
     1
102
RTVSPost2010Prop41ColorIndex
 90
       18
102
RTVSPost2010Prop41ColorRGB
 90
        0
102
RTVSPost2010PropOp41
 70
     1
102
RTVSPost2010Prop42
 90
       50
102
RTVSPost2010PropOp42
 70
     1
102
RTVSPost2010Prop43
 90
        3
102
RTVSPost2010PropOp43
 70
     1
102
RTVSPost2010Prop44ColorIndex
 90
        5
102
RTVSPost2010Prop44ColorRGB
 90
      255
102
RTVSPost2010PropOp44
 70
     1
102
RTVSPost2010Prop45
280
     0
102
RTVSPost2010PropOp45
 70
     1
102
RTVSPost2010Prop46
 90
       50
102
RTVSPost2010PropOp46
 70
     1
102
RTVSPost2010Prop47
 90
       50
102
RTVSPost2010PropOp47
 70
     1
102
RTVSPost2010Prop48
 90
       50
102
RTVSPost2010PropOp48
 70
     1
102
RTVSPost2010Prop49
280
     0
102
RTVSPost2010PropOp49
 70
     1
102
RTVSPost2010Prop50
 90
       50
102
RTVSPost2010PropOp50
 70
     1
102
RTVSPost2010Prop51ColorIndex
 90
      256
102
RTVSPost2010Prop51ColorRGB
 90
-16777216
102
RTVSPost2010PropOp51
 70
     0
102
RTVSPost2010Prop52
140
1.0
102
RTVSPost2010PropOp52
 70
     0
102
RTVSPost2010Prop53
 90
        2
102
RTVSPost2010PropOp53
 70
     1
102
RTVSPost2010Prop54
  1
strokes_ogs.tif
102
RTVSPost2010PropOp54
 70
     1
102
RTVSPost2010Prop55
280
     0
102
RTVSPost2010PropOp55
 70
     1
102
RTVSPost2010Prop56
140
1.0
102
RTVSPost2010PropOp56
 70
     1
102
RTVSPost2010Prop57
140
1.0
102
RTVSPost2010PropOp57
 70
     1
  0
XRECORD
  5
11C
102
{ACAD_REACTORS
330
11B
102
}
330
11B
100
AcDbXrecord
280
     1
102
RTVSPost2010Prop28
280
     0
102
RTVSPost2010PropOp28
 70
     1
102
RTVSPost2010Prop29
280
     1
102
RTVSPost2010PropOp29
 70
     1
102
RTVSPost2010Prop30
280
     1
102
RTVSPost2010PropOp30
 70
     1
102
RTVSPost2010Prop31
280
     0
102
RTVSPost2010PropOp31
 70
     1
102
RTVSPost2010Prop32
280
     0
102
RTVSPost2010PropOp32
 70
     1
102
RTVSPost2010Prop33
280
     0
102
RTVSPost2010PropOp33
 70
     1
102
RTVSPost2010Prop34
280
     0
102
RTVSPost2010PropOp34
 70
     1
102
RTVSPost2010Prop35
280
     0
102
RTVSPost2010PropOp35
 70
     1
102
RTVSPost2010Prop36
280
     0
102
RTVSPost2010PropOp36
 70
     1
102
RTVSPost2010Prop37
 90
       50
102
RTVSPost2010PropOp37
 70
     1
102
RTVSPost2010Prop38
140
0.0
102
RTVSPost2010PropOp38
 70
     1
102
RTVSPost2010Prop39
140
1.0
102
RTVSPost2010PropOp39
 70
     1
102
RTVSPost2010Prop40
 90
        0
102
RTVSPost2010PropOp40
 70
     1
102
RTVSPost2010Prop41ColorIndex
 90
       18
102
RTVSPost2010Prop41ColorRGB
 90
        0
102
RTVSPost2010PropOp41
 70
     1
102
RTVSPost2010Prop42
 90
       50
102
RTVSPost2010PropOp42
 70
     1
102
RTVSPost2010Prop43
 90
        3
102
RTVSPost2010PropOp43
 70
     1
102
RTVSPost2010Prop44ColorIndex
 90
        5
102
RTVSPost2010Prop44ColorRGB
 90
      255
102
RTVSPost2010PropOp44
 70
     1
102
RTVSPost2010Prop45
280
     0
102
RTVSPost2010PropOp45
 70
     1
102
RTVSPost2010Prop46
 90
       50
102
RTVSPost2010PropOp46
 70
     1
102
RTVSPost2010Prop47
 90
       50
102
RTVSPost2010PropOp47
 70
     1
102
RTVSPost2010Prop48
 90
       50
102
RTVSPost2010PropOp48
 70
     1
102
RTVSPost2010Prop49
280
     0
102
RTVSPost2010PropOp49
 70
     1
102
RTVSPost2010Prop50
 90
       50
102
RTVSPost2010PropOp50
 70
     1
102
RTVSPost2010Prop51ColorIndex
 90
      256
102
RTVSPost2010Prop51ColorRGB
 90
-16777216
102
RTVSPost2010PropOp51
 70
     0
102
RTVSPost2010Prop52
140
1.0
102
RTVSPost2010PropOp52
 70
     0
102
RTVSPost2010Prop53
 90
        2
102
RTVSPost2010PropOp53
 70
     1
102
RTVSPost2010Prop54
  1
strokes_ogs.tif
102
RTVSPost2010PropOp54
 70
     1
102
RTVSPost2010Prop55
280
     0
102
RTVSPost2010PropOp55
 70
     1
102
RTVSPost2010Prop56
140
1.0
102
RTVSPost2010PropOp56
 70
     1
102
RTVSPost2010Prop57
140
1.0
102
RTVSPost2010PropOp57
 70
     1
  0
XRECORD
  5
112
102
{ACAD_REACTORS
330
111
102
}
330
111
100
AcDbXrecord
280
     1
102
RTVSPost2010Prop28
280
     0
102
RTVSPost2010PropOp28
 70
     1
102
RTVSPost2010Prop29
280
     1
102
RTVSPost2010PropOp29
 70
     1
102
RTVSPost2010Prop30
280
     1
102
RTVSPost2010PropOp30
 70
     1
102
RTVSPost2010Prop31
280
     0
102
RTVSPost2010PropOp31
 70
     1
102
RTVSPost2010Prop32
280
     0
102
RTVSPost2010PropOp32
 70
     1
102
RTVSPost2010Prop33
280
     0
102
RTVSPost2010PropOp33
 70
     1
102
RTVSPost2010Prop34
280
     0
102
RTVSPost2010PropOp34
 70
     1
102
RTVSPost2010Prop35
280
     0
102
RTVSPost2010PropOp35
 70
     1
102
RTVSPost2010Prop36
280
     0
102
RTVSPost2010PropOp36
 70
     1
102
RTVSPost2010Prop37
 90
       50
102
RTVSPost2010PropOp37
 70
     1
102
RTVSPost2010Prop38
140
0.0
102
RTVSPost2010PropOp38
 70
     1
102
RTVSPost2010Prop39
140
1.0
102
RTVSPost2010PropOp39
 70
     1
102
RTVSPost2010Prop40
 90
        0
102
RTVSPost2010PropOp40
 70
     1
102
RTVSPost2010Prop41ColorIndex
 90
       18
102
RTVSPost2010Prop41ColorRGB
 90
        0
102
RTVSPost2010PropOp41
 70
     1
102
RTVSPost2010Prop42
 90
       50
102
RTVSPost2010PropOp42
 70
     1
102
RTVSPost2010Prop43
 90
        3
102
RTVSPost2010PropOp43
 70
     1
102
RTVSPost2010Prop44ColorIndex
 90
        5
102
RTVSPost2010Prop44ColorRGB
 90
      255
102
RTVSPost2010PropOp44
 70
     1
102
RTVSPost2010Prop45
280
     0
102
RTVSPost2010PropOp45
 70
     1
102
RTVSPost2010Prop46
 90
       50
102
RTVSPost2010PropOp46
 70
     1
102
RTVSPost2010Prop47
 90
       50
102
RTVSPost2010PropOp47
 70
     1
102
RTVSPost2010Prop48
 90
       50
102
RTVSPost2010PropOp48
 70
     1
102
RTVSPost2010Prop49
280
     0
102
RTVSPost2010PropOp49
 70
     1
102
RTVSPost2010Prop50
 90
       50
102
RTVSPost2010PropOp50
 70
     1
102
RTVSPost2010Prop51ColorIndex
 90
      256
102
RTVSPost2010Prop51ColorRGB
 90
-16777216
102
RTVSPost2010PropOp51
 70
     0
102
RTVSPost2010Prop52
140
1.0
102
RTVSPost2010PropOp52
 70
     0
102
RTVSPost2010Prop53
 90
        2
102
RTVSPost2010PropOp53
 70
     1
102
RTVSPost2010Prop54
  1
strokes_ogs.tif
102
RTVSPost2010PropOp54
 70
     1
102
RTVSPost2010Prop55
280
     0
102
RTVSPost2010PropOp55
 70
     1
102
RTVSPost2010Prop56
140
1.0
102
RTVSPost2010PropOp56
 70
     1
102
RTVSPost2010Prop57
140
1.0
102
RTVSPost2010PropOp57
 70
     1
  0
XRECORD
  5
106
102
{ACAD_REACTORS
330
105
102
}
330
105
100
AcDbXrecord
280
     1
102
RTVSPost2010Prop28
280
     0
102
RTVSPost2010PropOp28
 70
     1
102
RTVSPost2010Prop29
280
     1
102
RTVSPost2010PropOp29
 70
     1
102
RTVSPost2010Prop30
280
     1
102
RTVSPost2010PropOp30
 70
     1
102
RTVSPost2010Prop31
280
     0
102
RTVSPost2010PropOp31
 70
     1
102
RTVSPost2010Prop32
280
     0
102
RTVSPost2010PropOp32
 70
     1
102
RTVSPost2010Prop33
280
     0
102
RTVSPost2010PropOp33
 70
     1
102
RTVSPost2010Prop34
280
     0
102
RTVSPost2010PropOp34
 70
     1
102
RTVSPost2010Prop35
280
     0
102
RTVSPost2010PropOp35
 70
     1
102
RTVSPost2010Prop36
280
     0
102
RTVSPost2010PropOp36
 70
     1
102
RTVSPost2010Prop37
 90
       50
102
RTVSPost2010PropOp37
 70
     1
102
RTVSPost2010Prop38
140
0.0
102
RTVSPost2010PropOp38
 70
     1
102
RTVSPost2010Prop39
140
1.0
102
RTVSPost2010PropOp39
 70
     1
102
RTVSPost2010Prop40
 90
        0
102
RTVSPost2010PropOp40
 70
     1
102
RTVSPost2010Prop41ColorIndex
 90
       18
102
RTVSPost2010Prop41ColorRGB
 90
        0
102
RTVSPost2010PropOp41
 70
     1
102
RTVSPost2010Prop42
 90
       50
102
RTVSPost2010PropOp42
 70
     1
102
RTVSPost2010Prop43
 90
        3
102
RTVSPost2010PropOp43
 70
     1
102
RTVSPost2010Prop44ColorIndex
 90
        5
102
RTVSPost2010Prop44ColorRGB
 90
      255
102
RTVSPost2010PropOp44
 70
     1
102
RTVSPost2010Prop45
280
     0
102
RTVSPost2010PropOp45
 70
     1
102
RTVSPost2010Prop46
 90
       50
102
RTVSPost2010PropOp46
 70
     1
102
RTVSPost2010Prop47
 90
       50
102
RTVSPost2010PropOp47
 70
     1
102
RTVSPost2010Prop48
 90
       50
102
RTVSPost2010PropOp48
 70
     1
102
RTVSPost2010Prop49
280
     0
102
RTVSPost2010PropOp49
 70
     1
102
RTVSPost2010Prop50
 90
       50
102
RTVSPost2010PropOp50
 70
     1
102
RTVSPost2010Prop51ColorIndex
 90
      256
102
RTVSPost2010Prop51ColorRGB
 90
-16777216
102
RTVSPost2010PropOp51
 70
     0
102
RTVSPost2010Prop52
140
1.0
102
RTVSPost2010PropOp52
 70
     0
102
RTVSPost2010Prop53
 90
        2
102
RTVSPost2010PropOp53
 70
     1
102
RTVSPost2010Prop54
  1
strokes_ogs.tif
102
RTVSPost2010PropOp54
 70
     1
102
RTVSPost2010Prop55
280
     0
102
RTVSPost2010PropOp55
 70
     1
102
RTVSPost2010Prop56
140
1.0
102
RTVSPost2010PropOp56
 70
     1
102
RTVSPost2010Prop57
140
1.0
102
RTVSPost2010PropOp57
 70
     1
  0
XRECORD
  5
11E
102
{ACAD_REACTORS
330
11D
102
}
330
11D
100
AcDbXrecord
280
     1
102
RTVSPost2010Prop28
280
     0
102
RTVSPost2010PropOp28
 70
     1
102
RTVSPost2010Prop29
280
     1
102
RTVSPost2010PropOp29
 70
     1
102
RTVSPost2010Prop30
280
     1
102
RTVSPost2010PropOp30
 70
     1
102
RTVSPost2010Prop31
280
     0
102
RTVSPost2010PropOp31
 70
     1
102
RTVSPost2010Prop32
280
     0
102
RTVSPost2010PropOp32
 70
     1
102
RTVSPost2010Prop33
280
     0
102
RTVSPost2010PropOp33
 70
     1
102
RTVSPost2010Prop34
280
     0
102
RTVSPost2010PropOp34
 70
     1
102
RTVSPost2010Prop35
280
     0
102
RTVSPost2010PropOp35
 70
     1
102
RTVSPost2010Prop36
280
     0
102
RTVSPost2010PropOp36
 70
     1
102
RTVSPost2010Prop37
 90
       50
102
RTVSPost2010PropOp37
 70
     1
102
RTVSPost2010Prop38
140
0.0
102
RTVSPost2010PropOp38
 70
     1
102
RTVSPost2010Prop39
140
1.0
102
RTVSPost2010PropOp39
 70
     1
102
RTVSPost2010Prop40
 90
        0
102
RTVSPost2010PropOp40
 70
     1
102
RTVSPost2010Prop41ColorIndex
 90
       18
102
RTVSPost2010Prop41ColorRGB
 90
        0
102
RTVSPost2010PropOp41
 70
     1
102
RTVSPost2010Prop42
 90
       50
102
RTVSPost2010PropOp42
 70
     1
102
RTVSPost2010Prop43
 90
        3
102
RTVSPost2010PropOp43
 70
     1
102
RTVSPost2010Prop44ColorIndex
 90
        5
102
RTVSPost2010Prop44ColorRGB
 90
      255
102
RTVSPost2010PropOp44
 70
     1
102
RTVSPost2010Prop45
280
     0
102
RTVSPost2010PropOp45
 70
     1
102
RTVSPost2010Prop46
 90
       50
102
RTVSPost2010PropOp46
 70
     1
102
RTVSPost2010Prop47
 90
       50
102
RTVSPost2010PropOp47
 70
     1
102
RTVSPost2010Prop48
 90
       50
102
RTVSPost2010PropOp48
 70
     1
102
RTVSPost2010Prop49
280
     0
102
RTVSPost2010PropOp49
 70
     1
102
RTVSPost2010Prop50
 90
       50
102
RTVSPost2010PropOp50
 70
     1
102
RTVSPost2010Prop51ColorIndex
 90
      256
102
RTVSPost2010Prop51ColorRGB
 90
-16777216
102
RTVSPost2010PropOp51
 70
     0
102
RTVSPost2010Prop52
140
1.0
102
RTVSPost2010PropOp52
 70
     0
102
RTVSPost2010Prop53
 90
        2
102
RTVSPost2010PropOp53
 70
     1
102
RTVSPost2010Prop54
  1
strokes_ogs.tif
102
RTVSPost2010PropOp54
 70
     1
102
RTVSPost2010Prop55
280
     0
102
RTVSPost2010PropOp55
 70
     1
102
RTVSPost2010Prop56
140
1.0
102
RTVSPost2010PropOp56
 70
     1
102
RTVSPost2010Prop57
140
1.0
102
RTVSPost2010PropOp57
 70
     1
  0
ENDSEC
  0
EOF
