  0
SECTION
  2
HEADER
  9
$ACADVER
  1
AC1024
  9
$ACADMAINTVER
 70
     6
  9
$DWGCODEPAGE
  3
UNDEFINED
  9
$INSBASE
 10
0.0
 20
0.0
 30
0.0
  9
$EXTMIN
 10
1.000000000000000E+20
 20
1.000000000000000E+20
 30
1.000000000000000E+20
  9
$EXTMAX
 10
-1.000000000000000E+20
 20
-1.000000000000000E+20
 30
-1.000000000000000E+20
  9
$LIMMIN
 10
0.0
 20
0.0
  9
$LIMMAX
 10
12.0
 20
9.0
  9
$ORTHOMODE
 70
     0
  9
$REGENMODE
 70
     1
  9
$FILLMODE
 70
     1
  9
$QTEXTMODE
 70
     0
  9
$MIRRTEXT
 70
     1
  9
$LTSCALE
 40
1.0
  9
$ATTMODE
 70
     1
  9
$TEXTSIZE
 40
0.2
  9
$TRACEWID
 40
0.05
  9
$TEXTSTYLE
  7
Standard
  9
$CLAYER
  8
0
  9
$CELTYPE
  6
ByLayer
  9
$CECOLOR
 62
   256
  9
$CELTSCALE
 40
1.0
  9
$DISPSILH
 70
     0
  9
$DIMSCALE
 40
1.0
  9
$DIMASZ
 40
0.18
  9
$DIMEXO
 40
0.0625
  9
$DIMDLI
 40
0.38
  9
$DIMRND
 40
0.0
  9
$DIMDLE
 40
0.0
  9
$DIMEXE
 40
0.18
  9
$DIMTP
 40
0.0
  9
$DIMTM
 40
0.0
  9
$DIMTXT
 40
0.18
  9
$DIMCEN
 40
0.09
  9
$DIMTSZ
 40
0.0
  9
$DIMTOL
 70
     0
  9
$DIMLIM
 70
     0
  9
$DIMTIH
 70
     1
  9
$DIMTOH
 70
     1
  9
$DIMSE1
 70
     0
  9
$DIMSE2
 70
     0
  9
$DIMTAD
 70
     0
  9
$DIMZIN
 70
     0
  9
$DIMBLK
  1

  9
$DIMASO
 70
     1
  9
$DIMSHO
 70
     1
  9
$DIMPOST
  1

  9
$DIMAPOST
  1

  9
$DIMALT
 70
     0
  9
$DIMALTD
 70
     2
  9
$DIMALTF
 40
25.4
  9
$DIMLFAC
 40
1.0
  9
$DIMTOFL
 70
     0
  9
$DIMTVP
 40
0.0
  9
$DIMTIX
 70
     0
  9
$DIMSOXD
 70
     0
  9
$DIMSAH
 70
     0
  9
$DIMBLK1
  1

  9
$DIMBLK2
  1

  9
$DIMSTYLE
  2
Standard
  9
$DIMCLRD
 70
     0
  9
$DIMCLRE
 70
     0
  9
$DIMCLRT
 70
     0
  9
$DIMTFAC
 40
1.0
  9
$DIMGAP
 40
0.09
  9
$DIMJUST
 70
     0
  9
$DIMSD1
 70
     0
  9
$DIMSD2
 70
     0
  9
$DIMTOLJ
 70
     1
  9
$DIMTZIN
 70
     0
  9
$DIMALTZ
 70
     0
  9
$DIMALTTZ
 70
     0
  9
$DIMUPT
 70
     0
  9
$DIMDEC
 70
     4
  9
$DIMTDEC
 70
     4
  9
$DIMALTU
 70
     2
  9
$DIMALTTD
 70
     2
  9
$DIMTXSTY
  7
Standard
  9
$DIMAUNIT
 70
     0
  9
$DIMADEC
 70
     0
  9
$DIMALTRND
 40
0.0
  9
$DIMAZIN
 70
     0
  9
$DIMDSEP
 70
    46
  9
$DIMATFIT
 70
     3
  9
$DIMFRAC
 70
     0
  9
$DIMLDRBLK
  1

  9
$DIMLUNIT
 70
     2
  9
$DIMLWD
 70
    -2
  9
$DIMLWE
 70
    -2
  9
$DIMTMOVE
 70
     0
  9
$DIMFXL
 40
1.0
  9
$DIMFXLON
 70
     0
  9
$DIMJOGANG
 40
0.7853981633974483
  9
$DIMTFILL
 70
     0
  9
$DIMTFILLCLR
 70
     0
  9
$DIMARCSYM
 70
     0
  9
$DIMLTYPE
  6

  9
$DIMLTEX1
  6

  9
$DIMLTEX2
  6

  9
$DIMTXTDIRECTION
 70
     0
  9
$LUNITS
 70
     2
  9
$LUPREC
 70
     4
  9
$SKETCHINC
 40
0.1
  9
$FILLETRAD
 40
0.5
  9
$AUNITS
 70
     0
  9
$AUPREC
 70
     0
  9
$MENU
  1
.
  9
$ELEVATION
 40
0.0
  9
$PELEVATION
 40
0.0
  9
$THICKNESS
 40
0.0
  9
$LIMCHECK
 70
     0
  9
$CHAMFERA
 40
0.5
  9
$CHAMFERB
 40
0.5
  9
$CHAMFERC
 40
1.0
  9
$CHAMFERD
 40
0.0
  9
$SKPOLY
 70
     0
  9
$TDCREATE
 40
2458263.577326389
  9
$TDUCREATE
 40
2458263.202326389
  9
$TDUPDATE
 40
2458263.577326389
  9
$TDUUPDATE
 40
2458263.202326389
  9
$TDINDWG
 40
0.0000000116
  9
$TDUSRTIMER
 40
0.0000000116
  9
$USRTIMER
 70
     1
  9
$ANGBASE
 50
0.0
  9
$ANGDIR
 70
     0
  9
$PDMODE
 70
     0
  9
$PDSIZE
 40
0.0
  9
$PLINEWID
 40
0.0
  9
$SPLFRAME
 70
     0
  9
$SPLINETYPE
 70
     6
  9
$SPLINESEGS
 70
     8
  9
$HANDSEED
  5
F1
  9
$SURFTAB1
 70
     6
  9
$SURFTAB2
 70
     6
  9
$SURFTYPE
 70
     6
  9
$SURFU
 70
     6
  9
$SURFV
 70
     6
  9
$UCSBASE
  2

  9
$UCSNAME
  2

  9
$UCSORG
 10
0.0
 20
0.0
 30
0.0
  9
$UCSXDIR
 10
1.0
 20
0.0
 30
0.0
  9
$UCSYDIR
 10
0.0
 20
1.0
 30
0.0
  9
$UCSORTHOREF
  2

  9
$UCSORTHOVIEW
 70
     0
  9
$UCSORGTOP
 10
0.0
 20
0.0
 30
0.0
  9
$UCSORGBOTTOM
 10
0.0
 20
0.0
 30
0.0
  9
$UCSORGLEFT
 10
0.0
 20
0.0
 30
0.0
  9
$UCSORGRIGHT
 10
0.0
 20
0.0
 30
0.0
  9
$UCSORGFRONT
 10
0.0
 20
0.0
 30
0.0
  9
$UCSORGBACK
 10
0.0
 20
0.0
 30
0.0
  9
$PUCSBASE
  2

  9
$PUCSNAME
  2

  9
$PUCSORG
 10
0.0
 20
0.0
 30
0.0
  9
$PUCSXDIR
 10
1.0
 20
0.0
 30
0.0
  9
$PUCSYDIR
 10
0.0
 20
1.0
 30
0.0
  9
$PUCSORTHOREF
  2

  9
$PUCSORTHOVIEW
 70
     0
  9
$PUCSORGTOP
 10
0.0
 20
0.0
 30
0.0
  9
$PUCSORGBOTTOM
 10
0.0
 20
0.0
 30
0.0
  9
$PUCSORGLEFT
 10
0.0
 20
0.0
 30
0.0
  9
$PUCSORGRIGHT
 10
0.0
 20
0.0
 30
0.0
  9
$PUCSORGFRONT
 10
0.0
 20
0.0
 30
0.0
  9
$PUCSORGBACK
 10
0.0
 20
0.0
 30
0.0
  9
$USERI1
 70
     0
  9
$USERI2
 70
     0
  9
$USERI3
 70
     0
  9
$USERI4
 70
     0
  9
$USERI5
 70
     0
  9
$USERR1
 40
0.0
  9
$USERR2
 40
0.0
  9
$USERR3
 40
0.0
  9
$USERR4
 40
0.0
  9
$USERR5
 40
0.0
  9
$WORLDVIEW
 70
     1
  9
$SHADEDGE
 70
     3
  9
$SHADEDIF
 70
    70
  9
$TILEMODE
 70
     1
  9
$MAXACTVP
 70
    64
  9
$PINSBASE
 10
0.0
 20
0.0
 30
0.0
  9
$PLIMCHECK
 70
     0
  9
$PEXTMIN
 10
1.000000000000000E+20
 20
1.000000000000000E+20
 30
1.000000000000000E+20
  9
$PEXTMAX
 10
-1.000000000000000E+20
 20
-1.000000000000000E+20
 30
-1.000000000000000E+20
  9
$PLIMMIN
 10
0.0
 20
0.0
  9
$PLIMMAX
 10
12.0
 20
9.0
  9
$UNITMODE
 70
     0
  9
$VISRETAIN
 70
     1
  9
$PLINEGEN
 70
     0
  9
$PSLTSCALE
 70
     1
  9
$TREEDEPTH
 70
  3020
  9
$CMLSTYLE
  2
Standard
  9
$CMLJUST
 70
     0
  9
$CMLSCALE
 40
1.0
  9
$PROXYGRAPHICS
 70
     1
  9
$MEASUREMENT
 70
     0
  9
$CELWEIGHT
370
    -1
  9
$ENDCAPS
280
     0
  9
$JOINSTYLE
280
     0
  9
$LWDISPLAY
290
     1
  9
$INSUNITS
 70
     1
  9
$HYPERLINKBASE
  1

  9
$STYLESHEET
  1

  9
$XEDIT
290
     1
  9
$CEPSNTYPE
380
     0
  9
$PSTYLEMODE
290
     1
  9
$FINGERPRINTGUID
  2
{F8EC59D9-57D0-0D26-A46C-57BEFF68CBB8}
  9
$VERSIONGUID
  2
{FAEB1C32-E019-11D5-929B-00C0DF256EC4}
  9
$EXTNAMES
290
     1
  9
$PSVPSCALE
 40
0.0
  9
$OLESTARTUP
290
     0
  9
$SORTENTS
280
   127
  9
$INDEXCTL
280
     0
  9
$HIDETEXT
280
     1
  9
$XCLIPFRAME
280
     2
  9
$HALOGAP
280
     0
  9
$OBSCOLOR
 70
   257
  9
$OBSLTYPE
280
     0
  9
$INTERSECTIONDISPLAY
280
     0
  9
$INTERSECTIONCOLOR
 70
   257
  9
$DIMASSOC
280
     2
  9
$PROJECTNAME
  1

  9
$CAMERADISPLAY
290
     0
  9
$LENSLENGTH
 40
50.0
  9
$CAMERAHEIGHT
 40
0.0
  9
$STEPSPERSEC
 40
2.0
  9
$STEPSIZE
 40
6.0
  9
$3DDWFPREC
 40
2.0
  9
$PSOLWIDTH
 40
0.25
  9
$PSOLHEIGHT
 40
4.0
  9
$LOFTANG1
 40
1.570796326794897
  9
$LOFTANG2
 40
1.570796326794897
  9
$LOFTMAG1
 40
0.0
  9
$LOFTMAG2
 40
0.0
  9
$LOFTPARAM
 70
     7
  9
$LOFTNORMALS
280
     1
  9
$LATITUDE
 40
37.795
  9
$LONGITUDE
 40
-122.394
  9
$NORTHDIRECTION
 40
0.0
  9
$TIMEZONE
 70
 -8000
  9
$LIGHTGLYPHDISPLAY
280
     1
  9
$TILEMODELIGHTSYNCH
280
     1
  9
$CMATERIAL
347
3C
  9
$SOLIDHIST
280
     1
  9
$SHOWHIST
280
     1
  9
$DWFFRAME
280
     2
  9
$DGNFRAME
280
     2
  9
$REALWORLDSCALE
290
     1
  9
$INTERFERECOLOR
 62
   256
  9
$CSHADOW
280
     0
  9
$SHADOWPLANELOCATION
 40
0.0
  0
ENDSEC
  0
SECTION
  2
CLASSES
  0
CLASS
  1
ACDBDICTIONARYWDFLT
  2
AcDbDictionaryWithDefault
  3
ObjectDBX Classes
 90
        0
 91
        4
280
     0
281
     0
  0
CLASS
  1
VISUALSTYLE
  2
AcDbVisualStyle
  3
ObjectDBX Classes
 90
     4095
 91
        4
280
     0
281
     0
  0
CLASS
  1
MATERIAL
  2
AcDbMaterial
  3
ObjectDBX Classes
 90
     1153
 91
        4
280
     0
281
     0
  0
CLASS
  1
SUN
  2
AcDbSun
  3
SCENEOE
 90
     1024
 91
        4
280
     0
281
     0
  0
ENDSEC
  0
SECTION
  2
TABLES
  0
TABLE
  2
VPORT
  5
8
330
0
100
AcDbSymbolTable
 70
     1
  0
VPORT
  5
29
330
8
100
AcDbSymbolTableRecord
100
AcDbViewportTableRecord
  2
*Active
 70
     0
 10
0.0
 20
0.0
 11
1.0
 21
1.0
 12
0.0
 22
0.0
 13
0.0
 23
0.0
 14
0.5
 24
0.5
 15
0.5
 25
0.5
 16
0.0
 26
0.0
 36
1.0
 17
105.0007777515277
 27
-148.5000416295416
 37
0.0
 40
297.0000832590831
 41
0.7070757462376333
 42
50.0
 43
0.0
 44
0.0
 50
0.0
 51
0.0
 71
     0
 72
   100
 73
     1
 74
     3
 75
     0
 76
     0
 77
     0
 78
     0
281
     0
 65
     1
110
0.0
120
0.0
130
0.0
111
1.0
121
0.0
131
0.0
112
0.0
122
1.0
132
0.0
 79
     0
146
0.0
 60
     3
 61
     5
292
     1
282
     1
141
0.0
142
0.0
 63
   250
361
3F
  0
ENDTAB
  0
TABLE
  2
LTYPE
  5
5
330
0
100
AcDbSymbolTable
 70
     1
  0
LTYPE
  5
14
330
5
100
AcDbSymbolTableRecord
100
AcDbLinetypeTableRecord
  2
ByBlock
 70
     0
  3

 72
    65
 73
     0
 40
0.0
  0
LTYPE
  5
15
330
5
100
AcDbSymbolTableRecord
100
AcDbLinetypeTableRecord
  2
ByLayer
 70
     0
  3

 72
    65
 73
     0
 40
0.0
  0
LTYPE
  5
16
330
5
100
AcDbSymbolTableRecord
100
AcDbLinetypeTableRecord
  2
Continuous
 70
     0
  3
Solid line
 72
    65
 73
     0
 40
0.0
  0
ENDTAB
  0
TABLE
  2
LAYER
  5
2
330
0
100
AcDbSymbolTable
 70
     2
  0
LAYER
  5
10
330
2
100
AcDbSymbolTableRecord
100
AcDbLayerTableRecord
  2
0
 70
     0
 62
     7
  6
Continuous
370
    -3
390
F
347
3E
  0
LAYER
  5
40
330
2
100
AcDbSymbolTableRecord
100
AcDbLayerTableRecord
  2
_U+30EC_U+30A4_U+30E4_U+30FC 1
 70
     0
 62
     7
  6
Continuous
370
    -3
390
F
347
3E
  0
ENDTAB
  0
TABLE
  2
STYLE
  5
3
330
0
100
AcDbSymbolTable
 70
     1
  0
STYLE
  5
11
330
3
100
AcDbSymbolTableRecord
100
AcDbTextStyleTableRecord
  2
Standard
 70
     0
 40
0.0
 41
1.0
 50
0.0
 71
     0
 42
0.2
  3
txt
  4

  0
ENDTAB
  0
TABLE
  2
VIEW
  5
6
330
0
100
AcDbSymbolTable
 70
     0
  0
ENDTAB
  0
TABLE
  2
UCS
  5
7
330
0
100
AcDbSymbolTable
 70
     0
  0
ENDTAB
  0
TABLE
  2
APPID
  5
9
330
0
100
AcDbSymbolTable
 70
     1
  0
APPID
  5
12
330
9
100
AcDbSymbolTableRecord
100
AcDbRegAppTableRecord
  2
ACAD
 70
     0
  0
ENDTAB
  0
TABLE
  2
DIMSTYLE
  5
A
330
0
100
AcDbSymbolTable
 70
     1
100
AcDbDimStyleTable
  0
DIMSTYLE
105
27
330
A
100
AcDbSymbolTableRecord
100
AcDbDimStyleTableRecord
  2
Standard
 70
     0
178
     0
340
11
  0
ENDTAB
  0
TABLE
  2
BLOCK_RECORD
  5
1
330
0
100
AcDbSymbolTable
 70
     6
  0
BLOCK_RECORD
  5
1F
330
1
100
AcDbSymbolTableRecord
100
AcDbBlockTableRecord
  2
*Model_Space
340
22
 70
     0
280
     1
281
     0
  0
BLOCK_RECORD
  5
1B
330
1
100
AcDbSymbolTableRecord
100
AcDbBlockTableRecord
  2
*Paper_Space
340
1E
 70
     0
280
     1
281
     0
  0
BLOCK_RECORD
  5
23
330
1
100
AcDbSymbolTableRecord
100
AcDbBlockTableRecord
  2
*Paper_Space0
340
26
 70
     0
280
     1
281
     0
  0
BLOCK_RECORD
  5
89
330
1
100
AcDbSymbolTableRecord
100
AcDbBlockTableRecord
  2
block 2
340
0
102
{BLKREFS
331
8A
102
}
 70
     0
280
     1
281
     0
  0
BLOCK_RECORD
  5
A4
330
1
100
AcDbSymbolTableRecord
100
AcDbBlockTableRecord
  2
block 3
340
0
102
{BLKREFS
331
A5
102
}
 70
     0
280
     1
281
     0
  0
BLOCK_RECORD
  5
B6
330
1
100
AcDbSymbolTableRecord
100
AcDbBlockTableRecord
  2
block 4
340
0
102
{BLKREFS
331
B7
102
}
 70
     0
280
     1
281
     0
  0
BLOCK_RECORD
  5
CA
330
1
100
AcDbSymbolTableRecord
100
AcDbBlockTableRecord
  2
block 5
340
0
102
{BLKREFS
331
CB
102
}
 70
     0
280
     1
281
     0
  0
BLOCK_RECORD
  5
DD
330
1
100
AcDbSymbolTableRecord
100
AcDbBlockTableRecord
  2
block 6
340
0
102
{BLKREFS
331
DE
102
}
 70
     0
280
     1
281
     0
  0
ENDTAB
  0
ENDSEC
  0
SECTION
  2
BLOCKS
  0
BLOCK
  5
20
330
1F
100
AcDbEntity
  8
0
100
AcDbBlockBegin
  2
*Model_Space
 70
     0
 10
0.0
 20
0.0
 30
0.0
  3
*Model_Space
  1

  0
ENDBLK
  5
21
330
1F
100
AcDbEntity
  8
0
100
AcDbBlockEnd
  0
BLOCK
  5
1C
330
1B
100
AcDbEntity
 67
     1
  8
0
100
AcDbBlockBegin
  2
*Paper_Space
 70
     0
 10
0.0
 20
0.0
 30
0.0
  3
*Paper_Space
  1

  0
ENDBLK
  5
1D
330
1B
100
AcDbEntity
 67
     1
  8
0
100
AcDbBlockEnd
  0
BLOCK
  5
24
330
23
100
AcDbEntity
  8
0
100
AcDbBlockBegin
  2
*Paper_Space0
 70
     0
 10
0.0
 20
0.0
 30
0.0
  3
*Paper_Space0
  1

  0
ENDBLK
  5
25
330
23
100
AcDbEntity
  8
0
100
AcDbBlockEnd
  0
BLOCK
  5
8B
330
89
100
AcDbEntity
  8
0
100
AcDbBlockBegin
  2
block 2
 70
     0
 10
0.0
 20
0.0
 30
0.0
  3
block 2
  1

  0
SPLINE
  5
8D
330
89
100
AcDbEntity
  8
_U+30EC_U+30A4_U+30E4_U+30FC 1
370
     0
100
AcDbSpline
210
0.0
220
0.0
230
1.0
 70
    11
 71
     3
 72
    29
 73
    25
 74
     0
 42
0.0000000001
 43
0.0000000001
 12
1.0
 22
0.0
 32
0.0
 13
1.0
 23
0.0
 33
0.0
 40
0.0
 40
0.0
 40
0.0
 40
0.0
 40
1.0
 40
1.0
 40
1.0
 40
2.0
 40
2.0
 40
2.0
 40
3.0
 40
3.0
 40
3.0
 40
4.0
 40
4.0
 40
4.0
 40
5.0
 40
5.0
 40
5.0
 40
6.0
 40
6.0
 40
6.0
 40
7.0
 40
7.0
 40
7.0
 40
8.0
 40
8.0
 40
8.0
 40
8.0
 10
115.541612384309
 20
-139.509658439515
 30
0.0
 10
115.7510741898122
 20
-139.6248968834965
 30
0.0
 10
115.7700222149811
 20
-139.810243020603
 30
0.0
 10
115.7700222149811
 20
-139.9346109676205
 30
0.0
 10
115.7700222149811
 20
-140.1065212323345
 30
0.0
 10
115.7235134259302
 20
-140.2579331789112
 30
0.0
 10
115.541612384309
 20
-140.3597357505004
 30
0.0
 10
115.3469644893924
 20
-140.4704955703511
 30
0.0
 10
115.1102864295558
 20
-140.4908216337141
 30
0.0
 10
114.9473334131035
 20
-140.4908216337141
 30
0.0
 10
114.80332842182
 20
-140.4908216337141
 30
0.0
 10
114.5514919418482
 20
-140.4727348824165
 30
0.0
 10
114.3527099323493
 20
-140.3597357505004
 30
0.0
 10
114.1497938082681
 20
-140.2443250517445
 30
0.0
 10
114.1263671589684
 20
-140.0725870418048
 30
0.0
 10
114.1263671589684
 20
-139.9346109676205
 30
0.0
 10
114.1263671589684
 20
-139.7651122697462
 30
0.0
 10
114.1708088907281
 20
-139.6112887563298
 30
0.0
 10
114.3527099323493
 20
-139.509658439515
 30
0.0
 10
114.5452907699748
 20
-139.403377243795
 30
0.0
 10
114.7737006006469
 20
-139.3785725563012
 30
0.0
 10
114.9473334131035
 20
-139.3785725563012
 30
0.0
 10
115.1185546587204
 20
-139.3785725563012
 30
0.0
 10
115.3490315466836
 20
-139.4011379317296
 30
0.0
 10
115.541612384309
 20
-139.509658439515
 30
0.0
  0
SPLINE
  5
8E
330
89
100
AcDbEntity
  8
_U+30EC_U+30A4_U+30E4_U+30FC 1
370
     0
100
AcDbSpline
210
0.0
220
0.0
230
1.0
 70
    11
 71
     3
 72
    17
 73
    13
 74
     0
 42
0.0000000001
 43
0.0000000001
 12
1.0
 22
0.0
 32
0.0
 13
1.0
 23
0.0
 33
0.0
 40
0.0
 40
0.0
 40
0.0
 40
0.0
 40
1.0
 40
1.0
 40
1.0
 40
2.0
 40
2.0
 40
2.0
 40
3.0
 40
3.0
 40
3.0
 40
4.0
 40
4.0
 40
4.0
 40
4.0
 10
114.3189479965939
 20
-139.9346109676205
 30
0.0
 10
114.3189479965939
 20
-140.2014336129531
 30
0.0
 10
114.6024793550299
 20
-140.251215242715
 30
0.0
 10
114.9473334131035
 20
-140.251215242715
 30
0.0
 10
115.2666937645861
 20
-140.251215242715
 30
0.0
 10
115.5753743200645
 20
-140.2128024280544
 30
0.0
 10
115.5753743200645
 20
-139.9346109676205
 30
0.0
 10
115.5753743200645
 20
-139.6701998891276
 30
0.0
 10
115.2942545284681
 20
-139.6181789473003
 30
0.0
 10
114.9473334131035
 20
-139.6181789473003
 30
0.0
 10
114.6276285520723
 20
-139.6181789473003
 30
0.0
 10
114.3189479965939
 20
-139.6588310740263
 30
0.0
 10
114.3189479965939
 20
-139.9346109676205
 30
0.0
  0
HATCH
  5
8F
330
89
100
AcDbEntity
  8
_U+30EC_U+30A4_U+30E4_U+30FC 1
 62
   179
420
  2234388
100
AcDbHatch
 10
0.0
 20
0.0
 30
0.0
210
0.0
220
0.0
230
1.0
  2
SOLID
 70
     1
 71
     0
 91
        2
 92
        1
 93
        1
 72
     4
 94
        3
 73
     0
 74
     1
 95
       29
 96
       25
 40
0.0
 40
0.0
 40
0.0
 40
0.0
 40
1.0
 40
1.0
 40
1.0
 40
2.0
 40
2.0
 40
2.0
 40
3.0
 40
3.0
 40
3.0
 40
4.0
 40
4.0
 40
4.0
 40
5.0
 40
5.0
 40
5.0
 40
6.0
 40
6.0
 40
6.0
 40
7.0
 40
7.0
 40
7.0
 40
8.0
 40
8.0
 40
8.0
 40
8.0
 10
115.541612384309
 20
-139.509658439515
 10
115.7510741898122
 20
-139.6248968834965
 10
115.7700222149811
 20
-139.810243020603
 10
115.7700222149811
 20
-139.9346109676205
 10
115.7700222149811
 20
-140.1065212323345
 10
115.7235134259302
 20
-140.2579331789112
 10
115.541612384309
 20
-140.3597357505004
 10
115.3469644893924
 20
-140.4704955703511
 10
115.1102864295558
 20
-140.4908216337141
 10
114.9473334131035
 20
-140.4908216337141
 10
114.80332842182
 20
-140.4908216337141
 10
114.5514919418482
 20
-140.4727348824165
 10
114.3527099323493
 20
-140.3597357505004
 10
114.1497938082681
 20
-140.2443250517445
 10
114.1263671589684
 20
-140.0725870418048
 10
114.1263671589684
 20
-139.9346109676205
 10
114.1263671589684
 20
-139.7651122697462
 10
114.1708088907281
 20
-139.6112887563298
 10
114.3527099323493
 20
-139.509658439515
 10
114.5452907699748
 20
-139.403377243795
 10
114.7737006006469
 20
-139.3785725563012
 10
114.9473334131035
 20
-139.3785725563012
 10
115.1185546587204
 20
-139.3785725563012
 10
115.3490315466836
 20
-139.4011379317296
 10
115.541612384309
 20
-139.509658439515
 97
        0
 97
        0
 92
        1
 93
        1
 72
     4
 94
        3
 73
     0
 74
     1
 95
       17
 96
       13
 40
0.0
 40
0.0
 40
0.0
 40
0.0
 40
1.0
 40
1.0
 40
1.0
 40
2.0
 40
2.0
 40
2.0
 40
3.0
 40
3.0
 40
3.0
 40
4.0
 40
4.0
 40
4.0
 40
4.0
 10
114.3189479965939
 20
-139.9346109676205
 10
114.3189479965939
 20
-140.2014336129531
 10
114.6024793550299
 20
-140.251215242715
 10
114.9473334131035
 20
-140.251215242715
 10
115.2666937645861
 20
-140.251215242715
 10
115.5753743200645
 20
-140.2128024280544
 10
115.5753743200645
 20
-139.9346109676205
 10
115.5753743200645
 20
-139.6701998891276
 10
115.2942545284681
 20
-139.6181789473003
 10
114.9473334131035
 20
-139.6181789473003
 10
114.6276285520723
 20
-139.6181789473003
 10
114.3189479965939
 20
-139.6588310740263
 10
114.3189479965939
 20
-139.9346109676205
 97
        0
 97
        0
 75
     2
 76
     1
 98
        0
  0
POLYLINE
  5
90
330
89
100
AcDbEntity
  8
_U+30EC_U+30A4_U+30E4_U+30FC 1
370
     0
100
AcDb2dPolyline
 66
     1
 10
0.0
 20
0.0
 30
0.0
  0
VERTEX
  5
91
330
90
100
AcDbEntity
  8
_U+30EC_U+30A4_U+30E4_U+30FC 1
370
     0
100
AcDbVertex
100
AcDb2dVertex
 10
115.7193793113479
 20
-139.1470621396924
 30
0.0
  0
VERTEX
  5
92
330
90
100
AcDbEntity
  8
_U+30EC_U+30A4_U+30E4_U+30FC 1
370
     0
100
AcDbVertex
100
AcDb2dVertex
 10
115.4675428313762
 20
-139.1470621396924
 30
0.0
  0
VERTEX
  5
93
330
90
100
AcDbEntity
  8
_U+30EC_U+30A4_U+30E4_U+30FC 1
370
     0
100
AcDbVertex
100
AcDb2dVertex
 10
115.4675428313762
 20
-138.8780001822944
 30
0.0
  0
VERTEX
  5
94
330
90
100
AcDbEntity
  8
_U+30EC_U+30A4_U+30E4_U+30FC 1
370
     0
100
AcDbVertex
100
AcDb2dVertex
 10
115.7193793113479
 20
-138.8780001822944
 30
0.0
  0
VERTEX
  5
95
330
90
100
AcDbEntity
  8
_U+30EC_U+30A4_U+30E4_U+30FC 1
370
     0
100
AcDbVertex
100
AcDb2dVertex
 10
115.7193793113479
 20
-139.1470621396924
 30
0.0
  0
SEQEND
  5
96
330
90
100
AcDbEntity
  8
_U+30EC_U+30A4_U+30E4_U+30FC 1
370
     0
  0
HATCH
  5
97
330
89
100
AcDbEntity
  8
_U+30EC_U+30A4_U+30E4_U+30FC 1
 62
   179
420
  2234388
100
AcDbHatch
 10
0.0
 20
0.0
 30
0.0
210
0.0
220
0.0
230
1.0
  2
SOLID
 70
     1
 71
     0
 91
        1
 92
        1
 93
        4
 72
     1
 10
115.7193793113479
 20
-139.1470621396924
 11
115.4675428313762
 21
-139.1470621396924
 72
     1
 10
115.4675428313762
 20
-139.1470621396924
 11
115.4675428313762
 21
-138.8780001822944
 72
     1
 10
115.4675428313762
 20
-138.8780001822944
 11
115.7193793113479
 21
-138.8780001822944
 72
     1
 10
115.7193793113479
 20
-138.8780001822944
 11
115.7193793113479
 21
-139.1470621396924
 97
        0
 75
     2
 76
     1
 98
        0
  0
SPLINE
  5
98
330
89
100
AcDbEntity
  8
_U+30EC_U+30A4_U+30E4_U+30FC 1
370
     0
100
AcDbSpline
210
0.0
220
0.0
230
1.0
 70
    11
 71
     3
 72
    29
 73
    25
 74
     0
 42
0.0000000001
 43
0.0000000001
 12
1.0
 22
0.0
 32
0.0
 13
1.0
 23
0.0
 33
0.0
 40
0.0
 40
0.0
 40
0.0
 40
0.0
 40
1.0
 40
1.0
 40
1.0
 40
2.0
 40
2.0
 40
2.0
 40
3.0
 40
3.0
 40
3.0
 40
4.0
 40
4.0
 40
4.0
 40
5.0
 40
5.0
 40
5.0
 40
6.0
 40
6.0
 40
6.0
 40
7.0
 40
7.0
 40
7.0
 40
8.0
 40
8.0
 40
8.0
 40
8.0
 10
115.7700222149811
 20
-138.0909681186891
 30
0.0
 10
115.7700222149811
 20
-138.3758775153192
 30
0.0
 10
115.6325629051196
 20
-138.6471787847827
 30
0.0
 10
115.2835747324638
 20
-138.6471787847827
 30
0.0
 10
115.0276041379098
 20
-138.6471787847827
 30
0.0
 10
114.9325195025169
 20
-138.4957668382059
 30
0.0
 10
114.8711968028794
 20
-138.3825954515155
 30
0.0
 10
114.8119411605331
 20
-138.5160929015689
 30
0.0
 10
114.6975639904228
 20
-138.5973971550208
 30
0.0
 10
114.5366780312617
 20
-138.5973971550208
 30
0.0
 10
114.2617594115387
 20
-138.5973971550208
 30
0.0
 10
114.1263671589684
 20
-138.3850070183551
 30
0.0
 10
114.1263671589684
 20
-138.0909681186891
 30
0.0
 10
114.1263671589684
 20
-137.7879719707613
 30
0.0
 10
114.2703721502519
 20
-137.5845390823573
 30
0.0
 10
114.5366780312617
 20
-137.5845390823573
 30
0.0
 10
114.6975639904228
 20
-137.5845390823573
 30
0.0
 10
114.8119411605331
 20
-137.6682549026489
 30
0.0
 10
114.8711968028794
 20
-137.8015800979281
 30
0.0
 10
114.9218397065126
 20
-137.7066677173094
 30
0.0
 10
115.0169243419055
 20
-137.5371690194352
 30
0.0
 10
115.2794406178815
 20
-137.5371690194352
 30
0.0
 10
115.6539224971282
 20
-137.5371690194352
 30
0.0
 10
115.7700222149811
 20
-137.8355142884578
 30
0.0
 10
115.7700222149811
 20
-138.0909681186891
 30
0.0
  0
SPLINE
  5
99
330
89
100
AcDbEntity
  8
_U+30EC_U+30A4_U+30E4_U+30FC 1
370
     0
100
AcDbSpline
210
0.0
220
0.0
230
1.0
 70
    11
 71
     3
 72
    17
 73
    13
 74
     0
 42
0.0000000001
 43
0.0000000001
 12
1.0
 22
0.0
 32
0.0
 13
1.0
 23
0.0
 33
0.0
 40
0.0
 40
0.0
 40
0.0
 40
0.0
 40
1.0
 40
1.0
 40
1.0
 40
2.0
 40
2.0
 40
2.0
 40
3.0
 40
3.0
 40
3.0
 40
4.0
 40
4.0
 40
4.0
 40
4.0
 10
114.3189479965939
 20
-138.0909681186891
 30
0.0
 10
114.3189479965939
 20
-138.2673570075339
 30
0.0
 10
114.4140326319868
 20
-138.3577907640217
 30
0.0
 10
114.5494248845571
 20
-138.3577907640217
 30
0.0
 10
114.672070283832
 20
-138.3577907640217
 30
0.0
 10
114.7905815685246
 20
-138.2809651347006
 30
0.0
 10
114.7905815685246
 20
-138.0909681186891
 30
0.0
 10
114.7905815685246
 20
-137.9011433574518
 30
0.0
 10
114.672070283832
 20
-137.8241454733565
 30
0.0
 10
114.5494248845571
 20
-137.8241454733565
 30
0.0
 10
114.4140326319868
 20
-137.8241454733565
 30
0.0
 10
114.3189479965939
 20
-137.916990796684
 30
0.0
 10
114.3189479965939
 20
-138.0909681186891
 30
0.0
  0
SPLINE
  5
9A
330
89
100
AcDbEntity
  8
_U+30EC_U+30A4_U+30E4_U+30FC 1
370
     0
100
AcDbSpline
210
0.0
220
0.0
230
1.0
 70
    11
 71
     3
 72
    17
 73
    13
 74
     0
 42
0.0000000001
 43
0.0000000001
 12
1.0
 22
0.0
 32
0.0
 13
1.0
 23
0.0
 33
0.0
 40
0.0
 40
0.0
 40
0.0
 40
0.0
 40
1.0
 40
1.0
 40
1.0
 40
2.0
 40
2.0
 40
2.0
 40
3.0
 40
3.0
 40
3.0
 40
4.0
 40
4.0
 40
4.0
 40
4.0
 10
114.9790282915677
 20
-138.0909681186891
 30
0.0
 10
114.9790282915677
 20
-138.2447916321055
 30
0.0
 10
115.065844697796
 20
-138.4075723937835
 30
0.0
 10
115.2687608218773
 20
-138.4075723937835
 30
0.0
 10
115.4740885127981
 20
-138.4075723937835
 30
0.0
 10
115.5753743200645
 20
-138.2718356316647
 30
0.0
 10
115.5753743200645
 20
-138.0909681186891
 30
0.0
 10
115.5753743200645
 20
-137.8920138544159
 30
0.0
 10
115.4527289207896
 20
-137.7745360983689
 30
0.0
 10
115.2749619937507
 20
-137.7745360983689
 30
0.0
 10
115.0530978445006
 20
-137.7745360983689
 30
0.0
 10
114.9790282915677
 20
-137.948513420374
 30
0.0
 10
114.9790282915677
 20
-138.0909681186891
 30
0.0
  0
HATCH
  5
9B
330
89
100
AcDbEntity
  8
_U+30EC_U+30A4_U+30E4_U+30FC 1
 62
   179
420
  2234388
100
AcDbHatch
 10
0.0
 20
0.0
 30
0.0
210
0.0
220
0.0
230
1.0
  2
SOLID
 70
     1
 71
     0
 91
        3
 92
        1
 93
        1
 72
     4
 94
        3
 73
     0
 74
     1
 95
       29
 96
       25
 40
0.0
 40
0.0
 40
0.0
 40
0.0
 40
1.0
 40
1.0
 40
1.0
 40
2.0
 40
2.0
 40
2.0
 40
3.0
 40
3.0
 40
3.0
 40
4.0
 40
4.0
 40
4.0
 40
5.0
 40
5.0
 40
5.0
 40
6.0
 40
6.0
 40
6.0
 40
7.0
 40
7.0
 40
7.0
 40
8.0
 40
8.0
 40
8.0
 40
8.0
 10
115.7700222149811
 20
-138.0909681186891
 10
115.7700222149811
 20
-138.3758775153192
 10
115.6325629051196
 20
-138.6471787847827
 10
115.2835747324638
 20
-138.6471787847827
 10
115.0276041379098
 20
-138.6471787847827
 10
114.9325195025169
 20
-138.4957668382059
 10
114.8711968028794
 20
-138.3825954515155
 10
114.8119411605331
 20
-138.5160929015689
 10
114.6975639904228
 20
-138.5973971550208
 10
114.5366780312617
 20
-138.5973971550208
 10
114.2617594115387
 20
-138.5973971550208
 10
114.1263671589684
 20
-138.3850070183551
 10
114.1263671589684
 20
-138.0909681186891
 10
114.1263671589684
 20
-137.7879719707613
 10
114.2703721502519
 20
-137.5845390823573
 10
114.5366780312617
 20
-137.5845390823573
 10
114.6975639904228
 20
-137.5845390823573
 10
114.8119411605331
 20
-137.6682549026489
 10
114.8711968028794
 20
-137.8015800979281
 10
114.9218397065126
 20
-137.7066677173094
 10
115.0169243419055
 20
-137.5371690194352
 10
115.2794406178815
 20
-137.5371690194352
 10
115.6539224971282
 20
-137.5371690194352
 10
115.7700222149811
 20
-137.8355142884578
 10
115.7700222149811
 20
-138.0909681186891
 97
        0
 97
        0
 92
        1
 93
        1
 72
     4
 94
        3
 73
     0
 74
     1
 95
       17
 96
       13
 40
0.0
 40
0.0
 40
0.0
 40
0.0
 40
1.0
 40
1.0
 40
1.0
 40
2.0
 40
2.0
 40
2.0
 40
3.0
 40
3.0
 40
3.0
 40
4.0
 40
4.0
 40
4.0
 40
4.0
 10
114.3189479965939
 20
-138.0909681186891
 10
114.3189479965939
 20
-138.2673570075339
 10
114.4140326319868
 20
-138.3577907640217
 10
114.5494248845571
 20
-138.3577907640217
 10
114.672070283832
 20
-138.3577907640217
 10
114.7905815685246
 20
-138.2809651347006
 10
114.7905815685246
 20
-138.0909681186891
 10
114.7905815685246
 20
-137.9011433574518
 10
114.672070283832
 20
-137.8241454733565
 10
114.5494248845571
 20
-137.8241454733565
 10
114.4140326319868
 20
-137.8241454733565
 10
114.3189479965939
 20
-137.916990796684
 10
114.3189479965939
 20
-138.0909681186891
 97
        0
 97
        0
 92
        1
 93
        1
 72
     4
 94
        3
 73
     0
 74
     1
 95
       17
 96
       13
 40
0.0
 40
0.0
 40
0.0
 40
0.0
 40
1.0
 40
1.0
 40
1.0
 40
2.0
 40
2.0
 40
2.0
 40
3.0
 40
3.0
 40
3.0
 40
4.0
 40
4.0
 40
4.0
 40
4.0
 10
114.9790282915677
 20
-138.0909681186891
 10
114.9790282915677
 20
-138.2447916321055
 10
115.065844697796
 20
-138.4075723937835
 10
115.2687608218773
 20
-138.4075723937835
 10
115.4740885127981
 20
-138.4075723937835
 10
115.5753743200645
 20
-138.2718356316647
 10
115.5753743200645
 20
-138.0909681186891
 10
115.5753743200645
 20
-137.8920138544159
 10
115.4527289207896
 20
-137.7745360983689
 10
115.2749619937507
 20
-137.7745360983689
 10
115.0530978445006
 20
-137.7745360983689
 10
114.9790282915677
 20
-137.948513420374
 10
114.9790282915677
 20
-138.0909681186891
 97
        0
 97
        0
 75
     2
 76
     1
 98
        0
  0
ENDBLK
  5
8C
330
89
100
AcDbEntity
  8
0
100
AcDbBlockEnd
  0
BLOCK
  5
A6
330
A4
100
AcDbEntity
  8
0
100
AcDbBlockBegin
  2
block 3
 70
     0
 10
0.0
 20
0.0
 30
0.0
  3
block 3
  1

  0
SPLINE
  5
A8
330
A4
100
AcDbEntity
  8
_U+30EC_U+30A4_U+30E4_U+30FC 1
370
     0
100
AcDbSpline
210
0.0
220
0.0
230
1.0
 70
    11
 71
     3
 72
    62
 73
    58
 74
     0
 42
0.0000000001
 43
0.0000000001
 12
1.0
 22
0.0
 32
0.0
 13
1.0
 23
0.0
 33
0.0
 40
0.0
 40
0.0
 40
0.0
 40
0.0
 40
1.0
 40
1.0
 40
1.0
 40
2.0
 40
2.0
 40
2.0
 40
3.0
 40
3.0
 40
3.0
 40
4.0
 40
4.0
 40
4.0
 40
5.0
 40
5.0
 40
5.0
 40
6.0
 40
6.0
 40
6.0
 40
7.0
 40
7.0
 40
7.0
 40
8.0
 40
8.0
 40
8.0
 40
9.0
 40
9.0
 40
9.0
 40
10.0
 40
10.0
 40
10.0
 40
11.0
 40
11.0
 40
11.0
 40
12.0
 40
12.0
 40
12.0
 40
13.0
 40
13.0
 40
13.0
 40
14.0
 40
14.0
 40
14.0
 40
15.0
 40
15.0
 40
15.0
 40
16.0
 40
16.0
 40
16.0
 40
17.0
 40
17.0
 40
17.0
 40
18.0
 40
18.0
 40
18.0
 40
19.0
 40
19.0
 40
19.0
 40
19.0
 10
115.7700222149811
 20
-156.8221245267667
 30
0.0
 10
115.7700222149811
 20
-156.923410334033
 30
0.0
 10
115.7490071325211
 20
-157.1562987888359
 30
0.0
 10
115.5629719763176
 20
-157.2899684936636
 30
0.0
 10
115.4506618634985
 20
-157.3692056898244
 30
0.0
 10
115.3514431135233
 20
-157.3733398044067
 30
0.0
 10
115.2666937645861
 20
-157.378162938086
 30
0.0
 10
115.2666937645861
 20
-157.378162938086
 30
0.0
 10
115.2666937645861
 20
-157.1428629164434
 30
0.0
 10
115.2666937645861
 20
-157.1428629164434
 30
0.0
 10
115.340763317519
 20
-157.1404513496038
 30
0.0
 10
115.5753743200645
 20
-157.129427044051
 30
0.0
 10
115.5753743200645
 20
-156.826258641349
 30
0.0
 10
115.5753743200645
 20
-156.6794975736774
 30
0.0
 10
115.5057833912625
 20
-156.5168890667736
 30
0.0
 10
115.2773735605904
 20
-156.5168890667736
 30
0.0
 10
115.1609293331889
 20
-156.5168890667736
 30
0.0
 10
115.1123534868469
 20
-156.5575411934995
 30
0.0
 10
115.0806586083826
 20
-156.591303129255
 30
0.0
 10
115.0065890554498
 20
-156.6705403254157
 30
0.0
 10
114.9938422021543
 20
-156.7945637628847
 30
0.0
 10
114.9938422021543
 20
-156.8534748956825
 30
0.0
 10
114.9938422021543
 20
-156.8738009590454
 30
0.0
 10
114.9959092594455
 20
-156.9123860284803
 30
0.0
 10
115.0000433740278
 20
-156.9416693401049
 30
0.0
 10
115.0000433740278
 20
-156.9416693401049
 30
0.0
 10
114.8053954791112
 20
-156.9416693401049
 30
0.0
 10
114.8053954791112
 20
-156.9416693401049
 30
0.0
 10
114.8119411605331
 20
-156.9010172133789
 30
0.0
 10
114.8140082178243
 20
-156.8558864625221
 30
0.0
 10
114.8140082178243
 20
-156.8489962715516
 30
0.0
 10
114.8140082178243
 20
-156.7787163236526
 30
0.0
 10
114.7926486258157
 20
-156.5664984417612
 30
0.0
 10
114.5559705659791
 20
-156.5664984417612
 30
0.0
 10
114.3782036389402
 20
-156.5664984417612
 30
0.0
 10
114.3230821111762
 20
-156.7063693184623
 30
0.0
 10
114.3230821111762
 20
-156.8241915840578
 30
0.0
 10
114.3230821111762
 20
-157.1066894138483
 30
0.0
 10
114.5559705659791
 20
-157.11564666211
 30
0.0
 10
114.6276285520723
 20
-157.1204697957893
 30
0.0
 10
114.6276285520723
 20
-157.1204697957893
 30
0.0
 10
114.6276285520723
 20
-157.3375108113601
 30
0.0
 10
114.6276285520723
 20
-157.3375108113601
 30
0.0
 10
114.5029160955062
 20
-157.3285535630984
 30
0.0
 10
114.1263671589684
 20
-157.2989257419253
 30
0.0
 10
114.1263671589684
 20
-156.8104112021169
 30
0.0
 10
114.1263671589684
 20
-156.570977065892
 30
0.0
 10
114.2534911823741
 20
-156.3132839235953
 30
0.0
 10
114.5494248845571
 20
-156.3132839235953
 30
0.0
 10
114.7358045503091
 20
-156.3132839235953
 30
0.0
 10
114.8181423324066
 20
-156.4149142404102
 30
0.0
 10
114.879465032044
 20
-156.5210231813559
 30
0.0
 10
114.907025795926
 20
-156.4555663671361
 30
0.0
 10
114.9872965207323
 20
-156.261262981768
 30
0.0
 10
115.264626707295
 20
-156.261262981768
 30
0.0
 10
115.6029350839465
 20
-156.261262981768
 30
0.0
 10
115.7700222149811
 20
-156.5258463150352
 30
0.0
 10
115.7700222149811
 20
-156.8221245267667
 30
0.0
  0
HATCH
  5
A9
330
A4
100
AcDbEntity
  8
_U+30EC_U+30A4_U+30E4_U+30FC 1
 62
   179
420
  2234388
100
AcDbHatch
 10
0.0
 20
0.0
 30
0.0
210
0.0
220
0.0
230
1.0
  2
SOLID
 70
     1
 71
     0
 91
        1
 92
        1
 93
        1
 72
     4
 94
        3
 73
     0
 74
     1
 95
       62
 96
       58
 40
0.0
 40
0.0
 40
0.0
 40
0.0
 40
1.0
 40
1.0
 40
1.0
 40
2.0
 40
2.0
 40
2.0
 40
3.0
 40
3.0
 40
3.0
 40
4.0
 40
4.0
 40
4.0
 40
5.0
 40
5.0
 40
5.0
 40
6.0
 40
6.0
 40
6.0
 40
7.0
 40
7.0
 40
7.0
 40
8.0
 40
8.0
 40
8.0
 40
9.0
 40
9.0
 40
9.0
 40
10.0
 40
10.0
 40
10.0
 40
11.0
 40
11.0
 40
11.0
 40
12.0
 40
12.0
 40
12.0
 40
13.0
 40
13.0
 40
13.0
 40
14.0
 40
14.0
 40
14.0
 40
15.0
 40
15.0
 40
15.0
 40
16.0
 40
16.0
 40
16.0
 40
17.0
 40
17.0
 40
17.0
 40
18.0
 40
18.0
 40
18.0
 40
19.0
 40
19.0
 40
19.0
 40
19.0
 10
115.7700222149811
 20
-156.8221245267667
 10
115.7700222149811
 20
-156.923410334033
 10
115.7490071325211
 20
-157.1562987888359
 10
115.5629719763176
 20
-157.2899684936636
 10
115.4506618634985
 20
-157.3692056898244
 10
115.3514431135233
 20
-157.3733398044067
 10
115.2666937645861
 20
-157.378162938086
 10
115.2666937645861
 20
-157.378162938086
 10
115.2666937645861
 20
-157.1428629164434
 10
115.2666937645861
 20
-157.1428629164434
 10
115.340763317519
 20
-157.1404513496038
 10
115.5753743200645
 20
-157.129427044051
 10
115.5753743200645
 20
-156.826258641349
 10
115.5753743200645
 20
-156.6794975736774
 10
115.5057833912625
 20
-156.5168890667736
 10
115.2773735605904
 20
-156.5168890667736
 10
115.1609293331889
 20
-156.5168890667736
 10
115.1123534868469
 20
-156.5575411934995
 10
115.0806586083826
 20
-156.591303129255
 10
115.0065890554498
 20
-156.6705403254157
 10
114.9938422021543
 20
-156.7945637628847
 10
114.9938422021543
 20
-156.8534748956825
 10
114.9938422021543
 20
-156.8738009590454
 10
114.9959092594455
 20
-156.9123860284803
 10
115.0000433740278
 20
-156.9416693401049
 10
115.0000433740278
 20
-156.9416693401049
 10
114.8053954791112
 20
-156.9416693401049
 10
114.8053954791112
 20
-156.9416693401049
 10
114.8119411605331
 20
-156.9010172133789
 10
114.8140082178243
 20
-156.8558864625221
 10
114.8140082178243
 20
-156.8489962715516
 10
114.8140082178243
 20
-156.7787163236526
 10
114.7926486258157
 20
-156.5664984417612
 10
114.5559705659791
 20
-156.5664984417612
 10
114.3782036389402
 20
-156.5664984417612
 10
114.3230821111762
 20
-156.7063693184623
 10
114.3230821111762
 20
-156.8241915840578
 10
114.3230821111762
 20
-157.1066894138483
 10
114.5559705659791
 20
-157.11564666211
 10
114.6276285520723
 20
-157.1204697957893
 10
114.6276285520723
 20
-157.1204697957893
 10
114.6276285520723
 20
-157.3375108113601
 10
114.6276285520723
 20
-157.3375108113601
 10
114.5029160955062
 20
-157.3285535630984
 10
114.1263671589684
 20
-157.2989257419253
 10
114.1263671589684
 20
-156.8104112021169
 10
114.1263671589684
 20
-156.570977065892
 10
114.2534911823741
 20
-156.3132839235953
 10
114.5494248845571
 20
-156.3132839235953
 10
114.7358045503091
 20
-156.3132839235953
 10
114.8181423324066
 20
-156.4149142404102
 10
114.879465032044
 20
-156.5210231813559
 10
114.907025795926
 20
-156.4555663671361
 10
114.9872965207323
 20
-156.261262981768
 10
115.264626707295
 20
-156.261262981768
 10
115.6029350839465
 20
-156.261262981768
 10
115.7700222149811
 20
-156.5258463150352
 10
115.7700222149811
 20
-156.8221245267667
 97
        0
 97
        0
 75
     2
 76
     1
 98
        0
  0
ENDBLK
  5
A7
330
A4
100
AcDbEntity
  8
0
100
AcDbBlockEnd
  0
BLOCK
  5
B8
330
B6
100
AcDbEntity
  8
0
100
AcDbBlockBegin
  2
block 4
 70
     0
 10
0.0
 20
0.0
 30
0.0
  3
block 4
  1

  0
SPLINE
  5
BA
330
B6
100
AcDbEntity
  8
_U+30EC_U+30A4_U+30E4_U+30FC 1
370
     0
100
AcDbSpline
210
0.0
220
0.0
230
1.0
 70
    11
 71
     3
 72
    44
 73
    40
 74
     0
 42
0.0000000001
 43
0.0000000001
 12
1.0
 22
0.0
 32
0.0
 13
1.0
 23
0.0
 33
0.0
 40
0.0
 40
0.0
 40
0.0
 40
0.0
 40
1.0
 40
1.0
 40
1.0
 40
2.0
 40
2.0
 40
2.0
 40
3.0
 40
3.0
 40
3.0
 40
4.0
 40
4.0
 40
4.0
 40
5.0
 40
5.0
 40
5.0
 40
6.0
 40
6.0
 40
6.0
 40
7.0
 40
7.0
 40
7.0
 40
8.0
 40
8.0
 40
8.0
 40
9.0
 40
9.0
 40
9.0
 40
10.0
 40
10.0
 40
10.0
 40
11.0
 40
11.0
 40
11.0
 40
12.0
 40
12.0
 40
12.0
 40
13.0
 40
13.0
 40
13.0
 40
13.0
 10
102.0413167062605
 20
-136.0800658839487
 30
0.0
 10
101.8084282514576
 20
-136.2388847858188
 30
0.0
 10
101.7090372467082
 20
-136.3129543387516
 30
0.0
 10
101.6570163048809
 20
-136.4566148204865
 30
0.0
 10
101.6570163048809
 20
-136.4566148204865
 30
0.0
 10
102.4890068645687
 20
-136.4566148204865
 30
0.0
 10
102.4890068645687
 20
-136.4566148204865
 30
0.0
 10
102.4890068645687
 20
-136.4566148204865
 30
0.0
 10
102.4890068645687
 20
-136.6619425114074
 30
0.0
 10
102.4890068645687
 20
-136.6619425114074
 30
0.0
 10
102.4890068645687
 20
-136.6619425114074
 30
0.0
 10
101.3901936595483
 20
-136.6619425114074
 30
0.0
 10
101.3901936595483
 20
-136.6619425114074
 30
0.0
 10
101.424127850078
 20
-136.3043416000385
 30
0.0
 10
101.4942355432028
 20
-136.2261379325233
 30
0.0
 10
101.9057521989159
 20
-135.9277926635007
 30
0.0
 10
102.1792927804448
 20
-135.7290106540018
 30
0.0
 10
102.2494004735696
 20
-135.6611422729424
 30
0.0
 10
102.2494004735696
 20
-135.5236829630809
 30
0.0
 10
102.2494004735696
 20
-135.4051716783883
 30
0.0
 10
102.1725748442485
 20
-135.2742580499488
 30
0.0
 10
101.962251764874
 20
-135.2742580499488
 30
0.0
 10
101.6840603044401
 20
-135.2742580499488
 30
0.0
 10
101.6751030561785
 20
-135.504734937912
 30
0.0
 10
101.6706244320476
 20
-135.6211791653135
 30
0.0
 10
101.6706244320476
 20
-135.6211791653135
 30
0.0
 10
101.4308457862742
 20
-135.6211791653135
 30
0.0
 10
101.4308457862742
 20
-135.6211791653135
 30
0.0
 10
101.4399752893102
 20
-135.4940551419078
 30
0.0
 10
101.4513441044115
 20
-135.3820895386371
 30
0.0
 10
101.5371269819942
 20
-135.2635782539445
 30
0.0
 10
101.6547769928155
 20
-135.1026922947834
 30
0.0
 10
101.8537312570887
 20
-135.0689303590279
 30
0.0
 10
101.9780992041062
 20
-135.0689303590279
 30
0.0
 10
102.2742051610634
 20
-135.0689303590279
 30
0.0
 10
102.495724800765
 20
-135.2528984579403
 30
0.0
 10
102.495724800765
 20
-135.525750020372
 30
0.0
 10
102.495724800765
 20
-135.7545043605926
 30
0.0
 10
102.3713568537474
 20
-135.8537231105678
 30
0.0
 10
102.0413167062605
 20
-136.0800658839487
 30
0.0
  0
HATCH
  5
BB
330
B6
100
AcDbEntity
  8
_U+30EC_U+30A4_U+30E4_U+30FC 1
 62
   179
420
  2234388
100
AcDbHatch
 10
0.0
 20
0.0
 30
0.0
210
0.0
220
0.0
230
1.0
  2
SOLID
 70
     1
 71
     0
 91
        1
 92
        1
 93
        1
 72
     4
 94
        3
 73
     0
 74
     1
 95
       44
 96
       40
 40
0.0
 40
0.0
 40
0.0
 40
0.0
 40
1.0
 40
1.0
 40
1.0
 40
2.0
 40
2.0
 40
2.0
 40
3.0
 40
3.0
 40
3.0
 40
4.0
 40
4.0
 40
4.0
 40
5.0
 40
5.0
 40
5.0
 40
6.0
 40
6.0
 40
6.0
 40
7.0
 40
7.0
 40
7.0
 40
8.0
 40
8.0
 40
8.0
 40
9.0
 40
9.0
 40
9.0
 40
10.0
 40
10.0
 40
10.0
 40
11.0
 40
11.0
 40
11.0
 40
12.0
 40
12.0
 40
12.0
 40
13.0
 40
13.0
 40
13.0
 40
13.0
 10
102.0413167062605
 20
-136.0800658839487
 10
101.8084282514576
 20
-136.2388847858188
 10
101.7090372467082
 20
-136.3129543387516
 10
101.6570163048809
 20
-136.4566148204865
 10
101.6570163048809
 20
-136.4566148204865
 10
102.4890068645687
 20
-136.4566148204865
 10
102.4890068645687
 20
-136.4566148204865
 10
102.4890068645687
 20
-136.4566148204865
 10
102.4890068645687
 20
-136.6619425114074
 10
102.4890068645687
 20
-136.6619425114074
 10
102.4890068645687
 20
-136.6619425114074
 10
101.3901936595483
 20
-136.6619425114074
 10
101.3901936595483
 20
-136.6619425114074
 10
101.424127850078
 20
-136.3043416000385
 10
101.4942355432028
 20
-136.2261379325233
 10
101.9057521989159
 20
-135.9277926635007
 10
102.1792927804448
 20
-135.7290106540018
 10
102.2494004735696
 20
-135.6611422729424
 10
102.2494004735696
 20
-135.5236829630809
 10
102.2494004735696
 20
-135.4051716783883
 10
102.1725748442485
 20
-135.2742580499488
 10
101.962251764874
 20
-135.2742580499488
 10
101.6840603044401
 20
-135.2742580499488
 10
101.6751030561785
 20
-135.504734937912
 10
101.6706244320476
 20
-135.6211791653135
 10
101.6706244320476
 20
-135.6211791653135
 10
101.4308457862742
 20
-135.6211791653135
 10
101.4308457862742
 20
-135.6211791653135
 10
101.4399752893102
 20
-135.4940551419078
 10
101.4513441044115
 20
-135.3820895386371
 10
101.5371269819942
 20
-135.2635782539445
 10
101.6547769928155
 20
-135.1026922947834
 10
101.8537312570887
 20
-135.0689303590279
 10
101.9780992041062
 20
-135.0689303590279
 10
102.2742051610634
 20
-135.0689303590279
 10
102.495724800765
 20
-135.2528984579403
 10
102.495724800765
 20
-135.525750020372
 10
102.495724800765
 20
-135.7545043605926
 10
102.3713568537474
 20
-135.8537231105678
 10
102.0413167062605
 20
-136.0800658839487
 97
        0
 97
        0
 75
     2
 76
     1
 98
        0
  0
SPLINE
  5
BC
330
B6
100
AcDbEntity
  8
_U+30EC_U+30A4_U+30E4_U+30FC 1
370
     0
100
AcDbSpline
210
0.0
220
0.0
230
1.0
 70
    11
 71
     3
 72
    26
 73
    22
 74
     0
 42
0.0000000001
 43
0.0000000001
 12
1.0
 22
0.0
 32
0.0
 13
1.0
 23
0.0
 33
0.0
 40
0.0
 40
0.0
 40
0.0
 40
0.0
 40
1.0
 40
1.0
 40
1.0
 40
2.0
 40
2.0
 40
2.0
 40
3.0
 40
3.0
 40
3.0
 40
4.0
 40
4.0
 40
4.0
 40
5.0
 40
5.0
 40
5.0
 40
6.0
 40
6.0
 40
6.0
 40
7.0
 40
7.0
 40
7.0
 40
7.0
 10
103.1477091213485
 20
-136.6619425114074
 30
0.0
 10
103.1477091213485
 20
-136.6619425114074
 30
0.0
 10
103.1477091213485
 20
-135.5577894083849
 30
0.0
 10
103.1477091213485
 20
-135.5577894083849
 30
0.0
 10
103.1477091213485
 20
-135.5577894083849
 30
0.0
 10
102.7949313436589
 20
-135.5577894083849
 30
0.0
 10
102.7949313436589
 20
-135.5577894083849
 30
0.0
 10
102.7949313436589
 20
-135.5577894083849
 30
0.0
 10
102.7949313436589
 20
-135.4096503025191
 30
0.0
 10
102.7949313436589
 20
-135.4096503025191
 30
0.0
 10
103.1499484334139
 20
-135.3948363919326
 30
0.0
 10
103.1997300631758
 20
-135.2318833754802
 30
0.0
 10
103.2312526868658
 20
-135.1175062053699
 30
0.0
 10
103.2312526868658
 20
-135.1175062053699
 30
0.0
 10
103.3873155123476
 20
-135.1175062053699
 30
0.0
 10
103.3873155123476
 20
-135.1175062053699
 30
0.0
 10
103.3873155123476
 20
-135.1175062053699
 30
0.0
 10
103.3873155123476
 20
-136.6619425114074
 30
0.0
 10
103.3873155123476
 20
-136.6619425114074
 30
0.0
 10
103.3873155123476
 20
-136.6619425114074
 30
0.0
 10
103.1477091213485
 20
-136.6619425114074
 30
0.0
 10
103.1477091213485
 20
-136.6619425114074
 30
0.0
  0
HATCH
  5
BD
330
B6
100
AcDbEntity
  8
_U+30EC_U+30A4_U+30E4_U+30FC 1
 62
   179
420
  2234388
100
AcDbHatch
 10
0.0
 20
0.0
 30
0.0
210
0.0
220
0.0
230
1.0
  2
SOLID
 70
     1
 71
     0
 91
        1
 92
        1
 93
        1
 72
     4
 94
        3
 73
     0
 74
     1
 95
       26
 96
       22
 40
0.0
 40
0.0
 40
0.0
 40
0.0
 40
1.0
 40
1.0
 40
1.0
 40
2.0
 40
2.0
 40
2.0
 40
3.0
 40
3.0
 40
3.0
 40
4.0
 40
4.0
 40
4.0
 40
5.0
 40
5.0
 40
5.0
 40
6.0
 40
6.0
 40
6.0
 40
7.0
 40
7.0
 40
7.0
 40
7.0
 10
103.1477091213485
 20
-136.6619425114074
 10
103.1477091213485
 20
-136.6619425114074
 10
103.1477091213485
 20
-135.5577894083849
 10
103.1477091213485
 20
-135.5577894083849
 10
103.1477091213485
 20
-135.5577894083849
 10
102.7949313436589
 20
-135.5577894083849
 10
102.7949313436589
 20
-135.5577894083849
 10
102.7949313436589
 20
-135.5577894083849
 10
102.7949313436589
 20
-135.4096503025191
 10
102.7949313436589
 20
-135.4096503025191
 10
103.1499484334139
 20
-135.3948363919326
 10
103.1997300631758
 20
-135.2318833754802
 10
103.2312526868658
 20
-135.1175062053699
 10
103.2312526868658
 20
-135.1175062053699
 10
103.3873155123476
 20
-135.1175062053699
 10
103.3873155123476
 20
-135.1175062053699
 10
103.3873155123476
 20
-135.1175062053699
 10
103.3873155123476
 20
-136.6619425114074
 10
103.3873155123476
 20
-136.6619425114074
 10
103.3873155123476
 20
-136.6619425114074
 10
103.1477091213485
 20
-136.6619425114074
 10
103.1477091213485
 20
-136.6619425114074
 97
        0
 97
        0
 75
     2
 76
     1
 98
        0
  0
ENDBLK
  5
B9
330
B6
100
AcDbEntity
  8
0
100
AcDbBlockEnd
  0
BLOCK
  5
CC
330
CA
100
AcDbEntity
  8
0
100
AcDbBlockBegin
  2
block 5
 70
     0
 10
0.0
 20
0.0
 30
0.0
  3
block 5
  1

  0
SPLINE
  5
CE
330
CA
100
AcDbEntity
  8
_U+30EC_U+30A4_U+30E4_U+30FC 1
370
     0
100
AcDbSpline
210
0.0
220
0.0
230
1.0
 70
    11
 71
     3
 72
    32
 73
    28
 74
     0
 42
0.0000000001
 43
0.0000000001
 12
1.0
 22
0.0
 32
0.0
 13
1.0
 23
0.0
 33
0.0
 40
0.0
 40
0.0
 40
0.0
 40
0.0
 40
1.0
 40
1.0
 40
1.0
 40
2.0
 40
2.0
 40
2.0
 40
3.0
 40
3.0
 40
3.0
 40
4.0
 40
4.0
 40
4.0
 40
5.0
 40
5.0
 40
5.0
 40
6.0
 40
6.0
 40
6.0
 40
7.0
 40
7.0
 40
7.0
 40
8.0
 40
8.0
 40
8.0
 40
9.0
 40
9.0
 40
9.0
 40
9.0
 10
95.0755058898596
 20
-161.0123941654761
 30
0.0
 10
94.52377384789683
 20
-161.0123941654761
 30
0.0
 10
94.51481659963518
 20
-160.4584228114479
 30
0.0
 10
94.51481659963518
 20
-160.2444823818139
 30
0.0
 10
94.51481659963518
 20
-160.0140054938507
 30
0.0
 10
94.53514266299817
 20
-159.3666720521722
 30
0.0
 10
95.11615801658554
 20
-159.3666720521722
 30
0.0
 10
95.30167640846625
 20
-159.3666720521722
 30
0.0
 10
95.56384817489376
 20
-159.4366074905228
 30
0.0
 10
95.60450030161971
 20
-159.7687146953009
 30
0.0
 10
95.60450030161971
 20
-159.7687146953009
 30
0.0
 10
95.37626272572192
 20
-159.7687146953009
 30
0.0
 10
95.37626272572192
 20
-159.7687146953009
 30
0.0
 10
95.36489391062058
 20
-159.7115261102457
 30
0.0
 10
95.33095972009087
 20
-159.56338700438
 30
0.0
 10
95.11391870452013
 20
-159.56338700438
 30
0.0
 10
94.80196530833076
 20
-159.56338700438
 30
0.0
 10
94.7590738695394
 20
-159.8913600945758
 30
0.0
 10
94.74546574237266
 20
-160.0963432759482
 30
0.0
 10
94.84485674712212
 20
-160.018139608433
 30
0.0
 10
94.91720375231237
 20
-159.9588839660867
 30
0.0
 10
95.11167939245472
 20
-159.9588839660867
 30
0.0
 10
95.30391572053166
 20
-159.9588839660867
 30
0.0
 10
95.62723793182236
 20
-160.0670599643235
 30
0.0
 10
95.62723793182236
 20
-160.4732367220345
 30
0.0
 10
95.62723793182236
 20
-160.7925970735171
 30
0.0
 10
95.41467554038245
 20
-161.0123941654761
 30
0.0
 10
95.0755058898596
 20
-161.0123941654761
 30
0.0
  0
SPLINE
  5
CF
330
CA
100
AcDbEntity
  8
_U+30EC_U+30A4_U+30E4_U+30FC 1
370
     0
100
AcDbSpline
210
0.0
220
0.0
230
1.0
 70
    11
 71
     3
 72
    17
 73
    13
 74
     0
 42
0.0000000001
 43
0.0000000001
 12
1.0
 22
0.0
 32
0.0
 13
1.0
 23
0.0
 33
0.0
 40
0.0
 40
0.0
 40
0.0
 40
0.0
 40
1.0
 40
1.0
 40
1.0
 40
2.0
 40
2.0
 40
2.0
 40
3.0
 40
3.0
 40
3.0
 40
4.0
 40
4.0
 40
4.0
 40
4.0
 10
95.09359264115716
 20
-160.1535318610033
 30
0.0
 10
94.81316186865783
 20
-160.1535318610033
 30
0.0
 10
94.77250974193187
 20
-160.3650607237976
 30
0.0
 10
94.77250974193187
 20
-160.4815049511991
 30
0.0
 10
94.77250974193187
 20
-160.6572048209468
 30
0.0
 10
94.874312313521
 20
-160.8201578373991
 30
0.0
 10
95.07102726572877
 20
-160.8201578373991
 30
0.0
 10
95.19987383687712
 20
-160.8201578373991
 30
0.0
 10
95.38745928604898
 20
-160.7609021950528
 30
0.0
 10
95.38745928604898
 20
-160.4753037793256
 30
0.0
 10
95.38745928604898
 20
-160.2510280632359
 30
0.0
 10
95.23828665153765
 20
-160.1535318610033
 30
0.0
 10
95.09359264115716
 20
-160.1535318610033
 30
0.0
  0
HATCH
  5
D0
330
CA
100
AcDbEntity
  8
_U+30EC_U+30A4_U+30E4_U+30FC 1
 62
   179
420
  2234388
100
AcDbHatch
 10
0.0
 20
0.0
 30
0.0
210
0.0
220
0.0
230
1.0
  2
SOLID
 70
     1
 71
     0
 91
        2
 92
        1
 93
        1
 72
     4
 94
        3
 73
     0
 74
     1
 95
       32
 96
       28
 40
0.0
 40
0.0
 40
0.0
 40
0.0
 40
1.0
 40
1.0
 40
1.0
 40
2.0
 40
2.0
 40
2.0
 40
3.0
 40
3.0
 40
3.0
 40
4.0
 40
4.0
 40
4.0
 40
5.0
 40
5.0
 40
5.0
 40
6.0
 40
6.0
 40
6.0
 40
7.0
 40
7.0
 40
7.0
 40
8.0
 40
8.0
 40
8.0
 40
9.0
 40
9.0
 40
9.0
 40
9.0
 10
95.0755058898596
 20
-161.0123941654761
 10
94.52377384789683
 20
-161.0123941654761
 10
94.51481659963518
 20
-160.4584228114479
 10
94.51481659963518
 20
-160.2444823818139
 10
94.51481659963518
 20
-160.0140054938507
 10
94.53514266299817
 20
-159.3666720521722
 10
95.11615801658554
 20
-159.3666720521722
 10
95.30167640846625
 20
-159.3666720521722
 10
95.56384817489376
 20
-159.4366074905228
 10
95.60450030161971
 20
-159.7687146953009
 10
95.60450030161971
 20
-159.7687146953009
 10
95.37626272572192
 20
-159.7687146953009
 10
95.37626272572192
 20
-159.7687146953009
 10
95.36489391062058
 20
-159.7115261102457
 10
95.33095972009087
 20
-159.56338700438
 10
95.11391870452013
 20
-159.56338700438
 10
94.80196530833076
 20
-159.56338700438
 10
94.7590738695394
 20
-159.8913600945758
 10
94.74546574237266
 20
-160.0963432759482
 10
94.84485674712212
 20
-160.018139608433
 10
94.91720375231237
 20
-159.9588839660867
 10
95.11167939245472
 20
-159.9588839660867
 10
95.30391572053166
 20
-159.9588839660867
 10
95.62723793182236
 20
-160.0670599643235
 10
95.62723793182236
 20
-160.4732367220345
 10
95.62723793182236
 20
-160.7925970735171
 10
95.41467554038245
 20
-161.0123941654761
 10
95.0755058898596
 20
-161.0123941654761
 97
        0
 97
        0
 92
        1
 93
        1
 72
     4
 94
        3
 73
     0
 74
     1
 95
       17
 96
       13
 40
0.0
 40
0.0
 40
0.0
 40
0.0
 40
1.0
 40
1.0
 40
1.0
 40
2.0
 40
2.0
 40
2.0
 40
3.0
 40
3.0
 40
3.0
 40
4.0
 40
4.0
 40
4.0
 40
4.0
 10
95.09359264115716
 20
-160.1535318610033
 10
94.81316186865783
 20
-160.1535318610033
 10
94.77250974193187
 20
-160.3650607237976
 10
94.77250974193187
 20
-160.4815049511991
 10
94.77250974193187
 20
-160.6572048209468
 10
94.874312313521
 20
-160.8201578373991
 10
95.07102726572877
 20
-160.8201578373991
 10
95.19987383687712
 20
-160.8201578373991
 10
95.38745928604898
 20
-160.7609021950528
 10
95.38745928604898
 20
-160.4753037793256
 10
95.38745928604898
 20
-160.2510280632359
 10
95.23828665153765
 20
-160.1535318610033
 10
95.09359264115716
 20
-160.1535318610033
 97
        0
 97
        0
 75
     2
 76
     1
 98
        0
  0
ENDBLK
  5
CD
330
CA
100
AcDbEntity
  8
0
100
AcDbBlockEnd
  0
BLOCK
  5
DF
330
DD
100
AcDbEntity
  8
0
100
AcDbBlockBegin
  2
block 6
 70
     0
 10
0.0
 20
0.0
 30
0.0
  3
block 6
  1

  0
SPLINE
  5
E1
330
DD
100
AcDbEntity
  8
_U+30EC_U+30A4_U+30E4_U+30FC 1
370
     0
100
AcDbSpline
210
0.0
220
0.0
230
1.0
 70
    11
 71
     3
 72
    26
 73
    22
 74
     0
 42
0.0000000001
 43
0.0000000001
 12
1.0
 22
0.0
 32
0.0
 13
1.0
 23
0.0
 33
0.0
 40
0.0
 40
0.0
 40
0.0
 40
0.0
 40
1.0
 40
1.0
 40
1.0
 40
2.0
 40
2.0
 40
2.0
 40
3.0
 40
3.0
 40
3.0
 40
4.0
 40
4.0
 40
4.0
 40
5.0
 40
5.0
 40
5.0
 40
6.0
 40
6.0
 40
6.0
 40
7.0
 40
7.0
 40
7.0
 40
7.0
 10
115.7193793113479
 20
-150.6657388946252
 30
0.0
 10
115.7193793113479
 20
-150.6657388946252
 30
0.0
 10
114.6152262083254
 20
-150.6657388946252
 30
0.0
 10
114.6152262083254
 20
-150.6657388946252
 30
0.0
 10
114.6152262083254
 20
-150.6657388946252
 30
0.0
 10
114.6152262083254
 20
-151.0185166723148
 30
0.0
 10
114.6152262083254
 20
-151.0185166723148
 30
0.0
 10
114.6152262083254
 20
-151.0185166723148
 30
0.0
 10
114.4670871024596
 20
-151.0185166723148
 30
0.0
 10
114.4670871024596
 20
-151.0185166723148
 30
0.0
 10
114.452273191873
 20
-150.6636718373341
 30
0.0
 10
114.2893201754207
 20
-150.613717952798
 30
0.0
 10
114.1749430053104
 20
-150.5820230743337
 30
0.0
 10
114.1749430053104
 20
-150.5820230743337
 30
0.0
 10
114.1749430053104
 20
-150.4259602488519
 30
0.0
 10
114.1749430053104
 20
-150.4259602488519
 30
0.0
 10
114.1749430053104
 20
-150.4259602488519
 30
0.0
 10
115.7193793113479
 20
-150.4259602488519
 30
0.0
 10
115.7193793113479
 20
-150.4259602488519
 30
0.0
 10
115.7193793113479
 20
-150.4259602488519
 30
0.0
 10
115.7193793113479
 20
-150.6657388946252
 30
0.0
 10
115.7193793113479
 20
-150.6657388946252
 30
0.0
  0
HATCH
  5
E2
330
DD
100
AcDbEntity
  8
_U+30EC_U+30A4_U+30E4_U+30FC 1
 62
   179
420
  2234388
100
AcDbHatch
 10
0.0
 20
0.0
 30
0.0
210
0.0
220
0.0
230
1.0
  2
SOLID
 70
     1
 71
     0
 91
        1
 92
        1
 93
        1
 72
     4
 94
        3
 73
     0
 74
     1
 95
       26
 96
       22
 40
0.0
 40
0.0
 40
0.0
 40
0.0
 40
1.0
 40
1.0
 40
1.0
 40
2.0
 40
2.0
 40
2.0
 40
3.0
 40
3.0
 40
3.0
 40
4.0
 40
4.0
 40
4.0
 40
5.0
 40
5.0
 40
5.0
 40
6.0
 40
6.0
 40
6.0
 40
7.0
 40
7.0
 40
7.0
 40
7.0
 10
115.7193793113479
 20
-150.6657388946252
 10
115.7193793113479
 20
-150.6657388946252
 10
114.6152262083254
 20
-150.6657388946252
 10
114.6152262083254
 20
-150.6657388946252
 10
114.6152262083254
 20
-150.6657388946252
 10
114.6152262083254
 20
-151.0185166723148
 10
114.6152262083254
 20
-151.0185166723148
 10
114.6152262083254
 20
-151.0185166723148
 10
114.4670871024596
 20
-151.0185166723148
 10
114.4670871024596
 20
-151.0185166723148
 10
114.452273191873
 20
-150.6636718373341
 10
114.2893201754207
 20
-150.613717952798
 10
114.1749430053104
 20
-150.5820230743337
 10
114.1749430053104
 20
-150.5820230743337
 10
114.1749430053104
 20
-150.4259602488519
 10
114.1749430053104
 20
-150.4259602488519
 10
114.1749430053104
 20
-150.4259602488519
 10
115.7193793113479
 20
-150.4259602488519
 10
115.7193793113479
 20
-150.4259602488519
 10
115.7193793113479
 20
-150.4259602488519
 10
115.7193793113479
 20
-150.6657388946252
 10
115.7193793113479
 20
-150.6657388946252
 97
        0
 97
        0
 75
     2
 76
     1
 98
        0
  0
SPLINE
  5
E3
330
DD
100
AcDbEntity
  8
_U+30EC_U+30A4_U+30E4_U+30FC 1
370
     0
100
AcDbSpline
210
0.0
220
0.0
230
1.0
 70
    11
 71
     3
 72
    44
 73
    40
 74
     0
 42
0.0000000001
 43
0.0000000001
 12
1.0
 22
0.0
 32
0.0
 13
1.0
 23
0.0
 33
0.0
 40
0.0
 40
0.0
 40
0.0
 40
0.0
 40
1.0
 40
1.0
 40
1.0
 40
2.0
 40
2.0
 40
2.0
 40
3.0
 40
3.0
 40
3.0
 40
4.0
 40
4.0
 40
4.0
 40
5.0
 40
5.0
 40
5.0
 40
6.0
 40
6.0
 40
6.0
 40
7.0
 40
7.0
 40
7.0
 40
8.0
 40
8.0
 40
8.0
 40
9.0
 40
9.0
 40
9.0
 40
10.0
 40
10.0
 40
10.0
 40
11.0
 40
11.0
 40
11.0
 40
12.0
 40
12.0
 40
12.0
 40
13.0
 40
13.0
 40
13.0
 40
13.0
 10
115.1375026838892
 20
-149.2566948411581
 30
0.0
 10
115.2963215857593
 20
-149.489583295961
 30
0.0
 10
115.3703911386921
 20
-149.5888020459361
 30
0.0
 10
115.5140516204271
 20
-149.6408229877634
 30
0.0
 10
115.5140516204271
 20
-149.6408229877634
 30
0.0
 10
115.5140516204271
 20
-148.8088324280756
 30
0.0
 10
115.5140516204271
 20
-148.8088324280756
 30
0.0
 10
115.5140516204271
 20
-148.8088324280756
 30
0.0
 10
115.7193793113479
 20
-148.8088324280756
 30
0.0
 10
115.7193793113479
 20
-148.8088324280756
 30
0.0
 10
115.7193793113479
 20
-148.8088324280756
 30
0.0
 10
115.7193793113479
 20
-149.9078178878703
 30
0.0
 10
115.7193793113479
 20
-149.9078178878703
 30
0.0
 10
115.361778399979
 20
-149.8737114425663
 30
0.0
 10
115.2835747324638
 20
-149.8037760042157
 30
0.0
 10
114.9852294634412
 20
-149.3920870937284
 30
0.0
 10
114.7864474539423
 20
-149.1185465121995
 30
0.0
 10
114.7185790728829
 20
-149.048611073849
 30
0.0
 10
114.5811197630214
 20
-149.048611073849
 30
0.0
 10
114.4626084783288
 20
-149.048611073849
 30
0.0
 10
114.3316948498893
 20
-149.12543670317
 30
0.0
 10
114.3316948498893
 20
-149.3355875277703
 30
0.0
 10
114.3316948498893
 20
-149.6136067334299
 30
0.0
 10
114.5621717378525
 20
-149.6225639816916
 30
0.0
 10
114.678615965254
 20
-149.6273871153709
 30
0.0
 10
114.678615965254
 20
-149.6273871153709
 30
0.0
 10
114.678615965254
 20
-149.8668212515958
 30
0.0
 10
114.678615965254
 20
-149.8668212515958
 30
0.0
 10
114.5514919418482
 20
-149.8578640033342
 30
0.0
 10
114.4395263385776
 20
-149.8464951882328
 30
0.0
 10
114.321015053885
 20
-149.7607123106501
 30
0.0
 10
114.1601290947239
 20
-149.6432345546031
 30
0.0
 10
114.1263671589684
 20
-149.4441080355556
 30
0.0
 10
114.1263671589684
 20
-149.3197400885381
 30
0.0
 10
114.1263671589684
 20
-149.0238063863552
 30
0.0
 10
114.3103352578808
 20
-148.8021144918793
 30
0.0
 10
114.5831868203125
 20
-148.8021144918793
 30
0.0
 10
114.8119411605331
 20
-148.8021144918793
 30
0.0
 10
114.9111599105083
 20
-148.9263101841226
 30
0.0
 10
115.1375026838892
 20
-149.2566948411581
 30
0.0
  0
HATCH
  5
E4
330
DD
100
AcDbEntity
  8
_U+30EC_U+30A4_U+30E4_U+30FC 1
 62
   179
420
  2234388
100
AcDbHatch
 10
0.0
 20
0.0
 30
0.0
210
0.0
220
0.0
230
1.0
  2
SOLID
 70
     1
 71
     0
 91
        1
 92
        1
 93
        1
 72
     4
 94
        3
 73
     0
 74
     1
 95
       44
 96
       40
 40
0.0
 40
0.0
 40
0.0
 40
0.0
 40
1.0
 40
1.0
 40
1.0
 40
2.0
 40
2.0
 40
2.0
 40
3.0
 40
3.0
 40
3.0
 40
4.0
 40
4.0
 40
4.0
 40
5.0
 40
5.0
 40
5.0
 40
6.0
 40
6.0
 40
6.0
 40
7.0
 40
7.0
 40
7.0
 40
8.0
 40
8.0
 40
8.0
 40
9.0
 40
9.0
 40
9.0
 40
10.0
 40
10.0
 40
10.0
 40
11.0
 40
11.0
 40
11.0
 40
12.0
 40
12.0
 40
12.0
 40
13.0
 40
13.0
 40
13.0
 40
13.0
 10
115.1375026838892
 20
-149.2566948411581
 10
115.2963215857593
 20
-149.489583295961
 10
115.3703911386921
 20
-149.5888020459361
 10
115.5140516204271
 20
-149.6408229877634
 10
115.5140516204271
 20
-149.6408229877634
 10
115.5140516204271
 20
-148.8088324280756
 10
115.5140516204271
 20
-148.8088324280756
 10
115.5140516204271
 20
-148.8088324280756
 10
115.7193793113479
 20
-148.8088324280756
 10
115.7193793113479
 20
-148.8088324280756
 10
115.7193793113479
 20
-148.8088324280756
 10
115.7193793113479
 20
-149.9078178878703
 10
115.7193793113479
 20
-149.9078178878703
 10
115.361778399979
 20
-149.8737114425663
 10
115.2835747324638
 20
-149.8037760042157
 10
114.9852294634412
 20
-149.3920870937284
 10
114.7864474539423
 20
-149.1185465121995
 10
114.7185790728829
 20
-149.048611073849
 10
114.5811197630214
 20
-149.048611073849
 10
114.4626084783288
 20
-149.048611073849
 10
114.3316948498893
 20
-149.12543670317
 10
114.3316948498893
 20
-149.3355875277703
 10
114.3316948498893
 20
-149.6136067334299
 10
114.5621717378525
 20
-149.6225639816916
 10
114.678615965254
 20
-149.6273871153709
 10
114.678615965254
 20
-149.6273871153709
 10
114.678615965254
 20
-149.8668212515958
 10
114.678615965254
 20
-149.8668212515958
 10
114.5514919418482
 20
-149.8578640033342
 10
114.4395263385776
 20
-149.8464951882328
 10
114.321015053885
 20
-149.7607123106501
 10
114.1601290947239
 20
-149.6432345546031
 10
114.1263671589684
 20
-149.4441080355556
 10
114.1263671589684
 20
-149.3197400885381
 10
114.1263671589684
 20
-149.0238063863552
 10
114.3103352578808
 20
-148.8021144918793
 10
114.5831868203125
 20
-148.8021144918793
 10
114.8119411605331
 20
-148.8021144918793
 10
114.9111599105083
 20
-148.9263101841226
 10
115.1375026838892
 20
-149.2566948411581
 97
        0
 97
        0
 75
     2
 76
     1
 98
        0
  0
POLYLINE
  5
E5
330
DD
100
AcDbEntity
  8
_U+30EC_U+30A4_U+30E4_U+30FC 1
370
     0
100
AcDb2dPolyline
 66
     1
 10
0.0
 20
0.0
 30
0.0
  0
VERTEX
  5
E6
330
E5
100
AcDbEntity
  8
_U+30EC_U+30A4_U+30E4_U+30FC 1
370
     0
100
AcDbVertex
100
AcDb2dVertex
 10
115.7193793113479
 20
-148.5683647632051
 30
0.0
  0
VERTEX
  5
E7
330
E5
100
AcDbEntity
  8
_U+30EC_U+30A4_U+30E4_U+30FC 1
370
     0
100
AcDbVertex
100
AcDb2dVertex
 10
115.4675428313762
 20
-148.5683647632051
 30
0.0
  0
VERTEX
  5
E8
330
E5
100
AcDbEntity
  8
_U+30EC_U+30A4_U+30E4_U+30FC 1
370
     0
100
AcDbVertex
100
AcDb2dVertex
 10
115.4675428313762
 20
-148.2993028058071
 30
0.0
  0
VERTEX
  5
E9
330
E5
100
AcDbEntity
  8
_U+30EC_U+30A4_U+30E4_U+30FC 1
370
     0
100
AcDbVertex
100
AcDb2dVertex
 10
115.7193793113479
 20
-148.2993028058071
 30
0.0
  0
VERTEX
  5
EA
330
E5
100
AcDbEntity
  8
_U+30EC_U+30A4_U+30E4_U+30FC 1
370
     0
100
AcDbVertex
100
AcDb2dVertex
 10
115.7193793113479
 20
-148.5683647632051
 30
0.0
  0
SEQEND
  5
EB
330
E5
100
AcDbEntity
  8
_U+30EC_U+30A4_U+30E4_U+30FC 1
370
     0
  0
HATCH
  5
EC
330
DD
100
AcDbEntity
  8
_U+30EC_U+30A4_U+30E4_U+30FC 1
 62
   179
420
  2234388
100
AcDbHatch
 10
0.0
 20
0.0
 30
0.0
210
0.0
220
0.0
230
1.0
  2
SOLID
 70
     1
 71
     0
 91
        1
 92
        1
 93
        4
 72
     1
 10
115.7193793113479
 20
-148.5683647632051
 11
115.4675428313762
 21
-148.5683647632051
 72
     1
 10
115.4675428313762
 20
-148.5683647632051
 11
115.4675428313762
 21
-148.2993028058071
 72
     1
 10
115.4675428313762
 20
-148.2993028058071
 11
115.7193793113479
 21
-148.2993028058071
 72
     1
 10
115.7193793113479
 20
-148.2993028058071
 11
115.7193793113479
 21
-148.5683647632051
 97
        0
 75
     2
 76
     1
 98
        0
  0
SPLINE
  5
ED
330
DD
100
AcDbEntity
  8
_U+30EC_U+30A4_U+30E4_U+30FC 1
370
     0
100
AcDbSpline
210
0.0
220
0.0
230
1.0
 70
    11
 71
     3
 72
    53
 73
    49
 74
     0
 42
0.0000000001
 43
0.0000000001
 12
1.0
 22
0.0
 32
0.0
 13
1.0
 23
0.0
 33
0.0
 40
0.0
 40
0.0
 40
0.0
 40
0.0
 40
1.0
 40
1.0
 40
1.0
 40
2.0
 40
2.0
 40
2.0
 40
3.0
 40
3.0
 40
3.0
 40
4.0
 40
4.0
 40
4.0
 40
5.0
 40
5.0
 40
5.0
 40
6.0
 40
6.0
 40
6.0
 40
7.0
 40
7.0
 40
7.0
 40
8.0
 40
8.0
 40
8.0
 40
9.0
 40
9.0
 40
9.0
 40
10.0
 40
10.0
 40
10.0
 40
11.0
 40
11.0
 40
11.0
 40
12.0
 40
12.0
 40
12.0
 40
13.0
 40
13.0
 40
13.0
 40
14.0
 40
14.0
 40
14.0
 40
15.0
 40
15.0
 40
15.0
 40
16.0
 40
16.0
 40
16.0
 40
16.0
 10
115.7700222149811
 20
-147.5325968055648
 30
0.0
 10
115.7700222149811
 20
-147.6163126258564
 30
0.0
 10
115.7531412471034
 20
-147.7248331336417
 30
0.0
 10
115.6897514901748
 20
-147.8333536414271
 30
0.0
 10
115.5798529441953
 20
-148.0186997785335
 30
0.0
 10
115.4485948062073
 20
-148.0412651539619
 30
0.0
 10
115.340763317519
 20
-148.0617634720992
 30
0.0
 10
115.340763317519
 20
-148.0617634720992
 30
0.0
 10
115.340763317519
 20
-147.8242241383912
 30
0.0
 10
115.340763317519
 20
-147.8242241383912
 30
0.0
 10
115.5395453270179
 20
-147.7654852603677
 30
0.0
 10
115.569173148191
 20
-147.6299207530231
 30
0.0
 10
115.569173148191
 20
-147.5303574934994
 30
0.0
 10
115.569173148191
 20
-147.381184858988
 30
0.0
 10
115.4696098886673
 20
-147.21840409731
 30
0.0
 10
115.237065943413
 20
-147.21840409731
 30
0.0
 10
114.9810953488589
 20
-147.21840409731
 30
0.0
 10
114.9111599105083
 20
-147.4106404253869
 30
0.0
 10
114.9111599105083
 20
-147.5394869965353
 30
0.0
 10
114.9111599105083
 20
-147.573421187065
 30
0.0
 10
114.9111599105083
 20
-147.7248331336417
 30
0.0
 10
115.0403509912052
 20
-147.8197455142603
 30
0.0
 10
115.0403509912052
 20
-147.8197455142603
 30
0.0
 10
115.0214029660363
 20
-148.0075032182065
 30
0.0
 10
115.0214029660363
 20
-148.0075032182065
 30
0.0
 10
115.0214029660363
 20
-148.0075032182065
 30
0.0
 10
114.1749430053104
 20
-147.8786566470581
 30
0.0
 10
114.1749430053104
 20
-147.8786566470581
 30
0.0
 10
114.1749430053104
 20
-147.8786566470581
 30
0.0
 10
114.1749430053104
 20
-147.0466660873703
 30
0.0
 10
114.1749430053104
 20
-147.0466660873703
 30
0.0
 10
114.1749430053104
 20
-147.0466660873703
 30
0.0
 10
114.3695909002271
 20
-147.0466660873703
 30
0.0
 10
114.3695909002271
 20
-147.0466660873703
 30
0.0
 10
114.3695909002271
 20
-147.0466660873703
 30
0.0
 10
114.3695909002271
 20
-147.7045070702787
 30
0.0
 10
114.3695909002271
 20
-147.7045070702787
 30
0.0
 10
114.3695909002271
 20
-147.7045070702787
 30
0.0
 10
114.7926486258157
 20
-147.7746147634036
 30
0.0
 10
114.7926486258157
 20
-147.7746147634036
 30
0.0
 10
114.7588866900603
 20
-147.7089856944096
 30
0.0
 10
114.7185790728829
 20
-147.6207912499872
 30
0.0
 10
114.7185790728829
 20
-147.4941839909042
 30
0.0
 10
114.7185790728829
 20
-147.2228827214408
 30
0.0
 10
114.9049587386349
 20
-146.9698404580492
 30
0.0
 10
115.2181179182441
 20
-146.9698404580492
 30
0.0
 10
115.5354112124356
 20
-146.9698404580492
 30
0.0
 10
115.7700222149811
 20
-147.2092745942741
 30
0.0
 10
115.7700222149811
 20
-147.5325968055648
 30
0.0
  0
HATCH
  5
EE
330
DD
100
AcDbEntity
  8
_U+30EC_U+30A4_U+30E4_U+30FC 1
 62
   179
420
  2234388
100
AcDbHatch
 10
0.0
 20
0.0
 30
0.0
210
0.0
220
0.0
230
1.0
  2
SOLID
 70
     1
 71
     0
 91
        1
 92
        1
 93
        1
 72
     4
 94
        3
 73
     0
 74
     1
 95
       53
 96
       49
 40
0.0
 40
0.0
 40
0.0
 40
0.0
 40
1.0
 40
1.0
 40
1.0
 40
2.0
 40
2.0
 40
2.0
 40
3.0
 40
3.0
 40
3.0
 40
4.0
 40
4.0
 40
4.0
 40
5.0
 40
5.0
 40
5.0
 40
6.0
 40
6.0
 40
6.0
 40
7.0
 40
7.0
 40
7.0
 40
8.0
 40
8.0
 40
8.0
 40
9.0
 40
9.0
 40
9.0
 40
10.0
 40
10.0
 40
10.0
 40
11.0
 40
11.0
 40
11.0
 40
12.0
 40
12.0
 40
12.0
 40
13.0
 40
13.0
 40
13.0
 40
14.0
 40
14.0
 40
14.0
 40
15.0
 40
15.0
 40
15.0
 40
16.0
 40
16.0
 40
16.0
 40
16.0
 10
115.7700222149811
 20
-147.5325968055648
 10
115.7700222149811
 20
-147.6163126258564
 10
115.7531412471034
 20
-147.7248331336417
 10
115.6897514901748
 20
-147.8333536414271
 10
115.5798529441953
 20
-148.0186997785335
 10
115.4485948062073
 20
-148.0412651539619
 10
115.340763317519
 20
-148.0617634720992
 10
115.340763317519
 20
-148.0617634720992
 10
115.340763317519
 20
-147.8242241383912
 10
115.340763317519
 20
-147.8242241383912
 10
115.5395453270179
 20
-147.7654852603677
 10
115.569173148191
 20
-147.6299207530231
 10
115.569173148191
 20
-147.5303574934994
 10
115.569173148191
 20
-147.381184858988
 10
115.4696098886673
 20
-147.21840409731
 10
115.237065943413
 20
-147.21840409731
 10
114.9810953488589
 20
-147.21840409731
 10
114.9111599105083
 20
-147.4106404253869
 10
114.9111599105083
 20
-147.5394869965353
 10
114.9111599105083
 20
-147.573421187065
 10
114.9111599105083
 20
-147.7248331336417
 10
115.0403509912052
 20
-147.8197455142603
 10
115.0403509912052
 20
-147.8197455142603
 10
115.0214029660363
 20
-148.0075032182065
 10
115.0214029660363
 20
-148.0075032182065
 10
115.0214029660363
 20
-148.0075032182065
 10
114.1749430053104
 20
-147.8786566470581
 10
114.1749430053104
 20
-147.8786566470581
 10
114.1749430053104
 20
-147.8786566470581
 10
114.1749430053104
 20
-147.0466660873703
 10
114.1749430053104
 20
-147.0466660873703
 10
114.1749430053104
 20
-147.0466660873703
 10
114.3695909002271
 20
-147.0466660873703
 10
114.3695909002271
 20
-147.0466660873703
 10
114.3695909002271
 20
-147.0466660873703
 10
114.3695909002271
 20
-147.7045070702787
 10
114.3695909002271
 20
-147.7045070702787
 10
114.3695909002271
 20
-147.7045070702787
 10
114.7926486258157
 20
-147.7746147634036
 10
114.7926486258157
 20
-147.7746147634036
 10
114.7588866900603
 20
-147.7089856944096
 10
114.7185790728829
 20
-147.6207912499872
 10
114.7185790728829
 20
-147.4941839909042
 10
114.7185790728829
 20
-147.2228827214408
 10
114.9049587386349
 20
-146.9698404580492
 10
115.2181179182441
 20
-146.9698404580492
 10
115.5354112124356
 20
-146.9698404580492
 10
115.7700222149811
 20
-147.2092745942741
 10
115.7700222149811
 20
-147.5325968055648
 97
        0
 97
        0
 75
     2
 76
     1
 98
        0
  0
ENDBLK
  5
E0
330
DD
100
AcDbEntity
  8
0
100
AcDbBlockEnd
  0
ENDSEC
  0
SECTION
  2
ENTITIES
  0
POLYLINE
  5
41
330
1F
100
AcDbEntity
  8
_U+30EC_U+30A4_U+30E4_U+30FC 1
 62
   179
420
  2234388
370
    25
100
AcDb2dPolyline
 66
     1
 10
0.0
 20
0.0
 30
0.0
  0
VERTEX
  5
42
330
41
100
AcDbEntity
  8
_U+30EC_U+30A4_U+30E4_U+30FC 1
 62
   179
420
  2234388
370
    25
100
AcDbVertex
100
AcDb2dVertex
 10
92.07115654233053
 20
-142.0131339671823
 30
0.0
  0
VERTEX
  5
43
330
41
100
AcDbEntity
  8
_U+30EC_U+30A4_U+30E4_U+30FC 1
 62
   179
420
  2234388
370
    25
100
AcDbVertex
100
AcDb2dVertex
 10
113.0709513911387
 20
-142.0131339671823
 30
0.0
  0
SEQEND
  5
44
330
41
100
AcDbEntity
  8
_U+30EC_U+30A4_U+30E4_U+30FC 1
 62
   179
420
  2234388
370
    25
  0
POLYLINE
  5
45
330
1F
100
AcDbEntity
  8
_U+30EC_U+30A4_U+30E4_U+30FC 1
 62
   179
420
  2234388
370
    25
100
AcDb2dPolyline
 66
     1
 10
0.0
 20
0.0
 30
0.0
  0
VERTEX
  5
46
330
45
100
AcDbEntity
  8
_U+30EC_U+30A4_U+30E4_U+30FC 1
 62
   179
420
  2234388
370
    25
100
AcDbVertex
100
AcDb2dVertex
 10
92.87111847992925
 20
-142.8130959047807
 30
0.0
  0
VERTEX
  5
47
330
45
100
AcDbEntity
  8
_U+30EC_U+30A4_U+30E4_U+30FC 1
 62
   179
420
  2234388
370
    25
100
AcDbVertex
100
AcDb2dVertex
 10
113.0711667096066
 20
-142.8130959047807
 30
0.0
  0
SEQEND
  5
48
330
45
100
AcDbEntity
  8
_U+30EC_U+30A4_U+30E4_U+30FC 1
 62
   179
420
  2234388
370
    25
  0
POLYLINE
  5
49
330
1F
100
AcDbEntity
  8
_U+30EC_U+30A4_U+30E4_U+30FC 1
 62
   179
420
  2234388
370
    25
100
AcDb2dPolyline
 66
     1
 10
0.0
 20
0.0
 30
0.0
  0
VERTEX
  5
4A
330
49
100
AcDbEntity
  8
_U+30EC_U+30A4_U+30E4_U+30FC 1
 62
   179
420
  2234388
370
    25
100
AcDbVertex
100
AcDb2dVertex
 10
113.0710590503727
 20
-142.0131339671823
 30
0.0
  0
VERTEX
  5
4B
330
49
100
AcDbEntity
  8
_U+30EC_U+30A4_U+30E4_U+30FC 1
 62
   179
420
  2234388
370
    25
100
AcDbVertex
100
AcDb2dVertex
 10
113.0710590503727
 20
-142.8132358617848
 30
0.0
  0
SEQEND
  5
4C
330
49
100
AcDbEntity
  8
_U+30EC_U+30A4_U+30E4_U+30FC 1
 62
   179
420
  2234388
370
    25
  0
POLYLINE
  5
4D
330
1F
100
AcDbEntity
  8
_U+30EC_U+30A4_U+30E4_U+30FC 1
 62
   179
420
  2234388
370
    25
100
AcDb2dPolyline
 66
     1
 10
0.0
 20
0.0
 30
0.0
  0
VERTEX
  5
4E
330
4D
100
AcDbEntity
  8
_U+30EC_U+30A4_U+30E4_U+30FC 1
 62
   179
420
  2234388
370
    25
100
AcDbVertex
100
AcDb2dVertex
 10
92.07115654233053
 20
-142.0131339671823
 30
0.0
  0
VERTEX
  5
4F
330
4D
100
AcDbEntity
  8
_U+30EC_U+30A4_U+30E4_U+30FC 1
 62
   179
420
  2234388
370
    25
100
AcDbVertex
100
AcDb2dVertex
 10
92.07115654233053
 20
-158.3135924897185
 30
0.0
  0
SEQEND
  5
50
330
4D
100
AcDbEntity
  8
_U+30EC_U+30A4_U+30E4_U+30FC 1
 62
   179
420
  2234388
370
    25
  0
POLYLINE
  5
51
330
1F
100
AcDbEntity
  8
_U+30EC_U+30A4_U+30E4_U+30FC 1
 62
   179
420
  2234388
370
    25
100
AcDb2dPolyline
 66
     1
 10
0.0
 20
0.0
 30
0.0
  0
VERTEX
  5
52
330
51
100
AcDbEntity
  8
_U+30EC_U+30A4_U+30E4_U+30FC 1
 62
   179
420
  2234388
370
    25
100
AcDbVertex
100
AcDb2dVertex
 10
92.87111847992925
 20
-142.8130959047807
 30
0.0
  0
VERTEX
  5
53
330
51
100
AcDbEntity
  8
_U+30EC_U+30A4_U+30E4_U+30FC 1
 62
   179
420
  2234388
370
    25
100
AcDbVertex
100
AcDb2dVertex
 10
92.87111847992925
 20
-157.5137059135838
 30
0.0
  0
SEQEND
  5
54
330
51
100
AcDbEntity
  8
_U+30EC_U+30A4_U+30E4_U+30FC 1
 62
   179
420
  2234388
370
    25
  0
POLYLINE
  5
55
330
1F
100
AcDbEntity
  8
_U+30EC_U+30A4_U+30E4_U+30FC 1
 62
   179
420
  2234388
370
    25
100
AcDb2dPolyline
 66
     1
 10
0.0
 20
0.0
 30
0.0
  0
VERTEX
  5
56
330
55
100
AcDbEntity
  8
_U+30EC_U+30A4_U+30E4_U+30FC 1
 62
   179
420
  2234388
370
    25
100
AcDbVertex
100
AcDb2dVertex
 10
96.06886687526122
 20
-155.3135602774693
 30
0.0
  0
VERTEX
  5
57
330
55
100
AcDbEntity
  8
_U+30EC_U+30A4_U+30E4_U+30FC 1
 62
   179
420
  2234388
370
    25
100
AcDbVertex
100
AcDb2dVertex
 10
98.07123173275248
 20
-155.3135602774693
 30
0.0
  0
SEQEND
  5
58
330
55
100
AcDbEntity
  8
_U+30EC_U+30A4_U+30E4_U+30FC 1
 62
   179
420
  2234388
370
    25
  0
POLYLINE
  5
59
330
1F
100
AcDbEntity
  8
_U+30EC_U+30A4_U+30E4_U+30FC 1
 62
   179
420
  2234388
370
    25
100
AcDb2dPolyline
 66
     1
 10
0.0
 20
0.0
 30
0.0
  0
VERTEX
  5
5A
330
59
100
AcDbEntity
  8
_U+30EC_U+30A4_U+30E4_U+30FC 1
 62
   179
420
  2234388
370
    25
100
AcDbVertex
100
AcDb2dVertex
 10
92.07115654233053
 20
-158.3136247874887
 30
0.0
  0
VERTEX
  5
5B
330
59
100
AcDbEntity
  8
_U+30EC_U+30A4_U+30E4_U+30FC 1
 62
   179
420
  2234388
370
    25
100
AcDbVertex
100
AcDb2dVertex
 10
98.07119943498199
 20
-158.3136247874887
 30
0.0
  0
SEQEND
  5
5C
330
59
100
AcDbEntity
  8
_U+30EC_U+30A4_U+30E4_U+30FC 1
 62
   179
420
  2234388
370
    25
  0
POLYLINE
  5
5D
330
1F
100
AcDbEntity
  8
_U+30EC_U+30A4_U+30E4_U+30FC 1
 62
   179
420
  2234388
370
    25
100
AcDb2dPolyline
 66
     1
 10
0.0
 20
0.0
 30
0.0
  0
VERTEX
  5
5E
330
5D
100
AcDbEntity
  8
_U+30EC_U+30A4_U+30E4_U+30FC 1
 62
   179
420
  2234388
370
    25
100
AcDbVertex
100
AcDb2dVertex
 10
98.07112407351825
 20
-155.3135602774693
 30
0.0
  0
VERTEX
  5
5F
330
5D
100
AcDbEntity
  8
_U+30EC_U+30A4_U+30E4_U+30FC 1
 62
   179
420
  2234388
370
    25
100
AcDbVertex
100
AcDb2dVertex
 10
98.07112407351825
 20
-158.3135924897185
 30
0.0
  0
SEQEND
  5
60
330
5D
100
AcDbEntity
  8
_U+30EC_U+30A4_U+30E4_U+30FC 1
 62
   179
420
  2234388
370
    25
  0
POLYLINE
  5
61
330
1F
100
AcDbEntity
  8
_U+30EC_U+30A4_U+30E4_U+30FC 1
 62
   179
420
  2234388
370
    25
100
AcDb2dPolyline
 66
     1
 10
0.0
 20
0.0
 30
0.0
  0
VERTEX
  5
62
330
61
100
AcDbEntity
  8
_U+30EC_U+30A4_U+30E4_U+30FC 1
 62
   179
420
  2234388
370
    25
100
AcDbVertex
100
AcDb2dVertex
 10
96.06886687526122
 20
-155.3135602774693
 30
0.0
  0
VERTEX
  5
63
330
61
100
AcDbEntity
  8
_U+30EC_U+30A4_U+30E4_U+30FC 1
 62
   179
420
  2234388
370
    25
100
AcDbVertex
100
AcDb2dVertex
 10
96.06886687526122
 20
-156.1136621720719
 30
0.0
  0
SEQEND
  5
64
330
61
100
AcDbEntity
  8
_U+30EC_U+30A4_U+30E4_U+30FC 1
 62
   179
420
  2234388
370
    25
  0
POLYLINE
  5
65
330
1F
100
AcDbEntity
  8
_U+30EC_U+30A4_U+30E4_U+30FC 1
 62
   179
420
  2234388
370
    25
100
AcDb2dPolyline
 66
     1
 10
0.0
 20
0.0
 30
0.0
  0
VERTEX
  5
66
330
65
100
AcDbEntity
  8
_U+30EC_U+30A4_U+30E4_U+30FC 1
 62
   179
420
  2234388
370
    25
100
AcDbVertex
100
AcDb2dVertex
 10
92.87111847992925
 20
-157.5136628498903
 30
0.0
  0
VERTEX
  5
67
330
65
100
AcDbEntity
  8
_U+30EC_U+30A4_U+30E4_U+30FC 1
 62
   179
420
  2234388
370
    25
100
AcDbVertex
100
AcDb2dVertex
 10
97.27131285884732
 20
-157.5136628498903
 30
0.0
  0
SEQEND
  5
68
330
65
100
AcDbEntity
  8
_U+30EC_U+30A4_U+30E4_U+30FC 1
 62
   179
420
  2234388
370
    25
  0
POLYLINE
  5
69
330
1F
100
AcDbEntity
  8
_U+30EC_U+30A4_U+30E4_U+30FC 1
 62
   179
420
  2234388
370
    25
100
AcDb2dPolyline
 66
     1
 10
0.0
 20
0.0
 30
0.0
  0
VERTEX
  5
6A
330
69
100
AcDbEntity
  8
_U+30EC_U+30A4_U+30E4_U+30FC 1
 62
   179
420
  2234388
370
    25
100
AcDbVertex
100
AcDb2dVertex
 10
97.2712051996134
 20
-156.1135545128379
 30
0.0
  0
VERTEX
  5
6B
330
69
100
AcDbEntity
  8
_U+30EC_U+30A4_U+30E4_U+30FC 1
 62
   179
420
  2234388
370
    25
100
AcDbVertex
100
AcDb2dVertex
 10
97.2712051996134
 20
-157.513738211354
 30
0.0
  0
SEQEND
  5
6C
330
69
100
AcDbEntity
  8
_U+30EC_U+30A4_U+30E4_U+30FC 1
 62
   179
420
  2234388
370
    25
  0
POLYLINE
  5
6D
330
1F
100
AcDbEntity
  8
_U+30EC_U+30A4_U+30E4_U+30FC 1
 62
   179
420
  2234388
370
    25
100
AcDb2dPolyline
 66
     1
 10
0.0
 20
0.0
 30
0.0
  0
VERTEX
  5
6E
330
6D
100
AcDbEntity
  8
_U+30EC_U+30A4_U+30E4_U+30FC 1
 62
   179
420
  2234388
370
    25
100
AcDbVertex
100
AcDb2dVertex
 10
96.06886687526122
 20
-156.1135545128379
 30
0.0
  0
VERTEX
  5
6F
330
6D
100
AcDbEntity
  8
_U+30EC_U+30A4_U+30E4_U+30FC 1
 62
   179
420
  2234388
370
    25
100
AcDbVertex
100
AcDb2dVertex
 10
97.27112983814968
 20
-156.1135545128379
 30
0.0
  0
SEQEND
  5
70
330
6D
100
AcDbEntity
  8
_U+30EC_U+30A4_U+30E4_U+30FC 1
 62
   179
420
  2234388
370
    25
  0
SPLINE
  5
71
330
1F
100
AcDbEntity
  8
_U+30EC_U+30A4_U+30E4_U+30FC 1
 62
   179
420
  2234388
370
     9
100
AcDbSpline
210
0.0
220
0.0
230
1.0
 70
    11
 71
     3
 72
    17
 73
    13
 74
     0
 42
0.0000000001
 43
0.0000000001
 12
1.0
 22
0.0
 32
0.0
 13
1.0
 23
0.0
 33
0.0
 40
0.0
 40
0.0
 40
0.0
 40
0.0
 40
1.0
 40
1.0
 40
1.0
 40
2.0
 40
2.0
 40
2.0
 40
3.0
 40
3.0
 40
3.0
 40
4.0
 40
4.0
 40
4.0
 40
4.0
 10
117.1707334437433
 20
-142.0131339671823
 30
0.0
 10
117.1707334437433
 20
-141.9577540572569
 30
0.0
 10
117.1259256705883
 20
-141.9129462841018
 30
0.0
 10
117.0708902702115
 20
-141.9129462841018
 30
0.0
 10
117.0158548698346
 20
-141.9129462841018
 30
0.0
 10
116.9710578626029
 20
-141.9577540572569
 30
0.0
 10
116.9710578626029
 20
-142.0131339671823
 30
0.0
 10
116.9710578626029
 20
-142.0685246430311
 30
0.0
 10
117.0158548698346
 20
-142.1129771407142
 30
0.0
 10
117.0708902702115
 20
-142.1129771407142
 30
0.0
 10
117.1259256705883
 20
-142.1129771407142
 30
0.0
 10
117.1707334437433
 20
-142.0685246430311
 30
0.0
 10
117.1707334437433
 20
-142.0131339671823
 30
0.0
  0
SPLINE
  5
72
330
1F
100
AcDbEntity
  8
_U+30EC_U+30A4_U+30E4_U+30FC 1
 62
   179
420
  2234388
370
     9
100
AcDbSpline
210
0.0
220
0.0
230
1.0
 70
    11
 71
     3
 72
    17
 73
    13
 74
     0
 42
0.0000000001
 43
0.0000000001
 12
1.0
 22
0.0
 32
0.0
 13
1.0
 23
0.0
 33
0.0
 40
0.0
 40
0.0
 40
0.0
 40
0.0
 40
1.0
 40
1.0
 40
1.0
 40
2.0
 40
2.0
 40
2.0
 40
3.0
 40
3.0
 40
3.0
 40
4.0
 40
4.0
 40
4.0
 40
4.0
 10
117.1707334437433
 20
-142.8130959047807
 30
0.0
 10
117.1707334437433
 20
-142.7580712703272
 30
0.0
 10
117.1259256705883
 20
-142.7132634971722
 30
0.0
 10
117.0708902702115
 20
-142.7132634971722
 30
0.0
 10
117.0158548698346
 20
-142.7132634971722
 30
0.0
 10
116.9710578626029
 20
-142.7580712703272
 30
0.0
 10
116.9710578626029
 20
-142.8130959047807
 30
0.0
 10
116.9710578626029
 20
-142.8684865806295
 30
0.0
 10
117.0158548698346
 20
-142.9132943537845
 30
0.0
 10
117.0708902702115
 20
-142.9132943537845
 30
0.0
 10
117.1259256705883
 20
-142.9132943537845
 30
0.0
 10
117.1707334437433
 20
-142.8684865806295
 30
0.0
 10
117.1707334437433
 20
-142.8130959047807
 30
0.0
  0
SPLINE
  5
73
330
1F
100
AcDbEntity
  8
_U+30EC_U+30A4_U+30E4_U+30FC 1
 62
   179
420
  2234388
370
     9
100
AcDbSpline
210
0.0
220
0.0
230
1.0
 70
    11
 71
     3
 72
    17
 73
    13
 74
     0
 42
0.0000000001
 43
0.0000000001
 12
1.0
 22
0.0
 32
0.0
 13
1.0
 23
0.0
 33
0.0
 40
0.0
 40
0.0
 40
0.0
 40
0.0
 40
1.0
 40
1.0
 40
1.0
 40
2.0
 40
2.0
 40
2.0
 40
3.0
 40
3.0
 40
3.0
 40
4.0
 40
4.0
 40
4.0
 40
4.0
 10
113.1710098831385
 20
-138.0130228333353
 30
0.0
 10
113.1710098831385
 20
-137.9579981988818
 30
0.0
 10
113.1262021099834
 20
-137.9131904257268
 30
0.0
 10
113.0711667096066
 20
-137.9131904257268
 30
0.0
 10
113.0161313092297
 20
-137.9131904257268
 30
0.0
 10
112.9713343019981
 20
-137.9579981988818
 30
0.0
 10
112.9713343019981
 20
-138.0130228333353
 30
0.0
 10
112.9713343019981
 20
-138.0680582337122
 30
0.0
 10
113.0161313092297
 20
-138.1128660068672
 30
0.0
 10
113.0711667096066
 20
-138.1128660068672
 30
0.0
 10
113.1262021099834
 20
-138.1128660068672
 30
0.0
 10
113.1710098831385
 20
-138.0680582337122
 30
0.0
 10
113.1710098831385
 20
-138.0130228333353
 30
0.0
  0
SPLINE
  5
74
330
1F
100
AcDbEntity
  8
_U+30EC_U+30A4_U+30E4_U+30FC 1
 62
   179
420
  2234388
370
     9
100
AcDbSpline
210
0.0
220
0.0
230
1.0
 70
    11
 71
     3
 72
    17
 73
    13
 74
     0
 42
0.0000000001
 43
0.0000000001
 12
1.0
 22
0.0
 32
0.0
 13
1.0
 23
0.0
 33
0.0
 40
0.0
 40
0.0
 40
0.0
 40
0.0
 40
1.0
 40
1.0
 40
1.0
 40
2.0
 40
2.0
 40
2.0
 40
3.0
 40
3.0
 40
3.0
 40
4.0
 40
4.0
 40
4.0
 40
4.0
 10
98.17107490628406
 20
-162.3137036235655
 30
0.0
 10
98.17107490628406
 20
-162.2583237136401
 30
0.0
 10
98.12626713312935
 20
-162.2135159404851
 30
0.0
 10
98.07123173275248
 20
-162.2135159404851
 30
0.0
 10
98.01619633237561
 20
-162.2135159404851
 30
0.0
 10
97.97139932514365
 20
-162.2583237136401
 30
0.0
 10
97.97139932514365
 20
-162.3137036235655
 30
0.0
 10
97.97139932514365
 20
-162.3687390239423
 30
0.0
 10
98.01619633237561
 20
-162.4135467970974
 30
0.0
 10
98.07123173275248
 20
-162.4135467970974
 30
0.0
 10
98.12626713312935
 20
-162.4135467970974
 30
0.0
 10
98.17107490628406
 20
-162.3687390239423
 30
0.0
 10
98.17107490628406
 20
-162.3137036235655
 30
0.0
  0
SPLINE
  5
75
330
1F
100
AcDbEntity
  8
_U+30EC_U+30A4_U+30E4_U+30FC 1
 62
   179
420
  2234388
370
     9
100
AcDbSpline
210
0.0
220
0.0
230
1.0
 70
    11
 71
     3
 72
    17
 73
    13
 74
     0
 42
0.0000000001
 43
0.0000000001
 12
1.0
 22
0.0
 32
0.0
 13
1.0
 23
0.0
 33
0.0
 40
0.0
 40
0.0
 40
0.0
 40
0.0
 40
1.0
 40
1.0
 40
1.0
 40
2.0
 40
2.0
 40
2.0
 40
3.0
 40
3.0
 40
3.0
 40
4.0
 40
4.0
 40
4.0
 40
4.0
 10
92.17106431140277
 20
-162.3137036235655
 30
0.0
 10
92.17106431140277
 20
-162.2583237136401
 30
0.0
 10
92.12625653824773
 20
-162.2135159404851
 30
0.0
 10
92.07122113787086
 20
-162.2135159404851
 30
0.0
 10
92.016185737494
 20
-162.2135159404851
 30
0.0
 10
91.97138873026236
 20
-162.2583237136401
 30
0.0
 10
91.97138873026236
 20
-162.3137036235655
 30
0.0
 10
91.97138873026236
 20
-162.3687390239423
 30
0.0
 10
92.016185737494
 20
-162.4135467970974
 30
0.0
 10
92.07122113787086
 20
-162.4135467970974
 30
0.0
 10
92.12625653824773
 20
-162.4135467970974
 30
0.0
 10
92.17106431140277
 20
-162.3687390239423
 30
0.0
 10
92.17106431140277
 20
-162.3137036235655
 30
0.0
  0
SPLINE
  5
76
330
1F
100
AcDbEntity
  8
_U+30EC_U+30A4_U+30E4_U+30FC 1
 62
   179
420
  2234388
370
     9
100
AcDbSpline
210
0.0
220
0.0
230
1.0
 70
    11
 71
     3
 72
    17
 73
    13
 74
     0
 42
0.0000000001
 43
0.0000000001
 12
1.0
 22
0.0
 32
0.0
 13
1.0
 23
0.0
 33
0.0
 40
0.0
 40
0.0
 40
0.0
 40
0.0
 40
1.0
 40
1.0
 40
1.0
 40
2.0
 40
2.0
 40
2.0
 40
3.0
 40
3.0
 40
3.0
 40
4.0
 40
4.0
 40
4.0
 40
4.0
 10
92.17106431140277
 20
-138.0130228333353
 30
0.0
 10
92.17106431140277
 20
-137.9579981988818
 30
0.0
 10
92.12625653824773
 20
-137.9131904257268
 30
0.0
 10
92.07122113787086
 20
-137.9131904257268
 30
0.0
 10
92.016185737494
 20
-137.9131904257268
 30
0.0
 10
91.97138873026236
 20
-137.9579981988818
 30
0.0
 10
91.97138873026236
 20
-138.0130228333353
 30
0.0
 10
91.97138873026236
 20
-138.0680582337122
 30
0.0
 10
92.016185737494
 20
-138.1128660068672
 30
0.0
 10
92.07122113787086
 20
-138.1128660068672
 30
0.0
 10
92.12625653824773
 20
-138.1128660068672
 30
0.0
 10
92.17106431140277
 20
-138.0680582337122
 30
0.0
 10
92.17106431140277
 20
-138.0130228333353
 30
0.0
  0
SPLINE
  5
77
330
1F
100
AcDbEntity
  8
_U+30EC_U+30A4_U+30E4_U+30FC 1
 62
   179
420
  2234388
370
     9
100
AcDbSpline
210
0.0
220
0.0
230
1.0
 70
    11
 71
     3
 72
    17
 73
    13
 74
     0
 42
0.0000000001
 43
0.0000000001
 12
1.0
 22
0.0
 32
0.0
 13
1.0
 23
0.0
 33
0.0
 40
0.0
 40
0.0
 40
0.0
 40
0.0
 40
1.0
 40
1.0
 40
1.0
 40
2.0
 40
2.0
 40
2.0
 40
3.0
 40
3.0
 40
3.0
 40
4.0
 40
4.0
 40
4.0
 40
4.0
 10
117.1707334437433
 20
-158.3136247874887
 30
0.0
 10
117.1707334437433
 20
-158.2586001530352
 30
0.0
 10
117.1259256705883
 20
-158.2137923798801
 30
0.0
 10
117.0708902702115
 20
-158.2137923798801
 30
0.0
 10
117.0158548698346
 20
-158.2137923798801
 30
0.0
 10
116.9710578626029
 20
-158.2586001530352
 30
0.0
 10
116.9710578626029
 20
-158.3136247874887
 30
0.0
 10
116.9710578626029
 20
-158.3686601878655
 30
0.0
 10
117.0158548698346
 20
-158.4134679610206
 30
0.0
 10
117.0708902702115
 20
-158.4134679610206
 30
0.0
 10
117.1259256705883
 20
-158.4134679610206
 30
0.0
 10
117.1707334437433
 20
-158.3686601878655
 30
0.0
 10
117.1707334437433
 20
-158.3136247874887
 30
0.0
  0
SPLINE
  5
78
330
1F
100
AcDbEntity
  8
_U+30EC_U+30A4_U+30E4_U+30FC 1
 62
   179
420
  2234388
370
     9
100
AcDbSpline
210
0.0
220
0.0
230
1.0
 70
    11
 71
     3
 72
    17
 73
    13
 74
     0
 42
0.0000000001
 43
0.0000000001
 12
1.0
 22
0.0
 32
0.0
 13
1.0
 23
0.0
 33
0.0
 40
0.0
 40
0.0
 40
0.0
 40
0.0
 40
1.0
 40
1.0
 40
1.0
 40
2.0
 40
2.0
 40
2.0
 40
3.0
 40
3.0
 40
3.0
 40
4.0
 40
4.0
 40
4.0
 40
4.0
 10
117.1707334437433
 20
-155.3135602774693
 30
0.0
 10
117.1707334437433
 20
-155.2585356430159
 30
0.0
 10
117.1259256705883
 20
-155.2137278698609
 30
0.0
 10
117.0708902702115
 20
-155.2137278698609
 30
0.0
 10
117.0158548698346
 20
-155.2137278698609
 30
0.0
 10
116.9710578626029
 20
-155.2585356430159
 30
0.0
 10
116.9710578626029
 20
-155.3135602774693
 30
0.0
 10
116.9710578626029
 20
-155.3685956778462
 30
0.0
 10
117.0158548698346
 20
-155.4134034510012
 30
0.0
 10
117.0708902702115
 20
-155.4134034510012
 30
0.0
 10
117.1259256705883
 20
-155.4134034510012
 30
0.0
 10
117.1707334437433
 20
-155.3685956778462
 30
0.0
 10
117.1707334437433
 20
-155.3135602774693
 30
0.0
  0
POLYLINE
  5
79
330
1F
100
AcDbEntity
  8
_U+30EC_U+30A4_U+30E4_U+30FC 1
 62
   179
420
  2234388
370
     9
100
AcDb2dPolyline
 66
     1
 10
0.0
 20
0.0
 30
0.0
  0
VERTEX
  5
7A
330
79
100
AcDbEntity
  8
_U+30EC_U+30A4_U+30E4_U+30FC 1
 62
   179
420
  2234388
370
     9
100
AcDbVertex
100
AcDb2dVertex
 10
117.0708256746711
 20
-142.0131339671823
 30
0.0
  0
VERTEX
  5
7B
330
79
100
AcDbEntity
  8
_U+30EC_U+30A4_U+30E4_U+30FC 1
 62
   179
420
  2234388
370
     9
100
AcDbVertex
100
AcDb2dVertex
 10
117.0708256746711
 20
-136.7553368968279
 30
0.0
  0
SEQEND
  5
7C
330
79
100
AcDbEntity
  8
_U+30EC_U+30A4_U+30E4_U+30FC 1
 62
   179
420
  2234388
370
     9
  0
POLYLINE
  5
7D
330
1F
100
AcDbEntity
  8
_U+30EC_U+30A4_U+30E4_U+30FC 1
 62
   179
420
  2234388
370
     9
100
AcDb2dPolyline
 66
     1
 10
0.0
 20
0.0
 30
0.0
  0
VERTEX
  5
7E
330
7D
100
AcDbEntity
  8
_U+30EC_U+30A4_U+30E4_U+30FC 1
 62
   179
420
  2234388
370
     9
100
AcDbVertex
100
AcDb2dVertex
 10
117.0708256746711
 20
-142.0131339671823
 30
0.0
  0
VERTEX
  5
7F
330
7D
100
AcDbEntity
  8
_U+30EC_U+30A4_U+30E4_U+30FC 1
 62
   179
420
  2234388
370
     9
100
AcDbVertex
100
AcDb2dVertex
 10
117.0708256746711
 20
-142.8132358617848
 30
0.0
  0
SEQEND
  5
80
330
7D
100
AcDbEntity
  8
_U+30EC_U+30A4_U+30E4_U+30FC 1
 62
   179
420
  2234388
370
     9
  0
POLYLINE
  5
81
330
1F
100
AcDbEntity
  8
_U+30EC_U+30A4_U+30E4_U+30FC 1
 62
   179
420
  2234388
370
     9
100
AcDb2dPolyline
 66
     1
 10
0.0
 20
0.0
 30
0.0
  0
VERTEX
  5
82
330
81
100
AcDbEntity
  8
_U+30EC_U+30A4_U+30E4_U+30FC 1
 62
   179
420
  2234388
370
     9
100
AcDbVertex
100
AcDb2dVertex
 10
115.6107834420988
 20
-142.0131339671823
 30
0.0
  0
VERTEX
  5
83
330
81
100
AcDbEntity
  8
_U+30EC_U+30A4_U+30E4_U+30FC 1
 62
   179
420
  2234388
370
     9
100
AcDbVertex
100
AcDb2dVertex
 10
118.071399828745
 20
-142.0131339671823
 30
0.0
  0
SEQEND
  5
84
330
81
100
AcDbEntity
  8
_U+30EC_U+30A4_U+30E4_U+30FC 1
 62
   179
420
  2234388
370
     9
  0
POLYLINE
  5
85
330
1F
100
AcDbEntity
  8
_U+30EC_U+30A4_U+30E4_U+30FC 1
 62
   179
420
  2234388
370
     9
100
AcDb2dPolyline
 66
     1
 10
0.0
 20
0.0
 30
0.0
  0
VERTEX
  5
86
330
85
100
AcDbEntity
  8
_U+30EC_U+30A4_U+30E4_U+30FC 1
 62
   179
420
  2234388
370
     9
100
AcDbVertex
100
AcDb2dVertex
 10
115.6107834420988
 20
-142.8130959047807
 30
0.0
  0
VERTEX
  5
87
330
85
100
AcDbEntity
  8
_U+30EC_U+30A4_U+30E4_U+30FC 1
 62
   179
420
  2234388
370
     9
100
AcDbVertex
100
AcDb2dVertex
 10
118.071399828745
 20
-142.8130959047807
 30
0.0
  0
SEQEND
  5
88
330
85
100
AcDbEntity
  8
_U+30EC_U+30A4_U+30E4_U+30FC 1
 62
   179
420
  2234388
370
     9
  0
INSERT
  5
8A
330
1F
100
AcDbEntity
  8
_U+30EC_U+30A4_U+30E4_U+30FC 1
100
AcDbBlockReference
  2
block 2
 10
0.0
 20
0.0
 30
0.0
  0
POLYLINE
  5
9C
330
1F
100
AcDbEntity
  8
_U+30EC_U+30A4_U+30E4_U+30FC 1
 62
   179
420
  2234388
370
     9
100
AcDb2dPolyline
 66
     1
 10
0.0
 20
0.0
 30
0.0
  0
VERTEX
  5
9D
330
9C
100
AcDbEntity
  8
_U+30EC_U+30A4_U+30E4_U+30FC 1
 62
   179
420
  2234388
370
     9
100
AcDbVertex
100
AcDb2dVertex
 10
117.0708256746711
 20
-155.3135602774693
 30
0.0
  0
VERTEX
  5
9E
330
9C
100
AcDbEntity
  8
_U+30EC_U+30A4_U+30E4_U+30FC 1
 62
   179
420
  2234388
370
     9
100
AcDbVertex
100
AcDb2dVertex
 10
117.0708256746711
 20
-158.3135924897185
 30
0.0
  0
SEQEND
  5
9F
330
9C
100
AcDbEntity
  8
_U+30EC_U+30A4_U+30E4_U+30FC 1
 62
   179
420
  2234388
370
     9
  0
POLYLINE
  5
A0
330
1F
100
AcDbEntity
  8
_U+30EC_U+30A4_U+30E4_U+30FC 1
 62
   179
420
  2234388
370
     9
100
AcDb2dPolyline
 66
     1
 10
0.0
 20
0.0
 30
0.0
  0
VERTEX
  5
A1
330
A0
100
AcDbEntity
  8
_U+30EC_U+30A4_U+30E4_U+30FC 1
 62
   179
420
  2234388
370
     9
100
AcDbVertex
100
AcDb2dVertex
 10
100.6108807630146
 20
-158.3136247874887
 30
0.0
  0
VERTEX
  5
A2
330
A0
100
AcDbEntity
  8
_U+30EC_U+30A4_U+30E4_U+30FC 1
 62
   179
420
  2234388
370
     9
100
AcDbVertex
100
AcDb2dVertex
 10
118.0712598717409
 20
-158.3136247874887
 30
0.0
  0
SEQEND
  5
A3
330
A0
100
AcDbEntity
  8
_U+30EC_U+30A4_U+30E4_U+30FC 1
 62
   179
420
  2234388
370
     9
  0
INSERT
  5
A5
330
1F
100
AcDbEntity
  8
_U+30EC_U+30A4_U+30E4_U+30FC 1
100
AcDbBlockReference
  2
block 3
 10
0.0
 20
0.0
 30
0.0
  0
POLYLINE
  5
AA
330
1F
100
AcDbEntity
  8
_U+30EC_U+30A4_U+30E4_U+30FC 1
 62
   179
420
  2234388
370
     9
100
AcDb2dPolyline
 66
     1
 10
0.0
 20
0.0
 30
0.0
  0
VERTEX
  5
AB
330
AA
100
AcDbEntity
  8
_U+30EC_U+30A4_U+30E4_U+30FC 1
 62
   179
420
  2234388
370
     9
100
AcDbVertex
100
AcDb2dVertex
 10
92.07115654233053
 20
-138.0130228333353
 30
0.0
  0
VERTEX
  5
AC
330
AA
100
AcDbEntity
  8
_U+30EC_U+30A4_U+30E4_U+30FC 1
 62
   179
420
  2234388
370
     9
100
AcDbVertex
100
AcDb2dVertex
 10
113.0709513911387
 20
-138.0130228333353
 30
0.0
  0
SEQEND
  5
AD
330
AA
100
AcDbEntity
  8
_U+30EC_U+30A4_U+30E4_U+30FC 1
 62
   179
420
  2234388
370
     9
  0
POLYLINE
  5
AE
330
1F
100
AcDbEntity
  8
_U+30EC_U+30A4_U+30E4_U+30FC 1
 62
   179
420
  2234388
370
     9
100
AcDb2dPolyline
 66
     1
 10
0.0
 20
0.0
 30
0.0
  0
VERTEX
  5
AF
330
AE
100
AcDbEntity
  8
_U+30EC_U+30A4_U+30E4_U+30FC 1
 62
   179
420
  2234388
370
     9
100
AcDbVertex
100
AcDb2dVertex
 10
92.07115654233053
 20
-139.4730650659076
 30
0.0
  0
VERTEX
  5
B0
330
AE
100
AcDbEntity
  8
_U+30EC_U+30A4_U+30E4_U+30FC 1
 62
   179
420
  2234388
370
     9
100
AcDbVertex
100
AcDb2dVertex
 10
92.07115654233053
 20
-137.0131484642819
 30
0.0
  0
SEQEND
  5
B1
330
AE
100
AcDbEntity
  8
_U+30EC_U+30A4_U+30E4_U+30FC 1
 62
   179
420
  2234388
370
     9
  0
POLYLINE
  5
B2
330
1F
100
AcDbEntity
  8
_U+30EC_U+30A4_U+30E4_U+30FC 1
 62
   179
420
  2234388
370
     9
100
AcDb2dPolyline
 66
     1
 10
0.0
 20
0.0
 30
0.0
  0
VERTEX
  5
B3
330
B2
100
AcDbEntity
  8
_U+30EC_U+30A4_U+30E4_U+30FC 1
 62
   179
420
  2234388
370
     9
100
AcDbVertex
100
AcDb2dVertex
 10
113.0710590503727
 20
-139.4730650659076
 30
0.0
  0
VERTEX
  5
B4
330
B2
100
AcDbEntity
  8
_U+30EC_U+30A4_U+30E4_U+30FC 1
 62
   179
420
  2234388
370
     9
100
AcDbVertex
100
AcDb2dVertex
 10
113.0710590503727
 20
-137.0131484642819
 30
0.0
  0
SEQEND
  5
B5
330
B2
100
AcDbEntity
  8
_U+30EC_U+30A4_U+30E4_U+30FC 1
 62
   179
420
  2234388
370
     9
  0
INSERT
  5
B7
330
1F
100
AcDbEntity
  8
_U+30EC_U+30A4_U+30E4_U+30FC 1
100
AcDbBlockReference
  2
block 4
 10
0.0
 20
0.0
 30
0.0
  0
POLYLINE
  5
BE
330
1F
100
AcDbEntity
  8
_U+30EC_U+30A4_U+30E4_U+30FC 1
 62
   179
420
  2234388
370
     9
100
AcDb2dPolyline
 66
     1
 10
0.0
 20
0.0
 30
0.0
  0
VERTEX
  5
BF
330
BE
100
AcDbEntity
  8
_U+30EC_U+30A4_U+30E4_U+30FC 1
 62
   179
420
  2234388
370
     9
100
AcDbVertex
100
AcDb2dVertex
 10
92.07115654233053
 20
-162.3137036235655
 30
0.0
  0
VERTEX
  5
C0
330
BE
100
AcDbEntity
  8
_U+30EC_U+30A4_U+30E4_U+30FC 1
 62
   179
420
  2234388
370
     9
100
AcDbVertex
100
AcDb2dVertex
 10
98.07119943498199
 20
-162.3137036235655
 30
0.0
  0
SEQEND
  5
C1
330
BE
100
AcDbEntity
  8
_U+30EC_U+30A4_U+30E4_U+30FC 1
 62
   179
420
  2234388
370
     9
  0
POLYLINE
  5
C2
330
1F
100
AcDbEntity
  8
_U+30EC_U+30A4_U+30E4_U+30FC 1
 62
   179
420
  2234388
370
     9
100
AcDb2dPolyline
 66
     1
 10
0.0
 20
0.0
 30
0.0
  0
VERTEX
  5
C3
330
C2
100
AcDbEntity
  8
_U+30EC_U+30A4_U+30E4_U+30FC 1
 62
   179
420
  2234388
370
     9
100
AcDbVertex
100
AcDb2dVertex
 10
92.07115654233053
 20
-160.8536613909932
 30
0.0
  0
VERTEX
  5
C4
330
C2
100
AcDbEntity
  8
_U+30EC_U+30A4_U+30E4_U+30FC 1
 62
   179
420
  2234388
370
     9
100
AcDbVertex
100
AcDb2dVertex
 10
92.07115654233053
 20
-163.3135887585423
 30
0.0
  0
SEQEND
  5
C5
330
C2
100
AcDbEntity
  8
_U+30EC_U+30A4_U+30E4_U+30FC 1
 62
   179
420
  2234388
370
     9
  0
POLYLINE
  5
C6
330
1F
100
AcDbEntity
  8
_U+30EC_U+30A4_U+30E4_U+30FC 1
 62
   179
420
  2234388
370
     9
100
AcDb2dPolyline
 66
     1
 10
0.0
 20
0.0
 30
0.0
  0
VERTEX
  5
C7
330
C6
100
AcDbEntity
  8
_U+30EC_U+30A4_U+30E4_U+30FC 1
 62
   179
420
  2234388
370
     9
100
AcDbVertex
100
AcDb2dVertex
 10
98.07112407351825
 20
-160.8536613909932
 30
0.0
  0
VERTEX
  5
C8
330
C6
100
AcDbEntity
  8
_U+30EC_U+30A4_U+30E4_U+30FC 1
 62
   179
420
  2234388
370
     9
100
AcDbVertex
100
AcDb2dVertex
 10
98.07112407351825
 20
-163.3135887585423
 30
0.0
  0
SEQEND
  5
C9
330
C6
100
AcDbEntity
  8
_U+30EC_U+30A4_U+30E4_U+30FC 1
 62
   179
420
  2234388
370
     9
  0
INSERT
  5
CB
330
1F
100
AcDbEntity
  8
_U+30EC_U+30A4_U+30E4_U+30FC 1
100
AcDbBlockReference
  2
block 5
 10
0.0
 20
0.0
 30
0.0
  0
POLYLINE
  5
D1
330
1F
100
AcDbEntity
  8
_U+30EC_U+30A4_U+30E4_U+30FC 1
 62
   179
420
  2234388
370
     9
100
AcDb2dPolyline
 66
     1
 10
0.0
 20
0.0
 30
0.0
  0
VERTEX
  5
D2
330
D1
100
AcDbEntity
  8
_U+30EC_U+30A4_U+30E4_U+30FC 1
 62
   179
420
  2234388
370
     9
100
AcDbVertex
100
AcDb2dVertex
 10
117.0708256746711
 20
-142.8130959047807
 30
0.0
  0
VERTEX
  5
D3
330
D1
100
AcDbEntity
  8
_U+30EC_U+30A4_U+30E4_U+30FC 1
 62
   179
420
  2234388
370
     9
100
AcDbVertex
100
AcDb2dVertex
 10
117.0708256746711
 20
-155.3137863618606
 30
0.0
  0
SEQEND
  5
D4
330
D1
100
AcDbEntity
  8
_U+30EC_U+30A4_U+30E4_U+30FC 1
 62
   179
420
  2234388
370
     9
  0
POLYLINE
  5
D5
330
1F
100
AcDbEntity
  8
_U+30EC_U+30A4_U+30E4_U+30FC 1
 62
   179
420
  2234388
370
     9
100
AcDb2dPolyline
 66
     1
 10
0.0
 20
0.0
 30
0.0
  0
VERTEX
  5
D6
330
D5
100
AcDbEntity
  8
_U+30EC_U+30A4_U+30E4_U+30FC 1
 62
   179
420
  2234388
370
     9
100
AcDbVertex
100
AcDb2dVertex
 10
115.6107834420988
 20
-142.8130959047807
 30
0.0
  0
VERTEX
  5
D7
330
D5
100
AcDbEntity
  8
_U+30EC_U+30A4_U+30E4_U+30FC 1
 62
   179
420
  2234388
370
     9
100
AcDbVertex
100
AcDb2dVertex
 10
118.071399828745
 20
-142.8130959047807
 30
0.0
  0
SEQEND
  5
D8
330
D5
100
AcDbEntity
  8
_U+30EC_U+30A4_U+30E4_U+30FC 1
 62
   179
420
  2234388
370
     9
  0
POLYLINE
  5
D9
330
1F
100
AcDbEntity
  8
_U+30EC_U+30A4_U+30E4_U+30FC 1
 62
   179
420
  2234388
370
     9
100
AcDb2dPolyline
 66
     1
 10
0.0
 20
0.0
 30
0.0
  0
VERTEX
  5
DA
330
D9
100
AcDbEntity
  8
_U+30EC_U+30A4_U+30E4_U+30FC 1
 62
   179
420
  2234388
370
     9
100
AcDbVertex
100
AcDb2dVertex
 10
100.6108807630146
 20
-155.3135602774693
 30
0.0
  0
VERTEX
  5
DB
330
D9
100
AcDbEntity
  8
_U+30EC_U+30A4_U+30E4_U+30FC 1
 62
   179
420
  2234388
370
     9
100
AcDbVertex
100
AcDb2dVertex
 10
118.0712598717409
 20
-155.3135602774693
 30
0.0
  0
SEQEND
  5
DC
330
D9
100
AcDbEntity
  8
_U+30EC_U+30A4_U+30E4_U+30FC 1
 62
   179
420
  2234388
370
     9
  0
INSERT
  5
DE
330
1F
100
AcDbEntity
  8
_U+30EC_U+30A4_U+30E4_U+30FC 1
100
AcDbBlockReference
  2
block 6
 10
0.0
 20
0.0
 30
0.0
  0
ENDSEC
  0
SECTION
  2
OBJECTS
  0
DICTIONARY
  5
C
330
0
100
AcDbDictionary
281
     1
  3
ACAD_GROUP
350
D
  3
ACAD_LAYOUT
350
1A
  3
ACAD_MATERIAL
350
3B
  3
ACAD_MLEADERSTYLE
350
F0
  3
ACAD_MLINESTYLE
350
17
  3
ACAD_PLOTSETTINGS
350
19
  3
ACAD_PLOTSTYLENAME
350
E
  3
ACAD_TABLESTYLE
350
EF
  3
ACAD_VISUALSTYLE
350
2A
  0
SUN
  5
3F
330
29
100
AcDbSun
 90
        1
290
     0
 63
     7
421
 16777215
 40
1.0
291
     1
 91
  2455826
 92
 54000000
292
     0
 70
     2
 71
   256
280
     1
  0
DICTIONARY
  5
D
102
{ACAD_REACTORS
330
C
102
}
330
C
100
AcDbDictionary
281
     1
  0
DICTIONARY
  5
1A
102
{ACAD_REACTORS
330
C
102
}
330
C
100
AcDbDictionary
281
     1
  3
Layout1
350
1E
  3
Layout2
350
26
  3
Model
350
22
  0
DICTIONARY
  5
3B
102
{ACAD_REACTORS
330
C
102
}
330
C
100
AcDbDictionary
281
     1
  3
ByBlock
350
3D
  3
ByLayer
350
3C
  3
Global
350
3E
  0
DICTIONARY
  5
F0
102
{ACAD_REACTORS
330
C
102
}
330
C
100
AcDbDictionary
281
     1
  0
DICTIONARY
  5
17
102
{ACAD_REACTORS
330
C
102
}
330
C
100
AcDbDictionary
281
     1
  3
Standard
350
18
  0
DICTIONARY
  5
19
102
{ACAD_REACTORS
330
C
102
}
330
C
100
AcDbDictionary
281
     1
  0
ACDBDICTIONARYWDFLT
  5
E
102
{ACAD_REACTORS
330
C
102
}
330
C
100
AcDbDictionary
281
     1
  3
Normal
350
F
100
AcDbDictionaryWithDefault
340
F
  0
DICTIONARY
  5
EF
102
{ACAD_REACTORS
330
C
102
}
330
C
100
AcDbDictionary
281
     1
  0
DICTIONARY
  5
2A
102
{ACAD_REACTORS
330
C
102
}
330
C
100
AcDbDictionary
281
     1
  3
2dWireframe
350
2F
  3
3D Hidden
350
31
  3
3dWireframe
350
30
  3
Basic
350
32
  3
Brighten
350
36
  3
ColorChange
350
3A
  3
Conceptual
350
34
  3
Dim
350
35
  3
Facepattern
350
39
  3
Flat
350
2B
  3
FlatWithEdges
350
2C
  3
Gouraud
350
2D
  3
GouraudWithEdges
350
2E
  3
Linepattern
350
38
  3
Realistic
350
33
  3
Thicken
350
37
  0
LAYOUT
  5
1E
102
{ACAD_REACTORS
330
1A
102
}
330
1A
100
AcDbPlotSettings
  1

  2
none_device
  4

  6

 40
0.0
 41
0.0
 42
0.0
 43
0.0
 44
0.0
 45
0.0
 46
0.0
 47
0.0
 48
0.0
 49
0.0
140
0.0
141
0.0
142
1.0
143
1.0
 70
   688
 72
     0
 73
     0
 74
     5
  7

 75
    16
 76
     0
 77
     2
 78
   300
147
1.0
148
0.0
149
0.0
100
AcDbLayout
  1
Layout1
 70
     1
 71
     1
 10
0.0
 20
0.0
 11
12.0
 21
9.0
 12
0.0
 22
0.0
 32
0.0
 14
1.000000000000000E+20
 24
1.000000000000000E+20
 34
1.000000000000000E+20
 15
-1.000000000000000E+20
 25
-1.000000000000000E+20
 35
-1.000000000000000E+20
146
0.0
 13
0.0
 23
0.0
 33
0.0
 16
1.0
 26
0.0
 36
0.0
 17
0.0
 27
1.0
 37
0.0
 76
     0
330
1B
  0
LAYOUT
  5
26
102
{ACAD_REACTORS
330
1A
102
}
330
1A
100
AcDbPlotSettings
  1

  2
none_device
  4

  6

 40
0.0
 41
0.0
 42
0.0
 43
0.0
 44
0.0
 45
0.0
 46
0.0
 47
0.0
 48
0.0
 49
0.0
140
0.0
141
0.0
142
1.0
143
1.0
 70
   688
 72
     0
 73
     0
 74
     5
  7

 75
    16
 76
     0
 77
     2
 78
   300
147
1.0
148
0.0
149
0.0
100
AcDbLayout
  1
Layout2
 70
     1
 71
     2
 10
0.0
 20
0.0
 11
0.0
 21
0.0
 12
0.0
 22
0.0
 32
0.0
 14
0.0
 24
0.0
 34
0.0
 15
0.0
 25
0.0
 35
0.0
146
0.0
 13
0.0
 23
0.0
 33
0.0
 16
1.0
 26
0.0
 36
0.0
 17
0.0
 27
1.0
 37
0.0
 76
     0
330
23
  0
LAYOUT
  5
22
102
{ACAD_REACTORS
330
1A
102
}
330
1A
100
AcDbPlotSettings
  1

  2
none_device
  4

  6

 40
0.0
 41
0.0
 42
0.0
 43
0.0
 44
0.0
 45
0.0
 46
0.0
 47
0.0
 48
0.0
 49
0.0
140
0.0
141
0.0
142
1.0
143
1.0
 70
  1712
 72
     0
 73
     0
 74
     0
  7

 75
     0
 76
     0
 77
     2
 78
   300
147
1.0
148
0.0
149
0.0
100
AcDbLayout
  1
Model
 70
     1
 71
     0
 10
0.0
 20
0.0
 11
12.0
 21
9.0
 12
0.0
 22
0.0
 32
0.0
 14
1.000000000000000E+20
 24
1.000000000000000E+20
 34
1.000000000000000E+20
 15
-1.000000000000000E+20
 25
-1.000000000000000E+20
 35
-1.000000000000000E+20
146
0.0
 13
0.0
 23
0.0
 33
0.0
 16
1.0
 26
0.0
 36
0.0
 17
0.0
 27
1.0
 37
0.0
 76
     0
330
1F
331
29
  0
MATERIAL
  5
3D
102
{ACAD_REACTORS
330
3B
102
}
330
3B
100
AcDbMaterial
  1
ByBlock
 72
     1
 94
      127
  0
MATERIAL
  5
3C
102
{ACAD_REACTORS
330
3B
102
}
330
3B
100
AcDbMaterial
  1
ByLayer
 72
     1
 94
      127
  0
MATERIAL
  5
3E
102
{ACAD_REACTORS
330
3B
102
}
330
3B
100
AcDbMaterial
  1
Global
 72
     1
 94
      127
  0
MLINESTYLE
  5
18
102
{ACAD_REACTORS
330
17
102
}
330
17
100
AcDbMlineStyle
  2
Standard
 70
     0
  3

 62
   256
 51
90.0
 52
90.0
 71
     2
 49
0.5
 62
   256
  6
BYLAYER
 49
-0.5
 62
   256
  6
BYLAYER
  0
ACDBPLACEHOLDER
  5
F
102
{ACAD_REACTORS
330
E
102
}
330
E
  0
VISUALSTYLE
  5
2F
102
{ACAD_REACTORS
330
2A
102
}
330
2A
100
AcDbVisualStyle
  2
2dWireframe
 70
     4
177
     2
291
     0
 71
     0
176
     1
 72
     2
176
     1
 73
     0
176
     1
 90
        0
176
     1
 40
-0.6
176
     1
 41
-30.0
176
     1
 62
     5
 63
     7
421
 16777215
176
     1
 74
     1
176
     1
 91
        4
176
     1
 64
     7
176
     1
 65
   257
176
     1
 75
     1
176
     1
175
     1
176
     1
 42
1.0
176
     1
 92
        0
176
     1
 66
   257
176
     1
 43
1.0
176
     1
 76
     1
176
     1
 77
     6
176
     1
 78
     2
176
     1
 67
     7
176
     1
 79
     5
176
     1
170
     0
176
     1
171
     0
176
     1
290
     0
176
     1
 93
        1
176
     1
 44
0.0
176
     1
173
     0
176
     1
  0
VISUALSTYLE
  5
31
102
{ACAD_REACTORS
330
2A
102
}
330
2A
100
AcDbVisualStyle
  2
3D Hidden
 70
     6
177
     2
291
     0
 71
     1
176
     1
 72
     2
176
     1
 73
     2
176
     1
 90
        0
176
     1
 40
-0.6
176
     1
 41
-30.0
176
     1
 62
     5
 63
     7
421
 16777215
176
     1
 74
     2
176
     1
 91
        2
176
     1
 64
     7
176
     1
 65
   257
176
     1
 75
     2
176
     1
175
     1
176
     1
 42
40.0
176
     1
 92
        0
176
     1
 66
   257
176
     1
 43
1.0
176
     1
 76
     1
176
     1
 77
     6
176
     1
 78
     2
176
     1
 67
     7
176
     1
 79
     3
176
     1
170
     0
176
     1
171
     0
176
     1
290
     0
176
     1
 93
        1
176
     1
 44
0.0
176
     1
173
     0
176
     1
  0
VISUALSTYLE
  5
30
102
{ACAD_REACTORS
330
2A
102
}
330
2A
100
AcDbVisualStyle
  2
3dWireframe
 70
     5
177
     2
291
     0
 71
     0
176
     1
 72
     2
176
     1
 73
     0
176
     1
 90
        0
176
     1
 40
-0.6
176
     1
 41
-30.0
176
     1
 62
     5
 63
     7
421
 16777215
176
     1
 74
     1
176
     1
 91
        4
176
     1
 64
     7
176
     1
 65
   257
176
     1
 75
     1
176
     1
175
     1
176
     1
 42
1.0
176
     1
 92
        0
176
     1
 66
   257
176
     1
 43
1.0
176
     1
 76
     1
176
     1
 77
     6
176
     1
 78
     2
176
     1
 67
     7
176
     1
 79
     5
176
     1
170
     0
176
     1
171
     0
176
     1
290
     0
176
     1
 93
        1
176
     1
 44
0.0
176
     1
173
     0
176
     1
  0
VISUALSTYLE
  5
32
102
{ACAD_REACTORS
330
2A
102
}
330
2A
100
AcDbVisualStyle
  2
Basic
 70
     7
177
     2
291
     1
 71
     1
176
     1
 72
     0
176
     1
 73
     1
176
     1
 90
        0
176
     1
 40
-0.6
176
     1
 41
-30.0
176
     1
 62
     5
 63
     7
421
 16777215
176
     1
 74
     0
176
     1
 91
        4
176
     1
 64
     7
176
     1
 65
   257
176
     1
 75
     1
176
     1
175
     1
176
     1
 42
1.0
176
     1
 92
        8
176
     1
 66
     7
176
     1
 43
1.0
176
     1
 76
     1
176
     1
 77
     6
176
     1
 78
     2
176
     1
 67
     7
176
     1
 79
     5
176
     1
170
     0
176
     1
171
     0
176
     1
290
     0
176
     1
 93
        1
176
     1
 44
0.0
176
     1
173
     0
176
     1
  0
VISUALSTYLE
  5
36
102
{ACAD_REACTORS
330
2A
102
}
330
2A
100
AcDbVisualStyle
  2
Brighten
 70
    12
177
     2
291
     1
 71
     2
176
     1
 72
     2
176
     1
 73
     0
176
     1
 90
        0
176
     1
 40
-0.6
176
     1
 41
-30.0
176
     1
 62
     5
 63
     7
421
 16777215
176
     1
 74
     1
176
     1
 91
        4
176
     1
 64
     7
176
     1
 65
   257
176
     1
 75
     1
176
     1
175
     1
176
     1
 42
1.0
176
     1
 92
        8
176
     1
 66
     7
176
     1
 43
1.0
176
     1
 76
     1
176
     1
 77
     6
176
     1
 78
     2
176
     1
 67
     7
176
     1
 79
     5
176
     1
170
     0
176
     1
171
     0
176
     1
290
     0
176
     1
 93
        1
176
     1
 44
50.0
176
     1
173
     0
176
     1
  0
VISUALSTYLE
  5
3A
102
{ACAD_REACTORS
330
2A
102
}
330
2A
100
AcDbVisualStyle
  2
ColorChange
 70
    16
177
     2
291
     1
 71
     2
176
     1
 72
     2
176
     1
 73
     3
176
     1
 90
        0
176
     1
 40
-0.6
176
     1
 41
-30.0
176
     1
 62
     5
 63
     8
421
  8421504
176
     1
 74
     1
176
     1
 91
        4
176
     1
 64
     7
176
     1
 65
   257
176
     1
 75
     1
176
     1
175
     1
176
     1
 42
1.0
176
     1
 92
        8
176
     1
 66
     8
424
  8421504
176
     1
 43
1.0
176
     1
 76
     1
176
     1
 77
     6
176
     1
 78
     2
176
     1
 67
     7
176
     1
 79
     5
176
     1
170
     0
176
     1
171
     0
176
     1
290
     0
176
     1
 93
        1
176
     1
 44
0.0
176
     1
173
     0
176
     1
  0
VISUALSTYLE
  5
34
102
{ACAD_REACTORS
330
2A
102
}
330
2A
100
AcDbVisualStyle
  2
Conceptual
 70
     9
177
     2
291
     0
 71
     3
176
     1
 72
     2
176
     1
 73
     0
176
     1
 90
        0
176
     1
 40
-0.6
176
     1
 41
-30.0
176
     1
 62
     5
 63
     7
421
 16777215
176
     1
 74
     2
176
     1
 91
        2
176
     1
 64
     7
176
     1
 65
   257
176
     1
 75
     1
176
     1
175
     1
176
     1
 42
40.0
176
     1
 92
        8
176
     1
 66
     7
176
     1
 43
1.0
176
     1
 76
     1
176
     1
 77
     6
176
     1
 78
     2
176
     1
 67
     7
176
     1
 79
     3
176
     1
170
     0
176
     1
171
     0
176
     1
290
     0
176
     1
 93
        1
176
     1
 44
0.0
176
     1
173
     0
176
     1
  0
VISUALSTYLE
  5
35
102
{ACAD_REACTORS
330
2A
102
}
330
2A
100
AcDbVisualStyle
  2
Dim
 70
    11
177
     2
291
     1
 71
     2
176
     1
 72
     2
176
     1
 73
     0
176
     1
 90
        0
176
     1
 40
-0.6
176
     1
 41
-30.0
176
     1
 62
     5
 63
     7
421
 16777215
176
     1
 74
     1
176
     1
 91
        4
176
     1
 64
     7
176
     1
 65
   257
176
     1
 75
     1
176
     1
175
     1
176
     1
 42
1.0
176
     1
 92
        8
176
     1
 66
     7
176
     1
 43
1.0
176
     1
 76
     1
176
     1
 77
     6
176
     1
 78
     2
176
     1
 67
     7
176
     1
 79
     5
176
     1
170
     0
176
     1
171
     0
176
     1
290
     0
176
     1
 93
        1
176
     1
 44
-50.0
176
     1
173
     0
176
     1
  0
VISUALSTYLE
  5
39
102
{ACAD_REACTORS
330
2A
102
}
330
2A
100
AcDbVisualStyle
  2
Facepattern
 70
    15
177
     2
291
     1
 71
     2
176
     1
 72
     2
176
     1
 73
     0
176
     1
 90
        0
176
     1
 40
-0.6
176
     1
 41
-30.0
176
     1
 62
     5
 63
     7
421
 16777215
176
     1
 74
     1
176
     1
 91
        4
176
     1
 64
     7
176
     1
 65
   257
176
     1
 75
     1
176
     1
175
     1
176
     1
 42
1.0
176
     1
 92
        8
176
     1
 66
     7
176
     1
 43
1.0
176
     1
 76
     1
176
     1
 77
     6
176
     1
 78
     2
176
     1
 67
     7
176
     1
 79
     5
176
     1
170
     0
176
     1
171
     0
176
     1
290
     0
176
     1
 93
        1
176
     1
 44
0.0
176
     1
173
     0
176
     1
  0
VISUALSTYLE
  5
2B
102
{ACAD_REACTORS
330
2A
102
}
330
2A
100
AcDbVisualStyle
  2
Flat
 70
     0
177
     2
291
     1
 71
     2
176
     1
 72
     1
176
     1
 73
     1
176
     1
 90
        2
176
     1
 40
-0.6
176
     1
 41
30.0
176
     1
 62
     5
 63
     7
421
 16777215
176
     1
 74
     0
176
     1
 91
        4
176
     1
 64
     7
176
     1
 65
   257
176
     1
 75
     1
176
     1
175
     1
176
     1
 42
1.0
176
     1
 92
        8
176
     1
 66
     7
176
     1
 43
1.0
176
     1
 76
     1
176
     1
 77
     6
176
     1
 78
     2
176
     1
 67
     7
176
     1
 79
     5
176
     1
170
     0
176
     1
171
     0
176
     1
290
     0
176
     1
 93
       13
176
     1
 44
0.0
176
     1
173
     0
176
     1
  0
VISUALSTYLE
  5
2C
102
{ACAD_REACTORS
330
2A
102
}
330
2A
100
AcDbVisualStyle
  2
FlatWithEdges
 70
     1
177
     2
291
     1
 71
     2
176
     1
 72
     1
176
     1
 73
     1
176
     1
 90
        2
176
     1
 40
-0.6
176
     1
 41
30.0
176
     1
 62
     5
 63
     7
421
 16777215
176
     1
 74
     1
176
     1
 91
        4
176
     1
 64
     7
176
     1
 65
   257
176
     1
 75
     1
176
     1
175
     1
176
     1
 42
1.0
176
     1
 92
        0
176
     1
 66
   257
176
     1
 43
1.0
176
     1
 76
     1
176
     1
 77
     6
176
     1
 78
     2
176
     1
 67
     7
176
     1
 79
     5
176
     1
170
     0
176
     1
171
     0
176
     1
290
     0
176
     1
 93
       13
176
     1
 44
0.0
176
     1
173
     0
176
     1
  0
VISUALSTYLE
  5
2D
102
{ACAD_REACTORS
330
2A
102
}
330
2A
100
AcDbVisualStyle
  2
Gouraud
 70
     2
177
     2
291
     1
 71
     2
176
     1
 72
     2
176
     1
 73
     1
176
     1
 90
        2
176
     1
 40
-0.6
176
     1
 41
30.0
176
     1
 62
     5
 63
     7
421
 16777215
176
     1
 74
     0
176
     1
 91
        4
176
     1
 64
     7
176
     1
 65
   257
176
     1
 75
     1
176
     1
175
     1
176
     1
 42
1.0
176
     1
 92
        0
176
     1
 66
     7
176
     1
 43
1.0
176
     1
 76
     1
176
     1
 77
     6
176
     1
 78
     2
176
     1
 67
     7
176
     1
 79
     5
176
     1
170
     0
176
     1
171
     0
176
     1
290
     0
176
     1
 93
       13
176
     1
 44
0.0
176
     1
173
     0
176
     1
  0
VISUALSTYLE
  5
2E
102
{ACAD_REACTORS
330
2A
102
}
330
2A
100
AcDbVisualStyle
  2
GouraudWithEdges
 70
     3
177
     2
291
     1
 71
     2
176
     1
 72
     2
176
     1
 73
     1
176
     1
 90
        2
176
     1
 40
-0.6
176
     1
 41
30.0
176
     1
 62
     5
 63
     7
421
 16777215
176
     1
 74
     1
176
     1
 91
        4
176
     1
 64
     7
176
     1
 65
   257
176
     1
 75
     1
176
     1
175
     1
176
     1
 42
1.0
176
     1
 92
        0
176
     1
 66
   257
176
     1
 43
1.0
176
     1
 76
     1
176
     1
 77
     6
176
     1
 78
     2
176
     1
 67
     7
176
     1
 79
     5
176
     1
170
     0
176
     1
171
     0
176
     1
290
     0
176
     1
 93
       13
176
     1
 44
0.0
176
     1
173
     0
176
     1
  0
VISUALSTYLE
  5
38
102
{ACAD_REACTORS
330
2A
102
}
330
2A
100
AcDbVisualStyle
  2
Linepattern
 70
    14
177
     2
291
     1
 71
     2
176
     1
 72
     2
176
     1
 73
     0
176
     1
 90
        0
176
     1
 40
-0.6
176
     1
 41
-30.0
176
     1
 62
     5
 63
     7
421
 16777215
176
     1
 74
     1
176
     1
 91
        4
176
     1
 64
     7
176
     1
 65
   257
176
     1
 75
     7
176
     1
175
     7
176
     1
 42
1.0
176
     1
 92
        8
176
     1
 66
     7
176
     1
 43
1.0
176
     1
 76
     1
176
     1
 77
     6
176
     1
 78
     2
176
     1
 67
     7
176
     1
 79
     5
176
     1
170
     0
176
     1
171
     0
176
     1
290
     0
176
     1
 93
        1
176
     1
 44
0.0
176
     1
173
     0
176
     1
  0
VISUALSTYLE
  5
33
102
{ACAD_REACTORS
330
2A
102
}
330
2A
100
AcDbVisualStyle
  2
Realistic
 70
     8
177
     2
291
     0
 71
     2
176
     1
 72
     2
176
     1
 73
     0
176
     1
 90
        0
176
     1
 40
-0.6
176
     1
 41
-30.0
176
     1
 62
     5
 63
     7
421
 16777215
176
     1
 74
     1
176
     1
 91
        0
176
     1
 64
     7
176
     1
 65
   257
176
     1
 75
     1
176
     1
175
     1
176
     1
 42
1.0
176
     1
 92
        8
176
     1
 66
     8
424
  7895160
176
     1
 43
1.0
176
     1
 76
     1
176
     1
 77
     6
176
     1
 78
     2
176
     1
 67
     7
176
     1
 79
     5
176
     1
170
     0
176
     1
171
     0
176
     1
290
     0
176
     1
 93
       13
176
     1
 44
0.0
176
     1
173
     0
176
     1
  0
VISUALSTYLE
  5
37
102
{ACAD_REACTORS
330
2A
102
}
330
2A
100
AcDbVisualStyle
  2
Thicken
 70
    13
177
     2
291
     1
 71
     2
176
     1
 72
     2
176
     1
 73
     0
176
     1
 90
        0
176
     1
 40
-0.6
176
     1
 41
-30.0
176
     1
 62
     5
 63
     7
421
 16777215
176
     1
 74
     1
176
     1
 91
        4
176
     1
 64
     7
176
     1
 65
   257
176
     1
 75
     1
176
     1
175
     1
176
     1
 42
1.0
176
     1
 92
       12
176
     1
 66
     7
176
     1
 43
1.0
176
     1
 76
     1
176
     1
 77
     6
176
     1
 78
     2
176
     1
 67
     7
176
     1
 79
     5
176
     1
170
     0
176
     1
171
     0
176
     1
290
     0
176
     1
 93
        1
176
     1
 44
0.0
176
     1
173
     0
176
     1
  0
ENDSEC
  0
EOF
