  0
SECTION
  2
HEADER
  9
$ACADVER
  1
AC1024
  9
$ACADMAINTVER
 70
     6
  9
$DWGCODEPAGE
  3
UNDEFINED
  9
$INSBASE
 10
0.0
 20
0.0
 30
0.0
  9
$EXTMIN
 10
1.000000000000000E+20
 20
1.000000000000000E+20
 30
1.000000000000000E+20
  9
$EXTMAX
 10
-1.000000000000000E+20
 20
-1.000000000000000E+20
 30
-1.000000000000000E+20
  9
$LIMMIN
 10
0.0
 20
0.0
  9
$LIMMAX
 10
12.0
 20
9.0
  9
$ORTHOMODE
 70
     0
  9
$REGENMODE
 70
     1
  9
$FILLMODE
 70
     1
  9
$QTEXTMODE
 70
     0
  9
$MIRRTEXT
 70
     1
  9
$LTSCALE
 40
1.0
  9
$ATTMODE
 70
     1
  9
$TEXTSIZE
 40
0.2
  9
$TRACEWID
 40
0.05
  9
$TEXTSTYLE
  7
Standard
  9
$CLAYER
  8
0
  9
$CELTYPE
  6
ByLayer
  9
$CECOLOR
 62
   256
  9
$CELTSCALE
 40
1.0
  9
$DISPSILH
 70
     0
  9
$DIMSCALE
 40
1.0
  9
$DIMASZ
 40
0.18
  9
$DIMEXO
 40
0.0625
  9
$DIMDLI
 40
0.38
  9
$DIMRND
 40
0.0
  9
$DIMDLE
 40
0.0
  9
$DIMEXE
 40
0.18
  9
$DIMTP
 40
0.0
  9
$DIMTM
 40
0.0
  9
$DIMTXT
 40
0.18
  9
$DIMCEN
 40
0.09
  9
$DIMTSZ
 40
0.0
  9
$DIMTOL
 70
     0
  9
$DIMLIM
 70
     0
  9
$DIMTIH
 70
     1
  9
$DIMTOH
 70
     1
  9
$DIMSE1
 70
     0
  9
$DIMSE2
 70
     0
  9
$DIMTAD
 70
     0
  9
$DIMZIN
 70
     0
  9
$DIMBLK
  1

  9
$DIMASO
 70
     1
  9
$DIMSHO
 70
     1
  9
$DIMPOST
  1

  9
$DIMAPOST
  1

  9
$DIMALT
 70
     0
  9
$DIMALTD
 70
     2
  9
$DIMALTF
 40
25.4
  9
$DIMLFAC
 40
1.0
  9
$DIMTOFL
 70
     0
  9
$DIMTVP
 40
0.0
  9
$DIMTIX
 70
     0
  9
$DIMSOXD
 70
     0
  9
$DIMSAH
 70
     0
  9
$DIMBLK1
  1

  9
$DIMBLK2
  1

  9
$DIMSTYLE
  2
Standard
  9
$DIMCLRD
 70
     0
  9
$DIMCLRE
 70
     0
  9
$DIMCLRT
 70
     0
  9
$DIMTFAC
 40
1.0
  9
$DIMGAP
 40
0.09
  9
$DIMJUST
 70
     0
  9
$DIMSD1
 70
     0
  9
$DIMSD2
 70
     0
  9
$DIMTOLJ
 70
     1
  9
$DIMTZIN
 70
     0
  9
$DIMALTZ
 70
     0
  9
$DIMALTTZ
 70
     0
  9
$DIMUPT
 70
     0
  9
$DIMDEC
 70
     4
  9
$DIMTDEC
 70
     4
  9
$DIMALTU
 70
     2
  9
$DIMALTTD
 70
     2
  9
$DIMTXSTY
  7
Standard
  9
$DIMAUNIT
 70
     0
  9
$DIMADEC
 70
     0
  9
$DIMALTRND
 40
0.0
  9
$DIMAZIN
 70
     0
  9
$DIMDSEP
 70
    46
  9
$DIMATFIT
 70
     3
  9
$DIMFRAC
 70
     0
  9
$DIMLDRBLK
  1

  9
$DIMLUNIT
 70
     2
  9
$DIMLWD
 70
    -2
  9
$DIMLWE
 70
    -2
  9
$DIMTMOVE
 70
     0
  9
$DIMFXL
 40
1.0
  9
$DIMFXLON
 70
     0
  9
$DIMJOGANG
 40
0.7853981633974483
  9
$DIMTFILL
 70
     0
  9
$DIMTFILLCLR
 70
     0
  9
$DIMARCSYM
 70
     0
  9
$DIMLTYPE
  6

  9
$DIMLTEX1
  6

  9
$DIMLTEX2
  6

  9
$DIMTXTDIRECTION
 70
     0
  9
$LUNITS
 70
     2
  9
$LUPREC
 70
     4
  9
$SKETCHINC
 40
0.1
  9
$FILLETRAD
 40
0.5
  9
$AUNITS
 70
     0
  9
$AUPREC
 70
     0
  9
$MENU
  1
.
  9
$ELEVATION
 40
0.0
  9
$PELEVATION
 40
0.0
  9
$THICKNESS
 40
0.0
  9
$LIMCHECK
 70
     0
  9
$CHAMFERA
 40
0.5
  9
$CHAMFERB
 40
0.5
  9
$CHAMFERC
 40
1.0
  9
$CHAMFERD
 40
0.0
  9
$SKPOLY
 70
     0
  9
$TDCREATE
 40
2458263.577268507
  9
$TDUCREATE
 40
2458263.202268519
  9
$TDUPDATE
 40
2458263.577268507
  9
$TDUUPDATE
 40
2458263.202268519
  9
$TDINDWG
 40
0.0000000116
  9
$TDUSRTIMER
 40
0.0000000116
  9
$USRTIMER
 70
     1
  9
$ANGBASE
 50
0.0
  9
$ANGDIR
 70
     0
  9
$PDMODE
 70
     0
  9
$PDSIZE
 40
0.0
  9
$PLINEWID
 40
0.0
  9
$SPLFRAME
 70
     0
  9
$SPLINETYPE
 70
     6
  9
$SPLINESEGS
 70
     8
  9
$HANDSEED
  5
F0
  9
$SURFTAB1
 70
     6
  9
$SURFTAB2
 70
     6
  9
$SURFTYPE
 70
     6
  9
$SURFU
 70
     6
  9
$SURFV
 70
     6
  9
$UCSBASE
  2

  9
$UCSNAME
  2

  9
$UCSORG
 10
0.0
 20
0.0
 30
0.0
  9
$UCSXDIR
 10
1.0
 20
0.0
 30
0.0
  9
$UCSYDIR
 10
0.0
 20
1.0
 30
0.0
  9
$UCSORTHOREF
  2

  9
$UCSORTHOVIEW
 70
     0
  9
$UCSORGTOP
 10
0.0
 20
0.0
 30
0.0
  9
$UCSORGBOTTOM
 10
0.0
 20
0.0
 30
0.0
  9
$UCSORGLEFT
 10
0.0
 20
0.0
 30
0.0
  9
$UCSORGRIGHT
 10
0.0
 20
0.0
 30
0.0
  9
$UCSORGFRONT
 10
0.0
 20
0.0
 30
0.0
  9
$UCSORGBACK
 10
0.0
 20
0.0
 30
0.0
  9
$PUCSBASE
  2

  9
$PUCSNAME
  2

  9
$PUCSORG
 10
0.0
 20
0.0
 30
0.0
  9
$PUCSXDIR
 10
1.0
 20
0.0
 30
0.0
  9
$PUCSYDIR
 10
0.0
 20
1.0
 30
0.0
  9
$PUCSORTHOREF
  2

  9
$PUCSORTHOVIEW
 70
     0
  9
$PUCSORGTOP
 10
0.0
 20
0.0
 30
0.0
  9
$PUCSORGBOTTOM
 10
0.0
 20
0.0
 30
0.0
  9
$PUCSORGLEFT
 10
0.0
 20
0.0
 30
0.0
  9
$PUCSORGRIGHT
 10
0.0
 20
0.0
 30
0.0
  9
$PUCSORGFRONT
 10
0.0
 20
0.0
 30
0.0
  9
$PUCSORGBACK
 10
0.0
 20
0.0
 30
0.0
  9
$USERI1
 70
     0
  9
$USERI2
 70
     0
  9
$USERI3
 70
     0
  9
$USERI4
 70
     0
  9
$USERI5
 70
     0
  9
$USERR1
 40
0.0
  9
$USERR2
 40
0.0
  9
$USERR3
 40
0.0
  9
$USERR4
 40
0.0
  9
$USERR5
 40
0.0
  9
$WORLDVIEW
 70
     1
  9
$SHADEDGE
 70
     3
  9
$SHADEDIF
 70
    70
  9
$TILEMODE
 70
     1
  9
$MAXACTVP
 70
    64
  9
$PINSBASE
 10
0.0
 20
0.0
 30
0.0
  9
$PLIMCHECK
 70
     0
  9
$PEXTMIN
 10
1.000000000000000E+20
 20
1.000000000000000E+20
 30
1.000000000000000E+20
  9
$PEXTMAX
 10
-1.000000000000000E+20
 20
-1.000000000000000E+20
 30
-1.000000000000000E+20
  9
$PLIMMIN
 10
0.0
 20
0.0
  9
$PLIMMAX
 10
12.0
 20
9.0
  9
$UNITMODE
 70
     0
  9
$VISRETAIN
 70
     1
  9
$PLINEGEN
 70
     0
  9
$PSLTSCALE
 70
     1
  9
$TREEDEPTH
 70
  3020
  9
$CMLSTYLE
  2
Standard
  9
$CMLJUST
 70
     0
  9
$CMLSCALE
 40
1.0
  9
$PROXYGRAPHICS
 70
     1
  9
$MEASUREMENT
 70
     0
  9
$CELWEIGHT
370
    -1
  9
$ENDCAPS
280
     0
  9
$JOINSTYLE
280
     0
  9
$LWDISPLAY
290
     1
  9
$INSUNITS
 70
     1
  9
$HYPERLINKBASE
  1

  9
$STYLESHEET
  1

  9
$XEDIT
290
     1
  9
$CEPSNTYPE
380
     0
  9
$PSTYLEMODE
290
     1
  9
$FINGERPRINTGUID
  2
{84F7F0CD-7C22-68A1-888A-95815B69FDB7}
  9
$VERSIONGUID
  2
{FAEB1C32-E019-11D5-929B-00C0DF256EC4}
  9
$EXTNAMES
290
     1
  9
$PSVPSCALE
 40
0.0
  9
$OLESTARTUP
290
     0
  9
$SORTENTS
280
   127
  9
$INDEXCTL
280
     0
  9
$HIDETEXT
280
     1
  9
$XCLIPFRAME
280
     2
  9
$HALOGAP
280
     0
  9
$OBSCOLOR
 70
   257
  9
$OBSLTYPE
280
     0
  9
$INTERSECTIONDISPLAY
280
     0
  9
$INTERSECTIONCOLOR
 70
   257
  9
$DIMASSOC
280
     2
  9
$PROJECTNAME
  1

  9
$CAMERADISPLAY
290
     0
  9
$LENSLENGTH
 40
50.0
  9
$CAMERAHEIGHT
 40
0.0
  9
$STEPSPERSEC
 40
2.0
  9
$STEPSIZE
 40
6.0
  9
$3DDWFPREC
 40
2.0
  9
$PSOLWIDTH
 40
0.25
  9
$PSOLHEIGHT
 40
4.0
  9
$LOFTANG1
 40
1.570796326794897
  9
$LOFTANG2
 40
1.570796326794897
  9
$LOFTMAG1
 40
0.0
  9
$LOFTMAG2
 40
0.0
  9
$LOFTPARAM
 70
     7
  9
$LOFTNORMALS
280
     1
  9
$LATITUDE
 40
37.795
  9
$LONGITUDE
 40
-122.394
  9
$NORTHDIRECTION
 40
0.0
  9
$TIMEZONE
 70
 -8000
  9
$LIGHTGLYPHDISPLAY
280
     1
  9
$TILEMODELIGHTSYNCH
280
     1
  9
$CMATERIAL
347
3C
  9
$SOLIDHIST
280
     1
  9
$SHOWHIST
280
     1
  9
$DWFFRAME
280
     2
  9
$DGNFRAME
280
     2
  9
$REALWORLDSCALE
290
     1
  9
$INTERFERECOLOR
 62
   256
  9
$CSHADOW
280
     0
  9
$SHADOWPLANELOCATION
 40
0.0
  0
ENDSEC
  0
SECTION
  2
CLASSES
  0
CLASS
  1
ACDBDICTIONARYWDFLT
  2
AcDbDictionaryWithDefault
  3
ObjectDBX Classes
 90
        0
 91
        4
280
     0
281
     0
  0
CLASS
  1
VISUALSTYLE
  2
AcDbVisualStyle
  3
ObjectDBX Classes
 90
     4095
 91
        4
280
     0
281
     0
  0
CLASS
  1
MATERIAL
  2
AcDbMaterial
  3
ObjectDBX Classes
 90
     1153
 91
        4
280
     0
281
     0
  0
CLASS
  1
SUN
  2
AcDbSun
  3
SCENEOE
 90
     1024
 91
        4
280
     0
281
     0
  0
ENDSEC
  0
SECTION
  2
TABLES
  0
TABLE
  2
VPORT
  5
8
330
0
100
AcDbSymbolTable
 70
     1
  0
VPORT
  5
29
330
8
100
AcDbSymbolTableRecord
100
AcDbViewportTableRecord
  2
*Active
 70
     0
 10
0.0
 20
0.0
 11
1.0
 21
1.0
 12
0.0
 22
0.0
 13
0.0
 23
0.0
 14
0.5
 24
0.5
 15
0.5
 25
0.5
 16
0.0
 26
0.0
 36
1.0
 17
105.0007777515277
 27
-148.5000416295416
 37
0.0
 40
297.0000832590831
 41
0.7070757462376333
 42
50.0
 43
0.0
 44
0.0
 50
0.0
 51
0.0
 71
     0
 72
   100
 73
     1
 74
     3
 75
     0
 76
     0
 77
     0
 78
     0
281
     0
 65
     1
110
0.0
120
0.0
130
0.0
111
1.0
121
0.0
131
0.0
112
0.0
122
1.0
132
0.0
 79
     0
146
0.0
 60
     3
 61
     5
292
     1
282
     1
141
0.0
142
0.0
 63
   250
361
3F
  0
ENDTAB
  0
TABLE
  2
LTYPE
  5
5
330
0
100
AcDbSymbolTable
 70
     1
  0
LTYPE
  5
14
330
5
100
AcDbSymbolTableRecord
100
AcDbLinetypeTableRecord
  2
ByBlock
 70
     0
  3

 72
    65
 73
     0
 40
0.0
  0
LTYPE
  5
15
330
5
100
AcDbSymbolTableRecord
100
AcDbLinetypeTableRecord
  2
ByLayer
 70
     0
  3

 72
    65
 73
     0
 40
0.0
  0
LTYPE
  5
16
330
5
100
AcDbSymbolTableRecord
100
AcDbLinetypeTableRecord
  2
Continuous
 70
     0
  3
Solid line
 72
    65
 73
     0
 40
0.0
  0
ENDTAB
  0
TABLE
  2
LAYER
  5
2
330
0
100
AcDbSymbolTable
 70
     2
  0
LAYER
  5
10
330
2
100
AcDbSymbolTableRecord
100
AcDbLayerTableRecord
  2
0
 70
     0
 62
     7
  6
Continuous
370
    -3
390
F
347
3E
  0
LAYER
  5
40
330
2
100
AcDbSymbolTableRecord
100
AcDbLayerTableRecord
  2
_U+30EC_U+30A4_U+30E4_U+30FC 1
 70
     0
 62
     7
  6
Continuous
370
    -3
390
F
347
3E
  0
ENDTAB
  0
TABLE
  2
STYLE
  5
3
330
0
100
AcDbSymbolTable
 70
     1
  0
STYLE
  5
11
330
3
100
AcDbSymbolTableRecord
100
AcDbTextStyleTableRecord
  2
Standard
 70
     0
 40
0.0
 41
1.0
 50
0.0
 71
     0
 42
0.2
  3
txt
  4

  0
ENDTAB
  0
TABLE
  2
VIEW
  5
6
330
0
100
AcDbSymbolTable
 70
     0
  0
ENDTAB
  0
TABLE
  2
UCS
  5
7
330
0
100
AcDbSymbolTable
 70
     0
  0
ENDTAB
  0
TABLE
  2
APPID
  5
9
330
0
100
AcDbSymbolTable
 70
     1
  0
APPID
  5
12
330
9
100
AcDbSymbolTableRecord
100
AcDbRegAppTableRecord
  2
ACAD
 70
     0
  0
ENDTAB
  0
TABLE
  2
DIMSTYLE
  5
A
330
0
100
AcDbSymbolTable
 70
     1
100
AcDbDimStyleTable
  0
DIMSTYLE
105
27
330
A
100
AcDbSymbolTableRecord
100
AcDbDimStyleTableRecord
  2
Standard
 70
     0
178
     0
340
11
  0
ENDTAB
  0
TABLE
  2
BLOCK_RECORD
  5
1
330
0
100
AcDbSymbolTable
 70
     6
  0
BLOCK_RECORD
  5
1F
330
1
100
AcDbSymbolTableRecord
100
AcDbBlockTableRecord
  2
*Model_Space
340
22
 70
     0
280
     1
281
     0
  0
BLOCK_RECORD
  5
1B
330
1
100
AcDbSymbolTableRecord
100
AcDbBlockTableRecord
  2
*Paper_Space
340
1E
 70
     0
280
     1
281
     0
  0
BLOCK_RECORD
  5
23
330
1
100
AcDbSymbolTableRecord
100
AcDbBlockTableRecord
  2
*Paper_Space0
340
26
 70
     0
280
     1
281
     0
  0
BLOCK_RECORD
  5
89
330
1
100
AcDbSymbolTableRecord
100
AcDbBlockTableRecord
  2
block 2
340
0
102
{BLKREFS
331
8A
102
}
 70
     0
280
     1
281
     0
  0
BLOCK_RECORD
  5
A4
330
1
100
AcDbSymbolTableRecord
100
AcDbBlockTableRecord
  2
block 3
340
0
102
{BLKREFS
331
A5
102
}
 70
     0
280
     1
281
     0
  0
BLOCK_RECORD
  5
B6
330
1
100
AcDbSymbolTableRecord
100
AcDbBlockTableRecord
  2
block 4
340
0
102
{BLKREFS
331
B7
102
}
 70
     0
280
     1
281
     0
  0
BLOCK_RECORD
  5
CA
330
1
100
AcDbSymbolTableRecord
100
AcDbBlockTableRecord
  2
block 5
340
0
102
{BLKREFS
331
CB
102
}
 70
     0
280
     1
281
     0
  0
BLOCK_RECORD
  5
DD
330
1
100
AcDbSymbolTableRecord
100
AcDbBlockTableRecord
  2
block 6
340
0
102
{BLKREFS
331
DE
102
}
 70
     0
280
     1
281
     0
  0
ENDTAB
  0
ENDSEC
  0
SECTION
  2
BLOCKS
  0
BLOCK
  5
20
330
1F
100
AcDbEntity
  8
0
100
AcDbBlockBegin
  2
*Model_Space
 70
     0
 10
0.0
 20
0.0
 30
0.0
  3
*Model_Space
  1

  0
ENDBLK
  5
21
330
1F
100
AcDbEntity
  8
0
100
AcDbBlockEnd
  0
BLOCK
  5
1C
330
1B
100
AcDbEntity
 67
     1
  8
0
100
AcDbBlockBegin
  2
*Paper_Space
 70
     0
 10
0.0
 20
0.0
 30
0.0
  3
*Paper_Space
  1

  0
ENDBLK
  5
1D
330
1B
100
AcDbEntity
 67
     1
  8
0
100
AcDbBlockEnd
  0
BLOCK
  5
24
330
23
100
AcDbEntity
  8
0
100
AcDbBlockBegin
  2
*Paper_Space0
 70
     0
 10
0.0
 20
0.0
 30
0.0
  3
*Paper_Space0
  1

  0
ENDBLK
  5
25
330
23
100
AcDbEntity
  8
0
100
AcDbBlockEnd
  0
BLOCK
  5
8B
330
89
100
AcDbEntity
  8
0
100
AcDbBlockBegin
  2
block 2
 70
     0
 10
0.0
 20
0.0
 30
0.0
  3
block 2
  1

  0
SPLINE
  5
8D
330
89
100
AcDbEntity
  8
_U+30EC_U+30A4_U+30E4_U+30FC 1
370
     0
100
AcDbSpline
210
0.0
220
0.0
230
1.0
 70
    11
 71
     3
 72
    29
 73
    25
 74
     0
 42
0.0000000001
 43
0.0000000001
 12
1.0
 22
0.0
 32
0.0
 13
1.0
 23
0.0
 33
0.0
 40
0.0
 40
0.0
 40
0.0
 40
0.0
 40
1.0
 40
1.0
 40
1.0
 40
2.0
 40
2.0
 40
2.0
 40
3.0
 40
3.0
 40
3.0
 40
4.0
 40
4.0
 40
4.0
 40
5.0
 40
5.0
 40
5.0
 40
6.0
 40
6.0
 40
6.0
 40
7.0
 40
7.0
 40
7.0
 40
8.0
 40
8.0
 40
8.0
 40
8.0
 10
115.5112955440388
 20
-141.0742485541412
 30
0.0
 10
115.720757349542
 20
-141.189659252897
 30
0.0
 10
115.7397053747109
 20
-141.3750053900035
 30
0.0
 10
115.7397053747109
 20
-141.499373337021
 30
0.0
 10
115.7397053747109
 20
-141.6709390921864
 30
0.0
 10
115.69319658566
 20
-141.8225232935374
 30
0.0
 10
115.5112955440388
 20
-141.9241536103523
 30
0.0
 10
115.3163031395737
 20
-142.0350856849773
 30
0.0
 10
115.079625079737
 20
-142.0554117483403
 30
0.0
 10
114.9166720632847
 20
-142.0554117483403
 30
0.0
 10
114.7726670720013
 20
-142.0554117483403
 30
0.0
 10
114.521175101578
 20
-142.0371527422685
 30
0.0
 10
114.3220485825306
 20
-141.9241536103523
 30
0.0
 10
114.1191324584494
 20
-141.809087421145
 30
0.0
 10
114.0960503186982
 20
-141.637177156431
 30
0.0
 10
114.0960503186982
 20
-141.499373337021
 30
0.0
 10
114.0960503186982
 20
-141.3295301295982
 30
0.0
 10
114.1401475409094
 20
-141.175878870956
 30
0.0
 10
114.3220485825306
 20
-141.0742485541412
 30
0.0
 10
114.5149739297046
 20
-140.9677951036469
 30
0.0
 10
114.7430392508281
 20
-140.9429904161532
 30
0.0
 10
114.9166720632847
 20
-140.9429904161532
 30
0.0
 10
115.0882378184502
 20
-140.9429904161532
 30
0.0
 10
115.3187147064134
 20
-140.9657280463558
 30
0.0
 10
115.5112955440388
 20
-141.0742485541412
 30
0.0
  0
SPLINE
  5
8E
330
89
100
AcDbEntity
  8
_U+30EC_U+30A4_U+30E4_U+30FC 1
370
     0
100
AcDbSpline
210
0.0
220
0.0
230
1.0
 70
    11
 71
     3
 72
    17
 73
    13
 74
     0
 42
0.0000000001
 43
0.0000000001
 12
1.0
 22
0.0
 32
0.0
 13
1.0
 23
0.0
 33
0.0
 40
0.0
 40
0.0
 40
0.0
 40
0.0
 40
1.0
 40
1.0
 40
1.0
 40
2.0
 40
2.0
 40
2.0
 40
3.0
 40
3.0
 40
3.0
 40
4.0
 40
4.0
 40
4.0
 40
4.0
 10
114.2882866467752
 20
-141.499373337021
 30
0.0
 10
114.2882866467752
 20
-141.7660237275793
 30
0.0
 10
114.5721625147597
 20
-141.8156331025669
 30
0.0
 10
114.9166720632847
 20
-141.8156331025669
 30
0.0
 10
115.2363769243159
 20
-141.8156331025669
 30
0.0
 10
115.5450574797943
 20
-141.7773925426806
 30
0.0
 10
115.5450574797943
 20
-141.499373337021
 30
0.0
 10
115.5450574797943
 20
-141.2347900037538
 30
0.0
 10
115.2635931786494
 20
-141.1827690619265
 30
0.0
 10
114.9166720632847
 20
-141.1827690619265
 30
0.0
 10
114.5973117118021
 20
-141.1827690619265
 30
0.0
 10
114.2882866467752
 20
-141.2234211886525
 30
0.0
 10
114.2882866467752
 20
-141.499373337021
 30
0.0
  0
HATCH
  5
8F
330
89
100
AcDbEntity
  8
_U+30EC_U+30A4_U+30E4_U+30FC 1
 62
   179
420
  2234388
100
AcDbHatch
 10
0.0
 20
0.0
 30
0.0
210
0.0
220
0.0
230
1.0
  2
SOLID
 70
     1
 71
     0
 91
        2
 92
        1
 93
        1
 72
     4
 94
        3
 73
     0
 74
     1
 95
       29
 96
       25
 40
0.0
 40
0.0
 40
0.0
 40
0.0
 40
1.0
 40
1.0
 40
1.0
 40
2.0
 40
2.0
 40
2.0
 40
3.0
 40
3.0
 40
3.0
 40
4.0
 40
4.0
 40
4.0
 40
5.0
 40
5.0
 40
5.0
 40
6.0
 40
6.0
 40
6.0
 40
7.0
 40
7.0
 40
7.0
 40
8.0
 40
8.0
 40
8.0
 40
8.0
 10
115.5112955440388
 20
-141.0742485541412
 10
115.720757349542
 20
-141.189659252897
 10
115.7397053747109
 20
-141.3750053900035
 10
115.7397053747109
 20
-141.499373337021
 10
115.7397053747109
 20
-141.6709390921864
 10
115.69319658566
 20
-141.8225232935374
 10
115.5112955440388
 20
-141.9241536103523
 10
115.3163031395737
 20
-142.0350856849773
 10
115.079625079737
 20
-142.0554117483403
 10
114.9166720632847
 20
-142.0554117483403
 10
114.7726670720013
 20
-142.0554117483403
 10
114.521175101578
 20
-142.0371527422685
 10
114.3220485825306
 20
-141.9241536103523
 10
114.1191324584494
 20
-141.809087421145
 10
114.0960503186982
 20
-141.637177156431
 10
114.0960503186982
 20
-141.499373337021
 10
114.0960503186982
 20
-141.3295301295982
 10
114.1401475409094
 20
-141.175878870956
 10
114.3220485825306
 20
-141.0742485541412
 10
114.5149739297046
 20
-140.9677951036469
 10
114.7430392508281
 20
-140.9429904161532
 10
114.9166720632847
 20
-140.9429904161532
 10
115.0882378184502
 20
-140.9429904161532
 10
115.3187147064134
 20
-140.9657280463558
 10
115.5112955440388
 20
-141.0742485541412
 97
        0
 97
        0
 92
        1
 93
        1
 72
     4
 94
        3
 73
     0
 74
     1
 95
       17
 96
       13
 40
0.0
 40
0.0
 40
0.0
 40
0.0
 40
1.0
 40
1.0
 40
1.0
 40
2.0
 40
2.0
 40
2.0
 40
3.0
 40
3.0
 40
3.0
 40
4.0
 40
4.0
 40
4.0
 40
4.0
 10
114.2882866467752
 20
-141.499373337021
 10
114.2882866467752
 20
-141.7660237275793
 10
114.5721625147597
 20
-141.8156331025669
 10
114.9166720632847
 20
-141.8156331025669
 10
115.2363769243159
 20
-141.8156331025669
 10
115.5450574797943
 20
-141.7773925426806
 10
115.5450574797943
 20
-141.499373337021
 10
115.5450574797943
 20
-141.2347900037538
 10
115.2635931786494
 20
-141.1827690619265
 10
114.9166720632847
 20
-141.1827690619265
 10
114.5973117118021
 20
-141.1827690619265
 10
114.2882866467752
 20
-141.2234211886525
 10
114.2882866467752
 20
-141.499373337021
 97
        0
 97
        0
 75
     2
 76
     1
 98
        0
  0
POLYLINE
  5
90
330
89
100
AcDbEntity
  8
_U+30EC_U+30A4_U+30E4_U+30FC 1
370
     0
100
AcDb2dPolyline
 66
     1
 10
0.0
 20
0.0
 30
0.0
  0
VERTEX
  5
91
330
90
100
AcDbEntity
  8
_U+30EC_U+30A4_U+30E4_U+30FC 1
370
     0
100
AcDbVertex
100
AcDb2dVertex
 10
115.6890624710777
 20
-140.7118245090929
 30
0.0
  0
VERTEX
  5
92
330
90
100
AcDbEntity
  8
_U+30EC_U+30A4_U+30E4_U+30FC 1
370
     0
100
AcDbVertex
100
AcDb2dVertex
 10
115.437225991106
 20
-140.7118245090929
 30
0.0
  0
VERTEX
  5
93
330
90
100
AcDbEntity
  8
_U+30EC_U+30A4_U+30E4_U+30FC 1
370
     0
100
AcDbVertex
100
AcDb2dVertex
 10
115.437225991106
 20
-140.4427625516949
 30
0.0
  0
VERTEX
  5
94
330
90
100
AcDbEntity
  8
_U+30EC_U+30A4_U+30E4_U+30FC 1
370
     0
100
AcDbVertex
100
AcDb2dVertex
 10
115.6890624710777
 20
-140.4427625516949
 30
0.0
  0
VERTEX
  5
95
330
90
100
AcDbEntity
  8
_U+30EC_U+30A4_U+30E4_U+30FC 1
370
     0
100
AcDbVertex
100
AcDb2dVertex
 10
115.6890624710777
 20
-140.7118245090929
 30
0.0
  0
SEQEND
  5
96
330
90
100
AcDbEntity
  8
_U+30EC_U+30A4_U+30E4_U+30FC 1
370
     0
  0
HATCH
  5
97
330
89
100
AcDbEntity
  8
_U+30EC_U+30A4_U+30E4_U+30FC 1
 62
   179
420
  2234388
100
AcDbHatch
 10
0.0
 20
0.0
 30
0.0
210
0.0
220
0.0
230
1.0
  2
SOLID
 70
     1
 71
     0
 91
        1
 92
        1
 93
        4
 72
     1
 10
115.6890624710777
 20
-140.7118245090929
 11
115.437225991106
 21
-140.7118245090929
 72
     1
 10
115.437225991106
 20
-140.7118245090929
 11
115.437225991106
 21
-140.4427625516949
 72
     1
 10
115.437225991106
 20
-140.4427625516949
 11
115.6890624710777
 21
-140.4427625516949
 72
     1
 10
115.6890624710777
 20
-140.4427625516949
 11
115.6890624710777
 21
-140.7118245090929
 97
        0
 75
     2
 76
     1
 98
        0
  0
SPLINE
  5
98
330
89
100
AcDbEntity
  8
_U+30EC_U+30A4_U+30E4_U+30FC 1
370
     0
100
AcDbSpline
210
0.0
220
0.0
230
1.0
 70
    11
 71
     3
 72
    29
 73
    25
 74
     0
 42
0.0000000001
 43
0.0000000001
 12
1.0
 22
0.0
 32
0.0
 13
1.0
 23
0.0
 33
0.0
 40
0.0
 40
0.0
 40
0.0
 40
0.0
 40
1.0
 40
1.0
 40
1.0
 40
2.0
 40
2.0
 40
2.0
 40
3.0
 40
3.0
 40
3.0
 40
4.0
 40
4.0
 40
4.0
 40
5.0
 40
5.0
 40
5.0
 40
6.0
 40
6.0
 40
6.0
 40
7.0
 40
7.0
 40
7.0
 40
8.0
 40
8.0
 40
8.0
 40
8.0
 10
115.7397053747109
 20
-139.6555582333153
 30
0.0
 10
115.7397053747109
 20
-139.9404676299454
 30
0.0
 10
115.6022460648494
 20
-140.2115966446346
 30
0.0
 10
115.2529133826451
 20
-140.2115966446346
 30
0.0
 10
114.9972872976396
 20
-140.2115966446346
 30
0.0
 10
114.9018581526982
 20
-140.0600124432836
 30
0.0
 10
114.8405354530607
 20
-139.9470133113674
 30
0.0
 10
114.7812798107144
 20
-140.0803385066466
 30
0.0
 10
114.6672471501526
 20
-140.161987269647
 30
0.0
 10
114.5063611909915
 20
-140.161987269647
 30
0.0
 10
114.23109806172
 20
-140.161987269647
 30
0.0
 10
114.0960503186982
 20
-139.9494248782071
 30
0.0
 10
114.0960503186982
 20
-139.6555582333153
 30
0.0
 10
114.0960503186982
 20
-139.3523898306133
 30
0.0
 10
114.2397108004331
 20
-139.1491291969836
 30
0.0
 10
114.5063611909915
 20
-139.1491291969836
 30
0.0
 10
114.6672471501526
 20
-139.1491291969836
 30
0.0
 10
114.7812798107144
 20
-139.2325005077266
 30
0.0
 10
114.8405354530607
 20
-139.3661702125543
 30
0.0
 10
114.8911783566939
 20
-139.2710855771614
 30
0.0
 10
114.9866075016353
 20
-139.1015868792871
 30
0.0
 10
115.2487792680628
 20
-139.1015868792871
 30
0.0
 10
115.6232611473095
 20
-139.1015868792871
 30
0.0
 10
115.7397053747109
 20
-139.3999321483097
 30
0.0
 10
115.7397053747109
 20
-139.6555582333153
 30
0.0
  0
SPLINE
  5
99
330
89
100
AcDbEntity
  8
_U+30EC_U+30A4_U+30E4_U+30FC 1
370
     0
100
AcDbSpline
210
0.0
220
0.0
230
1.0
 70
    11
 71
     3
 72
    17
 73
    13
 74
     0
 42
0.0000000001
 43
0.0000000001
 12
1.0
 22
0.0
 32
0.0
 13
1.0
 23
0.0
 33
0.0
 40
0.0
 40
0.0
 40
0.0
 40
0.0
 40
1.0
 40
1.0
 40
1.0
 40
2.0
 40
2.0
 40
2.0
 40
3.0
 40
3.0
 40
3.0
 40
4.0
 40
4.0
 40
4.0
 40
4.0
 10
114.2882866467752
 20
-139.6555582333153
 30
0.0
 10
114.2882866467752
 20
-139.8316026126116
 30
0.0
 10
114.3833712821681
 20
-139.9222086238736
 30
0.0
 10
114.5191080442869
 20
-139.9222086238736
 30
0.0
 10
114.6417534435618
 20
-139.9222086238736
 30
0.0
 10
114.7602647282544
 20
-139.8453829945526
 30
0.0
 10
114.7602647282544
 20
-139.6555582333153
 30
0.0
 10
114.7602647282544
 20
-139.4653889625295
 30
0.0
 10
114.6417534435618
 20
-139.3885633332084
 30
0.0
 10
114.5191080442869
 20
-139.3885633332084
 30
0.0
 10
114.3833712821681
 20
-139.3885633332084
 30
0.0
 10
114.2882866467752
 20
-139.4812364017616
 30
0.0
 10
114.2882866467752
 20
-139.6555582333153
 30
0.0
  0
SPLINE
  5
9A
330
89
100
AcDbEntity
  8
_U+30EC_U+30A4_U+30E4_U+30FC 1
370
     0
100
AcDbSpline
210
0.0
220
0.0
230
1.0
 70
    11
 71
     3
 72
    17
 73
    13
 74
     0
 42
0.0000000001
 43
0.0000000001
 12
1.0
 22
0.0
 32
0.0
 13
1.0
 23
0.0
 33
0.0
 40
0.0
 40
0.0
 40
0.0
 40
0.0
 40
1.0
 40
1.0
 40
1.0
 40
2.0
 40
2.0
 40
2.0
 40
3.0
 40
3.0
 40
3.0
 40
4.0
 40
4.0
 40
4.0
 40
4.0
 10
114.948366941749
 20
-139.6555582333153
 30
0.0
 10
114.948366941749
 20
-139.8092094919574
 30
0.0
 10
115.0351833479773
 20
-139.9718179988612
 30
0.0
 10
115.2384439816071
 20
-139.9718179988612
 30
0.0
 10
115.4434271629794
 20
-139.9718179988612
 30
0.0
 10
115.5450574797943
 20
-139.8364257462909
 30
0.0
 10
115.5450574797943
 20
-139.6555582333153
 30
0.0
 10
115.5450574797943
 20
-139.4564317142678
 30
0.0
 10
115.4224120805194
 20
-139.3389539582208
 30
0.0
 10
115.2446451534805
 20
-139.3389539582208
 30
0.0
 10
115.0224364946819
 20
-139.3389539582208
 30
0.0
 10
114.948366941749
 20
-139.5129312802259
 30
0.0
 10
114.948366941749
 20
-139.6555582333153
 30
0.0
  0
HATCH
  5
9B
330
89
100
AcDbEntity
  8
_U+30EC_U+30A4_U+30E4_U+30FC 1
 62
   179
420
  2234388
100
AcDbHatch
 10
0.0
 20
0.0
 30
0.0
210
0.0
220
0.0
230
1.0
  2
SOLID
 70
     1
 71
     0
 91
        3
 92
        1
 93
        1
 72
     4
 94
        3
 73
     0
 74
     1
 95
       29
 96
       25
 40
0.0
 40
0.0
 40
0.0
 40
0.0
 40
1.0
 40
1.0
 40
1.0
 40
2.0
 40
2.0
 40
2.0
 40
3.0
 40
3.0
 40
3.0
 40
4.0
 40
4.0
 40
4.0
 40
5.0
 40
5.0
 40
5.0
 40
6.0
 40
6.0
 40
6.0
 40
7.0
 40
7.0
 40
7.0
 40
8.0
 40
8.0
 40
8.0
 40
8.0
 10
115.7397053747109
 20
-139.6555582333153
 10
115.7397053747109
 20
-139.9404676299454
 10
115.6022460648494
 20
-140.2115966446346
 10
115.2529133826451
 20
-140.2115966446346
 10
114.9972872976396
 20
-140.2115966446346
 10
114.9018581526982
 20
-140.0600124432836
 10
114.8405354530607
 20
-139.9470133113674
 10
114.7812798107144
 20
-140.0803385066466
 10
114.6672471501526
 20
-140.161987269647
 10
114.5063611909915
 20
-140.161987269647
 10
114.23109806172
 20
-140.161987269647
 10
114.0960503186982
 20
-139.9494248782071
 10
114.0960503186982
 20
-139.6555582333153
 10
114.0960503186982
 20
-139.3523898306133
 10
114.2397108004331
 20
-139.1491291969836
 10
114.5063611909915
 20
-139.1491291969836
 10
114.6672471501526
 20
-139.1491291969836
 10
114.7812798107144
 20
-139.2325005077266
 10
114.8405354530607
 20
-139.3661702125543
 10
114.8911783566939
 20
-139.2710855771614
 10
114.9866075016353
 20
-139.1015868792871
 10
115.2487792680628
 20
-139.1015868792871
 10
115.6232611473095
 20
-139.1015868792871
 10
115.7397053747109
 20
-139.3999321483097
 10
115.7397053747109
 20
-139.6555582333153
 97
        0
 97
        0
 92
        1
 93
        1
 72
     4
 94
        3
 73
     0
 74
     1
 95
       17
 96
       13
 40
0.0
 40
0.0
 40
0.0
 40
0.0
 40
1.0
 40
1.0
 40
1.0
 40
2.0
 40
2.0
 40
2.0
 40
3.0
 40
3.0
 40
3.0
 40
4.0
 40
4.0
 40
4.0
 40
4.0
 10
114.2882866467752
 20
-139.6555582333153
 10
114.2882866467752
 20
-139.8316026126116
 10
114.3833712821681
 20
-139.9222086238736
 10
114.5191080442869
 20
-139.9222086238736
 10
114.6417534435618
 20
-139.9222086238736
 10
114.7602647282544
 20
-139.8453829945526
 10
114.7602647282544
 20
-139.6555582333153
 10
114.7602647282544
 20
-139.4653889625295
 10
114.6417534435618
 20
-139.3885633332084
 10
114.5191080442869
 20
-139.3885633332084
 10
114.3833712821681
 20
-139.3885633332084
 10
114.2882866467752
 20
-139.4812364017616
 10
114.2882866467752
 20
-139.6555582333153
 97
        0
 97
        0
 92
        1
 93
        1
 72
     4
 94
        3
 73
     0
 74
     1
 95
       17
 96
       13
 40
0.0
 40
0.0
 40
0.0
 40
0.0
 40
1.0
 40
1.0
 40
1.0
 40
2.0
 40
2.0
 40
2.0
 40
3.0
 40
3.0
 40
3.0
 40
4.0
 40
4.0
 40
4.0
 40
4.0
 10
114.948366941749
 20
-139.6555582333153
 10
114.948366941749
 20
-139.8092094919574
 10
115.0351833479773
 20
-139.9718179988612
 10
115.2384439816071
 20
-139.9718179988612
 10
115.4434271629794
 20
-139.9718179988612
 10
115.5450574797943
 20
-139.8364257462909
 10
115.5450574797943
 20
-139.6555582333153
 10
115.5450574797943
 20
-139.4564317142678
 10
115.4224120805194
 20
-139.3389539582208
 10
115.2446451534805
 20
-139.3389539582208
 10
115.0224364946819
 20
-139.3389539582208
 10
114.948366941749
 20
-139.5129312802259
 10
114.948366941749
 20
-139.6555582333153
 97
        0
 97
        0
 75
     2
 76
     1
 98
        0
  0
ENDBLK
  5
8C
330
89
100
AcDbEntity
  8
0
100
AcDbBlockEnd
  0
BLOCK
  5
A6
330
A4
100
AcDbEntity
  8
0
100
AcDbBlockBegin
  2
block 3
 70
     0
 10
0.0
 20
0.0
 30
0.0
  3
block 3
  1

  0
SPLINE
  5
A8
330
A4
100
AcDbEntity
  8
_U+30EC_U+30A4_U+30E4_U+30FC 1
370
     0
100
AcDbSpline
210
0.0
220
0.0
230
1.0
 70
    11
 71
     3
 72
    62
 73
    58
 74
     0
 42
0.0000000001
 43
0.0000000001
 12
1.0
 22
0.0
 32
0.0
 13
1.0
 23
0.0
 33
0.0
 40
0.0
 40
0.0
 40
0.0
 40
0.0
 40
1.0
 40
1.0
 40
1.0
 40
2.0
 40
2.0
 40
2.0
 40
3.0
 40
3.0
 40
3.0
 40
4.0
 40
4.0
 40
4.0
 40
5.0
 40
5.0
 40
5.0
 40
6.0
 40
6.0
 40
6.0
 40
7.0
 40
7.0
 40
7.0
 40
8.0
 40
8.0
 40
8.0
 40
9.0
 40
9.0
 40
9.0
 40
10.0
 40
10.0
 40
10.0
 40
11.0
 40
11.0
 40
11.0
 40
12.0
 40
12.0
 40
12.0
 40
13.0
 40
13.0
 40
13.0
 40
14.0
 40
14.0
 40
14.0
 40
15.0
 40
15.0
 40
15.0
 40
16.0
 40
16.0
 40
16.0
 40
17.0
 40
17.0
 40
17.0
 40
18.0
 40
18.0
 40
18.0
 40
19.0
 40
19.0
 40
19.0
 40
19.0
 10
115.7393608651624
 20
-155.3865532380631
 30
0.0
 10
115.7393608651624
 20
-155.488183554878
 30
0.0
 10
115.7183457827024
 20
-155.7210720096809
 30
0.0
 10
115.5323106264989
 20
-155.85439720496
 30
0.0
 10
115.4200005136797
 20
-155.9336344011208
 30
0.0
 10
115.3207817637045
 20
-155.9381130252516
 30
0.0
 10
115.2360324147674
 20
-155.9425916493824
 30
0.0
 10
115.2360324147674
 20
-155.9425916493824
 30
0.0
 10
115.2360324147674
 20
-155.7076361372884
 30
0.0
 10
115.2360324147674
 20
-155.7076361372884
 30
0.0
 10
115.3101019677003
 20
-155.7052245704487
 30
0.0
 10
115.5447129702458
 20
-155.6938557553474
 30
0.0
 10
115.5447129702458
 20
-155.3910318621939
 30
0.0
 10
115.5447129702458
 20
-155.2439262849738
 30
0.0
 10
115.4751220414437
 20
-155.0813177780699
 30
0.0
 10
115.2467122107717
 20
-155.0813177780699
 30
0.0
 10
115.1302679833702
 20
-155.0813177780699
 30
0.0
 10
115.0816921370282
 20
-155.1219699047959
 30
0.0
 10
115.0499972585639
 20
-155.1560763500999
 30
0.0
 10
114.975927705631
 20
-155.2349690367121
 30
0.0
 10
114.9631808523356
 20
-155.3593369837296
 30
0.0
 10
114.9631808523356
 20
-155.4182481165274
 30
0.0
 10
114.9631808523356
 20
-155.4385741798904
 30
0.0
 10
114.9652479096268
 20
-155.4768147397766
 30
0.0
 10
114.9693820242091
 20
-155.5064425609498
 30
0.0
 10
114.9693820242091
 20
-155.5064425609498
 30
0.0
 10
114.7747341292924
 20
-155.5064425609498
 30
0.0
 10
114.7747341292924
 20
-155.5064425609498
 30
0.0
 10
114.7812798107144
 20
-155.4657904342238
 30
0.0
 10
114.7833468680056
 20
-155.4203151738186
 30
0.0
 10
114.7833468680056
 20
-155.4137694923966
 30
0.0
 10
114.7833468680056
 20
-155.3434895444975
 30
0.0
 10
114.761987275997
 20
-155.1309271530575
 30
0.0
 10
114.5253092161603
 20
-155.1309271530575
 30
0.0
 10
114.3475422891214
 20
-155.1309271530575
 30
0.0
 10
114.2924207613575
 20
-155.2711425393072
 30
0.0
 10
114.2924207613575
 20
-155.3886202953542
 30
0.0
 10
114.2924207613575
 20
-155.6714626346933
 30
0.0
 10
114.5253092161603
 20
-155.6804198829549
 30
0.0
 10
114.5969672022535
 20
-155.6848985070857
 30
0.0
 10
114.5969672022535
 20
-155.6848985070857
 30
0.0
 10
114.5969672022535
 20
-155.9019395226565
 30
0.0
 10
114.5969672022535
 20
-155.9019395226565
 30
0.0
 10
114.4722547456875
 20
-155.8929822743948
 30
0.0
 10
114.0957058091497
 20
-155.8636989627702
 30
0.0
 10
114.0957058091497
 20
-155.3751844229618
 30
0.0
 10
114.0957058091497
 20
-155.1354057771884
 30
0.0
 10
114.2228298325554
 20
-154.8777126348917
 30
0.0
 10
114.5187635347384
 20
-154.8777126348917
 30
0.0
 10
114.7051432004904
 20
-154.8777126348917
 30
0.0
 10
114.7874809825879
 20
-154.9796874612551
 30
0.0
 10
114.8488036822253
 20
-155.0857964022008
 30
0.0
 10
114.8763644461073
 20
-155.020339587981
 30
0.0
 10
114.9566351709136
 20
-154.8256916930644
 30
0.0
 10
115.2339653574762
 20
-154.8256916930644
 30
0.0
 10
115.5722737341278
 20
-154.8256916930644
 30
0.0
 10
115.7393608651624
 20
-155.0902750263316
 30
0.0
 10
115.7393608651624
 20
-155.3865532380631
 30
0.0
  0
HATCH
  5
A9
330
A4
100
AcDbEntity
  8
_U+30EC_U+30A4_U+30E4_U+30FC 1
 62
   179
420
  2234388
100
AcDbHatch
 10
0.0
 20
0.0
 30
0.0
210
0.0
220
0.0
230
1.0
  2
SOLID
 70
     1
 71
     0
 91
        1
 92
        1
 93
        1
 72
     4
 94
        3
 73
     0
 74
     1
 95
       62
 96
       58
 40
0.0
 40
0.0
 40
0.0
 40
0.0
 40
1.0
 40
1.0
 40
1.0
 40
2.0
 40
2.0
 40
2.0
 40
3.0
 40
3.0
 40
3.0
 40
4.0
 40
4.0
 40
4.0
 40
5.0
 40
5.0
 40
5.0
 40
6.0
 40
6.0
 40
6.0
 40
7.0
 40
7.0
 40
7.0
 40
8.0
 40
8.0
 40
8.0
 40
9.0
 40
9.0
 40
9.0
 40
10.0
 40
10.0
 40
10.0
 40
11.0
 40
11.0
 40
11.0
 40
12.0
 40
12.0
 40
12.0
 40
13.0
 40
13.0
 40
13.0
 40
14.0
 40
14.0
 40
14.0
 40
15.0
 40
15.0
 40
15.0
 40
16.0
 40
16.0
 40
16.0
 40
17.0
 40
17.0
 40
17.0
 40
18.0
 40
18.0
 40
18.0
 40
19.0
 40
19.0
 40
19.0
 40
19.0
 10
115.7393608651624
 20
-155.3865532380631
 10
115.7393608651624
 20
-155.488183554878
 10
115.7183457827024
 20
-155.7210720096809
 10
115.5323106264989
 20
-155.85439720496
 10
115.4200005136797
 20
-155.9336344011208
 10
115.3207817637045
 20
-155.9381130252516
 10
115.2360324147674
 20
-155.9425916493824
 10
115.2360324147674
 20
-155.9425916493824
 10
115.2360324147674
 20
-155.7076361372884
 10
115.2360324147674
 20
-155.7076361372884
 10
115.3101019677003
 20
-155.7052245704487
 10
115.5447129702458
 20
-155.6938557553474
 10
115.5447129702458
 20
-155.3910318621939
 10
115.5447129702458
 20
-155.2439262849738
 10
115.4751220414437
 20
-155.0813177780699
 10
115.2467122107717
 20
-155.0813177780699
 10
115.1302679833702
 20
-155.0813177780699
 10
115.0816921370282
 20
-155.1219699047959
 10
115.0499972585639
 20
-155.1560763500999
 10
114.975927705631
 20
-155.2349690367121
 10
114.9631808523356
 20
-155.3593369837296
 10
114.9631808523356
 20
-155.4182481165274
 10
114.9631808523356
 20
-155.4385741798904
 10
114.9652479096268
 20
-155.4768147397766
 10
114.9693820242091
 20
-155.5064425609498
 10
114.9693820242091
 20
-155.5064425609498
 10
114.7747341292924
 20
-155.5064425609498
 10
114.7747341292924
 20
-155.5064425609498
 10
114.7812798107144
 20
-155.4657904342238
 10
114.7833468680056
 20
-155.4203151738186
 10
114.7833468680056
 20
-155.4137694923966
 10
114.7833468680056
 20
-155.3434895444975
 10
114.761987275997
 20
-155.1309271530575
 10
114.5253092161603
 20
-155.1309271530575
 10
114.3475422891214
 20
-155.1309271530575
 10
114.2924207613575
 20
-155.2711425393072
 10
114.2924207613575
 20
-155.3886202953542
 10
114.2924207613575
 20
-155.6714626346933
 10
114.5253092161603
 20
-155.6804198829549
 10
114.5969672022535
 20
-155.6848985070857
 10
114.5969672022535
 20
-155.6848985070857
 10
114.5969672022535
 20
-155.9019395226565
 10
114.5969672022535
 20
-155.9019395226565
 10
114.4722547456875
 20
-155.8929822743948
 10
114.0957058091497
 20
-155.8636989627702
 10
114.0957058091497
 20
-155.3751844229618
 10
114.0957058091497
 20
-155.1354057771884
 10
114.2228298325554
 20
-154.8777126348917
 10
114.5187635347384
 20
-154.8777126348917
 10
114.7051432004904
 20
-154.8777126348917
 10
114.7874809825879
 20
-154.9796874612551
 10
114.8488036822253
 20
-155.0857964022008
 10
114.8763644461073
 20
-155.020339587981
 10
114.9566351709136
 20
-154.8256916930644
 10
115.2339653574762
 20
-154.8256916930644
 10
115.5722737341278
 20
-154.8256916930644
 10
115.7393608651624
 20
-155.0902750263316
 10
115.7393608651624
 20
-155.3865532380631
 97
        0
 97
        0
 75
     2
 76
     1
 98
        0
  0
ENDBLK
  5
A7
330
A4
100
AcDbEntity
  8
0
100
AcDbBlockEnd
  0
BLOCK
  5
B8
330
B6
100
AcDbEntity
  8
0
100
AcDbBlockBegin
  2
block 4
 70
     0
 10
0.0
 20
0.0
 30
0.0
  3
block 4
  1

  0
SPLINE
  5
BA
330
B6
100
AcDbEntity
  8
_U+30EC_U+30A4_U+30E4_U+30FC 1
370
     0
100
AcDbSpline
210
0.0
220
0.0
230
1.0
 70
    11
 71
     3
 72
    44
 73
    40
 74
     0
 42
0.0000000001
 43
0.0000000001
 12
1.0
 22
0.0
 32
0.0
 13
1.0
 23
0.0
 33
0.0
 40
0.0
 40
0.0
 40
0.0
 40
0.0
 40
1.0
 40
1.0
 40
1.0
 40
2.0
 40
2.0
 40
2.0
 40
3.0
 40
3.0
 40
3.0
 40
4.0
 40
4.0
 40
4.0
 40
5.0
 40
5.0
 40
5.0
 40
6.0
 40
6.0
 40
6.0
 40
7.0
 40
7.0
 40
7.0
 40
8.0
 40
8.0
 40
8.0
 40
9.0
 40
9.0
 40
9.0
 40
10.0
 40
10.0
 40
10.0
 40
11.0
 40
11.0
 40
11.0
 40
12.0
 40
12.0
 40
12.0
 40
13.0
 40
13.0
 40
13.0
 40
13.0
 10
102.0106553564418
 20
-137.6439669794779
 30
0.0
 10
101.7777669016389
 20
-137.8026136265736
 30
0.0
 10
101.6782036421152
 20
-137.8766831795065
 30
0.0
 10
101.6261827002879
 20
-138.0205159160157
 30
0.0
 10
101.6261827002879
 20
-138.0205159160157
 30
0.0
 10
102.4585177695243
 20
-138.0205159160157
 30
0.0
 10
102.4585177695243
 20
-138.0205159160157
 30
0.0
 10
102.4585177695243
 20
-138.0205159160157
 30
0.0
 10
102.4585177695243
 20
-138.2256713521624
 30
0.0
 10
102.4585177695243
 20
-138.2256713521624
 30
0.0
 10
102.4585177695243
 20
-138.2256713521624
 30
0.0
 10
101.3595323097296
 20
-138.2256713521624
 30
0.0
 10
101.3595323097296
 20
-138.2256713521624
 30
0.0
 10
101.3936387550335
 20
-137.8680704407934
 30
0.0
 10
101.4635741933841
 20
-137.7898667732782
 30
0.0
 10
101.8749185943229
 20
-137.4915215042556
 30
0.0
 10
102.1484591758518
 20
-137.2927394947567
 30
0.0
 10
102.2187391237509
 20
-137.2250433684715
 30
0.0
 10
102.2187391237509
 20
-137.08758405861
 30
0.0
 10
102.2187391237509
 20
-136.9690727739174
 30
0.0
 10
102.1419134944298
 20
-136.8379868907037
 30
0.0
 10
101.931418160281
 20
-136.8379868907037
 30
0.0
 10
101.6533989546214
 20
-136.8379868907037
 30
0.0
 10
101.6444417063597
 20
-137.0684637786669
 30
0.0
 10
101.6399630822289
 20
-137.1849080060684
 30
0.0
 10
101.6399630822289
 20
-137.1849080060684
 30
0.0
 10
101.4001844364555
 20
-137.1849080060684
 30
0.0
 10
101.4001844364555
 20
-137.1849080060684
 30
0.0
 10
101.4091416847172
 20
-137.0579562374369
 30
0.0
 10
101.4205104998185
 20
-136.945818379392
 30
0.0
 10
101.5066378869497
 20
-136.8273070946994
 30
0.0
 10
101.6241156429968
 20
-136.6665933903125
 30
0.0
 10
101.8228976524957
 20
-136.6326591997828
 30
0.0
 10
101.9472655995132
 20
-136.6326591997828
 30
0.0
 10
102.2435438112447
 20
-136.6326591997828
 30
0.0
 10
102.4650634509462
 20
-136.8167995534694
 30
0.0
 10
102.4650634509462
 20
-137.0896511159012
 30
0.0
 10
102.4650634509462
 20
-137.3180609465733
 30
0.0
 10
102.3406955039287
 20
-137.417624206097
 30
0.0
 10
102.0106553564418
 20
-137.6439669794779
 30
0.0
  0
HATCH
  5
BB
330
B6
100
AcDbEntity
  8
_U+30EC_U+30A4_U+30E4_U+30FC 1
 62
   179
420
  2234388
100
AcDbHatch
 10
0.0
 20
0.0
 30
0.0
210
0.0
220
0.0
230
1.0
  2
SOLID
 70
     1
 71
     0
 91
        1
 92
        1
 93
        1
 72
     4
 94
        3
 73
     0
 74
     1
 95
       44
 96
       40
 40
0.0
 40
0.0
 40
0.0
 40
0.0
 40
1.0
 40
1.0
 40
1.0
 40
2.0
 40
2.0
 40
2.0
 40
3.0
 40
3.0
 40
3.0
 40
4.0
 40
4.0
 40
4.0
 40
5.0
 40
5.0
 40
5.0
 40
6.0
 40
6.0
 40
6.0
 40
7.0
 40
7.0
 40
7.0
 40
8.0
 40
8.0
 40
8.0
 40
9.0
 40
9.0
 40
9.0
 40
10.0
 40
10.0
 40
10.0
 40
11.0
 40
11.0
 40
11.0
 40
12.0
 40
12.0
 40
12.0
 40
13.0
 40
13.0
 40
13.0
 40
13.0
 10
102.0106553564418
 20
-137.6439669794779
 10
101.7777669016389
 20
-137.8026136265736
 10
101.6782036421152
 20
-137.8766831795065
 10
101.6261827002879
 20
-138.0205159160157
 10
101.6261827002879
 20
-138.0205159160157
 10
102.4585177695243
 20
-138.0205159160157
 10
102.4585177695243
 20
-138.0205159160157
 10
102.4585177695243
 20
-138.0205159160157
 10
102.4585177695243
 20
-138.2256713521624
 10
102.4585177695243
 20
-138.2256713521624
 10
102.4585177695243
 20
-138.2256713521624
 10
101.3595323097296
 20
-138.2256713521624
 10
101.3595323097296
 20
-138.2256713521624
 10
101.3936387550335
 20
-137.8680704407934
 10
101.4635741933841
 20
-137.7898667732782
 10
101.8749185943229
 20
-137.4915215042556
 10
102.1484591758518
 20
-137.2927394947567
 10
102.2187391237509
 20
-137.2250433684715
 10
102.2187391237509
 20
-137.08758405861
 10
102.2187391237509
 20
-136.9690727739174
 10
102.1419134944298
 20
-136.8379868907037
 10
101.931418160281
 20
-136.8379868907037
 10
101.6533989546214
 20
-136.8379868907037
 10
101.6444417063597
 20
-137.0684637786669
 10
101.6399630822289
 20
-137.1849080060684
 10
101.6399630822289
 20
-137.1849080060684
 10
101.4001844364555
 20
-137.1849080060684
 10
101.4001844364555
 20
-137.1849080060684
 10
101.4091416847172
 20
-137.0579562374369
 10
101.4205104998185
 20
-136.945818379392
 10
101.5066378869497
 20
-136.8273070946994
 10
101.6241156429968
 20
-136.6665933903125
 10
101.8228976524957
 20
-136.6326591997828
 10
101.9472655995132
 20
-136.6326591997828
 10
102.2435438112447
 20
-136.6326591997828
 10
102.4650634509462
 20
-136.8167995534694
 10
102.4650634509462
 20
-137.0896511159012
 10
102.4650634509462
 20
-137.3180609465733
 10
102.3406955039287
 20
-137.417624206097
 10
102.0106553564418
 20
-137.6439669794779
 97
        0
 97
        0
 75
     2
 76
     1
 98
        0
  0
SPLINE
  5
BC
330
B6
100
AcDbEntity
  8
_U+30EC_U+30A4_U+30E4_U+30FC 1
370
     0
100
AcDbSpline
210
0.0
220
0.0
230
1.0
 70
    11
 71
     3
 72
    26
 73
    22
 74
     0
 42
0.0000000001
 43
0.0000000001
 12
1.0
 22
0.0
 32
0.0
 13
1.0
 23
0.0
 33
0.0
 40
0.0
 40
0.0
 40
0.0
 40
0.0
 40
1.0
 40
1.0
 40
1.0
 40
2.0
 40
2.0
 40
2.0
 40
3.0
 40
3.0
 40
3.0
 40
4.0
 40
4.0
 40
4.0
 40
5.0
 40
5.0
 40
5.0
 40
6.0
 40
6.0
 40
6.0
 40
7.0
 40
7.0
 40
7.0
 40
7.0
 10
103.1168755167555
 20
-138.2256713521624
 30
0.0
 10
103.1168755167555
 20
-138.2256713521624
 30
0.0
 10
103.1168755167555
 20
-137.1213459943655
 30
0.0
 10
103.1168755167555
 20
-137.1213459943655
 30
0.0
 10
103.1168755167555
 20
-137.1213459943655
 30
0.0
 10
102.7644422486144
 20
-137.1213459943655
 30
0.0
 10
102.7644422486144
 20
-137.1213459943655
 30
0.0
 10
102.7644422486144
 20
-137.1213459943655
 30
0.0
 10
102.7644422486144
 20
-136.973379143274
 30
0.0
 10
102.7644422486144
 20
-136.973379143274
 30
0.0
 10
103.1192870835952
 20
-136.9585652326874
 30
0.0
 10
103.1688964585828
 20
-136.7956122162351
 30
0.0
 10
103.2005913370471
 20
-136.6814073008991
 30
0.0
 10
103.2005913370471
 20
-136.6814073008991
 30
0.0
 10
103.3566541625289
 20
-136.6814073008991
 30
0.0
 10
103.3566541625289
 20
-136.6814073008991
 30
0.0
 10
103.3566541625289
 20
-136.6814073008991
 30
0.0
 10
103.3566541625289
 20
-138.2256713521624
 30
0.0
 10
103.3566541625289
 20
-138.2256713521624
 30
0.0
 10
103.3566541625289
 20
-138.2256713521624
 30
0.0
 10
103.1168755167555
 20
-138.2256713521624
 30
0.0
 10
103.1168755167555
 20
-138.2256713521624
 30
0.0
  0
HATCH
  5
BD
330
B6
100
AcDbEntity
  8
_U+30EC_U+30A4_U+30E4_U+30FC 1
 62
   179
420
  2234388
100
AcDbHatch
 10
0.0
 20
0.0
 30
0.0
210
0.0
220
0.0
230
1.0
  2
SOLID
 70
     1
 71
     0
 91
        1
 92
        1
 93
        1
 72
     4
 94
        3
 73
     0
 74
     1
 95
       26
 96
       22
 40
0.0
 40
0.0
 40
0.0
 40
0.0
 40
1.0
 40
1.0
 40
1.0
 40
2.0
 40
2.0
 40
2.0
 40
3.0
 40
3.0
 40
3.0
 40
4.0
 40
4.0
 40
4.0
 40
5.0
 40
5.0
 40
5.0
 40
6.0
 40
6.0
 40
6.0
 40
7.0
 40
7.0
 40
7.0
 40
7.0
 10
103.1168755167555
 20
-138.2256713521624
 10
103.1168755167555
 20
-138.2256713521624
 10
103.1168755167555
 20
-137.1213459943655
 10
103.1168755167555
 20
-137.1213459943655
 10
103.1168755167555
 20
-137.1213459943655
 10
102.7644422486144
 20
-137.1213459943655
 10
102.7644422486144
 20
-137.1213459943655
 10
102.7644422486144
 20
-137.1213459943655
 10
102.7644422486144
 20
-136.973379143274
 10
102.7644422486144
 20
-136.973379143274
 10
103.1192870835952
 20
-136.9585652326874
 10
103.1688964585828
 20
-136.7956122162351
 10
103.2005913370471
 20
-136.6814073008991
 10
103.2005913370471
 20
-136.6814073008991
 10
103.3566541625289
 20
-136.6814073008991
 10
103.3566541625289
 20
-136.6814073008991
 10
103.3566541625289
 20
-136.6814073008991
 10
103.3566541625289
 20
-138.2256713521624
 10
103.3566541625289
 20
-138.2256713521624
 10
103.3566541625289
 20
-138.2256713521624
 10
103.1168755167555
 20
-138.2256713521624
 10
103.1168755167555
 20
-138.2256713521624
 97
        0
 97
        0
 75
     2
 76
     1
 98
        0
  0
ENDBLK
  5
B9
330
B6
100
AcDbEntity
  8
0
100
AcDbBlockEnd
  0
BLOCK
  5
CC
330
CA
100
AcDbEntity
  8
0
100
AcDbBlockBegin
  2
block 5
 70
     0
 10
0.0
 20
0.0
 30
0.0
  3
block 5
  1

  0
SPLINE
  5
CE
330
CA
100
AcDbEntity
  8
_U+30EC_U+30A4_U+30E4_U+30FC 1
370
     0
100
AcDbSpline
210
0.0
220
0.0
230
1.0
 70
    11
 71
     3
 72
    32
 73
    28
 74
     0
 42
0.0000000001
 43
0.0000000001
 12
1.0
 22
0.0
 32
0.0
 13
1.0
 23
0.0
 33
0.0
 40
0.0
 40
0.0
 40
0.0
 40
0.0
 40
1.0
 40
1.0
 40
1.0
 40
2.0
 40
2.0
 40
2.0
 40
3.0
 40
3.0
 40
3.0
 40
4.0
 40
4.0
 40
4.0
 40
5.0
 40
5.0
 40
5.0
 40
6.0
 40
6.0
 40
6.0
 40
7.0
 40
7.0
 40
7.0
 40
8.0
 40
8.0
 40
8.0
 40
9.0
 40
9.0
 40
9.0
 40
9.0
 10
95.04467228526661
 20
-159.5761338576754
 30
0.0
 10
94.49311249807812
 20
-159.5761338576754
 30
0.0
 10
94.48415524981647
 20
-159.0221625036473
 30
0.0
 10
94.48415524981647
 20
-158.8082220740132
 30
0.0
 10
94.48415524981647
 20
-158.57774518605
 30
0.0
 10
94.50448131317944
 20
-157.9304117443716
 30
0.0
 10
95.08566892154109
 20
-157.9304117443716
 30
0.0
 10
95.27101505864754
 20
-157.9304117443716
 30
0.0
 10
95.53318682507503
 20
-158.0003471827222
 30
0.0
 10
95.573838951801
 20
-158.3324543875002
 30
0.0
 10
95.573838951801
 20
-158.3324543875002
 30
0.0
 10
95.34542912112893
 20
-158.3324543875002
 30
0.0
 10
95.34542912112893
 20
-158.3324543875002
 30
0.0
 10
95.3340603060276
 20
-158.2752658024451
 30
0.0
 10
95.30029837027215
 20
-158.1271266965793
 30
0.0
 10
95.08325735470142
 20
-158.1271266965793
 30
0.0
 10
94.77113170373778
 20
-158.1271266965793
 30
0.0
 10
94.72841251972068
 20
-158.4550997867751
 30
0.0
 10
94.71463213777967
 20
-158.6600829681475
 30
0.0
 10
94.8141953973034
 20
-158.5818793006323
 30
0.0
 10
94.88654240249365
 20
-158.522623658286
 30
0.0
 10
95.08119029741026
 20
-158.522623658286
 30
0.0
 10
95.27308211593868
 20
-158.522623658286
 30
0.0
 10
95.59657658200364
 20
-158.6307996565229
 30
0.0
 10
95.59657658200364
 20
-159.0369764142338
 30
0.0
 10
95.59657658200364
 20
-159.3563367657165
 30
0.0
 10
95.38401419056372
 20
-159.5761338576754
 30
0.0
 10
95.04467228526661
 20
-159.5761338576754
 30
0.0
  0
SPLINE
  5
CF
330
CA
100
AcDbEntity
  8
_U+30EC_U+30A4_U+30E4_U+30FC 1
370
     0
100
AcDbSpline
210
0.0
220
0.0
230
1.0
 70
    11
 71
     3
 72
    17
 73
    13
 74
     0
 42
0.0000000001
 43
0.0000000001
 12
1.0
 22
0.0
 32
0.0
 13
1.0
 23
0.0
 33
0.0
 40
0.0
 40
0.0
 40
0.0
 40
0.0
 40
1.0
 40
1.0
 40
1.0
 40
2.0
 40
2.0
 40
2.0
 40
3.0
 40
3.0
 40
3.0
 40
4.0
 40
4.0
 40
4.0
 40
4.0
 10
95.06293129133844
 20
-158.7172715532026
 30
0.0
 10
94.7825005188391
 20
-158.7172715532026
 30
0.0
 10
94.74184839211316
 20
-158.928800415997
 30
0.0
 10
94.74184839211316
 20
-159.0452446433984
 30
0.0
 10
94.74184839211316
 20
-159.2209445131462
 30
0.0
 10
94.84347870892802
 20
-159.3838975295985
 30
0.0
 10
95.04019366113579
 20
-159.3838975295985
 30
0.0
 10
95.16904023228413
 20
-159.3838975295985
 30
0.0
 10
95.35679793623025
 20
-159.3246418872522
 30
0.0
 10
95.35679793623025
 20
-159.039043471525
 30
0.0
 10
95.35679793623025
 20
-158.8147677554352
 30
0.0
 10
95.20762530171893
 20
-158.7172715532026
 30
0.0
 10
95.06293129133844
 20
-158.7172715532026
 30
0.0
  0
HATCH
  5
D0
330
CA
100
AcDbEntity
  8
_U+30EC_U+30A4_U+30E4_U+30FC 1
 62
   179
420
  2234388
100
AcDbHatch
 10
0.0
 20
0.0
 30
0.0
210
0.0
220
0.0
230
1.0
  2
SOLID
 70
     1
 71
     0
 91
        2
 92
        1
 93
        1
 72
     4
 94
        3
 73
     0
 74
     1
 95
       32
 96
       28
 40
0.0
 40
0.0
 40
0.0
 40
0.0
 40
1.0
 40
1.0
 40
1.0
 40
2.0
 40
2.0
 40
2.0
 40
3.0
 40
3.0
 40
3.0
 40
4.0
 40
4.0
 40
4.0
 40
5.0
 40
5.0
 40
5.0
 40
6.0
 40
6.0
 40
6.0
 40
7.0
 40
7.0
 40
7.0
 40
8.0
 40
8.0
 40
8.0
 40
9.0
 40
9.0
 40
9.0
 40
9.0
 10
95.04467228526661
 20
-159.5761338576754
 10
94.49311249807812
 20
-159.5761338576754
 10
94.48415524981647
 20
-159.0221625036473
 10
94.48415524981647
 20
-158.8082220740132
 10
94.48415524981647
 20
-158.57774518605
 10
94.50448131317944
 20
-157.9304117443716
 10
95.08566892154109
 20
-157.9304117443716
 10
95.27101505864754
 20
-157.9304117443716
 10
95.53318682507503
 20
-158.0003471827222
 10
95.573838951801
 20
-158.3324543875002
 10
95.573838951801
 20
-158.3324543875002
 10
95.34542912112893
 20
-158.3324543875002
 10
95.34542912112893
 20
-158.3324543875002
 10
95.3340603060276
 20
-158.2752658024451
 10
95.30029837027215
 20
-158.1271266965793
 10
95.08325735470142
 20
-158.1271266965793
 10
94.77113170373778
 20
-158.1271266965793
 10
94.72841251972068
 20
-158.4550997867751
 10
94.71463213777967
 20
-158.6600829681475
 10
94.8141953973034
 20
-158.5818793006323
 10
94.88654240249365
 20
-158.522623658286
 10
95.08119029741026
 20
-158.522623658286
 10
95.27308211593868
 20
-158.522623658286
 10
95.59657658200364
 20
-158.6307996565229
 10
95.59657658200364
 20
-159.0369764142338
 10
95.59657658200364
 20
-159.3563367657165
 10
95.38401419056372
 20
-159.5761338576754
 10
95.04467228526661
 20
-159.5761338576754
 97
        0
 97
        0
 92
        1
 93
        1
 72
     4
 94
        3
 73
     0
 74
     1
 95
       17
 96
       13
 40
0.0
 40
0.0
 40
0.0
 40
0.0
 40
1.0
 40
1.0
 40
1.0
 40
2.0
 40
2.0
 40
2.0
 40
3.0
 40
3.0
 40
3.0
 40
4.0
 40
4.0
 40
4.0
 40
4.0
 10
95.06293129133844
 20
-158.7172715532026
 10
94.7825005188391
 20
-158.7172715532026
 10
94.74184839211316
 20
-158.928800415997
 10
94.74184839211316
 20
-159.0452446433984
 10
94.74184839211316
 20
-159.2209445131462
 10
94.84347870892802
 20
-159.3838975295985
 10
95.04019366113579
 20
-159.3838975295985
 10
95.16904023228413
 20
-159.3838975295985
 10
95.35679793623025
 20
-159.3246418872522
 10
95.35679793623025
 20
-159.039043471525
 10
95.35679793623025
 20
-158.8147677554352
 10
95.20762530171893
 20
-158.7172715532026
 10
95.06293129133844
 20
-158.7172715532026
 97
        0
 97
        0
 75
     2
 76
     1
 98
        0
  0
ENDBLK
  5
CD
330
CA
100
AcDbEntity
  8
0
100
AcDbBlockEnd
  0
BLOCK
  5
DF
330
DD
100
AcDbEntity
  8
0
100
AcDbBlockBegin
  2
block 6
 70
     0
 10
0.0
 20
0.0
 30
0.0
  3
block 6
  1

  0
SPLINE
  5
E1
330
DD
100
AcDbEntity
  8
_U+30EC_U+30A4_U+30E4_U+30FC 1
370
     0
100
AcDbSpline
210
0.0
220
0.0
230
1.0
 70
    11
 71
     3
 72
    32
 73
    28
 74
     0
 42
0.0000000001
 43
0.0000000001
 12
1.0
 22
0.0
 32
0.0
 13
1.0
 23
0.0
 33
0.0
 40
0.0
 40
0.0
 40
0.0
 40
0.0
 40
1.0
 40
1.0
 40
1.0
 40
2.0
 40
2.0
 40
2.0
 40
3.0
 40
3.0
 40
3.0
 40
4.0
 40
4.0
 40
4.0
 40
5.0
 40
5.0
 40
5.0
 40
6.0
 40
6.0
 40
6.0
 40
7.0
 40
7.0
 40
7.0
 40
8.0
 40
8.0
 40
8.0
 40
9.0
 40
9.0
 40
9.0
 40
9.0
 10
115.7393608651624
 20
-150.0442436690862
 30
0.0
 10
115.7393608651624
 20
-150.2295898061926
 30
0.0
 10
115.6697699363603
 20
-150.4917615726201
 30
0.0
 10
115.3376627315823
 20
-150.5324136993461
 30
0.0
 10
115.3376627315823
 20
-150.5324136993461
 30
0.0
 10
115.3376627315823
 20
-150.3043483782225
 30
0.0
 10
115.3376627315823
 20
-150.3043483782225
 30
0.0
 10
115.3969183739286
 20
-150.2929795631212
 30
0.0
 10
115.5447129702458
 20
-150.2588731178172
 30
0.0
 10
115.5447129702458
 20
-150.0418321022465
 30
0.0
 10
115.5447129702458
 20
-149.7300509608314
 30
0.0
 10
115.2146728227588
 20
-149.6893988341054
 30
0.0
 10
115.0096896413865
 20
-149.6756184521644
 30
0.0
 10
115.0899603661928
 20
-149.7727701448485
 30
0.0
 10
115.1471489512479
 20
-149.8451171500387
 30
0.0
 10
115.1471489512479
 20
-150.0397650449553
 30
0.0
 10
115.1471489512479
 20
-150.2320013730323
 30
0.0
 10
115.0413845198508
 20
-150.5551513295487
 30
0.0
 10
114.6352077621398
 20
-150.5551513295487
 30
0.0
 10
114.3158474106572
 20
-150.5551513295487
 30
0.0
 10
114.0957058091497
 20
-150.3425889381088
 30
0.0
 10
114.0957058091497
 20
-150.0035915423602
 30
0.0
 10
114.0957058091497
 20
-149.4540988124629
 30
0.0
 10
114.6500216727264
 20
-149.4427299973615
 30
0.0
 10
114.8636175928119
 20
-149.4427299973615
 30
0.0
 10
115.0940944807751
 20
-149.4427299973615
 30
0.0
 10
115.7393608651624
 20
-149.4630560607245
 30
0.0
 10
115.7393608651624
 20
-150.0442436690862
 30
0.0
  0
SPLINE
  5
E2
330
DD
100
AcDbEntity
  8
_U+30EC_U+30A4_U+30E4_U+30FC 1
370
     0
100
AcDbSpline
210
0.0
220
0.0
230
1.0
 70
    11
 71
     3
 72
    17
 73
    13
 74
     0
 42
0.0000000001
 43
0.0000000001
 12
1.0
 22
0.0
 32
0.0
 13
1.0
 23
0.0
 33
0.0
 40
0.0
 40
0.0
 40
0.0
 40
0.0
 40
1.0
 40
1.0
 40
1.0
 40
2.0
 40
2.0
 40
2.0
 40
3.0
 40
3.0
 40
3.0
 40
4.0
 40
4.0
 40
4.0
 40
4.0
 10
114.2882866467752
 20
-150.0011799755206
 30
0.0
 10
114.2882866467752
 20
-150.1279594893777
 30
0.0
 10
114.3454752318303
 20
-150.3153726837753
 30
0.0
 10
114.6310736475575
 20
-150.3153726837753
 30
0.0
 10
114.8574164209384
 20
-150.3153726837753
 30
0.0
 10
114.9525010563313
 20
-150.166200049264
 30
0.0
 10
114.9525010563313
 20
-150.0215060388835
 30
0.0
 10
114.9525010563313
 20
-149.7410752663842
 30
0.0
 10
114.7430392508281
 20
-149.7004231396582
 30
0.0
 10
114.6265950234267
 20
-149.7004231396582
 30
0.0
 10
114.4512396632275
 20
-149.7004231396582
 30
0.0
 10
114.2882866467752
 20
-149.8023979660216
 30
0.0
 10
114.2882866467752
 20
-150.0011799755206
 30
0.0
  0
HATCH
  5
E3
330
DD
100
AcDbEntity
  8
_U+30EC_U+30A4_U+30E4_U+30FC 1
 62
   179
420
  2234388
100
AcDbHatch
 10
0.0
 20
0.0
 30
0.0
210
0.0
220
0.0
230
1.0
  2
SOLID
 70
     1
 71
     0
 91
        2
 92
        1
 93
        1
 72
     4
 94
        3
 73
     0
 74
     1
 95
       32
 96
       28
 40
0.0
 40
0.0
 40
0.0
 40
0.0
 40
1.0
 40
1.0
 40
1.0
 40
2.0
 40
2.0
 40
2.0
 40
3.0
 40
3.0
 40
3.0
 40
4.0
 40
4.0
 40
4.0
 40
5.0
 40
5.0
 40
5.0
 40
6.0
 40
6.0
 40
6.0
 40
7.0
 40
7.0
 40
7.0
 40
8.0
 40
8.0
 40
8.0
 40
9.0
 40
9.0
 40
9.0
 40
9.0
 10
115.7393608651624
 20
-150.0442436690862
 10
115.7393608651624
 20
-150.2295898061926
 10
115.6697699363603
 20
-150.4917615726201
 10
115.3376627315823
 20
-150.5324136993461
 10
115.3376627315823
 20
-150.5324136993461
 10
115.3376627315823
 20
-150.3043483782225
 10
115.3376627315823
 20
-150.3043483782225
 10
115.3969183739286
 20
-150.2929795631212
 10
115.5447129702458
 20
-150.2588731178172
 10
115.5447129702458
 20
-150.0418321022465
 10
115.5447129702458
 20
-149.7300509608314
 10
115.2146728227588
 20
-149.6893988341054
 10
115.0096896413865
 20
-149.6756184521644
 10
115.0899603661928
 20
-149.7727701448485
 10
115.1471489512479
 20
-149.8451171500387
 10
115.1471489512479
 20
-150.0397650449553
 10
115.1471489512479
 20
-150.2320013730323
 10
115.0413845198508
 20
-150.5551513295487
 10
114.6352077621398
 20
-150.5551513295487
 10
114.3158474106572
 20
-150.5551513295487
 10
114.0957058091497
 20
-150.3425889381088
 10
114.0957058091497
 20
-150.0035915423602
 10
114.0957058091497
 20
-149.4540988124629
 10
114.6500216727264
 20
-149.4427299973615
 10
114.8636175928119
 20
-149.4427299973615
 10
115.0940944807751
 20
-149.4427299973615
 10
115.7393608651624
 20
-149.4630560607245
 10
115.7393608651624
 20
-150.0442436690862
 97
        0
 97
        0
 92
        1
 93
        1
 72
     4
 94
        3
 73
     0
 74
     1
 95
       17
 96
       13
 40
0.0
 40
0.0
 40
0.0
 40
0.0
 40
1.0
 40
1.0
 40
1.0
 40
2.0
 40
2.0
 40
2.0
 40
3.0
 40
3.0
 40
3.0
 40
4.0
 40
4.0
 40
4.0
 40
4.0
 10
114.2882866467752
 20
-150.0011799755206
 10
114.2882866467752
 20
-150.1279594893777
 10
114.3454752318303
 20
-150.3153726837753
 10
114.6310736475575
 20
-150.3153726837753
 10
114.8574164209384
 20
-150.3153726837753
 10
114.9525010563313
 20
-150.166200049264
 10
114.9525010563313
 20
-150.0215060388835
 10
114.9525010563313
 20
-149.7410752663842
 10
114.7430392508281
 20
-149.7004231396582
 10
114.6265950234267
 20
-149.7004231396582
 10
114.4512396632275
 20
-149.7004231396582
 10
114.2882866467752
 20
-149.8023979660216
 10
114.2882866467752
 20
-150.0011799755206
 97
        0
 97
        0
 75
     2
 76
     1
 98
        0
  0
POLYLINE
  5
E4
330
DD
100
AcDbEntity
  8
_U+30EC_U+30A4_U+30E4_U+30FC 1
370
     0
100
AcDb2dPolyline
 66
     1
 10
0.0
 20
0.0
 30
0.0
  0
VERTEX
  5
E5
330
E4
100
AcDbEntity
  8
_U+30EC_U+30A4_U+30E4_U+30FC 1
370
     0
100
AcDbVertex
100
AcDb2dVertex
 10
115.6887179615292
 20
-149.2115640903013
 30
0.0
  0
VERTEX
  5
E6
330
E4
100
AcDbEntity
  8
_U+30EC_U+30A4_U+30E4_U+30FC 1
370
     0
100
AcDbVertex
100
AcDb2dVertex
 10
115.4368814815574
 20
-149.2115640903013
 30
0.0
  0
VERTEX
  5
E7
330
E4
100
AcDbEntity
  8
_U+30EC_U+30A4_U+30E4_U+30FC 1
370
     0
100
AcDbVertex
100
AcDb2dVertex
 10
115.4368814815574
 20
-148.9425021329033
 30
0.0
  0
VERTEX
  5
E8
330
E4
100
AcDbEntity
  8
_U+30EC_U+30A4_U+30E4_U+30FC 1
370
     0
100
AcDbVertex
100
AcDb2dVertex
 10
115.6887179615292
 20
-148.9425021329033
 30
0.0
  0
VERTEX
  5
E9
330
E4
100
AcDbEntity
  8
_U+30EC_U+30A4_U+30E4_U+30FC 1
370
     0
100
AcDbVertex
100
AcDb2dVertex
 10
115.6887179615292
 20
-149.2115640903013
 30
0.0
  0
SEQEND
  5
EA
330
E4
100
AcDbEntity
  8
_U+30EC_U+30A4_U+30E4_U+30FC 1
370
     0
  0
HATCH
  5
EB
330
DD
100
AcDbEntity
  8
_U+30EC_U+30A4_U+30E4_U+30FC 1
 62
   179
420
  2234388
100
AcDbHatch
 10
0.0
 20
0.0
 30
0.0
210
0.0
220
0.0
230
1.0
  2
SOLID
 70
     1
 71
     0
 91
        1
 92
        1
 93
        4
 72
     1
 10
115.6887179615292
 20
-149.2115640903013
 11
115.4368814815574
 21
-149.2115640903013
 72
     1
 10
115.4368814815574
 20
-149.2115640903013
 11
115.4368814815574
 21
-148.9425021329033
 72
     1
 10
115.4368814815574
 20
-148.9425021329033
 11
115.6887179615292
 21
-148.9425021329033
 72
     1
 10
115.6887179615292
 20
-148.9425021329033
 11
115.6887179615292
 21
-149.2115640903013
 97
        0
 75
     2
 76
     1
 98
        0
  0
SPLINE
  5
EC
330
DD
100
AcDbEntity
  8
_U+30EC_U+30A4_U+30E4_U+30FC 1
370
     0
100
AcDbSpline
210
0.0
220
0.0
230
1.0
 70
    11
 71
     3
 72
    53
 73
    49
 74
     0
 42
0.0000000001
 43
0.0000000001
 12
1.0
 22
0.0
 32
0.0
 13
1.0
 23
0.0
 33
0.0
 40
0.0
 40
0.0
 40
0.0
 40
0.0
 40
1.0
 40
1.0
 40
1.0
 40
2.0
 40
2.0
 40
2.0
 40
3.0
 40
3.0
 40
3.0
 40
4.0
 40
4.0
 40
4.0
 40
5.0
 40
5.0
 40
5.0
 40
6.0
 40
6.0
 40
6.0
 40
7.0
 40
7.0
 40
7.0
 40
8.0
 40
8.0
 40
8.0
 40
9.0
 40
9.0
 40
9.0
 40
10.0
 40
10.0
 40
10.0
 40
11.0
 40
11.0
 40
11.0
 40
12.0
 40
12.0
 40
12.0
 40
13.0
 40
13.0
 40
13.0
 40
14.0
 40
14.0
 40
14.0
 40
15.0
 40
15.0
 40
15.0
 40
16.0
 40
16.0
 40
16.0
 40
16.0
 10
115.7393608651624
 20
-148.1756238778867
 30
0.0
 10
115.7393608651624
 20
-148.2589951886297
 30
0.0
 10
115.7224798972847
 20
-148.3678602059636
 30
0.0
 10
115.6590901403561
 20
-148.4760362042005
 30
0.0
 10
115.5491915943766
 20
-148.6617268508554
 30
0.0
 10
115.4179334563886
 20
-148.6841199715095
 30
0.0
 10
115.3101019677003
 20
-148.7044460348725
 30
0.0
 10
115.3101019677003
 20
-148.7044460348725
 30
0.0
 10
115.3101019677003
 20
-148.4670789559388
 30
0.0
 10
115.3101019677003
 20
-148.4670789559388
 30
0.0
 10
115.5088839771992
 20
-148.4085123326896
 30
0.0
 10
115.5385117983723
 20
-148.2727755705707
 30
0.0
 10
115.5385117983723
 20
-148.173212311047
 30
0.0
 10
115.5385117983723
 20
-148.0240396765357
 30
0.0
 10
115.4389485388486
 20
-147.8614311696319
 30
0.0
 10
115.2064045935942
 20
-147.8614311696319
 30
0.0
 10
114.9504339990402
 20
-147.8614311696319
 30
0.0
 10
114.8804985606896
 20
-148.0533229881603
 30
0.0
 10
114.8804985606896
 20
-148.1821695593086
 30
0.0
 10
114.8804985606896
 20
-148.2162760046126
 30
0.0
 10
114.8804985606896
 20
-148.3678602059636
 30
0.0
 10
115.0096896413865
 20
-148.462600331808
 30
0.0
 10
115.0096896413865
 20
-148.462600331808
 30
0.0
 10
114.9907416162176
 20
-148.6503580357541
 30
0.0
 10
114.9907416162176
 20
-148.6503580357541
 30
0.0
 10
114.9907416162176
 20
-148.6503580357541
 30
0.0
 10
114.1442816554917
 20
-148.5215114646057
 30
0.0
 10
114.1442816554917
 20
-148.5215114646057
 30
0.0
 10
114.1442816554917
 20
-148.5215114646057
 30
0.0
 10
114.1442816554917
 20
-147.6895209049179
 30
0.0
 10
114.1442816554917
 20
-147.6895209049179
 30
0.0
 10
114.1442816554917
 20
-147.6895209049179
 30
0.0
 10
114.3389295504083
 20
-147.6895209049179
 30
0.0
 10
114.3389295504083
 20
-147.6895209049179
 30
0.0
 10
114.3389295504083
 20
-147.6895209049179
 30
0.0
 10
114.3389295504083
 20
-148.3471896330521
 30
0.0
 10
114.3389295504083
 20
-148.3471896330521
 30
0.0
 10
114.3389295504083
 20
-148.3471896330521
 30
0.0
 10
114.761987275997
 20
-148.4174695809512
 30
0.0
 10
114.761987275997
 20
-148.4174695809512
 30
0.0
 10
114.7282253402416
 20
-148.3520127667314
 30
0.0
 10
114.6879177230641
 20
-148.263818322309
 30
0.0
 10
114.6879177230641
 20
-148.1370388084518
 30
0.0
 10
114.6879177230641
 20
-147.8659097937627
 30
0.0
 10
114.8742973888162
 20
-147.6126952755968
 30
0.0
 10
115.1874565684254
 20
-147.6126952755968
 30
0.0
 10
115.5047498626169
 20
-147.6126952755968
 30
0.0
 10
115.7393608651624
 20
-147.8521294118217
 30
0.0
 10
115.7393608651624
 20
-148.1756238778867
 30
0.0
  0
HATCH
  5
ED
330
DD
100
AcDbEntity
  8
_U+30EC_U+30A4_U+30E4_U+30FC 1
 62
   179
420
  2234388
100
AcDbHatch
 10
0.0
 20
0.0
 30
0.0
210
0.0
220
0.0
230
1.0
  2
SOLID
 70
     1
 71
     0
 91
        1
 92
        1
 93
        1
 72
     4
 94
        3
 73
     0
 74
     1
 95
       53
 96
       49
 40
0.0
 40
0.0
 40
0.0
 40
0.0
 40
1.0
 40
1.0
 40
1.0
 40
2.0
 40
2.0
 40
2.0
 40
3.0
 40
3.0
 40
3.0
 40
4.0
 40
4.0
 40
4.0
 40
5.0
 40
5.0
 40
5.0
 40
6.0
 40
6.0
 40
6.0
 40
7.0
 40
7.0
 40
7.0
 40
8.0
 40
8.0
 40
8.0
 40
9.0
 40
9.0
 40
9.0
 40
10.0
 40
10.0
 40
10.0
 40
11.0
 40
11.0
 40
11.0
 40
12.0
 40
12.0
 40
12.0
 40
13.0
 40
13.0
 40
13.0
 40
14.0
 40
14.0
 40
14.0
 40
15.0
 40
15.0
 40
15.0
 40
16.0
 40
16.0
 40
16.0
 40
16.0
 10
115.7393608651624
 20
-148.1756238778867
 10
115.7393608651624
 20
-148.2589951886297
 10
115.7224798972847
 20
-148.3678602059636
 10
115.6590901403561
 20
-148.4760362042005
 10
115.5491915943766
 20
-148.6617268508554
 10
115.4179334563886
 20
-148.6841199715095
 10
115.3101019677003
 20
-148.7044460348725
 10
115.3101019677003
 20
-148.7044460348725
 10
115.3101019677003
 20
-148.4670789559388
 10
115.3101019677003
 20
-148.4670789559388
 10
115.5088839771992
 20
-148.4085123326896
 10
115.5385117983723
 20
-148.2727755705707
 10
115.5385117983723
 20
-148.173212311047
 10
115.5385117983723
 20
-148.0240396765357
 10
115.4389485388486
 20
-147.8614311696319
 10
115.2064045935942
 20
-147.8614311696319
 10
114.9504339990402
 20
-147.8614311696319
 10
114.8804985606896
 20
-148.0533229881603
 10
114.8804985606896
 20
-148.1821695593086
 10
114.8804985606896
 20
-148.2162760046126
 10
114.8804985606896
 20
-148.3678602059636
 10
115.0096896413865
 20
-148.462600331808
 10
115.0096896413865
 20
-148.462600331808
 10
114.9907416162176
 20
-148.6503580357541
 10
114.9907416162176
 20
-148.6503580357541
 10
114.9907416162176
 20
-148.6503580357541
 10
114.1442816554917
 20
-148.5215114646057
 10
114.1442816554917
 20
-148.5215114646057
 10
114.1442816554917
 20
-148.5215114646057
 10
114.1442816554917
 20
-147.6895209049179
 10
114.1442816554917
 20
-147.6895209049179
 10
114.1442816554917
 20
-147.6895209049179
 10
114.3389295504083
 20
-147.6895209049179
 10
114.3389295504083
 20
-147.6895209049179
 10
114.3389295504083
 20
-147.6895209049179
 10
114.3389295504083
 20
-148.3471896330521
 10
114.3389295504083
 20
-148.3471896330521
 10
114.3389295504083
 20
-148.3471896330521
 10
114.761987275997
 20
-148.4174695809512
 10
114.761987275997
 20
-148.4174695809512
 10
114.7282253402416
 20
-148.3520127667314
 10
114.6879177230641
 20
-148.263818322309
 10
114.6879177230641
 20
-148.1370388084518
 10
114.6879177230641
 20
-147.8659097937627
 10
114.8742973888162
 20
-147.6126952755968
 10
115.1874565684254
 20
-147.6126952755968
 10
115.5047498626169
 20
-147.6126952755968
 10
115.7393608651624
 20
-147.8521294118217
 10
115.7393608651624
 20
-148.1756238778867
 97
        0
 97
        0
 75
     2
 76
     1
 98
        0
  0
ENDBLK
  5
E0
330
DD
100
AcDbEntity
  8
0
100
AcDbBlockEnd
  0
ENDSEC
  0
SECTION
  2
ENTITIES
  0
POLYLINE
  5
41
330
1F
100
AcDbEntity
  8
_U+30EC_U+30A4_U+30E4_U+30FC 1
 62
   179
420
  2234388
370
    25
100
AcDb2dPolyline
 66
     1
 10
0.0
 20
0.0
 30
0.0
  0
VERTEX
  5
42
330
41
100
AcDbEntity
  8
_U+30EC_U+30A4_U+30E4_U+30FC 1
 62
   179
420
  2234388
370
    25
100
AcDbVertex
100
AcDb2dVertex
 10
92.0406351495159
 20
-143.5772073174857
 30
0.0
  0
VERTEX
  5
43
330
41
100
AcDbEntity
  8
_U+30EC_U+30A4_U+30E4_U+30FC 1
 62
   179
420
  2234388
370
    25
100
AcDbVertex
100
AcDb2dVertex
 10
113.0404299983241
 20
-143.5772073174857
 30
0.0
  0
SEQEND
  5
44
330
41
100
AcDbEntity
  8
_U+30EC_U+30A4_U+30E4_U+30FC 1
 62
   179
420
  2234388
370
    25
  0
POLYLINE
  5
45
330
1F
100
AcDbEntity
  8
_U+30EC_U+30A4_U+30E4_U+30FC 1
 62
   179
420
  2234388
370
    25
100
AcDb2dPolyline
 66
     1
 10
0.0
 20
0.0
 30
0.0
  0
VERTEX
  5
46
330
45
100
AcDbEntity
  8
_U+30EC_U+30A4_U+30E4_U+30FC 1
 62
   179
420
  2234388
370
    25
100
AcDbVertex
100
AcDb2dVertex
 10
92.84062938488479
 20
-144.3771692550841
 30
0.0
  0
VERTEX
  5
47
330
45
100
AcDbEntity
  8
_U+30EC_U+30A4_U+30E4_U+30FC 1
 62
   179
420
  2234388
370
    25
100
AcDbVertex
100
AcDb2dVertex
 10
113.0406776145621
 20
-144.3771692550841
 30
0.0
  0
SEQEND
  5
48
330
45
100
AcDbEntity
  8
_U+30EC_U+30A4_U+30E4_U+30FC 1
 62
   179
420
  2234388
370
    25
  0
POLYLINE
  5
49
330
1F
100
AcDbEntity
  8
_U+30EC_U+30A4_U+30E4_U+30FC 1
 62
   179
420
  2234388
370
    25
100
AcDb2dPolyline
 66
     1
 10
0.0
 20
0.0
 30
0.0
  0
VERTEX
  5
4A
330
49
100
AcDbEntity
  8
_U+30EC_U+30A4_U+30E4_U+30FC 1
 62
   179
420
  2234388
370
    25
100
AcDbVertex
100
AcDb2dVertex
 10
113.0406237849451
 20
-143.5772073174857
 30
0.0
  0
VERTEX
  5
4B
330
49
100
AcDbEntity
  8
_U+30EC_U+30A4_U+30E4_U+30FC 1
 62
   179
420
  2234388
370
    25
100
AcDbVertex
100
AcDb2dVertex
 10
113.0406237849451
 20
-144.3773092120882
 30
0.0
  0
SEQEND
  5
4C
330
49
100
AcDbEntity
  8
_U+30EC_U+30A4_U+30E4_U+30FC 1
 62
   179
420
  2234388
370
    25
  0
POLYLINE
  5
4D
330
1F
100
AcDbEntity
  8
_U+30EC_U+30A4_U+30E4_U+30FC 1
 62
   179
420
  2234388
370
    25
100
AcDb2dPolyline
 66
     1
 10
0.0
 20
0.0
 30
0.0
  0
VERTEX
  5
4E
330
4D
100
AcDbEntity
  8
_U+30EC_U+30A4_U+30E4_U+30FC 1
 62
   179
420
  2234388
370
    25
100
AcDbVertex
100
AcDb2dVertex
 10
92.0406351495159
 20
-143.5772073174857
 30
0.0
  0
VERTEX
  5
4F
330
4D
100
AcDbEntity
  8
_U+30EC_U+30A4_U+30E4_U+30FC 1
 62
   179
420
  2234388
370
    25
100
AcDbVertex
100
AcDb2dVertex
 10
92.0406351495159
 20
-156.8772891182243
 30
0.0
  0
SEQEND
  5
50
330
4D
100
AcDbEntity
  8
_U+30EC_U+30A4_U+30E4_U+30FC 1
 62
   179
420
  2234388
370
    25
  0
POLYLINE
  5
51
330
1F
100
AcDbEntity
  8
_U+30EC_U+30A4_U+30E4_U+30FC 1
 62
   179
420
  2234388
370
    25
100
AcDb2dPolyline
 66
     1
 10
0.0
 20
0.0
 30
0.0
  0
VERTEX
  5
52
330
51
100
AcDbEntity
  8
_U+30EC_U+30A4_U+30E4_U+30FC 1
 62
   179
420
  2234388
370
    25
100
AcDbVertex
100
AcDb2dVertex
 10
92.84062938488479
 20
-144.3771692550841
 30
0.0
  0
VERTEX
  5
53
330
51
100
AcDbEntity
  8
_U+30EC_U+30A4_U+30E4_U+30FC 1
 62
   179
420
  2234388
370
    25
100
AcDbVertex
100
AcDb2dVertex
 10
92.84062938488479
 20
-156.0774025420896
 30
0.0
  0
SEQEND
  5
54
330
51
100
AcDbEntity
  8
_U+30EC_U+30A4_U+30E4_U+30FC 1
 62
   179
420
  2234388
370
    25
  0
POLYLINE
  5
55
330
1F
100
AcDbEntity
  8
_U+30EC_U+30A4_U+30E4_U+30FC 1
 62
   179
420
  2234388
370
    25
100
AcDb2dPolyline
 66
     1
 10
0.0
 20
0.0
 30
0.0
  0
VERTEX
  5
56
330
55
100
AcDbEntity
  8
_U+30EC_U+30A4_U+30E4_U+30FC 1
 62
   179
420
  2234388
370
    25
100
AcDbVertex
100
AcDb2dVertex
 10
96.03835624836998
 20
-153.8773753311324
 30
0.0
  0
VERTEX
  5
57
330
55
100
AcDbEntity
  8
_U+30EC_U+30A4_U+30E4_U+30FC 1
 62
   179
420
  2234388
370
    25
100
AcDbVertex
100
AcDb2dVertex
 10
98.04072110586092
 20
-153.8773753311324
 30
0.0
  0
SEQEND
  5
58
330
55
100
AcDbEntity
  8
_U+30EC_U+30A4_U+30E4_U+30FC 1
 62
   179
420
  2234388
370
    25
  0
POLYLINE
  5
59
330
1F
100
AcDbEntity
  8
_U+30EC_U+30A4_U+30E4_U+30FC 1
 62
   179
420
  2234388
370
    25
100
AcDb2dPolyline
 66
     1
 10
0.0
 20
0.0
 30
0.0
  0
VERTEX
  5
5A
330
59
100
AcDbEntity
  8
_U+30EC_U+30A4_U+30E4_U+30FC 1
 62
   179
420
  2234388
370
    25
100
AcDbVertex
100
AcDb2dVertex
 10
92.0406351495159
 20
-156.8773537137646
 30
0.0
  0
VERTEX
  5
5B
330
59
100
AcDbEntity
  8
_U+30EC_U+30A4_U+30E4_U+30FC 1
 62
   179
420
  2234388
370
    25
100
AcDbVertex
100
AcDb2dVertex
 10
98.04067804216736
 20
-156.8773537137646
 30
0.0
  0
SEQEND
  5
5C
330
59
100
AcDbEntity
  8
_U+30EC_U+30A4_U+30E4_U+30FC 1
 62
   179
420
  2234388
370
    25
  0
POLYLINE
  5
5D
330
1F
100
AcDbEntity
  8
_U+30EC_U+30A4_U+30E4_U+30FC 1
 62
   179
420
  2234388
370
    25
100
AcDb2dPolyline
 66
     1
 10
0.0
 20
0.0
 30
0.0
  0
VERTEX
  5
5E
330
5D
100
AcDbEntity
  8
_U+30EC_U+30A4_U+30E4_U+30FC 1
 62
   179
420
  2234388
370
    25
100
AcDbVertex
100
AcDb2dVertex
 10
98.04064574439718
 20
-153.8773753311324
 30
0.0
  0
VERTEX
  5
5F
330
5D
100
AcDbEntity
  8
_U+30EC_U+30A4_U+30E4_U+30FC 1
 62
   179
420
  2234388
370
    25
100
AcDbVertex
100
AcDb2dVertex
 10
98.04064574439718
 20
-156.8774075433816
 30
0.0
  0
SEQEND
  5
60
330
5D
100
AcDbEntity
  8
_U+30EC_U+30A4_U+30E4_U+30FC 1
 62
   179
420
  2234388
370
    25
  0
POLYLINE
  5
61
330
1F
100
AcDbEntity
  8
_U+30EC_U+30A4_U+30E4_U+30FC 1
 62
   179
420
  2234388
370
    25
100
AcDb2dPolyline
 66
     1
 10
0.0
 20
0.0
 30
0.0
  0
VERTEX
  5
62
330
61
100
AcDbEntity
  8
_U+30EC_U+30A4_U+30E4_U+30FC 1
 62
   179
420
  2234388
370
    25
100
AcDbVertex
100
AcDb2dVertex
 10
96.03835624836998
 20
-153.8773753311324
 30
0.0
  0
VERTEX
  5
63
330
61
100
AcDbEntity
  8
_U+30EC_U+30A4_U+30E4_U+30FC 1
 62
   179
420
  2234388
370
    25
100
AcDbVertex
100
AcDb2dVertex
 10
96.03835624836998
 20
-154.6774772257349
 30
0.0
  0
SEQEND
  5
64
330
61
100
AcDbEntity
  8
_U+30EC_U+30A4_U+30E4_U+30FC 1
 62
   179
420
  2234388
370
    25
  0
POLYLINE
  5
65
330
1F
100
AcDbEntity
  8
_U+30EC_U+30A4_U+30E4_U+30FC 1
 62
   179
420
  2234388
370
    25
100
AcDb2dPolyline
 66
     1
 10
0.0
 20
0.0
 30
0.0
  0
VERTEX
  5
66
330
65
100
AcDbEntity
  8
_U+30EC_U+30A4_U+30E4_U+30FC 1
 62
   179
420
  2234388
370
    25
100
AcDbVertex
100
AcDb2dVertex
 10
92.84062938488479
 20
-156.077359478396
 30
0.0
  0
VERTEX
  5
67
330
65
100
AcDbEntity
  8
_U+30EC_U+30A4_U+30E4_U+30FC 1
 62
   179
420
  2234388
370
    25
100
AcDbVertex
100
AcDb2dVertex
 10
97.24082376380287
 20
-156.077359478396
 30
0.0
  0
SEQEND
  5
68
330
65
100
AcDbEntity
  8
_U+30EC_U+30A4_U+30E4_U+30FC 1
 62
   179
420
  2234388
370
    25
  0
POLYLINE
  5
69
330
1F
100
AcDbEntity
  8
_U+30EC_U+30A4_U+30E4_U+30FC 1
 62
   179
420
  2234388
370
    25
100
AcDb2dPolyline
 66
     1
 10
0.0
 20
0.0
 30
0.0
  0
VERTEX
  5
6A
330
69
100
AcDbEntity
  8
_U+30EC_U+30A4_U+30E4_U+30FC 1
 62
   179
420
  2234388
370
    25
100
AcDbVertex
100
AcDb2dVertex
 10
97.24069457272216
 20
-154.6772942050373
 30
0.0
  0
VERTEX
  5
6B
330
69
100
AcDbEntity
  8
_U+30EC_U+30A4_U+30E4_U+30FC 1
 62
   179
420
  2234388
370
    25
100
AcDbVertex
100
AcDb2dVertex
 10
97.24069457272216
 20
-156.0774779035533
 30
0.0
  0
SEQEND
  5
6C
330
69
100
AcDbEntity
  8
_U+30EC_U+30A4_U+30E4_U+30FC 1
 62
   179
420
  2234388
370
    25
  0
POLYLINE
  5
6D
330
1F
100
AcDbEntity
  8
_U+30EC_U+30A4_U+30E4_U+30FC 1
 62
   179
420
  2234388
370
    25
100
AcDb2dPolyline
 66
     1
 10
0.0
 20
0.0
 30
0.0
  0
VERTEX
  5
6E
330
6D
100
AcDbEntity
  8
_U+30EC_U+30A4_U+30E4_U+30FC 1
 62
   179
420
  2234388
370
    25
100
AcDbVertex
100
AcDb2dVertex
 10
96.03835624836998
 20
-154.6772942050373
 30
0.0
  0
VERTEX
  5
6F
330
6D
100
AcDbEntity
  8
_U+30EC_U+30A4_U+30E4_U+30FC 1
 62
   179
420
  2234388
370
    25
100
AcDbVertex
100
AcDb2dVertex
 10
97.24061921125875
 20
-154.6772942050373
 30
0.0
  0
SEQEND
  5
70
330
6D
100
AcDbEntity
  8
_U+30EC_U+30A4_U+30E4_U+30FC 1
 62
   179
420
  2234388
370
    25
  0
SPLINE
  5
71
330
1F
100
AcDbEntity
  8
_U+30EC_U+30A4_U+30E4_U+30FC 1
 62
   179
420
  2234388
370
     9
100
AcDbSpline
210
0.0
220
0.0
230
1.0
 70
    11
 71
     3
 72
    17
 73
    13
 74
     0
 42
0.0000000001
 43
0.0000000001
 12
1.0
 22
0.0
 32
0.0
 13
1.0
 23
0.0
 33
0.0
 40
0.0
 40
0.0
 40
0.0
 40
0.0
 40
1.0
 40
1.0
 40
1.0
 40
2.0
 40
2.0
 40
2.0
 40
3.0
 40
3.0
 40
3.0
 40
4.0
 40
4.0
 40
4.0
 40
4.0
 10
117.1402443486989
 20
-143.5772073174857
 30
0.0
 10
117.1402443486989
 20
-143.5218274075603
 30
0.0
 10
117.0954365755439
 20
-143.4770196344053
 30
0.0
 10
117.040401175167
 20
-143.4770196344053
 30
0.0
 10
116.9853657747901
 20
-143.4770196344053
 30
0.0
 10
116.9405687675585
 20
-143.5218274075603
 30
0.0
 10
116.9405687675585
 20
-143.5772073174857
 30
0.0
 10
116.9405687675585
 20
-143.6325979933345
 30
0.0
 10
116.9853657747901
 20
-143.6770504910176
 30
0.0
 10
117.040401175167
 20
-143.6770504910176
 30
0.0
 10
117.0954365755439
 20
-143.6770504910176
 30
0.0
 10
117.1402443486989
 20
-143.6325979933345
 30
0.0
 10
117.1402443486989
 20
-143.5772073174857
 30
0.0
  0
SPLINE
  5
72
330
1F
100
AcDbEntity
  8
_U+30EC_U+30A4_U+30E4_U+30FC 1
 62
   179
420
  2234388
370
     9
100
AcDbSpline
210
0.0
220
0.0
230
1.0
 70
    11
 71
     3
 72
    17
 73
    13
 74
     0
 42
0.0000000001
 43
0.0000000001
 12
1.0
 22
0.0
 32
0.0
 13
1.0
 23
0.0
 33
0.0
 40
0.0
 40
0.0
 40
0.0
 40
0.0
 40
1.0
 40
1.0
 40
1.0
 40
2.0
 40
2.0
 40
2.0
 40
3.0
 40
3.0
 40
3.0
 40
4.0
 40
4.0
 40
4.0
 40
4.0
 10
117.1402443486989
 20
-144.3771692550841
 30
0.0
 10
117.1402443486989
 20
-144.3221446206306
 30
0.0
 10
117.0954365755439
 20
-144.2773368474756
 30
0.0
 10
117.040401175167
 20
-144.2773368474756
 30
0.0
 10
116.9853657747901
 20
-144.2773368474756
 30
0.0
 10
116.9405687675585
 20
-144.3221446206306
 30
0.0
 10
116.9405687675585
 20
-144.3771692550841
 30
0.0
 10
116.9405687675585
 20
-144.4325599309329
 30
0.0
 10
116.9853657747901
 20
-144.4773677040879
 30
0.0
 10
117.040401175167
 20
-144.4773677040879
 30
0.0
 10
117.0954365755439
 20
-144.4773677040879
 30
0.0
 10
117.1402443486989
 20
-144.4325599309329
 30
0.0
 10
117.1402443486989
 20
-144.3771692550841
 30
0.0
  0
SPLINE
  5
73
330
1F
100
AcDbEntity
  8
_U+30EC_U+30A4_U+30E4_U+30FC 1
 62
   179
420
  2234388
370
     9
100
AcDbSpline
210
0.0
220
0.0
230
1.0
 70
    11
 71
     3
 72
    17
 73
    13
 74
     0
 42
0.0000000001
 43
0.0000000001
 12
1.0
 22
0.0
 32
0.0
 13
1.0
 23
0.0
 33
0.0
 40
0.0
 40
0.0
 40
0.0
 40
0.0
 40
1.0
 40
1.0
 40
1.0
 40
2.0
 40
2.0
 40
2.0
 40
3.0
 40
3.0
 40
3.0
 40
4.0
 40
4.0
 40
4.0
 40
4.0
 10
113.140520788094
 20
-139.5770961836387
 30
0.0
 10
113.140520788094
 20
-139.5220715491853
 30
0.0
 10
113.095713014939
 20
-139.4772637760302
 30
0.0
 10
113.0406776145621
 20
-139.4772637760302
 30
0.0
 10
112.9856422141852
 20
-139.4772637760302
 30
0.0
 10
112.9408452069536
 20
-139.5220715491853
 30
0.0
 10
112.9408452069536
 20
-139.5770961836387
 30
0.0
 10
112.9408452069536
 20
-139.6321315840156
 30
0.0
 10
112.9856422141852
 20
-139.6769393571706
 30
0.0
 10
113.0406776145621
 20
-139.6769393571706
 30
0.0
 10
113.095713014939
 20
-139.6769393571706
 30
0.0
 10
113.140520788094
 20
-139.6321315840156
 30
0.0
 10
113.140520788094
 20
-139.5770961836387
 30
0.0
  0
SPLINE
  5
74
330
1F
100
AcDbEntity
  8
_U+30EC_U+30A4_U+30E4_U+30FC 1
 62
   179
420
  2234388
370
     9
100
AcDbSpline
210
0.0
220
0.0
230
1.0
 70
    11
 71
     3
 72
    17
 73
    13
 74
     0
 42
0.0000000001
 43
0.0000000001
 12
1.0
 22
0.0
 32
0.0
 13
1.0
 23
0.0
 33
0.0
 40
0.0
 40
0.0
 40
0.0
 40
0.0
 40
1.0
 40
1.0
 40
1.0
 40
2.0
 40
2.0
 40
2.0
 40
3.0
 40
3.0
 40
3.0
 40
4.0
 40
4.0
 40
4.0
 40
4.0
 10
98.14055351346943
 20
-160.8774325498414
 30
0.0
 10
98.14055351346943
 20
-160.822052639916
 30
0.0
 10
98.0957457403144
 20
-160.777244866761
 30
0.0
 10
98.04071033993753
 20
-160.777244866761
 30
0.0
 10
97.98567493956067
 20
-160.777244866761
 30
0.0
 10
97.94087793232902
 20
-160.822052639916
 30
0.0
 10
97.94087793232902
 20
-160.8774325498414
 30
0.0
 10
97.94087793232902
 20
-160.9324679502183
 30
0.0
 10
97.98567493956067
 20
-160.9772757233733
 30
0.0
 10
98.04071033993753
 20
-160.9772757233733
 30
0.0
 10
98.0957457403144
 20
-160.9772757233733
 30
0.0
 10
98.14055351346943
 20
-160.9324679502183
 30
0.0
 10
98.14055351346943
 20
-160.8774325498414
 30
0.0
  0
SPLINE
  5
75
330
1F
100
AcDbEntity
  8
_U+30EC_U+30A4_U+30E4_U+30FC 1
 62
   179
420
  2234388
370
     9
100
AcDbSpline
210
0.0
220
0.0
230
1.0
 70
    11
 71
     3
 72
    17
 73
    13
 74
     0
 42
0.0000000001
 43
0.0000000001
 12
1.0
 22
0.0
 32
0.0
 13
1.0
 23
0.0
 33
0.0
 40
0.0
 40
0.0
 40
0.0
 40
0.0
 40
1.0
 40
1.0
 40
1.0
 40
2.0
 40
2.0
 40
2.0
 40
3.0
 40
3.0
 40
3.0
 40
4.0
 40
4.0
 40
4.0
 40
4.0
 10
92.14058598228202
 20
-160.8774325498414
 30
0.0
 10
92.14058598228202
 20
-160.822052639916
 30
0.0
 10
92.09577820912666
 20
-160.777244866761
 30
0.0
 10
92.0407428087498
 20
-160.777244866761
 30
0.0
 10
91.98570740837293
 20
-160.777244866761
 30
0.0
 10
91.9409104011413
 20
-160.822052639916
 30
0.0
 10
91.9409104011413
 20
-160.8774325498414
 30
0.0
 10
91.9409104011413
 20
-160.9324679502183
 30
0.0
 10
91.98570740837293
 20
-160.9772757233733
 30
0.0
 10
92.0407428087498
 20
-160.9772757233733
 30
0.0
 10
92.09577820912666
 20
-160.9772757233733
 30
0.0
 10
92.14058598228202
 20
-160.9324679502183
 30
0.0
 10
92.14058598228202
 20
-160.8774325498414
 30
0.0
  0
SPLINE
  5
76
330
1F
100
AcDbEntity
  8
_U+30EC_U+30A4_U+30E4_U+30FC 1
 62
   179
420
  2234388
370
     9
100
AcDbSpline
210
0.0
220
0.0
230
1.0
 70
    11
 71
     3
 72
    17
 73
    13
 74
     0
 42
0.0000000001
 43
0.0000000001
 12
1.0
 22
0.0
 32
0.0
 13
1.0
 23
0.0
 33
0.0
 40
0.0
 40
0.0
 40
0.0
 40
0.0
 40
1.0
 40
1.0
 40
1.0
 40
2.0
 40
2.0
 40
2.0
 40
3.0
 40
3.0
 40
3.0
 40
4.0
 40
4.0
 40
4.0
 40
4.0
 10
92.14058598228202
 20
-139.5770961836387
 30
0.0
 10
92.14058598228202
 20
-139.5220715491853
 30
0.0
 10
92.09577820912666
 20
-139.4772637760302
 30
0.0
 10
92.0407428087498
 20
-139.4772637760302
 30
0.0
 10
91.98570740837293
 20
-139.4772637760302
 30
0.0
 10
91.9409104011413
 20
-139.5220715491853
 30
0.0
 10
91.9409104011413
 20
-139.5770961836387
 30
0.0
 10
91.9409104011413
 20
-139.6321315840156
 30
0.0
 10
91.98570740837293
 20
-139.6769393571706
 30
0.0
 10
92.0407428087498
 20
-139.6769393571706
 30
0.0
 10
92.09577820912666
 20
-139.6769393571706
 30
0.0
 10
92.14058598228202
 20
-139.6321315840156
 30
0.0
 10
92.14058598228202
 20
-139.5770961836387
 30
0.0
  0
SPLINE
  5
77
330
1F
100
AcDbEntity
  8
_U+30EC_U+30A4_U+30E4_U+30FC 1
 62
   179
420
  2234388
370
     9
100
AcDbSpline
210
0.0
220
0.0
230
1.0
 70
    11
 71
     3
 72
    17
 73
    13
 74
     0
 42
0.0000000001
 43
0.0000000001
 12
1.0
 22
0.0
 32
0.0
 13
1.0
 23
0.0
 33
0.0
 40
0.0
 40
0.0
 40
0.0
 40
0.0
 40
1.0
 40
1.0
 40
1.0
 40
2.0
 40
2.0
 40
2.0
 40
3.0
 40
3.0
 40
3.0
 40
4.0
 40
4.0
 40
4.0
 40
4.0
 10
117.1402443486989
 20
-156.8773537137646
 30
0.0
 10
117.1402443486989
 20
-156.8223290793111
 30
0.0
 10
117.0954365755439
 20
-156.7775213061561
 30
0.0
 10
117.040401175167
 20
-156.7775213061561
 30
0.0
 10
116.9853657747901
 20
-156.7775213061561
 30
0.0
 10
116.9405687675585
 20
-156.8223290793111
 30
0.0
 10
116.9405687675585
 20
-156.8773537137646
 30
0.0
 10
116.9405687675585
 20
-156.9323891141415
 30
0.0
 10
116.9853657747901
 20
-156.9771968872965
 30
0.0
 10
117.040401175167
 20
-156.9771968872965
 30
0.0
 10
117.0954365755439
 20
-156.9771968872965
 30
0.0
 10
117.1402443486989
 20
-156.9323891141415
 30
0.0
 10
117.1402443486989
 20
-156.8773537137646
 30
0.0
  0
SPLINE
  5
78
330
1F
100
AcDbEntity
  8
_U+30EC_U+30A4_U+30E4_U+30FC 1
 62
   179
420
  2234388
370
     9
100
AcDbSpline
210
0.0
220
0.0
230
1.0
 70
    11
 71
     3
 72
    17
 73
    13
 74
     0
 42
0.0000000001
 43
0.0000000001
 12
1.0
 22
0.0
 32
0.0
 13
1.0
 23
0.0
 33
0.0
 40
0.0
 40
0.0
 40
0.0
 40
0.0
 40
1.0
 40
1.0
 40
1.0
 40
2.0
 40
2.0
 40
2.0
 40
3.0
 40
3.0
 40
3.0
 40
4.0
 40
4.0
 40
4.0
 40
4.0
 10
117.1402443486989
 20
-153.8773753311324
 30
0.0
 10
117.1402443486989
 20
-153.822350696679
 30
0.0
 10
117.0954365755439
 20
-153.7775429235239
 30
0.0
 10
117.040401175167
 20
-153.7775429235239
 30
0.0
 10
116.9853657747901
 20
-153.7775429235239
 30
0.0
 10
116.9405687675585
 20
-153.822350696679
 30
0.0
 10
116.9405687675585
 20
-153.8773753311324
 30
0.0
 10
116.9405687675585
 20
-153.9324107315093
 30
0.0
 10
116.9853657747901
 20
-153.9772185046643
 30
0.0
 10
117.040401175167
 20
-153.9772185046643
 30
0.0
 10
117.0954365755439
 20
-153.9772185046643
 30
0.0
 10
117.1402443486989
 20
-153.9324107315093
 30
0.0
 10
117.1402443486989
 20
-153.8773753311324
 30
0.0
  0
POLYLINE
  5
79
330
1F
100
AcDbEntity
  8
_U+30EC_U+30A4_U+30E4_U+30FC 1
 62
   179
420
  2234388
370
     9
100
AcDb2dPolyline
 66
     1
 10
0.0
 20
0.0
 30
0.0
  0
VERTEX
  5
7A
330
79
100
AcDbEntity
  8
_U+30EC_U+30A4_U+30E4_U+30FC 1
 62
   179
420
  2234388
370
     9
100
AcDbVertex
100
AcDb2dVertex
 10
117.04034734555
 20
-143.5772073174857
 30
0.0
  0
VERTEX
  5
7B
330
79
100
AcDbEntity
  8
_U+30EC_U+30A4_U+30E4_U+30FC 1
 62
   179
420
  2234388
370
     9
100
AcDbVertex
100
AcDb2dVertex
 10
117.04034734555
 20
-138.3194102471313
 30
0.0
  0
SEQEND
  5
7C
330
79
100
AcDbEntity
  8
_U+30EC_U+30A4_U+30E4_U+30FC 1
 62
   179
420
  2234388
370
     9
  0
POLYLINE
  5
7D
330
1F
100
AcDbEntity
  8
_U+30EC_U+30A4_U+30E4_U+30FC 1
 62
   179
420
  2234388
370
     9
100
AcDb2dPolyline
 66
     1
 10
0.0
 20
0.0
 30
0.0
  0
VERTEX
  5
7E
330
7D
100
AcDbEntity
  8
_U+30EC_U+30A4_U+30E4_U+30FC 1
 62
   179
420
  2234388
370
     9
100
AcDbVertex
100
AcDb2dVertex
 10
117.04034734555
 20
-143.5772073174857
 30
0.0
  0
VERTEX
  5
7F
330
7D
100
AcDbEntity
  8
_U+30EC_U+30A4_U+30E4_U+30FC 1
 62
   179
420
  2234388
370
     9
100
AcDbVertex
100
AcDb2dVertex
 10
117.04034734555
 20
-144.3773092120882
 30
0.0
  0
SEQEND
  5
80
330
7D
100
AcDbEntity
  8
_U+30EC_U+30A4_U+30E4_U+30FC 1
 62
   179
420
  2234388
370
     9
  0
POLYLINE
  5
81
330
1F
100
AcDbEntity
  8
_U+30EC_U+30A4_U+30E4_U+30FC 1
 62
   179
420
  2234388
370
     9
100
AcDb2dPolyline
 66
     1
 10
0.0
 20
0.0
 30
0.0
  0
VERTEX
  5
82
330
81
100
AcDbEntity
  8
_U+30EC_U+30A4_U+30E4_U+30FC 1
 62
   179
420
  2234388
370
     9
100
AcDbVertex
100
AcDb2dVertex
 10
115.5803051129778
 20
-143.5772073174857
 30
0.0
  0
VERTEX
  5
83
330
81
100
AcDbEntity
  8
_U+30EC_U+30A4_U+30E4_U+30FC 1
 62
   179
420
  2234388
370
     9
100
AcDbVertex
100
AcDb2dVertex
 10
118.0409214996239
 20
-143.5772073174857
 30
0.0
  0
SEQEND
  5
84
330
81
100
AcDbEntity
  8
_U+30EC_U+30A4_U+30E4_U+30FC 1
 62
   179
420
  2234388
370
     9
  0
POLYLINE
  5
85
330
1F
100
AcDbEntity
  8
_U+30EC_U+30A4_U+30E4_U+30FC 1
 62
   179
420
  2234388
370
     9
100
AcDb2dPolyline
 66
     1
 10
0.0
 20
0.0
 30
0.0
  0
VERTEX
  5
86
330
85
100
AcDbEntity
  8
_U+30EC_U+30A4_U+30E4_U+30FC 1
 62
   179
420
  2234388
370
     9
100
AcDbVertex
100
AcDb2dVertex
 10
115.5803051129778
 20
-144.3771692550841
 30
0.0
  0
VERTEX
  5
87
330
85
100
AcDbEntity
  8
_U+30EC_U+30A4_U+30E4_U+30FC 1
 62
   179
420
  2234388
370
     9
100
AcDbVertex
100
AcDb2dVertex
 10
118.0409214996239
 20
-144.3771692550841
 30
0.0
  0
SEQEND
  5
88
330
85
100
AcDbEntity
  8
_U+30EC_U+30A4_U+30E4_U+30FC 1
 62
   179
420
  2234388
370
     9
  0
INSERT
  5
8A
330
1F
100
AcDbEntity
  8
_U+30EC_U+30A4_U+30E4_U+30FC 1
100
AcDbBlockReference
  2
block 2
 10
0.0
 20
0.0
 30
0.0
  0
POLYLINE
  5
9C
330
1F
100
AcDbEntity
  8
_U+30EC_U+30A4_U+30E4_U+30FC 1
 62
   179
420
  2234388
370
     9
100
AcDb2dPolyline
 66
     1
 10
0.0
 20
0.0
 30
0.0
  0
VERTEX
  5
9D
330
9C
100
AcDbEntity
  8
_U+30EC_U+30A4_U+30E4_U+30FC 1
 62
   179
420
  2234388
370
     9
100
AcDbVertex
100
AcDb2dVertex
 10
117.04034734555
 20
-153.8773753311324
 30
0.0
  0
VERTEX
  5
9E
330
9C
100
AcDbEntity
  8
_U+30EC_U+30A4_U+30E4_U+30FC 1
 62
   179
420
  2234388
370
     9
100
AcDbVertex
100
AcDb2dVertex
 10
117.04034734555
 20
-156.8774075433816
 30
0.0
  0
SEQEND
  5
9F
330
9C
100
AcDbEntity
  8
_U+30EC_U+30A4_U+30E4_U+30FC 1
 62
   179
420
  2234388
370
     9
  0
POLYLINE
  5
A0
330
1F
100
AcDbEntity
  8
_U+30EC_U+30A4_U+30E4_U+30FC 1
 62
   179
420
  2234388
370
     9
100
AcDb2dPolyline
 66
     1
 10
0.0
 20
0.0
 30
0.0
  0
VERTEX
  5
A1
330
A0
100
AcDbEntity
  8
_U+30EC_U+30A4_U+30E4_U+30FC 1
 62
   179
420
  2234388
370
     9
100
AcDbVertex
100
AcDb2dVertex
 10
100.5803701361234
 20
-156.8773537137646
 30
0.0
  0
VERTEX
  5
A2
330
A0
100
AcDbEntity
  8
_U+30EC_U+30A4_U+30E4_U+30FC 1
 62
   179
420
  2234388
370
     9
100
AcDbVertex
100
AcDb2dVertex
 10
118.0407492448496
 20
-156.8773537137646
 30
0.0
  0
SEQEND
  5
A3
330
A0
100
AcDbEntity
  8
_U+30EC_U+30A4_U+30E4_U+30FC 1
 62
   179
420
  2234388
370
     9
  0
INSERT
  5
A5
330
1F
100
AcDbEntity
  8
_U+30EC_U+30A4_U+30E4_U+30FC 1
100
AcDbBlockReference
  2
block 3
 10
0.0
 20
0.0
 30
0.0
  0
POLYLINE
  5
AA
330
1F
100
AcDbEntity
  8
_U+30EC_U+30A4_U+30E4_U+30FC 1
 62
   179
420
  2234388
370
     9
100
AcDb2dPolyline
 66
     1
 10
0.0
 20
0.0
 30
0.0
  0
VERTEX
  5
AB
330
AA
100
AcDbEntity
  8
_U+30EC_U+30A4_U+30E4_U+30FC 1
 62
   179
420
  2234388
370
     9
100
AcDbVertex
100
AcDb2dVertex
 10
92.0406351495159
 20
-139.5770961836387
 30
0.0
  0
VERTEX
  5
AC
330
AA
100
AcDbEntity
  8
_U+30EC_U+30A4_U+30E4_U+30FC 1
 62
   179
420
  2234388
370
     9
100
AcDbVertex
100
AcDb2dVertex
 10
113.0404299983241
 20
-139.5770961836387
 30
0.0
  0
SEQEND
  5
AD
330
AA
100
AcDbEntity
  8
_U+30EC_U+30A4_U+30E4_U+30FC 1
 62
   179
420
  2234388
370
     9
  0
POLYLINE
  5
AE
330
1F
100
AcDbEntity
  8
_U+30EC_U+30A4_U+30E4_U+30FC 1
 62
   179
420
  2234388
370
     9
100
AcDb2dPolyline
 66
     1
 10
0.0
 20
0.0
 30
0.0
  0
VERTEX
  5
AF
330
AE
100
AcDbEntity
  8
_U+30EC_U+30A4_U+30E4_U+30FC 1
 62
   179
420
  2234388
370
     9
100
AcDbVertex
100
AcDb2dVertex
 10
92.0406351495159
 20
-141.037138416211
 30
0.0
  0
VERTEX
  5
B0
330
AE
100
AcDbEntity
  8
_U+30EC_U+30A4_U+30E4_U+30FC 1
 62
   179
420
  2234388
370
     9
100
AcDbVertex
100
AcDb2dVertex
 10
92.0406351495159
 20
-138.5772218145853
 30
0.0
  0
SEQEND
  5
B1
330
AE
100
AcDbEntity
  8
_U+30EC_U+30A4_U+30E4_U+30FC 1
 62
   179
420
  2234388
370
     9
  0
POLYLINE
  5
B2
330
1F
100
AcDbEntity
  8
_U+30EC_U+30A4_U+30E4_U+30FC 1
 62
   179
420
  2234388
370
     9
100
AcDb2dPolyline
 66
     1
 10
0.0
 20
0.0
 30
0.0
  0
VERTEX
  5
B3
330
B2
100
AcDbEntity
  8
_U+30EC_U+30A4_U+30E4_U+30FC 1
 62
   179
420
  2234388
370
     9
100
AcDbVertex
100
AcDb2dVertex
 10
113.0406237849451
 20
-141.037138416211
 30
0.0
  0
VERTEX
  5
B4
330
B2
100
AcDbEntity
  8
_U+30EC_U+30A4_U+30E4_U+30FC 1
 62
   179
420
  2234388
370
     9
100
AcDbVertex
100
AcDb2dVertex
 10
113.0406237849451
 20
-138.5772218145853
 30
0.0
  0
SEQEND
  5
B5
330
B2
100
AcDbEntity
  8
_U+30EC_U+30A4_U+30E4_U+30FC 1
 62
   179
420
  2234388
370
     9
  0
INSERT
  5
B7
330
1F
100
AcDbEntity
  8
_U+30EC_U+30A4_U+30E4_U+30FC 1
100
AcDbBlockReference
  2
block 4
 10
0.0
 20
0.0
 30
0.0
  0
POLYLINE
  5
BE
330
1F
100
AcDbEntity
  8
_U+30EC_U+30A4_U+30E4_U+30FC 1
 62
   179
420
  2234388
370
     9
100
AcDb2dPolyline
 66
     1
 10
0.0
 20
0.0
 30
0.0
  0
VERTEX
  5
BF
330
BE
100
AcDbEntity
  8
_U+30EC_U+30A4_U+30E4_U+30FC 1
 62
   179
420
  2234388
370
     9
100
AcDbVertex
100
AcDb2dVertex
 10
92.0406351495159
 20
-160.8774325498414
 30
0.0
  0
VERTEX
  5
C0
330
BE
100
AcDbEntity
  8
_U+30EC_U+30A4_U+30E4_U+30FC 1
 62
   179
420
  2234388
370
     9
100
AcDbVertex
100
AcDb2dVertex
 10
98.04067804216736
 20
-160.8774325498414
 30
0.0
  0
SEQEND
  5
C1
330
BE
100
AcDbEntity
  8
_U+30EC_U+30A4_U+30E4_U+30FC 1
 62
   179
420
  2234388
370
     9
  0
POLYLINE
  5
C2
330
1F
100
AcDbEntity
  8
_U+30EC_U+30A4_U+30E4_U+30FC 1
 62
   179
420
  2234388
370
     9
100
AcDb2dPolyline
 66
     1
 10
0.0
 20
0.0
 30
0.0
  0
VERTEX
  5
C3
330
C2
100
AcDbEntity
  8
_U+30EC_U+30A4_U+30E4_U+30FC 1
 62
   179
420
  2234388
370
     9
100
AcDbVertex
100
AcDb2dVertex
 10
92.0406351495159
 20
-159.4174333809627
 30
0.0
  0
VERTEX
  5
C4
330
C2
100
AcDbEntity
  8
_U+30EC_U+30A4_U+30E4_U+30FC 1
 62
   179
420
  2234388
370
     9
100
AcDbVertex
100
AcDb2dVertex
 10
92.0406351495159
 20
-161.8773607485118
 30
0.0
  0
SEQEND
  5
C5
330
C2
100
AcDbEntity
  8
_U+30EC_U+30A4_U+30E4_U+30FC 1
 62
   179
420
  2234388
370
     9
  0
POLYLINE
  5
C6
330
1F
100
AcDbEntity
  8
_U+30EC_U+30A4_U+30E4_U+30FC 1
 62
   179
420
  2234388
370
     9
100
AcDb2dPolyline
 66
     1
 10
0.0
 20
0.0
 30
0.0
  0
VERTEX
  5
C7
330
C6
100
AcDbEntity
  8
_U+30EC_U+30A4_U+30E4_U+30FC 1
 62
   179
420
  2234388
370
     9
100
AcDbVertex
100
AcDb2dVertex
 10
98.04064574439718
 20
-159.4174333809627
 30
0.0
  0
VERTEX
  5
C8
330
C6
100
AcDbEntity
  8
_U+30EC_U+30A4_U+30E4_U+30FC 1
 62
   179
420
  2234388
370
     9
100
AcDbVertex
100
AcDb2dVertex
 10
98.04064574439718
 20
-161.8773607485118
 30
0.0
  0
SEQEND
  5
C9
330
C6
100
AcDbEntity
  8
_U+30EC_U+30A4_U+30E4_U+30FC 1
 62
   179
420
  2234388
370
     9
  0
INSERT
  5
CB
330
1F
100
AcDbEntity
  8
_U+30EC_U+30A4_U+30E4_U+30FC 1
100
AcDbBlockReference
  2
block 5
 10
0.0
 20
0.0
 30
0.0
  0
POLYLINE
  5
D1
330
1F
100
AcDbEntity
  8
_U+30EC_U+30A4_U+30E4_U+30FC 1
 62
   179
420
  2234388
370
     9
100
AcDb2dPolyline
 66
     1
 10
0.0
 20
0.0
 30
0.0
  0
VERTEX
  5
D2
330
D1
100
AcDbEntity
  8
_U+30EC_U+30A4_U+30E4_U+30FC 1
 62
   179
420
  2234388
370
     9
100
AcDbVertex
100
AcDb2dVertex
 10
117.04034734555
 20
-144.3771692550841
 30
0.0
  0
VERTEX
  5
D3
330
D1
100
AcDbEntity
  8
_U+30EC_U+30A4_U+30E4_U+30FC 1
 62
   179
420
  2234388
370
     9
100
AcDbVertex
100
AcDb2dVertex
 10
117.04034734555
 20
-153.8774829903664
 30
0.0
  0
SEQEND
  5
D4
330
D1
100
AcDbEntity
  8
_U+30EC_U+30A4_U+30E4_U+30FC 1
 62
   179
420
  2234388
370
     9
  0
POLYLINE
  5
D5
330
1F
100
AcDbEntity
  8
_U+30EC_U+30A4_U+30E4_U+30FC 1
 62
   179
420
  2234388
370
     9
100
AcDb2dPolyline
 66
     1
 10
0.0
 20
0.0
 30
0.0
  0
VERTEX
  5
D6
330
D5
100
AcDbEntity
  8
_U+30EC_U+30A4_U+30E4_U+30FC 1
 62
   179
420
  2234388
370
     9
100
AcDbVertex
100
AcDb2dVertex
 10
115.5803051129778
 20
-144.3771692550841
 30
0.0
  0
VERTEX
  5
D7
330
D5
100
AcDbEntity
  8
_U+30EC_U+30A4_U+30E4_U+30FC 1
 62
   179
420
  2234388
370
     9
100
AcDbVertex
100
AcDb2dVertex
 10
118.0409214996239
 20
-144.3771692550841
 30
0.0
  0
SEQEND
  5
D8
330
D5
100
AcDbEntity
  8
_U+30EC_U+30A4_U+30E4_U+30FC 1
 62
   179
420
  2234388
370
     9
  0
POLYLINE
  5
D9
330
1F
100
AcDbEntity
  8
_U+30EC_U+30A4_U+30E4_U+30FC 1
 62
   179
420
  2234388
370
     9
100
AcDb2dPolyline
 66
     1
 10
0.0
 20
0.0
 30
0.0
  0
VERTEX
  5
DA
330
D9
100
AcDbEntity
  8
_U+30EC_U+30A4_U+30E4_U+30FC 1
 62
   179
420
  2234388
370
     9
100
AcDbVertex
100
AcDb2dVertex
 10
100.5803701361234
 20
-153.8773753311324
 30
0.0
  0
VERTEX
  5
DB
330
D9
100
AcDbEntity
  8
_U+30EC_U+30A4_U+30E4_U+30FC 1
 62
   179
420
  2234388
370
     9
100
AcDbVertex
100
AcDb2dVertex
 10
118.0407492448496
 20
-153.8773753311324
 30
0.0
  0
SEQEND
  5
DC
330
D9
100
AcDbEntity
  8
_U+30EC_U+30A4_U+30E4_U+30FC 1
 62
   179
420
  2234388
370
     9
  0
INSERT
  5
DE
330
1F
100
AcDbEntity
  8
_U+30EC_U+30A4_U+30E4_U+30FC 1
100
AcDbBlockReference
  2
block 6
 10
0.0
 20
0.0
 30
0.0
  0
ENDSEC
  0
SECTION
  2
OBJECTS
  0
DICTIONARY
  5
C
330
0
100
AcDbDictionary
281
     1
  3
ACAD_GROUP
350
D
  3
ACAD_LAYOUT
350
1A
  3
ACAD_MATERIAL
350
3B
  3
ACAD_MLEADERSTYLE
350
EF
  3
ACAD_MLINESTYLE
350
17
  3
ACAD_PLOTSETTINGS
350
19
  3
ACAD_PLOTSTYLENAME
350
E
  3
ACAD_TABLESTYLE
350
EE
  3
ACAD_VISUALSTYLE
350
2A
  0
SUN
  5
3F
330
29
100
AcDbSun
 90
        1
290
     0
 63
     7
421
 16777215
 40
1.0
291
     1
 91
  2455826
 92
 54000000
292
     0
 70
     2
 71
   256
280
     1
  0
DICTIONARY
  5
D
102
{ACAD_REACTORS
330
C
102
}
330
C
100
AcDbDictionary
281
     1
  0
DICTIONARY
  5
1A
102
{ACAD_REACTORS
330
C
102
}
330
C
100
AcDbDictionary
281
     1
  3
Layout1
350
1E
  3
Layout2
350
26
  3
Model
350
22
  0
DICTIONARY
  5
3B
102
{ACAD_REACTORS
330
C
102
}
330
C
100
AcDbDictionary
281
     1
  3
ByBlock
350
3D
  3
ByLayer
350
3C
  3
Global
350
3E
  0
DICTIONARY
  5
EF
102
{ACAD_REACTORS
330
C
102
}
330
C
100
AcDbDictionary
281
     1
  0
DICTIONARY
  5
17
102
{ACAD_REACTORS
330
C
102
}
330
C
100
AcDbDictionary
281
     1
  3
Standard
350
18
  0
DICTIONARY
  5
19
102
{ACAD_REACTORS
330
C
102
}
330
C
100
AcDbDictionary
281
     1
  0
ACDBDICTIONARYWDFLT
  5
E
102
{ACAD_REACTORS
330
C
102
}
330
C
100
AcDbDictionary
281
     1
  3
Normal
350
F
100
AcDbDictionaryWithDefault
340
F
  0
DICTIONARY
  5
EE
102
{ACAD_REACTORS
330
C
102
}
330
C
100
AcDbDictionary
281
     1
  0
DICTIONARY
  5
2A
102
{ACAD_REACTORS
330
C
102
}
330
C
100
AcDbDictionary
281
     1
  3
2dWireframe
350
2F
  3
3D Hidden
350
31
  3
3dWireframe
350
30
  3
Basic
350
32
  3
Brighten
350
36
  3
ColorChange
350
3A
  3
Conceptual
350
34
  3
Dim
350
35
  3
Facepattern
350
39
  3
Flat
350
2B
  3
FlatWithEdges
350
2C
  3
Gouraud
350
2D
  3
GouraudWithEdges
350
2E
  3
Linepattern
350
38
  3
Realistic
350
33
  3
Thicken
350
37
  0
LAYOUT
  5
1E
102
{ACAD_REACTORS
330
1A
102
}
330
1A
100
AcDbPlotSettings
  1

  2
none_device
  4

  6

 40
0.0
 41
0.0
 42
0.0
 43
0.0
 44
0.0
 45
0.0
 46
0.0
 47
0.0
 48
0.0
 49
0.0
140
0.0
141
0.0
142
1.0
143
1.0
 70
   688
 72
     0
 73
     0
 74
     5
  7

 75
    16
 76
     0
 77
     2
 78
   300
147
1.0
148
0.0
149
0.0
100
AcDbLayout
  1
Layout1
 70
     1
 71
     1
 10
0.0
 20
0.0
 11
12.0
 21
9.0
 12
0.0
 22
0.0
 32
0.0
 14
1.000000000000000E+20
 24
1.000000000000000E+20
 34
1.000000000000000E+20
 15
-1.000000000000000E+20
 25
-1.000000000000000E+20
 35
-1.000000000000000E+20
146
0.0
 13
0.0
 23
0.0
 33
0.0
 16
1.0
 26
0.0
 36
0.0
 17
0.0
 27
1.0
 37
0.0
 76
     0
330
1B
  0
LAYOUT
  5
26
102
{ACAD_REACTORS
330
1A
102
}
330
1A
100
AcDbPlotSettings
  1

  2
none_device
  4

  6

 40
0.0
 41
0.0
 42
0.0
 43
0.0
 44
0.0
 45
0.0
 46
0.0
 47
0.0
 48
0.0
 49
0.0
140
0.0
141
0.0
142
1.0
143
1.0
 70
   688
 72
     0
 73
     0
 74
     5
  7

 75
    16
 76
     0
 77
     2
 78
   300
147
1.0
148
0.0
149
0.0
100
AcDbLayout
  1
Layout2
 70
     1
 71
     2
 10
0.0
 20
0.0
 11
0.0
 21
0.0
 12
0.0
 22
0.0
 32
0.0
 14
0.0
 24
0.0
 34
0.0
 15
0.0
 25
0.0
 35
0.0
146
0.0
 13
0.0
 23
0.0
 33
0.0
 16
1.0
 26
0.0
 36
0.0
 17
0.0
 27
1.0
 37
0.0
 76
     0
330
23
  0
LAYOUT
  5
22
102
{ACAD_REACTORS
330
1A
102
}
330
1A
100
AcDbPlotSettings
  1

  2
none_device
  4

  6

 40
0.0
 41
0.0
 42
0.0
 43
0.0
 44
0.0
 45
0.0
 46
0.0
 47
0.0
 48
0.0
 49
0.0
140
0.0
141
0.0
142
1.0
143
1.0
 70
  1712
 72
     0
 73
     0
 74
     0
  7

 75
     0
 76
     0
 77
     2
 78
   300
147
1.0
148
0.0
149
0.0
100
AcDbLayout
  1
Model
 70
     1
 71
     0
 10
0.0
 20
0.0
 11
12.0
 21
9.0
 12
0.0
 22
0.0
 32
0.0
 14
1.000000000000000E+20
 24
1.000000000000000E+20
 34
1.000000000000000E+20
 15
-1.000000000000000E+20
 25
-1.000000000000000E+20
 35
-1.000000000000000E+20
146
0.0
 13
0.0
 23
0.0
 33
0.0
 16
1.0
 26
0.0
 36
0.0
 17
0.0
 27
1.0
 37
0.0
 76
     0
330
1F
331
29
  0
MATERIAL
  5
3D
102
{ACAD_REACTORS
330
3B
102
}
330
3B
100
AcDbMaterial
  1
ByBlock
 72
     1
 94
      127
  0
MATERIAL
  5
3C
102
{ACAD_REACTORS
330
3B
102
}
330
3B
100
AcDbMaterial
  1
ByLayer
 72
     1
 94
      127
  0
MATERIAL
  5
3E
102
{ACAD_REACTORS
330
3B
102
}
330
3B
100
AcDbMaterial
  1
Global
 72
     1
 94
      127
  0
MLINESTYLE
  5
18
102
{ACAD_REACTORS
330
17
102
}
330
17
100
AcDbMlineStyle
  2
Standard
 70
     0
  3

 62
   256
 51
90.0
 52
90.0
 71
     2
 49
0.5
 62
   256
  6
BYLAYER
 49
-0.5
 62
   256
  6
BYLAYER
  0
ACDBPLACEHOLDER
  5
F
102
{ACAD_REACTORS
330
E
102
}
330
E
  0
VISUALSTYLE
  5
2F
102
{ACAD_REACTORS
330
2A
102
}
330
2A
100
AcDbVisualStyle
  2
2dWireframe
 70
     4
177
     2
291
     0
 71
     0
176
     1
 72
     2
176
     1
 73
     0
176
     1
 90
        0
176
     1
 40
-0.6
176
     1
 41
-30.0
176
     1
 62
     5
 63
     7
421
 16777215
176
     1
 74
     1
176
     1
 91
        4
176
     1
 64
     7
176
     1
 65
   257
176
     1
 75
     1
176
     1
175
     1
176
     1
 42
1.0
176
     1
 92
        0
176
     1
 66
   257
176
     1
 43
1.0
176
     1
 76
     1
176
     1
 77
     6
176
     1
 78
     2
176
     1
 67
     7
176
     1
 79
     5
176
     1
170
     0
176
     1
171
     0
176
     1
290
     0
176
     1
 93
        1
176
     1
 44
0.0
176
     1
173
     0
176
     1
  0
VISUALSTYLE
  5
31
102
{ACAD_REACTORS
330
2A
102
}
330
2A
100
AcDbVisualStyle
  2
3D Hidden
 70
     6
177
     2
291
     0
 71
     1
176
     1
 72
     2
176
     1
 73
     2
176
     1
 90
        0
176
     1
 40
-0.6
176
     1
 41
-30.0
176
     1
 62
     5
 63
     7
421
 16777215
176
     1
 74
     2
176
     1
 91
        2
176
     1
 64
     7
176
     1
 65
   257
176
     1
 75
     2
176
     1
175
     1
176
     1
 42
40.0
176
     1
 92
        0
176
     1
 66
   257
176
     1
 43
1.0
176
     1
 76
     1
176
     1
 77
     6
176
     1
 78
     2
176
     1
 67
     7
176
     1
 79
     3
176
     1
170
     0
176
     1
171
     0
176
     1
290
     0
176
     1
 93
        1
176
     1
 44
0.0
176
     1
173
     0
176
     1
  0
VISUALSTYLE
  5
30
102
{ACAD_REACTORS
330
2A
102
}
330
2A
100
AcDbVisualStyle
  2
3dWireframe
 70
     5
177
     2
291
     0
 71
     0
176
     1
 72
     2
176
     1
 73
     0
176
     1
 90
        0
176
     1
 40
-0.6
176
     1
 41
-30.0
176
     1
 62
     5
 63
     7
421
 16777215
176
     1
 74
     1
176
     1
 91
        4
176
     1
 64
     7
176
     1
 65
   257
176
     1
 75
     1
176
     1
175
     1
176
     1
 42
1.0
176
     1
 92
        0
176
     1
 66
   257
176
     1
 43
1.0
176
     1
 76
     1
176
     1
 77
     6
176
     1
 78
     2
176
     1
 67
     7
176
     1
 79
     5
176
     1
170
     0
176
     1
171
     0
176
     1
290
     0
176
     1
 93
        1
176
     1
 44
0.0
176
     1
173
     0
176
     1
  0
VISUALSTYLE
  5
32
102
{ACAD_REACTORS
330
2A
102
}
330
2A
100
AcDbVisualStyle
  2
Basic
 70
     7
177
     2
291
     1
 71
     1
176
     1
 72
     0
176
     1
 73
     1
176
     1
 90
        0
176
     1
 40
-0.6
176
     1
 41
-30.0
176
     1
 62
     5
 63
     7
421
 16777215
176
     1
 74
     0
176
     1
 91
        4
176
     1
 64
     7
176
     1
 65
   257
176
     1
 75
     1
176
     1
175
     1
176
     1
 42
1.0
176
     1
 92
        8
176
     1
 66
     7
176
     1
 43
1.0
176
     1
 76
     1
176
     1
 77
     6
176
     1
 78
     2
176
     1
 67
     7
176
     1
 79
     5
176
     1
170
     0
176
     1
171
     0
176
     1
290
     0
176
     1
 93
        1
176
     1
 44
0.0
176
     1
173
     0
176
     1
  0
VISUALSTYLE
  5
36
102
{ACAD_REACTORS
330
2A
102
}
330
2A
100
AcDbVisualStyle
  2
Brighten
 70
    12
177
     2
291
     1
 71
     2
176
     1
 72
     2
176
     1
 73
     0
176
     1
 90
        0
176
     1
 40
-0.6
176
     1
 41
-30.0
176
     1
 62
     5
 63
     7
421
 16777215
176
     1
 74
     1
176
     1
 91
        4
176
     1
 64
     7
176
     1
 65
   257
176
     1
 75
     1
176
     1
175
     1
176
     1
 42
1.0
176
     1
 92
        8
176
     1
 66
     7
176
     1
 43
1.0
176
     1
 76
     1
176
     1
 77
     6
176
     1
 78
     2
176
     1
 67
     7
176
     1
 79
     5
176
     1
170
     0
176
     1
171
     0
176
     1
290
     0
176
     1
 93
        1
176
     1
 44
50.0
176
     1
173
     0
176
     1
  0
VISUALSTYLE
  5
3A
102
{ACAD_REACTORS
330
2A
102
}
330
2A
100
AcDbVisualStyle
  2
ColorChange
 70
    16
177
     2
291
     1
 71
     2
176
     1
 72
     2
176
     1
 73
     3
176
     1
 90
        0
176
     1
 40
-0.6
176
     1
 41
-30.0
176
     1
 62
     5
 63
     8
421
  8421504
176
     1
 74
     1
176
     1
 91
        4
176
     1
 64
     7
176
     1
 65
   257
176
     1
 75
     1
176
     1
175
     1
176
     1
 42
1.0
176
     1
 92
        8
176
     1
 66
     8
424
  8421504
176
     1
 43
1.0
176
     1
 76
     1
176
     1
 77
     6
176
     1
 78
     2
176
     1
 67
     7
176
     1
 79
     5
176
     1
170
     0
176
     1
171
     0
176
     1
290
     0
176
     1
 93
        1
176
     1
 44
0.0
176
     1
173
     0
176
     1
  0
VISUALSTYLE
  5
34
102
{ACAD_REACTORS
330
2A
102
}
330
2A
100
AcDbVisualStyle
  2
Conceptual
 70
     9
177
     2
291
     0
 71
     3
176
     1
 72
     2
176
     1
 73
     0
176
     1
 90
        0
176
     1
 40
-0.6
176
     1
 41
-30.0
176
     1
 62
     5
 63
     7
421
 16777215
176
     1
 74
     2
176
     1
 91
        2
176
     1
 64
     7
176
     1
 65
   257
176
     1
 75
     1
176
     1
175
     1
176
     1
 42
40.0
176
     1
 92
        8
176
     1
 66
     7
176
     1
 43
1.0
176
     1
 76
     1
176
     1
 77
     6
176
     1
 78
     2
176
     1
 67
     7
176
     1
 79
     3
176
     1
170
     0
176
     1
171
     0
176
     1
290
     0
176
     1
 93
        1
176
     1
 44
0.0
176
     1
173
     0
176
     1
  0
VISUALSTYLE
  5
35
102
{ACAD_REACTORS
330
2A
102
}
330
2A
100
AcDbVisualStyle
  2
Dim
 70
    11
177
     2
291
     1
 71
     2
176
     1
 72
     2
176
     1
 73
     0
176
     1
 90
        0
176
     1
 40
-0.6
176
     1
 41
-30.0
176
     1
 62
     5
 63
     7
421
 16777215
176
     1
 74
     1
176
     1
 91
        4
176
     1
 64
     7
176
     1
 65
   257
176
     1
 75
     1
176
     1
175
     1
176
     1
 42
1.0
176
     1
 92
        8
176
     1
 66
     7
176
     1
 43
1.0
176
     1
 76
     1
176
     1
 77
     6
176
     1
 78
     2
176
     1
 67
     7
176
     1
 79
     5
176
     1
170
     0
176
     1
171
     0
176
     1
290
     0
176
     1
 93
        1
176
     1
 44
-50.0
176
     1
173
     0
176
     1
  0
VISUALSTYLE
  5
39
102
{ACAD_REACTORS
330
2A
102
}
330
2A
100
AcDbVisualStyle
  2
Facepattern
 70
    15
177
     2
291
     1
 71
     2
176
     1
 72
     2
176
     1
 73
     0
176
     1
 90
        0
176
     1
 40
-0.6
176
     1
 41
-30.0
176
     1
 62
     5
 63
     7
421
 16777215
176
     1
 74
     1
176
     1
 91
        4
176
     1
 64
     7
176
     1
 65
   257
176
     1
 75
     1
176
     1
175
     1
176
     1
 42
1.0
176
     1
 92
        8
176
     1
 66
     7
176
     1
 43
1.0
176
     1
 76
     1
176
     1
 77
     6
176
     1
 78
     2
176
     1
 67
     7
176
     1
 79
     5
176
     1
170
     0
176
     1
171
     0
176
     1
290
     0
176
     1
 93
        1
176
     1
 44
0.0
176
     1
173
     0
176
     1
  0
VISUALSTYLE
  5
2B
102
{ACAD_REACTORS
330
2A
102
}
330
2A
100
AcDbVisualStyle
  2
Flat
 70
     0
177
     2
291
     1
 71
     2
176
     1
 72
     1
176
     1
 73
     1
176
     1
 90
        2
176
     1
 40
-0.6
176
     1
 41
30.0
176
     1
 62
     5
 63
     7
421
 16777215
176
     1
 74
     0
176
     1
 91
        4
176
     1
 64
     7
176
     1
 65
   257
176
     1
 75
     1
176
     1
175
     1
176
     1
 42
1.0
176
     1
 92
        8
176
     1
 66
     7
176
     1
 43
1.0
176
     1
 76
     1
176
     1
 77
     6
176
     1
 78
     2
176
     1
 67
     7
176
     1
 79
     5
176
     1
170
     0
176
     1
171
     0
176
     1
290
     0
176
     1
 93
       13
176
     1
 44
0.0
176
     1
173
     0
176
     1
  0
VISUALSTYLE
  5
2C
102
{ACAD_REACTORS
330
2A
102
}
330
2A
100
AcDbVisualStyle
  2
FlatWithEdges
 70
     1
177
     2
291
     1
 71
     2
176
     1
 72
     1
176
     1
 73
     1
176
     1
 90
        2
176
     1
 40
-0.6
176
     1
 41
30.0
176
     1
 62
     5
 63
     7
421
 16777215
176
     1
 74
     1
176
     1
 91
        4
176
     1
 64
     7
176
     1
 65
   257
176
     1
 75
     1
176
     1
175
     1
176
     1
 42
1.0
176
     1
 92
        0
176
     1
 66
   257
176
     1
 43
1.0
176
     1
 76
     1
176
     1
 77
     6
176
     1
 78
     2
176
     1
 67
     7
176
     1
 79
     5
176
     1
170
     0
176
     1
171
     0
176
     1
290
     0
176
     1
 93
       13
176
     1
 44
0.0
176
     1
173
     0
176
     1
  0
VISUALSTYLE
  5
2D
102
{ACAD_REACTORS
330
2A
102
}
330
2A
100
AcDbVisualStyle
  2
Gouraud
 70
     2
177
     2
291
     1
 71
     2
176
     1
 72
     2
176
     1
 73
     1
176
     1
 90
        2
176
     1
 40
-0.6
176
     1
 41
30.0
176
     1
 62
     5
 63
     7
421
 16777215
176
     1
 74
     0
176
     1
 91
        4
176
     1
 64
     7
176
     1
 65
   257
176
     1
 75
     1
176
     1
175
     1
176
     1
 42
1.0
176
     1
 92
        0
176
     1
 66
     7
176
     1
 43
1.0
176
     1
 76
     1
176
     1
 77
     6
176
     1
 78
     2
176
     1
 67
     7
176
     1
 79
     5
176
     1
170
     0
176
     1
171
     0
176
     1
290
     0
176
     1
 93
       13
176
     1
 44
0.0
176
     1
173
     0
176
     1
  0
VISUALSTYLE
  5
2E
102
{ACAD_REACTORS
330
2A
102
}
330
2A
100
AcDbVisualStyle
  2
GouraudWithEdges
 70
     3
177
     2
291
     1
 71
     2
176
     1
 72
     2
176
     1
 73
     1
176
     1
 90
        2
176
     1
 40
-0.6
176
     1
 41
30.0
176
     1
 62
     5
 63
     7
421
 16777215
176
     1
 74
     1
176
     1
 91
        4
176
     1
 64
     7
176
     1
 65
   257
176
     1
 75
     1
176
     1
175
     1
176
     1
 42
1.0
176
     1
 92
        0
176
     1
 66
   257
176
     1
 43
1.0
176
     1
 76
     1
176
     1
 77
     6
176
     1
 78
     2
176
     1
 67
     7
176
     1
 79
     5
176
     1
170
     0
176
     1
171
     0
176
     1
290
     0
176
     1
 93
       13
176
     1
 44
0.0
176
     1
173
     0
176
     1
  0
VISUALSTYLE
  5
38
102
{ACAD_REACTORS
330
2A
102
}
330
2A
100
AcDbVisualStyle
  2
Linepattern
 70
    14
177
     2
291
     1
 71
     2
176
     1
 72
     2
176
     1
 73
     0
176
     1
 90
        0
176
     1
 40
-0.6
176
     1
 41
-30.0
176
     1
 62
     5
 63
     7
421
 16777215
176
     1
 74
     1
176
     1
 91
        4
176
     1
 64
     7
176
     1
 65
   257
176
     1
 75
     7
176
     1
175
     7
176
     1
 42
1.0
176
     1
 92
        8
176
     1
 66
     7
176
     1
 43
1.0
176
     1
 76
     1
176
     1
 77
     6
176
     1
 78
     2
176
     1
 67
     7
176
     1
 79
     5
176
     1
170
     0
176
     1
171
     0
176
     1
290
     0
176
     1
 93
        1
176
     1
 44
0.0
176
     1
173
     0
176
     1
  0
VISUALSTYLE
  5
33
102
{ACAD_REACTORS
330
2A
102
}
330
2A
100
AcDbVisualStyle
  2
Realistic
 70
     8
177
     2
291
     0
 71
     2
176
     1
 72
     2
176
     1
 73
     0
176
     1
 90
        0
176
     1
 40
-0.6
176
     1
 41
-30.0
176
     1
 62
     5
 63
     7
421
 16777215
176
     1
 74
     1
176
     1
 91
        0
176
     1
 64
     7
176
     1
 65
   257
176
     1
 75
     1
176
     1
175
     1
176
     1
 42
1.0
176
     1
 92
        8
176
     1
 66
     8
424
  7895160
176
     1
 43
1.0
176
     1
 76
     1
176
     1
 77
     6
176
     1
 78
     2
176
     1
 67
     7
176
     1
 79
     5
176
     1
170
     0
176
     1
171
     0
176
     1
290
     0
176
     1
 93
       13
176
     1
 44
0.0
176
     1
173
     0
176
     1
  0
VISUALSTYLE
  5
37
102
{ACAD_REACTORS
330
2A
102
}
330
2A
100
AcDbVisualStyle
  2
Thicken
 70
    13
177
     2
291
     1
 71
     2
176
     1
 72
     2
176
     1
 73
     0
176
     1
 90
        0
176
     1
 40
-0.6
176
     1
 41
-30.0
176
     1
 62
     5
 63
     7
421
 16777215
176
     1
 74
     1
176
     1
 91
        4
176
     1
 64
     7
176
     1
 65
   257
176
     1
 75
     1
176
     1
175
     1
176
     1
 42
1.0
176
     1
 92
       12
176
     1
 66
     7
176
     1
 43
1.0
176
     1
 76
     1
176
     1
 77
     6
176
     1
 78
     2
176
     1
 67
     7
176
     1
 79
     5
176
     1
170
     0
176
     1
171
     0
176
     1
290
     0
176
     1
 93
        1
176
     1
 44
0.0
176
     1
173
     0
176
     1
  0
ENDSEC
  0
EOF
