  0
SECTION
  2
HEADER
  9
$ACADVER
  1
AC1024
  9
$ACADMAINTVER
 70
     6
  9
$DWGCODEPAGE
  3
UNDEFINED
  9
$INSBASE
 10
0.0
 20
0.0
 30
0.0
  9
$EXTMIN
 10
1.000000000000000E+20
 20
1.000000000000000E+20
 30
1.000000000000000E+20
  9
$EXTMAX
 10
-1.000000000000000E+20
 20
-1.000000000000000E+20
 30
-1.000000000000000E+20
  9
$LIMMIN
 10
0.0
 20
0.0
  9
$LIMMAX
 10
12.0
 20
9.0
  9
$ORTHOMODE
 70
     0
  9
$REGENMODE
 70
     1
  9
$FILLMODE
 70
     1
  9
$QTEXTMODE
 70
     0
  9
$MIRRTEXT
 70
     1
  9
$LTSCALE
 40
1.0
  9
$ATTMODE
 70
     1
  9
$TEXTSIZE
 40
0.2
  9
$TRACEWID
 40
0.05
  9
$TEXTSTYLE
  7
Standard
  9
$CLAYER
  8
0
  9
$CELTYPE
  6
ByLayer
  9
$CECOLOR
 62
   256
  9
$CELTSCALE
 40
1.0
  9
$DISPSILH
 70
     0
  9
$DIMSCALE
 40
1.0
  9
$DIMASZ
 40
0.18
  9
$DIMEXO
 40
0.0625
  9
$DIMDLI
 40
0.38
  9
$DIMRND
 40
0.0
  9
$DIMDLE
 40
0.0
  9
$DIMEXE
 40
0.18
  9
$DIMTP
 40
0.0
  9
$DIMTM
 40
0.0
  9
$DIMTXT
 40
0.18
  9
$DIMCEN
 40
0.09
  9
$DIMTSZ
 40
0.0
  9
$DIMTOL
 70
     0
  9
$DIMLIM
 70
     0
  9
$DIMTIH
 70
     1
  9
$DIMTOH
 70
     1
  9
$DIMSE1
 70
     0
  9
$DIMSE2
 70
     0
  9
$DIMTAD
 70
     0
  9
$DIMZIN
 70
     0
  9
$DIMBLK
  1

  9
$DIMASO
 70
     1
  9
$DIMSHO
 70
     1
  9
$DIMPOST
  1

  9
$DIMAPOST
  1

  9
$DIMALT
 70
     0
  9
$DIMALTD
 70
     2
  9
$DIMALTF
 40
25.4
  9
$DIMLFAC
 40
1.0
  9
$DIMTOFL
 70
     0
  9
$DIMTVP
 40
0.0
  9
$DIMTIX
 70
     0
  9
$DIMSOXD
 70
     0
  9
$DIMSAH
 70
     0
  9
$DIMBLK1
  1

  9
$DIMBLK2
  1

  9
$DIMSTYLE
  2
Standard
  9
$DIMCLRD
 70
     0
  9
$DIMCLRE
 70
     0
  9
$DIMCLRT
 70
     0
  9
$DIMTFAC
 40
1.0
  9
$DIMGAP
 40
0.09
  9
$DIMJUST
 70
     0
  9
$DIMSD1
 70
     0
  9
$DIMSD2
 70
     0
  9
$DIMTOLJ
 70
     1
  9
$DIMTZIN
 70
     0
  9
$DIMALTZ
 70
     0
  9
$DIMALTTZ
 70
     0
  9
$DIMUPT
 70
     0
  9
$DIMDEC
 70
     4
  9
$DIMTDEC
 70
     4
  9
$DIMALTU
 70
     2
  9
$DIMALTTD
 70
     2
  9
$DIMTXSTY
  7
Standard
  9
$DIMAUNIT
 70
     0
  9
$DIMADEC
 70
     0
  9
$DIMALTRND
 40
0.0
  9
$DIMAZIN
 70
     0
  9
$DIMDSEP
 70
    46
  9
$DIMATFIT
 70
     3
  9
$DIMFRAC
 70
     0
  9
$DIMLDRBLK
  1

  9
$DIMLUNIT
 70
     2
  9
$DIMLWD
 70
    -2
  9
$DIMLWE
 70
    -2
  9
$DIMTMOVE
 70
     0
  9
$DIMFXL
 40
1.0
  9
$DIMFXLON
 70
     0
  9
$DIMJOGANG
 40
0.7853981633974483
  9
$DIMTFILL
 70
     0
  9
$DIMTFILLCLR
 70
     0
  9
$DIMARCSYM
 70
     0
  9
$DIMLTYPE
  6

  9
$DIMLTEX1
  6

  9
$DIMLTEX2
  6

  9
$DIMTXTDIRECTION
 70
     0
  9
$LUNITS
 70
     2
  9
$LUPREC
 70
     4
  9
$SKETCHINC
 40
0.1
  9
$FILLETRAD
 40
0.5
  9
$AUNITS
 70
     0
  9
$AUPREC
 70
     0
  9
$MENU
  1
.
  9
$ELEVATION
 40
0.0
  9
$PELEVATION
 40
0.0
  9
$THICKNESS
 40
0.0
  9
$LIMCHECK
 70
     0
  9
$CHAMFERA
 40
0.5
  9
$CHAMFERB
 40
0.5
  9
$CHAMFERC
 40
1.0
  9
$CHAMFERD
 40
0.0
  9
$SKPOLY
 70
     0
  9
$TDCREATE
 40
2458263.577222211
  9
$TDUCREATE
 40
2458263.202222222
  9
$TDUPDATE
 40
2458263.577222211
  9
$TDUUPDATE
 40
2458263.202222222
  9
$TDINDWG
 40
0.0000000116
  9
$TDUSRTIMER
 40
0.0000000116
  9
$USRTIMER
 70
     1
  9
$ANGBASE
 50
0.0
  9
$ANGDIR
 70
     0
  9
$PDMODE
 70
     0
  9
$PDSIZE
 40
0.0
  9
$PLINEWID
 40
0.0
  9
$SPLFRAME
 70
     0
  9
$SPLINETYPE
 70
     6
  9
$SPLINESEGS
 70
     8
  9
$HANDSEED
  5
F1
  9
$SURFTAB1
 70
     6
  9
$SURFTAB2
 70
     6
  9
$SURFTYPE
 70
     6
  9
$SURFU
 70
     6
  9
$SURFV
 70
     6
  9
$UCSBASE
  2

  9
$UCSNAME
  2

  9
$UCSORG
 10
0.0
 20
0.0
 30
0.0
  9
$UCSXDIR
 10
1.0
 20
0.0
 30
0.0
  9
$UCSYDIR
 10
0.0
 20
1.0
 30
0.0
  9
$UCSORTHOREF
  2

  9
$UCSORTHOVIEW
 70
     0
  9
$UCSORGTOP
 10
0.0
 20
0.0
 30
0.0
  9
$UCSORGBOTTOM
 10
0.0
 20
0.0
 30
0.0
  9
$UCSORGLEFT
 10
0.0
 20
0.0
 30
0.0
  9
$UCSORGRIGHT
 10
0.0
 20
0.0
 30
0.0
  9
$UCSORGFRONT
 10
0.0
 20
0.0
 30
0.0
  9
$UCSORGBACK
 10
0.0
 20
0.0
 30
0.0
  9
$PUCSBASE
  2

  9
$PUCSNAME
  2

  9
$PUCSORG
 10
0.0
 20
0.0
 30
0.0
  9
$PUCSXDIR
 10
1.0
 20
0.0
 30
0.0
  9
$PUCSYDIR
 10
0.0
 20
1.0
 30
0.0
  9
$PUCSORTHOREF
  2

  9
$PUCSORTHOVIEW
 70
     0
  9
$PUCSORGTOP
 10
0.0
 20
0.0
 30
0.0
  9
$PUCSORGBOTTOM
 10
0.0
 20
0.0
 30
0.0
  9
$PUCSORGLEFT
 10
0.0
 20
0.0
 30
0.0
  9
$PUCSORGRIGHT
 10
0.0
 20
0.0
 30
0.0
  9
$PUCSORGFRONT
 10
0.0
 20
0.0
 30
0.0
  9
$PUCSORGBACK
 10
0.0
 20
0.0
 30
0.0
  9
$USERI1
 70
     0
  9
$USERI2
 70
     0
  9
$USERI3
 70
     0
  9
$USERI4
 70
     0
  9
$USERI5
 70
     0
  9
$USERR1
 40
0.0
  9
$USERR2
 40
0.0
  9
$USERR3
 40
0.0
  9
$USERR4
 40
0.0
  9
$USERR5
 40
0.0
  9
$WORLDVIEW
 70
     1
  9
$SHADEDGE
 70
     3
  9
$SHADEDIF
 70
    70
  9
$TILEMODE
 70
     1
  9
$MAXACTVP
 70
    64
  9
$PINSBASE
 10
0.0
 20
0.0
 30
0.0
  9
$PLIMCHECK
 70
     0
  9
$PEXTMIN
 10
1.000000000000000E+20
 20
1.000000000000000E+20
 30
1.000000000000000E+20
  9
$PEXTMAX
 10
-1.000000000000000E+20
 20
-1.000000000000000E+20
 30
-1.000000000000000E+20
  9
$PLIMMIN
 10
0.0
 20
0.0
  9
$PLIMMAX
 10
12.0
 20
9.0
  9
$UNITMODE
 70
     0
  9
$VISRETAIN
 70
     1
  9
$PLINEGEN
 70
     0
  9
$PSLTSCALE
 70
     1
  9
$TREEDEPTH
 70
  3020
  9
$CMLSTYLE
  2
Standard
  9
$CMLJUST
 70
     0
  9
$CMLSCALE
 40
1.0
  9
$PROXYGRAPHICS
 70
     1
  9
$MEASUREMENT
 70
     0
  9
$CELWEIGHT
370
    -1
  9
$ENDCAPS
280
     0
  9
$JOINSTYLE
280
     0
  9
$LWDISPLAY
290
     1
  9
$INSUNITS
 70
     1
  9
$HYPERLINKBASE
  1

  9
$STYLESHEET
  1

  9
$XEDIT
290
     1
  9
$CEPSNTYPE
380
     0
  9
$PSTYLEMODE
290
     1
  9
$FINGERPRINTGUID
  2
{BF875C12-C92B-D9F9-70AA-D2B8622AA92A}
  9
$VERSIONGUID
  2
{FAEB1C32-E019-11D5-929B-00C0DF256EC4}
  9
$EXTNAMES
290
     1
  9
$PSVPSCALE
 40
0.0
  9
$OLESTARTUP
290
     0
  9
$SORTENTS
280
   127
  9
$INDEXCTL
280
     0
  9
$HIDETEXT
280
     1
  9
$XCLIPFRAME
280
     2
  9
$HALOGAP
280
     0
  9
$OBSCOLOR
 70
   257
  9
$OBSLTYPE
280
     0
  9
$INTERSECTIONDISPLAY
280
     0
  9
$INTERSECTIONCOLOR
 70
   257
  9
$DIMASSOC
280
     2
  9
$PROJECTNAME
  1

  9
$CAMERADISPLAY
290
     0
  9
$LENSLENGTH
 40
50.0
  9
$CAMERAHEIGHT
 40
0.0
  9
$STEPSPERSEC
 40
2.0
  9
$STEPSIZE
 40
6.0
  9
$3DDWFPREC
 40
2.0
  9
$PSOLWIDTH
 40
0.25
  9
$PSOLHEIGHT
 40
4.0
  9
$LOFTANG1
 40
1.570796326794897
  9
$LOFTANG2
 40
1.570796326794897
  9
$LOFTMAG1
 40
0.0
  9
$LOFTMAG2
 40
0.0
  9
$LOFTPARAM
 70
     7
  9
$LOFTNORMALS
280
     1
  9
$LATITUDE
 40
37.795
  9
$LONGITUDE
 40
-122.394
  9
$NORTHDIRECTION
 40
0.0
  9
$TIMEZONE
 70
 -8000
  9
$LIGHTGLYPHDISPLAY
280
     1
  9
$TILEMODELIGHTSYNCH
280
     1
  9
$CMATERIAL
347
3C
  9
$SOLIDHIST
280
     1
  9
$SHOWHIST
280
     1
  9
$DWFFRAME
280
     2
  9
$DGNFRAME
280
     2
  9
$REALWORLDSCALE
290
     1
  9
$INTERFERECOLOR
 62
   256
  9
$CSHADOW
280
     0
  9
$SHADOWPLANELOCATION
 40
0.0
  0
ENDSEC
  0
SECTION
  2
CLASSES
  0
CLASS
  1
ACDBDICTIONARYWDFLT
  2
AcDbDictionaryWithDefault
  3
ObjectDBX Classes
 90
        0
 91
        4
280
     0
281
     0
  0
CLASS
  1
VISUALSTYLE
  2
AcDbVisualStyle
  3
ObjectDBX Classes
 90
     4095
 91
        4
280
     0
281
     0
  0
CLASS
  1
MATERIAL
  2
AcDbMaterial
  3
ObjectDBX Classes
 90
     1153
 91
        4
280
     0
281
     0
  0
CLASS
  1
SUN
  2
AcDbSun
  3
SCENEOE
 90
     1024
 91
        4
280
     0
281
     0
  0
ENDSEC
  0
SECTION
  2
TABLES
  0
TABLE
  2
VPORT
  5
8
330
0
100
AcDbSymbolTable
 70
     1
  0
VPORT
  5
29
330
8
100
AcDbSymbolTableRecord
100
AcDbViewportTableRecord
  2
*Active
 70
     0
 10
0.0
 20
0.0
 11
1.0
 21
1.0
 12
0.0
 22
0.0
 13
0.0
 23
0.0
 14
0.5
 24
0.5
 15
0.5
 25
0.5
 16
0.0
 26
0.0
 36
1.0
 17
105.0007777515277
 27
-148.5000416295416
 37
0.0
 40
297.0000832590831
 41
0.7070757462376333
 42
50.0
 43
0.0
 44
0.0
 50
0.0
 51
0.0
 71
     0
 72
   100
 73
     1
 74
     3
 75
     0
 76
     0
 77
     0
 78
     0
281
     0
 65
     1
110
0.0
120
0.0
130
0.0
111
1.0
121
0.0
131
0.0
112
0.0
122
1.0
132
0.0
 79
     0
146
0.0
 60
     3
 61
     5
292
     1
282
     1
141
0.0
142
0.0
 63
   250
361
3F
  0
ENDTAB
  0
TABLE
  2
LTYPE
  5
5
330
0
100
AcDbSymbolTable
 70
     1
  0
LTYPE
  5
14
330
5
100
AcDbSymbolTableRecord
100
AcDbLinetypeTableRecord
  2
ByBlock
 70
     0
  3

 72
    65
 73
     0
 40
0.0
  0
LTYPE
  5
15
330
5
100
AcDbSymbolTableRecord
100
AcDbLinetypeTableRecord
  2
ByLayer
 70
     0
  3

 72
    65
 73
     0
 40
0.0
  0
LTYPE
  5
16
330
5
100
AcDbSymbolTableRecord
100
AcDbLinetypeTableRecord
  2
Continuous
 70
     0
  3
Solid line
 72
    65
 73
     0
 40
0.0
  0
ENDTAB
  0
TABLE
  2
LAYER
  5
2
330
0
100
AcDbSymbolTable
 70
     2
  0
LAYER
  5
10
330
2
100
AcDbSymbolTableRecord
100
AcDbLayerTableRecord
  2
0
 70
     0
 62
     7
  6
Continuous
370
    -3
390
F
347
3E
  0
LAYER
  5
40
330
2
100
AcDbSymbolTableRecord
100
AcDbLayerTableRecord
  2
_U+30EC_U+30A4_U+30E4_U+30FC 1
 70
     0
 62
     7
  6
Continuous
370
    -3
390
F
347
3E
  0
ENDTAB
  0
TABLE
  2
STYLE
  5
3
330
0
100
AcDbSymbolTable
 70
     1
  0
STYLE
  5
11
330
3
100
AcDbSymbolTableRecord
100
AcDbTextStyleTableRecord
  2
Standard
 70
     0
 40
0.0
 41
1.0
 50
0.0
 71
     0
 42
0.2
  3
txt
  4

  0
ENDTAB
  0
TABLE
  2
VIEW
  5
6
330
0
100
AcDbSymbolTable
 70
     0
  0
ENDTAB
  0
TABLE
  2
UCS
  5
7
330
0
100
AcDbSymbolTable
 70
     0
  0
ENDTAB
  0
TABLE
  2
APPID
  5
9
330
0
100
AcDbSymbolTable
 70
     1
  0
APPID
  5
12
330
9
100
AcDbSymbolTableRecord
100
AcDbRegAppTableRecord
  2
ACAD
 70
     0
  0
ENDTAB
  0
TABLE
  2
DIMSTYLE
  5
A
330
0
100
AcDbSymbolTable
 70
     1
100
AcDbDimStyleTable
  0
DIMSTYLE
105
27
330
A
100
AcDbSymbolTableRecord
100
AcDbDimStyleTableRecord
  2
Standard
 70
     0
178
     0
340
11
  0
ENDTAB
  0
TABLE
  2
BLOCK_RECORD
  5
1
330
0
100
AcDbSymbolTable
 70
     6
  0
BLOCK_RECORD
  5
1F
330
1
100
AcDbSymbolTableRecord
100
AcDbBlockTableRecord
  2
*Model_Space
340
22
 70
     0
280
     1
281
     0
  0
BLOCK_RECORD
  5
1B
330
1
100
AcDbSymbolTableRecord
100
AcDbBlockTableRecord
  2
*Paper_Space
340
1E
 70
     0
280
     1
281
     0
  0
BLOCK_RECORD
  5
23
330
1
100
AcDbSymbolTableRecord
100
AcDbBlockTableRecord
  2
*Paper_Space0
340
26
 70
     0
280
     1
281
     0
  0
BLOCK_RECORD
  5
89
330
1
100
AcDbSymbolTableRecord
100
AcDbBlockTableRecord
  2
block 2
340
0
102
{BLKREFS
331
8A
102
}
 70
     0
280
     1
281
     0
  0
BLOCK_RECORD
  5
A4
330
1
100
AcDbSymbolTableRecord
100
AcDbBlockTableRecord
  2
block 3
340
0
102
{BLKREFS
331
A5
102
}
 70
     0
280
     1
281
     0
  0
BLOCK_RECORD
  5
B6
330
1
100
AcDbSymbolTableRecord
100
AcDbBlockTableRecord
  2
block 4
340
0
102
{BLKREFS
331
B7
102
}
 70
     0
280
     1
281
     0
  0
BLOCK_RECORD
  5
CA
330
1
100
AcDbSymbolTableRecord
100
AcDbBlockTableRecord
  2
block 5
340
0
102
{BLKREFS
331
CB
102
}
 70
     0
280
     1
281
     0
  0
BLOCK_RECORD
  5
DD
330
1
100
AcDbSymbolTableRecord
100
AcDbBlockTableRecord
  2
block 6
340
0
102
{BLKREFS
331
DE
102
}
 70
     0
280
     1
281
     0
  0
ENDTAB
  0
ENDSEC
  0
SECTION
  2
BLOCKS
  0
BLOCK
  5
20
330
1F
100
AcDbEntity
  8
0
100
AcDbBlockBegin
  2
*Model_Space
 70
     0
 10
0.0
 20
0.0
 30
0.0
  3
*Model_Space
  1

  0
ENDBLK
  5
21
330
1F
100
AcDbEntity
  8
0
100
AcDbBlockEnd
  0
BLOCK
  5
1C
330
1B
100
AcDbEntity
 67
     1
  8
0
100
AcDbBlockBegin
  2
*Paper_Space
 70
     0
 10
0.0
 20
0.0
 30
0.0
  3
*Paper_Space
  1

  0
ENDBLK
  5
1D
330
1B
100
AcDbEntity
 67
     1
  8
0
100
AcDbBlockEnd
  0
BLOCK
  5
24
330
23
100
AcDbEntity
  8
0
100
AcDbBlockBegin
  2
*Paper_Space0
 70
     0
 10
0.0
 20
0.0
 30
0.0
  3
*Paper_Space0
  1

  0
ENDBLK
  5
25
330
23
100
AcDbEntity
  8
0
100
AcDbBlockEnd
  0
BLOCK
  5
8B
330
89
100
AcDbEntity
  8
0
100
AcDbBlockBegin
  2
block 2
 70
     0
 10
0.0
 20
0.0
 30
0.0
  3
block 2
  1

  0
SPLINE
  5
8D
330
89
100
AcDbEntity
  8
_U+30EC_U+30A4_U+30E4_U+30FC 1
370
     0
100
AcDbSpline
210
0.0
220
0.0
230
1.0
 70
    11
 71
     3
 72
    29
 73
    25
 74
     0
 42
0.0000000001
 43
0.0000000001
 12
1.0
 22
0.0
 32
0.0
 13
1.0
 23
0.0
 33
0.0
 40
0.0
 40
0.0
 40
0.0
 40
0.0
 40
1.0
 40
1.0
 40
1.0
 40
2.0
 40
2.0
 40
2.0
 40
3.0
 40
3.0
 40
3.0
 40
4.0
 40
4.0
 40
4.0
 40
5.0
 40
5.0
 40
5.0
 40
6.0
 40
6.0
 40
6.0
 40
7.0
 40
7.0
 40
7.0
 40
8.0
 40
8.0
 40
8.0
 40
8.0
 10
115.7131781394745
 20
-141.5500162406542
 30
0.0
 10
115.9226399449777
 20
-141.66542693941
 30
0.0
 10
115.9419324796951
 20
-141.8507730765165
 30
0.0
 10
115.9419324796951
 20
-141.975141023534
 30
0.0
 10
115.9419324796951
 20
-142.1467067786994
 30
0.0
 10
115.8950791810957
 20
-142.2982909800504
 30
0.0
 10
115.7131781394745
 20
-142.3999212968653
 30
0.0
 10
115.5188747541064
 20
-142.5108533714904
 30
0.0
 10
115.2818521847212
 20
-142.5311794348533
 30
0.0
 10
115.1185546587204
 20
-142.5311794348533
 30
0.0
 10
114.9748941769854
 20
-142.5311794348533
 30
0.0
 10
114.7230576970137
 20
-142.51326493833
 30
0.0
 10
114.5242756875148
 20
-142.3999212968653
 30
0.0
 10
114.3213595634336
 20
-142.284855107658
 30
0.0
 10
114.2979329141339
 20
-142.112944842944
 30
0.0
 10
114.2979329141339
 20
-141.975141023534
 30
0.0
 10
114.2979329141339
 20
-141.8052978161112
 30
0.0
 10
114.3423746458936
 20
-141.651646557469
 30
0.0
 10
114.5242756875148
 20
-141.5500162406542
 30
0.0
 10
114.7168565251402
 20
-141.4435627901599
 30
0.0
 10
114.9452663558123
 20
-141.4187581026661
 30
0.0
 10
115.1185546587204
 20
-141.4187581026661
 30
0.0
 10
115.2901204138858
 20
-141.4187581026661
 30
0.0
 10
115.5209418113975
 20
-141.4414957328688
 30
0.0
 10
115.7131781394745
 20
-141.5500162406542
 30
0.0
  0
SPLINE
  5
8E
330
89
100
AcDbEntity
  8
_U+30EC_U+30A4_U+30E4_U+30FC 1
370
     0
100
AcDbSpline
210
0.0
220
0.0
230
1.0
 70
    11
 71
     3
 72
    17
 73
    13
 74
     0
 42
0.0000000001
 43
0.0000000001
 12
1.0
 22
0.0
 32
0.0
 13
1.0
 23
0.0
 33
0.0
 40
0.0
 40
0.0
 40
0.0
 40
0.0
 40
1.0
 40
1.0
 40
1.0
 40
2.0
 40
2.0
 40
2.0
 40
3.0
 40
3.0
 40
3.0
 40
4.0
 40
4.0
 40
4.0
 40
4.0
 10
114.4905137517593
 20
-141.975141023534
 30
0.0
 10
114.4905137517593
 20
-142.2417914140923
 30
0.0
 10
114.7740451101954
 20
-142.2914007890799
 30
0.0
 10
115.1185546587204
 20
-142.2914007890799
 30
0.0
 10
115.4382595197516
 20
-142.2914007890799
 30
0.0
 10
115.7469400752299
 20
-142.2531602291937
 30
0.0
 10
115.7469400752299
 20
-141.975141023534
 30
0.0
 10
115.7469400752299
 20
-141.7105576902668
 30
0.0
 10
115.4658202836335
 20
-141.6585367484395
 30
0.0
 10
115.1185546587204
 20
-141.6585367484395
 30
0.0
 10
114.7995388167862
 20
-141.6585367484395
 30
0.0
 10
114.4905137517593
 20
-141.6991888751655
 30
0.0
 10
114.4905137517593
 20
-141.975141023534
 30
0.0
  0
HATCH
  5
8F
330
89
100
AcDbEntity
  8
_U+30EC_U+30A4_U+30E4_U+30FC 1
 62
   179
420
  2234388
100
AcDbHatch
 10
0.0
 20
0.0
 30
0.0
210
0.0
220
0.0
230
1.0
  2
SOLID
 70
     1
 71
     0
 91
        2
 92
        1
 93
        1
 72
     4
 94
        3
 73
     0
 74
     1
 95
       29
 96
       25
 40
0.0
 40
0.0
 40
0.0
 40
0.0
 40
1.0
 40
1.0
 40
1.0
 40
2.0
 40
2.0
 40
2.0
 40
3.0
 40
3.0
 40
3.0
 40
4.0
 40
4.0
 40
4.0
 40
5.0
 40
5.0
 40
5.0
 40
6.0
 40
6.0
 40
6.0
 40
7.0
 40
7.0
 40
7.0
 40
8.0
 40
8.0
 40
8.0
 40
8.0
 10
115.7131781394745
 20
-141.5500162406542
 10
115.9226399449777
 20
-141.66542693941
 10
115.9419324796951
 20
-141.8507730765165
 10
115.9419324796951
 20
-141.975141023534
 10
115.9419324796951
 20
-142.1467067786994
 10
115.8950791810957
 20
-142.2982909800504
 10
115.7131781394745
 20
-142.3999212968653
 10
115.5188747541064
 20
-142.5108533714904
 10
115.2818521847212
 20
-142.5311794348533
 10
115.1185546587204
 20
-142.5311794348533
 10
114.9748941769854
 20
-142.5311794348533
 10
114.7230576970137
 20
-142.51326493833
 10
114.5242756875148
 20
-142.3999212968653
 10
114.3213595634336
 20
-142.284855107658
 10
114.2979329141339
 20
-142.112944842944
 10
114.2979329141339
 20
-141.975141023534
 10
114.2979329141339
 20
-141.8052978161112
 10
114.3423746458936
 20
-141.651646557469
 10
114.5242756875148
 20
-141.5500162406542
 10
114.7168565251402
 20
-141.4435627901599
 10
114.9452663558123
 20
-141.4187581026661
 10
115.1185546587204
 20
-141.4187581026661
 10
115.2901204138858
 20
-141.4187581026661
 10
115.5209418113975
 20
-141.4414957328688
 10
115.7131781394745
 20
-141.5500162406542
 97
        0
 97
        0
 92
        1
 93
        1
 72
     4
 94
        3
 73
     0
 74
     1
 95
       17
 96
       13
 40
0.0
 40
0.0
 40
0.0
 40
0.0
 40
1.0
 40
1.0
 40
1.0
 40
2.0
 40
2.0
 40
2.0
 40
3.0
 40
3.0
 40
3.0
 40
4.0
 40
4.0
 40
4.0
 40
4.0
 10
114.4905137517593
 20
-141.975141023534
 10
114.4905137517593
 20
-142.2417914140923
 10
114.7740451101954
 20
-142.2914007890799
 10
115.1185546587204
 20
-142.2914007890799
 10
115.4382595197516
 20
-142.2914007890799
 10
115.7469400752299
 20
-142.2531602291937
 10
115.7469400752299
 20
-141.975141023534
 10
115.7469400752299
 20
-141.7105576902668
 10
115.4658202836335
 20
-141.6585367484395
 10
115.1185546587204
 20
-141.6585367484395
 10
114.7995388167862
 20
-141.6585367484395
 10
114.4905137517593
 20
-141.6991888751655
 10
114.4905137517593
 20
-141.975141023534
 97
        0
 97
        0
 75
     2
 76
     1
 98
        0
  0
POLYLINE
  5
90
330
89
100
AcDbEntity
  8
_U+30EC_U+30A4_U+30E4_U+30FC 1
370
     0
100
AcDb2dPolyline
 66
     1
 10
0.0
 20
0.0
 30
0.0
  0
VERTEX
  5
91
330
90
100
AcDbEntity
  8
_U+30EC_U+30A4_U+30E4_U+30FC 1
370
     0
100
AcDbVertex
100
AcDb2dVertex
 10
115.8909450665134
 20
-141.1875921956059
 30
0.0
  0
VERTEX
  5
92
330
90
100
AcDbEntity
  8
_U+30EC_U+30A4_U+30E4_U+30FC 1
370
     0
100
AcDbVertex
100
AcDb2dVertex
 10
115.6394530960901
 20
-141.1875921956059
 30
0.0
  0
VERTEX
  5
93
330
90
100
AcDbEntity
  8
_U+30EC_U+30A4_U+30E4_U+30FC 1
370
     0
100
AcDbVertex
100
AcDb2dVertex
 10
115.6394530960901
 20
-140.9185302382079
 30
0.0
  0
VERTEX
  5
94
330
90
100
AcDbEntity
  8
_U+30EC_U+30A4_U+30E4_U+30FC 1
370
     0
100
AcDbVertex
100
AcDb2dVertex
 10
115.8909450665134
 20
-140.9185302382079
 30
0.0
  0
VERTEX
  5
95
330
90
100
AcDbEntity
  8
_U+30EC_U+30A4_U+30E4_U+30FC 1
370
     0
100
AcDbVertex
100
AcDb2dVertex
 10
115.8909450665134
 20
-141.1875921956059
 30
0.0
  0
SEQEND
  5
96
330
90
100
AcDbEntity
  8
_U+30EC_U+30A4_U+30E4_U+30FC 1
370
     0
  0
HATCH
  5
97
330
89
100
AcDbEntity
  8
_U+30EC_U+30A4_U+30E4_U+30FC 1
 62
   179
420
  2234388
100
AcDbHatch
 10
0.0
 20
0.0
 30
0.0
210
0.0
220
0.0
230
1.0
  2
SOLID
 70
     1
 71
     0
 91
        1
 92
        1
 93
        4
 72
     1
 10
115.8909450665134
 20
-141.1875921956059
 11
115.6394530960901
 21
-141.1875921956059
 72
     1
 10
115.6394530960901
 20
-141.1875921956059
 11
115.6394530960901
 21
-140.9185302382079
 72
     1
 10
115.6394530960901
 20
-140.9185302382079
 11
115.8909450665134
 21
-140.9185302382079
 72
     1
 10
115.8909450665134
 20
-140.9185302382079
 11
115.8909450665134
 21
-141.1875921956059
 97
        0
 75
     2
 76
     1
 98
        0
  0
SPLINE
  5
98
330
89
100
AcDbEntity
  8
_U+30EC_U+30A4_U+30E4_U+30FC 1
370
     0
100
AcDbSpline
210
0.0
220
0.0
230
1.0
 70
    11
 71
     3
 72
    29
 73
    25
 74
     0
 42
0.0000000001
 43
0.0000000001
 12
1.0
 22
0.0
 32
0.0
 13
1.0
 23
0.0
 33
0.0
 40
0.0
 40
0.0
 40
0.0
 40
0.0
 40
1.0
 40
1.0
 40
1.0
 40
2.0
 40
2.0
 40
2.0
 40
3.0
 40
3.0
 40
3.0
 40
4.0
 40
4.0
 40
4.0
 40
5.0
 40
5.0
 40
5.0
 40
6.0
 40
6.0
 40
6.0
 40
7.0
 40
7.0
 40
7.0
 40
8.0
 40
8.0
 40
8.0
 40
8.0
 10
115.9419324796951
 20
-140.1313259198283
 30
0.0
 10
115.9419324796951
 20
-140.4158908069099
 30
0.0
 10
115.8041286602851
 20
-140.6873643311476
 30
0.0
 10
115.4551404876293
 20
-140.6873643311476
 30
0.0
 10
115.1991698930752
 20
-140.6873643311476
 30
0.0
 10
115.1040852576823
 20
-140.5357801297966
 30
0.0
 10
115.0427625580449
 20
-140.4227809978804
 30
0.0
 10
114.9835069156986
 20
-140.5561061931596
 30
0.0
 10
114.8691297455883
 20
-140.63775495616
 30
0.0
 10
114.7085882959756
 20
-140.63775495616
 30
0.0
 10
114.4333251667042
 20
-140.63775495616
 30
0.0
 10
114.2979329141339
 20
-140.4251925647201
 30
0.0
 10
114.2979329141339
 20
-140.1313259198283
 30
0.0
 10
114.2979329141339
 20
-139.8281575171263
 30
0.0
 10
114.4419379054173
 20
-139.6248968834965
 30
0.0
 10
114.7085882959756
 20
-139.6248968834965
 30
0.0
 10
114.8691297455883
 20
-139.6248968834965
 30
0.0
 10
114.9835069156986
 20
-139.7082681942396
 30
0.0
 10
115.0427625580449
 20
-139.8419378990673
 30
0.0
 10
115.093405461678
 20
-139.7468532636744
 30
0.0
 10
115.1888346066195
 20
-139.5773545658001
 30
0.0
 10
115.4506618634985
 20
-139.5773545658001
 30
0.0
 10
115.8254882522936
 20
-139.5773545658001
 30
0.0
 10
115.9419324796951
 20
-139.8756998348227
 30
0.0
 10
115.9419324796951
 20
-140.1313259198283
 30
0.0
  0
SPLINE
  5
99
330
89
100
AcDbEntity
  8
_U+30EC_U+30A4_U+30E4_U+30FC 1
370
     0
100
AcDbSpline
210
0.0
220
0.0
230
1.0
 70
    11
 71
     3
 72
    17
 73
    13
 74
     0
 42
0.0000000001
 43
0.0000000001
 12
1.0
 22
0.0
 32
0.0
 13
1.0
 23
0.0
 33
0.0
 40
0.0
 40
0.0
 40
0.0
 40
0.0
 40
1.0
 40
1.0
 40
1.0
 40
2.0
 40
2.0
 40
2.0
 40
3.0
 40
3.0
 40
3.0
 40
4.0
 40
4.0
 40
4.0
 40
4.0
 10
114.4905137517593
 20
-140.1313259198283
 30
0.0
 10
114.4905137517593
 20
-140.3077148086731
 30
0.0
 10
114.5855983871522
 20
-140.3979763103866
 30
0.0
 10
114.7209906397225
 20
-140.3979763103866
 30
0.0
 10
114.8436360389974
 20
-140.3979763103866
 30
0.0
 10
114.96214732369
 20
-140.3211506810655
 30
0.0
 10
114.96214732369
 20
-140.1313259198283
 30
0.0
 10
114.96214732369
 20
-139.9411566490425
 30
0.0
 10
114.8436360389974
 20
-139.8643310197214
 30
0.0
 10
114.7209906397225
 20
-139.8643310197214
 30
0.0
 10
114.5855983871522
 20
-139.8643310197214
 30
0.0
 10
114.4905137517593
 20
-139.9570040882747
 30
0.0
 10
114.4905137517593
 20
-140.1313259198283
 30
0.0
  0
SPLINE
  5
9A
330
89
100
AcDbEntity
  8
_U+30EC_U+30A4_U+30E4_U+30FC 1
370
     0
100
AcDbSpline
210
0.0
220
0.0
230
1.0
 70
    11
 71
     3
 72
    17
 73
    13
 74
     0
 42
0.0000000001
 43
0.0000000001
 12
1.0
 22
0.0
 32
0.0
 13
1.0
 23
0.0
 33
0.0
 40
0.0
 40
0.0
 40
0.0
 40
0.0
 40
1.0
 40
1.0
 40
1.0
 40
2.0
 40
2.0
 40
2.0
 40
3.0
 40
3.0
 40
3.0
 40
4.0
 40
4.0
 40
4.0
 40
4.0
 10
115.1505940467332
 20
-140.1313259198283
 30
0.0
 10
115.1505940467332
 20
-140.2849771784704
 30
0.0
 10
115.237065943413
 20
-140.4475856853742
 30
0.0
 10
115.4403265770427
 20
-140.4475856853742
 30
0.0
 10
115.6456542679636
 20
-140.4475856853742
 30
0.0
 10
115.7469400752299
 20
-140.3121934328039
 30
0.0
 10
115.7469400752299
 20
-140.1313259198283
 30
0.0
 10
115.7469400752299
 20
-139.9321994007808
 30
0.0
 10
115.624294675955
 20
-139.8147216447338
 30
0.0
 10
115.4465277489162
 20
-139.8147216447338
 30
0.0
 10
115.2246635996661
 20
-139.8147216447338
 30
0.0
 10
115.1505940467332
 20
-139.988698966739
 30
0.0
 10
115.1505940467332
 20
-140.1313259198283
 30
0.0
  0
HATCH
  5
9B
330
89
100
AcDbEntity
  8
_U+30EC_U+30A4_U+30E4_U+30FC 1
 62
   179
420
  2234388
100
AcDbHatch
 10
0.0
 20
0.0
 30
0.0
210
0.0
220
0.0
230
1.0
  2
SOLID
 70
     1
 71
     0
 91
        3
 92
        1
 93
        1
 72
     4
 94
        3
 73
     0
 74
     1
 95
       29
 96
       25
 40
0.0
 40
0.0
 40
0.0
 40
0.0
 40
1.0
 40
1.0
 40
1.0
 40
2.0
 40
2.0
 40
2.0
 40
3.0
 40
3.0
 40
3.0
 40
4.0
 40
4.0
 40
4.0
 40
5.0
 40
5.0
 40
5.0
 40
6.0
 40
6.0
 40
6.0
 40
7.0
 40
7.0
 40
7.0
 40
8.0
 40
8.0
 40
8.0
 40
8.0
 10
115.9419324796951
 20
-140.1313259198283
 10
115.9419324796951
 20
-140.4158908069099
 10
115.8041286602851
 20
-140.6873643311476
 10
115.4551404876293
 20
-140.6873643311476
 10
115.1991698930752
 20
-140.6873643311476
 10
115.1040852576823
 20
-140.5357801297966
 10
115.0427625580449
 20
-140.4227809978804
 10
114.9835069156986
 20
-140.5561061931596
 10
114.8691297455883
 20
-140.63775495616
 10
114.7085882959756
 20
-140.63775495616
 10
114.4333251667042
 20
-140.63775495616
 10
114.2979329141339
 20
-140.4251925647201
 10
114.2979329141339
 20
-140.1313259198283
 10
114.2979329141339
 20
-139.8281575171263
 10
114.4419379054173
 20
-139.6248968834965
 10
114.7085882959756
 20
-139.6248968834965
 10
114.8691297455883
 20
-139.6248968834965
 10
114.9835069156986
 20
-139.7082681942396
 10
115.0427625580449
 20
-139.8419378990673
 10
115.093405461678
 20
-139.7468532636744
 10
115.1888346066195
 20
-139.5773545658001
 10
115.4506618634985
 20
-139.5773545658001
 10
115.8254882522936
 20
-139.5773545658001
 10
115.9419324796951
 20
-139.8756998348227
 10
115.9419324796951
 20
-140.1313259198283
 97
        0
 97
        0
 92
        1
 93
        1
 72
     4
 94
        3
 73
     0
 74
     1
 95
       17
 96
       13
 40
0.0
 40
0.0
 40
0.0
 40
0.0
 40
1.0
 40
1.0
 40
1.0
 40
2.0
 40
2.0
 40
2.0
 40
3.0
 40
3.0
 40
3.0
 40
4.0
 40
4.0
 40
4.0
 40
4.0
 10
114.4905137517593
 20
-140.1313259198283
 10
114.4905137517593
 20
-140.3077148086731
 10
114.5855983871522
 20
-140.3979763103866
 10
114.7209906397225
 20
-140.3979763103866
 10
114.8436360389974
 20
-140.3979763103866
 10
114.96214732369
 20
-140.3211506810655
 10
114.96214732369
 20
-140.1313259198283
 10
114.96214732369
 20
-139.9411566490425
 10
114.8436360389974
 20
-139.8643310197214
 10
114.7209906397225
 20
-139.8643310197214
 10
114.5855983871522
 20
-139.8643310197214
 10
114.4905137517593
 20
-139.9570040882747
 10
114.4905137517593
 20
-140.1313259198283
 97
        0
 97
        0
 92
        1
 93
        1
 72
     4
 94
        3
 73
     0
 74
     1
 95
       17
 96
       13
 40
0.0
 40
0.0
 40
0.0
 40
0.0
 40
1.0
 40
1.0
 40
1.0
 40
2.0
 40
2.0
 40
2.0
 40
3.0
 40
3.0
 40
3.0
 40
4.0
 40
4.0
 40
4.0
 40
4.0
 10
115.1505940467332
 20
-140.1313259198283
 10
115.1505940467332
 20
-140.2849771784704
 10
115.237065943413
 20
-140.4475856853742
 10
115.4403265770427
 20
-140.4475856853742
 10
115.6456542679636
 20
-140.4475856853742
 10
115.7469400752299
 20
-140.3121934328039
 10
115.7469400752299
 20
-140.1313259198283
 10
115.7469400752299
 20
-139.9321994007808
 10
115.624294675955
 20
-139.8147216447338
 10
115.4465277489162
 20
-139.8147216447338
 10
115.2246635996661
 20
-139.8147216447338
 10
115.1505940467332
 20
-139.988698966739
 10
115.1505940467332
 20
-140.1313259198283
 97
        0
 97
        0
 75
     2
 76
     1
 98
        0
  0
ENDBLK
  5
8C
330
89
100
AcDbEntity
  8
0
100
AcDbBlockEnd
  0
BLOCK
  5
A6
330
A4
100
AcDbEntity
  8
0
100
AcDbBlockBegin
  2
block 3
 70
     0
 10
0.0
 20
0.0
 30
0.0
  3
block 3
  1

  0
SPLINE
  5
A8
330
A4
100
AcDbEntity
  8
_U+30EC_U+30A4_U+30E4_U+30FC 1
370
     0
100
AcDbSpline
210
0.0
220
0.0
230
1.0
 70
    11
 71
     3
 72
    62
 73
    58
 74
     0
 42
0.0000000001
 43
0.0000000001
 12
1.0
 22
0.0
 32
0.0
 13
1.0
 23
0.0
 33
0.0
 40
0.0
 40
0.0
 40
0.0
 40
0.0
 40
1.0
 40
1.0
 40
1.0
 40
2.0
 40
2.0
 40
2.0
 40
3.0
 40
3.0
 40
3.0
 40
4.0
 40
4.0
 40
4.0
 40
5.0
 40
5.0
 40
5.0
 40
6.0
 40
6.0
 40
6.0
 40
7.0
 40
7.0
 40
7.0
 40
8.0
 40
8.0
 40
8.0
 40
9.0
 40
9.0
 40
9.0
 40
10.0
 40
10.0
 40
10.0
 40
11.0
 40
11.0
 40
11.0
 40
12.0
 40
12.0
 40
12.0
 40
13.0
 40
13.0
 40
13.0
 40
14.0
 40
14.0
 40
14.0
 40
15.0
 40
15.0
 40
15.0
 40
16.0
 40
16.0
 40
16.0
 40
17.0
 40
17.0
 40
17.0
 40
18.0
 40
18.0
 40
18.0
 40
19.0
 40
19.0
 40
19.0
 40
19.0
 10
115.9415879701466
 20
-154.8618651956595
 30
0.0
 10
115.9415879701466
 20
-154.9634955124744
 30
0.0
 10
115.9205728876865
 20
-155.1963839672773
 30
0.0
 10
115.734537731483
 20
-155.3297091625565
 30
0.0
 10
115.6222276186639
 20
-155.4089463587172
 30
0.0
 10
115.5230088686887
 20
-155.413424982848
 30
0.0
 10
115.4382595197516
 20
-155.4179036069789
 30
0.0
 10
115.4382595197516
 20
-155.4179036069789
 30
0.0
 10
115.4382595197516
 20
-155.1829480948848
 30
0.0
 10
115.4382595197516
 20
-155.1829480948848
 30
0.0
 10
115.5123290726844
 20
-155.1805365280451
 30
0.0
 10
115.7469400752299
 20
-155.1691677129438
 30
0.0
 10
115.7469400752299
 20
-154.8663438197904
 30
0.0
 10
115.7469400752299
 20
-154.7192382425702
 30
0.0
 10
115.6773491464279
 20
-154.5566297356664
 30
0.0
 10
115.4489393157558
 20
-154.5566297356664
 30
0.0
 10
115.3324950883544
 20
-154.5566297356664
 30
0.0
 10
115.2839192420124
 20
-154.5972818623924
 30
0.0
 10
115.2522243635481
 20
-154.6310437981478
 30
0.0
 10
115.1781548106152
 20
-154.7102809943086
 30
0.0
 10
115.1654079573198
 20
-154.8346489413261
 30
0.0
 10
115.1654079573198
 20
-154.8935600741238
 30
0.0
 10
115.1654079573198
 20
-154.9138861374868
 30
0.0
 10
115.1674750146109
 20
-154.9521266973731
 30
0.0
 10
115.1716091291932
 20
-154.9817545185462
 30
0.0
 10
115.1716091291932
 20
-154.9817545185462
 30
0.0
 10
114.9769612342766
 20
-154.9817545185462
 30
0.0
 10
114.9769612342766
 20
-154.9817545185462
 30
0.0
 10
114.9835069156986
 20
-154.9411023918203
 30
0.0
 10
114.9855739729897
 20
-154.895627131415
 30
0.0
 10
114.9855739729897
 20
-154.889081449993
 30
0.0
 10
114.9855739729897
 20
-154.8188015020939
 30
0.0
 10
114.9642143809812
 20
-154.606239110654
 30
0.0
 10
114.7275363211445
 20
-154.606239110654
 30
0.0
 10
114.5497693941056
 20
-154.606239110654
 30
0.0
 10
114.4946478663416
 20
-154.7464544969037
 30
0.0
 10
114.4946478663416
 20
-154.8639322529507
 30
0.0
 10
114.4946478663416
 20
-155.1467745922897
 30
0.0
 10
114.7275363211445
 20
-155.1557318405513
 30
0.0
 10
114.7991943072377
 20
-155.1602104646822
 30
0.0
 10
114.7991943072377
 20
-155.1602104646822
 30
0.0
 10
114.7991943072377
 20
-155.3772514802529
 30
0.0
 10
114.7991943072377
 20
-155.3772514802529
 30
0.0
 10
114.6744818506717
 20
-155.3682942319913
 30
0.0
 10
114.2979329141339
 20
-155.3390109203666
 30
0.0
 10
114.2979329141339
 20
-154.8504963805582
 30
0.0
 10
114.2979329141339
 20
-154.6107177347848
 30
0.0
 10
114.4250569375396
 20
-154.3530245924881
 30
0.0
 10
114.7209906397225
 20
-154.3530245924881
 30
0.0
 10
114.9073703054746
 20
-154.3530245924881
 30
0.0
 10
114.989708087572
 20
-154.4549994188515
 30
0.0
 10
115.0510307872095
 20
-154.5611083597972
 30
0.0
 10
115.0785915510915
 20
-154.4956515455775
 30
0.0
 10
115.1588622758978
 20
-154.3010036506609
 30
0.0
 10
115.4361924624604
 20
-154.3010036506609
 30
0.0
 10
115.7745008391119
 20
-154.3010036506609
 30
0.0
 10
115.9415879701466
 20
-154.5655869839281
 30
0.0
 10
115.9415879701466
 20
-154.8618651956595
 30
0.0
  0
HATCH
  5
A9
330
A4
100
AcDbEntity
  8
_U+30EC_U+30A4_U+30E4_U+30FC 1
 62
   179
420
  2234388
100
AcDbHatch
 10
0.0
 20
0.0
 30
0.0
210
0.0
220
0.0
230
1.0
  2
SOLID
 70
     1
 71
     0
 91
        1
 92
        1
 93
        1
 72
     4
 94
        3
 73
     0
 74
     1
 95
       62
 96
       58
 40
0.0
 40
0.0
 40
0.0
 40
0.0
 40
1.0
 40
1.0
 40
1.0
 40
2.0
 40
2.0
 40
2.0
 40
3.0
 40
3.0
 40
3.0
 40
4.0
 40
4.0
 40
4.0
 40
5.0
 40
5.0
 40
5.0
 40
6.0
 40
6.0
 40
6.0
 40
7.0
 40
7.0
 40
7.0
 40
8.0
 40
8.0
 40
8.0
 40
9.0
 40
9.0
 40
9.0
 40
10.0
 40
10.0
 40
10.0
 40
11.0
 40
11.0
 40
11.0
 40
12.0
 40
12.0
 40
12.0
 40
13.0
 40
13.0
 40
13.0
 40
14.0
 40
14.0
 40
14.0
 40
15.0
 40
15.0
 40
15.0
 40
16.0
 40
16.0
 40
16.0
 40
17.0
 40
17.0
 40
17.0
 40
18.0
 40
18.0
 40
18.0
 40
19.0
 40
19.0
 40
19.0
 40
19.0
 10
115.9415879701466
 20
-154.8618651956595
 10
115.9415879701466
 20
-154.9634955124744
 10
115.9205728876865
 20
-155.1963839672773
 10
115.734537731483
 20
-155.3297091625565
 10
115.6222276186639
 20
-155.4089463587172
 10
115.5230088686887
 20
-155.413424982848
 10
115.4382595197516
 20
-155.4179036069789
 10
115.4382595197516
 20
-155.4179036069789
 10
115.4382595197516
 20
-155.1829480948848
 10
115.4382595197516
 20
-155.1829480948848
 10
115.5123290726844
 20
-155.1805365280451
 10
115.7469400752299
 20
-155.1691677129438
 10
115.7469400752299
 20
-154.8663438197904
 10
115.7469400752299
 20
-154.7192382425702
 10
115.6773491464279
 20
-154.5566297356664
 10
115.4489393157558
 20
-154.5566297356664
 10
115.3324950883544
 20
-154.5566297356664
 10
115.2839192420124
 20
-154.5972818623924
 10
115.2522243635481
 20
-154.6310437981478
 10
115.1781548106152
 20
-154.7102809943086
 10
115.1654079573198
 20
-154.8346489413261
 10
115.1654079573198
 20
-154.8935600741238
 10
115.1654079573198
 20
-154.9138861374868
 10
115.1674750146109
 20
-154.9521266973731
 10
115.1716091291932
 20
-154.9817545185462
 10
115.1716091291932
 20
-154.9817545185462
 10
114.9769612342766
 20
-154.9817545185462
 10
114.9769612342766
 20
-154.9817545185462
 10
114.9835069156986
 20
-154.9411023918203
 10
114.9855739729897
 20
-154.895627131415
 10
114.9855739729897
 20
-154.889081449993
 10
114.9855739729897
 20
-154.8188015020939
 10
114.9642143809812
 20
-154.606239110654
 10
114.7275363211445
 20
-154.606239110654
 10
114.5497693941056
 20
-154.606239110654
 10
114.4946478663416
 20
-154.7464544969037
 10
114.4946478663416
 20
-154.8639322529507
 10
114.4946478663416
 20
-155.1467745922897
 10
114.7275363211445
 20
-155.1557318405513
 10
114.7991943072377
 20
-155.1602104646822
 10
114.7991943072377
 20
-155.1602104646822
 10
114.7991943072377
 20
-155.3772514802529
 10
114.7991943072377
 20
-155.3772514802529
 10
114.6744818506717
 20
-155.3682942319913
 10
114.2979329141339
 20
-155.3390109203666
 10
114.2979329141339
 20
-154.8504963805582
 10
114.2979329141339
 20
-154.6107177347848
 10
114.4250569375396
 20
-154.3530245924881
 10
114.7209906397225
 20
-154.3530245924881
 10
114.9073703054746
 20
-154.3530245924881
 10
114.989708087572
 20
-154.4549994188515
 10
115.0510307872095
 20
-154.5611083597972
 10
115.0785915510915
 20
-154.4956515455775
 10
115.1588622758978
 20
-154.3010036506609
 10
115.4361924624604
 20
-154.3010036506609
 10
115.7745008391119
 20
-154.3010036506609
 10
115.9415879701466
 20
-154.5655869839281
 10
115.9415879701466
 20
-154.8618651956595
 97
        0
 97
        0
 75
     2
 76
     1
 98
        0
  0
ENDBLK
  5
A7
330
A4
100
AcDbEntity
  8
0
100
AcDbBlockEnd
  0
BLOCK
  5
B8
330
B6
100
AcDbEntity
  8
0
100
AcDbBlockBegin
  2
block 4
 70
     0
 10
0.0
 20
0.0
 30
0.0
  3
block 4
  1

  0
SPLINE
  5
BA
330
B6
100
AcDbEntity
  8
_U+30EC_U+30A4_U+30E4_U+30FC 1
370
     0
100
AcDbSpline
210
0.0
220
0.0
230
1.0
 70
    11
 71
     3
 72
    44
 73
    40
 74
     0
 42
0.0000000001
 43
0.0000000001
 12
1.0
 22
0.0
 32
0.0
 13
1.0
 23
0.0
 33
0.0
 40
0.0
 40
0.0
 40
0.0
 40
0.0
 40
1.0
 40
1.0
 40
1.0
 40
2.0
 40
2.0
 40
2.0
 40
3.0
 40
3.0
 40
3.0
 40
4.0
 40
4.0
 40
4.0
 40
5.0
 40
5.0
 40
5.0
 40
6.0
 40
6.0
 40
6.0
 40
7.0
 40
7.0
 40
7.0
 40
8.0
 40
8.0
 40
8.0
 40
9.0
 40
9.0
 40
9.0
 40
10.0
 40
10.0
 40
10.0
 40
11.0
 40
11.0
 40
11.0
 40
12.0
 40
12.0
 40
12.0
 40
13.0
 40
13.0
 40
13.0
 40
13.0
 10
102.2125379518774
 20
-138.1192179016681
 30
0.0
 10
101.9796494970745
 20
-138.2778645487639
 30
0.0
 10
101.8800862375508
 20
-138.3519341016967
 30
0.0
 10
101.8280652957235
 20
-138.4957668382059
 30
0.0
 10
101.8280652957235
 20
-138.4957668382059
 30
0.0
 10
102.6604003649599
 20
-138.4957668382059
 30
0.0
 10
102.6604003649599
 20
-138.4957668382059
 30
0.0
 10
102.6604003649599
 20
-138.4957668382059
 30
0.0
 10
102.6604003649599
 20
-138.7009222743526
 30
0.0
 10
102.6604003649599
 20
-138.7009222743526
 30
0.0
 10
102.6604003649599
 20
-138.7009222743526
 30
0.0
 10
101.5614149051652
 20
-138.7009222743526
 30
0.0
 10
101.5614149051652
 20
-138.7009222743526
 30
0.0
 10
101.5955213504692
 20
-138.3433213629836
 30
0.0
 10
101.6654567888198
 20
-138.2651176954685
 30
0.0
 10
102.0768011897586
 20
-137.9667724264458
 30
0.0
 10
102.3503417712874
 20
-137.7679904169469
 30
0.0
 10
102.4206217191865
 20
-137.7002942906617
 30
0.0
 10
102.4206217191865
 20
-137.5628349808003
 30
0.0
 10
102.4206217191865
 20
-137.4443236961077
 30
0.0
 10
102.3437960898654
 20
-137.3130655581197
 30
0.0
 10
102.1333007557167
 20
-137.3130655581197
 30
0.0
 10
101.855281550057
 20
-137.3130655581197
 30
0.0
 10
101.8463243017954
 20
-137.5437147008571
 30
0.0
 10
101.8418456776645
 20
-137.6601589282586
 30
0.0
 10
101.8418456776645
 20
-137.6601589282586
 30
0.0
 10
101.6020670318912
 20
-137.6601589282586
 30
0.0
 10
101.6020670318912
 20
-137.6601589282586
 30
0.0
 10
101.6110242801528
 20
-137.5332071596271
 30
0.0
 10
101.6223930952541
 20
-137.4210693015822
 30
0.0
 10
101.7085204823854
 20
-137.3025580168896
 30
0.0
 10
101.8259982384324
 20
-137.1418443125027
 30
0.0
 10
102.0247802479313
 20
-137.107910121973
 30
0.0
 10
102.1491481949488
 20
-137.107910121973
 30
0.0
 10
102.4454264066803
 20
-137.107910121973
 30
0.0
 10
102.6669460463819
 20
-137.2920504756596
 30
0.0
 10
102.6669460463819
 20
-137.5649020380914
 30
0.0
 10
102.6669460463819
 20
-137.7933118687635
 30
0.0
 10
102.5425780993644
 20
-137.8928751282872
 30
0.0
 10
102.2125379518774
 20
-138.1192179016681
 30
0.0
  0
HATCH
  5
BB
330
B6
100
AcDbEntity
  8
_U+30EC_U+30A4_U+30E4_U+30FC 1
 62
   179
420
  2234388
100
AcDbHatch
 10
0.0
 20
0.0
 30
0.0
210
0.0
220
0.0
230
1.0
  2
SOLID
 70
     1
 71
     0
 91
        1
 92
        1
 93
        1
 72
     4
 94
        3
 73
     0
 74
     1
 95
       44
 96
       40
 40
0.0
 40
0.0
 40
0.0
 40
0.0
 40
1.0
 40
1.0
 40
1.0
 40
2.0
 40
2.0
 40
2.0
 40
3.0
 40
3.0
 40
3.0
 40
4.0
 40
4.0
 40
4.0
 40
5.0
 40
5.0
 40
5.0
 40
6.0
 40
6.0
 40
6.0
 40
7.0
 40
7.0
 40
7.0
 40
8.0
 40
8.0
 40
8.0
 40
9.0
 40
9.0
 40
9.0
 40
10.0
 40
10.0
 40
10.0
 40
11.0
 40
11.0
 40
11.0
 40
12.0
 40
12.0
 40
12.0
 40
13.0
 40
13.0
 40
13.0
 40
13.0
 10
102.2125379518774
 20
-138.1192179016681
 10
101.9796494970745
 20
-138.2778645487639
 10
101.8800862375508
 20
-138.3519341016967
 10
101.8280652957235
 20
-138.4957668382059
 10
101.8280652957235
 20
-138.4957668382059
 10
102.6604003649599
 20
-138.4957668382059
 10
102.6604003649599
 20
-138.4957668382059
 10
102.6604003649599
 20
-138.4957668382059
 10
102.6604003649599
 20
-138.7009222743526
 10
102.6604003649599
 20
-138.7009222743526
 10
102.6604003649599
 20
-138.7009222743526
 10
101.5614149051652
 20
-138.7009222743526
 10
101.5614149051652
 20
-138.7009222743526
 10
101.5955213504692
 20
-138.3433213629836
 10
101.6654567888198
 20
-138.2651176954685
 10
102.0768011897586
 20
-137.9667724264458
 10
102.3503417712874
 20
-137.7679904169469
 10
102.4206217191865
 20
-137.7002942906617
 10
102.4206217191865
 20
-137.5628349808003
 10
102.4206217191865
 20
-137.4443236961077
 10
102.3437960898654
 20
-137.3130655581197
 10
102.1333007557167
 20
-137.3130655581197
 10
101.855281550057
 20
-137.3130655581197
 10
101.8463243017954
 20
-137.5437147008571
 10
101.8418456776645
 20
-137.6601589282586
 10
101.8418456776645
 20
-137.6601589282586
 10
101.6020670318912
 20
-137.6601589282586
 10
101.6020670318912
 20
-137.6601589282586
 10
101.6110242801528
 20
-137.5332071596271
 10
101.6223930952541
 20
-137.4210693015822
 10
101.7085204823854
 20
-137.3025580168896
 10
101.8259982384324
 20
-137.1418443125027
 10
102.0247802479313
 20
-137.107910121973
 10
102.1491481949488
 20
-137.107910121973
 10
102.4454264066803
 20
-137.107910121973
 10
102.6669460463819
 20
-137.2920504756596
 10
102.6669460463819
 20
-137.5649020380914
 10
102.6669460463819
 20
-137.7933118687635
 10
102.5425780993644
 20
-137.8928751282872
 10
102.2125379518774
 20
-138.1192179016681
 97
        0
 97
        0
 75
     2
 76
     1
 98
        0
  0
SPLINE
  5
BC
330
B6
100
AcDbEntity
  8
_U+30EC_U+30A4_U+30E4_U+30FC 1
370
     0
100
AcDbSpline
210
0.0
220
0.0
230
1.0
 70
    11
 71
     3
 72
    26
 73
    22
 74
     0
 42
0.0000000001
 43
0.0000000001
 12
1.0
 22
0.0
 32
0.0
 13
1.0
 23
0.0
 33
0.0
 40
0.0
 40
0.0
 40
0.0
 40
0.0
 40
1.0
 40
1.0
 40
1.0
 40
2.0
 40
2.0
 40
2.0
 40
3.0
 40
3.0
 40
3.0
 40
4.0
 40
4.0
 40
4.0
 40
5.0
 40
5.0
 40
5.0
 40
6.0
 40
6.0
 40
6.0
 40
7.0
 40
7.0
 40
7.0
 40
7.0
 10
103.3187581121911
 20
-138.7009222743526
 30
0.0
 10
103.3187581121911
 20
-138.7009222743526
 30
0.0
 10
103.3187581121911
 20
-137.5965969165557
 30
0.0
 10
103.3187581121911
 20
-137.5965969165557
 30
0.0
 10
103.3187581121911
 20
-137.5965969165557
 30
0.0
 10
102.9663248440501
 20
-137.5965969165557
 30
0.0
 10
102.9663248440501
 20
-137.5965969165557
 30
0.0
 10
102.9663248440501
 20
-137.5965969165557
 30
0.0
 10
102.9663248440501
 20
-137.44845781069
 30
0.0
 10
102.9663248440501
 20
-137.44845781069
 30
0.0
 10
103.3211696790308
 20
-137.4338161548777
 30
0.0
 10
103.3707790540184
 20
-137.2708631384253
 30
0.0
 10
103.4024739324827
 20
-137.1566582230893
 30
0.0
 10
103.4024739324827
 20
-137.1566582230893
 30
0.0
 10
103.5585367579645
 20
-137.1566582230893
 30
0.0
 10
103.5585367579645
 20
-137.1566582230893
 30
0.0
 10
103.5585367579645
 20
-137.1566582230893
 30
0.0
 10
103.5585367579645
 20
-138.7009222743526
 30
0.0
 10
103.5585367579645
 20
-138.7009222743526
 30
0.0
 10
103.5585367579645
 20
-138.7009222743526
 30
0.0
 10
103.3187581121911
 20
-138.7009222743526
 30
0.0
 10
103.3187581121911
 20
-138.7009222743526
 30
0.0
  0
HATCH
  5
BD
330
B6
100
AcDbEntity
  8
_U+30EC_U+30A4_U+30E4_U+30FC 1
 62
   179
420
  2234388
100
AcDbHatch
 10
0.0
 20
0.0
 30
0.0
210
0.0
220
0.0
230
1.0
  2
SOLID
 70
     1
 71
     0
 91
        1
 92
        1
 93
        1
 72
     4
 94
        3
 73
     0
 74
     1
 95
       26
 96
       22
 40
0.0
 40
0.0
 40
0.0
 40
0.0
 40
1.0
 40
1.0
 40
1.0
 40
2.0
 40
2.0
 40
2.0
 40
3.0
 40
3.0
 40
3.0
 40
4.0
 40
4.0
 40
4.0
 40
5.0
 40
5.0
 40
5.0
 40
6.0
 40
6.0
 40
6.0
 40
7.0
 40
7.0
 40
7.0
 40
7.0
 10
103.3187581121911
 20
-138.7009222743526
 10
103.3187581121911
 20
-138.7009222743526
 10
103.3187581121911
 20
-137.5965969165557
 10
103.3187581121911
 20
-137.5965969165557
 10
103.3187581121911
 20
-137.5965969165557
 10
102.9663248440501
 20
-137.5965969165557
 10
102.9663248440501
 20
-137.5965969165557
 10
102.9663248440501
 20
-137.5965969165557
 10
102.9663248440501
 20
-137.44845781069
 10
102.9663248440501
 20
-137.44845781069
 10
103.3211696790308
 20
-137.4338161548777
 10
103.3707790540184
 20
-137.2708631384253
 10
103.4024739324827
 20
-137.1566582230893
 10
103.4024739324827
 20
-137.1566582230893
 10
103.5585367579645
 20
-137.1566582230893
 10
103.5585367579645
 20
-137.1566582230893
 10
103.5585367579645
 20
-137.1566582230893
 10
103.5585367579645
 20
-138.7009222743526
 10
103.5585367579645
 20
-138.7009222743526
 10
103.5585367579645
 20
-138.7009222743526
 10
103.3187581121911
 20
-138.7009222743526
 10
103.3187581121911
 20
-138.7009222743526
 97
        0
 97
        0
 75
     2
 76
     1
 98
        0
  0
ENDBLK
  5
B9
330
B6
100
AcDbEntity
  8
0
100
AcDbBlockEnd
  0
BLOCK
  5
CC
330
CA
100
AcDbEntity
  8
0
100
AcDbBlockBegin
  2
block 5
 70
     0
 10
0.0
 20
0.0
 30
0.0
  3
block 5
  1

  0
SPLINE
  5
CE
330
CA
100
AcDbEntity
  8
_U+30EC_U+30A4_U+30E4_U+30FC 1
370
     0
100
AcDbSpline
210
0.0
220
0.0
230
1.0
 70
    11
 71
     3
 72
    32
 73
    28
 74
     0
 42
0.0000000001
 43
0.0000000001
 12
1.0
 22
0.0
 32
0.0
 13
1.0
 23
0.0
 33
0.0
 40
0.0
 40
0.0
 40
0.0
 40
0.0
 40
1.0
 40
1.0
 40
1.0
 40
2.0
 40
2.0
 40
2.0
 40
3.0
 40
3.0
 40
3.0
 40
4.0
 40
4.0
 40
4.0
 40
5.0
 40
5.0
 40
5.0
 40
6.0
 40
6.0
 40
6.0
 40
7.0
 40
7.0
 40
7.0
 40
8.0
 40
8.0
 40
8.0
 40
9.0
 40
9.0
 40
9.0
 40
9.0
 10
95.24655488070225
 20
-159.0511013057233
 30
0.0
 10
94.69499509351375
 20
-159.0511013057233
 30
0.0
 10
94.6860378452521
 20
-158.4971299516952
 30
0.0
 10
94.6860378452521
 20
-158.2831895220612
 30
0.0
 10
94.6860378452521
 20
-158.0527126340979
 30
0.0
 10
94.70636390861507
 20
-157.4053791924195
 30
0.0
 10
95.28755151697673
 20
-157.4053791924195
 30
0.0
 10
95.47289765408317
 20
-157.4053791924195
 30
0.0
 10
95.73506942051068
 20
-157.4753146307701
 30
0.0
 10
95.77572154723663
 20
-157.8074218355482
 30
0.0
 10
95.77572154723663
 20
-157.8074218355482
 30
0.0
 10
95.54731171656456
 20
-157.8074218355482
 30
0.0
 10
95.54731171656456
 20
-157.8074218355482
 30
0.0
 10
95.53594290146324
 20
-157.750233250493
 30
0.0
 10
95.5021809657078
 20
-157.6020941446273
 30
0.0
 10
95.28513995013705
 20
-157.6020941446273
 30
0.0
 10
94.97301429917341
 20
-157.6020941446273
 30
0.0
 10
94.93029511515633
 20
-157.930067234823
 30
0.0
 10
94.91651473321532
 20
-158.1350504161954
 30
0.0
 10
95.01607799273904
 20
-158.0568467486802
 30
0.0
 10
95.08842499792928
 20
-157.9975911063339
 30
0.0
 10
95.28307289284591
 20
-157.9975911063339
 30
0.0
 10
95.47496471137431
 20
-157.9975911063339
 30
0.0
 10
95.79845917743928
 20
-158.1057671045708
 30
0.0
 10
95.79845917743928
 20
-158.5119438622818
 30
0.0
 10
95.79845917743928
 20
-158.8313042137644
 30
0.0
 10
95.58589678599937
 20
-159.0511013057233
 30
0.0
 10
95.24655488070225
 20
-159.0511013057233
 30
0.0
  0
SPLINE
  5
CF
330
CA
100
AcDbEntity
  8
_U+30EC_U+30A4_U+30E4_U+30FC 1
370
     0
100
AcDbSpline
210
0.0
220
0.0
230
1.0
 70
    11
 71
     3
 72
    17
 73
    13
 74
     0
 42
0.0000000001
 43
0.0000000001
 12
1.0
 22
0.0
 32
0.0
 13
1.0
 23
0.0
 33
0.0
 40
0.0
 40
0.0
 40
0.0
 40
0.0
 40
1.0
 40
1.0
 40
1.0
 40
2.0
 40
2.0
 40
2.0
 40
3.0
 40
3.0
 40
3.0
 40
4.0
 40
4.0
 40
4.0
 40
4.0
 10
95.26481388677408
 20
-158.1922390012506
 30
0.0
 10
94.98438311427473
 20
-158.1922390012506
 30
0.0
 10
94.94373098754879
 20
-158.4037678640449
 30
0.0
 10
94.94373098754879
 20
-158.5202120914464
 30
0.0
 10
94.94373098754879
 20
-158.6959119611941
 30
0.0
 10
95.04536130436367
 20
-158.8588649776464
 30
0.0
 10
95.24207625657142
 20
-158.8588649776464
 30
0.0
 10
95.37092282771977
 20
-158.8588649776464
 30
0.0
 10
95.55868053166589
 20
-158.7996093353001
 30
0.0
 10
95.55868053166589
 20
-158.5140109195729
 30
0.0
 10
95.55868053166589
 20
-158.2897352034831
 30
0.0
 10
95.40950789715457
 20
-158.1922390012506
 30
0.0
 10
95.26481388677408
 20
-158.1922390012506
 30
0.0
  0
HATCH
  5
D0
330
CA
100
AcDbEntity
  8
_U+30EC_U+30A4_U+30E4_U+30FC 1
 62
   179
420
  2234388
100
AcDbHatch
 10
0.0
 20
0.0
 30
0.0
210
0.0
220
0.0
230
1.0
  2
SOLID
 70
     1
 71
     0
 91
        2
 92
        1
 93
        1
 72
     4
 94
        3
 73
     0
 74
     1
 95
       32
 96
       28
 40
0.0
 40
0.0
 40
0.0
 40
0.0
 40
1.0
 40
1.0
 40
1.0
 40
2.0
 40
2.0
 40
2.0
 40
3.0
 40
3.0
 40
3.0
 40
4.0
 40
4.0
 40
4.0
 40
5.0
 40
5.0
 40
5.0
 40
6.0
 40
6.0
 40
6.0
 40
7.0
 40
7.0
 40
7.0
 40
8.0
 40
8.0
 40
8.0
 40
9.0
 40
9.0
 40
9.0
 40
9.0
 10
95.24655488070225
 20
-159.0511013057233
 10
94.69499509351375
 20
-159.0511013057233
 10
94.6860378452521
 20
-158.4971299516952
 10
94.6860378452521
 20
-158.2831895220612
 10
94.6860378452521
 20
-158.0527126340979
 10
94.70636390861507
 20
-157.4053791924195
 10
95.28755151697673
 20
-157.4053791924195
 10
95.47289765408317
 20
-157.4053791924195
 10
95.73506942051068
 20
-157.4753146307701
 10
95.77572154723663
 20
-157.8074218355482
 10
95.77572154723663
 20
-157.8074218355482
 10
95.54731171656456
 20
-157.8074218355482
 10
95.54731171656456
 20
-157.8074218355482
 10
95.53594290146324
 20
-157.750233250493
 10
95.5021809657078
 20
-157.6020941446273
 10
95.28513995013705
 20
-157.6020941446273
 10
94.97301429917341
 20
-157.6020941446273
 10
94.93029511515633
 20
-157.930067234823
 10
94.91651473321532
 20
-158.1350504161954
 10
95.01607799273904
 20
-158.0568467486802
 10
95.08842499792928
 20
-157.9975911063339
 10
95.28307289284591
 20
-157.9975911063339
 10
95.47496471137431
 20
-157.9975911063339
 10
95.79845917743928
 20
-158.1057671045708
 10
95.79845917743928
 20
-158.5119438622818
 10
95.79845917743928
 20
-158.8313042137644
 10
95.58589678599937
 20
-159.0511013057233
 10
95.24655488070225
 20
-159.0511013057233
 97
        0
 97
        0
 92
        1
 93
        1
 72
     4
 94
        3
 73
     0
 74
     1
 95
       17
 96
       13
 40
0.0
 40
0.0
 40
0.0
 40
0.0
 40
1.0
 40
1.0
 40
1.0
 40
2.0
 40
2.0
 40
2.0
 40
3.0
 40
3.0
 40
3.0
 40
4.0
 40
4.0
 40
4.0
 40
4.0
 10
95.26481388677408
 20
-158.1922390012506
 10
94.98438311427473
 20
-158.1922390012506
 10
94.94373098754879
 20
-158.4037678640449
 10
94.94373098754879
 20
-158.5202120914464
 10
94.94373098754879
 20
-158.6959119611941
 10
95.04536130436367
 20
-158.8588649776464
 10
95.24207625657142
 20
-158.8588649776464
 10
95.37092282771977
 20
-158.8588649776464
 10
95.55868053166589
 20
-158.7996093353001
 10
95.55868053166589
 20
-158.5140109195729
 10
95.55868053166589
 20
-158.2897352034831
 10
95.40950789715457
 20
-158.1922390012506
 10
95.26481388677408
 20
-158.1922390012506
 97
        0
 97
        0
 75
     2
 76
     1
 98
        0
  0
ENDBLK
  5
CD
330
CA
100
AcDbEntity
  8
0
100
AcDbBlockEnd
  0
BLOCK
  5
DF
330
DD
100
AcDbEntity
  8
0
100
AcDbBlockBegin
  2
block 6
 70
     0
 10
0.0
 20
0.0
 30
0.0
  3
block 6
  1

  0
SPLINE
  5
E1
330
DD
100
AcDbEntity
  8
_U+30EC_U+30A4_U+30E4_U+30FC 1
370
     0
100
AcDbSpline
210
0.0
220
0.0
230
1.0
 70
    11
 71
     3
 72
    29
 73
    25
 74
     0
 42
0.0000000001
 43
0.0000000001
 12
1.0
 22
0.0
 32
0.0
 13
1.0
 23
0.0
 33
0.0
 40
0.0
 40
0.0
 40
0.0
 40
0.0
 40
1.0
 40
1.0
 40
1.0
 40
2.0
 40
2.0
 40
2.0
 40
3.0
 40
3.0
 40
3.0
 40
4.0
 40
4.0
 40
4.0
 40
5.0
 40
5.0
 40
5.0
 40
6.0
 40
6.0
 40
6.0
 40
7.0
 40
7.0
 40
7.0
 40
8.0
 40
8.0
 40
8.0
 40
8.0
 10
115.941243460598
 20
-149.9918782177104
 30
0.0
 10
115.941243460598
 20
-150.276443104792
 30
0.0
 10
115.8037841507366
 20
-150.5479166290297
 30
0.0
 10
115.4547959780808
 20
-150.5479166290297
 30
0.0
 10
115.1988253835267
 20
-150.5479166290297
 30
0.0
 10
115.1037407481338
 20
-150.3963324276787
 30
0.0
 10
115.0424180484963
 20
-150.2833332957625
 30
0.0
 10
114.98316240615
 20
-150.4166584910417
 30
0.0
 10
114.8687852360398
 20
-150.4983072540421
 30
0.0
 10
114.7078992768786
 20
-150.4983072540421
 30
0.0
 10
114.4329806571557
 20
-150.4983072540421
 30
0.0
 10
114.2975884045853
 20
-150.2857448626022
 30
0.0
 10
114.2975884045853
 20
-149.9918782177104
 30
0.0
 10
114.2975884045853
 20
-149.6887098150084
 30
0.0
 10
114.4415933958688
 20
-149.4854491813786
 30
0.0
 10
114.7078992768786
 20
-149.4854491813786
 30
0.0
 10
114.8687852360398
 20
-149.4854491813786
 30
0.0
 10
114.98316240615
 20
-149.5688204921217
 30
0.0
 10
115.0424180484963
 20
-149.7024901969494
 30
0.0
 10
115.0930609521295
 20
-149.6074055615565
 30
0.0
 10
115.1881455875224
 20
-149.4379068636822
 30
0.0
 10
115.4506618634985
 20
-149.4379068636822
 30
0.0
 10
115.8251437427451
 20
-149.4379068636822
 30
0.0
 10
115.941243460598
 20
-149.7362521327048
 30
0.0
 10
115.941243460598
 20
-149.9918782177104
 30
0.0
  0
SPLINE
  5
E2
330
DD
100
AcDbEntity
  8
_U+30EC_U+30A4_U+30E4_U+30FC 1
370
     0
100
AcDbSpline
210
0.0
220
0.0
230
1.0
 70
    11
 71
     3
 72
    17
 73
    13
 74
     0
 42
0.0000000001
 43
0.0000000001
 12
1.0
 22
0.0
 32
0.0
 13
1.0
 23
0.0
 33
0.0
 40
0.0
 40
0.0
 40
0.0
 40
0.0
 40
1.0
 40
1.0
 40
1.0
 40
2.0
 40
2.0
 40
2.0
 40
3.0
 40
3.0
 40
3.0
 40
4.0
 40
4.0
 40
4.0
 40
4.0
 10
114.4901692422108
 20
-149.9918782177104
 30
0.0
 10
114.4901692422108
 20
-150.1682671065552
 30
0.0
 10
114.5852538776037
 20
-150.2585286082687
 30
0.0
 10
114.720646130174
 20
-150.2585286082687
 30
0.0
 10
114.8432915294489
 20
-150.2585286082687
 30
0.0
 10
114.9618028141415
 20
-150.1817029789476
 30
0.0
 10
114.9618028141415
 20
-149.9918782177104
 30
0.0
 10
114.9618028141415
 20
-149.8017089469246
 30
0.0
 10
114.8432915294489
 20
-149.7248833176035
 30
0.0
 10
114.720646130174
 20
-149.7248833176035
 30
0.0
 10
114.5852538776037
 20
-149.7248833176035
 30
0.0
 10
114.4901692422108
 20
-149.8175563861567
 30
0.0
 10
114.4901692422108
 20
-149.9918782177104
 30
0.0
  0
SPLINE
  5
E3
330
DD
100
AcDbEntity
  8
_U+30EC_U+30A4_U+30E4_U+30FC 1
370
     0
100
AcDbSpline
210
0.0
220
0.0
230
1.0
 70
    11
 71
     3
 72
    17
 73
    13
 74
     0
 42
0.0000000001
 43
0.0000000001
 12
1.0
 22
0.0
 32
0.0
 13
1.0
 23
0.0
 33
0.0
 40
0.0
 40
0.0
 40
0.0
 40
0.0
 40
1.0
 40
1.0
 40
1.0
 40
2.0
 40
2.0
 40
2.0
 40
3.0
 40
3.0
 40
3.0
 40
4.0
 40
4.0
 40
4.0
 40
4.0
 10
115.1502495371847
 20
-149.9918782177104
 30
0.0
 10
115.1502495371847
 20
-150.1455294763525
 30
0.0
 10
115.237065943413
 20
-150.3081379832563
 30
0.0
 10
115.4399820674942
 20
-150.3081379832563
 30
0.0
 10
115.6453097584151
 20
-150.3081379832563
 30
0.0
 10
115.7465955656814
 20
-150.172745730686
 30
0.0
 10
115.7465955656814
 20
-149.9918782177104
 30
0.0
 10
115.7465955656814
 20
-149.7927516986629
 30
0.0
 10
115.6239501664065
 20
-149.6752739426159
 30
0.0
 10
115.4461832393676
 20
-149.6752739426159
 30
0.0
 10
115.2243190901175
 20
-149.6752739426159
 30
0.0
 10
115.1502495371847
 20
-149.849251264621
 30
0.0
 10
115.1502495371847
 20
-149.9918782177104
 30
0.0
  0
HATCH
  5
E4
330
DD
100
AcDbEntity
  8
_U+30EC_U+30A4_U+30E4_U+30FC 1
 62
   179
420
  2234388
100
AcDbHatch
 10
0.0
 20
0.0
 30
0.0
210
0.0
220
0.0
230
1.0
  2
SOLID
 70
     1
 71
     0
 91
        3
 92
        1
 93
        1
 72
     4
 94
        3
 73
     0
 74
     1
 95
       29
 96
       25
 40
0.0
 40
0.0
 40
0.0
 40
0.0
 40
1.0
 40
1.0
 40
1.0
 40
2.0
 40
2.0
 40
2.0
 40
3.0
 40
3.0
 40
3.0
 40
4.0
 40
4.0
 40
4.0
 40
5.0
 40
5.0
 40
5.0
 40
6.0
 40
6.0
 40
6.0
 40
7.0
 40
7.0
 40
7.0
 40
8.0
 40
8.0
 40
8.0
 40
8.0
 10
115.941243460598
 20
-149.9918782177104
 10
115.941243460598
 20
-150.276443104792
 10
115.8037841507366
 20
-150.5479166290297
 10
115.4547959780808
 20
-150.5479166290297
 10
115.1988253835267
 20
-150.5479166290297
 10
115.1037407481338
 20
-150.3963324276787
 10
115.0424180484963
 20
-150.2833332957625
 10
114.98316240615
 20
-150.4166584910417
 10
114.8687852360398
 20
-150.4983072540421
 10
114.7078992768786
 20
-150.4983072540421
 10
114.4329806571557
 20
-150.4983072540421
 10
114.2975884045853
 20
-150.2857448626022
 10
114.2975884045853
 20
-149.9918782177104
 10
114.2975884045853
 20
-149.6887098150084
 10
114.4415933958688
 20
-149.4854491813786
 10
114.7078992768786
 20
-149.4854491813786
 10
114.8687852360398
 20
-149.4854491813786
 10
114.98316240615
 20
-149.5688204921217
 10
115.0424180484963
 20
-149.7024901969494
 10
115.0930609521295
 20
-149.6074055615565
 10
115.1881455875224
 20
-149.4379068636822
 10
115.4506618634985
 20
-149.4379068636822
 10
115.8251437427451
 20
-149.4379068636822
 10
115.941243460598
 20
-149.7362521327048
 10
115.941243460598
 20
-149.9918782177104
 97
        0
 97
        0
 92
        1
 93
        1
 72
     4
 94
        3
 73
     0
 74
     1
 95
       17
 96
       13
 40
0.0
 40
0.0
 40
0.0
 40
0.0
 40
1.0
 40
1.0
 40
1.0
 40
2.0
 40
2.0
 40
2.0
 40
3.0
 40
3.0
 40
3.0
 40
4.0
 40
4.0
 40
4.0
 40
4.0
 10
114.4901692422108
 20
-149.9918782177104
 10
114.4901692422108
 20
-150.1682671065552
 10
114.5852538776037
 20
-150.2585286082687
 10
114.720646130174
 20
-150.2585286082687
 10
114.8432915294489
 20
-150.2585286082687
 10
114.9618028141415
 20
-150.1817029789476
 10
114.9618028141415
 20
-149.9918782177104
 10
114.9618028141415
 20
-149.8017089469246
 10
114.8432915294489
 20
-149.7248833176035
 10
114.720646130174
 20
-149.7248833176035
 10
114.5852538776037
 20
-149.7248833176035
 10
114.4901692422108
 20
-149.8175563861567
 10
114.4901692422108
 20
-149.9918782177104
 97
        0
 97
        0
 92
        1
 93
        1
 72
     4
 94
        3
 73
     0
 74
     1
 95
       17
 96
       13
 40
0.0
 40
0.0
 40
0.0
 40
0.0
 40
1.0
 40
1.0
 40
1.0
 40
2.0
 40
2.0
 40
2.0
 40
3.0
 40
3.0
 40
3.0
 40
4.0
 40
4.0
 40
4.0
 40
4.0
 10
115.1502495371847
 20
-149.9918782177104
 10
115.1502495371847
 20
-150.1455294763525
 10
115.237065943413
 20
-150.3081379832563
 10
115.4399820674942
 20
-150.3081379832563
 10
115.6453097584151
 20
-150.3081379832563
 10
115.7465955656814
 20
-150.172745730686
 10
115.7465955656814
 20
-149.9918782177104
 10
115.7465955656814
 20
-149.7927516986629
 10
115.6239501664065
 20
-149.6752739426159
 10
115.4461832393676
 20
-149.6752739426159
 10
115.2243190901175
 20
-149.6752739426159
 10
115.1502495371847
 20
-149.849251264621
 10
115.1502495371847
 20
-149.9918782177104
 97
        0
 97
        0
 75
     2
 76
     1
 98
        0
  0
POLYLINE
  5
E5
330
DD
100
AcDbEntity
  8
_U+30EC_U+30A4_U+30E4_U+30FC 1
370
     0
100
AcDb2dPolyline
 66
     1
 10
0.0
 20
0.0
 30
0.0
  0
VERTEX
  5
E6
330
E5
100
AcDbEntity
  8
_U+30EC_U+30A4_U+30E4_U+30FC 1
370
     0
100
AcDbVertex
100
AcDb2dVertex
 10
115.8906005569649
 20
-149.2043293897823
 30
0.0
  0
VERTEX
  5
E7
330
E5
100
AcDbEntity
  8
_U+30EC_U+30A4_U+30E4_U+30FC 1
370
     0
100
AcDbVertex
100
AcDb2dVertex
 10
115.6387640769931
 20
-149.2043293897823
 30
0.0
  0
VERTEX
  5
E8
330
E5
100
AcDbEntity
  8
_U+30EC_U+30A4_U+30E4_U+30FC 1
370
     0
100
AcDbVertex
100
AcDb2dVertex
 10
115.6387640769931
 20
-148.9352674323843
 30
0.0
  0
VERTEX
  5
E9
330
E5
100
AcDbEntity
  8
_U+30EC_U+30A4_U+30E4_U+30FC 1
370
     0
100
AcDbVertex
100
AcDb2dVertex
 10
115.8906005569649
 20
-148.9352674323843
 30
0.0
  0
VERTEX
  5
EA
330
E5
100
AcDbEntity
  8
_U+30EC_U+30A4_U+30E4_U+30FC 1
370
     0
100
AcDbVertex
100
AcDb2dVertex
 10
115.8906005569649
 20
-149.2043293897823
 30
0.0
  0
SEQEND
  5
EB
330
E5
100
AcDbEntity
  8
_U+30EC_U+30A4_U+30E4_U+30FC 1
370
     0
  0
HATCH
  5
EC
330
DD
100
AcDbEntity
  8
_U+30EC_U+30A4_U+30E4_U+30FC 1
 62
   179
420
  2234388
100
AcDbHatch
 10
0.0
 20
0.0
 30
0.0
210
0.0
220
0.0
230
1.0
  2
SOLID
 70
     1
 71
     0
 91
        1
 92
        1
 93
        4
 72
     1
 10
115.8906005569649
 20
-149.2043293897823
 11
115.6387640769931
 21
-149.2043293897823
 72
     1
 10
115.6387640769931
 20
-149.2043293897823
 11
115.6387640769931
 21
-148.9352674323843
 72
     1
 10
115.6387640769931
 20
-148.9352674323843
 11
115.8906005569649
 21
-148.9352674323843
 72
     1
 10
115.8906005569649
 20
-148.9352674323843
 11
115.8906005569649
 21
-149.2043293897823
 97
        0
 75
     2
 76
     1
 98
        0
  0
SPLINE
  5
ED
330
DD
100
AcDbEntity
  8
_U+30EC_U+30A4_U+30E4_U+30FC 1
370
     0
100
AcDbSpline
210
0.0
220
0.0
230
1.0
 70
    11
 71
     3
 72
    53
 73
    49
 74
     0
 42
0.0000000001
 43
0.0000000001
 12
1.0
 22
0.0
 32
0.0
 13
1.0
 23
0.0
 33
0.0
 40
0.0
 40
0.0
 40
0.0
 40
0.0
 40
1.0
 40
1.0
 40
1.0
 40
2.0
 40
2.0
 40
2.0
 40
3.0
 40
3.0
 40
3.0
 40
4.0
 40
4.0
 40
4.0
 40
5.0
 40
5.0
 40
5.0
 40
6.0
 40
6.0
 40
6.0
 40
7.0
 40
7.0
 40
7.0
 40
8.0
 40
8.0
 40
8.0
 40
9.0
 40
9.0
 40
9.0
 40
10.0
 40
10.0
 40
10.0
 40
11.0
 40
11.0
 40
11.0
 40
12.0
 40
12.0
 40
12.0
 40
13.0
 40
13.0
 40
13.0
 40
14.0
 40
14.0
 40
14.0
 40
15.0
 40
15.0
 40
15.0
 40
16.0
 40
16.0
 40
16.0
 40
16.0
 10
115.941243460598
 20
-148.1683891773676
 30
0.0
 10
115.941243460598
 20
-148.2521049976592
 30
0.0
 10
115.9243624927203
 20
-148.360280995896
 30
0.0
 10
115.8609727357917
 20
-148.4691460132299
 30
0.0
 10
115.7510741898122
 20
-148.6544921503364
 30
0.0
 10
115.6198160518242
 20
-148.6768852709905
 30
0.0
 10
115.5119845631359
 20
-148.6972113343535
 30
0.0
 10
115.5119845631359
 20
-148.6972113343535
 30
0.0
 10
115.5119845631359
 20
-148.4598442554198
 30
0.0
 10
115.5119845631359
 20
-148.4598442554198
 30
0.0
 10
115.7107665726348
 20
-148.4012776321705
 30
0.0
 10
115.740394393808
 20
-148.2655408700517
 30
0.0
 10
115.740394393808
 20
-148.165977610528
 30
0.0
 10
115.740394393808
 20
-148.0168049760166
 30
0.0
 10
115.6408311342842
 20
-147.8538519595643
 30
0.0
 10
115.4082871890299
 20
-147.8538519595643
 30
0.0
 10
115.1523165944758
 20
-147.8538519595643
 30
0.0
 10
115.0823811561252
 20
-148.0460882876413
 30
0.0
 10
115.0823811561252
 20
-148.1749348587896
 30
0.0
 10
115.0823811561252
 20
-148.2090413040936
 30
0.0
 10
115.0823811561252
 20
-148.360280995896
 30
0.0
 10
115.2115722368221
 20
-148.4553656312889
 30
0.0
 10
115.2115722368221
 20
-148.4553656312889
 30
0.0
 10
115.1926242116532
 20
-148.6431233352351
 30
0.0
 10
115.1926242116532
 20
-148.6431233352351
 30
0.0
 10
115.1926242116532
 20
-148.6431233352351
 30
0.0
 10
114.3461642509274
 20
-148.5142767640867
 30
0.0
 10
114.3461642509274
 20
-148.5142767640867
 30
0.0
 10
114.3461642509274
 20
-148.5142767640867
 30
0.0
 10
114.3461642509274
 20
-147.6822862043989
 30
0.0
 10
114.3461642509274
 20
-147.6822862043989
 30
0.0
 10
114.3461642509274
 20
-147.6822862043989
 30
0.0
 10
114.540812145844
 20
-147.6822862043989
 30
0.0
 10
114.540812145844
 20
-147.6822862043989
 30
0.0
 10
114.540812145844
 20
-147.6822862043989
 30
0.0
 10
114.540812145844
 20
-148.3399549325331
 30
0.0
 10
114.540812145844
 20
-148.3399549325331
 30
0.0
 10
114.540812145844
 20
-148.3399549325331
 30
0.0
 10
114.9638698714326
 20
-148.4102348804322
 30
0.0
 10
114.9638698714326
 20
-148.4102348804322
 30
0.0
 10
114.9301079356772
 20
-148.3447780662124
 30
0.0
 10
114.8898003184998
 20
-148.25658362179
 30
0.0
 10
114.8898003184998
 20
-148.1298041079328
 30
0.0
 10
114.8898003184998
 20
-147.8586750932437
 30
0.0
 10
115.0761799842518
 20
-147.6054605750778
 30
0.0
 10
115.389339163861
 20
-147.6054605750778
 30
0.0
 10
115.7066324580525
 20
-147.6054605750778
 30
0.0
 10
115.941243460598
 20
-147.8448947113027
 30
0.0
 10
115.941243460598
 20
-148.1683891773676
 30
0.0
  0
HATCH
  5
EE
330
DD
100
AcDbEntity
  8
_U+30EC_U+30A4_U+30E4_U+30FC 1
 62
   179
420
  2234388
100
AcDbHatch
 10
0.0
 20
0.0
 30
0.0
210
0.0
220
0.0
230
1.0
  2
SOLID
 70
     1
 71
     0
 91
        1
 92
        1
 93
        1
 72
     4
 94
        3
 73
     0
 74
     1
 95
       53
 96
       49
 40
0.0
 40
0.0
 40
0.0
 40
0.0
 40
1.0
 40
1.0
 40
1.0
 40
2.0
 40
2.0
 40
2.0
 40
3.0
 40
3.0
 40
3.0
 40
4.0
 40
4.0
 40
4.0
 40
5.0
 40
5.0
 40
5.0
 40
6.0
 40
6.0
 40
6.0
 40
7.0
 40
7.0
 40
7.0
 40
8.0
 40
8.0
 40
8.0
 40
9.0
 40
9.0
 40
9.0
 40
10.0
 40
10.0
 40
10.0
 40
11.0
 40
11.0
 40
11.0
 40
12.0
 40
12.0
 40
12.0
 40
13.0
 40
13.0
 40
13.0
 40
14.0
 40
14.0
 40
14.0
 40
15.0
 40
15.0
 40
15.0
 40
16.0
 40
16.0
 40
16.0
 40
16.0
 10
115.941243460598
 20
-148.1683891773676
 10
115.941243460598
 20
-148.2521049976592
 10
115.9243624927203
 20
-148.360280995896
 10
115.8609727357917
 20
-148.4691460132299
 10
115.7510741898122
 20
-148.6544921503364
 10
115.6198160518242
 20
-148.6768852709905
 10
115.5119845631359
 20
-148.6972113343535
 10
115.5119845631359
 20
-148.6972113343535
 10
115.5119845631359
 20
-148.4598442554198
 10
115.5119845631359
 20
-148.4598442554198
 10
115.7107665726348
 20
-148.4012776321705
 10
115.740394393808
 20
-148.2655408700517
 10
115.740394393808
 20
-148.165977610528
 10
115.740394393808
 20
-148.0168049760166
 10
115.6408311342842
 20
-147.8538519595643
 10
115.4082871890299
 20
-147.8538519595643
 10
115.1523165944758
 20
-147.8538519595643
 10
115.0823811561252
 20
-148.0460882876413
 10
115.0823811561252
 20
-148.1749348587896
 10
115.0823811561252
 20
-148.2090413040936
 10
115.0823811561252
 20
-148.360280995896
 10
115.2115722368221
 20
-148.4553656312889
 10
115.2115722368221
 20
-148.4553656312889
 10
115.1926242116532
 20
-148.6431233352351
 10
115.1926242116532
 20
-148.6431233352351
 10
115.1926242116532
 20
-148.6431233352351
 10
114.3461642509274
 20
-148.5142767640867
 10
114.3461642509274
 20
-148.5142767640867
 10
114.3461642509274
 20
-148.5142767640867
 10
114.3461642509274
 20
-147.6822862043989
 10
114.3461642509274
 20
-147.6822862043989
 10
114.3461642509274
 20
-147.6822862043989
 10
114.540812145844
 20
-147.6822862043989
 10
114.540812145844
 20
-147.6822862043989
 10
114.540812145844
 20
-147.6822862043989
 10
114.540812145844
 20
-148.3399549325331
 10
114.540812145844
 20
-148.3399549325331
 10
114.540812145844
 20
-148.3399549325331
 10
114.9638698714326
 20
-148.4102348804322
 10
114.9638698714326
 20
-148.4102348804322
 10
114.9301079356772
 20
-148.3447780662124
 10
114.8898003184998
 20
-148.25658362179
 10
114.8898003184998
 20
-148.1298041079328
 10
114.8898003184998
 20
-147.8586750932437
 10
115.0761799842518
 20
-147.6054605750778
 10
115.389339163861
 20
-147.6054605750778
 10
115.7066324580525
 20
-147.6054605750778
 10
115.941243460598
 20
-147.8448947113027
 10
115.941243460598
 20
-148.1683891773676
 97
        0
 97
        0
 75
     2
 76
     1
 98
        0
  0
ENDBLK
  5
E0
330
DD
100
AcDbEntity
  8
0
100
AcDbBlockEnd
  0
ENDSEC
  0
SECTION
  2
ENTITIES
  0
POLYLINE
  5
41
330
1F
100
AcDbEntity
  8
_U+30EC_U+30A4_U+30E4_U+30FC 1
 62
   179
420
  2234388
370
    25
100
AcDb2dPolyline
 66
     1
 10
0.0
 20
0.0
 30
0.0
  0
VERTEX
  5
42
330
41
100
AcDbEntity
  8
_U+30EC_U+30A4_U+30E4_U+30FC 1
 62
   179
420
  2234388
370
    25
100
AcDbVertex
100
AcDb2dVertex
 10
92.24235625610066
 20
-144.0520814323572
 30
0.0
  0
VERTEX
  5
43
330
41
100
AcDbEntity
  8
_U+30EC_U+30A4_U+30E4_U+30FC 1
 62
   179
420
  2234388
370
    25
100
AcDbVertex
100
AcDb2dVertex
 10
113.2421511049089
 20
-144.0520814323572
 30
0.0
  0
SEQEND
  5
44
330
41
100
AcDbEntity
  8
_U+30EC_U+30A4_U+30E4_U+30FC 1
 62
   179
420
  2234388
370
    25
  0
POLYLINE
  5
45
330
1F
100
AcDbEntity
  8
_U+30EC_U+30A4_U+30E4_U+30FC 1
 62
   179
420
  2234388
370
    25
100
AcDb2dPolyline
 66
     1
 10
0.0
 20
0.0
 30
0.0
  0
VERTEX
  5
46
330
45
100
AcDbEntity
  8
_U+30EC_U+30A4_U+30E4_U+30FC 1
 62
   179
420
  2234388
370
    25
100
AcDbVertex
100
AcDb2dVertex
 10
93.04231819369906
 20
-144.8520433699556
 30
0.0
  0
VERTEX
  5
47
330
45
100
AcDbEntity
  8
_U+30EC_U+30A4_U+30E4_U+30FC 1
 62
   179
420
  2234388
370
    25
100
AcDbVertex
100
AcDb2dVertex
 10
113.2423664233767
 20
-144.8520433699556
 30
0.0
  0
SEQEND
  5
48
330
45
100
AcDbEntity
  8
_U+30EC_U+30A4_U+30E4_U+30FC 1
 62
   179
420
  2234388
370
    25
  0
POLYLINE
  5
49
330
1F
100
AcDbEntity
  8
_U+30EC_U+30A4_U+30E4_U+30FC 1
 62
   179
420
  2234388
370
    25
100
AcDb2dPolyline
 66
     1
 10
0.0
 20
0.0
 30
0.0
  0
VERTEX
  5
4A
330
49
100
AcDbEntity
  8
_U+30EC_U+30A4_U+30E4_U+30FC 1
 62
   179
420
  2234388
370
    25
100
AcDbVertex
100
AcDb2dVertex
 10
113.2422695300662
 20
-144.0520814323572
 30
0.0
  0
VERTEX
  5
4B
330
49
100
AcDbEntity
  8
_U+30EC_U+30A4_U+30E4_U+30FC 1
 62
   179
420
  2234388
370
    25
100
AcDbVertex
100
AcDb2dVertex
 10
113.2422695300662
 20
-144.85218332696
 30
0.0
  0
SEQEND
  5
4C
330
49
100
AcDbEntity
  8
_U+30EC_U+30A4_U+30E4_U+30FC 1
 62
   179
420
  2234388
370
    25
  0
POLYLINE
  5
4D
330
1F
100
AcDbEntity
  8
_U+30EC_U+30A4_U+30E4_U+30FC 1
 62
   179
420
  2234388
370
    25
100
AcDb2dPolyline
 66
     1
 10
0.0
 20
0.0
 30
0.0
  0
VERTEX
  5
4E
330
4D
100
AcDbEntity
  8
_U+30EC_U+30A4_U+30E4_U+30FC 1
 62
   179
420
  2234388
370
    25
100
AcDbVertex
100
AcDb2dVertex
 10
92.24235625610066
 20
-144.0520814323572
 30
0.0
  0
VERTEX
  5
4F
330
4D
100
AcDbEntity
  8
_U+30EC_U+30A4_U+30E4_U+30FC 1
 62
   179
420
  2234388
370
    25
100
AcDbVertex
100
AcDb2dVertex
 10
92.24235625610066
 20
-156.3523857573529
 30
0.0
  0
SEQEND
  5
50
330
4D
100
AcDbEntity
  8
_U+30EC_U+30A4_U+30E4_U+30FC 1
 62
   179
420
  2234388
370
    25
  0
POLYLINE
  5
51
330
1F
100
AcDbEntity
  8
_U+30EC_U+30A4_U+30E4_U+30FC 1
 62
   179
420
  2234388
370
    25
100
AcDb2dPolyline
 66
     1
 10
0.0
 20
0.0
 30
0.0
  0
VERTEX
  5
52
330
51
100
AcDbEntity
  8
_U+30EC_U+30A4_U+30E4_U+30FC 1
 62
   179
420
  2234388
370
    25
100
AcDbVertex
100
AcDb2dVertex
 10
93.04231819369906
 20
-144.8520433699556
 30
0.0
  0
VERTEX
  5
53
330
51
100
AcDbEntity
  8
_U+30EC_U+30A4_U+30E4_U+30FC 1
 62
   179
420
  2234388
370
    25
100
AcDbVertex
100
AcDb2dVertex
 10
93.04231819369906
 20
-155.5524991812182
 30
0.0
  0
SEQEND
  5
54
330
51
100
AcDbEntity
  8
_U+30EC_U+30A4_U+30E4_U+30FC 1
 62
   179
420
  2234388
370
    25
  0
POLYLINE
  5
55
330
1F
100
AcDbEntity
  8
_U+30EC_U+30A4_U+30E4_U+30FC 1
 62
   179
420
  2234388
370
    25
100
AcDb2dPolyline
 66
     1
 10
0.0
 20
0.0
 30
0.0
  0
VERTEX
  5
56
330
55
100
AcDbEntity
  8
_U+30EC_U+30A4_U+30E4_U+30FC 1
 62
   179
420
  2234388
370
    25
100
AcDbVertex
100
AcDb2dVertex
 10
96.24003429126118
 20
-153.3524719702611
 30
0.0
  0
VERTEX
  5
57
330
55
100
AcDbEntity
  8
_U+30EC_U+30A4_U+30E4_U+30FC 1
 62
   179
420
  2234388
370
    25
100
AcDbVertex
100
AcDb2dVertex
 10
98.24239914875213
 20
-153.3524719702611
 30
0.0
  0
SEQEND
  5
58
330
55
100
AcDbEntity
  8
_U+30EC_U+30A4_U+30E4_U+30FC 1
 62
   179
420
  2234388
370
    25
  0
POLYLINE
  5
59
330
1F
100
AcDbEntity
  8
_U+30EC_U+30A4_U+30E4_U+30FC 1
 62
   179
420
  2234388
370
    25
100
AcDb2dPolyline
 66
     1
 10
0.0
 20
0.0
 30
0.0
  0
VERTEX
  5
5A
330
59
100
AcDbEntity
  8
_U+30EC_U+30A4_U+30E4_U+30FC 1
 62
   179
420
  2234388
370
    25
100
AcDbVertex
100
AcDb2dVertex
 10
92.24235625610066
 20
-156.3524611188166
 30
0.0
  0
VERTEX
  5
5B
330
59
100
AcDbEntity
  8
_U+30EC_U+30A4_U+30E4_U+30FC 1
 62
   179
420
  2234388
370
    25
100
AcDbVertex
100
AcDb2dVertex
 10
98.24239914875213
 20
-156.3524611188166
 30
0.0
  0
SEQEND
  5
5C
330
59
100
AcDbEntity
  8
_U+30EC_U+30A4_U+30E4_U+30FC 1
 62
   179
420
  2234388
370
    25
  0
POLYLINE
  5
5D
330
1F
100
AcDbEntity
  8
_U+30EC_U+30A4_U+30E4_U+30FC 1
 62
   179
420
  2234388
370
    25
100
AcDb2dPolyline
 66
     1
 10
0.0
 20
0.0
 30
0.0
  0
VERTEX
  5
5E
330
5D
100
AcDbEntity
  8
_U+30EC_U+30A4_U+30E4_U+30FC 1
 62
   179
420
  2234388
370
    25
100
AcDbVertex
100
AcDb2dVertex
 10
98.24233455321178
 20
-153.3524719702611
 30
0.0
  0
VERTEX
  5
5F
330
5D
100
AcDbEntity
  8
_U+30EC_U+30A4_U+30E4_U+30FC 1
 62
   179
420
  2234388
370
    25
100
AcDbVertex
100
AcDb2dVertex
 10
98.24233455321178
 20
-156.3525041825102
 30
0.0
  0
SEQEND
  5
60
330
5D
100
AcDbEntity
  8
_U+30EC_U+30A4_U+30E4_U+30FC 1
 62
   179
420
  2234388
370
    25
  0
POLYLINE
  5
61
330
1F
100
AcDbEntity
  8
_U+30EC_U+30A4_U+30E4_U+30FC 1
 62
   179
420
  2234388
370
    25
100
AcDb2dPolyline
 66
     1
 10
0.0
 20
0.0
 30
0.0
  0
VERTEX
  5
62
330
61
100
AcDbEntity
  8
_U+30EC_U+30A4_U+30E4_U+30FC 1
 62
   179
420
  2234388
370
    25
100
AcDbVertex
100
AcDb2dVertex
 10
96.24003429126118
 20
-153.3524719702611
 30
0.0
  0
VERTEX
  5
63
330
61
100
AcDbEntity
  8
_U+30EC_U+30A4_U+30E4_U+30FC 1
 62
   179
420
  2234388
370
    25
100
AcDbVertex
100
AcDb2dVertex
 10
96.24003429126118
 20
-154.1525738648636
 30
0.0
  0
SEQEND
  5
64
330
61
100
AcDbEntity
  8
_U+30EC_U+30A4_U+30E4_U+30FC 1
 62
   179
420
  2234388
370
    25
  0
POLYLINE
  5
65
330
1F
100
AcDbEntity
  8
_U+30EC_U+30A4_U+30E4_U+30FC 1
 62
   179
420
  2234388
370
    25
100
AcDb2dPolyline
 66
     1
 10
0.0
 20
0.0
 30
0.0
  0
VERTEX
  5
66
330
65
100
AcDbEntity
  8
_U+30EC_U+30A4_U+30E4_U+30FC 1
 62
   179
420
  2234388
370
    25
100
AcDbVertex
100
AcDb2dVertex
 10
93.04231819369906
 20
-155.5525314789884
 30
0.0
  0
VERTEX
  5
67
330
65
100
AcDbEntity
  8
_U+30EC_U+30A4_U+30E4_U+30FC 1
 62
   179
420
  2234388
370
    25
100
AcDbVertex
100
AcDb2dVertex
 10
97.44251257261746
 20
-155.5525314789884
 30
0.0
  0
SEQEND
  5
68
330
65
100
AcDbEntity
  8
_U+30EC_U+30A4_U+30E4_U+30FC 1
 62
   179
420
  2234388
370
    25
  0
POLYLINE
  5
69
330
1F
100
AcDbEntity
  8
_U+30EC_U+30A4_U+30E4_U+30FC 1
 62
   179
420
  2234388
370
    25
100
AcDb2dPolyline
 66
     1
 10
0.0
 20
0.0
 30
0.0
  0
VERTEX
  5
6A
330
69
100
AcDbEntity
  8
_U+30EC_U+30A4_U+30E4_U+30FC 1
 62
   179
420
  2234388
370
    25
100
AcDbVertex
100
AcDb2dVertex
 10
97.44237261561337
 20
-154.1524339078595
 30
0.0
  0
VERTEX
  5
6B
330
69
100
AcDbEntity
  8
_U+30EC_U+30A4_U+30E4_U+30FC 1
 62
   179
420
  2234388
370
    25
100
AcDbVertex
100
AcDb2dVertex
 10
97.44237261561337
 20
-155.5526176063755
 30
0.0
  0
SEQEND
  5
6C
330
69
100
AcDbEntity
  8
_U+30EC_U+30A4_U+30E4_U+30FC 1
 62
   179
420
  2234388
370
    25
  0
POLYLINE
  5
6D
330
1F
100
AcDbEntity
  8
_U+30EC_U+30A4_U+30E4_U+30FC 1
 62
   179
420
  2234388
370
    25
100
AcDb2dPolyline
 66
     1
 10
0.0
 20
0.0
 30
0.0
  0
VERTEX
  5
6E
330
6D
100
AcDbEntity
  8
_U+30EC_U+30A4_U+30E4_U+30FC 1
 62
   179
420
  2234388
370
    25
100
AcDbVertex
100
AcDb2dVertex
 10
96.24003429126118
 20
-154.1524339078595
 30
0.0
  0
VERTEX
  5
6F
330
6D
100
AcDbEntity
  8
_U+30EC_U+30A4_U+30E4_U+30FC 1
 62
   179
420
  2234388
370
    25
100
AcDbVertex
100
AcDb2dVertex
 10
97.44229725414964
 20
-154.1524339078595
 30
0.0
  0
SEQEND
  5
70
330
6D
100
AcDbEntity
  8
_U+30EC_U+30A4_U+30E4_U+30FC 1
 62
   179
420
  2234388
370
    25
  0
SPLINE
  5
71
330
1F
100
AcDbEntity
  8
_U+30EC_U+30A4_U+30E4_U+30FC 1
 62
   179
420
  2234388
370
     9
100
AcDbSpline
210
0.0
220
0.0
230
1.0
 70
    11
 71
     3
 72
    17
 73
    13
 74
     0
 42
0.0000000001
 43
0.0000000001
 12
1.0
 22
0.0
 32
0.0
 13
1.0
 23
0.0
 33
0.0
 40
0.0
 40
0.0
 40
0.0
 40
0.0
 40
1.0
 40
1.0
 40
1.0
 40
2.0
 40
2.0
 40
2.0
 40
3.0
 40
3.0
 40
3.0
 40
4.0
 40
4.0
 40
4.0
 40
4.0
 10
117.3419331575135
 20
-144.0520814323572
 30
0.0
 10
117.3419331575135
 20
-143.9970567979037
 30
0.0
 10
117.2971253843585
 20
-143.9522490247487
 30
0.0
 10
117.2420899839816
 20
-143.9522490247487
 30
0.0
 10
117.1870545836047
 20
-143.9522490247487
 30
0.0
 10
117.1422575763731
 20
-143.9970567979037
 30
0.0
 10
117.1422575763731
 20
-144.0520814323572
 30
0.0
 10
117.1422575763731
 20
-144.1078273836779
 30
0.0
 10
117.1870545836047
 20
-144.1519246058891
 30
0.0
 10
117.2420899839816
 20
-144.1519246058891
 30
0.0
 10
117.2971253843585
 20
-144.1519246058891
 30
0.0
 10
117.3419331575135
 20
-144.1078273836779
 30
0.0
 10
117.3419331575135
 20
-144.0520814323572
 30
0.0
  0
SPLINE
  5
72
330
1F
100
AcDbEntity
  8
_U+30EC_U+30A4_U+30E4_U+30FC 1
 62
   179
420
  2234388
370
     9
100
AcDbSpline
210
0.0
220
0.0
230
1.0
 70
    11
 71
     3
 72
    17
 73
    13
 74
     0
 42
0.0000000001
 43
0.0000000001
 12
1.0
 22
0.0
 32
0.0
 13
1.0
 23
0.0
 33
0.0
 40
0.0
 40
0.0
 40
0.0
 40
0.0
 40
1.0
 40
1.0
 40
1.0
 40
2.0
 40
2.0
 40
2.0
 40
3.0
 40
3.0
 40
3.0
 40
4.0
 40
4.0
 40
4.0
 40
4.0
 10
117.3419331575135
 20
-144.8520433699556
 30
0.0
 10
117.3419331575135
 20
-144.7970187355021
 30
0.0
 10
117.2971253843585
 20
-144.7522109623471
 30
0.0
 10
117.2420899839816
 20
-144.7522109623471
 30
0.0
 10
117.1870545836047
 20
-144.7522109623471
 30
0.0
 10
117.1422575763731
 20
-144.7970187355021
 30
0.0
 10
117.1422575763731
 20
-144.8520433699556
 30
0.0
 10
117.1422575763731
 20
-144.9077893212763
 30
0.0
 10
117.1870545836047
 20
-144.9525863285079
 30
0.0
 10
117.2420899839816
 20
-144.9525863285079
 30
0.0
 10
117.2971253843585
 20
-144.9525863285079
 30
0.0
 10
117.3419331575135
 20
-144.9077893212763
 30
0.0
 10
117.3419331575135
 20
-144.8520433699556
 30
0.0
  0
SPLINE
  5
73
330
1F
100
AcDbEntity
  8
_U+30EC_U+30A4_U+30E4_U+30FC 1
 62
   179
420
  2234388
370
     9
100
AcDbSpline
210
0.0
220
0.0
230
1.0
 70
    11
 71
     3
 72
    17
 73
    13
 74
     0
 42
0.0000000001
 43
0.0000000001
 12
1.0
 22
0.0
 32
0.0
 13
1.0
 23
0.0
 33
0.0
 40
0.0
 40
0.0
 40
0.0
 40
0.0
 40
1.0
 40
1.0
 40
1.0
 40
2.0
 40
2.0
 40
2.0
 40
3.0
 40
3.0
 40
3.0
 40
4.0
 40
4.0
 40
4.0
 40
4.0
 10
113.3421772991384
 20
-140.0523578717523
 30
0.0
 10
113.3421772991384
 20
-139.9973332372988
 30
0.0
 10
113.2973695259834
 20
-139.9525254641438
 30
0.0
 10
113.2423341256065
 20
-139.9525254641438
 30
0.0
 10
113.1872987252297
 20
-139.9525254641438
 30
0.0
 10
113.142501717998
 20
-139.9973332372988
 30
0.0
 10
113.142501717998
 20
-140.0523578717523
 30
0.0
 10
113.142501717998
 20
-140.1073932721292
 30
0.0
 10
113.1872987252297
 20
-140.1522010452842
 30
0.0
 10
113.2423341256065
 20
-140.1522010452842
 30
0.0
 10
113.2973695259834
 20
-140.1522010452842
 30
0.0
 10
113.3421772991384
 20
-140.1073932721292
 30
0.0
 10
113.3421772991384
 20
-140.0523578717523
 30
0.0
  0
SPLINE
  5
74
330
1F
100
AcDbEntity
  8
_U+30EC_U+30A4_U+30E4_U+30FC 1
 62
   179
420
  2234388
370
     9
100
AcDbSpline
210
0.0
220
0.0
230
1.0
 70
    11
 71
     3
 72
    17
 73
    13
 74
     0
 42
0.0000000001
 43
0.0000000001
 12
1.0
 22
0.0
 32
0.0
 13
1.0
 23
0.0
 33
0.0
 40
0.0
 40
0.0
 40
0.0
 40
0.0
 40
1.0
 40
1.0
 40
1.0
 40
2.0
 40
2.0
 40
2.0
 40
3.0
 40
3.0
 40
3.0
 40
4.0
 40
4.0
 40
4.0
 40
4.0
 10
98.34224232228402
 20
-160.3525722526636
 30
0.0
 10
98.34224232228402
 20
-160.2971923427382
 30
0.0
 10
98.297434549129
 20
-160.2523845695832
 30
0.0
 10
98.24239914875213
 20
-160.2523845695832
 30
0.0
 10
98.18736374837526
 20
-160.2523845695832
 30
0.0
 10
98.14256674114361
 20
-160.2971923427382
 30
0.0
 10
98.14256674114361
 20
-160.3525722526636
 30
0.0
 10
98.14256674114361
 20
-160.4076076530405
 30
0.0
 10
98.18736374837526
 20
-160.4524154261955
 30
0.0
 10
98.24239914875213
 20
-160.4524154261955
 30
0.0
 10
98.297434549129
 20
-160.4524154261955
 30
0.0
 10
98.34224232228402
 20
-160.4076076530405
 30
0.0
 10
98.34224232228402
 20
-160.3525722526636
 30
0.0
  0
SPLINE
  5
75
330
1F
100
AcDbEntity
  8
_U+30EC_U+30A4_U+30E4_U+30FC 1
 62
   179
420
  2234388
370
     9
100
AcDbSpline
210
0.0
220
0.0
230
1.0
 70
    11
 71
     3
 72
    17
 73
    13
 74
     0
 42
0.0000000001
 43
0.0000000001
 12
1.0
 22
0.0
 32
0.0
 13
1.0
 23
0.0
 33
0.0
 40
0.0
 40
0.0
 40
0.0
 40
0.0
 40
1.0
 40
1.0
 40
1.0
 40
2.0
 40
2.0
 40
2.0
 40
3.0
 40
3.0
 40
3.0
 40
4.0
 40
4.0
 40
4.0
 40
4.0
 10
92.3422640251729
 20
-160.3525722526636
 30
0.0
 10
92.3422640251729
 20
-160.2971923427382
 30
0.0
 10
92.29745625201787
 20
-160.2523845695832
 30
0.0
 10
92.242420851641
 20
-160.2523845695832
 30
0.0
 10
92.18738545126413
 20
-160.2523845695832
 30
0.0
 10
92.1425884440325
 20
-160.2971923427382
 30
0.0
 10
92.1425884440325
 20
-160.3525722526636
 30
0.0
 10
92.1425884440325
 20
-160.4076076530405
 30
0.0
 10
92.18738545126413
 20
-160.4524154261955
 30
0.0
 10
92.242420851641
 20
-160.4524154261955
 30
0.0
 10
92.29745625201787
 20
-160.4524154261955
 30
0.0
 10
92.3422640251729
 20
-160.4076076530405
 30
0.0
 10
92.3422640251729
 20
-160.3525722526636
 30
0.0
  0
SPLINE
  5
76
330
1F
100
AcDbEntity
  8
_U+30EC_U+30A4_U+30E4_U+30FC 1
 62
   179
420
  2234388
370
     9
100
AcDbSpline
210
0.0
220
0.0
230
1.0
 70
    11
 71
     3
 72
    17
 73
    13
 74
     0
 42
0.0000000001
 43
0.0000000001
 12
1.0
 22
0.0
 32
0.0
 13
1.0
 23
0.0
 33
0.0
 40
0.0
 40
0.0
 40
0.0
 40
0.0
 40
1.0
 40
1.0
 40
1.0
 40
2.0
 40
2.0
 40
2.0
 40
3.0
 40
3.0
 40
3.0
 40
4.0
 40
4.0
 40
4.0
 40
4.0
 10
92.3422640251729
 20
-140.0523578717523
 30
0.0
 10
92.3422640251729
 20
-139.9973332372988
 30
0.0
 10
92.29745625201787
 20
-139.9525254641438
 30
0.0
 10
92.242420851641
 20
-139.9525254641438
 30
0.0
 10
92.18738545126413
 20
-139.9525254641438
 30
0.0
 10
92.1425884440325
 20
-139.9973332372988
 30
0.0
 10
92.1425884440325
 20
-140.0523578717523
 30
0.0
 10
92.1425884440325
 20
-140.1073932721292
 30
0.0
 10
92.18738545126413
 20
-140.1522010452842
 30
0.0
 10
92.242420851641
 20
-140.1522010452842
 30
0.0
 10
92.29745625201787
 20
-140.1522010452842
 30
0.0
 10
92.3422640251729
 20
-140.1073932721292
 30
0.0
 10
92.3422640251729
 20
-140.0523578717523
 30
0.0
  0
SPLINE
  5
77
330
1F
100
AcDbEntity
  8
_U+30EC_U+30A4_U+30E4_U+30FC 1
 62
   179
420
  2234388
370
     9
100
AcDbSpline
210
0.0
220
0.0
230
1.0
 70
    11
 71
     3
 72
    17
 73
    13
 74
     0
 42
0.0000000001
 43
0.0000000001
 12
1.0
 22
0.0
 32
0.0
 13
1.0
 23
0.0
 33
0.0
 40
0.0
 40
0.0
 40
0.0
 40
0.0
 40
1.0
 40
1.0
 40
1.0
 40
2.0
 40
2.0
 40
2.0
 40
3.0
 40
3.0
 40
3.0
 40
4.0
 40
4.0
 40
4.0
 40
4.0
 10
117.3419331575135
 20
-156.3524611188166
 30
0.0
 10
117.3419331575135
 20
-156.2974364843631
 30
0.0
 10
117.2971253843585
 20
-156.2526287112081
 30
0.0
 10
117.2420899839816
 20
-156.2526287112081
 30
0.0
 10
117.1870545836047
 20
-156.2526287112081
 30
0.0
 10
117.1422575763731
 20
-156.2974364843631
 30
0.0
 10
117.1422575763731
 20
-156.3524611188166
 30
0.0
 10
117.1422575763731
 20
-156.4074965191935
 30
0.0
 10
117.1870545836047
 20
-156.4523042923485
 30
0.0
 10
117.2420899839816
 20
-156.4523042923485
 30
0.0
 10
117.2971253843585
 20
-156.4523042923485
 30
0.0
 10
117.3419331575135
 20
-156.4074965191935
 30
0.0
 10
117.3419331575135
 20
-156.3524611188166
 30
0.0
  0
SPLINE
  5
78
330
1F
100
AcDbEntity
  8
_U+30EC_U+30A4_U+30E4_U+30FC 1
 62
   179
420
  2234388
370
     9
100
AcDbSpline
210
0.0
220
0.0
230
1.0
 70
    11
 71
     3
 72
    17
 73
    13
 74
     0
 42
0.0000000001
 43
0.0000000001
 12
1.0
 22
0.0
 32
0.0
 13
1.0
 23
0.0
 33
0.0
 40
0.0
 40
0.0
 40
0.0
 40
0.0
 40
1.0
 40
1.0
 40
1.0
 40
2.0
 40
2.0
 40
2.0
 40
3.0
 40
3.0
 40
3.0
 40
4.0
 40
4.0
 40
4.0
 40
4.0
 10
117.3419331575135
 20
-153.3524719702611
 30
0.0
 10
117.3419331575135
 20
-153.2974473358076
 30
0.0
 10
117.2971253843585
 20
-153.2526395626525
 30
0.0
 10
117.2420899839816
 20
-153.2526395626525
 30
0.0
 10
117.1870545836047
 20
-153.2526395626525
 30
0.0
 10
117.1422575763731
 20
-153.2974473358076
 30
0.0
 10
117.1422575763731
 20
-153.3524719702611
 30
0.0
 10
117.1422575763731
 20
-153.4075073706379
 30
0.0
 10
117.1870545836047
 20
-153.452315143793
 30
0.0
 10
117.2420899839816
 20
-153.452315143793
 30
0.0
 10
117.2971253843585
 20
-153.452315143793
 30
0.0
 10
117.3419331575135
 20
-153.4075073706379
 30
0.0
 10
117.3419331575135
 20
-153.3524719702611
 30
0.0
  0
POLYLINE
  5
79
330
1F
100
AcDbEntity
  8
_U+30EC_U+30A4_U+30E4_U+30FC 1
 62
   179
420
  2234388
370
     9
100
AcDb2dPolyline
 66
     1
 10
0.0
 20
0.0
 30
0.0
  0
VERTEX
  5
7A
330
79
100
AcDbEntity
  8
_U+30EC_U+30A4_U+30E4_U+30FC 1
 62
   179
420
  2234388
370
     9
100
AcDbVertex
100
AcDb2dVertex
 10
117.2420253884412
 20
-144.0520814323572
 30
0.0
  0
VERTEX
  5
7B
330
79
100
AcDbEntity
  8
_U+30EC_U+30A4_U+30E4_U+30FC 1
 62
   179
420
  2234388
370
     9
100
AcDbVertex
100
AcDb2dVertex
 10
117.2420253884412
 20
-138.7942843620028
 30
0.0
  0
SEQEND
  5
7C
330
79
100
AcDbEntity
  8
_U+30EC_U+30A4_U+30E4_U+30FC 1
 62
   179
420
  2234388
370
     9
  0
POLYLINE
  5
7D
330
1F
100
AcDbEntity
  8
_U+30EC_U+30A4_U+30E4_U+30FC 1
 62
   179
420
  2234388
370
     9
100
AcDb2dPolyline
 66
     1
 10
0.0
 20
0.0
 30
0.0
  0
VERTEX
  5
7E
330
7D
100
AcDbEntity
  8
_U+30EC_U+30A4_U+30E4_U+30FC 1
 62
   179
420
  2234388
370
     9
100
AcDbVertex
100
AcDb2dVertex
 10
117.2420253884412
 20
-144.0520814323572
 30
0.0
  0
VERTEX
  5
7F
330
7D
100
AcDbEntity
  8
_U+30EC_U+30A4_U+30E4_U+30FC 1
 62
   179
420
  2234388
370
     9
100
AcDbVertex
100
AcDb2dVertex
 10
117.2420253884412
 20
-144.85218332696
 30
0.0
  0
SEQEND
  5
80
330
7D
100
AcDbEntity
  8
_U+30EC_U+30A4_U+30E4_U+30FC 1
 62
   179
420
  2234388
370
     9
  0
POLYLINE
  5
81
330
1F
100
AcDbEntity
  8
_U+30EC_U+30A4_U+30E4_U+30FC 1
 62
   179
420
  2234388
370
     9
100
AcDb2dPolyline
 66
     1
 10
0.0
 20
0.0
 30
0.0
  0
VERTEX
  5
82
330
81
100
AcDbEntity
  8
_U+30EC_U+30A4_U+30E4_U+30FC 1
 62
   179
420
  2234388
370
     9
100
AcDbVertex
100
AcDb2dVertex
 10
115.7820154536391
 20
-144.0520814323572
 30
0.0
  0
VERTEX
  5
83
330
81
100
AcDbEntity
  8
_U+30EC_U+30A4_U+30E4_U+30FC 1
 62
   179
420
  2234388
370
     9
100
AcDbVertex
100
AcDb2dVertex
 10
118.2426318402853
 20
-144.0520814323572
 30
0.0
  0
SEQEND
  5
84
330
81
100
AcDbEntity
  8
_U+30EC_U+30A4_U+30E4_U+30FC 1
 62
   179
420
  2234388
370
     9
  0
POLYLINE
  5
85
330
1F
100
AcDbEntity
  8
_U+30EC_U+30A4_U+30E4_U+30FC 1
 62
   179
420
  2234388
370
     9
100
AcDb2dPolyline
 66
     1
 10
0.0
 20
0.0
 30
0.0
  0
VERTEX
  5
86
330
85
100
AcDbEntity
  8
_U+30EC_U+30A4_U+30E4_U+30FC 1
 62
   179
420
  2234388
370
     9
100
AcDbVertex
100
AcDb2dVertex
 10
115.7820154536391
 20
-144.8520433699556
 30
0.0
  0
VERTEX
  5
87
330
85
100
AcDbEntity
  8
_U+30EC_U+30A4_U+30E4_U+30FC 1
 62
   179
420
  2234388
370
     9
100
AcDbVertex
100
AcDb2dVertex
 10
118.2426318402853
 20
-144.8520433699556
 30
0.0
  0
SEQEND
  5
88
330
85
100
AcDbEntity
  8
_U+30EC_U+30A4_U+30E4_U+30FC 1
 62
   179
420
  2234388
370
     9
  0
INSERT
  5
8A
330
1F
100
AcDbEntity
  8
_U+30EC_U+30A4_U+30E4_U+30FC 1
100
AcDbBlockReference
  2
block 2
 10
0.0
 20
0.0
 30
0.0
  0
POLYLINE
  5
9C
330
1F
100
AcDbEntity
  8
_U+30EC_U+30A4_U+30E4_U+30FC 1
 62
   179
420
  2234388
370
     9
100
AcDb2dPolyline
 66
     1
 10
0.0
 20
0.0
 30
0.0
  0
VERTEX
  5
9D
330
9C
100
AcDbEntity
  8
_U+30EC_U+30A4_U+30E4_U+30FC 1
 62
   179
420
  2234388
370
     9
100
AcDbVertex
100
AcDb2dVertex
 10
117.2420253884412
 20
-153.3524719702611
 30
0.0
  0
VERTEX
  5
9E
330
9C
100
AcDbEntity
  8
_U+30EC_U+30A4_U+30E4_U+30FC 1
 62
   179
420
  2234388
370
     9
100
AcDbVertex
100
AcDb2dVertex
 10
117.2420253884412
 20
-156.3525041825102
 30
0.0
  0
SEQEND
  5
9F
330
9C
100
AcDbEntity
  8
_U+30EC_U+30A4_U+30E4_U+30FC 1
 62
   179
420
  2234388
370
     9
  0
POLYLINE
  5
A0
330
1F
100
AcDbEntity
  8
_U+30EC_U+30A4_U+30E4_U+30FC 1
 62
   179
420
  2234388
370
     9
100
AcDb2dPolyline
 66
     1
 10
0.0
 20
0.0
 30
0.0
  0
VERTEX
  5
A1
330
A0
100
AcDbEntity
  8
_U+30EC_U+30A4_U+30E4_U+30FC 1
 62
   179
420
  2234388
370
     9
100
AcDbVertex
100
AcDb2dVertex
 10
100.7820481790146
 20
-156.3524611188166
 30
0.0
  0
VERTEX
  5
A2
330
A0
100
AcDbEntity
  8
_U+30EC_U+30A4_U+30E4_U+30FC 1
 62
   179
420
  2234388
370
     9
100
AcDbVertex
100
AcDb2dVertex
 10
118.2424272877408
 20
-156.3524611188166
 30
0.0
  0
SEQEND
  5
A3
330
A0
100
AcDbEntity
  8
_U+30EC_U+30A4_U+30E4_U+30FC 1
 62
   179
420
  2234388
370
     9
  0
INSERT
  5
A5
330
1F
100
AcDbEntity
  8
_U+30EC_U+30A4_U+30E4_U+30FC 1
100
AcDbBlockReference
  2
block 3
 10
0.0
 20
0.0
 30
0.0
  0
POLYLINE
  5
AA
330
1F
100
AcDbEntity
  8
_U+30EC_U+30A4_U+30E4_U+30FC 1
 62
   179
420
  2234388
370
     9
100
AcDb2dPolyline
 66
     1
 10
0.0
 20
0.0
 30
0.0
  0
VERTEX
  5
AB
330
AA
100
AcDbEntity
  8
_U+30EC_U+30A4_U+30E4_U+30FC 1
 62
   179
420
  2234388
370
     9
100
AcDbVertex
100
AcDb2dVertex
 10
92.24235625610066
 20
-140.0523578717523
 30
0.0
  0
VERTEX
  5
AC
330
AA
100
AcDbEntity
  8
_U+30EC_U+30A4_U+30E4_U+30FC 1
 62
   179
420
  2234388
370
     9
100
AcDbVertex
100
AcDb2dVertex
 10
113.2421511049089
 20
-140.0523578717523
 30
0.0
  0
SEQEND
  5
AD
330
AA
100
AcDbEntity
  8
_U+30EC_U+30A4_U+30E4_U+30FC 1
 62
   179
420
  2234388
370
     9
  0
POLYLINE
  5
AE
330
1F
100
AcDbEntity
  8
_U+30EC_U+30A4_U+30E4_U+30FC 1
 62
   179
420
  2234388
370
     9
100
AcDb2dPolyline
 66
     1
 10
0.0
 20
0.0
 30
0.0
  0
VERTEX
  5
AF
330
AE
100
AcDbEntity
  8
_U+30EC_U+30A4_U+30E4_U+30FC 1
 62
   179
420
  2234388
370
     9
100
AcDbVertex
100
AcDb2dVertex
 10
92.24235625610066
 20
-141.5123678065544
 30
0.0
  0
VERTEX
  5
B0
330
AE
100
AcDbEntity
  8
_U+30EC_U+30A4_U+30E4_U+30FC 1
 62
   179
420
  2234388
370
     9
100
AcDbVertex
100
AcDb2dVertex
 10
92.24235625610066
 20
-139.052451204929
 30
0.0
  0
SEQEND
  5
B1
330
AE
100
AcDbEntity
  8
_U+30EC_U+30A4_U+30E4_U+30FC 1
 62
   179
420
  2234388
370
     9
  0
POLYLINE
  5
B2
330
1F
100
AcDbEntity
  8
_U+30EC_U+30A4_U+30E4_U+30FC 1
 62
   179
420
  2234388
370
     9
100
AcDb2dPolyline
 66
     1
 10
0.0
 20
0.0
 30
0.0
  0
VERTEX
  5
B3
330
B2
100
AcDbEntity
  8
_U+30EC_U+30A4_U+30E4_U+30FC 1
 62
   179
420
  2234388
370
     9
100
AcDbVertex
100
AcDb2dVertex
 10
113.2422695300662
 20
-141.5123678065544
 30
0.0
  0
VERTEX
  5
B4
330
B2
100
AcDbEntity
  8
_U+30EC_U+30A4_U+30E4_U+30FC 1
 62
   179
420
  2234388
370
     9
100
AcDbVertex
100
AcDb2dVertex
 10
113.2422695300662
 20
-139.052451204929
 30
0.0
  0
SEQEND
  5
B5
330
B2
100
AcDbEntity
  8
_U+30EC_U+30A4_U+30E4_U+30FC 1
 62
   179
420
  2234388
370
     9
  0
INSERT
  5
B7
330
1F
100
AcDbEntity
  8
_U+30EC_U+30A4_U+30E4_U+30FC 1
100
AcDbBlockReference
  2
block 4
 10
0.0
 20
0.0
 30
0.0
  0
POLYLINE
  5
BE
330
1F
100
AcDbEntity
  8
_U+30EC_U+30A4_U+30E4_U+30FC 1
 62
   179
420
  2234388
370
     9
100
AcDb2dPolyline
 66
     1
 10
0.0
 20
0.0
 30
0.0
  0
VERTEX
  5
BF
330
BE
100
AcDbEntity
  8
_U+30EC_U+30A4_U+30E4_U+30FC 1
 62
   179
420
  2234388
370
     9
100
AcDbVertex
100
AcDb2dVertex
 10
92.24235625610066
 20
-160.3525722526636
 30
0.0
  0
VERTEX
  5
C0
330
BE
100
AcDbEntity
  8
_U+30EC_U+30A4_U+30E4_U+30FC 1
 62
   179
420
  2234388
370
     9
100
AcDbVertex
100
AcDb2dVertex
 10
98.24239914875213
 20
-160.3525722526636
 30
0.0
  0
SEQEND
  5
C1
330
BE
100
AcDbEntity
  8
_U+30EC_U+30A4_U+30E4_U+30FC 1
 62
   179
420
  2234388
370
     9
  0
POLYLINE
  5
C2
330
1F
100
AcDbEntity
  8
_U+30EC_U+30A4_U+30E4_U+30FC 1
 62
   179
420
  2234388
370
     9
100
AcDb2dPolyline
 66
     1
 10
0.0
 20
0.0
 30
0.0
  0
VERTEX
  5
C3
330
C2
100
AcDbEntity
  8
_U+30EC_U+30A4_U+30E4_U+30FC 1
 62
   179
420
  2234388
370
     9
100
AcDbVertex
100
AcDb2dVertex
 10
92.24235625610066
 20
-158.8925300200913
 30
0.0
  0
VERTEX
  5
C4
330
C2
100
AcDbEntity
  8
_U+30EC_U+30A4_U+30E4_U+30FC 1
 62
   179
420
  2234388
370
     9
100
AcDbVertex
100
AcDb2dVertex
 10
92.24235625610066
 20
-161.3524573876404
 30
0.0
  0
SEQEND
  5
C5
330
C2
100
AcDbEntity
  8
_U+30EC_U+30A4_U+30E4_U+30FC 1
 62
   179
420
  2234388
370
     9
  0
POLYLINE
  5
C6
330
1F
100
AcDbEntity
  8
_U+30EC_U+30A4_U+30E4_U+30FC 1
 62
   179
420
  2234388
370
     9
100
AcDb2dPolyline
 66
     1
 10
0.0
 20
0.0
 30
0.0
  0
VERTEX
  5
C7
330
C6
100
AcDbEntity
  8
_U+30EC_U+30A4_U+30E4_U+30FC 1
 62
   179
420
  2234388
370
     9
100
AcDbVertex
100
AcDb2dVertex
 10
98.24233455321178
 20
-158.8925300200913
 30
0.0
  0
VERTEX
  5
C8
330
C6
100
AcDbEntity
  8
_U+30EC_U+30A4_U+30E4_U+30FC 1
 62
   179
420
  2234388
370
     9
100
AcDbVertex
100
AcDb2dVertex
 10
98.24233455321178
 20
-161.3524573876404
 30
0.0
  0
SEQEND
  5
C9
330
C6
100
AcDbEntity
  8
_U+30EC_U+30A4_U+30E4_U+30FC 1
 62
   179
420
  2234388
370
     9
  0
INSERT
  5
CB
330
1F
100
AcDbEntity
  8
_U+30EC_U+30A4_U+30E4_U+30FC 1
100
AcDbBlockReference
  2
block 5
 10
0.0
 20
0.0
 30
0.0
  0
POLYLINE
  5
D1
330
1F
100
AcDbEntity
  8
_U+30EC_U+30A4_U+30E4_U+30FC 1
 62
   179
420
  2234388
370
     9
100
AcDb2dPolyline
 66
     1
 10
0.0
 20
0.0
 30
0.0
  0
VERTEX
  5
D2
330
D1
100
AcDbEntity
  8
_U+30EC_U+30A4_U+30E4_U+30FC 1
 62
   179
420
  2234388
370
     9
100
AcDbVertex
100
AcDb2dVertex
 10
117.2420253884412
 20
-144.8520433699556
 30
0.0
  0
VERTEX
  5
D3
330
D1
100
AcDbEntity
  8
_U+30EC_U+30A4_U+30E4_U+30FC 1
 62
   179
420
  2234388
370
     9
100
AcDbVertex
100
AcDb2dVertex
 10
117.2420253884412
 20
-153.352579629495
 30
0.0
  0
SEQEND
  5
D4
330
D1
100
AcDbEntity
  8
_U+30EC_U+30A4_U+30E4_U+30FC 1
 62
   179
420
  2234388
370
     9
  0
POLYLINE
  5
D5
330
1F
100
AcDbEntity
  8
_U+30EC_U+30A4_U+30E4_U+30FC 1
 62
   179
420
  2234388
370
     9
100
AcDb2dPolyline
 66
     1
 10
0.0
 20
0.0
 30
0.0
  0
VERTEX
  5
D6
330
D5
100
AcDbEntity
  8
_U+30EC_U+30A4_U+30E4_U+30FC 1
 62
   179
420
  2234388
370
     9
100
AcDbVertex
100
AcDb2dVertex
 10
115.7820154536391
 20
-144.8520433699556
 30
0.0
  0
VERTEX
  5
D7
330
D5
100
AcDbEntity
  8
_U+30EC_U+30A4_U+30E4_U+30FC 1
 62
   179
420
  2234388
370
     9
100
AcDbVertex
100
AcDb2dVertex
 10
118.2426318402853
 20
-144.8520433699556
 30
0.0
  0
SEQEND
  5
D8
330
D5
100
AcDbEntity
  8
_U+30EC_U+30A4_U+30E4_U+30FC 1
 62
   179
420
  2234388
370
     9
  0
POLYLINE
  5
D9
330
1F
100
AcDbEntity
  8
_U+30EC_U+30A4_U+30E4_U+30FC 1
 62
   179
420
  2234388
370
     9
100
AcDb2dPolyline
 66
     1
 10
0.0
 20
0.0
 30
0.0
  0
VERTEX
  5
DA
330
D9
100
AcDbEntity
  8
_U+30EC_U+30A4_U+30E4_U+30FC 1
 62
   179
420
  2234388
370
     9
100
AcDbVertex
100
AcDb2dVertex
 10
100.7820481790146
 20
-153.3524719702611
 30
0.0
  0
VERTEX
  5
DB
330
D9
100
AcDbEntity
  8
_U+30EC_U+30A4_U+30E4_U+30FC 1
 62
   179
420
  2234388
370
     9
100
AcDbVertex
100
AcDb2dVertex
 10
118.2424272877408
 20
-153.3524719702611
 30
0.0
  0
SEQEND
  5
DC
330
D9
100
AcDbEntity
  8
_U+30EC_U+30A4_U+30E4_U+30FC 1
 62
   179
420
  2234388
370
     9
  0
INSERT
  5
DE
330
1F
100
AcDbEntity
  8
_U+30EC_U+30A4_U+30E4_U+30FC 1
100
AcDbBlockReference
  2
block 6
 10
0.0
 20
0.0
 30
0.0
  0
ENDSEC
  0
SECTION
  2
OBJECTS
  0
DICTIONARY
  5
C
330
0
100
AcDbDictionary
281
     1
  3
ACAD_GROUP
350
D
  3
ACAD_LAYOUT
350
1A
  3
ACAD_MATERIAL
350
3B
  3
ACAD_MLEADERSTYLE
350
F0
  3
ACAD_MLINESTYLE
350
17
  3
ACAD_PLOTSETTINGS
350
19
  3
ACAD_PLOTSTYLENAME
350
E
  3
ACAD_TABLESTYLE
350
EF
  3
ACAD_VISUALSTYLE
350
2A
  0
SUN
  5
3F
330
29
100
AcDbSun
 90
        1
290
     0
 63
     7
421
 16777215
 40
1.0
291
     1
 91
  2455826
 92
 54000000
292
     0
 70
     2
 71
   256
280
     1
  0
DICTIONARY
  5
D
102
{ACAD_REACTORS
330
C
102
}
330
C
100
AcDbDictionary
281
     1
  0
DICTIONARY
  5
1A
102
{ACAD_REACTORS
330
C
102
}
330
C
100
AcDbDictionary
281
     1
  3
Layout1
350
1E
  3
Layout2
350
26
  3
Model
350
22
  0
DICTIONARY
  5
3B
102
{ACAD_REACTORS
330
C
102
}
330
C
100
AcDbDictionary
281
     1
  3
ByBlock
350
3D
  3
ByLayer
350
3C
  3
Global
350
3E
  0
DICTIONARY
  5
F0
102
{ACAD_REACTORS
330
C
102
}
330
C
100
AcDbDictionary
281
     1
  0
DICTIONARY
  5
17
102
{ACAD_REACTORS
330
C
102
}
330
C
100
AcDbDictionary
281
     1
  3
Standard
350
18
  0
DICTIONARY
  5
19
102
{ACAD_REACTORS
330
C
102
}
330
C
100
AcDbDictionary
281
     1
  0
ACDBDICTIONARYWDFLT
  5
E
102
{ACAD_REACTORS
330
C
102
}
330
C
100
AcDbDictionary
281
     1
  3
Normal
350
F
100
AcDbDictionaryWithDefault
340
F
  0
DICTIONARY
  5
EF
102
{ACAD_REACTORS
330
C
102
}
330
C
100
AcDbDictionary
281
     1
  0
DICTIONARY
  5
2A
102
{ACAD_REACTORS
330
C
102
}
330
C
100
AcDbDictionary
281
     1
  3
2dWireframe
350
2F
  3
3D Hidden
350
31
  3
3dWireframe
350
30
  3
Basic
350
32
  3
Brighten
350
36
  3
ColorChange
350
3A
  3
Conceptual
350
34
  3
Dim
350
35
  3
Facepattern
350
39
  3
Flat
350
2B
  3
FlatWithEdges
350
2C
  3
Gouraud
350
2D
  3
GouraudWithEdges
350
2E
  3
Linepattern
350
38
  3
Realistic
350
33
  3
Thicken
350
37
  0
LAYOUT
  5
1E
102
{ACAD_REACTORS
330
1A
102
}
330
1A
100
AcDbPlotSettings
  1

  2
none_device
  4

  6

 40
0.0
 41
0.0
 42
0.0
 43
0.0
 44
0.0
 45
0.0
 46
0.0
 47
0.0
 48
0.0
 49
0.0
140
0.0
141
0.0
142
1.0
143
1.0
 70
   688
 72
     0
 73
     0
 74
     5
  7

 75
    16
 76
     0
 77
     2
 78
   300
147
1.0
148
0.0
149
0.0
100
AcDbLayout
  1
Layout1
 70
     1
 71
     1
 10
0.0
 20
0.0
 11
12.0
 21
9.0
 12
0.0
 22
0.0
 32
0.0
 14
1.000000000000000E+20
 24
1.000000000000000E+20
 34
1.000000000000000E+20
 15
-1.000000000000000E+20
 25
-1.000000000000000E+20
 35
-1.000000000000000E+20
146
0.0
 13
0.0
 23
0.0
 33
0.0
 16
1.0
 26
0.0
 36
0.0
 17
0.0
 27
1.0
 37
0.0
 76
     0
330
1B
  0
LAYOUT
  5
26
102
{ACAD_REACTORS
330
1A
102
}
330
1A
100
AcDbPlotSettings
  1

  2
none_device
  4

  6

 40
0.0
 41
0.0
 42
0.0
 43
0.0
 44
0.0
 45
0.0
 46
0.0
 47
0.0
 48
0.0
 49
0.0
140
0.0
141
0.0
142
1.0
143
1.0
 70
   688
 72
     0
 73
     0
 74
     5
  7

 75
    16
 76
     0
 77
     2
 78
   300
147
1.0
148
0.0
149
0.0
100
AcDbLayout
  1
Layout2
 70
     1
 71
     2
 10
0.0
 20
0.0
 11
0.0
 21
0.0
 12
0.0
 22
0.0
 32
0.0
 14
0.0
 24
0.0
 34
0.0
 15
0.0
 25
0.0
 35
0.0
146
0.0
 13
0.0
 23
0.0
 33
0.0
 16
1.0
 26
0.0
 36
0.0
 17
0.0
 27
1.0
 37
0.0
 76
     0
330
23
  0
LAYOUT
  5
22
102
{ACAD_REACTORS
330
1A
102
}
330
1A
100
AcDbPlotSettings
  1

  2
none_device
  4

  6

 40
0.0
 41
0.0
 42
0.0
 43
0.0
 44
0.0
 45
0.0
 46
0.0
 47
0.0
 48
0.0
 49
0.0
140
0.0
141
0.0
142
1.0
143
1.0
 70
  1712
 72
     0
 73
     0
 74
     0
  7

 75
     0
 76
     0
 77
     2
 78
   300
147
1.0
148
0.0
149
0.0
100
AcDbLayout
  1
Model
 70
     1
 71
     0
 10
0.0
 20
0.0
 11
12.0
 21
9.0
 12
0.0
 22
0.0
 32
0.0
 14
1.000000000000000E+20
 24
1.000000000000000E+20
 34
1.000000000000000E+20
 15
-1.000000000000000E+20
 25
-1.000000000000000E+20
 35
-1.000000000000000E+20
146
0.0
 13
0.0
 23
0.0
 33
0.0
 16
1.0
 26
0.0
 36
0.0
 17
0.0
 27
1.0
 37
0.0
 76
     0
330
1F
331
29
  0
MATERIAL
  5
3D
102
{ACAD_REACTORS
330
3B
102
}
330
3B
100
AcDbMaterial
  1
ByBlock
 72
     1
 94
      127
  0
MATERIAL
  5
3C
102
{ACAD_REACTORS
330
3B
102
}
330
3B
100
AcDbMaterial
  1
ByLayer
 72
     1
 94
      127
  0
MATERIAL
  5
3E
102
{ACAD_REACTORS
330
3B
102
}
330
3B
100
AcDbMaterial
  1
Global
 72
     1
 94
      127
  0
MLINESTYLE
  5
18
102
{ACAD_REACTORS
330
17
102
}
330
17
100
AcDbMlineStyle
  2
Standard
 70
     0
  3

 62
   256
 51
90.0
 52
90.0
 71
     2
 49
0.5
 62
   256
  6
BYLAYER
 49
-0.5
 62
   256
  6
BYLAYER
  0
ACDBPLACEHOLDER
  5
F
102
{ACAD_REACTORS
330
E
102
}
330
E
  0
VISUALSTYLE
  5
2F
102
{ACAD_REACTORS
330
2A
102
}
330
2A
100
AcDbVisualStyle
  2
2dWireframe
 70
     4
177
     2
291
     0
 71
     0
176
     1
 72
     2
176
     1
 73
     0
176
     1
 90
        0
176
     1
 40
-0.6
176
     1
 41
-30.0
176
     1
 62
     5
 63
     7
421
 16777215
176
     1
 74
     1
176
     1
 91
        4
176
     1
 64
     7
176
     1
 65
   257
176
     1
 75
     1
176
     1
175
     1
176
     1
 42
1.0
176
     1
 92
        0
176
     1
 66
   257
176
     1
 43
1.0
176
     1
 76
     1
176
     1
 77
     6
176
     1
 78
     2
176
     1
 67
     7
176
     1
 79
     5
176
     1
170
     0
176
     1
171
     0
176
     1
290
     0
176
     1
 93
        1
176
     1
 44
0.0
176
     1
173
     0
176
     1
  0
VISUALSTYLE
  5
31
102
{ACAD_REACTORS
330
2A
102
}
330
2A
100
AcDbVisualStyle
  2
3D Hidden
 70
     6
177
     2
291
     0
 71
     1
176
     1
 72
     2
176
     1
 73
     2
176
     1
 90
        0
176
     1
 40
-0.6
176
     1
 41
-30.0
176
     1
 62
     5
 63
     7
421
 16777215
176
     1
 74
     2
176
     1
 91
        2
176
     1
 64
     7
176
     1
 65
   257
176
     1
 75
     2
176
     1
175
     1
176
     1
 42
40.0
176
     1
 92
        0
176
     1
 66
   257
176
     1
 43
1.0
176
     1
 76
     1
176
     1
 77
     6
176
     1
 78
     2
176
     1
 67
     7
176
     1
 79
     3
176
     1
170
     0
176
     1
171
     0
176
     1
290
     0
176
     1
 93
        1
176
     1
 44
0.0
176
     1
173
     0
176
     1
  0
VISUALSTYLE
  5
30
102
{ACAD_REACTORS
330
2A
102
}
330
2A
100
AcDbVisualStyle
  2
3dWireframe
 70
     5
177
     2
291
     0
 71
     0
176
     1
 72
     2
176
     1
 73
     0
176
     1
 90
        0
176
     1
 40
-0.6
176
     1
 41
-30.0
176
     1
 62
     5
 63
     7
421
 16777215
176
     1
 74
     1
176
     1
 91
        4
176
     1
 64
     7
176
     1
 65
   257
176
     1
 75
     1
176
     1
175
     1
176
     1
 42
1.0
176
     1
 92
        0
176
     1
 66
   257
176
     1
 43
1.0
176
     1
 76
     1
176
     1
 77
     6
176
     1
 78
     2
176
     1
 67
     7
176
     1
 79
     5
176
     1
170
     0
176
     1
171
     0
176
     1
290
     0
176
     1
 93
        1
176
     1
 44
0.0
176
     1
173
     0
176
     1
  0
VISUALSTYLE
  5
32
102
{ACAD_REACTORS
330
2A
102
}
330
2A
100
AcDbVisualStyle
  2
Basic
 70
     7
177
     2
291
     1
 71
     1
176
     1
 72
     0
176
     1
 73
     1
176
     1
 90
        0
176
     1
 40
-0.6
176
     1
 41
-30.0
176
     1
 62
     5
 63
     7
421
 16777215
176
     1
 74
     0
176
     1
 91
        4
176
     1
 64
     7
176
     1
 65
   257
176
     1
 75
     1
176
     1
175
     1
176
     1
 42
1.0
176
     1
 92
        8
176
     1
 66
     7
176
     1
 43
1.0
176
     1
 76
     1
176
     1
 77
     6
176
     1
 78
     2
176
     1
 67
     7
176
     1
 79
     5
176
     1
170
     0
176
     1
171
     0
176
     1
290
     0
176
     1
 93
        1
176
     1
 44
0.0
176
     1
173
     0
176
     1
  0
VISUALSTYLE
  5
36
102
{ACAD_REACTORS
330
2A
102
}
330
2A
100
AcDbVisualStyle
  2
Brighten
 70
    12
177
     2
291
     1
 71
     2
176
     1
 72
     2
176
     1
 73
     0
176
     1
 90
        0
176
     1
 40
-0.6
176
     1
 41
-30.0
176
     1
 62
     5
 63
     7
421
 16777215
176
     1
 74
     1
176
     1
 91
        4
176
     1
 64
     7
176
     1
 65
   257
176
     1
 75
     1
176
     1
175
     1
176
     1
 42
1.0
176
     1
 92
        8
176
     1
 66
     7
176
     1
 43
1.0
176
     1
 76
     1
176
     1
 77
     6
176
     1
 78
     2
176
     1
 67
     7
176
     1
 79
     5
176
     1
170
     0
176
     1
171
     0
176
     1
290
     0
176
     1
 93
        1
176
     1
 44
50.0
176
     1
173
     0
176
     1
  0
VISUALSTYLE
  5
3A
102
{ACAD_REACTORS
330
2A
102
}
330
2A
100
AcDbVisualStyle
  2
ColorChange
 70
    16
177
     2
291
     1
 71
     2
176
     1
 72
     2
176
     1
 73
     3
176
     1
 90
        0
176
     1
 40
-0.6
176
     1
 41
-30.0
176
     1
 62
     5
 63
     8
421
  8421504
176
     1
 74
     1
176
     1
 91
        4
176
     1
 64
     7
176
     1
 65
   257
176
     1
 75
     1
176
     1
175
     1
176
     1
 42
1.0
176
     1
 92
        8
176
     1
 66
     8
424
  8421504
176
     1
 43
1.0
176
     1
 76
     1
176
     1
 77
     6
176
     1
 78
     2
176
     1
 67
     7
176
     1
 79
     5
176
     1
170
     0
176
     1
171
     0
176
     1
290
     0
176
     1
 93
        1
176
     1
 44
0.0
176
     1
173
     0
176
     1
  0
VISUALSTYLE
  5
34
102
{ACAD_REACTORS
330
2A
102
}
330
2A
100
AcDbVisualStyle
  2
Conceptual
 70
     9
177
     2
291
     0
 71
     3
176
     1
 72
     2
176
     1
 73
     0
176
     1
 90
        0
176
     1
 40
-0.6
176
     1
 41
-30.0
176
     1
 62
     5
 63
     7
421
 16777215
176
     1
 74
     2
176
     1
 91
        2
176
     1
 64
     7
176
     1
 65
   257
176
     1
 75
     1
176
     1
175
     1
176
     1
 42
40.0
176
     1
 92
        8
176
     1
 66
     7
176
     1
 43
1.0
176
     1
 76
     1
176
     1
 77
     6
176
     1
 78
     2
176
     1
 67
     7
176
     1
 79
     3
176
     1
170
     0
176
     1
171
     0
176
     1
290
     0
176
     1
 93
        1
176
     1
 44
0.0
176
     1
173
     0
176
     1
  0
VISUALSTYLE
  5
35
102
{ACAD_REACTORS
330
2A
102
}
330
2A
100
AcDbVisualStyle
  2
Dim
 70
    11
177
     2
291
     1
 71
     2
176
     1
 72
     2
176
     1
 73
     0
176
     1
 90
        0
176
     1
 40
-0.6
176
     1
 41
-30.0
176
     1
 62
     5
 63
     7
421
 16777215
176
     1
 74
     1
176
     1
 91
        4
176
     1
 64
     7
176
     1
 65
   257
176
     1
 75
     1
176
     1
175
     1
176
     1
 42
1.0
176
     1
 92
        8
176
     1
 66
     7
176
     1
 43
1.0
176
     1
 76
     1
176
     1
 77
     6
176
     1
 78
     2
176
     1
 67
     7
176
     1
 79
     5
176
     1
170
     0
176
     1
171
     0
176
     1
290
     0
176
     1
 93
        1
176
     1
 44
-50.0
176
     1
173
     0
176
     1
  0
VISUALSTYLE
  5
39
102
{ACAD_REACTORS
330
2A
102
}
330
2A
100
AcDbVisualStyle
  2
Facepattern
 70
    15
177
     2
291
     1
 71
     2
176
     1
 72
     2
176
     1
 73
     0
176
     1
 90
        0
176
     1
 40
-0.6
176
     1
 41
-30.0
176
     1
 62
     5
 63
     7
421
 16777215
176
     1
 74
     1
176
     1
 91
        4
176
     1
 64
     7
176
     1
 65
   257
176
     1
 75
     1
176
     1
175
     1
176
     1
 42
1.0
176
     1
 92
        8
176
     1
 66
     7
176
     1
 43
1.0
176
     1
 76
     1
176
     1
 77
     6
176
     1
 78
     2
176
     1
 67
     7
176
     1
 79
     5
176
     1
170
     0
176
     1
171
     0
176
     1
290
     0
176
     1
 93
        1
176
     1
 44
0.0
176
     1
173
     0
176
     1
  0
VISUALSTYLE
  5
2B
102
{ACAD_REACTORS
330
2A
102
}
330
2A
100
AcDbVisualStyle
  2
Flat
 70
     0
177
     2
291
     1
 71
     2
176
     1
 72
     1
176
     1
 73
     1
176
     1
 90
        2
176
     1
 40
-0.6
176
     1
 41
30.0
176
     1
 62
     5
 63
     7
421
 16777215
176
     1
 74
     0
176
     1
 91
        4
176
     1
 64
     7
176
     1
 65
   257
176
     1
 75
     1
176
     1
175
     1
176
     1
 42
1.0
176
     1
 92
        8
176
     1
 66
     7
176
     1
 43
1.0
176
     1
 76
     1
176
     1
 77
     6
176
     1
 78
     2
176
     1
 67
     7
176
     1
 79
     5
176
     1
170
     0
176
     1
171
     0
176
     1
290
     0
176
     1
 93
       13
176
     1
 44
0.0
176
     1
173
     0
176
     1
  0
VISUALSTYLE
  5
2C
102
{ACAD_REACTORS
330
2A
102
}
330
2A
100
AcDbVisualStyle
  2
FlatWithEdges
 70
     1
177
     2
291
     1
 71
     2
176
     1
 72
     1
176
     1
 73
     1
176
     1
 90
        2
176
     1
 40
-0.6
176
     1
 41
30.0
176
     1
 62
     5
 63
     7
421
 16777215
176
     1
 74
     1
176
     1
 91
        4
176
     1
 64
     7
176
     1
 65
   257
176
     1
 75
     1
176
     1
175
     1
176
     1
 42
1.0
176
     1
 92
        0
176
     1
 66
   257
176
     1
 43
1.0
176
     1
 76
     1
176
     1
 77
     6
176
     1
 78
     2
176
     1
 67
     7
176
     1
 79
     5
176
     1
170
     0
176
     1
171
     0
176
     1
290
     0
176
     1
 93
       13
176
     1
 44
0.0
176
     1
173
     0
176
     1
  0
VISUALSTYLE
  5
2D
102
{ACAD_REACTORS
330
2A
102
}
330
2A
100
AcDbVisualStyle
  2
Gouraud
 70
     2
177
     2
291
     1
 71
     2
176
     1
 72
     2
176
     1
 73
     1
176
     1
 90
        2
176
     1
 40
-0.6
176
     1
 41
30.0
176
     1
 62
     5
 63
     7
421
 16777215
176
     1
 74
     0
176
     1
 91
        4
176
     1
 64
     7
176
     1
 65
   257
176
     1
 75
     1
176
     1
175
     1
176
     1
 42
1.0
176
     1
 92
        0
176
     1
 66
     7
176
     1
 43
1.0
176
     1
 76
     1
176
     1
 77
     6
176
     1
 78
     2
176
     1
 67
     7
176
     1
 79
     5
176
     1
170
     0
176
     1
171
     0
176
     1
290
     0
176
     1
 93
       13
176
     1
 44
0.0
176
     1
173
     0
176
     1
  0
VISUALSTYLE
  5
2E
102
{ACAD_REACTORS
330
2A
102
}
330
2A
100
AcDbVisualStyle
  2
GouraudWithEdges
 70
     3
177
     2
291
     1
 71
     2
176
     1
 72
     2
176
     1
 73
     1
176
     1
 90
        2
176
     1
 40
-0.6
176
     1
 41
30.0
176
     1
 62
     5
 63
     7
421
 16777215
176
     1
 74
     1
176
     1
 91
        4
176
     1
 64
     7
176
     1
 65
   257
176
     1
 75
     1
176
     1
175
     1
176
     1
 42
1.0
176
     1
 92
        0
176
     1
 66
   257
176
     1
 43
1.0
176
     1
 76
     1
176
     1
 77
     6
176
     1
 78
     2
176
     1
 67
     7
176
     1
 79
     5
176
     1
170
     0
176
     1
171
     0
176
     1
290
     0
176
     1
 93
       13
176
     1
 44
0.0
176
     1
173
     0
176
     1
  0
VISUALSTYLE
  5
38
102
{ACAD_REACTORS
330
2A
102
}
330
2A
100
AcDbVisualStyle
  2
Linepattern
 70
    14
177
     2
291
     1
 71
     2
176
     1
 72
     2
176
     1
 73
     0
176
     1
 90
        0
176
     1
 40
-0.6
176
     1
 41
-30.0
176
     1
 62
     5
 63
     7
421
 16777215
176
     1
 74
     1
176
     1
 91
        4
176
     1
 64
     7
176
     1
 65
   257
176
     1
 75
     7
176
     1
175
     7
176
     1
 42
1.0
176
     1
 92
        8
176
     1
 66
     7
176
     1
 43
1.0
176
     1
 76
     1
176
     1
 77
     6
176
     1
 78
     2
176
     1
 67
     7
176
     1
 79
     5
176
     1
170
     0
176
     1
171
     0
176
     1
290
     0
176
     1
 93
        1
176
     1
 44
0.0
176
     1
173
     0
176
     1
  0
VISUALSTYLE
  5
33
102
{ACAD_REACTORS
330
2A
102
}
330
2A
100
AcDbVisualStyle
  2
Realistic
 70
     8
177
     2
291
     0
 71
     2
176
     1
 72
     2
176
     1
 73
     0
176
     1
 90
        0
176
     1
 40
-0.6
176
     1
 41
-30.0
176
     1
 62
     5
 63
     7
421
 16777215
176
     1
 74
     1
176
     1
 91
        0
176
     1
 64
     7
176
     1
 65
   257
176
     1
 75
     1
176
     1
175
     1
176
     1
 42
1.0
176
     1
 92
        8
176
     1
 66
     8
424
  7895160
176
     1
 43
1.0
176
     1
 76
     1
176
     1
 77
     6
176
     1
 78
     2
176
     1
 67
     7
176
     1
 79
     5
176
     1
170
     0
176
     1
171
     0
176
     1
290
     0
176
     1
 93
       13
176
     1
 44
0.0
176
     1
173
     0
176
     1
  0
VISUALSTYLE
  5
37
102
{ACAD_REACTORS
330
2A
102
}
330
2A
100
AcDbVisualStyle
  2
Thicken
 70
    13
177
     2
291
     1
 71
     2
176
     1
 72
     2
176
     1
 73
     0
176
     1
 90
        0
176
     1
 40
-0.6
176
     1
 41
-30.0
176
     1
 62
     5
 63
     7
421
 16777215
176
     1
 74
     1
176
     1
 91
        4
176
     1
 64
     7
176
     1
 65
   257
176
     1
 75
     1
176
     1
175
     1
176
     1
 42
1.0
176
     1
 92
       12
176
     1
 66
     7
176
     1
 43
1.0
176
     1
 76
     1
176
     1
 77
     6
176
     1
 78
     2
176
     1
 67
     7
176
     1
 79
     5
176
     1
170
     0
176
     1
171
     0
176
     1
290
     0
176
     1
 93
        1
176
     1
 44
0.0
176
     1
173
     0
176
     1
  0
ENDSEC
  0
EOF
