  0
SECTION
  2
HEADER
  9
$ACADVER
  1
AC1024
  9
$ACADMAINTVER
 70
     6
  9
$DWGCODEPAGE
  3
UNDEFINED
  9
$INSBASE
 10
0.0
 20
0.0
 30
0.0
  9
$EXTMIN
 10
1.000000000000000E+20
 20
1.000000000000000E+20
 30
1.000000000000000E+20
  9
$EXTMAX
 10
-1.000000000000000E+20
 20
-1.000000000000000E+20
 30
-1.000000000000000E+20
  9
$LIMMIN
 10
0.0
 20
0.0
  9
$LIMMAX
 10
12.0
 20
9.0
  9
$ORTHOMODE
 70
     0
  9
$REGENMODE
 70
     1
  9
$FILLMODE
 70
     1
  9
$QTEXTMODE
 70
     0
  9
$MIRRTEXT
 70
     1
  9
$LTSCALE
 40
1.0
  9
$ATTMODE
 70
     1
  9
$TEXTSIZE
 40
0.2
  9
$TRACEWID
 40
0.05
  9
$TEXTSTYLE
  7
Standard
  9
$CLAYER
  8
0
  9
$CELTYPE
  6
ByLayer
  9
$CECOLOR
 62
   256
  9
$CELTSCALE
 40
1.0
  9
$DISPSILH
 70
     0
  9
$DIMSCALE
 40
1.0
  9
$DIMASZ
 40
0.18
  9
$DIMEXO
 40
0.0625
  9
$DIMDLI
 40
0.38
  9
$DIMRND
 40
0.0
  9
$DIMDLE
 40
0.0
  9
$DIMEXE
 40
0.18
  9
$DIMTP
 40
0.0
  9
$DIMTM
 40
0.0
  9
$DIMTXT
 40
0.18
  9
$DIMCEN
 40
0.09
  9
$DIMTSZ
 40
0.0
  9
$DIMTOL
 70
     0
  9
$DIMLIM
 70
     0
  9
$DIMTIH
 70
     1
  9
$DIMTOH
 70
     1
  9
$DIMSE1
 70
     0
  9
$DIMSE2
 70
     0
  9
$DIMTAD
 70
     0
  9
$DIMZIN
 70
     0
  9
$DIMBLK
  1

  9
$DIMASO
 70
     1
  9
$DIMSHO
 70
     1
  9
$DIMPOST
  1

  9
$DIMAPOST
  1

  9
$DIMALT
 70
     0
  9
$DIMALTD
 70
     2
  9
$DIMALTF
 40
25.4
  9
$DIMLFAC
 40
1.0
  9
$DIMTOFL
 70
     0
  9
$DIMTVP
 40
0.0
  9
$DIMTIX
 70
     0
  9
$DIMSOXD
 70
     0
  9
$DIMSAH
 70
     0
  9
$DIMBLK1
  1

  9
$DIMBLK2
  1

  9
$DIMSTYLE
  2
Standard
  9
$DIMCLRD
 70
     0
  9
$DIMCLRE
 70
     0
  9
$DIMCLRT
 70
     0
  9
$DIMTFAC
 40
1.0
  9
$DIMGAP
 40
0.09
  9
$DIMJUST
 70
     0
  9
$DIMSD1
 70
     0
  9
$DIMSD2
 70
     0
  9
$DIMTOLJ
 70
     1
  9
$DIMTZIN
 70
     0
  9
$DIMALTZ
 70
     0
  9
$DIMALTTZ
 70
     0
  9
$DIMUPT
 70
     0
  9
$DIMDEC
 70
     4
  9
$DIMTDEC
 70
     4
  9
$DIMALTU
 70
     2
  9
$DIMALTTD
 70
     2
  9
$DIMTXSTY
  7
Standard
  9
$DIMAUNIT
 70
     0
  9
$DIMADEC
 70
     0
  9
$DIMALTRND
 40
0.0
  9
$DIMAZIN
 70
     0
  9
$DIMDSEP
 70
    46
  9
$DIMATFIT
 70
     3
  9
$DIMFRAC
 70
     0
  9
$DIMLDRBLK
  1

  9
$DIMLUNIT
 70
     2
  9
$DIMLWD
 70
    -2
  9
$DIMLWE
 70
    -2
  9
$DIMTMOVE
 70
     0
  9
$DIMFXL
 40
1.0
  9
$DIMFXLON
 70
     0
  9
$DIMJOGANG
 40
0.7853981633974483
  9
$DIMTFILL
 70
     0
  9
$DIMTFILLCLR
 70
     0
  9
$DIMARCSYM
 70
     0
  9
$DIMLTYPE
  6

  9
$DIMLTEX1
  6

  9
$DIMLTEX2
  6

  9
$DIMTXTDIRECTION
 70
     0
  9
$LUNITS
 70
     2
  9
$LUPREC
 70
     4
  9
$SKETCHINC
 40
0.1
  9
$FILLETRAD
 40
0.5
  9
$AUNITS
 70
     0
  9
$AUPREC
 70
     0
  9
$MENU
  1
.
  9
$ELEVATION
 40
0.0
  9
$PELEVATION
 40
0.0
  9
$THICKNESS
 40
0.0
  9
$LIMCHECK
 70
     0
  9
$CHAMFERA
 40
0.5
  9
$CHAMFERB
 40
0.5
  9
$CHAMFERC
 40
1.0
  9
$CHAMFERD
 40
0.0
  9
$SKPOLY
 70
     0
  9
$TDCREATE
 40
2457917.611134248
  9
$TDUCREATE
 40
2457917.236134259
  9
$TDUPDATE
 40
2457917.611134248
  9
$TDUUPDATE
 40
2457917.236134259
  9
$TDINDWG
 40
0.0000000116
  9
$TDUSRTIMER
 40
0.0000000116
  9
$USRTIMER
 70
     1
  9
$ANGBASE
 50
0.0
  9
$ANGDIR
 70
     0
  9
$PDMODE
 70
     0
  9
$PDSIZE
 40
0.0
  9
$PLINEWID
 40
0.0
  9
$SPLFRAME
 70
     0
  9
$SPLINETYPE
 70
     6
  9
$SPLINESEGS
 70
     8
  9
$HANDSEED
  5
131
  9
$SURFTAB1
 70
     6
  9
$SURFTAB2
 70
     6
  9
$SURFTYPE
 70
     6
  9
$SURFU
 70
     6
  9
$SURFV
 70
     6
  9
$UCSBASE
  2

  9
$UCSNAME
  2

  9
$UCSORG
 10
0.0
 20
0.0
 30
0.0
  9
$UCSXDIR
 10
1.0
 20
0.0
 30
0.0
  9
$UCSYDIR
 10
0.0
 20
1.0
 30
0.0
  9
$UCSORTHOREF
  2

  9
$UCSORTHOVIEW
 70
     0
  9
$UCSORGTOP
 10
0.0
 20
0.0
 30
0.0
  9
$UCSORGBOTTOM
 10
0.0
 20
0.0
 30
0.0
  9
$UCSORGLEFT
 10
0.0
 20
0.0
 30
0.0
  9
$UCSORGRIGHT
 10
0.0
 20
0.0
 30
0.0
  9
$UCSORGFRONT
 10
0.0
 20
0.0
 30
0.0
  9
$UCSORGBACK
 10
0.0
 20
0.0
 30
0.0
  9
$PUCSBASE
  2

  9
$PUCSNAME
  2

  9
$PUCSORG
 10
0.0
 20
0.0
 30
0.0
  9
$PUCSXDIR
 10
1.0
 20
0.0
 30
0.0
  9
$PUCSYDIR
 10
0.0
 20
1.0
 30
0.0
  9
$PUCSORTHOREF
  2

  9
$PUCSORTHOVIEW
 70
     0
  9
$PUCSORGTOP
 10
0.0
 20
0.0
 30
0.0
  9
$PUCSORGBOTTOM
 10
0.0
 20
0.0
 30
0.0
  9
$PUCSORGLEFT
 10
0.0
 20
0.0
 30
0.0
  9
$PUCSORGRIGHT
 10
0.0
 20
0.0
 30
0.0
  9
$PUCSORGFRONT
 10
0.0
 20
0.0
 30
0.0
  9
$PUCSORGBACK
 10
0.0
 20
0.0
 30
0.0
  9
$USERI1
 70
     0
  9
$USERI2
 70
     0
  9
$USERI3
 70
     0
  9
$USERI4
 70
     0
  9
$USERI5
 70
     0
  9
$USERR1
 40
0.0
  9
$USERR2
 40
0.0
  9
$USERR3
 40
0.0
  9
$USERR4
 40
0.0
  9
$USERR5
 40
0.0
  9
$WORLDVIEW
 70
     1
  9
$SHADEDGE
 70
     3
  9
$SHADEDIF
 70
    70
  9
$TILEMODE
 70
     1
  9
$MAXACTVP
 70
    64
  9
$PINSBASE
 10
0.0
 20
0.0
 30
0.0
  9
$PLIMCHECK
 70
     0
  9
$PEXTMIN
 10
1.000000000000000E+20
 20
1.000000000000000E+20
 30
1.000000000000000E+20
  9
$PEXTMAX
 10
-1.000000000000000E+20
 20
-1.000000000000000E+20
 30
-1.000000000000000E+20
  9
$PLIMMIN
 10
0.0
 20
0.0
  9
$PLIMMAX
 10
12.0
 20
9.0
  9
$UNITMODE
 70
     0
  9
$VISRETAIN
 70
     1
  9
$PLINEGEN
 70
     0
  9
$PSLTSCALE
 70
     1
  9
$TREEDEPTH
 70
  3020
  9
$CMLSTYLE
  2
Standard
  9
$CMLJUST
 70
     0
  9
$CMLSCALE
 40
1.0
  9
$PROXYGRAPHICS
 70
     1
  9
$MEASUREMENT
 70
     0
  9
$CELWEIGHT
370
    -1
  9
$ENDCAPS
280
     0
  9
$JOINSTYLE
280
     0
  9
$LWDISPLAY
290
     1
  9
$INSUNITS
 70
     1
  9
$HYPERLINKBASE
  1

  9
$STYLESHEET
  1

  9
$XEDIT
290
     1
  9
$CEPSNTYPE
380
     0
  9
$PSTYLEMODE
290
     1
  9
$FINGERPRINTGUID
  2
{BD63A6D7-CF38-C279-CEA8-2573251FCCFC}
  9
$VERSIONGUID
  2
{FAEB1C32-E019-11D5-929B-00C0DF256EC4}
  9
$EXTNAMES
290
     1
  9
$PSVPSCALE
 40
0.0
  9
$OLESTARTUP
290
     0
  9
$SORTENTS
280
   127
  9
$INDEXCTL
280
     0
  9
$HIDETEXT
280
     1
  9
$XCLIPFRAME
280
     2
  9
$HALOGAP
280
     0
  9
$OBSCOLOR
 70
   257
  9
$OBSLTYPE
280
     0
  9
$INTERSECTIONDISPLAY
280
     0
  9
$INTERSECTIONCOLOR
 70
   257
  9
$DIMASSOC
280
     2
  9
$PROJECTNAME
  1

  9
$CAMERADISPLAY
290
     0
  9
$LENSLENGTH
 40
50.0
  9
$CAMERAHEIGHT
 40
0.0
  9
$STEPSPERSEC
 40
2.0
  9
$STEPSIZE
 40
6.0
  9
$3DDWFPREC
 40
2.0
  9
$PSOLWIDTH
 40
0.25
  9
$PSOLHEIGHT
 40
4.0
  9
$LOFTANG1
 40
1.570796326794897
  9
$LOFTANG2
 40
1.570796326794897
  9
$LOFTMAG1
 40
0.0
  9
$LOFTMAG2
 40
0.0
  9
$LOFTPARAM
 70
     7
  9
$LOFTNORMALS
280
     1
  9
$LATITUDE
 40
37.795
  9
$LONGITUDE
 40
-122.394
  9
$NORTHDIRECTION
 40
0.0
  9
$TIMEZONE
 70
 -8000
  9
$LIGHTGLYPHDISPLAY
280
     1
  9
$TILEMODELIGHTSYNCH
280
     1
  9
$CMATERIAL
347
3C
  9
$SOLIDHIST
280
     1
  9
$SHOWHIST
280
     1
  9
$DWFFRAME
280
     2
  9
$DGNFRAME
280
     2
  9
$REALWORLDSCALE
290
     1
  9
$INTERFERECOLOR
 62
   256
  9
$CSHADOW
280
     0
  9
$SHADOWPLANELOCATION
 40
0.0
  0
ENDSEC
  0
SECTION
  2
CLASSES
  0
CLASS
  1
ACDBDICTIONARYWDFLT
  2
AcDbDictionaryWithDefault
  3
ObjectDBX Classes
 90
        0
 91
        4
280
     0
281
     0
  0
CLASS
  1
VISUALSTYLE
  2
AcDbVisualStyle
  3
ObjectDBX Classes
 90
     4095
 91
        4
280
     0
281
     0
  0
CLASS
  1
MATERIAL
  2
AcDbMaterial
  3
ObjectDBX Classes
 90
     1153
 91
        4
280
     0
281
     0
  0
CLASS
  1
SUN
  2
AcDbSun
  3
SCENEOE
 90
     1024
 91
        4
280
     0
281
     0
  0
ENDSEC
  0
SECTION
  2
TABLES
  0
TABLE
  2
VPORT
  5
8
330
0
100
AcDbSymbolTable
 70
     1
  0
VPORT
  5
29
330
8
100
AcDbSymbolTableRecord
100
AcDbViewportTableRecord
  2
*Active
 70
     0
 10
0.0
 20
0.0
 11
1.0
 21
1.0
 12
0.0
 22
0.0
 13
0.0
 23
0.0
 14
0.5
 24
0.5
 15
0.5
 25
0.5
 16
0.0
 26
0.0
 36
1.0
 17
91.00082462281999
 27
-128.4993055234307
 37
0.0
 40
256.9986110468615
 41
0.7081814508812795
 42
50.0
 43
0.0
 44
0.0
 50
0.0
 51
0.0
 71
     0
 72
   100
 73
     1
 74
     3
 75
     0
 76
     0
 77
     0
 78
     0
281
     0
 65
     1
110
0.0
120
0.0
130
0.0
111
1.0
121
0.0
131
0.0
112
0.0
122
1.0
132
0.0
 79
     0
146
0.0
 60
     3
 61
     5
292
     1
282
     1
141
0.0
142
0.0
 63
   250
361
3F
  0
ENDTAB
  0
TABLE
  2
LTYPE
  5
5
330
0
100
AcDbSymbolTable
 70
     1
  0
LTYPE
  5
14
330
5
100
AcDbSymbolTableRecord
100
AcDbLinetypeTableRecord
  2
ByBlock
 70
     0
  3

 72
    65
 73
     0
 40
0.0
  0
LTYPE
  5
15
330
5
100
AcDbSymbolTableRecord
100
AcDbLinetypeTableRecord
  2
ByLayer
 70
     0
  3

 72
    65
 73
     0
 40
0.0
  0
LTYPE
  5
16
330
5
100
AcDbSymbolTableRecord
100
AcDbLinetypeTableRecord
  2
Continuous
 70
     0
  3
Solid line
 72
    65
 73
     0
 40
0.0
  0
ENDTAB
  0
TABLE
  2
LAYER
  5
2
330
0
100
AcDbSymbolTable
 70
     2
  0
LAYER
  5
10
330
2
100
AcDbSymbolTableRecord
100
AcDbLayerTableRecord
  2
0
 70
     0
 62
     7
  6
Continuous
370
    -3
390
F
347
3E
  0
LAYER
  5
40
330
2
100
AcDbSymbolTableRecord
100
AcDbLayerTableRecord
  2
_U+30EC_U+30A4_U+30E4_U+30FC 1
 70
     0
 62
     7
  6
Continuous
370
    -3
390
F
347
3E
  0
ENDTAB
  0
TABLE
  2
STYLE
  5
3
330
0
100
AcDbSymbolTable
 70
     1
  0
STYLE
  5
11
330
3
100
AcDbSymbolTableRecord
100
AcDbTextStyleTableRecord
  2
Standard
 70
     0
 40
0.0
 41
1.0
 50
0.0
 71
     0
 42
0.2
  3
txt
  4

  0
ENDTAB
  0
TABLE
  2
VIEW
  5
6
330
0
100
AcDbSymbolTable
 70
     0
  0
ENDTAB
  0
TABLE
  2
UCS
  5
7
330
0
100
AcDbSymbolTable
 70
     0
  0
ENDTAB
  0
TABLE
  2
APPID
  5
9
330
0
100
AcDbSymbolTable
 70
     1
  0
APPID
  5
12
330
9
100
AcDbSymbolTableRecord
100
AcDbRegAppTableRecord
  2
ACAD
 70
     0
  0
ENDTAB
  0
TABLE
  2
DIMSTYLE
  5
A
330
0
100
AcDbSymbolTable
 70
     1
100
AcDbDimStyleTable
  0
DIMSTYLE
105
27
330
A
100
AcDbSymbolTableRecord
100
AcDbDimStyleTableRecord
  2
Standard
 70
     0
178
     0
340
11
  0
ENDTAB
  0
TABLE
  2
BLOCK_RECORD
  5
1
330
0
100
AcDbSymbolTable
 70
     8
  0
BLOCK_RECORD
  5
1F
330
1
100
AcDbSymbolTableRecord
100
AcDbBlockTableRecord
  2
*Model_Space
340
22
 70
     0
280
     1
281
     0
  0
BLOCK_RECORD
  5
1B
330
1
100
AcDbSymbolTableRecord
100
AcDbBlockTableRecord
  2
*Paper_Space
340
1E
 70
     0
280
     1
281
     0
  0
BLOCK_RECORD
  5
23
330
1
100
AcDbSymbolTableRecord
100
AcDbBlockTableRecord
  2
*Paper_Space0
340
26
 70
     0
280
     1
281
     0
  0
BLOCK_RECORD
  5
E1
330
1
100
AcDbSymbolTableRecord
100
AcDbBlockTableRecord
  2
block 2
340
0
102
{BLKREFS
331
E2
102
}
 70
     0
280
     1
281
     0
  0
BLOCK_RECORD
  5
E7
330
1
100
AcDbSymbolTableRecord
100
AcDbBlockTableRecord
  2
block 3
340
0
102
{BLKREFS
331
E8
102
}
 70
     0
280
     1
281
     0
  0
BLOCK_RECORD
  5
ED
330
1
100
AcDbSymbolTableRecord
100
AcDbBlockTableRecord
  2
block 4
340
0
102
{BLKREFS
331
EE
102
}
 70
     0
280
     1
281
     0
  0
BLOCK_RECORD
  5
F3
330
1
100
AcDbSymbolTableRecord
100
AcDbBlockTableRecord
  2
block 5
340
0
102
{BLKREFS
331
F4
102
}
 70
     0
280
     1
281
     0
  0
BLOCK_RECORD
  5
F9
330
1
100
AcDbSymbolTableRecord
100
AcDbBlockTableRecord
  2
block 6
340
0
102
{BLKREFS
331
FA
102
}
 70
     0
280
     1
281
     0
  0
BLOCK_RECORD
  5
115
330
1
100
AcDbSymbolTableRecord
100
AcDbBlockTableRecord
  2
block 7
340
0
102
{BLKREFS
331
116
102
}
 70
     0
280
     1
281
     0
  0
BLOCK_RECORD
  5
127
330
1
100
AcDbSymbolTableRecord
100
AcDbBlockTableRecord
  2
block 8
340
0
102
{BLKREFS
331
128
102
}
 70
     0
280
     1
281
     0
  0
ENDTAB
  0
ENDSEC
  0
SECTION
  2
BLOCKS
  0
BLOCK
  5
20
330
1F
100
AcDbEntity
  8
0
100
AcDbBlockBegin
  2
*Model_Space
 70
     0
 10
0.0
 20
0.0
 30
0.0
  3
*Model_Space
  1

  0
ENDBLK
  5
21
330
1F
100
AcDbEntity
  8
0
100
AcDbBlockEnd
  0
BLOCK
  5
1C
330
1B
100
AcDbEntity
 67
     1
  8
0
100
AcDbBlockBegin
  2
*Paper_Space
 70
     0
 10
0.0
 20
0.0
 30
0.0
  3
*Paper_Space
  1

  0
ENDBLK
  5
1D
330
1B
100
AcDbEntity
 67
     1
  8
0
100
AcDbBlockEnd
  0
BLOCK
  5
24
330
23
100
AcDbEntity
  8
0
100
AcDbBlockBegin
  2
*Paper_Space0
 70
     0
 10
0.0
 20
0.0
 30
0.0
  3
*Paper_Space0
  1

  0
ENDBLK
  5
25
330
23
100
AcDbEntity
  8
0
100
AcDbBlockEnd
  0
BLOCK
  5
E3
330
E1
100
AcDbEntity
  8
0
100
AcDbBlockBegin
  2
block 2
 70
     0
 10
0.0
 20
0.0
 30
0.0
  3
block 2
  1

  0
SPLINE
  5
E5
330
E1
100
AcDbEntity
  8
_U+30EC_U+30A4_U+30E4_U+30FC 1
370
     0
100
AcDbSpline
210
0.0
220
0.0
230
1.0
 70
    11
 71
     3
 72
    62
 73
    58
 74
     0
 42
0.0000000001
 43
0.0000000001
 12
1.0
 22
0.0
 32
0.0
 13
1.0
 23
0.0
 33
0.0
 40
0.0
 40
0.0
 40
0.0
 40
0.0
 40
1.0
 40
1.0
 40
1.0
 40
2.0
 40
2.0
 40
2.0
 40
3.0
 40
3.0
 40
3.0
 40
4.0
 40
4.0
 40
4.0
 40
5.0
 40
5.0
 40
5.0
 40
6.0
 40
6.0
 40
6.0
 40
7.0
 40
7.0
 40
7.0
 40
8.0
 40
8.0
 40
8.0
 40
9.0
 40
9.0
 40
9.0
 40
10.0
 40
10.0
 40
10.0
 40
11.0
 40
11.0
 40
11.0
 40
12.0
 40
12.0
 40
12.0
 40
13.0
 40
13.0
 40
13.0
 40
14.0
 40
14.0
 40
14.0
 40
15.0
 40
15.0
 40
15.0
 40
16.0
 40
16.0
 40
16.0
 40
17.0
 40
17.0
 40
17.0
 40
18.0
 40
18.0
 40
18.0
 40
19.0
 40
19.0
 40
19.0
 40
19.0
 10
72.71597491671685
 20
-110.7782511116284
 30
0.0
 10
72.61434459990197
 20
-110.7782511116284
 30
0.0
 10
72.38145614509908
 20
-110.7570637743941
 30
0.0
 10
72.24795869504565
 20
-110.5708563634163
 30
0.0
 10
72.16889375365916
 20
-110.4587185053714
 30
0.0
 10
72.16441512952835
 20
-110.359327500622
 30
0.0
 10
72.15993650539752
 20
-110.2747504064591
 30
0.0
 10
72.15993650539752
 20
-110.2747504064591
 30
0.0
 10
72.39489201749156
 20
-110.2747504064591
 30
0.0
 10
72.39489201749156
 20
-110.2747504064591
 30
0.0
 10
72.39730358433123
 20
-110.348819959392
 30
0.0
 10
72.40850014465829
 20
-110.5836032167117
 30
0.0
 10
72.71149629258602
 20
-110.5836032167117
 30
0.0
 10
72.85842961503192
 20
-110.5836032167117
 30
0.0
 10
73.02121037670997
 20
-110.5138400331354
 30
0.0
 10
73.02121037670997
 20
-110.2852579476891
 30
0.0
 10
73.02121037670997
 20
-110.1689859750619
 30
0.0
 10
72.98055824998403
 20
-110.1202378739456
 30
0.0
 10
72.94662405945432
 20
-110.0885429954813
 30
0.0
 10
72.86755911806783
 20
-110.0144734425485
 30
0.0
 10
72.74319117105031
 20
-110.0018988440273
 30
0.0
 10
72.68428003825254
 20
-110.0018988440273
 30
0.0
 10
72.66395397488957
 20
-110.0018988440273
 30
0.0
 10
72.62554116022903
 20
-110.0039659013185
 30
0.0
 10
72.59625784860441
 20
-110.0081000159008
 30
0.0
 10
72.59625784860441
 20
-110.0081000159008
 30
0.0
 10
72.59625784860441
 20
-109.8134521209841
 30
0.0
 10
72.59625784860441
 20
-109.8134521209841
 30
0.0
 10
72.63690997533035
 20
-109.8198255476319
 30
0.0
 10
72.68204072618713
 20
-109.8220648596973
 30
0.0
 10
72.68893091715763
 20
-109.8220648596973
 30
0.0
 10
72.75903861028246
 20
-109.8220648596973
 30
0.0
 10
72.97142874694812
 20
-109.800877522463
 30
0.0
 10
72.97142874694812
 20
-109.5638549530778
 30
0.0
 10
72.97142874694812
 20
-109.3862602808132
 30
0.0
 10
72.83138561547271
 20
-109.3311387530492
 30
0.0
 10
72.71373560465143
 20
-109.3311387530492
 30
0.0
 10
72.43106552008668
 20
-109.3311387530492
 30
0.0
 10
72.42210827182504
 20
-109.5638549530778
 30
0.0
 10
72.41762964769421
 20
-109.6358574487195
 30
0.0
 10
72.41762964769421
 20
-109.6358574487195
 30
0.0
 10
72.20058863212347
 20
-109.6358574487195
 30
0.0
 10
72.20058863212347
 20
-109.6358574487195
 30
0.0
 10
72.20954588038512
 20
-109.5109727373792
 30
0.0
 10
72.239001446784
 20
-109.1344238008414
 30
0.0
 10
72.72734373181817
 20
-109.1344238008414
 30
0.0
 10
72.9669501228173
 20
-109.1344238008414
 30
0.0
 10
73.22464326511398
 20
-109.2613755694729
 30
0.0
 10
73.22464326511398
 20
-109.5574815264301
 30
0.0
 10
73.22464326511398
 20
-109.7436889374078
 30
0.0
 10
73.1230129482991
 20
-109.8261989742796
 30
0.0
 10
73.01673175257915
 20
-109.887521673917
 30
0.0
 10
73.0821885667989
 20
-109.915082437799
 30
0.0
 10
73.27666420694125
 20
-109.9955254173796
 30
0.0
 10
73.27666420694125
 20
-110.2726833491679
 30
0.0
 10
73.27666420694125
 20
-110.6111639805937
 30
0.0
 10
73.01225312844834
 20
-110.7782511116284
 30
0.0
 10
72.71597491671685
 20
-110.7782511116284
 30
0.0
  0
HATCH
  5
E6
330
E1
100
AcDbEntity
  8
_U+30EC_U+30A4_U+30E4_U+30FC 1
 62
   179
420
  2234388
100
AcDbHatch
 10
0.0
 20
0.0
 30
0.0
210
0.0
220
0.0
230
1.0
  2
SOLID
 70
     1
 71
     0
 91
        1
 92
        1
 93
        1
 72
     4
 94
        3
 73
     0
 74
     1
 95
       62
 96
       58
 40
0.0
 40
0.0
 40
0.0
 40
0.0
 40
1.0
 40
1.0
 40
1.0
 40
2.0
 40
2.0
 40
2.0
 40
3.0
 40
3.0
 40
3.0
 40
4.0
 40
4.0
 40
4.0
 40
5.0
 40
5.0
 40
5.0
 40
6.0
 40
6.0
 40
6.0
 40
7.0
 40
7.0
 40
7.0
 40
8.0
 40
8.0
 40
8.0
 40
9.0
 40
9.0
 40
9.0
 40
10.0
 40
10.0
 40
10.0
 40
11.0
 40
11.0
 40
11.0
 40
12.0
 40
12.0
 40
12.0
 40
13.0
 40
13.0
 40
13.0
 40
14.0
 40
14.0
 40
14.0
 40
15.0
 40
15.0
 40
15.0
 40
16.0
 40
16.0
 40
16.0
 40
17.0
 40
17.0
 40
17.0
 40
18.0
 40
18.0
 40
18.0
 40
19.0
 40
19.0
 40
19.0
 40
19.0
 10
72.71597491671685
 20
-110.7782511116284
 10
72.61434459990197
 20
-110.7782511116284
 10
72.38145614509908
 20
-110.7570637743941
 10
72.24795869504565
 20
-110.5708563634163
 10
72.16889375365916
 20
-110.4587185053714
 10
72.16441512952835
 20
-110.359327500622
 10
72.15993650539752
 20
-110.2747504064591
 10
72.15993650539752
 20
-110.2747504064591
 10
72.39489201749156
 20
-110.2747504064591
 10
72.39489201749156
 20
-110.2747504064591
 10
72.39730358433123
 20
-110.348819959392
 10
72.40850014465829
 20
-110.5836032167117
 10
72.71149629258602
 20
-110.5836032167117
 10
72.85842961503192
 20
-110.5836032167117
 10
73.02121037670997
 20
-110.5138400331354
 10
73.02121037670997
 20
-110.2852579476891
 10
73.02121037670997
 20
-110.1689859750619
 10
72.98055824998403
 20
-110.1202378739456
 10
72.94662405945432
 20
-110.0885429954813
 10
72.86755911806783
 20
-110.0144734425485
 10
72.74319117105031
 20
-110.0018988440273
 10
72.68428003825254
 20
-110.0018988440273
 10
72.66395397488957
 20
-110.0018988440273
 10
72.62554116022903
 20
-110.0039659013185
 10
72.59625784860441
 20
-110.0081000159008
 10
72.59625784860441
 20
-110.0081000159008
 10
72.59625784860441
 20
-109.8134521209841
 10
72.59625784860441
 20
-109.8134521209841
 10
72.63690997533035
 20
-109.8198255476319
 10
72.68204072618713
 20
-109.8220648596973
 10
72.68893091715763
 20
-109.8220648596973
 10
72.75903861028246
 20
-109.8220648596973
 10
72.97142874694812
 20
-109.800877522463
 10
72.97142874694812
 20
-109.5638549530778
 10
72.97142874694812
 20
-109.3862602808132
 10
72.83138561547271
 20
-109.3311387530492
 10
72.71373560465143
 20
-109.3311387530492
 10
72.43106552008668
 20
-109.3311387530492
 10
72.42210827182504
 20
-109.5638549530778
 10
72.41762964769421
 20
-109.6358574487195
 10
72.41762964769421
 20
-109.6358574487195
 10
72.20058863212347
 20
-109.6358574487195
 10
72.20058863212347
 20
-109.6358574487195
 10
72.20954588038512
 20
-109.5109727373792
 10
72.239001446784
 20
-109.1344238008414
 10
72.72734373181817
 20
-109.1344238008414
 10
72.9669501228173
 20
-109.1344238008414
 10
73.22464326511398
 20
-109.2613755694729
 10
73.22464326511398
 20
-109.5574815264301
 10
73.22464326511398
 20
-109.7436889374078
 10
73.1230129482991
 20
-109.8261989742796
 10
73.01673175257915
 20
-109.887521673917
 10
73.0821885667989
 20
-109.915082437799
 10
73.27666420694125
 20
-109.9955254173796
 10
73.27666420694125
 20
-110.2726833491679
 10
73.27666420694125
 20
-110.6111639805937
 10
73.01225312844834
 20
-110.7782511116284
 10
72.71597491671685
 20
-110.7782511116284
 97
        0
 97
        0
 75
     2
 76
     1
 98
        0
  0
ENDBLK
  5
E4
330
E1
100
AcDbEntity
  8
0
100
AcDbBlockEnd
  0
BLOCK
  5
E9
330
E7
100
AcDbEntity
  8
0
100
AcDbBlockBegin
  2
block 3
 70
     0
 10
0.0
 20
0.0
 30
0.0
  3
block 3
  1

  0
SPLINE
  5
EB
330
E7
100
AcDbEntity
  8
_U+30EC_U+30A4_U+30E4_U+30FC 1
370
     0
100
AcDbSpline
210
0.0
220
0.0
230
1.0
 70
    11
 71
     3
 72
    26
 73
    22
 74
     0
 42
0.0000000001
 43
0.0000000001
 12
1.0
 22
0.0
 32
0.0
 13
1.0
 23
0.0
 33
0.0
 40
0.0
 40
0.0
 40
0.0
 40
0.0
 40
1.0
 40
1.0
 40
1.0
 40
2.0
 40
2.0
 40
2.0
 40
3.0
 40
3.0
 40
3.0
 40
4.0
 40
4.0
 40
4.0
 40
5.0
 40
5.0
 40
5.0
 40
6.0
 40
6.0
 40
6.0
 40
7.0
 40
7.0
 40
7.0
 40
7.0
 10
117.9297525746842
 20
-123.9057874581729
 30
0.0
 10
117.9297525746842
 20
-123.9057874581729
 30
0.0
 10
116.8255994716617
 20
-123.9057874581729
 30
0.0
 10
116.8255994716617
 20
-123.9057874581729
 30
0.0
 10
116.8255994716617
 20
-123.9057874581729
 30
0.0
 10
116.8255994716617
 20
-124.2585652358624
 30
0.0
 10
116.8255994716617
 20
-124.2585652358624
 30
0.0
 10
116.8255994716617
 20
-124.2585652358624
 30
0.0
 10
116.6774603657959
 20
-124.2585652358624
 30
0.0
 10
116.6774603657959
 20
-124.2585652358624
 30
0.0
 10
116.6626464552093
 20
-123.9035481461075
 30
0.0
 10
116.499693438757
 20
-123.8537665163456
 30
0.0
 10
116.3853162686467
 20
-123.8222438926555
 30
0.0
 10
116.3853162686467
 20
-123.8222438926555
 30
0.0
 10
116.3853162686467
 20
-123.6661810671737
 30
0.0
 10
116.3853162686467
 20
-123.6661810671737
 30
0.0
 10
116.3853162686467
 20
-123.6661810671737
 30
0.0
 10
117.9297525746842
 20
-123.6661810671737
 30
0.0
 10
117.9297525746842
 20
-123.6661810671737
 30
0.0
 10
117.9297525746842
 20
-123.6661810671737
 30
0.0
 10
117.9297525746842
 20
-123.9057874581729
 30
0.0
 10
117.9297525746842
 20
-123.9057874581729
 30
0.0
  0
HATCH
  5
EC
330
E7
100
AcDbEntity
  8
_U+30EC_U+30A4_U+30E4_U+30FC 1
 62
   179
420
  2234388
100
AcDbHatch
 10
0.0
 20
0.0
 30
0.0
210
0.0
220
0.0
230
1.0
  2
SOLID
 70
     1
 71
     0
 91
        1
 92
        1
 93
        1
 72
     4
 94
        3
 73
     0
 74
     1
 95
       26
 96
       22
 40
0.0
 40
0.0
 40
0.0
 40
0.0
 40
1.0
 40
1.0
 40
1.0
 40
2.0
 40
2.0
 40
2.0
 40
3.0
 40
3.0
 40
3.0
 40
4.0
 40
4.0
 40
4.0
 40
5.0
 40
5.0
 40
5.0
 40
6.0
 40
6.0
 40
6.0
 40
7.0
 40
7.0
 40
7.0
 40
7.0
 10
117.9297525746842
 20
-123.9057874581729
 10
117.9297525746842
 20
-123.9057874581729
 10
116.8255994716617
 20
-123.9057874581729
 10
116.8255994716617
 20
-123.9057874581729
 10
116.8255994716617
 20
-123.9057874581729
 10
116.8255994716617
 20
-124.2585652358624
 10
116.8255994716617
 20
-124.2585652358624
 10
116.8255994716617
 20
-124.2585652358624
 10
116.6774603657959
 20
-124.2585652358624
 10
116.6774603657959
 20
-124.2585652358624
 10
116.6626464552093
 20
-123.9035481461075
 10
116.499693438757
 20
-123.8537665163456
 10
116.3853162686467
 20
-123.8222438926555
 10
116.3853162686467
 20
-123.8222438926555
 10
116.3853162686467
 20
-123.6661810671737
 10
116.3853162686467
 20
-123.6661810671737
 10
116.3853162686467
 20
-123.6661810671737
 10
117.9297525746842
 20
-123.6661810671737
 10
117.9297525746842
 20
-123.6661810671737
 10
117.9297525746842
 20
-123.6661810671737
 10
117.9297525746842
 20
-123.9057874581729
 10
117.9297525746842
 20
-123.9057874581729
 97
        0
 97
        0
 75
     2
 76
     1
 98
        0
  0
ENDBLK
  5
EA
330
E7
100
AcDbEntity
  8
0
100
AcDbBlockEnd
  0
BLOCK
  5
EF
330
ED
100
AcDbEntity
  8
0
100
AcDbBlockBegin
  2
block 4
 70
     0
 10
0.0
 20
0.0
 30
0.0
  3
block 4
  1

  0
SPLINE
  5
F1
330
ED
100
AcDbEntity
  8
_U+30EC_U+30A4_U+30E4_U+30FC 1
370
     0
100
AcDbSpline
210
0.0
220
0.0
230
1.0
 70
    11
 71
     3
 72
    62
 73
    58
 74
     0
 42
0.0000000001
 43
0.0000000001
 12
1.0
 22
0.0
 32
0.0
 13
1.0
 23
0.0
 33
0.0
 40
0.0
 40
0.0
 40
0.0
 40
0.0
 40
1.0
 40
1.0
 40
1.0
 40
2.0
 40
2.0
 40
2.0
 40
3.0
 40
3.0
 40
3.0
 40
4.0
 40
4.0
 40
4.0
 40
5.0
 40
5.0
 40
5.0
 40
6.0
 40
6.0
 40
6.0
 40
7.0
 40
7.0
 40
7.0
 40
8.0
 40
8.0
 40
8.0
 40
9.0
 40
9.0
 40
9.0
 40
10.0
 40
10.0
 40
10.0
 40
11.0
 40
11.0
 40
11.0
 40
12.0
 40
12.0
 40
12.0
 40
13.0
 40
13.0
 40
13.0
 40
14.0
 40
14.0
 40
14.0
 40
15.0
 40
15.0
 40
15.0
 40
16.0
 40
16.0
 40
16.0
 40
17.0
 40
17.0
 40
17.0
 40
18.0
 40
18.0
 40
18.0
 40
19.0
 40
19.0
 40
19.0
 40
19.0
 10
117.7447509471263
 20
-139.7461642445774
 30
0.0
 10
117.7447509471263
 20
-139.8477945613922
 30
0.0
 10
117.7237358646663
 20
-140.0806830161951
 30
0.0
 10
117.5377007084628
 20
-140.2140082114743
 30
0.0
 10
117.4253905956437
 20
-140.293245407635
 30
0.0
 10
117.3261718456685
 20
-140.2977240317659
 30
0.0
 10
117.2414224967313
 20
-140.3022026558967
 30
0.0
 10
117.2414224967313
 20
-140.3022026558967
 30
0.0
 10
117.2414224967313
 20
-140.0672471438026
 30
0.0
 10
117.2414224967313
 20
-140.0672471438026
 30
0.0
 10
117.3154920496642
 20
-140.064835576963
 30
0.0
 10
117.5501030522097
 20
-140.0534667618616
 30
0.0
 10
117.5501030522097
 20
-139.7506428687082
 30
0.0
 10
117.5501030522097
 20
-139.603537291488
 30
0.0
 10
117.4805121234076
 20
-139.4409287845842
 30
0.0
 10
117.2521022927356
 20
-139.4409287845842
 30
0.0
 10
117.1356580653341
 20
-139.4409287845842
 30
0.0
 10
117.0870822189921
 20
-139.4815809113102
 30
0.0
 10
117.0553873405278
 20
-139.5153428470656
 30
0.0
 10
116.981317787595
 20
-139.5945800432264
 30
0.0
 10
116.9685709342995
 20
-139.7189479902439
 30
0.0
 10
116.9685709342995
 20
-139.7778591230417
 30
0.0
 10
116.9685709342995
 20
-139.7981851864046
 30
0.0
 10
116.9706379915907
 20
-139.8364257462909
 30
0.0
 10
116.974772106173
 20
-139.866053567464
 30
0.0
 10
116.974772106173
 20
-139.866053567464
 30
0.0
 10
116.7801242112564
 20
-139.866053567464
 30
0.0
 10
116.7801242112564
 20
-139.866053567464
 30
0.0
 10
116.7866698926783
 20
-139.8254014407381
 30
0.0
 10
116.7887369499695
 20
-139.7799261803328
 30
0.0
 10
116.7887369499695
 20
-139.7733804989108
 30
0.0
 10
116.7887369499695
 20
-139.7031005510117
 30
0.0
 10
116.7673773579609
 20
-139.4905381595718
 30
0.0
 10
116.5306992981243
 20
-139.4905381595718
 30
0.0
 10
116.3529323710854
 20
-139.4905381595718
 30
0.0
 10
116.2978108433214
 20
-139.6307535458215
 30
0.0
 10
116.2978108433214
 20
-139.7482313018685
 30
0.0
 10
116.2978108433214
 20
-140.0310736412075
 30
0.0
 10
116.5306992981243
 20
-140.0400308894692
 30
0.0
 10
116.6023572842175
 20
-140.0445095136
 30
0.0
 10
116.6023572842175
 20
-140.0445095136
 30
0.0
 10
116.6023572842175
 20
-140.2615505291707
 30
0.0
 10
116.6023572842175
 20
-140.2615505291707
 30
0.0
 10
116.4776448276514
 20
-140.2525932809091
 30
0.0
 10
116.1010958911136
 20
-140.2233099692845
 30
0.0
 10
116.1010958911136
 20
-139.734795429476
 30
0.0
 10
116.1010958911136
 20
-139.4950167837027
 30
0.0
 10
116.2282199145193
 20
-139.237323641406
 30
0.0
 10
116.5241536167023
 20
-139.237323641406
 30
0.0
 10
116.7105332824543
 20
-139.237323641406
 30
0.0
 10
116.7928710645518
 20
-139.3392984677693
 30
0.0
 10
116.8541937641892
 20
-139.4454074087151
 30
0.0
 10
116.8817545280712
 20
-139.3799505944953
 30
0.0
 10
116.9620252528776
 20
-139.1853026995787
 30
0.0
 10
117.2393554394402
 20
-139.1853026995787
 30
0.0
 10
117.5776638160917
 20
-139.1853026995787
 30
0.0
 10
117.7447509471263
 20
-139.4498860328459
 30
0.0
 10
117.7447509471263
 20
-139.7461642445774
 30
0.0
  0
HATCH
  5
F2
330
ED
100
AcDbEntity
  8
_U+30EC_U+30A4_U+30E4_U+30FC 1
 62
   179
420
  2234388
100
AcDbHatch
 10
0.0
 20
0.0
 30
0.0
210
0.0
220
0.0
230
1.0
  2
SOLID
 70
     1
 71
     0
 91
        1
 92
        1
 93
        1
 72
     4
 94
        3
 73
     0
 74
     1
 95
       62
 96
       58
 40
0.0
 40
0.0
 40
0.0
 40
0.0
 40
1.0
 40
1.0
 40
1.0
 40
2.0
 40
2.0
 40
2.0
 40
3.0
 40
3.0
 40
3.0
 40
4.0
 40
4.0
 40
4.0
 40
5.0
 40
5.0
 40
5.0
 40
6.0
 40
6.0
 40
6.0
 40
7.0
 40
7.0
 40
7.0
 40
8.0
 40
8.0
 40
8.0
 40
9.0
 40
9.0
 40
9.0
 40
10.0
 40
10.0
 40
10.0
 40
11.0
 40
11.0
 40
11.0
 40
12.0
 40
12.0
 40
12.0
 40
13.0
 40
13.0
 40
13.0
 40
14.0
 40
14.0
 40
14.0
 40
15.0
 40
15.0
 40
15.0
 40
16.0
 40
16.0
 40
16.0
 40
17.0
 40
17.0
 40
17.0
 40
18.0
 40
18.0
 40
18.0
 40
19.0
 40
19.0
 40
19.0
 40
19.0
 10
117.7447509471263
 20
-139.7461642445774
 10
117.7447509471263
 20
-139.8477945613922
 10
117.7237358646663
 20
-140.0806830161951
 10
117.5377007084628
 20
-140.2140082114743
 10
117.4253905956437
 20
-140.293245407635
 10
117.3261718456685
 20
-140.2977240317659
 10
117.2414224967313
 20
-140.3022026558967
 10
117.2414224967313
 20
-140.3022026558967
 10
117.2414224967313
 20
-140.0672471438026
 10
117.2414224967313
 20
-140.0672471438026
 10
117.3154920496642
 20
-140.064835576963
 10
117.5501030522097
 20
-140.0534667618616
 10
117.5501030522097
 20
-139.7506428687082
 10
117.5501030522097
 20
-139.603537291488
 10
117.4805121234076
 20
-139.4409287845842
 10
117.2521022927356
 20
-139.4409287845842
 10
117.1356580653341
 20
-139.4409287845842
 10
117.0870822189921
 20
-139.4815809113102
 10
117.0553873405278
 20
-139.5153428470656
 10
116.981317787595
 20
-139.5945800432264
 10
116.9685709342995
 20
-139.7189479902439
 10
116.9685709342995
 20
-139.7778591230417
 10
116.9685709342995
 20
-139.7981851864046
 10
116.9706379915907
 20
-139.8364257462909
 10
116.974772106173
 20
-139.866053567464
 10
116.974772106173
 20
-139.866053567464
 10
116.7801242112564
 20
-139.866053567464
 10
116.7801242112564
 20
-139.866053567464
 10
116.7866698926783
 20
-139.8254014407381
 10
116.7887369499695
 20
-139.7799261803328
 10
116.7887369499695
 20
-139.7733804989108
 10
116.7887369499695
 20
-139.7031005510117
 10
116.7673773579609
 20
-139.4905381595718
 10
116.5306992981243
 20
-139.4905381595718
 10
116.3529323710854
 20
-139.4905381595718
 10
116.2978108433214
 20
-139.6307535458215
 10
116.2978108433214
 20
-139.7482313018685
 10
116.2978108433214
 20
-140.0310736412075
 10
116.5306992981243
 20
-140.0400308894692
 10
116.6023572842175
 20
-140.0445095136
 10
116.6023572842175
 20
-140.0445095136
 10
116.6023572842175
 20
-140.2615505291707
 10
116.6023572842175
 20
-140.2615505291707
 10
116.4776448276514
 20
-140.2525932809091
 10
116.1010958911136
 20
-140.2233099692845
 10
116.1010958911136
 20
-139.734795429476
 10
116.1010958911136
 20
-139.4950167837027
 10
116.2282199145193
 20
-139.237323641406
 10
116.5241536167023
 20
-139.237323641406
 10
116.7105332824543
 20
-139.237323641406
 10
116.7928710645518
 20
-139.3392984677693
 10
116.8541937641892
 20
-139.4454074087151
 10
116.8817545280712
 20
-139.3799505944953
 10
116.9620252528776
 20
-139.1853026995787
 10
117.2393554394402
 20
-139.1853026995787
 10
117.5776638160917
 20
-139.1853026995787
 10
117.7447509471263
 20
-139.4498860328459
 10
117.7447509471263
 20
-139.7461642445774
 97
        0
 97
        0
 75
     2
 76
     1
 98
        0
  0
ENDBLK
  5
F0
330
ED
100
AcDbEntity
  8
0
100
AcDbBlockEnd
  0
BLOCK
  5
F5
330
F3
100
AcDbEntity
  8
0
100
AcDbBlockBegin
  2
block 5
 70
     0
 10
0.0
 20
0.0
 30
0.0
  3
block 5
  1

  0
SPLINE
  5
F7
330
F3
100
AcDbEntity
  8
_U+30EC_U+30A4_U+30E4_U+30FC 1
370
     0
100
AcDbSpline
210
0.0
220
0.0
230
1.0
 70
    11
 71
     3
 72
    53
 73
    49
 74
     0
 42
0.0000000001
 43
0.0000000001
 12
1.0
 22
0.0
 32
0.0
 13
1.0
 23
0.0
 33
0.0
 40
0.0
 40
0.0
 40
0.0
 40
0.0
 40
1.0
 40
1.0
 40
1.0
 40
2.0
 40
2.0
 40
2.0
 40
3.0
 40
3.0
 40
3.0
 40
4.0
 40
4.0
 40
4.0
 40
5.0
 40
5.0
 40
5.0
 40
6.0
 40
6.0
 40
6.0
 40
7.0
 40
7.0
 40
7.0
 40
8.0
 40
8.0
 40
8.0
 40
9.0
 40
9.0
 40
9.0
 40
10.0
 40
10.0
 40
10.0
 40
11.0
 40
11.0
 40
11.0
 40
12.0
 40
12.0
 40
12.0
 40
13.0
 40
13.0
 40
13.0
 40
14.0
 40
14.0
 40
14.0
 40
15.0
 40
15.0
 40
15.0
 40
16.0
 40
16.0
 40
16.0
 40
16.0
 10
73.7136745692452
 20
-147.7153591210573
 30
0.0
 10
73.62995874895363
 20
-147.7153591210573
 30
0.0
 10
73.52178275071678
 20
-147.6984781531796
 30
0.0
 10
73.41291773338288
 20
-147.6350883962509
 30
0.0
 10
73.22757159627645
 20
-147.5251898502715
 30
0.0
 10
73.20517847562232
 20
-147.3939317122835
 30
0.0
 10
73.18485241225935
 20
-147.2861002235952
 30
0.0
 10
73.18485241225935
 20
-147.2861002235952
 30
0.0
 10
73.42221949119306
 20
-147.2861002235952
 30
0.0
 10
73.42221949119306
 20
-147.2861002235952
 30
0.0
 10
73.48078611444231
 20
-147.4848822330941
 30
0.0
 10
73.61652287656115
 20
-147.5145100542672
 30
0.0
 10
73.71608613608487
 20
-147.5145100542672
 30
0.0
 10
73.86525877059618
 20
-147.5145100542672
 30
0.0
 10
74.0282117870485
 20
-147.4149467947435
 30
0.0
 10
74.0282117870485
 20
-147.1824028494891
 30
0.0
 10
74.0282117870485
 20
-146.9264322549351
 30
0.0
 10
73.83597545897156
 20
-146.856841326133
 30
0.0
 10
73.70712888782322
 20
-146.856841326133
 30
0.0
 10
73.67302244251925
 20
-146.856841326133
 30
0.0
 10
73.52178275071678
 20
-146.856841326133
 30
0.0
 10
73.42669811532389
 20
-146.9856878972814
 30
0.0
 10
73.42669811532389
 20
-146.9856878972814
 30
0.0
 10
73.23894041137777
 20
-146.966395362564
 30
0.0
 10
73.23894041137777
 20
-146.966395362564
 30
0.0
 10
73.23894041137777
 20
-146.966395362564
 30
0.0
 10
73.36778698252611
 20
-146.1202799113866
 30
0.0
 10
73.36778698252611
 20
-146.1202799113866
 30
0.0
 10
73.36778698252611
 20
-146.1202799113866
 30
0.0
 10
74.19977754221395
 20
-146.1202799113866
 30
0.0
 10
74.19977754221395
 20
-146.1202799113866
 30
0.0
 10
74.19977754221395
 20
-146.1202799113866
 30
0.0
 10
74.19977754221395
 20
-146.3152723158518
 30
0.0
 10
74.19977754221395
 20
-146.3152723158518
 30
0.0
 10
74.19977754221395
 20
-146.3152723158518
 30
0.0
 10
73.54210881407975
 20
-146.3152723158518
 30
0.0
 10
73.54210881407975
 20
-146.3152723158518
 30
0.0
 10
73.54210881407975
 20
-146.3152723158518
 30
0.0
 10
73.47182886618066
 20
-146.7383300414404
 30
0.0
 10
73.47182886618066
 20
-146.7383300414404
 30
0.0
 10
73.5372856804004
 20
-146.7042235961364
 30
0.0
 10
73.6254801248228
 20
-146.663915978959
 30
0.0
 10
73.75225963867999
 20
-146.663915978959
 30
0.0
 10
74.02338865336915
 20
-146.663915978959
 30
0.0
 10
74.27660317153502
 20
-146.8502956447111
 30
0.0
 10
74.27660317153502
 20
-147.1634548243202
 30
0.0
 10
74.27660317153502
 20
-147.4807481185118
 30
0.0
 10
74.03716903531016
 20
-147.7153591210573
 30
0.0
 10
73.7136745692452
 20
-147.7153591210573
 30
0.0
  0
HATCH
  5
F8
330
F3
100
AcDbEntity
  8
_U+30EC_U+30A4_U+30E4_U+30FC 1
 62
   179
420
  2234388
100
AcDbHatch
 10
0.0
 20
0.0
 30
0.0
210
0.0
220
0.0
230
1.0
  2
SOLID
 70
     1
 71
     0
 91
        1
 92
        1
 93
        1
 72
     4
 94
        3
 73
     0
 74
     1
 95
       53
 96
       49
 40
0.0
 40
0.0
 40
0.0
 40
0.0
 40
1.0
 40
1.0
 40
1.0
 40
2.0
 40
2.0
 40
2.0
 40
3.0
 40
3.0
 40
3.0
 40
4.0
 40
4.0
 40
4.0
 40
5.0
 40
5.0
 40
5.0
 40
6.0
 40
6.0
 40
6.0
 40
7.0
 40
7.0
 40
7.0
 40
8.0
 40
8.0
 40
8.0
 40
9.0
 40
9.0
 40
9.0
 40
10.0
 40
10.0
 40
10.0
 40
11.0
 40
11.0
 40
11.0
 40
12.0
 40
12.0
 40
12.0
 40
13.0
 40
13.0
 40
13.0
 40
14.0
 40
14.0
 40
14.0
 40
15.0
 40
15.0
 40
15.0
 40
16.0
 40
16.0
 40
16.0
 40
16.0
 10
73.7136745692452
 20
-147.7153591210573
 10
73.62995874895363
 20
-147.7153591210573
 10
73.52178275071678
 20
-147.6984781531796
 10
73.41291773338288
 20
-147.6350883962509
 10
73.22757159627645
 20
-147.5251898502715
 10
73.20517847562232
 20
-147.3939317122835
 10
73.18485241225935
 20
-147.2861002235952
 10
73.18485241225935
 20
-147.2861002235952
 10
73.42221949119306
 20
-147.2861002235952
 10
73.42221949119306
 20
-147.2861002235952
 10
73.48078611444231
 20
-147.4848822330941
 10
73.61652287656115
 20
-147.5145100542672
 10
73.71608613608487
 20
-147.5145100542672
 10
73.86525877059618
 20
-147.5145100542672
 10
74.0282117870485
 20
-147.4149467947435
 10
74.0282117870485
 20
-147.1824028494891
 10
74.0282117870485
 20
-146.9264322549351
 10
73.83597545897156
 20
-146.856841326133
 10
73.70712888782322
 20
-146.856841326133
 10
73.67302244251925
 20
-146.856841326133
 10
73.52178275071678
 20
-146.856841326133
 10
73.42669811532389
 20
-146.9856878972814
 10
73.42669811532389
 20
-146.9856878972814
 10
73.23894041137777
 20
-146.966395362564
 10
73.23894041137777
 20
-146.966395362564
 10
73.23894041137777
 20
-146.966395362564
 10
73.36778698252611
 20
-146.1202799113866
 10
73.36778698252611
 20
-146.1202799113866
 10
73.36778698252611
 20
-146.1202799113866
 10
74.19977754221395
 20
-146.1202799113866
 10
74.19977754221395
 20
-146.1202799113866
 10
74.19977754221395
 20
-146.1202799113866
 10
74.19977754221395
 20
-146.3152723158518
 10
74.19977754221395
 20
-146.3152723158518
 10
74.19977754221395
 20
-146.3152723158518
 10
73.54210881407975
 20
-146.3152723158518
 10
73.54210881407975
 20
-146.3152723158518
 10
73.54210881407975
 20
-146.3152723158518
 10
73.47182886618066
 20
-146.7383300414404
 10
73.47182886618066
 20
-146.7383300414404
 10
73.5372856804004
 20
-146.7042235961364
 10
73.6254801248228
 20
-146.663915978959
 10
73.75225963867999
 20
-146.663915978959
 10
74.02338865336915
 20
-146.663915978959
 10
74.27660317153502
 20
-146.8502956447111
 10
74.27660317153502
 20
-147.1634548243202
 10
74.27660317153502
 20
-147.4807481185118
 10
74.03716903531016
 20
-147.7153591210573
 10
73.7136745692452
 20
-147.7153591210573
 97
        0
 97
        0
 75
     2
 76
     1
 98
        0
  0
ENDBLK
  5
F6
330
F3
100
AcDbEntity
  8
0
100
AcDbBlockEnd
  0
BLOCK
  5
FB
330
F9
100
AcDbEntity
  8
0
100
AcDbBlockBegin
  2
block 6
 70
     0
 10
0.0
 20
0.0
 30
0.0
  3
block 6
  1

  0
POLYLINE
  5
FD
330
F9
100
AcDbEntity
  8
_U+30EC_U+30A4_U+30E4_U+30FC 1
370
     0
100
AcDb2dPolyline
 66
     1
 10
0.0
 20
0.0
 30
0.0
  0
VERTEX
  5
FE
330
FD
100
AcDbEntity
  8
_U+30EC_U+30A4_U+30E4_U+30FC 1
370
     0
100
AcDbVertex
100
AcDb2dVertex
 10
90.95947805885736
 20
-113.0563205012498
 30
0.0
  0
VERTEX
  5
FF
330
FD
100
AcDbEntity
  8
_U+30EC_U+30A4_U+30E4_U+30FC 1
370
     0
100
AcDbVertex
100
AcDb2dVertex
 10
90.95947805885736
 20
-113.4032416166145
 30
0.0
  0
VERTEX
  5
100
330
FD
100
AcDbEntity
  8
_U+30EC_U+30A4_U+30E4_U+30FC 1
370
     0
100
AcDbVertex
100
AcDb2dVertex
 10
90.72658960405447
 20
-113.4032416166145
 30
0.0
  0
VERTEX
  5
101
330
FD
100
AcDbEntity
  8
_U+30EC_U+30A4_U+30E4_U+30FC 1
370
     0
100
AcDbVertex
100
AcDb2dVertex
 10
90.72658960405447
 20
-113.0563205012498
 30
0.0
  0
VERTEX
  5
102
330
FD
100
AcDbEntity
  8
_U+30EC_U+30A4_U+30E4_U+30FC 1
370
     0
100
AcDbVertex
100
AcDb2dVertex
 10
90.02551267280613
 20
-113.0563205012498
 30
0.0
  0
VERTEX
  5
103
330
FD
100
AcDbEntity
  8
_U+30EC_U+30A4_U+30E4_U+30FC 1
370
     0
100
AcDbVertex
100
AcDb2dVertex
 10
90.02551267280613
 20
-112.8320447851601
 30
0.0
  0
VERTEX
  5
104
330
FD
100
AcDbEntity
  8
_U+30EC_U+30A4_U+30E4_U+30FC 1
370
     0
100
AcDbVertex
100
AcDb2dVertex
 10
90.75139429154827
 20
-111.858805310577
 30
0.0
  0
VERTEX
  5
105
330
FD
100
AcDbEntity
  8
_U+30EC_U+30A4_U+30E4_U+30FC 1
370
     0
100
AcDbVertex
100
AcDb2dVertex
 10
90.95947805885736
 20
-111.858805310577
 30
0.0
  0
VERTEX
  5
106
330
FD
100
AcDbEntity
  8
_U+30EC_U+30A4_U+30E4_U+30FC 1
370
     0
100
AcDbVertex
100
AcDb2dVertex
 10
90.95947805885736
 20
-112.8575384917509
 30
0.0
  0
VERTEX
  5
107
330
FD
100
AcDbEntity
  8
_U+30EC_U+30A4_U+30E4_U+30FC 1
370
     0
100
AcDbVertex
100
AcDb2dVertex
 10
91.18099769855893
 20
-112.8575384917509
 30
0.0
  0
VERTEX
  5
108
330
FD
100
AcDbEntity
  8
_U+30EC_U+30A4_U+30E4_U+30FC 1
370
     0
100
AcDbVertex
100
AcDb2dVertex
 10
91.18099769855893
 20
-113.0563205012498
 30
0.0
  0
VERTEX
  5
109
330
FD
100
AcDbEntity
  8
_U+30EC_U+30A4_U+30E4_U+30FC 1
370
     0
100
AcDbVertex
100
AcDb2dVertex
 10
90.95947805885736
 20
-113.0563205012498
 30
0.0
  0
SEQEND
  5
10A
330
FD
100
AcDbEntity
  8
_U+30EC_U+30A4_U+30E4_U+30FC 1
370
     0
  0
POLYLINE
  5
10B
330
F9
100
AcDbEntity
  8
_U+30EC_U+30A4_U+30E4_U+30FC 1
370
     0
100
AcDb2dPolyline
 66
     1
 10
0.0
 20
0.0
 30
0.0
  0
VERTEX
  5
10C
330
10B
100
AcDbEntity
  8
_U+30EC_U+30A4_U+30E4_U+30FC 1
370
     0
100
AcDbVertex
100
AcDb2dVertex
 10
90.72658960405447
 20
-112.2015923113593
 30
0.0
  0
VERTEX
  5
10D
330
10B
100
AcDbEntity
  8
_U+30EC_U+30A4_U+30E4_U+30FC 1
370
     0
100
AcDbVertex
100
AcDb2dVertex
 10
90.23807506424605
 20
-112.8575384917509
 30
0.0
  0
VERTEX
  5
10E
330
10B
100
AcDbEntity
  8
_U+30EC_U+30A4_U+30E4_U+30FC 1
370
     0
100
AcDbVertex
100
AcDb2dVertex
 10
90.72658960405447
 20
-112.8575384917509
 30
0.0
  0
VERTEX
  5
10F
330
10B
100
AcDbEntity
  8
_U+30EC_U+30A4_U+30E4_U+30FC 1
370
     0
100
AcDbVertex
100
AcDb2dVertex
 10
90.72658960405447
 20
-112.2015923113593
 30
0.0
  0
SEQEND
  5
110
330
10B
100
AcDbEntity
  8
_U+30EC_U+30A4_U+30E4_U+30FC 1
370
     0
  0
HATCH
  5
111
330
F9
100
AcDbEntity
  8
_U+30EC_U+30A4_U+30E4_U+30FC 1
 62
   179
420
  2234388
100
AcDbHatch
 10
0.0
 20
0.0
 30
0.0
210
0.0
220
0.0
230
1.0
  2
SOLID
 70
     1
 71
     0
 91
        2
 92
        1
 93
       11
 72
     1
 10
90.95947805885736
 20
-113.0563205012498
 11
90.95947805885736
 21
-113.4032416166145
 72
     1
 10
90.95947805885736
 20
-113.4032416166145
 11
90.72658960405447
 21
-113.4032416166145
 72
     1
 10
90.72658960405447
 20
-113.4032416166145
 11
90.72658960405447
 21
-113.0563205012498
 72
     1
 10
90.72658960405447
 20
-113.0563205012498
 11
90.02551267280613
 21
-113.0563205012498
 72
     1
 10
90.02551267280613
 20
-113.0563205012498
 11
90.02551267280613
 21
-112.8320447851601
 72
     1
 10
90.02551267280613
 20
-112.8320447851601
 11
90.75139429154827
 21
-111.858805310577
 72
     1
 10
90.75139429154827
 20
-111.858805310577
 11
90.95947805885736
 21
-111.858805310577
 72
     1
 10
90.95947805885736
 20
-111.858805310577
 11
90.95947805885736
 21
-112.8575384917509
 72
     1
 10
90.95947805885736
 20
-112.8575384917509
 11
91.18099769855893
 21
-112.8575384917509
 72
     1
 10
91.18099769855893
 20
-112.8575384917509
 11
91.18099769855893
 21
-113.0563205012498
 72
     1
 10
91.18099769855893
 20
-113.0563205012498
 11
90.95947805885736
 21
-113.0563205012498
 97
        0
 92
        1
 93
        3
 72
     1
 10
90.72658960405447
 20
-112.2015923113593
 11
90.23807506424605
 21
-112.8575384917509
 72
     1
 10
90.23807506424605
 20
-112.8575384917509
 11
90.72658960405447
 21
-112.8575384917509
 72
     1
 10
90.72658960405447
 20
-112.8575384917509
 11
90.72658960405447
 21
-112.2015923113593
 97
        0
 75
     2
 76
     1
 98
        0
  0
SPLINE
  5
112
330
F9
100
AcDbEntity
  8
_U+30EC_U+30A4_U+30E4_U+30FC 1
370
     0
100
AcDbSpline
210
0.0
220
0.0
230
1.0
 70
    11
 71
     3
 72
    29
 73
    25
 74
     0
 42
0.0000000001
 43
0.0000000001
 12
1.0
 22
0.0
 32
0.0
 13
1.0
 23
0.0
 33
0.0
 40
0.0
 40
0.0
 40
0.0
 40
0.0
 40
1.0
 40
1.0
 40
1.0
 40
2.0
 40
2.0
 40
2.0
 40
3.0
 40
3.0
 40
3.0
 40
4.0
 40
4.0
 40
4.0
 40
5.0
 40
5.0
 40
5.0
 40
6.0
 40
6.0
 40
6.0
 40
7.0
 40
7.0
 40
7.0
 40
8.0
 40
8.0
 40
8.0
 40
8.0
 10
92.28721785887265
 20
-113.2254746895756
 30
0.0
 10
92.17180716011677
 20
-113.4349364950788
 30
0.0
 10
91.98646102301034
 20
-113.4538845202476
 30
0.0
 10
91.86209307599282
 20
-113.4538845202476
 30
0.0
 10
91.69052732082737
 20
-113.4538845202476
 30
0.0
 10
91.53894311947639
 20
-113.4073757311968
 30
0.0
 10
91.43731280266151
 20
-113.2254746895756
 30
0.0
 10
91.32638072803647
 20
-113.030826794659
 30
0.0
 10
91.3060546646735
 20
-112.7938042252738
 30
0.0
 10
91.3060546646735
 20
-112.63119571837
 30
0.0
 10
91.3060546646735
 20
-112.4871907270865
 30
0.0
 10
91.32396916119679
 20
-112.2353542471148
 30
0.0
 10
91.43731280266151
 20
-112.0365722376159
 30
0.0
 10
91.55237899186885
 20
-111.8336561135346
 30
0.0
 10
91.72428925658282
 20
-111.810229464235
 30
0.0
 10
91.86209307599282
 20
-111.810229464235
 30
0.0
 10
92.03193628341563
 20
-111.810229464235
 30
0.0
 10
92.18558754205777
 20
-111.8546711959947
 30
0.0
 10
92.28721785887265
 20
-112.0365722376159
 30
0.0
 10
92.39367130936687
 20
-112.2291530752413
 30
0.0
 10
92.41847599686066
 20
-112.4575629059134
 30
0.0
 10
92.41847599686066
 20
-112.63119571837
 30
0.0
 10
92.41847599686066
 20
-112.8024169639869
 30
0.0
 10
92.39573836665801
 20
-113.0328938519501
 30
0.0
 10
92.28721785887265
 20
-113.2254746895756
 30
0.0
  0
SPLINE
  5
113
330
F9
100
AcDbEntity
  8
_U+30EC_U+30A4_U+30E4_U+30FC 1
370
     0
100
AcDbSpline
210
0.0
220
0.0
230
1.0
 70
    11
 71
     3
 72
    17
 73
    13
 74
     0
 42
0.0000000001
 43
0.0000000001
 12
1.0
 22
0.0
 32
0.0
 13
1.0
 23
0.0
 33
0.0
 40
0.0
 40
0.0
 40
0.0
 40
0.0
 40
1.0
 40
1.0
 40
1.0
 40
2.0
 40
2.0
 40
2.0
 40
3.0
 40
3.0
 40
3.0
 40
4.0
 40
4.0
 40
4.0
 40
4.0
 10
91.86209307599282
 20
-112.0028103018604
 30
0.0
 10
91.59544268543448
 20
-112.0028103018604
 30
0.0
 10
91.54583331044688
 20
-112.2863416602965
 30
0.0
 10
91.54583331044688
 20
-112.63119571837
 30
0.0
 10
91.54583331044688
 20
-112.9505560698526
 30
0.0
 10
91.58407387033316
 20
-113.259236625331
 30
0.0
 10
91.86209307599282
 20
-113.259236625331
 30
0.0
 10
92.12667640926
 20
-113.259236625331
 30
0.0
 10
92.17869735108728
 20
-112.9781168337346
 30
0.0
 10
92.17869735108728
 20
-112.63119571837
 30
0.0
 10
92.17869735108728
 20
-112.3114908573388
 30
0.0
 10
92.13804522436132
 20
-112.0028103018604
 30
0.0
 10
91.86209307599282
 20
-112.0028103018604
 30
0.0
  0
HATCH
  5
114
330
F9
100
AcDbEntity
  8
_U+30EC_U+30A4_U+30E4_U+30FC 1
 62
   179
420
  2234388
100
AcDbHatch
 10
0.0
 20
0.0
 30
0.0
210
0.0
220
0.0
230
1.0
  2
SOLID
 70
     1
 71
     0
 91
        2
 92
        1
 93
        1
 72
     4
 94
        3
 73
     0
 74
     1
 95
       29
 96
       25
 40
0.0
 40
0.0
 40
0.0
 40
0.0
 40
1.0
 40
1.0
 40
1.0
 40
2.0
 40
2.0
 40
2.0
 40
3.0
 40
3.0
 40
3.0
 40
4.0
 40
4.0
 40
4.0
 40
5.0
 40
5.0
 40
5.0
 40
6.0
 40
6.0
 40
6.0
 40
7.0
 40
7.0
 40
7.0
 40
8.0
 40
8.0
 40
8.0
 40
8.0
 10
92.28721785887265
 20
-113.2254746895756
 10
92.17180716011677
 20
-113.4349364950788
 10
91.98646102301034
 20
-113.4538845202476
 10
91.86209307599282
 20
-113.4538845202476
 10
91.69052732082737
 20
-113.4538845202476
 10
91.53894311947639
 20
-113.4073757311968
 10
91.43731280266151
 20
-113.2254746895756
 10
91.32638072803647
 20
-113.030826794659
 10
91.3060546646735
 20
-112.7938042252738
 10
91.3060546646735
 20
-112.63119571837
 10
91.3060546646735
 20
-112.4871907270865
 10
91.32396916119679
 20
-112.2353542471148
 10
91.43731280266151
 20
-112.0365722376159
 10
91.55237899186885
 20
-111.8336561135346
 10
91.72428925658282
 20
-111.810229464235
 10
91.86209307599282
 20
-111.810229464235
 10
92.03193628341563
 20
-111.810229464235
 10
92.18558754205777
 20
-111.8546711959947
 10
92.28721785887265
 20
-112.0365722376159
 10
92.39367130936687
 20
-112.2291530752413
 10
92.41847599686066
 20
-112.4575629059134
 10
92.41847599686066
 20
-112.63119571837
 10
92.41847599686066
 20
-112.8024169639869
 10
92.39573836665801
 20
-113.0328938519501
 10
92.28721785887265
 20
-113.2254746895756
 97
        0
 97
        0
 92
        1
 93
        1
 72
     4
 94
        3
 73
     0
 74
     1
 95
       17
 96
       13
 40
0.0
 40
0.0
 40
0.0
 40
0.0
 40
1.0
 40
1.0
 40
1.0
 40
2.0
 40
2.0
 40
2.0
 40
3.0
 40
3.0
 40
3.0
 40
4.0
 40
4.0
 40
4.0
 40
4.0
 10
91.86209307599282
 20
-112.0028103018604
 10
91.59544268543448
 20
-112.0028103018604
 10
91.54583331044688
 20
-112.2863416602965
 10
91.54583331044688
 20
-112.63119571837
 10
91.54583331044688
 20
-112.9505560698526
 10
91.58407387033316
 20
-113.259236625331
 10
91.86209307599282
 20
-113.259236625331
 10
92.12667640926
 20
-113.259236625331
 10
92.17869735108728
 20
-112.9781168337346
 10
92.17869735108728
 20
-112.63119571837
 10
92.17869735108728
 20
-112.3114908573388
 10
92.13804522436132
 20
-112.0028103018604
 10
91.86209307599282
 20
-112.0028103018604
 97
        0
 97
        0
 75
     2
 76
     1
 98
        0
  0
ENDBLK
  5
FC
330
F9
100
AcDbEntity
  8
0
100
AcDbBlockEnd
  0
BLOCK
  5
117
330
115
100
AcDbEntity
  8
0
100
AcDbBlockBegin
  2
block 7
 70
     0
 10
0.0
 20
0.0
 30
0.0
  3
block 7
  1

  0
SPLINE
  5
119
330
115
100
AcDbEntity
  8
_U+30EC_U+30A4_U+30E4_U+30FC 1
370
     0
100
AcDbSpline
210
0.0
220
0.0
230
1.0
 70
    11
 71
     3
 72
    26
 73
    22
 74
     0
 42
0.0000000001
 43
0.0000000001
 12
1.0
 22
0.0
 32
0.0
 13
1.0
 23
0.0
 33
0.0
 40
0.0
 40
0.0
 40
0.0
 40
0.0
 40
1.0
 40
1.0
 40
1.0
 40
2.0
 40
2.0
 40
2.0
 40
3.0
 40
3.0
 40
3.0
 40
4.0
 40
4.0
 40
4.0
 40
5.0
 40
5.0
 40
5.0
 40
6.0
 40
6.0
 40
6.0
 40
7.0
 40
7.0
 40
7.0
 40
7.0
 10
117.6934190243961
 20
-133.632497796453
 30
0.0
 10
117.6934190243961
 20
-133.632497796453
 30
0.0
 10
116.588921411825
 20
-133.632497796453
 30
0.0
 10
116.588921411825
 20
-133.632497796453
 30
0.0
 10
116.588921411825
 20
-133.632497796453
 30
0.0
 10
116.588921411825
 20
-133.9852755741426
 30
0.0
 10
116.588921411825
 20
-133.9852755741426
 30
0.0
 10
116.588921411825
 20
-133.9852755741426
 30
0.0
 10
116.4407823059593
 20
-133.9852755741426
 30
0.0
 10
116.4407823059593
 20
-133.9852755741426
 30
0.0
 10
116.4263129049212
 20
-133.6304307391619
 30
0.0
 10
116.2633598884689
 20
-133.5808213641743
 30
0.0
 10
116.1493272279071
 20
-133.5491264857099
 30
0.0
 10
116.1493272279071
 20
-133.5491264857099
 30
0.0
 10
116.1493272279071
 20
-133.3930636602281
 30
0.0
 10
116.1493272279071
 20
-133.3930636602281
 30
0.0
 10
116.1493272279071
 20
-133.3930636602281
 30
0.0
 10
117.6934190243961
 20
-133.3930636602281
 30
0.0
 10
117.6934190243961
 20
-133.3930636602281
 30
0.0
 10
117.6934190243961
 20
-133.3930636602281
 30
0.0
 10
117.6934190243961
 20
-133.632497796453
 30
0.0
 10
117.6934190243961
 20
-133.632497796453
 30
0.0
  0
HATCH
  5
11A
330
115
100
AcDbEntity
  8
_U+30EC_U+30A4_U+30E4_U+30FC 1
 62
   179
420
  2234388
100
AcDbHatch
 10
0.0
 20
0.0
 30
0.0
210
0.0
220
0.0
230
1.0
  2
SOLID
 70
     1
 71
     0
 91
        1
 92
        1
 93
        1
 72
     4
 94
        3
 73
     0
 74
     1
 95
       26
 96
       22
 40
0.0
 40
0.0
 40
0.0
 40
0.0
 40
1.0
 40
1.0
 40
1.0
 40
2.0
 40
2.0
 40
2.0
 40
3.0
 40
3.0
 40
3.0
 40
4.0
 40
4.0
 40
4.0
 40
5.0
 40
5.0
 40
5.0
 40
6.0
 40
6.0
 40
6.0
 40
7.0
 40
7.0
 40
7.0
 40
7.0
 10
117.6934190243961
 20
-133.632497796453
 10
117.6934190243961
 20
-133.632497796453
 10
116.588921411825
 20
-133.632497796453
 10
116.588921411825
 20
-133.632497796453
 10
116.588921411825
 20
-133.632497796453
 10
116.588921411825
 20
-133.9852755741426
 10
116.588921411825
 20
-133.9852755741426
 10
116.588921411825
 20
-133.9852755741426
 10
116.4407823059593
 20
-133.9852755741426
 10
116.4407823059593
 20
-133.9852755741426
 10
116.4263129049212
 20
-133.6304307391619
 10
116.2633598884689
 20
-133.5808213641743
 10
116.1493272279071
 20
-133.5491264857099
 10
116.1493272279071
 20
-133.5491264857099
 10
116.1493272279071
 20
-133.3930636602281
 10
116.1493272279071
 20
-133.3930636602281
 10
116.1493272279071
 20
-133.3930636602281
 10
117.6934190243961
 20
-133.3930636602281
 10
117.6934190243961
 20
-133.3930636602281
 10
117.6934190243961
 20
-133.3930636602281
 10
117.6934190243961
 20
-133.632497796453
 10
117.6934190243961
 20
-133.632497796453
 97
        0
 97
        0
 75
     2
 76
     1
 98
        0
  0
SPLINE
  5
11B
330
115
100
AcDbEntity
  8
_U+30EC_U+30A4_U+30E4_U+30FC 1
370
     0
100
AcDbSpline
210
0.0
220
0.0
230
1.0
 70
    11
 71
     3
 72
    44
 73
    40
 74
     0
 42
0.0000000001
 43
0.0000000001
 12
1.0
 22
0.0
 32
0.0
 13
1.0
 23
0.0
 33
0.0
 40
0.0
 40
0.0
 40
0.0
 40
0.0
 40
1.0
 40
1.0
 40
1.0
 40
2.0
 40
2.0
 40
2.0
 40
3.0
 40
3.0
 40
3.0
 40
4.0
 40
4.0
 40
4.0
 40
5.0
 40
5.0
 40
5.0
 40
6.0
 40
6.0
 40
6.0
 40
7.0
 40
7.0
 40
7.0
 40
8.0
 40
8.0
 40
8.0
 40
9.0
 40
9.0
 40
9.0
 40
10.0
 40
10.0
 40
10.0
 40
11.0
 40
11.0
 40
11.0
 40
12.0
 40
12.0
 40
12.0
 40
13.0
 40
13.0
 40
13.0
 40
13.0
 10
117.1118869064859
 20
-132.2234537429858
 30
0.0
 10
117.2703612988074
 20
-132.4563421977887
 30
0.0
 10
117.3444308517403
 20
-132.5555609477639
 30
0.0
 10
117.4880913334752
 20
-132.6079263991397
 30
0.0
 10
117.4880913334752
 20
-132.6079263991397
 30
0.0
 10
117.4880913334752
 20
-131.7755913299033
 30
0.0
 10
117.4880913334752
 20
-131.7755913299033
 30
0.0
 10
117.4880913334752
 20
-131.7755913299033
 30
0.0
 10
117.6934190243961
 20
-131.7755913299033
 30
0.0
 10
117.6934190243961
 20
-131.7755913299033
 30
0.0
 10
117.6934190243961
 20
-131.7755913299033
 30
0.0
 10
117.6934190243961
 20
-132.874576789698
 30
0.0
 10
117.6934190243961
 20
-132.874576789698
 30
0.0
 10
117.3358181130272
 20
-132.8408148539426
 30
0.0
 10
117.257614445512
 20
-132.7705349060435
 30
0.0
 10
116.9592691764894
 20
-132.3591905051047
 30
0.0
 10
116.7604871669904
 20
-132.0856499235758
 30
0.0
 10
116.6929632954795
 20
-132.0153699756767
 30
0.0
 10
116.5551594760695
 20
-132.0153699756767
 30
0.0
 10
116.436648191377
 20
-132.0153699756767
 30
0.0
 10
116.3057345629375
 20
-132.0921956049978
 30
0.0
 10
116.3057345629375
 20
-132.3026909391465
 30
0.0
 10
116.3057345629375
 20
-132.5807101448062
 30
0.0
 10
116.5362114509007
 20
-132.5896673930679
 30
0.0
 10
116.6526556783021
 20
-132.5941460171987
 30
0.0
 10
116.6526556783021
 20
-132.5941460171987
 30
0.0
 10
116.6526556783021
 20
-132.8339246629721
 30
0.0
 10
116.6526556783021
 20
-132.8339246629721
 30
0.0
 10
116.5255316548964
 20
-132.8249674147104
 30
0.0
 10
116.4135660516258
 20
-132.8132540900606
 30
0.0
 10
116.2950547669332
 20
-132.7278157220264
 30
0.0
 10
116.134168807772
 20
-132.6099934564308
 30
0.0
 10
116.1004068720166
 20
-132.4108669373834
 30
0.0
 10
116.1004068720166
 20
-132.2868434999144
 30
0.0
 10
116.1004068720166
 20
-131.9905652881829
 30
0.0
 10
116.2843749709289
 20
-131.7690456484814
 30
0.0
 10
116.5572265333607
 20
-131.7690456484814
 30
0.0
 10
116.7859808735813
 20
-131.7690456484814
 30
0.0
 10
116.8851996235565
 20
-131.8934135954989
 30
0.0
 10
117.1118869064859
 20
-132.2234537429858
 30
0.0
  0
HATCH
  5
11C
330
115
100
AcDbEntity
  8
_U+30EC_U+30A4_U+30E4_U+30FC 1
 62
   179
420
  2234388
100
AcDbHatch
 10
0.0
 20
0.0
 30
0.0
210
0.0
220
0.0
230
1.0
  2
SOLID
 70
     1
 71
     0
 91
        1
 92
        1
 93
        1
 72
     4
 94
        3
 73
     0
 74
     1
 95
       44
 96
       40
 40
0.0
 40
0.0
 40
0.0
 40
0.0
 40
1.0
 40
1.0
 40
1.0
 40
2.0
 40
2.0
 40
2.0
 40
3.0
 40
3.0
 40
3.0
 40
4.0
 40
4.0
 40
4.0
 40
5.0
 40
5.0
 40
5.0
 40
6.0
 40
6.0
 40
6.0
 40
7.0
 40
7.0
 40
7.0
 40
8.0
 40
8.0
 40
8.0
 40
9.0
 40
9.0
 40
9.0
 40
10.0
 40
10.0
 40
10.0
 40
11.0
 40
11.0
 40
11.0
 40
12.0
 40
12.0
 40
12.0
 40
13.0
 40
13.0
 40
13.0
 40
13.0
 10
117.1118869064859
 20
-132.2234537429858
 10
117.2703612988074
 20
-132.4563421977887
 10
117.3444308517403
 20
-132.5555609477639
 10
117.4880913334752
 20
-132.6079263991397
 10
117.4880913334752
 20
-132.6079263991397
 10
117.4880913334752
 20
-131.7755913299033
 10
117.4880913334752
 20
-131.7755913299033
 10
117.4880913334752
 20
-131.7755913299033
 10
117.6934190243961
 20
-131.7755913299033
 10
117.6934190243961
 20
-131.7755913299033
 10
117.6934190243961
 20
-131.7755913299033
 10
117.6934190243961
 20
-132.874576789698
 10
117.6934190243961
 20
-132.874576789698
 10
117.3358181130272
 20
-132.8408148539426
 10
117.257614445512
 20
-132.7705349060435
 10
116.9592691764894
 20
-132.3591905051047
 10
116.7604871669904
 20
-132.0856499235758
 10
116.6929632954795
 20
-132.0153699756767
 10
116.5551594760695
 20
-132.0153699756767
 10
116.436648191377
 20
-132.0153699756767
 10
116.3057345629375
 20
-132.0921956049978
 10
116.3057345629375
 20
-132.3026909391465
 10
116.3057345629375
 20
-132.5807101448062
 10
116.5362114509007
 20
-132.5896673930679
 10
116.6526556783021
 20
-132.5941460171987
 10
116.6526556783021
 20
-132.5941460171987
 10
116.6526556783021
 20
-132.8339246629721
 10
116.6526556783021
 20
-132.8339246629721
 10
116.5255316548964
 20
-132.8249674147104
 10
116.4135660516258
 20
-132.8132540900606
 10
116.2950547669332
 20
-132.7278157220264
 10
116.134168807772
 20
-132.6099934564308
 10
116.1004068720166
 20
-132.4108669373834
 10
116.1004068720166
 20
-132.2868434999144
 10
116.1004068720166
 20
-131.9905652881829
 10
116.2843749709289
 20
-131.7690456484814
 10
116.5572265333607
 20
-131.7690456484814
 10
116.7859808735813
 20
-131.7690456484814
 10
116.8851996235565
 20
-131.8934135954989
 10
117.1118869064859
 20
-132.2234537429858
 97
        0
 97
        0
 75
     2
 76
     1
 98
        0
  0
POLYLINE
  5
11D
330
115
100
AcDbEntity
  8
_U+30EC_U+30A4_U+30E4_U+30FC 1
370
     0
100
AcDb2dPolyline
 66
     1
 10
0.0
 20
0.0
 30
0.0
  0
VERTEX
  5
11E
330
11D
100
AcDbEntity
  8
_U+30EC_U+30A4_U+30E4_U+30FC 1
370
     0
100
AcDbVertex
100
AcDb2dVertex
 10
117.6934190243961
 20
-131.5351236650329
 30
0.0
  0
VERTEX
  5
11F
330
11D
100
AcDbEntity
  8
_U+30EC_U+30A4_U+30E4_U+30FC 1
370
     0
100
AcDbVertex
100
AcDb2dVertex
 10
117.4419270539729
 20
-131.5351236650329
 30
0.0
  0
VERTEX
  5
120
330
11D
100
AcDbEntity
  8
_U+30EC_U+30A4_U+30E4_U+30FC 1
370
     0
100
AcDbVertex
100
AcDb2dVertex
 10
117.4419270539729
 20
-131.2664062171834
 30
0.0
  0
VERTEX
  5
121
330
11D
100
AcDbEntity
  8
_U+30EC_U+30A4_U+30E4_U+30FC 1
370
     0
100
AcDbVertex
100
AcDb2dVertex
 10
117.6934190243961
 20
-131.2664062171834
 30
0.0
  0
VERTEX
  5
122
330
11D
100
AcDbEntity
  8
_U+30EC_U+30A4_U+30E4_U+30FC 1
370
     0
100
AcDbVertex
100
AcDb2dVertex
 10
117.6934190243961
 20
-131.5351236650329
 30
0.0
  0
SEQEND
  5
123
330
11D
100
AcDbEntity
  8
_U+30EC_U+30A4_U+30E4_U+30FC 1
370
     0
  0
HATCH
  5
124
330
115
100
AcDbEntity
  8
_U+30EC_U+30A4_U+30E4_U+30FC 1
 62
   179
420
  2234388
100
AcDbHatch
 10
0.0
 20
0.0
 30
0.0
210
0.0
220
0.0
230
1.0
  2
SOLID
 70
     1
 71
     0
 91
        1
 92
        1
 93
        4
 72
     1
 10
117.6934190243961
 20
-131.5351236650329
 11
117.4419270539729
 21
-131.5351236650329
 72
     1
 10
117.4419270539729
 20
-131.5351236650329
 11
117.4419270539729
 21
-131.2664062171834
 72
     1
 10
117.4419270539729
 20
-131.2664062171834
 11
117.6934190243961
 21
-131.2664062171834
 72
     1
 10
117.6934190243961
 20
-131.2664062171834
 11
117.6934190243961
 21
-131.5351236650329
 97
        0
 75
     2
 76
     1
 98
        0
  0
SPLINE
  5
125
330
115
100
AcDbEntity
  8
_U+30EC_U+30A4_U+30E4_U+30FC 1
370
     0
100
AcDbSpline
210
0.0
220
0.0
230
1.0
 70
    11
 71
     3
 72
    53
 73
    49
 74
     0
 42
0.0000000001
 43
0.0000000001
 12
1.0
 22
0.0
 32
0.0
 13
1.0
 23
0.0
 33
0.0
 40
0.0
 40
0.0
 40
0.0
 40
0.0
 40
1.0
 40
1.0
 40
1.0
 40
2.0
 40
2.0
 40
2.0
 40
3.0
 40
3.0
 40
3.0
 40
4.0
 40
4.0
 40
4.0
 40
5.0
 40
5.0
 40
5.0
 40
6.0
 40
6.0
 40
6.0
 40
7.0
 40
7.0
 40
7.0
 40
8.0
 40
8.0
 40
8.0
 40
9.0
 40
9.0
 40
9.0
 40
10.0
 40
10.0
 40
10.0
 40
11.0
 40
11.0
 40
11.0
 40
12.0
 40
12.0
 40
12.0
 40
13.0
 40
13.0
 40
13.0
 40
14.0
 40
14.0
 40
14.0
 40
15.0
 40
15.0
 40
15.0
 40
16.0
 40
16.0
 40
16.0
 40
16.0
 10
117.7444064375778
 20
-130.4995279621668
 30
0.0
 10
117.7444064375778
 20
-130.5828992729098
 30
0.0
 10
117.7271809601515
 20
-130.6917642902437
 30
0.0
 10
117.6637912032229
 20
-130.7999402884806
 30
0.0
 10
117.553548147695
 20
-130.9856309351355
 30
0.0
 10
117.4226345192555
 20
-131.0080240557897
 30
0.0
 10
117.3148030305671
 20
-131.0283501191526
 30
0.0
 10
117.3148030305671
 20
-131.0283501191526
 30
0.0
 10
117.3148030305671
 20
-130.7909830402189
 30
0.0
 10
117.3148030305671
 20
-130.7909830402189
 30
0.0
 10
117.513585040066
 20
-130.7324164169697
 30
0.0
 10
117.5432128612392
 20
-130.5966796548508
 30
0.0
 10
117.5432128612392
 20
-130.4971163953271
 30
0.0
 10
117.5432128612392
 20
-130.3479437608158
 30
0.0
 10
117.443994111264
 20
-130.185335253912
 30
0.0
 10
117.2111056564611
 20
-130.185335253912
 30
0.0
 10
116.9551350619071
 20
-130.185335253912
 30
0.0
 10
116.8851996235565
 20
-130.3772270724404
 30
0.0
 10
116.8851996235565
 20
-130.5060736435888
 30
0.0
 10
116.8851996235565
 20
-130.5401800888927
 30
0.0
 10
116.8851996235565
 20
-130.6917642902437
 30
0.0
 10
117.0143907042534
 20
-130.7865044160881
 30
0.0
 10
117.0143907042534
 20
-130.7865044160881
 30
0.0
 10
116.9954426790845
 20
-130.9742621200342
 30
0.0
 10
116.9954426790845
 20
-130.9742621200342
 30
0.0
 10
116.9954426790845
 20
-130.9742621200342
 30
0.0
 10
116.1493272279071
 20
-130.8454155488859
 30
0.0
 10
116.1493272279071
 20
-130.8454155488859
 30
0.0
 10
116.1493272279071
 20
-130.8454155488859
 30
0.0
 10
116.1493272279071
 20
-130.013424989198
 30
0.0
 10
116.1493272279071
 20
-130.013424989198
 30
0.0
 10
116.1493272279071
 20
-130.013424989198
 30
0.0
 10
116.3436306132752
 20
-130.013424989198
 30
0.0
 10
116.3436306132752
 20
-130.013424989198
 30
0.0
 10
116.3436306132752
 20
-130.013424989198
 30
0.0
 10
116.3436306132752
 20
-130.6710937173322
 30
0.0
 10
116.3436306132752
 20
-130.6710937173322
 30
0.0
 10
116.3436306132752
 20
-130.6710937173322
 30
0.0
 10
116.7666883388639
 20
-130.7413736652313
 30
0.0
 10
116.7666883388639
 20
-130.7413736652313
 30
0.0
 10
116.7329264031084
 20
-130.6759168510116
 30
0.0
 10
116.6929632954795
 20
-130.5877224065892
 30
0.0
 10
116.6929632954795
 20
-130.460942892732
 30
0.0
 10
116.6929632954795
 20
-130.1898138780428
 30
0.0
 10
116.878998451683
 20
-129.936599359877
 30
0.0
 10
117.1918131217437
 20
-129.936599359877
 30
0.0
 10
117.5094509254837
 20
-129.936599359877
 30
0.0
 10
117.7444064375778
 20
-130.1760334961018
 30
0.0
 10
117.7444064375778
 20
-130.4995279621668
 30
0.0
  0
HATCH
  5
126
330
115
100
AcDbEntity
  8
_U+30EC_U+30A4_U+30E4_U+30FC 1
 62
   179
420
  2234388
100
AcDbHatch
 10
0.0
 20
0.0
 30
0.0
210
0.0
220
0.0
230
1.0
  2
SOLID
 70
     1
 71
     0
 91
        1
 92
        1
 93
        1
 72
     4
 94
        3
 73
     0
 74
     1
 95
       53
 96
       49
 40
0.0
 40
0.0
 40
0.0
 40
0.0
 40
1.0
 40
1.0
 40
1.0
 40
2.0
 40
2.0
 40
2.0
 40
3.0
 40
3.0
 40
3.0
 40
4.0
 40
4.0
 40
4.0
 40
5.0
 40
5.0
 40
5.0
 40
6.0
 40
6.0
 40
6.0
 40
7.0
 40
7.0
 40
7.0
 40
8.0
 40
8.0
 40
8.0
 40
9.0
 40
9.0
 40
9.0
 40
10.0
 40
10.0
 40
10.0
 40
11.0
 40
11.0
 40
11.0
 40
12.0
 40
12.0
 40
12.0
 40
13.0
 40
13.0
 40
13.0
 40
14.0
 40
14.0
 40
14.0
 40
15.0
 40
15.0
 40
15.0
 40
16.0
 40
16.0
 40
16.0
 40
16.0
 10
117.7444064375778
 20
-130.4995279621668
 10
117.7444064375778
 20
-130.5828992729098
 10
117.7271809601515
 20
-130.6917642902437
 10
117.6637912032229
 20
-130.7999402884806
 10
117.553548147695
 20
-130.9856309351355
 10
117.4226345192555
 20
-131.0080240557897
 10
117.3148030305671
 20
-131.0283501191526
 10
117.3148030305671
 20
-131.0283501191526
 10
117.3148030305671
 20
-130.7909830402189
 10
117.3148030305671
 20
-130.7909830402189
 10
117.513585040066
 20
-130.7324164169697
 10
117.5432128612392
 20
-130.5966796548508
 10
117.5432128612392
 20
-130.4971163953271
 10
117.5432128612392
 20
-130.3479437608158
 10
117.443994111264
 20
-130.185335253912
 10
117.2111056564611
 20
-130.185335253912
 10
116.9551350619071
 20
-130.185335253912
 10
116.8851996235565
 20
-130.3772270724404
 10
116.8851996235565
 20
-130.5060736435888
 10
116.8851996235565
 20
-130.5401800888927
 10
116.8851996235565
 20
-130.6917642902437
 10
117.0143907042534
 20
-130.7865044160881
 10
117.0143907042534
 20
-130.7865044160881
 10
116.9954426790845
 20
-130.9742621200342
 10
116.9954426790845
 20
-130.9742621200342
 10
116.9954426790845
 20
-130.9742621200342
 10
116.1493272279071
 20
-130.8454155488859
 10
116.1493272279071
 20
-130.8454155488859
 10
116.1493272279071
 20
-130.8454155488859
 10
116.1493272279071
 20
-130.013424989198
 10
116.1493272279071
 20
-130.013424989198
 10
116.1493272279071
 20
-130.013424989198
 10
116.3436306132752
 20
-130.013424989198
 10
116.3436306132752
 20
-130.013424989198
 10
116.3436306132752
 20
-130.013424989198
 10
116.3436306132752
 20
-130.6710937173322
 10
116.3436306132752
 20
-130.6710937173322
 10
116.3436306132752
 20
-130.6710937173322
 10
116.7666883388639
 20
-130.7413736652313
 10
116.7666883388639
 20
-130.7413736652313
 10
116.7329264031084
 20
-130.6759168510116
 10
116.6929632954795
 20
-130.5877224065892
 10
116.6929632954795
 20
-130.460942892732
 10
116.6929632954795
 20
-130.1898138780428
 10
116.878998451683
 20
-129.936599359877
 10
117.1918131217437
 20
-129.936599359877
 10
117.5094509254837
 20
-129.936599359877
 10
117.7444064375778
 20
-130.1760334961018
 10
117.7444064375778
 20
-130.4995279621668
 97
        0
 97
        0
 75
     2
 76
     1
 98
        0
  0
ENDBLK
  5
118
330
115
100
AcDbEntity
  8
0
100
AcDbBlockEnd
  0
BLOCK
  5
129
330
127
100
AcDbEntity
  8
0
100
AcDbBlockBegin
  2
block 8
 70
     0
 10
0.0
 20
0.0
 30
0.0
  3
block 8
  1

  0
SPLINE
  5
12B
330
127
100
AcDbEntity
  8
_U+30EC_U+30A4_U+30E4_U+30FC 1
370
     0
100
AcDbSpline
210
0.0
220
0.0
230
1.0
 70
    11
 71
     3
 72
    44
 73
    40
 74
     0
 42
0.0000000001
 43
0.0000000001
 12
1.0
 22
0.0
 32
0.0
 13
1.0
 23
0.0
 33
0.0
 40
0.0
 40
0.0
 40
0.0
 40
0.0
 40
1.0
 40
1.0
 40
1.0
 40
2.0
 40
2.0
 40
2.0
 40
3.0
 40
3.0
 40
3.0
 40
4.0
 40
4.0
 40
4.0
 40
5.0
 40
5.0
 40
5.0
 40
6.0
 40
6.0
 40
6.0
 40
7.0
 40
7.0
 40
7.0
 40
8.0
 40
8.0
 40
8.0
 40
9.0
 40
9.0
 40
9.0
 40
10.0
 40
10.0
 40
10.0
 40
11.0
 40
11.0
 40
11.0
 40
12.0
 40
12.0
 40
12.0
 40
13.0
 40
13.0
 40
13.0
 40
13.0
 10
65.34863822151007
 20
-130.3086696722839
 30
0.0
 10
65.50745712338008
 20
-130.5415581270868
 30
0.0
 10
65.58152667631296
 20
-130.6411213866106
 30
0.0
 10
65.72518715804787
 20
-130.6931423284378
 30
0.0
 10
65.72518715804787
 20
-130.6931423284378
 30
0.0
 10
65.72518715804787
 20
-129.8608072592015
 30
0.0
 10
65.72518715804787
 20
-129.8608072592015
 30
0.0
 10
65.72518715804787
 20
-129.8608072592015
 30
0.0
 10
65.93051484896877
 20
-129.8608072592015
 30
0.0
 10
65.93051484896877
 20
-129.8608072592015
 30
0.0
 10
65.93051484896877
 20
-129.8608072592015
 30
0.0
 10
65.93051484896877
 20
-130.9597927189962
 30
0.0
 10
65.93051484896877
 20
-130.9597927189962
 30
0.0
 10
65.57291393759984
 20
-130.9260307832407
 30
0.0
 10
65.49471027008465
 20
-130.8557508353416
 30
0.0
 10
65.19636500106202
 20
-130.4444064344028
 30
0.0
 10
64.9975829915631
 20
-130.170865852874
 30
0.0
 10
64.92971461050368
 20
-130.1005859049748
 30
0.0
 10
64.79225530064221
 20
-130.1005859049748
 30
0.0
 10
64.67374401594962
 20
-130.1005859049748
 30
0.0
 10
64.54283038751012
 20
-130.1774115342959
 30
0.0
 10
64.54283038751012
 20
-130.3879068684447
 30
0.0
 10
64.54283038751012
 20
-130.6659260741044
 30
0.0
 10
64.77330727547334
 20
-130.674883322366
 30
0.0
 10
64.88975150287479
 20
-130.6793619464968
 30
0.0
 10
64.88975150287479
 20
-130.6793619464968
 30
0.0
 10
64.88975150287479
 20
-130.9191405922702
 30
0.0
 10
64.88975150287479
 20
-130.9191405922702
 30
0.0
 10
64.76262747946907
 20
-130.9101833440086
 30
0.0
 10
64.65066187619846
 20
-130.8984700193587
 30
0.0
 10
64.53215059150585
 20
-130.8130316513245
 30
0.0
 10
64.37126463234469
 20
-130.695209385729
 30
0.0
 10
64.33750269658924
 20
-130.4964273762301
 30
0.0
 10
64.33750269658924
 20
-130.3720594292126
 30
0.0
 10
64.33750269658924
 20
-130.0757812174811
 30
0.0
 10
64.52147079550159
 20
-129.8542615777795
 30
0.0
 10
64.79432235793337
 20
-129.8542615777795
 30
0.0
 10
65.02307669815396
 20
-129.8542615777795
 30
0.0
 10
65.12229544812915
 20
-129.978629524797
 30
0.0
 10
65.34863822151007
 20
-130.3086696722839
 30
0.0
  0
HATCH
  5
12C
330
127
100
AcDbEntity
  8
_U+30EC_U+30A4_U+30E4_U+30FC 1
 62
   179
420
  2234388
100
AcDbHatch
 10
0.0
 20
0.0
 30
0.0
210
0.0
220
0.0
230
1.0
  2
SOLID
 70
     1
 71
     0
 91
        1
 92
        1
 93
        1
 72
     4
 94
        3
 73
     0
 74
     1
 95
       44
 96
       40
 40
0.0
 40
0.0
 40
0.0
 40
0.0
 40
1.0
 40
1.0
 40
1.0
 40
2.0
 40
2.0
 40
2.0
 40
3.0
 40
3.0
 40
3.0
 40
4.0
 40
4.0
 40
4.0
 40
5.0
 40
5.0
 40
5.0
 40
6.0
 40
6.0
 40
6.0
 40
7.0
 40
7.0
 40
7.0
 40
8.0
 40
8.0
 40
8.0
 40
9.0
 40
9.0
 40
9.0
 40
10.0
 40
10.0
 40
10.0
 40
11.0
 40
11.0
 40
11.0
 40
12.0
 40
12.0
 40
12.0
 40
13.0
 40
13.0
 40
13.0
 40
13.0
 10
65.34863822151007
 20
-130.3086696722839
 10
65.50745712338008
 20
-130.5415581270868
 10
65.58152667631296
 20
-130.6411213866106
 10
65.72518715804787
 20
-130.6931423284378
 10
65.72518715804787
 20
-130.6931423284378
 10
65.72518715804787
 20
-129.8608072592015
 10
65.72518715804787
 20
-129.8608072592015
 10
65.72518715804787
 20
-129.8608072592015
 10
65.93051484896877
 20
-129.8608072592015
 10
65.93051484896877
 20
-129.8608072592015
 10
65.93051484896877
 20
-129.8608072592015
 10
65.93051484896877
 20
-130.9597927189962
 10
65.93051484896877
 20
-130.9597927189962
 10
65.57291393759984
 20
-130.9260307832407
 10
65.49471027008465
 20
-130.8557508353416
 10
65.19636500106202
 20
-130.4444064344028
 10
64.9975829915631
 20
-130.170865852874
 10
64.92971461050368
 20
-130.1005859049748
 10
64.79225530064221
 20
-130.1005859049748
 10
64.67374401594962
 20
-130.1005859049748
 10
64.54283038751012
 20
-130.1774115342959
 10
64.54283038751012
 20
-130.3879068684447
 10
64.54283038751012
 20
-130.6659260741044
 10
64.77330727547334
 20
-130.674883322366
 10
64.88975150287479
 20
-130.6793619464968
 10
64.88975150287479
 20
-130.6793619464968
 10
64.88975150287479
 20
-130.9191405922702
 10
64.88975150287479
 20
-130.9191405922702
 10
64.76262747946907
 20
-130.9101833440086
 10
64.65066187619846
 20
-130.8984700193587
 10
64.53215059150585
 20
-130.8130316513245
 10
64.37126463234469
 20
-130.695209385729
 10
64.33750269658924
 20
-130.4964273762301
 10
64.33750269658924
 20
-130.3720594292126
 10
64.33750269658924
 20
-130.0757812174811
 10
64.52147079550159
 20
-129.8542615777795
 10
64.79432235793337
 20
-129.8542615777795
 10
65.02307669815396
 20
-129.8542615777795
 10
65.12229544812915
 20
-129.978629524797
 10
65.34863822151007
 20
-130.3086696722839
 97
        0
 97
        0
 75
     2
 76
     1
 98
        0
  0
SPLINE
  5
12D
330
127
100
AcDbEntity
  8
_U+30EC_U+30A4_U+30E4_U+30FC 1
370
     0
100
AcDbSpline
210
0.0
220
0.0
230
1.0
 70
    11
 71
     3
 72
    62
 73
    58
 74
     0
 42
0.0000000001
 43
0.0000000001
 12
1.0
 22
0.0
 32
0.0
 13
1.0
 23
0.0
 33
0.0
 40
0.0
 40
0.0
 40
0.0
 40
0.0
 40
1.0
 40
1.0
 40
1.0
 40
2.0
 40
2.0
 40
2.0
 40
3.0
 40
3.0
 40
3.0
 40
4.0
 40
4.0
 40
4.0
 40
5.0
 40
5.0
 40
5.0
 40
6.0
 40
6.0
 40
6.0
 40
7.0
 40
7.0
 40
7.0
 40
8.0
 40
8.0
 40
8.0
 40
9.0
 40
9.0
 40
9.0
 40
10.0
 40
10.0
 40
10.0
 40
11.0
 40
11.0
 40
11.0
 40
12.0
 40
12.0
 40
12.0
 40
13.0
 40
13.0
 40
13.0
 40
14.0
 40
14.0
 40
14.0
 40
15.0
 40
15.0
 40
15.0
 40
16.0
 40
16.0
 40
16.0
 40
17.0
 40
17.0
 40
17.0
 40
18.0
 40
18.0
 40
18.0
 40
19.0
 40
19.0
 40
19.0
 40
19.0
 10
65.98115775260193
 20
-129.1593858184046
 30
0.0
 10
65.98115775260193
 20
-129.2610161352195
 30
0.0
 10
65.9601426701419
 20
-129.4939045900224
 30
0.0
 10
65.77410751393842
 20
-129.6272297853015
 30
0.0
 10
65.66179740111927
 20
-129.7064669814623
 30
0.0
 10
65.56257865114408
 20
-129.7109456055931
 30
0.0
 10
65.47782930220693
 20
-129.7154242297239
 30
0.0
 10
65.47782930220693
 20
-129.7154242297239
 30
0.0
 10
65.47782930220693
 20
-129.4804687176299
 30
0.0
 10
65.47782930220693
 20
-129.4804687176299
 30
0.0
 10
65.55189885513981
 20
-129.4780571507902
 30
0.0
 10
65.78650985768532
 20
-129.4666883356889
 30
0.0
 10
65.78650985768532
 20
-129.1638644425354
 30
0.0
 10
65.78650985768532
 20
-129.0167588653153
 30
0.0
 10
65.71691892888327
 20
-128.8541503584115
 30
0.0
 10
65.48850909821121
 20
-128.8541503584115
 30
0.0
 10
65.37206487080977
 20
-128.8541503584115
 30
0.0
 10
65.32348902446775
 20
-128.8948024851374
 30
0.0
 10
65.29179414600344
 20
-128.9285644208929
 30
0.0
 10
65.21772459307057
 20
-129.0078016170536
 30
0.0
 10
65.20497773977515
 20
-129.1321695640711
 30
0.0
 10
65.20497773977515
 20
-129.1910806968689
 30
0.0
 10
65.20497773977515
 20
-129.2114067602319
 30
0.0
 10
65.2070447970663
 20
-129.2496473201182
 30
0.0
 10
65.2111789116486
 20
-129.2792751412913
 30
0.0
 10
65.2111789116486
 20
-129.2792751412913
 30
0.0
 10
65.01653101673197
 20
-129.2792751412913
 30
0.0
 10
65.01653101673197
 20
-129.2792751412913
 30
0.0
 10
65.02307669815396
 20
-129.2386230145653
 30
0.0
 10
65.0251437554451
 20
-129.1931477541601
 30
0.0
 10
65.0251437554451
 20
-129.1866020727381
 30
0.0
 10
65.0251437554451
 20
-129.116322124839
 30
0.0
 10
65.00378416343656
 20
-128.9037597333991
 30
0.0
 10
64.76710610359989
 20
-128.9037597333991
 30
0.0
 10
64.589339176561
 20
-128.9037597333991
 30
0.0
 10
64.53421764879701
 20
-129.0439751196487
 30
0.0
 10
64.53421764879701
 20
-129.1614528756957
 30
0.0
 10
64.53421764879701
 20
-129.4442952150348
 30
0.0
 10
64.76710610359989
 20
-129.4532524632964
 30
0.0
 10
64.83876408969309
 20
-129.4577310874272
 30
0.0
 10
64.83876408969309
 20
-129.4577310874272
 30
0.0
 10
64.83876408969309
 20
-129.674772102998
 30
0.0
 10
64.83876408969309
 20
-129.674772102998
 30
0.0
 10
64.71405163312704
 20
-129.6658148547363
 30
0.0
 10
64.33750269658924
 20
-129.6365315431117
 30
0.0
 10
64.33750269658924
 20
-129.1480170033033
 30
0.0
 10
64.33750269658924
 20
-128.9082383575299
 30
0.0
 10
64.46462671999495
 20
-128.6505452152332
 30
0.0
 10
64.76056042217792
 20
-128.6505452152332
 30
0.0
 10
64.94694008792993
 20
-128.6505452152332
 30
0.0
 10
65.0292778700274
 20
-128.7525200415966
 30
0.0
 10
65.09060056966486
 20
-128.8586289825423
 30
0.0
 10
65.11816133354685
 20
-128.7931721683225
 30
0.0
 10
65.19843205835318
 20
-128.5985242734059
 30
0.0
 10
65.47576224491579
 20
-128.5985242734059
 30
0.0
 10
65.81407062156732
 20
-128.5985242734059
 30
0.0
 10
65.98115775260193
 20
-128.8631076066731
 30
0.0
 10
65.98115775260193
 20
-129.1593858184046
 30
0.0
  0
HATCH
  5
12E
330
127
100
AcDbEntity
  8
_U+30EC_U+30A4_U+30E4_U+30FC 1
 62
   179
420
  2234388
100
AcDbHatch
 10
0.0
 20
0.0
 30
0.0
210
0.0
220
0.0
230
1.0
  2
SOLID
 70
     1
 71
     0
 91
        1
 92
        1
 93
        1
 72
     4
 94
        3
 73
     0
 74
     1
 95
       62
 96
       58
 40
0.0
 40
0.0
 40
0.0
 40
0.0
 40
1.0
 40
1.0
 40
1.0
 40
2.0
 40
2.0
 40
2.0
 40
3.0
 40
3.0
 40
3.0
 40
4.0
 40
4.0
 40
4.0
 40
5.0
 40
5.0
 40
5.0
 40
6.0
 40
6.0
 40
6.0
 40
7.0
 40
7.0
 40
7.0
 40
8.0
 40
8.0
 40
8.0
 40
9.0
 40
9.0
 40
9.0
 40
10.0
 40
10.0
 40
10.0
 40
11.0
 40
11.0
 40
11.0
 40
12.0
 40
12.0
 40
12.0
 40
13.0
 40
13.0
 40
13.0
 40
14.0
 40
14.0
 40
14.0
 40
15.0
 40
15.0
 40
15.0
 40
16.0
 40
16.0
 40
16.0
 40
17.0
 40
17.0
 40
17.0
 40
18.0
 40
18.0
 40
18.0
 40
19.0
 40
19.0
 40
19.0
 40
19.0
 10
65.98115775260193
 20
-129.1593858184046
 10
65.98115775260193
 20
-129.2610161352195
 10
65.9601426701419
 20
-129.4939045900224
 10
65.77410751393842
 20
-129.6272297853015
 10
65.66179740111927
 20
-129.7064669814623
 10
65.56257865114408
 20
-129.7109456055931
 10
65.47782930220693
 20
-129.7154242297239
 10
65.47782930220693
 20
-129.7154242297239
 10
65.47782930220693
 20
-129.4804687176299
 10
65.47782930220693
 20
-129.4804687176299
 10
65.55189885513981
 20
-129.4780571507902
 10
65.78650985768532
 20
-129.4666883356889
 10
65.78650985768532
 20
-129.1638644425354
 10
65.78650985768532
 20
-129.0167588653153
 10
65.71691892888327
 20
-128.8541503584115
 10
65.48850909821121
 20
-128.8541503584115
 10
65.37206487080977
 20
-128.8541503584115
 10
65.32348902446775
 20
-128.8948024851374
 10
65.29179414600344
 20
-128.9285644208929
 10
65.21772459307057
 20
-129.0078016170536
 10
65.20497773977515
 20
-129.1321695640711
 10
65.20497773977515
 20
-129.1910806968689
 10
65.20497773977515
 20
-129.2114067602319
 10
65.2070447970663
 20
-129.2496473201182
 10
65.2111789116486
 20
-129.2792751412913
 10
65.2111789116486
 20
-129.2792751412913
 10
65.01653101673197
 20
-129.2792751412913
 10
65.01653101673197
 20
-129.2792751412913
 10
65.02307669815396
 20
-129.2386230145653
 10
65.0251437554451
 20
-129.1931477541601
 10
65.0251437554451
 20
-129.1866020727381
 10
65.0251437554451
 20
-129.116322124839
 10
65.00378416343656
 20
-128.9037597333991
 10
64.76710610359989
 20
-128.9037597333991
 10
64.589339176561
 20
-128.9037597333991
 10
64.53421764879701
 20
-129.0439751196487
 10
64.53421764879701
 20
-129.1614528756957
 10
64.53421764879701
 20
-129.4442952150348
 10
64.76710610359989
 20
-129.4532524632964
 10
64.83876408969309
 20
-129.4577310874272
 10
64.83876408969309
 20
-129.4577310874272
 10
64.83876408969309
 20
-129.674772102998
 10
64.83876408969309
 20
-129.674772102998
 10
64.71405163312704
 20
-129.6658148547363
 10
64.33750269658924
 20
-129.6365315431117
 10
64.33750269658924
 20
-129.1480170033033
 10
64.33750269658924
 20
-128.9082383575299
 10
64.46462671999495
 20
-128.6505452152332
 10
64.76056042217792
 20
-128.6505452152332
 10
64.94694008792993
 20
-128.6505452152332
 10
65.0292778700274
 20
-128.7525200415966
 10
65.09060056966486
 20
-128.8586289825423
 10
65.11816133354685
 20
-128.7931721683225
 10
65.19843205835318
 20
-128.5985242734059
 10
65.47576224491579
 20
-128.5985242734059
 10
65.81407062156732
 20
-128.5985242734059
 10
65.98115775260193
 20
-128.8631076066731
 10
65.98115775260193
 20
-129.1593858184046
 97
        0
 97
        0
 75
     2
 76
     1
 98
        0
  0
ENDBLK
  5
12A
330
127
100
AcDbEntity
  8
0
100
AcDbBlockEnd
  0
ENDSEC
  0
SECTION
  2
ENTITIES
  0
SPLINE
  5
41
330
1F
100
AcDbEntity
  8
_U+30EC_U+30A4_U+30E4_U+30FC 1
 62
   179
420
  2234388
370
     9
100
AcDbSpline
210
0.0
220
0.0
230
1.0
 70
    11
 71
     3
 72
    17
 73
    13
 74
     0
 42
0.0000000001
 43
0.0000000001
 12
1.0
 22
0.0
 32
0.0
 13
1.0
 23
0.0
 33
0.0
 40
0.0
 40
0.0
 40
0.0
 40
0.0
 40
1.0
 40
1.0
 40
1.0
 40
2.0
 40
2.0
 40
2.0
 40
3.0
 40
3.0
 40
3.0
 40
4.0
 40
4.0
 40
4.0
 40
4.0
 10
71.28763818130084
 20
-111.8477710831493
 30
0.0
 10
71.34344762432146
 20
-111.8477710831493
 30
0.0
 10
71.38825040095622
 20
-111.8925738609157
 30
0.0
 10
71.38825040095622
 20
-111.947677749791
 30
0.0
 10
71.38825040095622
 20
-112.0028169164437
 30
0.0
 10
71.34344762432146
 20
-112.0475844164326
 30
0.0
 10
71.28763818130084
 20
-112.0475844164326
 30
0.0
 10
71.23249901604089
 20
-112.0475844164326
 30
0.0
 10
71.18773331553653
 20
-112.0028169164437
 30
0.0
 10
71.18773331553653
 20
-111.947677749791
 30
0.0
 10
71.18773331553653
 20
-111.8925738609157
 30
0.0
 10
71.23249901604089
 20
-111.8477710831493
 30
0.0
 10
71.28763818130084
 20
-111.8477710831493
 30
0.0
  0
SPLINE
  5
42
330
1F
100
AcDbEntity
  8
_U+30EC_U+30A4_U+30E4_U+30FC 1
 62
   179
420
  2234388
370
     9
100
AcDbSpline
210
0.0
220
0.0
230
1.0
 70
    11
 71
     3
 72
    17
 73
    13
 74
     0
 42
0.0000000001
 43
0.0000000001
 12
1.0
 22
0.0
 32
0.0
 13
1.0
 23
0.0
 33
0.0
 40
0.0
 40
0.0
 40
0.0
 40
0.0
 40
1.0
 40
1.0
 40
1.0
 40
2.0
 40
2.0
 40
2.0
 40
3.0
 40
3.0
 40
3.0
 40
4.0
 40
4.0
 40
4.0
 40
4.0
 10
74.31313088189187
 20
-111.8656921942556
 30
0.0
 10
74.36894032491249
 20
-111.8656921942556
 30
0.0
 10
74.41370782377038
 20
-111.9097894164669
 30
0.0
 10
74.41370782377038
 20
-111.9655988608976
 30
0.0
 10
74.41370782377038
 20
-112.0207380275504
 30
0.0
 10
74.36894032491249
 20
-112.0655055275392
 30
0.0
 10
74.31313088189187
 20
-112.0655055275392
 30
0.0
 10
74.2579917166319
 20
-112.0655055275392
 30
0.0
 10
74.21322421777403
 20
-112.0207380275504
 30
0.0
 10
74.21322421777403
 20
-111.9655988608976
 30
0.0
 10
74.21322421777403
 20
-111.9097894164669
 30
0.0
 10
74.2579917166319
 20
-111.8656921942556
 30
0.0
 10
74.31313088189187
 20
-111.8656921942556
 30
0.0
  0
POLYLINE
  5
43
330
1F
100
AcDbEntity
  8
_U+30EC_U+30A4_U+30E4_U+30FC 1
 62
   179
420
  2234388
370
    25
100
AcDb2dPolyline
 66
     1
 10
0.0
 20
0.0
 30
0.0
  0
VERTEX
  5
44
330
43
100
AcDbEntity
  8
_U+30EC_U+30A4_U+30E4_U+30FC 1
 62
   179
420
  2234388
370
    25
100
AcDbVertex
100
AcDb2dVertex
 10
76.22582138865062
 20
-141.2799152424575
 30
0.0
  0
VERTEX
  5
45
330
43
100
AcDbEntity
  8
_U+30EC_U+30A4_U+30E4_U+30FC 1
 62
   179
420
  2234388
370
    25
100
AcDbVertex
100
AcDb2dVertex
 10
71.22561984954972
 20
-141.2799152424575
 30
0.0
  0
SEQEND
  5
46
330
43
100
AcDbEntity
  8
_U+30EC_U+30A4_U+30E4_U+30FC 1
 62
   179
420
  2234388
370
    25
  0
POLYLINE
  5
47
330
1F
100
AcDbEntity
  8
_U+30EC_U+30A4_U+30E4_U+30FC 1
 62
   179
420
  2234388
370
    25
100
AcDb2dPolyline
 66
     1
 10
0.0
 20
0.0
 30
0.0
  0
VERTEX
  5
48
330
47
100
AcDbEntity
  8
_U+30EC_U+30A4_U+30E4_U+30FC 1
 62
   179
420
  2234388
370
    25
100
AcDbVertex
100
AcDb2dVertex
 10
74.22560671745812
 20
-118.2797919148744
 30
0.0
  0
VERTEX
  5
49
330
47
100
AcDbEntity
  8
_U+30EC_U+30A4_U+30E4_U+30FC 1
 62
   179
420
  2234388
370
    25
100
AcDbVertex
100
AcDb2dVertex
 10
71.22561984954972
 20
-118.2797919148744
 30
0.0
  0
SEQEND
  5
4A
330
47
100
AcDbEntity
  8
_U+30EC_U+30A4_U+30E4_U+30FC 1
 62
   179
420
  2234388
370
    25
  0
POLYLINE
  5
4B
330
1F
100
AcDbEntity
  8
_U+30EC_U+30A4_U+30E4_U+30FC 1
 62
   179
420
  2234388
370
    25
100
AcDb2dPolyline
 66
     1
 10
0.0
 20
0.0
 30
0.0
  0
VERTEX
  5
4C
330
4B
100
AcDbEntity
  8
_U+30EC_U+30A4_U+30E4_U+30FC 1
 62
   179
420
  2234388
370
    25
100
AcDbVertex
100
AcDb2dVertex
 10
111.2283638610817
 20
-125.7797416352218
 30
0.0
  0
VERTEX
  5
4D
330
4B
100
AcDbEntity
  8
_U+30EC_U+30A4_U+30E4_U+30FC 1
 62
   179
420
  2234388
370
    25
100
AcDbVertex
100
AcDb2dVertex
 10
111.2283638610817
 20
-124.7799694132496
 30
0.0
  0
SEQEND
  5
4E
330
4B
100
AcDbEntity
  8
_U+30EC_U+30A4_U+30E4_U+30FC 1
 62
   179
420
  2234388
370
    25
  0
POLYLINE
  5
4F
330
1F
100
AcDbEntity
  8
_U+30EC_U+30A4_U+30E4_U+30FC 1
 62
   179
420
  2234388
370
    25
100
AcDb2dPolyline
 66
     1
 10
0.0
 20
0.0
 30
0.0
  0
VERTEX
  5
50
330
4F
100
AcDbEntity
  8
_U+30EC_U+30A4_U+30E4_U+30FC 1
 62
   179
420
  2234388
370
    25
100
AcDbVertex
100
AcDb2dVertex
 10
71.22561984954972
 20
-141.2799152424575
 30
0.0
  0
VERTEX
  5
51
330
4F
100
AcDbEntity
  8
_U+30EC_U+30A4_U+30E4_U+30FC 1
 62
   179
420
  2234388
370
    25
100
AcDbVertex
100
AcDb2dVertex
 10
71.22561984954972
 20
-118.2797919148744
 30
0.0
  0
SEQEND
  5
52
330
4F
100
AcDbEntity
  8
_U+30EC_U+30A4_U+30E4_U+30FC 1
 62
   179
420
  2234388
370
    25
  0
POLYLINE
  5
53
330
1F
100
AcDbEntity
  8
_U+30EC_U+30A4_U+30E4_U+30FC 1
 62
   179
420
  2234388
370
    25
100
AcDb2dPolyline
 66
     1
 10
0.0
 20
0.0
 30
0.0
  0
VERTEX
  5
54
330
53
100
AcDbEntity
  8
_U+30EC_U+30A4_U+30E4_U+30FC 1
 62
   179
420
  2234388
370
    25
100
AcDbVertex
100
AcDb2dVertex
 10
76.33126666373826
 20
-138.2799282987632
 30
0.0
  0
VERTEX
  5
55
330
53
100
AcDbEntity
  8
_U+30EC_U+30A4_U+30E4_U+30FC 1
 62
   179
420
  2234388
370
    25
100
AcDbVertex
100
AcDb2dVertex
 10
73.33127979582986
 20
-138.2799282987632
 30
0.0
  0
SEQEND
  5
56
330
53
100
AcDbEntity
  8
_U+30EC_U+30A4_U+30E4_U+30FC 1
 62
   179
420
  2234388
370
    25
  0
POLYLINE
  5
57
330
1F
100
AcDbEntity
  8
_U+30EC_U+30A4_U+30E4_U+30FC 1
 62
   179
420
  2234388
370
    25
100
AcDb2dPolyline
 66
     1
 10
0.0
 20
0.0
 30
0.0
  0
VERTEX
  5
58
330
57
100
AcDbEntity
  8
_U+30EC_U+30A4_U+30E4_U+30FC 1
 62
   179
420
  2234388
370
    25
100
AcDbVertex
100
AcDb2dVertex
 10
111.2283638610817
 20
-125.7797416352218
 30
0.0
  0
VERTEX
  5
59
330
57
100
AcDbEntity
  8
_U+30EC_U+30A4_U+30E4_U+30FC 1
 62
   179
420
  2234388
370
    25
100
AcDbVertex
100
AcDb2dVertex
 10
72.22609760180319
 20
-125.7797416352218
 30
0.0
  0
SEQEND
  5
5A
330
57
100
AcDbEntity
  8
_U+30EC_U+30A4_U+30E4_U+30FC 1
 62
   179
420
  2234388
370
    25
  0
POLYLINE
  5
5B
330
1F
100
AcDbEntity
  8
_U+30EC_U+30A4_U+30E4_U+30FC 1
 62
   179
420
  2234388
370
    25
100
AcDb2dPolyline
 66
     1
 10
0.0
 20
0.0
 30
0.0
  0
VERTEX
  5
5C
330
5B
100
AcDbEntity
  8
_U+30EC_U+30A4_U+30E4_U+30FC 1
 62
   179
420
  2234388
370
    25
100
AcDbVertex
100
AcDb2dVertex
 10
111.2283638610817
 20
-124.7799694132496
 30
0.0
  0
VERTEX
  5
5D
330
5B
100
AcDbEntity
  8
_U+30EC_U+30A4_U+30E4_U+30FC 1
 62
   179
420
  2234388
370
    25
100
AcDbVertex
100
AcDb2dVertex
 10
72.22609760180319
 20
-124.7799694132496
 30
0.0
  0
SEQEND
  5
5E
330
5B
100
AcDbEntity
  8
_U+30EC_U+30A4_U+30E4_U+30FC 1
 62
   179
420
  2234388
370
    25
  0
POLYLINE
  5
5F
330
1F
100
AcDbEntity
  8
_U+30EC_U+30A4_U+30E4_U+30FC 1
 62
   179
420
  2234388
370
    25
100
AcDb2dPolyline
 66
     1
 10
0.0
 20
0.0
 30
0.0
  0
VERTEX
  5
60
330
5F
100
AcDbEntity
  8
_U+30EC_U+30A4_U+30E4_U+30FC 1
 62
   179
420
  2234388
370
    25
100
AcDbVertex
100
AcDb2dVertex
 10
72.22609760180319
 20
-140.2801430204856
 30
0.0
  0
VERTEX
  5
61
330
5F
100
AcDbEntity
  8
_U+30EC_U+30A4_U+30E4_U+30FC 1
 62
   179
420
  2234388
370
    25
100
AcDbVertex
100
AcDb2dVertex
 10
72.22609760180319
 20
-125.7797416352218
 30
0.0
  0
SEQEND
  5
62
330
5F
100
AcDbEntity
  8
_U+30EC_U+30A4_U+30E4_U+30FC 1
 62
   179
420
  2234388
370
    25
  0
POLYLINE
  5
63
330
1F
100
AcDbEntity
  8
_U+30EC_U+30A4_U+30E4_U+30FC 1
 62
   179
420
  2234388
370
    25
100
AcDb2dPolyline
 66
     1
 10
0.0
 20
0.0
 30
0.0
  0
VERTEX
  5
64
330
63
100
AcDbEntity
  8
_U+30EC_U+30A4_U+30E4_U+30FC 1
 62
   179
420
  2234388
370
    25
100
AcDbVertex
100
AcDb2dVertex
 10
74.22560671745812
 20
-119.2795288590691
 30
0.0
  0
VERTEX
  5
65
330
63
100
AcDbEntity
  8
_U+30EC_U+30A4_U+30E4_U+30FC 1
 62
   179
420
  2234388
370
    25
100
AcDbVertex
100
AcDb2dVertex
 10
72.22609760180319
 20
-119.2795288590691
 30
0.0
  0
SEQEND
  5
66
330
63
100
AcDbEntity
  8
_U+30EC_U+30A4_U+30E4_U+30FC 1
 62
   179
420
  2234388
370
    25
  0
POLYLINE
  5
67
330
1F
100
AcDbEntity
  8
_U+30EC_U+30A4_U+30E4_U+30FC 1
 62
   179
420
  2234388
370
    25
100
AcDb2dPolyline
 66
     1
 10
0.0
 20
0.0
 30
0.0
  0
VERTEX
  5
68
330
67
100
AcDbEntity
  8
_U+30EC_U+30A4_U+30E4_U+30FC 1
 62
   179
420
  2234388
370
    25
100
AcDbVertex
100
AcDb2dVertex
 10
75.22608446971158
 20
-140.2801430204856
 30
0.0
  0
VERTEX
  5
69
330
67
100
AcDbEntity
  8
_U+30EC_U+30A4_U+30E4_U+30FC 1
 62
   179
420
  2234388
370
    25
100
AcDbVertex
100
AcDb2dVertex
 10
72.22609760180319
 20
-140.2801430204856
 30
0.0
  0
SEQEND
  5
6A
330
67
100
AcDbEntity
  8
_U+30EC_U+30A4_U+30E4_U+30FC 1
 62
   179
420
  2234388
370
    25
  0
POLYLINE
  5
6B
330
1F
100
AcDbEntity
  8
_U+30EC_U+30A4_U+30E4_U+30FC 1
 62
   179
420
  2234388
370
    25
100
AcDb2dPolyline
 66
     1
 10
0.0
 20
0.0
 30
0.0
  0
VERTEX
  5
6C
330
6B
100
AcDbEntity
  8
_U+30EC_U+30A4_U+30E4_U+30FC 1
 62
   179
420
  2234388
370
    25
100
AcDbVertex
100
AcDb2dVertex
 10
76.33126666373826
 20
-141.2799152424575
 30
0.0
  0
VERTEX
  5
6D
330
6B
100
AcDbEntity
  8
_U+30EC_U+30A4_U+30E4_U+30FC 1
 62
   179
420
  2234388
370
    25
100
AcDbVertex
100
AcDb2dVertex
 10
76.33126666373826
 20
-138.2799282987632
 30
0.0
  0
SEQEND
  5
6E
330
6B
100
AcDbEntity
  8
_U+30EC_U+30A4_U+30E4_U+30FC 1
 62
   179
420
  2234388
370
    25
  0
POLYLINE
  5
6F
330
1F
100
AcDbEntity
  8
_U+30EC_U+30A4_U+30E4_U+30FC 1
 62
   179
420
  2234388
370
    25
100
AcDb2dPolyline
 66
     1
 10
0.0
 20
0.0
 30
0.0
  0
VERTEX
  5
70
330
6F
100
AcDbEntity
  8
_U+30EC_U+30A4_U+30E4_U+30FC 1
 62
   179
420
  2234388
370
    25
100
AcDbVertex
100
AcDb2dVertex
 10
75.3307889114848
 20
-140.2801430204856
 30
0.0
  0
VERTEX
  5
71
330
6F
100
AcDbEntity
  8
_U+30EC_U+30A4_U+30E4_U+30FC 1
 62
   179
420
  2234388
370
    25
100
AcDbVertex
100
AcDb2dVertex
 10
75.3307889114848
 20
-139.2797005207357
 30
0.0
  0
SEQEND
  5
72
330
6F
100
AcDbEntity
  8
_U+30EC_U+30A4_U+30E4_U+30FC 1
 62
   179
420
  2234388
370
    25
  0
POLYLINE
  5
73
330
1F
100
AcDbEntity
  8
_U+30EC_U+30A4_U+30E4_U+30FC 1
 62
   179
420
  2234388
370
    25
100
AcDb2dPolyline
 66
     1
 10
0.0
 20
0.0
 30
0.0
  0
VERTEX
  5
74
330
73
100
AcDbEntity
  8
_U+30EC_U+30A4_U+30E4_U+30FC 1
 62
   179
420
  2234388
370
    25
100
AcDbVertex
100
AcDb2dVertex
 10
75.3307889114848
 20
-139.2797005207357
 30
0.0
  0
VERTEX
  5
75
330
73
100
AcDbEntity
  8
_U+30EC_U+30A4_U+30E4_U+30FC 1
 62
   179
420
  2234388
370
    25
100
AcDbVertex
100
AcDb2dVertex
 10
73.33127979582986
 20
-139.2797005207357
 30
0.0
  0
SEQEND
  5
76
330
73
100
AcDbEntity
  8
_U+30EC_U+30A4_U+30E4_U+30FC 1
 62
   179
420
  2234388
370
    25
  0
POLYLINE
  5
77
330
1F
100
AcDbEntity
  8
_U+30EC_U+30A4_U+30E4_U+30FC 1
 62
   179
420
  2234388
370
    25
100
AcDb2dPolyline
 66
     1
 10
0.0
 20
0.0
 30
0.0
  0
VERTEX
  5
78
330
77
100
AcDbEntity
  8
_U+30EC_U+30A4_U+30E4_U+30FC 1
 62
   179
420
  2234388
370
    25
100
AcDbVertex
100
AcDb2dVertex
 10
73.33127979582986
 20
-139.2797005207357
 30
0.0
  0
VERTEX
  5
79
330
77
100
AcDbEntity
  8
_U+30EC_U+30A4_U+30E4_U+30FC 1
 62
   179
420
  2234388
370
    25
100
AcDbVertex
100
AcDb2dVertex
 10
73.33127979582986
 20
-138.2799282987632
 30
0.0
  0
SEQEND
  5
7A
330
77
100
AcDbEntity
  8
_U+30EC_U+30A4_U+30E4_U+30FC 1
 62
   179
420
  2234388
370
    25
  0
POLYLINE
  5
7B
330
1F
100
AcDbEntity
  8
_U+30EC_U+30A4_U+30E4_U+30FC 1
 62
   179
420
  2234388
370
    25
100
AcDb2dPolyline
 66
     1
 10
0.0
 20
0.0
 30
0.0
  0
VERTEX
  5
7C
330
7B
100
AcDbEntity
  8
_U+30EC_U+30A4_U+30E4_U+30FC 1
 62
   179
420
  2234388
370
    25
100
AcDbVertex
100
AcDb2dVertex
 10
74.22560671745812
 20
-119.2795288590691
 30
0.0
  0
VERTEX
  5
7D
330
7B
100
AcDbEntity
  8
_U+30EC_U+30A4_U+30E4_U+30FC 1
 62
   179
420
  2234388
370
    25
100
AcDbVertex
100
AcDb2dVertex
 10
74.22560671745812
 20
-118.2797919148744
 30
0.0
  0
SEQEND
  5
7E
330
7B
100
AcDbEntity
  8
_U+30EC_U+30A4_U+30E4_U+30FC 1
 62
   179
420
  2234388
370
    25
  0
POLYLINE
  5
7F
330
1F
100
AcDbEntity
  8
_U+30EC_U+30A4_U+30E4_U+30FC 1
 62
   179
420
  2234388
370
    25
100
AcDb2dPolyline
 66
     1
 10
0.0
 20
0.0
 30
0.0
  0
VERTEX
  5
80
330
7F
100
AcDbEntity
  8
_U+30EC_U+30A4_U+30E4_U+30FC 1
 62
   179
420
  2234388
370
    25
100
AcDbVertex
100
AcDb2dVertex
 10
72.22609760180319
 20
-124.7799694132496
 30
0.0
  0
VERTEX
  5
81
330
7F
100
AcDbEntity
  8
_U+30EC_U+30A4_U+30E4_U+30FC 1
 62
   179
420
  2234388
370
    25
100
AcDbVertex
100
AcDb2dVertex
 10
72.22609760180319
 20
-119.2795288590691
 30
0.0
  0
SEQEND
  5
82
330
7F
100
AcDbEntity
  8
_U+30EC_U+30A4_U+30E4_U+30FC 1
 62
   179
420
  2234388
370
    25
  0
SPLINE
  5
83
330
1F
100
AcDbEntity
  8
_U+30EC_U+30A4_U+30E4_U+30FC 1
 62
   179
420
  2234388
370
     9
100
AcDbSpline
210
0.0
220
0.0
230
1.0
 70
    11
 71
     3
 72
    17
 73
    13
 74
     0
 42
0.0000000001
 43
0.0000000001
 12
1.0
 22
0.0
 32
0.0
 13
1.0
 23
0.0
 33
0.0
 40
0.0
 40
0.0
 40
0.0
 40
0.0
 40
1.0
 40
1.0
 40
1.0
 40
2.0
 40
2.0
 40
2.0
 40
3.0
 40
3.0
 40
3.0
 40
4.0
 40
4.0
 40
4.0
 40
4.0
 10
115.2294959491395
 20
-138.1796688543438
 30
0.0
 10
115.2846027489564
 20
-138.1796688543438
 30
0.0
 10
115.3294055267231
 20
-138.2244716321105
 30
0.0
 10
115.3294055267231
 20
-138.2795755209854
 30
0.0
 10
115.3294055267231
 20
-138.3353849654159
 30
0.0
 10
115.2846027489564
 20
-138.3794821876271
 30
0.0
 10
115.2294959491395
 20
-138.3794821876271
 30
0.0
 10
115.1743567838796
 20
-138.3794821876271
 30
0.0
 10
115.1292365072529
 20
-138.3353849654159
 30
0.0
 10
115.1292365072529
 20
-138.2795755209854
 30
0.0
 10
115.1292365072529
 20
-138.2244716321105
 30
0.0
 10
115.1743567838796
 20
-138.1796688543438
 30
0.0
 10
115.2294959491395
 20
-138.1796688543438
 30
0.0
  0
SPLINE
  5
84
330
1F
100
AcDbEntity
  8
_U+30EC_U+30A4_U+30E4_U+30FC 1
 62
   179
420
  2234388
370
     9
100
AcDbSpline
210
0.0
220
0.0
230
1.0
 70
    11
 71
     3
 72
    17
 73
    13
 74
     0
 42
0.0000000001
 43
0.0000000001
 12
1.0
 22
0.0
 32
0.0
 13
1.0
 23
0.0
 33
0.0
 40
0.0
 40
0.0
 40
0.0
 40
0.0
 40
1.0
 40
1.0
 40
1.0
 40
2.0
 40
2.0
 40
2.0
 40
3.0
 40
3.0
 40
3.0
 40
4.0
 40
4.0
 40
4.0
 40
4.0
 10
115.2294959491395
 20
-141.1796557980381
 30
0.0
 10
115.2846027489564
 20
-141.1796557980381
 30
0.0
 10
115.3294055267231
 20
-141.2244585758049
 30
0.0
 10
115.3294055267231
 20
-141.2795624646804
 30
0.0
 10
115.3294055267231
 20
-141.3353719091109
 30
0.0
 10
115.2846027489564
 20
-141.380174686877
 30
0.0
 10
115.2294959491395
 20
-141.380174686877
 30
0.0
 10
115.1743567838796
 20
-141.380174686877
 30
0.0
 10
115.1292365072529
 20
-141.3353719091109
 30
0.0
 10
115.1292365072529
 20
-141.2795624646804
 30
0.0
 10
115.1292365072529
 20
-141.2244585758049
 30
0.0
 10
115.1743567838796
 20
-141.1796557980381
 30
0.0
 10
115.2294959491395
 20
-141.1796557980381
 30
0.0
  0
SPLINE
  5
85
330
1F
100
AcDbEntity
  8
_U+30EC_U+30A4_U+30E4_U+30FC 1
 62
   179
420
  2234388
370
     9
100
AcDbSpline
210
0.0
220
0.0
230
1.0
 70
    11
 71
     3
 72
    17
 73
    13
 74
     0
 42
0.0000000001
 43
0.0000000001
 12
1.0
 22
0.0
 32
0.0
 13
1.0
 23
0.0
 33
0.0
 40
0.0
 40
0.0
 40
0.0
 40
0.0
 40
1.0
 40
1.0
 40
1.0
 40
2.0
 40
2.0
 40
2.0
 40
3.0
 40
3.0
 40
3.0
 40
4.0
 40
4.0
 40
4.0
 40
4.0
 10
115.2294959491395
 20
-125.6798349685802
 30
0.0
 10
115.2846027489564
 20
-125.6798349685802
 30
0.0
 10
115.3294055267231
 20
-125.7246377463466
 30
0.0
 10
115.3294055267231
 20
-125.7797416352218
 30
0.0
 10
115.3294055267231
 20
-125.8348808018745
 30
0.0
 10
115.2846027489564
 20
-125.8796483018634
 30
0.0
 10
115.2294959491395
 20
-125.8796483018634
 30
0.0
 10
115.1743567838796
 20
-125.8796483018634
 30
0.0
 10
115.1292365072529
 20
-125.8348808018745
 30
0.0
 10
115.1292365072529
 20
-125.7797416352218
 30
0.0
 10
115.1292365072529
 20
-125.7246377463466
 30
0.0
 10
115.1743567838796
 20
-125.6798349685802
 30
0.0
 10
115.2294959491395
 20
-125.6798349685802
 30
0.0
  0
SPLINE
  5
86
330
1F
100
AcDbEntity
  8
_U+30EC_U+30A4_U+30E4_U+30FC 1
 62
   179
420
  2234388
370
     9
100
AcDbSpline
210
0.0
220
0.0
230
1.0
 70
    11
 71
     3
 72
    17
 73
    13
 74
     0
 42
0.0000000001
 43
0.0000000001
 12
1.0
 22
0.0
 32
0.0
 13
1.0
 23
0.0
 33
0.0
 40
0.0
 40
0.0
 40
0.0
 40
0.0
 40
1.0
 40
1.0
 40
1.0
 40
2.0
 40
2.0
 40
2.0
 40
3.0
 40
3.0
 40
3.0
 40
4.0
 40
4.0
 40
4.0
 40
4.0
 10
115.2294959491395
 20
-124.6793924688303
 30
0.0
 10
115.2846027489564
 20
-124.6793924688303
 30
0.0
 10
115.3294055267231
 20
-124.7241599688191
 30
0.0
 10
115.3294055267231
 20
-124.7799694132496
 30
0.0
 10
115.3294055267231
 20
-124.8351085799023
 30
0.0
 10
115.2846027489564
 20
-124.8798760798912
 30
0.0
 10
115.2294959491395
 20
-124.8798760798912
 30
0.0
 10
115.1743567838796
 20
-124.8798760798912
 30
0.0
 10
115.1292365072529
 20
-124.8351085799023
 30
0.0
 10
115.1292365072529
 20
-124.7799694132496
 30
0.0
 10
115.1292365072529
 20
-124.7241599688191
 30
0.0
 10
115.1743567838796
 20
-124.6793924688303
 30
0.0
 10
115.2294959491395
 20
-124.6793924688303
 30
0.0
  0
SPLINE
  5
87
330
1F
100
AcDbEntity
  8
_U+30EC_U+30A4_U+30E4_U+30FC 1
 62
   179
420
  2234388
370
     9
100
AcDbSpline
210
0.0
220
0.0
230
1.0
 70
    11
 71
     3
 72
    17
 73
    13
 74
     0
 42
0.0000000001
 43
0.0000000001
 12
1.0
 22
0.0
 32
0.0
 13
1.0
 23
0.0
 33
0.0
 40
0.0
 40
0.0
 40
0.0
 40
0.0
 40
1.0
 40
1.0
 40
1.0
 40
2.0
 40
2.0
 40
2.0
 40
3.0
 40
3.0
 40
3.0
 40
4.0
 40
4.0
 40
4.0
 40
4.0
 10
111.2283638610817
 20
-114.1801260825662
 30
0.0
 10
111.2841704942376
 20
-114.1801260825662
 30
0.0
 10
111.3289379930955
 20
-114.2248935825547
 30
0.0
 10
111.3289379930955
 20
-114.2800327492078
 30
0.0
 10
111.3289379930955
 20
-114.3351366380827
 30
0.0
 10
111.2841704942376
 20
-114.3799394158494
 30
0.0
 10
111.2283638610817
 20
-114.3799394158494
 30
0.0
 10
111.1728691081883
 20
-114.3799394158494
 30
0.0
 10
111.1281016093304
 20
-114.3351366380827
 30
0.0
 10
111.1281016093304
 20
-114.2800327492078
 30
0.0
 10
111.1281016093304
 20
-114.2248935825547
 30
0.0
 10
111.1728691081883
 20
-114.1801260825662
 30
0.0
 10
111.2283638610817
 20
-114.1801260825662
 30
0.0
  0
SPLINE
  5
88
330
1F
100
AcDbEntity
  8
_U+30EC_U+30A4_U+30E4_U+30FC 1
 62
   179
420
  2234388
370
     9
100
AcDbSpline
210
0.0
220
0.0
230
1.0
 70
    11
 71
     3
 72
    17
 73
    13
 74
     0
 42
0.0000000001
 43
0.0000000001
 12
1.0
 22
0.0
 32
0.0
 13
1.0
 23
0.0
 33
0.0
 40
0.0
 40
0.0
 40
0.0
 40
0.0
 40
1.0
 40
1.0
 40
1.0
 40
2.0
 40
2.0
 40
2.0
 40
3.0
 40
3.0
 40
3.0
 40
4.0
 40
4.0
 40
4.0
 40
4.0
 10
71.22561984954972
 20
-114.1801260825662
 30
0.0
 10
71.28075901480968
 20
-114.1801260825662
 30
0.0
 10
71.32552651366755
 20
-114.2248935825547
 30
0.0
 10
71.32552651366755
 20
-114.2800327492078
 30
0.0
 10
71.32552651366755
 20
-114.3351366380827
 30
0.0
 10
71.28075901480968
 20
-114.3799394158494
 30
0.0
 10
71.22561984954972
 20
-114.3799394158494
 30
0.0
 10
71.17051596206664
 20
-114.3799394158494
 30
0.0
 10
71.12571318543188
 20
-114.3351366380827
 30
0.0
 10
71.12571318543188
 20
-114.2800327492078
 30
0.0
 10
71.12571318543188
 20
-114.2248935825547
 30
0.0
 10
71.17051596206664
 20
-114.1801260825662
 30
0.0
 10
71.22561984954972
 20
-114.1801260825662
 30
0.0
  0
SPLINE
  5
89
330
1F
100
AcDbEntity
  8
_U+30EC_U+30A4_U+30E4_U+30FC 1
 62
   179
420
  2234388
370
     9
100
AcDbSpline
210
0.0
220
0.0
230
1.0
 70
    11
 71
     3
 72
    17
 73
    13
 74
     0
 42
0.0000000001
 43
0.0000000001
 12
1.0
 22
0.0
 32
0.0
 13
1.0
 23
0.0
 33
0.0
 40
0.0
 40
0.0
 40
0.0
 40
0.0
 40
1.0
 40
1.0
 40
1.0
 40
2.0
 40
2.0
 40
2.0
 40
3.0
 40
3.0
 40
3.0
 40
4.0
 40
4.0
 40
4.0
 40
4.0
 10
67.2258607849254
 20
-118.1798499704549
 30
0.0
 10
67.28099995018536
 20
-118.1798499704549
 30
0.0
 10
67.32576744904324
 20
-118.2246527482216
 30
0.0
 10
67.32576744904324
 20
-118.2797919148744
 30
0.0
 10
67.32576744904324
 20
-118.3348958037496
 30
0.0
 10
67.28099995018536
 20
-118.3796985815163
 30
0.0
 10
67.2258607849254
 20
-118.3796985815163
 30
0.0
 10
67.17075689744233
 20
-118.3796985815163
 30
0.0
 10
67.12595412080758
 20
-118.3348958037496
 30
0.0
 10
67.12595412080758
 20
-118.2797919148744
 30
0.0
 10
67.12595412080758
 20
-118.2246527482216
 30
0.0
 10
67.17075689744233
 20
-118.1798499704549
 30
0.0
 10
67.2258607849254
 20
-118.1798499704549
 30
0.0
  0
SPLINE
  5
8A
330
1F
100
AcDbEntity
  8
_U+30EC_U+30A4_U+30E4_U+30FC 1
 62
   179
420
  2234388
370
     9
100
AcDbSpline
210
0.0
220
0.0
230
1.0
 70
    11
 71
     3
 72
    17
 73
    13
 74
     0
 42
0.0000000001
 43
0.0000000001
 12
1.0
 22
0.0
 32
0.0
 13
1.0
 23
0.0
 33
0.0
 40
0.0
 40
0.0
 40
0.0
 40
0.0
 40
1.0
 40
1.0
 40
1.0
 40
2.0
 40
2.0
 40
2.0
 40
3.0
 40
3.0
 40
3.0
 40
4.0
 40
4.0
 40
4.0
 40
4.0
 10
67.2258607849254
 20
-141.1800085758159
 30
0.0
 10
67.28099995018536
 20
-141.1800085758159
 30
0.0
 10
67.32576744904324
 20
-141.2248113535826
 30
0.0
 10
67.32576744904324
 20
-141.2799152424575
 30
0.0
 10
67.32576744904324
 20
-141.3350544091106
 30
0.0
 10
67.28099995018536
 20
-141.3798219090992
 30
0.0
 10
67.2258607849254
 20
-141.3798219090992
 30
0.0
 10
67.17075689744233
 20
-141.3798219090992
 30
0.0
 10
67.12595412080758
 20
-141.3350544091106
 30
0.0
 10
67.12595412080758
 20
-141.2799152424575
 30
0.0
 10
67.12595412080758
 20
-141.2248113535826
 30
0.0
 10
67.17075689744233
 20
-141.1800085758159
 30
0.0
 10
67.2258607849254
 20
-141.1800085758159
 30
0.0
  0
SPLINE
  5
8B
330
1F
100
AcDbEntity
  8
_U+30EC_U+30A4_U+30E4_U+30FC 1
 62
   179
420
  2234388
370
     9
100
AcDbSpline
210
0.0
220
0.0
230
1.0
 70
    11
 71
     3
 72
    17
 73
    13
 74
     0
 42
0.0000000001
 43
0.0000000001
 12
1.0
 22
0.0
 32
0.0
 13
1.0
 23
0.0
 33
0.0
 40
0.0
 40
0.0
 40
0.0
 40
0.0
 40
1.0
 40
1.0
 40
1.0
 40
2.0
 40
2.0
 40
2.0
 40
3.0
 40
3.0
 40
3.0
 40
4.0
 40
4.0
 40
4.0
 40
4.0
 10
71.22561984954972
 20
-145.1797677414828
 30
0.0
 10
71.28075901480968
 20
-145.1797677414828
 30
0.0
 10
71.32552651366755
 20
-145.2245705192495
 30
0.0
 10
71.32552651366755
 20
-145.2796744081244
 30
0.0
 10
71.32552651366755
 20
-145.3354838525549
 30
0.0
 10
71.28075901480968
 20
-145.3802866303216
 30
0.0
 10
71.22561984954972
 20
-145.3802866303216
 30
0.0
 10
71.17051596206664
 20
-145.3802866303216
 30
0.0
 10
71.12571318543188
 20
-145.3354838525549
 30
0.0
 10
71.12571318543188
 20
-145.2796744081244
 30
0.0
 10
71.12571318543188
 20
-145.2245705192495
 30
0.0
 10
71.17051596206664
 20
-145.1797677414828
 30
0.0
 10
71.22561984954972
 20
-145.1797677414828
 30
0.0
  0
SPLINE
  5
8C
330
1F
100
AcDbEntity
  8
_U+30EC_U+30A4_U+30E4_U+30FC 1
 62
   179
420
  2234388
370
     9
100
AcDbSpline
210
0.0
220
0.0
230
1.0
 70
    11
 71
     3
 72
    17
 73
    13
 74
     0
 42
0.0000000001
 43
0.0000000001
 12
1.0
 22
0.0
 32
0.0
 13
1.0
 23
0.0
 33
0.0
 40
0.0
 40
0.0
 40
0.0
 40
0.0
 40
1.0
 40
1.0
 40
1.0
 40
2.0
 40
2.0
 40
2.0
 40
3.0
 40
3.0
 40
3.0
 40
4.0
 40
4.0
 40
4.0
 40
4.0
 10
76.26166360995843
 20
-145.1797677414828
 30
0.0
 10
76.31680277521838
 20
-145.1797677414828
 30
0.0
 10
76.3615722031317
 20
-145.2245705192495
 30
0.0
 10
76.3615722031317
 20
-145.2796744081244
 30
0.0
 10
76.3615722031317
 20
-145.3354838525549
 30
0.0
 10
76.31680277521838
 20
-145.3802866303216
 30
0.0
 10
76.26166360995843
 20
-145.3802866303216
 30
0.0
 10
76.2058541669378
 20
-145.3802866303216
 30
0.0
 10
76.1617569458406
 20
-145.3354838525549
 30
0.0
 10
76.1617569458406
 20
-145.2796744081244
 30
0.0
 10
76.1617569458406
 20
-145.2245705192495
 30
0.0
 10
76.2058541669378
 20
-145.1797677414828
 30
0.0
 10
76.26166360995843
 20
-145.1797677414828
 30
0.0
  0
POLYLINE
  5
8D
330
1F
100
AcDbEntity
  8
_U+30EC_U+30A4_U+30E4_U+30FC 1
 62
   179
420
  2234388
370
     9
100
AcDb2dPolyline
 66
     1
 10
0.0
 20
0.0
 30
0.0
  0
VERTEX
  5
8E
330
8D
100
AcDbEntity
  8
_U+30EC_U+30A4_U+30E4_U+30FC 1
 62
   179
420
  2234388
370
     9
100
AcDbVertex
100
AcDb2dVertex
 10
115.2294959491395
 20
-124.7799694132496
 30
0.0
  0
VERTEX
  5
8F
330
8D
100
AcDbEntity
  8
_U+30EC_U+30A4_U+30E4_U+30FC 1
 62
   179
420
  2234388
370
     9
100
AcDbVertex
100
AcDb2dVertex
 10
115.2294959491395
 20
-121.0096569141921
 30
0.0
  0
SEQEND
  5
90
330
8D
100
AcDbEntity
  8
_U+30EC_U+30A4_U+30E4_U+30FC 1
 62
   179
420
  2234388
370
     9
  0
POLYLINE
  5
91
330
1F
100
AcDbEntity
  8
_U+30EC_U+30A4_U+30E4_U+30FC 1
 62
   179
420
  2234388
370
     9
100
AcDb2dPolyline
 66
     1
 10
0.0
 20
0.0
 30
0.0
  0
VERTEX
  5
92
330
91
100
AcDbEntity
  8
_U+30EC_U+30A4_U+30E4_U+30FC 1
 62
   179
420
  2234388
370
     9
100
AcDbVertex
100
AcDb2dVertex
 10
115.2294959491395
 20
-124.7799694132496
 30
0.0
  0
VERTEX
  5
93
330
91
100
AcDbEntity
  8
_U+30EC_U+30A4_U+30E4_U+30FC 1
 62
   179
420
  2234388
370
     9
100
AcDbVertex
100
AcDb2dVertex
 10
115.2294959491395
 20
-125.7797416352218
 30
0.0
  0
SEQEND
  5
94
330
91
100
AcDbEntity
  8
_U+30EC_U+30A4_U+30E4_U+30FC 1
 62
   179
420
  2234388
370
     9
  0
POLYLINE
  5
95
330
1F
100
AcDbEntity
  8
_U+30EC_U+30A4_U+30E4_U+30FC 1
 62
   179
420
  2234388
370
     9
100
AcDb2dPolyline
 66
     1
 10
0.0
 20
0.0
 30
0.0
  0
VERTEX
  5
96
330
95
100
AcDbEntity
  8
_U+30EC_U+30A4_U+30E4_U+30FC 1
 62
   179
420
  2234388
370
     9
100
AcDbVertex
100
AcDb2dVertex
 10
113.7691018197306
 20
-124.7799694132496
 30
0.0
  0
VERTEX
  5
97
330
95
100
AcDbEntity
  8
_U+30EC_U+30A4_U+30E4_U+30FC 1
 62
   179
420
  2234388
370
     9
100
AcDbVertex
100
AcDb2dVertex
 10
116.2292681458554
 20
-124.7799694132496
 30
0.0
  0
SEQEND
  5
98
330
95
100
AcDbEntity
  8
_U+30EC_U+30A4_U+30E4_U+30FC 1
 62
   179
420
  2234388
370
     9
  0
POLYLINE
  5
99
330
1F
100
AcDbEntity
  8
_U+30EC_U+30A4_U+30E4_U+30FC 1
 62
   179
420
  2234388
370
     9
100
AcDb2dPolyline
 66
     1
 10
0.0
 20
0.0
 30
0.0
  0
VERTEX
  5
9A
330
99
100
AcDbEntity
  8
_U+30EC_U+30A4_U+30E4_U+30FC 1
 62
   179
420
  2234388
370
     9
100
AcDbVertex
100
AcDb2dVertex
 10
113.7691018197306
 20
-125.7797416352218
 30
0.0
  0
VERTEX
  5
9B
330
99
100
AcDbEntity
  8
_U+30EC_U+30A4_U+30E4_U+30FC 1
 62
   179
420
  2234388
370
     9
100
AcDbVertex
100
AcDb2dVertex
 10
116.2292681458554
 20
-125.7797416352218
 30
0.0
  0
SEQEND
  5
9C
330
99
100
AcDbEntity
  8
_U+30EC_U+30A4_U+30E4_U+30FC 1
 62
   179
420
  2234388
370
     9
  0
POLYLINE
  5
9D
330
1F
100
AcDbEntity
  8
_U+30EC_U+30A4_U+30E4_U+30FC 1
 62
   179
420
  2234388
370
     9
100
AcDb2dPolyline
 66
     1
 10
0.0
 20
0.0
 30
0.0
  0
VERTEX
  5
9E
330
9D
100
AcDbEntity
  8
_U+30EC_U+30A4_U+30E4_U+30FC 1
 62
   179
420
  2234388
370
     9
100
AcDbVertex
100
AcDb2dVertex
 10
115.2294959491395
 20
-141.2795624646804
 30
0.0
  0
VERTEX
  5
9F
330
9D
100
AcDbEntity
  8
_U+30EC_U+30A4_U+30E4_U+30FC 1
 62
   179
420
  2234388
370
     9
100
AcDbVertex
100
AcDb2dVertex
 10
115.2294959491395
 20
-138.2795755209854
 30
0.0
  0
SEQEND
  5
A0
330
9D
100
AcDbEntity
  8
_U+30EC_U+30A4_U+30E4_U+30FC 1
 62
   179
420
  2234388
370
     9
  0
POLYLINE
  5
A1
330
1F
100
AcDbEntity
  8
_U+30EC_U+30A4_U+30E4_U+30FC 1
 62
   179
420
  2234388
370
     9
100
AcDb2dPolyline
 66
     1
 10
0.0
 20
0.0
 30
0.0
  0
VERTEX
  5
A2
330
A1
100
AcDbEntity
  8
_U+30EC_U+30A4_U+30E4_U+30FC 1
 62
   179
420
  2234388
370
     9
100
AcDbVertex
100
AcDb2dVertex
 10
83.76644619627325
 20
-141.2799152424575
 30
0.0
  0
VERTEX
  5
A3
330
A1
100
AcDbEntity
  8
_U+30EC_U+30A4_U+30E4_U+30FC 1
 62
   179
420
  2234388
370
     9
100
AcDbVertex
100
AcDb2dVertex
 10
116.2292681458554
 20
-141.2795624646804
 30
0.0
  0
SEQEND
  5
A4
330
A1
100
AcDbEntity
  8
_U+30EC_U+30A4_U+30E4_U+30FC 1
 62
   179
420
  2234388
370
     9
  0
POLYLINE
  5
A5
330
1F
100
AcDbEntity
  8
_U+30EC_U+30A4_U+30E4_U+30FC 1
 62
   179
420
  2234388
370
     9
100
AcDb2dPolyline
 66
     1
 10
0.0
 20
0.0
 30
0.0
  0
VERTEX
  5
A6
330
A5
100
AcDbEntity
  8
_U+30EC_U+30A4_U+30E4_U+30FC 1
 62
   179
420
  2234388
370
     9
100
AcDbVertex
100
AcDb2dVertex
 10
76.22582138865062
 20
-145.2796744081244
 30
0.0
  0
VERTEX
  5
A7
330
A5
100
AcDbEntity
  8
_U+30EC_U+30A4_U+30E4_U+30FC 1
 62
   179
420
  2234388
370
     9
100
AcDbVertex
100
AcDb2dVertex
 10
71.22561984954972
 20
-145.2796744081244
 30
0.0
  0
SEQEND
  5
A8
330
A5
100
AcDbEntity
  8
_U+30EC_U+30A4_U+30E4_U+30FC 1
 62
   179
420
  2234388
370
     9
  0
POLYLINE
  5
A9
330
1F
100
AcDbEntity
  8
_U+30EC_U+30A4_U+30E4_U+30FC 1
 62
   179
420
  2234388
370
     9
100
AcDb2dPolyline
 66
     1
 10
0.0
 20
0.0
 30
0.0
  0
VERTEX
  5
AA
330
A9
100
AcDbEntity
  8
_U+30EC_U+30A4_U+30E4_U+30FC 1
 62
   179
420
  2234388
370
     9
100
AcDbVertex
100
AcDb2dVertex
 10
76.26166360995843
 20
-143.8203385751563
 30
0.0
  0
VERTEX
  5
AB
330
A9
100
AcDbEntity
  8
_U+30EC_U+30A4_U+30E4_U+30FC 1
 62
   179
420
  2234388
370
     9
100
AcDbVertex
100
AcDb2dVertex
 10
76.26166360995843
 20
-146.2801169078743
 30
0.0
  0
SEQEND
  5
AC
330
A9
100
AcDbEntity
  8
_U+30EC_U+30A4_U+30E4_U+30FC 1
 62
   179
420
  2234388
370
     9
  0
POLYLINE
  5
AD
330
1F
100
AcDbEntity
  8
_U+30EC_U+30A4_U+30E4_U+30FC 1
 62
   179
420
  2234388
370
     9
100
AcDb2dPolyline
 66
     1
 10
0.0
 20
0.0
 30
0.0
  0
VERTEX
  5
AE
330
AD
100
AcDbEntity
  8
_U+30EC_U+30A4_U+30E4_U+30FC 1
 62
   179
420
  2234388
370
     9
100
AcDbVertex
100
AcDb2dVertex
 10
71.22561984954972
 20
-143.8203385751563
 30
0.0
  0
VERTEX
  5
AF
330
AD
100
AcDbEntity
  8
_U+30EC_U+30A4_U+30E4_U+30FC 1
 62
   179
420
  2234388
370
     9
100
AcDbVertex
100
AcDb2dVertex
 10
71.22561984954972
 20
-146.2801169078743
 30
0.0
  0
SEQEND
  5
B0
330
AD
100
AcDbEntity
  8
_U+30EC_U+30A4_U+30E4_U+30FC 1
 62
   179
420
  2234388
370
     9
  0
POLYLINE
  5
B1
330
1F
100
AcDbEntity
  8
_U+30EC_U+30A4_U+30E4_U+30FC 1
 62
   179
420
  2234388
370
     9
100
AcDb2dPolyline
 66
     1
 10
0.0
 20
0.0
 30
0.0
  0
VERTEX
  5
B2
330
B1
100
AcDbEntity
  8
_U+30EC_U+30A4_U+30E4_U+30FC 1
 62
   179
420
  2234388
370
     9
100
AcDbVertex
100
AcDb2dVertex
 10
71.22561984954972
 20
-114.2800327492078
 30
0.0
  0
VERTEX
  5
B3
330
B1
100
AcDbEntity
  8
_U+30EC_U+30A4_U+30E4_U+30FC 1
 62
   179
420
  2234388
370
     9
100
AcDbVertex
100
AcDb2dVertex
 10
111.2283638610817
 20
-114.2800327492078
 30
0.0
  0
SEQEND
  5
B4
330
B1
100
AcDbEntity
  8
_U+30EC_U+30A4_U+30E4_U+30FC 1
 62
   179
420
  2234388
370
     9
  0
POLYLINE
  5
B5
330
1F
100
AcDbEntity
  8
_U+30EC_U+30A4_U+30E4_U+30FC 1
 62
   179
420
  2234388
370
     9
100
AcDb2dPolyline
 66
     1
 10
0.0
 20
0.0
 30
0.0
  0
VERTEX
  5
B6
330
B5
100
AcDbEntity
  8
_U+30EC_U+30A4_U+30E4_U+30FC 1
 62
   179
420
  2234388
370
     9
100
AcDbVertex
100
AcDb2dVertex
 10
71.22561984954972
 20
-115.740038859954
 30
0.0
  0
VERTEX
  5
B7
330
B5
100
AcDbEntity
  8
_U+30EC_U+30A4_U+30E4_U+30FC 1
 62
   179
420
  2234388
370
     9
100
AcDbVertex
100
AcDb2dVertex
 10
71.22561984954972
 20
-113.2795549716801
 30
0.0
  0
SEQEND
  5
B8
330
B5
100
AcDbEntity
  8
_U+30EC_U+30A4_U+30E4_U+30FC 1
 62
   179
420
  2234388
370
     9
  0
POLYLINE
  5
B9
330
1F
100
AcDbEntity
  8
_U+30EC_U+30A4_U+30E4_U+30FC 1
 62
   179
420
  2234388
370
     9
100
AcDb2dPolyline
 66
     1
 10
0.0
 20
0.0
 30
0.0
  0
VERTEX
  5
BA
330
B9
100
AcDbEntity
  8
_U+30EC_U+30A4_U+30E4_U+30FC 1
 62
   179
420
  2234388
370
     9
100
AcDbVertex
100
AcDb2dVertex
 10
111.2283638610817
 20
-122.239581358329
 30
0.0
  0
VERTEX
  5
BB
330
B9
100
AcDbEntity
  8
_U+30EC_U+30A4_U+30E4_U+30FC 1
 62
   179
420
  2234388
370
     9
100
AcDbVertex
100
AcDb2dVertex
 10
111.2283638610817
 20
-113.2795549716801
 30
0.0
  0
SEQEND
  5
BC
330
B9
100
AcDbEntity
  8
_U+30EC_U+30A4_U+30E4_U+30FC 1
 62
   179
420
  2234388
370
     9
  0
POLYLINE
  5
BD
330
1F
100
AcDbEntity
  8
_U+30EC_U+30A4_U+30E4_U+30FC 1
 62
   179
420
  2234388
370
     9
100
AcDb2dPolyline
 66
     1
 10
0.0
 20
0.0
 30
0.0
  0
VERTEX
  5
BE
330
BD
100
AcDbEntity
  8
_U+30EC_U+30A4_U+30E4_U+30FC 1
 62
   179
420
  2234388
370
     9
100
AcDbVertex
100
AcDb2dVertex
 10
115.2294959491395
 20
-138.2795755209854
 30
0.0
  0
VERTEX
  5
BF
330
BD
100
AcDbEntity
  8
_U+30EC_U+30A4_U+30E4_U+30FC 1
 62
   179
420
  2234388
370
     9
100
AcDbVertex
100
AcDb2dVertex
 10
115.2294959491395
 20
-125.7797416352218
 30
0.0
  0
SEQEND
  5
C0
330
BD
100
AcDbEntity
  8
_U+30EC_U+30A4_U+30E4_U+30FC 1
 62
   179
420
  2234388
370
     9
  0
POLYLINE
  5
C1
330
1F
100
AcDbEntity
  8
_U+30EC_U+30A4_U+30E4_U+30FC 1
 62
   179
420
  2234388
370
     9
100
AcDb2dPolyline
 66
     1
 10
0.0
 20
0.0
 30
0.0
  0
VERTEX
  5
C2
330
C1
100
AcDbEntity
  8
_U+30EC_U+30A4_U+30E4_U+30FC 1
 62
   179
420
  2234388
370
     9
100
AcDbVertex
100
AcDb2dVertex
 10
83.76644619627325
 20
-138.2799282987632
 30
0.0
  0
VERTEX
  5
C3
330
C1
100
AcDbEntity
  8
_U+30EC_U+30A4_U+30E4_U+30FC 1
 62
   179
420
  2234388
370
     9
100
AcDbVertex
100
AcDb2dVertex
 10
116.2292681458554
 20
-138.2795755209854
 30
0.0
  0
SEQEND
  5
C4
330
C1
100
AcDbEntity
  8
_U+30EC_U+30A4_U+30E4_U+30FC 1
 62
   179
420
  2234388
370
     9
  0
POLYLINE
  5
C5
330
1F
100
AcDbEntity
  8
_U+30EC_U+30A4_U+30E4_U+30FC 1
 62
   179
420
  2234388
370
     9
100
AcDb2dPolyline
 66
     1
 10
0.0
 20
0.0
 30
0.0
  0
VERTEX
  5
C6
330
C5
100
AcDbEntity
  8
_U+30EC_U+30A4_U+30E4_U+30FC 1
 62
   179
420
  2234388
370
     9
100
AcDbVertex
100
AcDb2dVertex
 10
113.7691018197306
 20
-125.7797416352218
 30
0.0
  0
VERTEX
  5
C7
330
C5
100
AcDbEntity
  8
_U+30EC_U+30A4_U+30E4_U+30FC 1
 62
   179
420
  2234388
370
     9
100
AcDbVertex
100
AcDb2dVertex
 10
116.2292681458554
 20
-125.7797416352218
 30
0.0
  0
SEQEND
  5
C8
330
C5
100
AcDbEntity
  8
_U+30EC_U+30A4_U+30E4_U+30FC 1
 62
   179
420
  2234388
370
     9
  0
POLYLINE
  5
C9
330
1F
100
AcDbEntity
  8
_U+30EC_U+30A4_U+30E4_U+30FC 1
 62
   179
420
  2234388
370
     9
100
AcDb2dPolyline
 66
     1
 10
0.0
 20
0.0
 30
0.0
  0
VERTEX
  5
CA
330
C9
100
AcDbEntity
  8
_U+30EC_U+30A4_U+30E4_U+30FC 1
 62
   179
420
  2234388
370
     9
100
AcDbVertex
100
AcDb2dVertex
 10
67.2258607849254
 20
-141.2799152424575
 30
0.0
  0
VERTEX
  5
CB
330
C9
100
AcDbEntity
  8
_U+30EC_U+30A4_U+30E4_U+30FC 1
 62
   179
420
  2234388
370
     9
100
AcDbVertex
100
AcDb2dVertex
 10
67.2258607849254
 20
-118.2797919148744
 30
0.0
  0
SEQEND
  5
CC
330
C9
100
AcDbEntity
  8
_U+30EC_U+30A4_U+30E4_U+30FC 1
 62
   179
420
  2234388
370
     9
  0
POLYLINE
  5
CD
330
1F
100
AcDbEntity
  8
_U+30EC_U+30A4_U+30E4_U+30FC 1
 62
   179
420
  2234388
370
     9
100
AcDb2dPolyline
 66
     1
 10
0.0
 20
0.0
 30
0.0
  0
VERTEX
  5
CE
330
CD
100
AcDbEntity
  8
_U+30EC_U+30A4_U+30E4_U+30FC 1
 62
   179
420
  2234388
370
     9
100
AcDbVertex
100
AcDb2dVertex
 10
68.68590213656553
 20
-141.2799152424575
 30
0.0
  0
VERTEX
  5
CF
330
CD
100
AcDbEntity
  8
_U+30EC_U+30A4_U+30E4_U+30FC 1
 62
   179
420
  2234388
370
     9
100
AcDbVertex
100
AcDb2dVertex
 10
66.22608858820949
 20
-141.2799152424575
 30
0.0
  0
SEQEND
  5
D0
330
CD
100
AcDbEntity
  8
_U+30EC_U+30A4_U+30E4_U+30FC 1
 62
   179
420
  2234388
370
     9
  0
POLYLINE
  5
D1
330
1F
100
AcDbEntity
  8
_U+30EC_U+30A4_U+30E4_U+30FC 1
 62
   179
420
  2234388
370
     9
100
AcDb2dPolyline
 66
     1
 10
0.0
 20
0.0
 30
0.0
  0
VERTEX
  5
D2
330
D1
100
AcDbEntity
  8
_U+30EC_U+30A4_U+30E4_U+30FC 1
 62
   179
420
  2234388
370
     9
100
AcDbVertex
100
AcDb2dVertex
 10
68.68590213656553
 20
-118.2797919148744
 30
0.0
  0
VERTEX
  5
D3
330
D1
100
AcDbEntity
  8
_U+30EC_U+30A4_U+30E4_U+30FC 1
 62
   179
420
  2234388
370
     9
100
AcDbVertex
100
AcDb2dVertex
 10
66.22608858820949
 20
-118.2797919148744
 30
0.0
  0
SEQEND
  5
D4
330
D1
100
AcDbEntity
  8
_U+30EC_U+30A4_U+30E4_U+30FC 1
 62
   179
420
  2234388
370
     9
  0
POLYLINE
  5
D5
330
1F
100
AcDbEntity
  8
_U+30EC_U+30A4_U+30E4_U+30FC 1
 62
   179
420
  2234388
370
     9
100
AcDb2dPolyline
 66
     1
 10
0.0
 20
0.0
 30
0.0
  0
VERTEX
  5
D6
330
D5
100
AcDbEntity
  8
_U+30EC_U+30A4_U+30E4_U+30FC 1
 62
   179
420
  2234388
370
     9
100
AcDbVertex
100
AcDb2dVertex
 10
74.30004282667021
 20
-112.6711544162768
 30
0.0
  0
VERTEX
  5
D7
330
D5
100
AcDbEntity
  8
_U+30EC_U+30A4_U+30E4_U+30FC 1
 62
   179
420
  2234388
370
     9
100
AcDbVertex
100
AcDb2dVertex
 10
74.30004282667021
 20
-111.2600433055184
 30
0.0
  0
SEQEND
  5
D8
330
D5
100
AcDbEntity
  8
_U+30EC_U+30A4_U+30E4_U+30FC 1
 62
   179
420
  2234388
370
     9
  0
POLYLINE
  5
D9
330
1F
100
AcDbEntity
  8
_U+30EC_U+30A4_U+30E4_U+30FC 1
 62
   179
420
  2234388
370
     9
100
AcDb2dPolyline
 66
     1
 10
0.0
 20
0.0
 30
0.0
  0
VERTEX
  5
DA
330
D9
100
AcDbEntity
  8
_U+30EC_U+30A4_U+30E4_U+30FC 1
 62
   179
420
  2234388
370
     9
100
AcDbVertex
100
AcDb2dVertex
 10
71.30072623652248
 20
-112.6711544162768
 30
0.0
  0
VERTEX
  5
DB
330
D9
100
AcDbEntity
  8
_U+30EC_U+30A4_U+30E4_U+30FC 1
 62
   179
420
  2234388
370
     9
100
AcDbVertex
100
AcDb2dVertex
 10
71.30072623652248
 20
-111.2600433055184
 30
0.0
  0
SEQEND
  5
DC
330
D9
100
AcDbEntity
  8
_U+30EC_U+30A4_U+30E4_U+30FC 1
 62
   179
420
  2234388
370
     9
  0
POLYLINE
  5
DD
330
1F
100
AcDbEntity
  8
_U+30EC_U+30A4_U+30E4_U+30FC 1
 62
   179
420
  2234388
370
     9
100
AcDb2dPolyline
 66
     1
 10
0.0
 20
0.0
 30
0.0
  0
VERTEX
  5
DE
330
DD
100
AcDbEntity
  8
_U+30EC_U+30A4_U+30E4_U+30FC 1
 62
   179
420
  2234388
370
     9
100
AcDbVertex
100
AcDb2dVertex
 10
70.05016432398253
 20
-111.9655988608976
 30
0.0
  0
VERTEX
  5
DF
330
DD
100
AcDbEntity
  8
_U+30EC_U+30A4_U+30E4_U+30FC 1
 62
   179
420
  2234388
370
     9
100
AcDbVertex
100
AcDb2dVertex
 10
75.43069557560263
 20
-111.9655988608976
 30
0.0
  0
SEQEND
  5
E0
330
DD
100
AcDbEntity
  8
_U+30EC_U+30A4_U+30E4_U+30FC 1
 62
   179
420
  2234388
370
     9
  0
INSERT
  5
E2
330
1F
100
AcDbEntity
  8
_U+30EC_U+30A4_U+30E4_U+30FC 1
100
AcDbBlockReference
  2
block 2
 10
0.0
 20
0.0
 30
0.0
  0
INSERT
  5
E8
330
1F
100
AcDbEntity
  8
_U+30EC_U+30A4_U+30E4_U+30FC 1
100
AcDbBlockReference
  2
block 3
 10
0.0
 20
0.0
 30
0.0
  0
INSERT
  5
EE
330
1F
100
AcDbEntity
  8
_U+30EC_U+30A4_U+30E4_U+30FC 1
100
AcDbBlockReference
  2
block 4
 10
0.0
 20
0.0
 30
0.0
  0
INSERT
  5
F4
330
1F
100
AcDbEntity
  8
_U+30EC_U+30A4_U+30E4_U+30FC 1
100
AcDbBlockReference
  2
block 5
 10
0.0
 20
0.0
 30
0.0
  0
INSERT
  5
FA
330
1F
100
AcDbEntity
  8
_U+30EC_U+30A4_U+30E4_U+30FC 1
100
AcDbBlockReference
  2
block 6
 10
0.0
 20
0.0
 30
0.0
  0
INSERT
  5
116
330
1F
100
AcDbEntity
  8
_U+30EC_U+30A4_U+30E4_U+30FC 1
100
AcDbBlockReference
  2
block 7
 10
0.0
 20
0.0
 30
0.0
  0
INSERT
  5
128
330
1F
100
AcDbEntity
  8
_U+30EC_U+30A4_U+30E4_U+30FC 1
100
AcDbBlockReference
  2
block 8
 10
0.0
 20
0.0
 30
0.0
  0
ENDSEC
  0
SECTION
  2
OBJECTS
  0
DICTIONARY
  5
C
330
0
100
AcDbDictionary
281
     1
  3
ACAD_GROUP
350
D
  3
ACAD_LAYOUT
350
1A
  3
ACAD_MATERIAL
350
3B
  3
ACAD_MLEADERSTYLE
350
130
  3
ACAD_MLINESTYLE
350
17
  3
ACAD_PLOTSETTINGS
350
19
  3
ACAD_PLOTSTYLENAME
350
E
  3
ACAD_TABLESTYLE
350
12F
  3
ACAD_VISUALSTYLE
350
2A
  0
SUN
  5
3F
330
29
100
AcDbSun
 90
        1
290
     0
 63
     7
421
 16777215
 40
1.0
291
     1
 91
  2455826
 92
 54000000
292
     0
 70
     2
 71
   256
280
     1
  0
DICTIONARY
  5
D
102
{ACAD_REACTORS
330
C
102
}
330
C
100
AcDbDictionary
281
     1
  0
DICTIONARY
  5
1A
102
{ACAD_REACTORS
330
C
102
}
330
C
100
AcDbDictionary
281
     1
  3
Layout1
350
1E
  3
Layout2
350
26
  3
Model
350
22
  0
DICTIONARY
  5
3B
102
{ACAD_REACTORS
330
C
102
}
330
C
100
AcDbDictionary
281
     1
  3
ByBlock
350
3D
  3
ByLayer
350
3C
  3
Global
350
3E
  0
DICTIONARY
  5
130
102
{ACAD_REACTORS
330
C
102
}
330
C
100
AcDbDictionary
281
     1
  0
DICTIONARY
  5
17
102
{ACAD_REACTORS
330
C
102
}
330
C
100
AcDbDictionary
281
     1
  3
Standard
350
18
  0
DICTIONARY
  5
19
102
{ACAD_REACTORS
330
C
102
}
330
C
100
AcDbDictionary
281
     1
  0
ACDBDICTIONARYWDFLT
  5
E
102
{ACAD_REACTORS
330
C
102
}
330
C
100
AcDbDictionary
281
     1
  3
Normal
350
F
100
AcDbDictionaryWithDefault
340
F
  0
DICTIONARY
  5
12F
102
{ACAD_REACTORS
330
C
102
}
330
C
100
AcDbDictionary
281
     1
  0
DICTIONARY
  5
2A
102
{ACAD_REACTORS
330
C
102
}
330
C
100
AcDbDictionary
281
     1
  3
2dWireframe
350
2F
  3
3D Hidden
350
31
  3
3dWireframe
350
30
  3
Basic
350
32
  3
Brighten
350
36
  3
ColorChange
350
3A
  3
Conceptual
350
34
  3
Dim
350
35
  3
Facepattern
350
39
  3
Flat
350
2B
  3
FlatWithEdges
350
2C
  3
Gouraud
350
2D
  3
GouraudWithEdges
350
2E
  3
Linepattern
350
38
  3
Realistic
350
33
  3
Thicken
350
37
  0
LAYOUT
  5
1E
102
{ACAD_REACTORS
330
1A
102
}
330
1A
100
AcDbPlotSettings
  1

  2
none_device
  4

  6

 40
0.0
 41
0.0
 42
0.0
 43
0.0
 44
0.0
 45
0.0
 46
0.0
 47
0.0
 48
0.0
 49
0.0
140
0.0
141
0.0
142
1.0
143
1.0
 70
   688
 72
     0
 73
     0
 74
     5
  7

 75
    16
 76
     0
 77
     2
 78
   300
147
1.0
148
0.0
149
0.0
100
AcDbLayout
  1
Layout1
 70
     1
 71
     1
 10
0.0
 20
0.0
 11
12.0
 21
9.0
 12
0.0
 22
0.0
 32
0.0
 14
1.000000000000000E+20
 24
1.000000000000000E+20
 34
1.000000000000000E+20
 15
-1.000000000000000E+20
 25
-1.000000000000000E+20
 35
-1.000000000000000E+20
146
0.0
 13
0.0
 23
0.0
 33
0.0
 16
1.0
 26
0.0
 36
0.0
 17
0.0
 27
1.0
 37
0.0
 76
     0
330
1B
  0
LAYOUT
  5
26
102
{ACAD_REACTORS
330
1A
102
}
330
1A
100
AcDbPlotSettings
  1

  2
none_device
  4

  6

 40
0.0
 41
0.0
 42
0.0
 43
0.0
 44
0.0
 45
0.0
 46
0.0
 47
0.0
 48
0.0
 49
0.0
140
0.0
141
0.0
142
1.0
143
1.0
 70
   688
 72
     0
 73
     0
 74
     5
  7

 75
    16
 76
     0
 77
     2
 78
   300
147
1.0
148
0.0
149
0.0
100
AcDbLayout
  1
Layout2
 70
     1
 71
     2
 10
0.0
 20
0.0
 11
0.0
 21
0.0
 12
0.0
 22
0.0
 32
0.0
 14
0.0
 24
0.0
 34
0.0
 15
0.0
 25
0.0
 35
0.0
146
0.0
 13
0.0
 23
0.0
 33
0.0
 16
1.0
 26
0.0
 36
0.0
 17
0.0
 27
1.0
 37
0.0
 76
     0
330
23
  0
LAYOUT
  5
22
102
{ACAD_REACTORS
330
1A
102
}
330
1A
100
AcDbPlotSettings
  1

  2
none_device
  4

  6

 40
0.0
 41
0.0
 42
0.0
 43
0.0
 44
0.0
 45
0.0
 46
0.0
 47
0.0
 48
0.0
 49
0.0
140
0.0
141
0.0
142
1.0
143
1.0
 70
  1712
 72
     0
 73
     0
 74
     0
  7

 75
     0
 76
     0
 77
     2
 78
   300
147
1.0
148
0.0
149
0.0
100
AcDbLayout
  1
Model
 70
     1
 71
     0
 10
0.0
 20
0.0
 11
12.0
 21
9.0
 12
0.0
 22
0.0
 32
0.0
 14
1.000000000000000E+20
 24
1.000000000000000E+20
 34
1.000000000000000E+20
 15
-1.000000000000000E+20
 25
-1.000000000000000E+20
 35
-1.000000000000000E+20
146
0.0
 13
0.0
 23
0.0
 33
0.0
 16
1.0
 26
0.0
 36
0.0
 17
0.0
 27
1.0
 37
0.0
 76
     0
330
1F
331
29
  0
MATERIAL
  5
3D
102
{ACAD_REACTORS
330
3B
102
}
330
3B
100
AcDbMaterial
  1
ByBlock
 72
     1
 94
      127
  0
MATERIAL
  5
3C
102
{ACAD_REACTORS
330
3B
102
}
330
3B
100
AcDbMaterial
  1
ByLayer
 72
     1
 94
      127
  0
MATERIAL
  5
3E
102
{ACAD_REACTORS
330
3B
102
}
330
3B
100
AcDbMaterial
  1
Global
 72
     1
 94
      127
  0
MLINESTYLE
  5
18
102
{ACAD_REACTORS
330
17
102
}
330
17
100
AcDbMlineStyle
  2
Standard
 70
     0
  3

 62
   256
 51
90.0
 52
90.0
 71
     2
 49
0.5
 62
   256
  6
BYLAYER
 49
-0.5
 62
   256
  6
BYLAYER
  0
ACDBPLACEHOLDER
  5
F
102
{ACAD_REACTORS
330
E
102
}
330
E
  0
VISUALSTYLE
  5
2F
102
{ACAD_REACTORS
330
2A
102
}
330
2A
100
AcDbVisualStyle
  2
2dWireframe
 70
     4
177
     2
291
     0
 71
     0
176
     1
 72
     2
176
     1
 73
     0
176
     1
 90
        0
176
     1
 40
-0.6
176
     1
 41
-30.0
176
     1
 62
     5
 63
     7
421
 16777215
176
     1
 74
     1
176
     1
 91
        4
176
     1
 64
     7
176
     1
 65
   257
176
     1
 75
     1
176
     1
175
     1
176
     1
 42
1.0
176
     1
 92
        0
176
     1
 66
   257
176
     1
 43
1.0
176
     1
 76
     1
176
     1
 77
     6
176
     1
 78
     2
176
     1
 67
     7
176
     1
 79
     5
176
     1
170
     0
176
     1
171
     0
176
     1
290
     0
176
     1
 93
        1
176
     1
 44
0.0
176
     1
173
     0
176
     1
  0
VISUALSTYLE
  5
31
102
{ACAD_REACTORS
330
2A
102
}
330
2A
100
AcDbVisualStyle
  2
3D Hidden
 70
     6
177
     2
291
     0
 71
     1
176
     1
 72
     2
176
     1
 73
     2
176
     1
 90
        0
176
     1
 40
-0.6
176
     1
 41
-30.0
176
     1
 62
     5
 63
     7
421
 16777215
176
     1
 74
     2
176
     1
 91
        2
176
     1
 64
     7
176
     1
 65
   257
176
     1
 75
     2
176
     1
175
     1
176
     1
 42
40.0
176
     1
 92
        0
176
     1
 66
   257
176
     1
 43
1.0
176
     1
 76
     1
176
     1
 77
     6
176
     1
 78
     2
176
     1
 67
     7
176
     1
 79
     3
176
     1
170
     0
176
     1
171
     0
176
     1
290
     0
176
     1
 93
        1
176
     1
 44
0.0
176
     1
173
     0
176
     1
  0
VISUALSTYLE
  5
30
102
{ACAD_REACTORS
330
2A
102
}
330
2A
100
AcDbVisualStyle
  2
3dWireframe
 70
     5
177
     2
291
     0
 71
     0
176
     1
 72
     2
176
     1
 73
     0
176
     1
 90
        0
176
     1
 40
-0.6
176
     1
 41
-30.0
176
     1
 62
     5
 63
     7
421
 16777215
176
     1
 74
     1
176
     1
 91
        4
176
     1
 64
     7
176
     1
 65
   257
176
     1
 75
     1
176
     1
175
     1
176
     1
 42
1.0
176
     1
 92
        0
176
     1
 66
   257
176
     1
 43
1.0
176
     1
 76
     1
176
     1
 77
     6
176
     1
 78
     2
176
     1
 67
     7
176
     1
 79
     5
176
     1
170
     0
176
     1
171
     0
176
     1
290
     0
176
     1
 93
        1
176
     1
 44
0.0
176
     1
173
     0
176
     1
  0
VISUALSTYLE
  5
32
102
{ACAD_REACTORS
330
2A
102
}
330
2A
100
AcDbVisualStyle
  2
Basic
 70
     7
177
     2
291
     1
 71
     1
176
     1
 72
     0
176
     1
 73
     1
176
     1
 90
        0
176
     1
 40
-0.6
176
     1
 41
-30.0
176
     1
 62
     5
 63
     7
421
 16777215
176
     1
 74
     0
176
     1
 91
        4
176
     1
 64
     7
176
     1
 65
   257
176
     1
 75
     1
176
     1
175
     1
176
     1
 42
1.0
176
     1
 92
        8
176
     1
 66
     7
176
     1
 43
1.0
176
     1
 76
     1
176
     1
 77
     6
176
     1
 78
     2
176
     1
 67
     7
176
     1
 79
     5
176
     1
170
     0
176
     1
171
     0
176
     1
290
     0
176
     1
 93
        1
176
     1
 44
0.0
176
     1
173
     0
176
     1
  0
VISUALSTYLE
  5
36
102
{ACAD_REACTORS
330
2A
102
}
330
2A
100
AcDbVisualStyle
  2
Brighten
 70
    12
177
     2
291
     1
 71
     2
176
     1
 72
     2
176
     1
 73
     0
176
     1
 90
        0
176
     1
 40
-0.6
176
     1
 41
-30.0
176
     1
 62
     5
 63
     7
421
 16777215
176
     1
 74
     1
176
     1
 91
        4
176
     1
 64
     7
176
     1
 65
   257
176
     1
 75
     1
176
     1
175
     1
176
     1
 42
1.0
176
     1
 92
        8
176
     1
 66
     7
176
     1
 43
1.0
176
     1
 76
     1
176
     1
 77
     6
176
     1
 78
     2
176
     1
 67
     7
176
     1
 79
     5
176
     1
170
     0
176
     1
171
     0
176
     1
290
     0
176
     1
 93
        1
176
     1
 44
50.0
176
     1
173
     0
176
     1
  0
VISUALSTYLE
  5
3A
102
{ACAD_REACTORS
330
2A
102
}
330
2A
100
AcDbVisualStyle
  2
ColorChange
 70
    16
177
     2
291
     1
 71
     2
176
     1
 72
     2
176
     1
 73
     3
176
     1
 90
        0
176
     1
 40
-0.6
176
     1
 41
-30.0
176
     1
 62
     5
 63
     8
421
  8421504
176
     1
 74
     1
176
     1
 91
        4
176
     1
 64
     7
176
     1
 65
   257
176
     1
 75
     1
176
     1
175
     1
176
     1
 42
1.0
176
     1
 92
        8
176
     1
 66
     8
424
  8421504
176
     1
 43
1.0
176
     1
 76
     1
176
     1
 77
     6
176
     1
 78
     2
176
     1
 67
     7
176
     1
 79
     5
176
     1
170
     0
176
     1
171
     0
176
     1
290
     0
176
     1
 93
        1
176
     1
 44
0.0
176
     1
173
     0
176
     1
  0
VISUALSTYLE
  5
34
102
{ACAD_REACTORS
330
2A
102
}
330
2A
100
AcDbVisualStyle
  2
Conceptual
 70
     9
177
     2
291
     0
 71
     3
176
     1
 72
     2
176
     1
 73
     0
176
     1
 90
        0
176
     1
 40
-0.6
176
     1
 41
-30.0
176
     1
 62
     5
 63
     7
421
 16777215
176
     1
 74
     2
176
     1
 91
        2
176
     1
 64
     7
176
     1
 65
   257
176
     1
 75
     1
176
     1
175
     1
176
     1
 42
40.0
176
     1
 92
        8
176
     1
 66
     7
176
     1
 43
1.0
176
     1
 76
     1
176
     1
 77
     6
176
     1
 78
     2
176
     1
 67
     7
176
     1
 79
     3
176
     1
170
     0
176
     1
171
     0
176
     1
290
     0
176
     1
 93
        1
176
     1
 44
0.0
176
     1
173
     0
176
     1
  0
VISUALSTYLE
  5
35
102
{ACAD_REACTORS
330
2A
102
}
330
2A
100
AcDbVisualStyle
  2
Dim
 70
    11
177
     2
291
     1
 71
     2
176
     1
 72
     2
176
     1
 73
     0
176
     1
 90
        0
176
     1
 40
-0.6
176
     1
 41
-30.0
176
     1
 62
     5
 63
     7
421
 16777215
176
     1
 74
     1
176
     1
 91
        4
176
     1
 64
     7
176
     1
 65
   257
176
     1
 75
     1
176
     1
175
     1
176
     1
 42
1.0
176
     1
 92
        8
176
     1
 66
     7
176
     1
 43
1.0
176
     1
 76
     1
176
     1
 77
     6
176
     1
 78
     2
176
     1
 67
     7
176
     1
 79
     5
176
     1
170
     0
176
     1
171
     0
176
     1
290
     0
176
     1
 93
        1
176
     1
 44
-50.0
176
     1
173
     0
176
     1
  0
VISUALSTYLE
  5
39
102
{ACAD_REACTORS
330
2A
102
}
330
2A
100
AcDbVisualStyle
  2
Facepattern
 70
    15
177
     2
291
     1
 71
     2
176
     1
 72
     2
176
     1
 73
     0
176
     1
 90
        0
176
     1
 40
-0.6
176
     1
 41
-30.0
176
     1
 62
     5
 63
     7
421
 16777215
176
     1
 74
     1
176
     1
 91
        4
176
     1
 64
     7
176
     1
 65
   257
176
     1
 75
     1
176
     1
175
     1
176
     1
 42
1.0
176
     1
 92
        8
176
     1
 66
     7
176
     1
 43
1.0
176
     1
 76
     1
176
     1
 77
     6
176
     1
 78
     2
176
     1
 67
     7
176
     1
 79
     5
176
     1
170
     0
176
     1
171
     0
176
     1
290
     0
176
     1
 93
        1
176
     1
 44
0.0
176
     1
173
     0
176
     1
  0
VISUALSTYLE
  5
2B
102
{ACAD_REACTORS
330
2A
102
}
330
2A
100
AcDbVisualStyle
  2
Flat
 70
     0
177
     2
291
     1
 71
     2
176
     1
 72
     1
176
     1
 73
     1
176
     1
 90
        2
176
     1
 40
-0.6
176
     1
 41
30.0
176
     1
 62
     5
 63
     7
421
 16777215
176
     1
 74
     0
176
     1
 91
        4
176
     1
 64
     7
176
     1
 65
   257
176
     1
 75
     1
176
     1
175
     1
176
     1
 42
1.0
176
     1
 92
        8
176
     1
 66
     7
176
     1
 43
1.0
176
     1
 76
     1
176
     1
 77
     6
176
     1
 78
     2
176
     1
 67
     7
176
     1
 79
     5
176
     1
170
     0
176
     1
171
     0
176
     1
290
     0
176
     1
 93
       13
176
     1
 44
0.0
176
     1
173
     0
176
     1
  0
VISUALSTYLE
  5
2C
102
{ACAD_REACTORS
330
2A
102
}
330
2A
100
AcDbVisualStyle
  2
FlatWithEdges
 70
     1
177
     2
291
     1
 71
     2
176
     1
 72
     1
176
     1
 73
     1
176
     1
 90
        2
176
     1
 40
-0.6
176
     1
 41
30.0
176
     1
 62
     5
 63
     7
421
 16777215
176
     1
 74
     1
176
     1
 91
        4
176
     1
 64
     7
176
     1
 65
   257
176
     1
 75
     1
176
     1
175
     1
176
     1
 42
1.0
176
     1
 92
        0
176
     1
 66
   257
176
     1
 43
1.0
176
     1
 76
     1
176
     1
 77
     6
176
     1
 78
     2
176
     1
 67
     7
176
     1
 79
     5
176
     1
170
     0
176
     1
171
     0
176
     1
290
     0
176
     1
 93
       13
176
     1
 44
0.0
176
     1
173
     0
176
     1
  0
VISUALSTYLE
  5
2D
102
{ACAD_REACTORS
330
2A
102
}
330
2A
100
AcDbVisualStyle
  2
Gouraud
 70
     2
177
     2
291
     1
 71
     2
176
     1
 72
     2
176
     1
 73
     1
176
     1
 90
        2
176
     1
 40
-0.6
176
     1
 41
30.0
176
     1
 62
     5
 63
     7
421
 16777215
176
     1
 74
     0
176
     1
 91
        4
176
     1
 64
     7
176
     1
 65
   257
176
     1
 75
     1
176
     1
175
     1
176
     1
 42
1.0
176
     1
 92
        0
176
     1
 66
     7
176
     1
 43
1.0
176
     1
 76
     1
176
     1
 77
     6
176
     1
 78
     2
176
     1
 67
     7
176
     1
 79
     5
176
     1
170
     0
176
     1
171
     0
176
     1
290
     0
176
     1
 93
       13
176
     1
 44
0.0
176
     1
173
     0
176
     1
  0
VISUALSTYLE
  5
2E
102
{ACAD_REACTORS
330
2A
102
}
330
2A
100
AcDbVisualStyle
  2
GouraudWithEdges
 70
     3
177
     2
291
     1
 71
     2
176
     1
 72
     2
176
     1
 73
     1
176
     1
 90
        2
176
     1
 40
-0.6
176
     1
 41
30.0
176
     1
 62
     5
 63
     7
421
 16777215
176
     1
 74
     1
176
     1
 91
        4
176
     1
 64
     7
176
     1
 65
   257
176
     1
 75
     1
176
     1
175
     1
176
     1
 42
1.0
176
     1
 92
        0
176
     1
 66
   257
176
     1
 43
1.0
176
     1
 76
     1
176
     1
 77
     6
176
     1
 78
     2
176
     1
 67
     7
176
     1
 79
     5
176
     1
170
     0
176
     1
171
     0
176
     1
290
     0
176
     1
 93
       13
176
     1
 44
0.0
176
     1
173
     0
176
     1
  0
VISUALSTYLE
  5
38
102
{ACAD_REACTORS
330
2A
102
}
330
2A
100
AcDbVisualStyle
  2
Linepattern
 70
    14
177
     2
291
     1
 71
     2
176
     1
 72
     2
176
     1
 73
     0
176
     1
 90
        0
176
     1
 40
-0.6
176
     1
 41
-30.0
176
     1
 62
     5
 63
     7
421
 16777215
176
     1
 74
     1
176
     1
 91
        4
176
     1
 64
     7
176
     1
 65
   257
176
     1
 75
     7
176
     1
175
     7
176
     1
 42
1.0
176
     1
 92
        8
176
     1
 66
     7
176
     1
 43
1.0
176
     1
 76
     1
176
     1
 77
     6
176
     1
 78
     2
176
     1
 67
     7
176
     1
 79
     5
176
     1
170
     0
176
     1
171
     0
176
     1
290
     0
176
     1
 93
        1
176
     1
 44
0.0
176
     1
173
     0
176
     1
  0
VISUALSTYLE
  5
33
102
{ACAD_REACTORS
330
2A
102
}
330
2A
100
AcDbVisualStyle
  2
Realistic
 70
     8
177
     2
291
     0
 71
     2
176
     1
 72
     2
176
     1
 73
     0
176
     1
 90
        0
176
     1
 40
-0.6
176
     1
 41
-30.0
176
     1
 62
     5
 63
     7
421
 16777215
176
     1
 74
     1
176
     1
 91
        0
176
     1
 64
     7
176
     1
 65
   257
176
     1
 75
     1
176
     1
175
     1
176
     1
 42
1.0
176
     1
 92
        8
176
     1
 66
     8
424
  7895160
176
     1
 43
1.0
176
     1
 76
     1
176
     1
 77
     6
176
     1
 78
     2
176
     1
 67
     7
176
     1
 79
     5
176
     1
170
     0
176
     1
171
     0
176
     1
290
     0
176
     1
 93
       13
176
     1
 44
0.0
176
     1
173
     0
176
     1
  0
VISUALSTYLE
  5
37
102
{ACAD_REACTORS
330
2A
102
}
330
2A
100
AcDbVisualStyle
  2
Thicken
 70
    13
177
     2
291
     1
 71
     2
176
     1
 72
     2
176
     1
 73
     0
176
     1
 90
        0
176
     1
 40
-0.6
176
     1
 41
-30.0
176
     1
 62
     5
 63
     7
421
 16777215
176
     1
 74
     1
176
     1
 91
        4
176
     1
 64
     7
176
     1
 65
   257
176
     1
 75
     1
176
     1
175
     1
176
     1
 42
1.0
176
     1
 92
       12
176
     1
 66
     7
176
     1
 43
1.0
176
     1
 76
     1
176
     1
 77
     6
176
     1
 78
     2
176
     1
 67
     7
176
     1
 79
     5
176
     1
170
     0
176
     1
171
     0
176
     1
290
     0
176
     1
 93
        1
176
     1
 44
0.0
176
     1
173
     0
176
     1
  0
ENDSEC
  0
EOF
