  0
SECTION
  2
HEADER
  9
$ACADVER
  1
AC1024
  9
$ACADMAINTVER
 70
     6
  9
$DWGCODEPAGE
  3
UNDEFINED
  9
$INSBASE
 10
0.0
 20
0.0
 30
0.0
  9
$EXTMIN
 10
1.000000000000000E+20
 20
1.000000000000000E+20
 30
1.000000000000000E+20
  9
$EXTMAX
 10
-1.000000000000000E+20
 20
-1.000000000000000E+20
 30
-1.000000000000000E+20
  9
$LIMMIN
 10
0.0
 20
0.0
  9
$LIMMAX
 10
12.0
 20
9.0
  9
$ORTHOMODE
 70
     0
  9
$REGENMODE
 70
     1
  9
$FILLMODE
 70
     1
  9
$QTEXTMODE
 70
     0
  9
$MIRRTEXT
 70
     1
  9
$LTSCALE
 40
1.0
  9
$ATTMODE
 70
     1
  9
$TEXTSIZE
 40
0.2
  9
$TRACEWID
 40
0.05
  9
$TEXTSTYLE
  7
Standard
  9
$CLAYER
  8
0
  9
$CELTYPE
  6
ByLayer
  9
$CECOLOR
 62
   256
  9
$CELTSCALE
 40
1.0
  9
$DISPSILH
 70
     0
  9
$DIMSCALE
 40
1.0
  9
$DIMASZ
 40
0.18
  9
$DIMEXO
 40
0.0625
  9
$DIMDLI
 40
0.38
  9
$DIMRND
 40
0.0
  9
$DIMDLE
 40
0.0
  9
$DIMEXE
 40
0.18
  9
$DIMTP
 40
0.0
  9
$DIMTM
 40
0.0
  9
$DIMTXT
 40
0.18
  9
$DIMCEN
 40
0.09
  9
$DIMTSZ
 40
0.0
  9
$DIMTOL
 70
     0
  9
$DIMLIM
 70
     0
  9
$DIMTIH
 70
     1
  9
$DIMTOH
 70
     1
  9
$DIMSE1
 70
     0
  9
$DIMSE2
 70
     0
  9
$DIMTAD
 70
     0
  9
$DIMZIN
 70
     0
  9
$DIMBLK
  1

  9
$DIMASO
 70
     1
  9
$DIMSHO
 70
     1
  9
$DIMPOST
  1

  9
$DIMAPOST
  1

  9
$DIMALT
 70
     0
  9
$DIMALTD
 70
     2
  9
$DIMALTF
 40
25.4
  9
$DIMLFAC
 40
1.0
  9
$DIMTOFL
 70
     0
  9
$DIMTVP
 40
0.0
  9
$DIMTIX
 70
     0
  9
$DIMSOXD
 70
     0
  9
$DIMSAH
 70
     0
  9
$DIMBLK1
  1

  9
$DIMBLK2
  1

  9
$DIMSTYLE
  2
Standard
  9
$DIMCLRD
 70
     0
  9
$DIMCLRE
 70
     0
  9
$DIMCLRT
 70
     0
  9
$DIMTFAC
 40
1.0
  9
$DIMGAP
 40
0.09
  9
$DIMJUST
 70
     0
  9
$DIMSD1
 70
     0
  9
$DIMSD2
 70
     0
  9
$DIMTOLJ
 70
     1
  9
$DIMTZIN
 70
     0
  9
$DIMALTZ
 70
     0
  9
$DIMALTTZ
 70
     0
  9
$DIMUPT
 70
     0
  9
$DIMDEC
 70
     4
  9
$DIMTDEC
 70
     4
  9
$DIMALTU
 70
     2
  9
$DIMALTTD
 70
     2
  9
$DIMTXSTY
  7
Standard
  9
$DIMAUNIT
 70
     0
  9
$DIMADEC
 70
     0
  9
$DIMALTRND
 40
0.0
  9
$DIMAZIN
 70
     0
  9
$DIMDSEP
 70
    46
  9
$DIMATFIT
 70
     3
  9
$DIMFRAC
 70
     0
  9
$DIMLDRBLK
  1

  9
$DIMLUNIT
 70
     2
  9
$DIMLWD
 70
    -2
  9
$DIMLWE
 70
    -2
  9
$DIMTMOVE
 70
     0
  9
$DIMFXL
 40
1.0
  9
$DIMFXLON
 70
     0
  9
$DIMJOGANG
 40
0.7853981633974483
  9
$DIMTFILL
 70
     0
  9
$DIMTFILLCLR
 70
     0
  9
$DIMARCSYM
 70
     0
  9
$DIMLTYPE
  6

  9
$DIMLTEX1
  6

  9
$DIMLTEX2
  6

  9
$DIMTXTDIRECTION
 70
     0
  9
$LUNITS
 70
     2
  9
$LUPREC
 70
     4
  9
$SKETCHINC
 40
0.1
  9
$FILLETRAD
 40
0.5
  9
$AUNITS
 70
     0
  9
$AUPREC
 70
     0
  9
$MENU
  1
.
  9
$ELEVATION
 40
0.0
  9
$PELEVATION
 40
0.0
  9
$THICKNESS
 40
0.0
  9
$LIMCHECK
 70
     0
  9
$CHAMFERA
 40
0.5
  9
$CHAMFERB
 40
0.5
  9
$CHAMFERC
 40
1.0
  9
$CHAMFERD
 40
0.0
  9
$SKPOLY
 70
     0
  9
$TDCREATE
 40
2457917.611111099
  9
$TDUCREATE
 40
2457917.236111111
  9
$TDUPDATE
 40
2457917.611111099
  9
$TDUUPDATE
 40
2457917.236111111
  9
$TDINDWG
 40
0.0000000116
  9
$TDUSRTIMER
 40
0.0000000116
  9
$USRTIMER
 70
     1
  9
$ANGBASE
 50
0.0
  9
$ANGDIR
 70
     0
  9
$PDMODE
 70
     0
  9
$PDSIZE
 40
0.0
  9
$PLINEWID
 40
0.0
  9
$SPLFRAME
 70
     0
  9
$SPLINETYPE
 70
     6
  9
$SPLINESEGS
 70
     8
  9
$HANDSEED
  5
131
  9
$SURFTAB1
 70
     6
  9
$SURFTAB2
 70
     6
  9
$SURFTYPE
 70
     6
  9
$SURFU
 70
     6
  9
$SURFV
 70
     6
  9
$UCSBASE
  2

  9
$UCSNAME
  2

  9
$UCSORG
 10
0.0
 20
0.0
 30
0.0
  9
$UCSXDIR
 10
1.0
 20
0.0
 30
0.0
  9
$UCSYDIR
 10
0.0
 20
1.0
 30
0.0
  9
$UCSORTHOREF
  2

  9
$UCSORTHOVIEW
 70
     0
  9
$UCSORGTOP
 10
0.0
 20
0.0
 30
0.0
  9
$UCSORGBOTTOM
 10
0.0
 20
0.0
 30
0.0
  9
$UCSORGLEFT
 10
0.0
 20
0.0
 30
0.0
  9
$UCSORGRIGHT
 10
0.0
 20
0.0
 30
0.0
  9
$UCSORGFRONT
 10
0.0
 20
0.0
 30
0.0
  9
$UCSORGBACK
 10
0.0
 20
0.0
 30
0.0
  9
$PUCSBASE
  2

  9
$PUCSNAME
  2

  9
$PUCSORG
 10
0.0
 20
0.0
 30
0.0
  9
$PUCSXDIR
 10
1.0
 20
0.0
 30
0.0
  9
$PUCSYDIR
 10
0.0
 20
1.0
 30
0.0
  9
$PUCSORTHOREF
  2

  9
$PUCSORTHOVIEW
 70
     0
  9
$PUCSORGTOP
 10
0.0
 20
0.0
 30
0.0
  9
$PUCSORGBOTTOM
 10
0.0
 20
0.0
 30
0.0
  9
$PUCSORGLEFT
 10
0.0
 20
0.0
 30
0.0
  9
$PUCSORGRIGHT
 10
0.0
 20
0.0
 30
0.0
  9
$PUCSORGFRONT
 10
0.0
 20
0.0
 30
0.0
  9
$PUCSORGBACK
 10
0.0
 20
0.0
 30
0.0
  9
$USERI1
 70
     0
  9
$USERI2
 70
     0
  9
$USERI3
 70
     0
  9
$USERI4
 70
     0
  9
$USERI5
 70
     0
  9
$USERR1
 40
0.0
  9
$USERR2
 40
0.0
  9
$USERR3
 40
0.0
  9
$USERR4
 40
0.0
  9
$USERR5
 40
0.0
  9
$WORLDVIEW
 70
     1
  9
$SHADEDGE
 70
     3
  9
$SHADEDIF
 70
    70
  9
$TILEMODE
 70
     1
  9
$MAXACTVP
 70
    64
  9
$PINSBASE
 10
0.0
 20
0.0
 30
0.0
  9
$PLIMCHECK
 70
     0
  9
$PEXTMIN
 10
1.000000000000000E+20
 20
1.000000000000000E+20
 30
1.000000000000000E+20
  9
$PEXTMAX
 10
-1.000000000000000E+20
 20
-1.000000000000000E+20
 30
-1.000000000000000E+20
  9
$PLIMMIN
 10
0.0
 20
0.0
  9
$PLIMMAX
 10
12.0
 20
9.0
  9
$UNITMODE
 70
     0
  9
$VISRETAIN
 70
     1
  9
$PLINEGEN
 70
     0
  9
$PSLTSCALE
 70
     1
  9
$TREEDEPTH
 70
  3020
  9
$CMLSTYLE
  2
Standard
  9
$CMLJUST
 70
     0
  9
$CMLSCALE
 40
1.0
  9
$PROXYGRAPHICS
 70
     1
  9
$MEASUREMENT
 70
     0
  9
$CELWEIGHT
370
    -1
  9
$ENDCAPS
280
     0
  9
$JOINSTYLE
280
     0
  9
$LWDISPLAY
290
     1
  9
$INSUNITS
 70
     1
  9
$HYPERLINKBASE
  1

  9
$STYLESHEET
  1

  9
$XEDIT
290
     1
  9
$CEPSNTYPE
380
     0
  9
$PSTYLEMODE
290
     1
  9
$FINGERPRINTGUID
  2
{EF0B21F7-3D7D-7F91-9D74-DFA380EE7CEB}
  9
$VERSIONGUID
  2
{FAEB1C32-E019-11D5-929B-00C0DF256EC4}
  9
$EXTNAMES
290
     1
  9
$PSVPSCALE
 40
0.0
  9
$OLESTARTUP
290
     0
  9
$SORTENTS
280
   127
  9
$INDEXCTL
280
     0
  9
$HIDETEXT
280
     1
  9
$XCLIPFRAME
280
     2
  9
$HALOGAP
280
     0
  9
$OBSCOLOR
 70
   257
  9
$OBSLTYPE
280
     0
  9
$INTERSECTIONDISPLAY
280
     0
  9
$INTERSECTIONCOLOR
 70
   257
  9
$DIMASSOC
280
     2
  9
$PROJECTNAME
  1

  9
$CAMERADISPLAY
290
     0
  9
$LENSLENGTH
 40
50.0
  9
$CAMERAHEIGHT
 40
0.0
  9
$STEPSPERSEC
 40
2.0
  9
$STEPSIZE
 40
6.0
  9
$3DDWFPREC
 40
2.0
  9
$PSOLWIDTH
 40
0.25
  9
$PSOLHEIGHT
 40
4.0
  9
$LOFTANG1
 40
1.570796326794897
  9
$LOFTANG2
 40
1.570796326794897
  9
$LOFTMAG1
 40
0.0
  9
$LOFTMAG2
 40
0.0
  9
$LOFTPARAM
 70
     7
  9
$LOFTNORMALS
280
     1
  9
$LATITUDE
 40
37.795
  9
$LONGITUDE
 40
-122.394
  9
$NORTHDIRECTION
 40
0.0
  9
$TIMEZONE
 70
 -8000
  9
$LIGHTGLYPHDISPLAY
280
     1
  9
$TILEMODELIGHTSYNCH
280
     1
  9
$CMATERIAL
347
3C
  9
$SOLIDHIST
280
     1
  9
$SHOWHIST
280
     1
  9
$DWFFRAME
280
     2
  9
$DGNFRAME
280
     2
  9
$REALWORLDSCALE
290
     1
  9
$INTERFERECOLOR
 62
   256
  9
$CSHADOW
280
     0
  9
$SHADOWPLANELOCATION
 40
0.0
  0
ENDSEC
  0
SECTION
  2
CLASSES
  0
CLASS
  1
ACDBDICTIONARYWDFLT
  2
AcDbDictionaryWithDefault
  3
ObjectDBX Classes
 90
        0
 91
        4
280
     0
281
     0
  0
CLASS
  1
VISUALSTYLE
  2
AcDbVisualStyle
  3
ObjectDBX Classes
 90
     4095
 91
        4
280
     0
281
     0
  0
CLASS
  1
MATERIAL
  2
AcDbMaterial
  3
ObjectDBX Classes
 90
     1153
 91
        4
280
     0
281
     0
  0
CLASS
  1
SUN
  2
AcDbSun
  3
SCENEOE
 90
     1024
 91
        4
280
     0
281
     0
  0
ENDSEC
  0
SECTION
  2
TABLES
  0
TABLE
  2
VPORT
  5
8
330
0
100
AcDbSymbolTable
 70
     1
  0
VPORT
  5
29
330
8
100
AcDbSymbolTableRecord
100
AcDbViewportTableRecord
  2
*Active
 70
     0
 10
0.0
 20
0.0
 11
1.0
 21
1.0
 12
0.0
 22
0.0
 13
0.0
 23
0.0
 14
0.5
 24
0.5
 15
0.5
 25
0.5
 16
0.0
 26
0.0
 36
1.0
 17
91.00082462281999
 27
-128.4993055234307
 37
0.0
 40
256.9986110468615
 41
0.7081814508812795
 42
50.0
 43
0.0
 44
0.0
 50
0.0
 51
0.0
 71
     0
 72
   100
 73
     1
 74
     3
 75
     0
 76
     0
 77
     0
 78
     0
281
     0
 65
     1
110
0.0
120
0.0
130
0.0
111
1.0
121
0.0
131
0.0
112
0.0
122
1.0
132
0.0
 79
     0
146
0.0
 60
     3
 61
     5
292
     1
282
     1
141
0.0
142
0.0
 63
   250
361
3F
  0
ENDTAB
  0
TABLE
  2
LTYPE
  5
5
330
0
100
AcDbSymbolTable
 70
     1
  0
LTYPE
  5
14
330
5
100
AcDbSymbolTableRecord
100
AcDbLinetypeTableRecord
  2
ByBlock
 70
     0
  3

 72
    65
 73
     0
 40
0.0
  0
LTYPE
  5
15
330
5
100
AcDbSymbolTableRecord
100
AcDbLinetypeTableRecord
  2
ByLayer
 70
     0
  3

 72
    65
 73
     0
 40
0.0
  0
LTYPE
  5
16
330
5
100
AcDbSymbolTableRecord
100
AcDbLinetypeTableRecord
  2
Continuous
 70
     0
  3
Solid line
 72
    65
 73
     0
 40
0.0
  0
ENDTAB
  0
TABLE
  2
LAYER
  5
2
330
0
100
AcDbSymbolTable
 70
     2
  0
LAYER
  5
10
330
2
100
AcDbSymbolTableRecord
100
AcDbLayerTableRecord
  2
0
 70
     0
 62
     7
  6
Continuous
370
    -3
390
F
347
3E
  0
LAYER
  5
40
330
2
100
AcDbSymbolTableRecord
100
AcDbLayerTableRecord
  2
_U+30EC_U+30A4_U+30E4_U+30FC 1
 70
     0
 62
     7
  6
Continuous
370
    -3
390
F
347
3E
  0
ENDTAB
  0
TABLE
  2
STYLE
  5
3
330
0
100
AcDbSymbolTable
 70
     1
  0
STYLE
  5
11
330
3
100
AcDbSymbolTableRecord
100
AcDbTextStyleTableRecord
  2
Standard
 70
     0
 40
0.0
 41
1.0
 50
0.0
 71
     0
 42
0.2
  3
txt
  4

  0
ENDTAB
  0
TABLE
  2
VIEW
  5
6
330
0
100
AcDbSymbolTable
 70
     0
  0
ENDTAB
  0
TABLE
  2
UCS
  5
7
330
0
100
AcDbSymbolTable
 70
     0
  0
ENDTAB
  0
TABLE
  2
APPID
  5
9
330
0
100
AcDbSymbolTable
 70
     1
  0
APPID
  5
12
330
9
100
AcDbSymbolTableRecord
100
AcDbRegAppTableRecord
  2
ACAD
 70
     0
  0
ENDTAB
  0
TABLE
  2
DIMSTYLE
  5
A
330
0
100
AcDbSymbolTable
 70
     1
100
AcDbDimStyleTable
  0
DIMSTYLE
105
27
330
A
100
AcDbSymbolTableRecord
100
AcDbDimStyleTableRecord
  2
Standard
 70
     0
178
     0
340
11
  0
ENDTAB
  0
TABLE
  2
BLOCK_RECORD
  5
1
330
0
100
AcDbSymbolTable
 70
     8
  0
BLOCK_RECORD
  5
1F
330
1
100
AcDbSymbolTableRecord
100
AcDbBlockTableRecord
  2
*Model_Space
340
22
 70
     0
280
     1
281
     0
  0
BLOCK_RECORD
  5
1B
330
1
100
AcDbSymbolTableRecord
100
AcDbBlockTableRecord
  2
*Paper_Space
340
1E
 70
     0
280
     1
281
     0
  0
BLOCK_RECORD
  5
23
330
1
100
AcDbSymbolTableRecord
100
AcDbBlockTableRecord
  2
*Paper_Space0
340
26
 70
     0
280
     1
281
     0
  0
BLOCK_RECORD
  5
E1
330
1
100
AcDbSymbolTableRecord
100
AcDbBlockTableRecord
  2
block 2
340
0
102
{BLKREFS
331
E2
102
}
 70
     0
280
     1
281
     0
  0
BLOCK_RECORD
  5
E7
330
1
100
AcDbSymbolTableRecord
100
AcDbBlockTableRecord
  2
block 3
340
0
102
{BLKREFS
331
E8
102
}
 70
     0
280
     1
281
     0
  0
BLOCK_RECORD
  5
ED
330
1
100
AcDbSymbolTableRecord
100
AcDbBlockTableRecord
  2
block 4
340
0
102
{BLKREFS
331
EE
102
}
 70
     0
280
     1
281
     0
  0
BLOCK_RECORD
  5
FE
330
1
100
AcDbSymbolTableRecord
100
AcDbBlockTableRecord
  2
block 5
340
0
102
{BLKREFS
331
FF
102
}
 70
     0
280
     1
281
     0
  0
BLOCK_RECORD
  5
104
330
1
100
AcDbSymbolTableRecord
100
AcDbBlockTableRecord
  2
block 6
340
0
102
{BLKREFS
331
105
102
}
 70
     0
280
     1
281
     0
  0
BLOCK_RECORD
  5
10D
330
1
100
AcDbSymbolTableRecord
100
AcDbBlockTableRecord
  2
block 7
340
0
102
{BLKREFS
331
10E
102
}
 70
     0
280
     1
281
     0
  0
BLOCK_RECORD
  5
113
330
1
100
AcDbSymbolTableRecord
100
AcDbBlockTableRecord
  2
block 8
340
0
102
{BLKREFS
331
114
102
}
 70
     0
280
     1
281
     0
  0
ENDTAB
  0
ENDSEC
  0
SECTION
  2
BLOCKS
  0
BLOCK
  5
20
330
1F
100
AcDbEntity
  8
0
100
AcDbBlockBegin
  2
*Model_Space
 70
     0
 10
0.0
 20
0.0
 30
0.0
  3
*Model_Space
  1

  0
ENDBLK
  5
21
330
1F
100
AcDbEntity
  8
0
100
AcDbBlockEnd
  0
BLOCK
  5
1C
330
1B
100
AcDbEntity
 67
     1
  8
0
100
AcDbBlockBegin
  2
*Paper_Space
 70
     0
 10
0.0
 20
0.0
 30
0.0
  3
*Paper_Space
  1

  0
ENDBLK
  5
1D
330
1B
100
AcDbEntity
 67
     1
  8
0
100
AcDbBlockEnd
  0
BLOCK
  5
24
330
23
100
AcDbEntity
  8
0
100
AcDbBlockBegin
  2
*Paper_Space0
 70
     0
 10
0.0
 20
0.0
 30
0.0
  3
*Paper_Space0
  1

  0
ENDBLK
  5
25
330
23
100
AcDbEntity
  8
0
100
AcDbBlockEnd
  0
BLOCK
  5
E3
330
E1
100
AcDbEntity
  8
0
100
AcDbBlockBegin
  2
block 2
 70
     0
 10
0.0
 20
0.0
 30
0.0
  3
block 2
  1

  0
SPLINE
  5
E5
330
E1
100
AcDbEntity
  8
_U+30EC_U+30A4_U+30E4_U+30FC 1
370
     0
100
AcDbSpline
210
0.0
220
0.0
230
1.0
 70
    11
 71
     3
 72
    62
 73
    58
 74
     0
 42
0.0000000001
 43
0.0000000001
 12
1.0
 22
0.0
 32
0.0
 13
1.0
 23
0.0
 33
0.0
 40
0.0
 40
0.0
 40
0.0
 40
0.0
 40
1.0
 40
1.0
 40
1.0
 40
2.0
 40
2.0
 40
2.0
 40
3.0
 40
3.0
 40
3.0
 40
4.0
 40
4.0
 40
4.0
 40
5.0
 40
5.0
 40
5.0
 40
6.0
 40
6.0
 40
6.0
 40
7.0
 40
7.0
 40
7.0
 40
8.0
 40
8.0
 40
8.0
 40
9.0
 40
9.0
 40
9.0
 40
10.0
 40
10.0
 40
10.0
 40
11.0
 40
11.0
 40
11.0
 40
12.0
 40
12.0
 40
12.0
 40
13.0
 40
13.0
 40
13.0
 40
14.0
 40
14.0
 40
14.0
 40
15.0
 40
15.0
 40
15.0
 40
16.0
 40
16.0
 40
16.0
 40
17.0
 40
17.0
 40
17.0
 40
18.0
 40
18.0
 40
18.0
 40
19.0
 40
19.0
 40
19.0
 40
19.0
 10
72.69358179606272
 20
-112.0711954472426
 30
0.0
 10
72.59195147924785
 20
-112.0711954472426
 30
0.0
 10
72.35906302444496
 20
-112.0500081100083
 30
0.0
 10
72.22556557439152
 20
-111.8638006990306
 30
0.0
 10
72.14650063300505
 20
-111.7516628409857
 30
0.0
 10
72.14202200887422
 20
-111.6522718362362
 30
0.0
 10
72.1375433847434
 20
-111.5676947420734
 30
0.0
 10
72.1375433847434
 20
-111.5676947420734
 30
0.0
 10
72.37249889683743
 20
-111.5676947420734
 30
0.0
 10
72.37249889683743
 20
-111.5676947420734
 30
0.0
 10
72.37491046367711
 20
-111.6417642950062
 30
0.0
 10
72.38610702400418
 20
-111.876547552326
 30
0.0
 10
72.68910317193189
 20
-111.876547552326
 30
0.0
 10
72.8360364943778
 20
-111.876547552326
 30
0.0
 10
72.99881725605586
 20
-111.8067843687497
 30
0.0
 10
72.99881725605586
 20
-111.5782022833034
 30
0.0
 10
72.99881725605586
 20
-111.4619303106762
 30
0.0
 10
72.95816512932991
 20
-111.4131822095599
 30
0.0
 10
72.92423093880019
 20
-111.3814873310956
 30
0.0
 10
72.84516599741372
 20
-111.3074177781627
 30
0.0
 10
72.7207980503962
 20
-111.2948431796416
 30
0.0
 10
72.66188691759842
 20
-111.2948431796416
 30
0.0
 10
72.64156085423545
 20
-111.2948431796416
 30
0.0
 10
72.6031480395749
 20
-111.2969102369327
 30
0.0
 10
72.5738647279503
 20
-111.301044351515
 30
0.0
 10
72.5738647279503
 20
-111.301044351515
 30
0.0
 10
72.5738647279503
 20
-111.1063964565984
 30
0.0
 10
72.5738647279503
 20
-111.1063964565984
 30
0.0
 10
72.61451685467624
 20
-111.1127698832461
 30
0.0
 10
72.65964760553301
 20
-111.1150091953115
 30
0.0
 10
72.6665377965035
 20
-111.1150091953115
 30
0.0
 10
72.73664548962834
 20
-111.1150091953115
 30
0.0
 10
72.94903562629399
 20
-111.0938218580772
 30
0.0
 10
72.94903562629399
 20
-110.8567992886921
 30
0.0
 10
72.94903562629399
 20
-110.6792046164274
 30
0.0
 10
72.80899249481858
 20
-110.6240830886634
 30
0.0
 10
72.6913424839973
 20
-110.6240830886634
 30
0.0
 10
72.40867239943256
 20
-110.6240830886634
 30
0.0
 10
72.39971515117091
 20
-110.8567992886921
 30
0.0
 10
72.39523652704008
 20
-110.9288017843338
 30
0.0
 10
72.39523652704008
 20
-110.9288017843338
 30
0.0
 10
72.17819551146934
 20
-110.9288017843338
 30
0.0
 10
72.17819551146934
 20
-110.9288017843338
 30
0.0
 10
72.18715275973099
 20
-110.8039170729935
 30
0.0
 10
72.21660832612987
 20
-110.4273681364557
 30
0.0
 10
72.70495061116404
 20
-110.4273681364557
 30
0.0
 10
72.94455700216317
 20
-110.4273681364557
 30
0.0
 10
73.20225014445985
 20
-110.5543199050871
 30
0.0
 10
73.20225014445985
 20
-110.8504258620443
 30
0.0
 10
73.20225014445985
 20
-111.0366332730221
 30
0.0
 10
73.10061982764499
 20
-111.1191433098938
 30
0.0
 10
72.99433863192503
 20
-111.1804660095313
 30
0.0
 10
73.05979544614478
 20
-111.2080267734133
 30
0.0
 10
73.25427108628713
 20
-111.2884697529939
 30
0.0
 10
73.25427108628713
 20
-111.5656276847822
 30
0.0
 10
73.25427108628713
 20
-111.904108316208
 30
0.0
 10
72.9898600077942
 20
-112.0711954472426
 30
0.0
 10
72.69358179606272
 20
-112.0711954472426
 30
0.0
  0
HATCH
  5
E6
330
E1
100
AcDbEntity
  8
_U+30EC_U+30A4_U+30E4_U+30FC 1
 62
   179
420
  2234388
100
AcDbHatch
 10
0.0
 20
0.0
 30
0.0
210
0.0
220
0.0
230
1.0
  2
SOLID
 70
     1
 71
     0
 91
        1
 92
        1
 93
        1
 72
     4
 94
        3
 73
     0
 74
     1
 95
       62
 96
       58
 40
0.0
 40
0.0
 40
0.0
 40
0.0
 40
1.0
 40
1.0
 40
1.0
 40
2.0
 40
2.0
 40
2.0
 40
3.0
 40
3.0
 40
3.0
 40
4.0
 40
4.0
 40
4.0
 40
5.0
 40
5.0
 40
5.0
 40
6.0
 40
6.0
 40
6.0
 40
7.0
 40
7.0
 40
7.0
 40
8.0
 40
8.0
 40
8.0
 40
9.0
 40
9.0
 40
9.0
 40
10.0
 40
10.0
 40
10.0
 40
11.0
 40
11.0
 40
11.0
 40
12.0
 40
12.0
 40
12.0
 40
13.0
 40
13.0
 40
13.0
 40
14.0
 40
14.0
 40
14.0
 40
15.0
 40
15.0
 40
15.0
 40
16.0
 40
16.0
 40
16.0
 40
17.0
 40
17.0
 40
17.0
 40
18.0
 40
18.0
 40
18.0
 40
19.0
 40
19.0
 40
19.0
 40
19.0
 10
72.69358179606272
 20
-112.0711954472426
 10
72.59195147924785
 20
-112.0711954472426
 10
72.35906302444496
 20
-112.0500081100083
 10
72.22556557439152
 20
-111.8638006990306
 10
72.14650063300505
 20
-111.7516628409857
 10
72.14202200887422
 20
-111.6522718362362
 10
72.1375433847434
 20
-111.5676947420734
 10
72.1375433847434
 20
-111.5676947420734
 10
72.37249889683743
 20
-111.5676947420734
 10
72.37249889683743
 20
-111.5676947420734
 10
72.37491046367711
 20
-111.6417642950062
 10
72.38610702400418
 20
-111.876547552326
 10
72.68910317193189
 20
-111.876547552326
 10
72.8360364943778
 20
-111.876547552326
 10
72.99881725605586
 20
-111.8067843687497
 10
72.99881725605586
 20
-111.5782022833034
 10
72.99881725605586
 20
-111.4619303106762
 10
72.95816512932991
 20
-111.4131822095599
 10
72.92423093880019
 20
-111.3814873310956
 10
72.84516599741372
 20
-111.3074177781627
 10
72.7207980503962
 20
-111.2948431796416
 10
72.66188691759842
 20
-111.2948431796416
 10
72.64156085423545
 20
-111.2948431796416
 10
72.6031480395749
 20
-111.2969102369327
 10
72.5738647279503
 20
-111.301044351515
 10
72.5738647279503
 20
-111.301044351515
 10
72.5738647279503
 20
-111.1063964565984
 10
72.5738647279503
 20
-111.1063964565984
 10
72.61451685467624
 20
-111.1127698832461
 10
72.65964760553301
 20
-111.1150091953115
 10
72.6665377965035
 20
-111.1150091953115
 10
72.73664548962834
 20
-111.1150091953115
 10
72.94903562629399
 20
-111.0938218580772
 10
72.94903562629399
 20
-110.8567992886921
 10
72.94903562629399
 20
-110.6792046164274
 10
72.80899249481858
 20
-110.6240830886634
 10
72.6913424839973
 20
-110.6240830886634
 10
72.40867239943256
 20
-110.6240830886634
 10
72.39971515117091
 20
-110.8567992886921
 10
72.39523652704008
 20
-110.9288017843338
 10
72.39523652704008
 20
-110.9288017843338
 10
72.17819551146934
 20
-110.9288017843338
 10
72.17819551146934
 20
-110.9288017843338
 10
72.18715275973099
 20
-110.8039170729935
 10
72.21660832612987
 20
-110.4273681364557
 10
72.70495061116404
 20
-110.4273681364557
 10
72.94455700216317
 20
-110.4273681364557
 10
73.20225014445985
 20
-110.5543199050871
 10
73.20225014445985
 20
-110.8504258620443
 10
73.20225014445985
 20
-111.0366332730221
 10
73.10061982764499
 20
-111.1191433098938
 10
72.99433863192503
 20
-111.1804660095313
 10
73.05979544614478
 20
-111.2080267734133
 10
73.25427108628713
 20
-111.2884697529939
 10
73.25427108628713
 20
-111.5656276847822
 10
73.25427108628713
 20
-111.904108316208
 10
72.9898600077942
 20
-112.0711954472426
 10
72.69358179606272
 20
-112.0711954472426
 97
        0
 97
        0
 75
     2
 76
     1
 98
        0
  0
ENDBLK
  5
E4
330
E1
100
AcDbEntity
  8
0
100
AcDbBlockEnd
  0
BLOCK
  5
E9
330
E7
100
AcDbEntity
  8
0
100
AcDbBlockBegin
  2
block 3
 70
     0
 10
0.0
 20
0.0
 30
0.0
  3
block 3
  1

  0
SPLINE
  5
EB
330
E7
100
AcDbEntity
  8
_U+30EC_U+30A4_U+30E4_U+30FC 1
370
     0
100
AcDbSpline
210
0.0
220
0.0
230
1.0
 70
    11
 71
     3
 72
    26
 73
    22
 74
     0
 42
0.0000000001
 43
0.0000000001
 12
1.0
 22
0.0
 32
0.0
 13
1.0
 23
0.0
 33
0.0
 40
0.0
 40
0.0
 40
0.0
 40
0.0
 40
1.0
 40
1.0
 40
1.0
 40
2.0
 40
2.0
 40
2.0
 40
3.0
 40
3.0
 40
3.0
 40
4.0
 40
4.0
 40
4.0
 40
5.0
 40
5.0
 40
5.0
 40
6.0
 40
6.0
 40
6.0
 40
7.0
 40
7.0
 40
7.0
 40
7.0
 10
117.5538926572435
 20
-125.141543208732
 30
0.0
 10
117.5538926572435
 20
-125.141543208732
 30
0.0
 10
116.4497395542209
 20
-125.141543208732
 30
0.0
 10
116.4497395542209
 20
-125.141543208732
 30
0.0
 10
116.4497395542209
 20
-125.141543208732
 30
0.0
 10
116.4497395542209
 20
-125.4943209864216
 30
0.0
 10
116.4497395542209
 20
-125.4943209864216
 30
0.0
 10
116.4497395542209
 20
-125.4943209864216
 30
0.0
 10
116.3016004483552
 20
-125.4943209864216
 30
0.0
 10
116.3016004483552
 20
-125.4943209864216
 30
0.0
 10
116.2867865377686
 20
-125.1393038966666
 30
0.0
 10
116.1238335213163
 20
-125.0895222669047
 30
0.0
 10
116.009456351206
 20
-125.0579996432147
 30
0.0
 10
116.009456351206
 20
-125.0579996432147
 30
0.0
 10
116.009456351206
 20
-124.9019368177329
 30
0.0
 10
116.009456351206
 20
-124.9019368177329
 30
0.0
 10
116.009456351206
 20
-124.9019368177329
 30
0.0
 10
117.5538926572435
 20
-124.9019368177329
 30
0.0
 10
117.5538926572435
 20
-124.9019368177329
 30
0.0
 10
117.5538926572435
 20
-124.9019368177329
 30
0.0
 10
117.5538926572435
 20
-125.141543208732
 30
0.0
 10
117.5538926572435
 20
-125.141543208732
 30
0.0
  0
HATCH
  5
EC
330
E7
100
AcDbEntity
  8
_U+30EC_U+30A4_U+30E4_U+30FC 1
 62
   179
420
  2234388
100
AcDbHatch
 10
0.0
 20
0.0
 30
0.0
210
0.0
220
0.0
230
1.0
  2
SOLID
 70
     1
 71
     0
 91
        1
 92
        1
 93
        1
 72
     4
 94
        3
 73
     0
 74
     1
 95
       26
 96
       22
 40
0.0
 40
0.0
 40
0.0
 40
0.0
 40
1.0
 40
1.0
 40
1.0
 40
2.0
 40
2.0
 40
2.0
 40
3.0
 40
3.0
 40
3.0
 40
4.0
 40
4.0
 40
4.0
 40
5.0
 40
5.0
 40
5.0
 40
6.0
 40
6.0
 40
6.0
 40
7.0
 40
7.0
 40
7.0
 40
7.0
 10
117.5538926572435
 20
-125.141543208732
 10
117.5538926572435
 20
-125.141543208732
 10
116.4497395542209
 20
-125.141543208732
 10
116.4497395542209
 20
-125.141543208732
 10
116.4497395542209
 20
-125.141543208732
 10
116.4497395542209
 20
-125.4943209864216
 10
116.4497395542209
 20
-125.4943209864216
 10
116.4497395542209
 20
-125.4943209864216
 10
116.3016004483552
 20
-125.4943209864216
 10
116.3016004483552
 20
-125.4943209864216
 10
116.2867865377686
 20
-125.1393038966666
 10
116.1238335213163
 20
-125.0895222669047
 10
116.009456351206
 20
-125.0579996432147
 10
116.009456351206
 20
-125.0579996432147
 10
116.009456351206
 20
-124.9019368177329
 10
116.009456351206
 20
-124.9019368177329
 10
116.009456351206
 20
-124.9019368177329
 10
117.5538926572435
 20
-124.9019368177329
 10
117.5538926572435
 20
-124.9019368177329
 10
117.5538926572435
 20
-124.9019368177329
 10
117.5538926572435
 20
-125.141543208732
 10
117.5538926572435
 20
-125.141543208732
 97
        0
 97
        0
 75
     2
 76
     1
 98
        0
  0
ENDBLK
  5
EA
330
E7
100
AcDbEntity
  8
0
100
AcDbBlockEnd
  0
BLOCK
  5
EF
330
ED
100
AcDbEntity
  8
0
100
AcDbBlockBegin
  2
block 4
 70
     0
 10
0.0
 20
0.0
 30
0.0
  3
block 4
  1

  0
SPLINE
  5
F1
330
ED
100
AcDbEntity
  8
_U+30EC_U+30A4_U+30E4_U+30FC 1
370
     0
100
AcDbSpline
210
0.0
220
0.0
230
1.0
 70
    11
 71
     3
 72
    32
 73
    28
 74
     0
 42
0.0000000001
 43
0.0000000001
 12
1.0
 22
0.0
 32
0.0
 13
1.0
 23
0.0
 33
0.0
 40
0.0
 40
0.0
 40
0.0
 40
0.0
 40
1.0
 40
1.0
 40
1.0
 40
2.0
 40
2.0
 40
2.0
 40
3.0
 40
3.0
 40
3.0
 40
4.0
 40
4.0
 40
4.0
 40
5.0
 40
5.0
 40
5.0
 40
6.0
 40
6.0
 40
6.0
 40
7.0
 40
7.0
 40
7.0
 40
8.0
 40
8.0
 40
8.0
 40
9.0
 40
9.0
 40
9.0
 40
9.0
 10
117.7209797882781
 20
-132.7860378357271
 30
0.0
 10
117.7209797882781
 20
-132.9713839728335
 30
0.0
 10
117.651388859476
 20
-133.233555739261
 30
0.0
 10
117.319281654698
 20
-133.274207865987
 30
0.0
 10
117.319281654698
 20
-133.274207865987
 30
0.0
 10
117.319281654698
 20
-133.0461425448635
 30
0.0
 10
117.319281654698
 20
-133.0461425448635
 30
0.0
 10
117.3785372970443
 20
-133.0347737297622
 30
0.0
 10
117.52667640291
 20
-133.0006672844582
 30
0.0
 10
117.52667640291
 20
-132.7836262688874
 30
0.0
 10
117.52667640291
 20
-132.4715006179238
 30
0.0
 10
117.1966362554231
 20
-132.4308484911978
 30
0.0
 10
116.9913085645022
 20
-132.4174126188054
 30
0.0
 10
117.0715792893085
 20
-132.5149088210379
 30
0.0
 10
117.1287678743636
 20
-132.5872558262282
 30
0.0
 10
117.1287678743636
 20
-132.7815592115963
 30
0.0
 10
117.1287678743636
 20
-132.9737955396732
 30
0.0
 10
117.0230034429665
 20
-133.2969454961897
 30
0.0
 10
116.6168266852555
 20
-133.2969454961897
 30
0.0
 10
116.2974663337729
 20
-133.2969454961897
 30
0.0
 10
116.0773247322654
 20
-133.0843831047497
 30
0.0
 10
116.0773247322654
 20
-132.7453857090012
 30
0.0
 10
116.0773247322654
 20
-132.1958929791038
 30
0.0
 10
116.6316405958421
 20
-132.1845241640025
 30
0.0
 10
116.8452365159276
 20
-132.1845241640025
 30
0.0
 10
117.0760579134393
 20
-132.1845241640025
 30
0.0
 10
117.7209797882781
 20
-132.2048502273655
 30
0.0
 10
117.7209797882781
 20
-132.7860378357271
 30
0.0
  0
SPLINE
  5
F2
330
ED
100
AcDbEntity
  8
_U+30EC_U+30A4_U+30E4_U+30FC 1
370
     0
100
AcDbSpline
210
0.0
220
0.0
230
1.0
 70
    11
 71
     3
 72
    17
 73
    13
 74
     0
 42
0.0000000001
 43
0.0000000001
 12
1.0
 22
0.0
 32
0.0
 13
1.0
 23
0.0
 33
0.0
 40
0.0
 40
0.0
 40
0.0
 40
0.0
 40
1.0
 40
1.0
 40
1.0
 40
2.0
 40
2.0
 40
2.0
 40
3.0
 40
3.0
 40
3.0
 40
4.0
 40
4.0
 40
4.0
 40
4.0
 10
116.2699055698909
 20
-132.7429741421615
 30
0.0
 10
116.2699055698909
 20
-132.8697536560187
 30
0.0
 10
116.327094154946
 20
-133.0571668504163
 30
0.0
 10
116.6123480611247
 20
-133.0571668504163
 30
0.0
 10
116.8390353440541
 20
-133.0571668504163
 30
0.0
 10
116.934119979447
 20
-132.9079942159049
 30
0.0
 10
116.934119979447
 20
-132.7633002055244
 30
0.0
 10
116.934119979447
 20
-132.4832139425737
 30
0.0
 10
116.7246581739438
 20
-132.4425618158477
 30
0.0
 10
116.6082139465424
 20
-132.4425618158477
 30
0.0
 10
116.4325140767947
 20
-132.4425618158477
 30
0.0
 10
116.2699055698909
 20
-132.543847623114
 30
0.0
 10
116.2699055698909
 20
-132.7429741421615
 30
0.0
  0
HATCH
  5
F3
330
ED
100
AcDbEntity
  8
_U+30EC_U+30A4_U+30E4_U+30FC 1
 62
   179
420
  2234388
100
AcDbHatch
 10
0.0
 20
0.0
 30
0.0
210
0.0
220
0.0
230
1.0
  2
SOLID
 70
     1
 71
     0
 91
        2
 92
        1
 93
        1
 72
     4
 94
        3
 73
     0
 74
     1
 95
       32
 96
       28
 40
0.0
 40
0.0
 40
0.0
 40
0.0
 40
1.0
 40
1.0
 40
1.0
 40
2.0
 40
2.0
 40
2.0
 40
3.0
 40
3.0
 40
3.0
 40
4.0
 40
4.0
 40
4.0
 40
5.0
 40
5.0
 40
5.0
 40
6.0
 40
6.0
 40
6.0
 40
7.0
 40
7.0
 40
7.0
 40
8.0
 40
8.0
 40
8.0
 40
9.0
 40
9.0
 40
9.0
 40
9.0
 10
117.7209797882781
 20
-132.7860378357271
 10
117.7209797882781
 20
-132.9713839728335
 10
117.651388859476
 20
-133.233555739261
 10
117.319281654698
 20
-133.274207865987
 10
117.319281654698
 20
-133.274207865987
 10
117.319281654698
 20
-133.0461425448635
 10
117.319281654698
 20
-133.0461425448635
 10
117.3785372970443
 20
-133.0347737297622
 10
117.52667640291
 20
-133.0006672844582
 10
117.52667640291
 20
-132.7836262688874
 10
117.52667640291
 20
-132.4715006179238
 10
117.1966362554231
 20
-132.4308484911978
 10
116.9913085645022
 20
-132.4174126188054
 10
117.0715792893085
 20
-132.5149088210379
 10
117.1287678743636
 20
-132.5872558262282
 10
117.1287678743636
 20
-132.7815592115963
 10
117.1287678743636
 20
-132.9737955396732
 10
117.0230034429665
 20
-133.2969454961897
 10
116.6168266852555
 20
-133.2969454961897
 10
116.2974663337729
 20
-133.2969454961897
 10
116.0773247322654
 20
-133.0843831047497
 10
116.0773247322654
 20
-132.7453857090012
 10
116.0773247322654
 20
-132.1958929791038
 10
116.6316405958421
 20
-132.1845241640025
 10
116.8452365159276
 20
-132.1845241640025
 10
117.0760579134393
 20
-132.1845241640025
 10
117.7209797882781
 20
-132.2048502273655
 10
117.7209797882781
 20
-132.7860378357271
 97
        0
 97
        0
 92
        1
 93
        1
 72
     4
 94
        3
 73
     0
 74
     1
 95
       17
 96
       13
 40
0.0
 40
0.0
 40
0.0
 40
0.0
 40
1.0
 40
1.0
 40
1.0
 40
2.0
 40
2.0
 40
2.0
 40
3.0
 40
3.0
 40
3.0
 40
4.0
 40
4.0
 40
4.0
 40
4.0
 10
116.2699055698909
 20
-132.7429741421615
 10
116.2699055698909
 20
-132.8697536560187
 10
116.327094154946
 20
-133.0571668504163
 10
116.6123480611247
 20
-133.0571668504163
 10
116.8390353440541
 20
-133.0571668504163
 10
116.934119979447
 20
-132.9079942159049
 10
116.934119979447
 20
-132.7633002055244
 10
116.934119979447
 20
-132.4832139425737
 10
116.7246581739438
 20
-132.4425618158477
 10
116.6082139465424
 20
-132.4425618158477
 10
116.4325140767947
 20
-132.4425618158477
 10
116.2699055698909
 20
-132.543847623114
 10
116.2699055698909
 20
-132.7429741421615
 97
        0
 97
        0
 75
     2
 76
     1
 98
        0
  0
POLYLINE
  5
F4
330
ED
100
AcDbEntity
  8
_U+30EC_U+30A4_U+30E4_U+30FC 1
370
     0
100
AcDb2dPolyline
 66
     1
 10
0.0
 20
0.0
 30
0.0
  0
VERTEX
  5
F5
330
F4
100
AcDbEntity
  8
_U+30EC_U+30A4_U+30E4_U+30FC 1
370
     0
100
AcDbVertex
100
AcDb2dVertex
 10
117.6703368846449
 20
-131.9533582569422
 30
0.0
  0
VERTEX
  5
F6
330
F4
100
AcDbEntity
  8
_U+30EC_U+30A4_U+30E4_U+30FC 1
370
     0
100
AcDbVertex
100
AcDb2dVertex
 10
117.4185004046732
 20
-131.9533582569422
 30
0.0
  0
VERTEX
  5
F7
330
F4
100
AcDbEntity
  8
_U+30EC_U+30A4_U+30E4_U+30FC 1
370
     0
100
AcDbVertex
100
AcDb2dVertex
 10
117.4185004046732
 20
-131.6839517899957
 30
0.0
  0
VERTEX
  5
F8
330
F4
100
AcDbEntity
  8
_U+30EC_U+30A4_U+30E4_U+30FC 1
370
     0
100
AcDbVertex
100
AcDb2dVertex
 10
117.6703368846449
 20
-131.6839517899957
 30
0.0
  0
VERTEX
  5
F9
330
F4
100
AcDbEntity
  8
_U+30EC_U+30A4_U+30E4_U+30FC 1
370
     0
100
AcDbVertex
100
AcDb2dVertex
 10
117.6703368846449
 20
-131.9533582569422
 30
0.0
  0
SEQEND
  5
FA
330
F4
100
AcDbEntity
  8
_U+30EC_U+30A4_U+30E4_U+30FC 1
370
     0
  0
HATCH
  5
FB
330
ED
100
AcDbEntity
  8
_U+30EC_U+30A4_U+30E4_U+30FC 1
 62
   179
420
  2234388
100
AcDbHatch
 10
0.0
 20
0.0
 30
0.0
210
0.0
220
0.0
230
1.0
  2
SOLID
 70
     1
 71
     0
 91
        1
 92
        1
 93
        4
 72
     1
 10
117.6703368846449
 20
-131.9533582569422
 11
117.4185004046732
 21
-131.9533582569422
 72
     1
 10
117.4185004046732
 20
-131.9533582569422
 11
117.4185004046732
 21
-131.6839517899957
 72
     1
 10
117.4185004046732
 20
-131.6839517899957
 11
117.6703368846449
 21
-131.6839517899957
 72
     1
 10
117.6703368846449
 20
-131.6839517899957
 11
117.6703368846449
 21
-131.9533582569422
 97
        0
 75
     2
 76
     1
 98
        0
  0
SPLINE
  5
FC
330
ED
100
AcDbEntity
  8
_U+30EC_U+30A4_U+30E4_U+30FC 1
370
     0
100
AcDbSpline
210
0.0
220
0.0
230
1.0
 70
    11
 71
     3
 72
    53
 73
    49
 74
     0
 42
0.0000000001
 43
0.0000000001
 12
1.0
 22
0.0
 32
0.0
 13
1.0
 23
0.0
 33
0.0
 40
0.0
 40
0.0
 40
0.0
 40
0.0
 40
1.0
 40
1.0
 40
1.0
 40
2.0
 40
2.0
 40
2.0
 40
3.0
 40
3.0
 40
3.0
 40
4.0
 40
4.0
 40
4.0
 40
5.0
 40
5.0
 40
5.0
 40
6.0
 40
6.0
 40
6.0
 40
7.0
 40
7.0
 40
7.0
 40
8.0
 40
8.0
 40
8.0
 40
9.0
 40
9.0
 40
9.0
 40
10.0
 40
10.0
 40
10.0
 40
11.0
 40
11.0
 40
11.0
 40
12.0
 40
12.0
 40
12.0
 40
13.0
 40
13.0
 40
13.0
 40
14.0
 40
14.0
 40
14.0
 40
15.0
 40
15.0
 40
15.0
 40
16.0
 40
16.0
 40
16.0
 40
16.0
 10
117.7209797882781
 20
-130.9170735349791
 30
0.0
 10
117.7209797882781
 20
-131.0011338648192
 30
0.0
 10
117.7044433299489
 20
-131.109309863056
 30
0.0
 10
117.6407090634718
 20
-131.2181748803899
 30
0.0
 10
117.5308105174923
 20
-131.4035210174964
 30
0.0
 10
117.3995523795043
 20
-131.4259141381505
 30
0.0
 10
117.291720890816
 20
-131.4462402015134
 30
0.0
 10
117.291720890816
 20
-131.4462402015134
 30
0.0
 10
117.291720890816
 20
-131.2088731225797
 30
0.0
 10
117.291720890816
 20
-131.2088731225797
 30
0.0
 10
117.4905029003149
 20
-131.149961989782
 30
0.0
 10
117.520130721488
 20
-131.0145697372116
 30
0.0
 10
117.520130721488
 20
-130.9150064776879
 30
0.0
 10
117.520130721488
 20
-130.7658338431766
 30
0.0
 10
117.4205674619643
 20
-130.6028808267243
 30
0.0
 10
117.1880235167099
 20
-130.6028808267243
 30
0.0
 10
116.9320529221559
 20
-130.6028808267243
 30
0.0
 10
116.8624619933538
 20
-130.7951171548012
 30
0.0
 10
116.8624619933538
 20
-130.9239637259496
 30
0.0
 10
116.8624619933538
 20
-130.9580701712536
 30
0.0
 10
116.8624619933538
 20
-131.109309863056
 30
0.0
 10
116.9913085645022
 20
-131.2043944984489
 30
0.0
 10
116.9913085645022
 20
-131.2043944984489
 30
0.0
 10
116.9720160297848
 20
-131.392152202395
 30
0.0
 10
116.9720160297848
 20
-131.392152202395
 30
0.0
 10
116.9720160297848
 20
-131.392152202395
 30
0.0
 10
116.1259005786074
 20
-131.2633056312467
 30
0.0
 10
116.1259005786074
 20
-131.2633056312467
 30
0.0
 10
116.1259005786074
 20
-131.2633056312467
 30
0.0
 10
116.1259005786074
 20
-130.4313150715589
 30
0.0
 10
116.1259005786074
 20
-130.4313150715589
 30
0.0
 10
116.1259005786074
 20
-130.4313150715589
 30
0.0
 10
116.3208929830726
 20
-130.4313150715589
 30
0.0
 10
116.3208929830726
 20
-130.4313150715589
 30
0.0
 10
116.3208929830726
 20
-130.4313150715589
 30
0.0
 10
116.3208929830726
 20
-131.0893283092416
 30
0.0
 10
116.3208929830726
 20
-131.0893283092416
 30
0.0
 10
116.3208929830726
 20
-131.0893283092416
 30
0.0
 10
116.7439507086612
 20
-131.1592637475921
 30
0.0
 10
116.7439507086612
 20
-131.1592637475921
 30
0.0
 10
116.7098442633573
 20
-131.0934624238239
 30
0.0
 10
116.6695366461798
 20
-131.0052679794015
 30
0.0
 10
116.6695366461798
 20
-130.8788329750928
 30
0.0
 10
116.6695366461798
 20
-130.6077039604036
 30
0.0
 10
116.8559163119319
 20
-130.3544894422378
 30
0.0
 10
117.1690754915411
 20
-130.3544894422378
 30
0.0
 10
117.4863687857326
 20
-130.3544894422378
 30
0.0
 10
117.7209797882781
 20
-130.5939235784626
 30
0.0
 10
117.7209797882781
 20
-130.9170735349791
 30
0.0
  0
HATCH
  5
FD
330
ED
100
AcDbEntity
  8
_U+30EC_U+30A4_U+30E4_U+30FC 1
 62
   179
420
  2234388
100
AcDbHatch
 10
0.0
 20
0.0
 30
0.0
210
0.0
220
0.0
230
1.0
  2
SOLID
 70
     1
 71
     0
 91
        1
 92
        1
 93
        1
 72
     4
 94
        3
 73
     0
 74
     1
 95
       53
 96
       49
 40
0.0
 40
0.0
 40
0.0
 40
0.0
 40
1.0
 40
1.0
 40
1.0
 40
2.0
 40
2.0
 40
2.0
 40
3.0
 40
3.0
 40
3.0
 40
4.0
 40
4.0
 40
4.0
 40
5.0
 40
5.0
 40
5.0
 40
6.0
 40
6.0
 40
6.0
 40
7.0
 40
7.0
 40
7.0
 40
8.0
 40
8.0
 40
8.0
 40
9.0
 40
9.0
 40
9.0
 40
10.0
 40
10.0
 40
10.0
 40
11.0
 40
11.0
 40
11.0
 40
12.0
 40
12.0
 40
12.0
 40
13.0
 40
13.0
 40
13.0
 40
14.0
 40
14.0
 40
14.0
 40
15.0
 40
15.0
 40
15.0
 40
16.0
 40
16.0
 40
16.0
 40
16.0
 10
117.7209797882781
 20
-130.9170735349791
 10
117.7209797882781
 20
-131.0011338648192
 10
117.7044433299489
 20
-131.109309863056
 10
117.6407090634718
 20
-131.2181748803899
 10
117.5308105174923
 20
-131.4035210174964
 10
117.3995523795043
 20
-131.4259141381505
 10
117.291720890816
 20
-131.4462402015134
 10
117.291720890816
 20
-131.4462402015134
 10
117.291720890816
 20
-131.2088731225797
 10
117.291720890816
 20
-131.2088731225797
 10
117.4905029003149
 20
-131.149961989782
 10
117.520130721488
 20
-131.0145697372116
 10
117.520130721488
 20
-130.9150064776879
 10
117.520130721488
 20
-130.7658338431766
 10
117.4205674619643
 20
-130.6028808267243
 10
117.1880235167099
 20
-130.6028808267243
 10
116.9320529221559
 20
-130.6028808267243
 10
116.8624619933538
 20
-130.7951171548012
 10
116.8624619933538
 20
-130.9239637259496
 10
116.8624619933538
 20
-130.9580701712536
 10
116.8624619933538
 20
-131.109309863056
 10
116.9913085645022
 20
-131.2043944984489
 10
116.9913085645022
 20
-131.2043944984489
 10
116.9720160297848
 20
-131.392152202395
 10
116.9720160297848
 20
-131.392152202395
 10
116.9720160297848
 20
-131.392152202395
 10
116.1259005786074
 20
-131.2633056312467
 10
116.1259005786074
 20
-131.2633056312467
 10
116.1259005786074
 20
-131.2633056312467
 10
116.1259005786074
 20
-130.4313150715589
 10
116.1259005786074
 20
-130.4313150715589
 10
116.1259005786074
 20
-130.4313150715589
 10
116.3208929830726
 20
-130.4313150715589
 10
116.3208929830726
 20
-130.4313150715589
 10
116.3208929830726
 20
-130.4313150715589
 10
116.3208929830726
 20
-131.0893283092416
 10
116.3208929830726
 20
-131.0893283092416
 10
116.3208929830726
 20
-131.0893283092416
 10
116.7439507086612
 20
-131.1592637475921
 10
116.7439507086612
 20
-131.1592637475921
 10
116.7098442633573
 20
-131.0934624238239
 10
116.6695366461798
 20
-131.0052679794015
 10
116.6695366461798
 20
-130.8788329750928
 10
116.6695366461798
 20
-130.6077039604036
 10
116.8559163119319
 20
-130.3544894422378
 10
117.1690754915411
 20
-130.3544894422378
 10
117.4863687857326
 20
-130.3544894422378
 10
117.7209797882781
 20
-130.5939235784626
 10
117.7209797882781
 20
-130.9170735349791
 97
        0
 97
        0
 75
     2
 76
     1
 98
        0
  0
ENDBLK
  5
F0
330
ED
100
AcDbEntity
  8
0
100
AcDbBlockEnd
  0
BLOCK
  5
100
330
FE
100
AcDbEntity
  8
0
100
AcDbBlockBegin
  2
block 5
 70
     0
 10
0.0
 20
0.0
 30
0.0
  3
block 5
  1

  0
SPLINE
  5
102
330
FE
100
AcDbEntity
  8
_U+30EC_U+30A4_U+30E4_U+30FC 1
370
     0
100
AcDbSpline
210
0.0
220
0.0
230
1.0
 70
    11
 71
     3
 72
    62
 73
    58
 74
     0
 42
0.0000000001
 43
0.0000000001
 12
1.0
 22
0.0
 32
0.0
 13
1.0
 23
0.0
 33
0.0
 40
0.0
 40
0.0
 40
0.0
 40
0.0
 40
1.0
 40
1.0
 40
1.0
 40
2.0
 40
2.0
 40
2.0
 40
3.0
 40
3.0
 40
3.0
 40
4.0
 40
4.0
 40
4.0
 40
5.0
 40
5.0
 40
5.0
 40
6.0
 40
6.0
 40
6.0
 40
7.0
 40
7.0
 40
7.0
 40
8.0
 40
8.0
 40
8.0
 40
9.0
 40
9.0
 40
9.0
 40
10.0
 40
10.0
 40
10.0
 40
11.0
 40
11.0
 40
11.0
 40
12.0
 40
12.0
 40
12.0
 40
13.0
 40
13.0
 40
13.0
 40
14.0
 40
14.0
 40
14.0
 40
15.0
 40
15.0
 40
15.0
 40
16.0
 40
16.0
 40
16.0
 40
17.0
 40
17.0
 40
17.0
 40
18.0
 40
18.0
 40
18.0
 40
19.0
 40
19.0
 40
19.0
 40
19.0
 10
117.7223578264722
 20
-138.3347086242705
 30
0.0
 10
117.7223578264722
 20
-138.4363389410854
 30
0.0
 10
117.7013427440122
 20
-138.6692273958882
 30
0.0
 10
117.5153075878087
 20
-138.8025525911674
 30
0.0
 10
117.4029974749895
 20
-138.8817897873282
 30
0.0
 10
117.3037787250143
 20
-138.886268411459
 30
0.0
 10
117.2190293760772
 20
-138.8907470355898
 30
0.0
 10
117.2190293760772
 20
-138.8907470355898
 30
0.0
 10
117.2190293760772
 20
-138.6557915234958
 30
0.0
 10
117.2190293760772
 20
-138.6557915234958
 30
0.0
 10
117.2930989290101
 20
-138.6533799566561
 30
0.0
 10
117.5277099315556
 20
-138.6420111415548
 30
0.0
 10
117.5277099315556
 20
-138.3391872484013
 30
0.0
 10
117.5277099315556
 20
-138.1920816711811
 30
0.0
 10
117.4581190027535
 20
-138.0294731642774
 30
0.0
 10
117.2297091720815
 20
-138.0294731642774
 30
0.0
 10
117.11326494468
 20
-138.0294731642774
 30
0.0
 10
117.064689098338
 20
-138.0701252910033
 30
0.0
 10
117.0329942198737
 20
-138.1042317363073
 30
0.0
 10
116.9589246669408
 20
-138.1831244229195
 30
0.0
 10
116.9461778136454
 20
-138.307492369937
 30
0.0
 10
116.9461778136454
 20
-138.3664035027348
 30
0.0
 10
116.9461778136454
 20
-138.3867295660978
 30
0.0
 10
116.9482448709365
 20
-138.424970125984
 30
0.0
 10
116.9523789855188
 20
-138.4545979471572
 30
0.0
 10
116.9523789855188
 20
-138.4545979471572
 30
0.0
 10
116.7577310906022
 20
-138.4545979471572
 30
0.0
 10
116.7577310906022
 20
-138.4545979471572
 30
0.0
 10
116.7642767720242
 20
-138.4139458204313
 30
0.0
 10
116.7663438293154
 20
-138.3684705600259
 30
0.0
 10
116.7663438293154
 20
-138.361924878604
 30
0.0
 10
116.7663438293154
 20
-138.2916449307049
 30
0.0
 10
116.7449842373068
 20
-138.079082539265
 30
0.0
 10
116.5083061774701
 20
-138.079082539265
 30
0.0
 10
116.3305392504313
 20
-138.079082539265
 30
0.0
 10
116.2754177226673
 20
-138.2192979255146
 30
0.0
 10
116.2754177226673
 20
-138.3367756815616
 30
0.0
 10
116.2754177226673
 20
-138.6196180209006
 30
0.0
 10
116.5083061774701
 20
-138.6285752691623
 30
0.0
 10
116.5799641635633
 20
-138.6330538932931
 30
0.0
 10
116.5799641635633
 20
-138.6330538932931
 30
0.0
 10
116.5799641635633
 20
-138.8500949088639
 30
0.0
 10
116.5799641635633
 20
-138.8500949088639
 30
0.0
 10
116.4552517069973
 20
-138.8411376606022
 30
0.0
 10
116.0787027704595
 20
-138.8118543489776
 30
0.0
 10
116.0787027704595
 20
-138.3233398091692
 30
0.0
 10
116.0787027704595
 20
-138.0835611633958
 30
0.0
 10
116.2058267938652
 20
-137.8258680210991
 30
0.0
 10
116.5017604960482
 20
-137.8258680210991
 30
0.0
 10
116.6881401618002
 20
-137.8258680210991
 30
0.0
 10
116.7704779438977
 20
-137.9278428474625
 30
0.0
 10
116.8318006435351
 20
-138.0339517884082
 30
0.0
 10
116.8593614074171
 20
-137.9684949741884
 30
0.0
 10
116.9396321322234
 20
-137.7738470792718
 30
0.0
 10
117.216962318786
 20
-137.7738470792718
 30
0.0
 10
117.5552706954376
 20
-137.7738470792718
 30
0.0
 10
117.7223578264722
 20
-138.038430412539
 30
0.0
 10
117.7223578264722
 20
-138.3347086242705
 30
0.0
  0
HATCH
  5
103
330
FE
100
AcDbEntity
  8
_U+30EC_U+30A4_U+30E4_U+30FC 1
 62
   179
420
  2234388
100
AcDbHatch
 10
0.0
 20
0.0
 30
0.0
210
0.0
220
0.0
230
1.0
  2
SOLID
 70
     1
 71
     0
 91
        1
 92
        1
 93
        1
 72
     4
 94
        3
 73
     0
 74
     1
 95
       62
 96
       58
 40
0.0
 40
0.0
 40
0.0
 40
0.0
 40
1.0
 40
1.0
 40
1.0
 40
2.0
 40
2.0
 40
2.0
 40
3.0
 40
3.0
 40
3.0
 40
4.0
 40
4.0
 40
4.0
 40
5.0
 40
5.0
 40
5.0
 40
6.0
 40
6.0
 40
6.0
 40
7.0
 40
7.0
 40
7.0
 40
8.0
 40
8.0
 40
8.0
 40
9.0
 40
9.0
 40
9.0
 40
10.0
 40
10.0
 40
10.0
 40
11.0
 40
11.0
 40
11.0
 40
12.0
 40
12.0
 40
12.0
 40
13.0
 40
13.0
 40
13.0
 40
14.0
 40
14.0
 40
14.0
 40
15.0
 40
15.0
 40
15.0
 40
16.0
 40
16.0
 40
16.0
 40
17.0
 40
17.0
 40
17.0
 40
18.0
 40
18.0
 40
18.0
 40
19.0
 40
19.0
 40
19.0
 40
19.0
 10
117.7223578264722
 20
-138.3347086242705
 10
117.7223578264722
 20
-138.4363389410854
 10
117.7013427440122
 20
-138.6692273958882
 10
117.5153075878087
 20
-138.8025525911674
 10
117.4029974749895
 20
-138.8817897873282
 10
117.3037787250143
 20
-138.886268411459
 10
117.2190293760772
 20
-138.8907470355898
 10
117.2190293760772
 20
-138.8907470355898
 10
117.2190293760772
 20
-138.6557915234958
 10
117.2190293760772
 20
-138.6557915234958
 10
117.2930989290101
 20
-138.6533799566561
 10
117.5277099315556
 20
-138.6420111415548
 10
117.5277099315556
 20
-138.3391872484013
 10
117.5277099315556
 20
-138.1920816711811
 10
117.4581190027535
 20
-138.0294731642774
 10
117.2297091720815
 20
-138.0294731642774
 10
117.11326494468
 20
-138.0294731642774
 10
117.064689098338
 20
-138.0701252910033
 10
117.0329942198737
 20
-138.1042317363073
 10
116.9589246669408
 20
-138.1831244229195
 10
116.9461778136454
 20
-138.307492369937
 10
116.9461778136454
 20
-138.3664035027348
 10
116.9461778136454
 20
-138.3867295660978
 10
116.9482448709365
 20
-138.424970125984
 10
116.9523789855188
 20
-138.4545979471572
 10
116.9523789855188
 20
-138.4545979471572
 10
116.7577310906022
 20
-138.4545979471572
 10
116.7577310906022
 20
-138.4545979471572
 10
116.7642767720242
 20
-138.4139458204313
 10
116.7663438293154
 20
-138.3684705600259
 10
116.7663438293154
 20
-138.361924878604
 10
116.7663438293154
 20
-138.2916449307049
 10
116.7449842373068
 20
-138.079082539265
 10
116.5083061774701
 20
-138.079082539265
 10
116.3305392504313
 20
-138.079082539265
 10
116.2754177226673
 20
-138.2192979255146
 10
116.2754177226673
 20
-138.3367756815616
 10
116.2754177226673
 20
-138.6196180209006
 10
116.5083061774701
 20
-138.6285752691623
 10
116.5799641635633
 20
-138.6330538932931
 10
116.5799641635633
 20
-138.6330538932931
 10
116.5799641635633
 20
-138.8500949088639
 10
116.5799641635633
 20
-138.8500949088639
 10
116.4552517069973
 20
-138.8411376606022
 10
116.0787027704595
 20
-138.8118543489776
 10
116.0787027704595
 20
-138.3233398091692
 10
116.0787027704595
 20
-138.0835611633958
 10
116.2058267938652
 20
-137.8258680210991
 10
116.5017604960482
 20
-137.8258680210991
 10
116.6881401618002
 20
-137.8258680210991
 10
116.7704779438977
 20
-137.9278428474625
 10
116.8318006435351
 20
-138.0339517884082
 10
116.8593614074171
 20
-137.9684949741884
 10
116.9396321322234
 20
-137.7738470792718
 10
117.216962318786
 20
-137.7738470792718
 10
117.5552706954376
 20
-137.7738470792718
 10
117.7223578264722
 20
-138.038430412539
 10
117.7223578264722
 20
-138.3347086242705
 97
        0
 97
        0
 75
     2
 76
     1
 98
        0
  0
ENDBLK
  5
101
330
FE
100
AcDbEntity
  8
0
100
AcDbBlockEnd
  0
BLOCK
  5
106
330
104
100
AcDbEntity
  8
0
100
AcDbBlockBegin
  2
block 6
 70
     0
 10
0.0
 20
0.0
 30
0.0
  3
block 6
  1

  0
SPLINE
  5
108
330
104
100
AcDbEntity
  8
_U+30EC_U+30A4_U+30E4_U+30FC 1
370
     0
100
AcDbSpline
210
0.0
220
0.0
230
1.0
 70
    11
 71
     3
 72
    44
 73
    40
 74
     0
 42
0.0000000001
 43
0.0000000001
 12
1.0
 22
0.0
 32
0.0
 13
1.0
 23
0.0
 33
0.0
 40
0.0
 40
0.0
 40
0.0
 40
0.0
 40
1.0
 40
1.0
 40
1.0
 40
2.0
 40
2.0
 40
2.0
 40
3.0
 40
3.0
 40
3.0
 40
4.0
 40
4.0
 40
4.0
 40
5.0
 40
5.0
 40
5.0
 40
6.0
 40
6.0
 40
6.0
 40
7.0
 40
7.0
 40
7.0
 40
8.0
 40
8.0
 40
8.0
 40
9.0
 40
9.0
 40
9.0
 40
10.0
 40
10.0
 40
10.0
 40
11.0
 40
11.0
 40
11.0
 40
12.0
 40
12.0
 40
12.0
 40
13.0
 40
13.0
 40
13.0
 40
13.0
 10
65.20825058048614
 20
-130.3975531358034
 30
0.0
 10
65.36706948235616
 20
-130.6304415906063
 30
0.0
 10
65.44113903528903
 20
-130.73000485013
 30
0.0
 10
65.58479951702394
 20
-130.7820257919573
 30
0.0
 10
65.58479951702394
 20
-130.7820257919573
 30
0.0
 10
65.58479951702394
 20
-129.9496907227209
 30
0.0
 10
65.58479951702394
 20
-129.9496907227209
 30
0.0
 10
65.58479951702394
 20
-129.9496907227209
 30
0.0
 10
65.79012720794483
 20
-129.9496907227209
 30
0.0
 10
65.79012720794483
 20
-129.9496907227209
 30
0.0
 10
65.79012720794483
 20
-129.9496907227209
 30
0.0
 10
65.79012720794483
 20
-131.0486761825156
 30
0.0
 10
65.79012720794483
 20
-131.0486761825156
 30
0.0
 10
65.4325262965759
 20
-131.0145697372116
 30
0.0
 10
65.35432262906073
 20
-130.9446342988611
 30
0.0
 10
65.05597736003809
 20
-130.5332898979222
 30
0.0
 10
64.85719535053917
 20
-130.2597493163934
 30
0.0
 10
64.78932696947976
 20
-130.1894693684943
 30
0.0
 10
64.65186765961829
 20
-130.1894693684943
 30
0.0
 10
64.53335637492569
 20
-130.1894693684943
 30
0.0
 10
64.4024427464862
 20
-130.2662949978154
 30
0.0
 10
64.4024427464862
 20
-130.4767903319641
 30
0.0
 10
64.4024427464862
 20
-130.7548095376238
 30
0.0
 10
64.63291963444941
 20
-130.7637667858855
 30
0.0
 10
64.74936386185085
 20
-130.7682454100163
 30
0.0
 10
64.74936386185085
 20
-130.7682454100163
 30
0.0
 10
64.74936386185085
 20
-131.0080240557897
 30
0.0
 10
64.74936386185085
 20
-131.0080240557897
 30
0.0
 10
64.62223983844514
 20
-130.999066807528
 30
0.0
 10
64.51027423517452
 20
-130.9876979924267
 30
0.0
 10
64.39176295048192
 20
-130.9015706052954
 30
0.0
 10
64.23087699132076
 20
-130.7840928492484
 30
0.0
 10
64.1971150555653
 20
-130.5853108397495
 30
0.0
 10
64.1971150555653
 20
-130.460942892732
 30
0.0
 10
64.1971150555653
 20
-130.1646646810005
 30
0.0
 10
64.38108315447765
 20
-129.9431450412989
 30
0.0
 10
64.65393471690943
 20
-129.9431450412989
 30
0.0
 10
64.88268905713002
 20
-129.9431450412989
 30
0.0
 10
64.98190780710522
 20
-130.0675129883165
 30
0.0
 10
65.20825058048614
 20
-130.3975531358034
 30
0.0
  0
HATCH
  5
109
330
104
100
AcDbEntity
  8
_U+30EC_U+30A4_U+30E4_U+30FC 1
 62
   179
420
  2234388
100
AcDbHatch
 10
0.0
 20
0.0
 30
0.0
210
0.0
220
0.0
230
1.0
  2
SOLID
 70
     1
 71
     0
 91
        1
 92
        1
 93
        1
 72
     4
 94
        3
 73
     0
 74
     1
 95
       44
 96
       40
 40
0.0
 40
0.0
 40
0.0
 40
0.0
 40
1.0
 40
1.0
 40
1.0
 40
2.0
 40
2.0
 40
2.0
 40
3.0
 40
3.0
 40
3.0
 40
4.0
 40
4.0
 40
4.0
 40
5.0
 40
5.0
 40
5.0
 40
6.0
 40
6.0
 40
6.0
 40
7.0
 40
7.0
 40
7.0
 40
8.0
 40
8.0
 40
8.0
 40
9.0
 40
9.0
 40
9.0
 40
10.0
 40
10.0
 40
10.0
 40
11.0
 40
11.0
 40
11.0
 40
12.0
 40
12.0
 40
12.0
 40
13.0
 40
13.0
 40
13.0
 40
13.0
 10
65.20825058048614
 20
-130.3975531358034
 10
65.36706948235616
 20
-130.6304415906063
 10
65.44113903528903
 20
-130.73000485013
 10
65.58479951702394
 20
-130.7820257919573
 10
65.58479951702394
 20
-130.7820257919573
 10
65.58479951702394
 20
-129.9496907227209
 10
65.58479951702394
 20
-129.9496907227209
 10
65.58479951702394
 20
-129.9496907227209
 10
65.79012720794483
 20
-129.9496907227209
 10
65.79012720794483
 20
-129.9496907227209
 10
65.79012720794483
 20
-129.9496907227209
 10
65.79012720794483
 20
-131.0486761825156
 10
65.79012720794483
 20
-131.0486761825156
 10
65.4325262965759
 20
-131.0145697372116
 10
65.35432262906073
 20
-130.9446342988611
 10
65.05597736003809
 20
-130.5332898979222
 10
64.85719535053917
 20
-130.2597493163934
 10
64.78932696947976
 20
-130.1894693684943
 10
64.65186765961829
 20
-130.1894693684943
 10
64.53335637492569
 20
-130.1894693684943
 10
64.4024427464862
 20
-130.2662949978154
 10
64.4024427464862
 20
-130.4767903319641
 10
64.4024427464862
 20
-130.7548095376238
 10
64.63291963444941
 20
-130.7637667858855
 10
64.74936386185085
 20
-130.7682454100163
 10
64.74936386185085
 20
-130.7682454100163
 10
64.74936386185085
 20
-131.0080240557897
 10
64.74936386185085
 20
-131.0080240557897
 10
64.62223983844514
 20
-130.999066807528
 10
64.51027423517452
 20
-130.9876979924267
 10
64.39176295048192
 20
-130.9015706052954
 10
64.23087699132076
 20
-130.7840928492484
 10
64.1971150555653
 20
-130.5853108397495
 10
64.1971150555653
 20
-130.460942892732
 10
64.1971150555653
 20
-130.1646646810005
 10
64.38108315447765
 20
-129.9431450412989
 10
64.65393471690943
 20
-129.9431450412989
 10
64.88268905713002
 20
-129.9431450412989
 10
64.98190780710522
 20
-130.0675129883165
 10
65.20825058048614
 20
-130.3975531358034
 97
        0
 97
        0
 75
     2
 76
     1
 98
        0
  0
SPLINE
  5
10A
330
104
100
AcDbEntity
  8
_U+30EC_U+30A4_U+30E4_U+30FC 1
370
     0
100
AcDbSpline
210
0.0
220
0.0
230
1.0
 70
    11
 71
     3
 72
    29
 73
    25
 74
     0
 42
0.0000000001
 43
0.0000000001
 12
1.0
 22
0.0
 32
0.0
 13
1.0
 23
0.0
 33
0.0
 40
0.0
 40
0.0
 40
0.0
 40
0.0
 40
1.0
 40
1.0
 40
1.0
 40
2.0
 40
2.0
 40
2.0
 40
3.0
 40
3.0
 40
3.0
 40
4.0
 40
4.0
 40
4.0
 40
5.0
 40
5.0
 40
5.0
 40
6.0
 40
6.0
 40
6.0
 40
7.0
 40
7.0
 40
7.0
 40
8.0
 40
8.0
 40
8.0
 40
8.0
 10
65.61236028090595
 20
-128.8141872507826
 30
0.0
 10
65.82182208640913
 20
-128.9295979495384
 30
0.0
 10
65.84077011157801
 20
-129.1149440866449
 30
0.0
 10
65.84077011157801
 20
-129.2393120336624
 30
0.0
 10
65.84077011157801
 20
-129.4108777888278
 30
0.0
 10
65.79426132252713
 20
-129.5624619901788
 30
0.0
 10
65.61236028090595
 20
-129.6640923069937
 30
0.0
 10
65.41771238598932
 20
-129.7750243816187
 30
0.0
 10
65.18068981660413
 20
-129.7953504449817
 30
0.0
 10
65.01808130970035
 20
-129.7953504449817
 30
0.0
 10
64.8740763184169
 20
-129.7953504449817
 30
0.0
 10
64.62223983844514
 20
-129.7774359484584
 30
0.0
 10
64.42345782894623
 20
-129.6640923069937
 30
0.0
 10
64.22054170486501
 20
-129.5490261177864
 30
0.0
 10
64.1971150555653
 20
-129.3771158530724
 30
0.0
 10
64.1971150555653
 20
-129.2393120336624
 30
0.0
 10
64.1971150555653
 20
-129.0694688262396
 30
0.0
 10
64.24155678732502
 20
-128.9158175675974
 30
0.0
 10
64.42345782894623
 20
-128.8141872507826
 30
0.0
 10
64.61603866657168
 20
-128.7077338002883
 30
0.0
 10
64.84444849724375
 20
-128.6829291127945
 30
0.0
 10
65.01808130970035
 20
-128.6829291127945
 30
0.0
 10
65.18930255531725
 20
-128.6829291127945
 30
0.0
 10
65.41977944328048
 20
-128.7056667429972
 30
0.0
 10
65.61236028090595
 20
-128.8141872507826
 30
0.0
  0
SPLINE
  5
10B
330
104
100
AcDbEntity
  8
_U+30EC_U+30A4_U+30E4_U+30FC 1
370
     0
100
AcDbSpline
210
0.0
220
0.0
230
1.0
 70
    11
 71
     3
 72
    17
 73
    13
 74
     0
 42
0.0000000001
 43
0.0000000001
 12
1.0
 22
0.0
 32
0.0
 13
1.0
 23
0.0
 33
0.0
 40
0.0
 40
0.0
 40
0.0
 40
0.0
 40
1.0
 40
1.0
 40
1.0
 40
2.0
 40
2.0
 40
2.0
 40
3.0
 40
3.0
 40
3.0
 40
4.0
 40
4.0
 40
4.0
 40
4.0
 10
64.38969589319078
 20
-129.2393120336624
 30
0.0
 10
64.38969589319078
 20
-129.5059624242207
 30
0.0
 10
64.67322725162684
 20
-129.5555717992083
 30
0.0
 10
65.01808130970035
 20
-129.5555717992083
 30
0.0
 10
65.33744166118301
 20
-129.5555717992083
 30
0.0
 10
65.64612221666138
 20
-129.5173312393221
 30
0.0
 10
65.64612221666138
 20
-129.2393120336624
 30
0.0
 10
65.64612221666138
 20
-128.9747287003952
 30
0.0
 10
65.365002425065
 20
-128.922707758568
 30
0.0
 10
65.01808130970035
 20
-128.922707758568
 30
0.0
 10
64.69837644866917
 20
-128.922707758568
 30
0.0
 10
64.38969589319078
 20
-128.9633598852939
 30
0.0
 10
64.38969589319078
 20
-129.2393120336624
 30
0.0
  0
HATCH
  5
10C
330
104
100
AcDbEntity
  8
_U+30EC_U+30A4_U+30E4_U+30FC 1
 62
   179
420
  2234388
100
AcDbHatch
 10
0.0
 20
0.0
 30
0.0
210
0.0
220
0.0
230
1.0
  2
SOLID
 70
     1
 71
     0
 91
        2
 92
        1
 93
        1
 72
     4
 94
        3
 73
     0
 74
     1
 95
       29
 96
       25
 40
0.0
 40
0.0
 40
0.0
 40
0.0
 40
1.0
 40
1.0
 40
1.0
 40
2.0
 40
2.0
 40
2.0
 40
3.0
 40
3.0
 40
3.0
 40
4.0
 40
4.0
 40
4.0
 40
5.0
 40
5.0
 40
5.0
 40
6.0
 40
6.0
 40
6.0
 40
7.0
 40
7.0
 40
7.0
 40
8.0
 40
8.0
 40
8.0
 40
8.0
 10
65.61236028090595
 20
-128.8141872507826
 10
65.82182208640913
 20
-128.9295979495384
 10
65.84077011157801
 20
-129.1149440866449
 10
65.84077011157801
 20
-129.2393120336624
 10
65.84077011157801
 20
-129.4108777888278
 10
65.79426132252713
 20
-129.5624619901788
 10
65.61236028090595
 20
-129.6640923069937
 10
65.41771238598932
 20
-129.7750243816187
 10
65.18068981660413
 20
-129.7953504449817
 10
65.01808130970035
 20
-129.7953504449817
 10
64.8740763184169
 20
-129.7953504449817
 10
64.62223983844514
 20
-129.7774359484584
 10
64.42345782894623
 20
-129.6640923069937
 10
64.22054170486501
 20
-129.5490261177864
 10
64.1971150555653
 20
-129.3771158530724
 10
64.1971150555653
 20
-129.2393120336624
 10
64.1971150555653
 20
-129.0694688262396
 10
64.24155678732502
 20
-128.9158175675974
 10
64.42345782894623
 20
-128.8141872507826
 10
64.61603866657168
 20
-128.7077338002883
 10
64.84444849724375
 20
-128.6829291127945
 10
65.01808130970035
 20
-128.6829291127945
 10
65.18930255531725
 20
-128.6829291127945
 10
65.41977944328048
 20
-128.7056667429972
 10
65.61236028090595
 20
-128.8141872507826
 97
        0
 97
        0
 92
        1
 93
        1
 72
     4
 94
        3
 73
     0
 74
     1
 95
       17
 96
       13
 40
0.0
 40
0.0
 40
0.0
 40
0.0
 40
1.0
 40
1.0
 40
1.0
 40
2.0
 40
2.0
 40
2.0
 40
3.0
 40
3.0
 40
3.0
 40
4.0
 40
4.0
 40
4.0
 40
4.0
 10
64.38969589319078
 20
-129.2393120336624
 10
64.38969589319078
 20
-129.5059624242207
 10
64.67322725162684
 20
-129.5555717992083
 10
65.01808130970035
 20
-129.5555717992083
 10
65.33744166118301
 20
-129.5555717992083
 10
65.64612221666138
 20
-129.5173312393221
 10
65.64612221666138
 20
-129.2393120336624
 10
65.64612221666138
 20
-128.9747287003952
 10
65.365002425065
 20
-128.922707758568
 10
65.01808130970035
 20
-128.922707758568
 10
64.69837644866917
 20
-128.922707758568
 10
64.38969589319078
 20
-128.9633598852939
 10
64.38969589319078
 20
-129.2393120336624
 97
        0
 97
        0
 75
     2
 76
     1
 98
        0
  0
ENDBLK
  5
107
330
104
100
AcDbEntity
  8
0
100
AcDbBlockEnd
  0
BLOCK
  5
10F
330
10D
100
AcDbEntity
  8
0
100
AcDbBlockBegin
  2
block 7
 70
     0
 10
0.0
 20
0.0
 30
0.0
  3
block 7
  1

  0
SPLINE
  5
111
330
10D
100
AcDbEntity
  8
_U+30EC_U+30A4_U+30E4_U+30FC 1
370
     0
100
AcDbSpline
210
0.0
220
0.0
230
1.0
 70
    11
 71
     3
 72
    53
 73
    49
 74
     0
 42
0.0000000001
 43
0.0000000001
 12
1.0
 22
0.0
 32
0.0
 13
1.0
 23
0.0
 33
0.0
 40
0.0
 40
0.0
 40
0.0
 40
0.0
 40
1.0
 40
1.0
 40
1.0
 40
2.0
 40
2.0
 40
2.0
 40
3.0
 40
3.0
 40
3.0
 40
4.0
 40
4.0
 40
4.0
 40
5.0
 40
5.0
 40
5.0
 40
6.0
 40
6.0
 40
6.0
 40
7.0
 40
7.0
 40
7.0
 40
8.0
 40
8.0
 40
8.0
 40
9.0
 40
9.0
 40
9.0
 40
10.0
 40
10.0
 40
10.0
 40
11.0
 40
11.0
 40
11.0
 40
12.0
 40
12.0
 40
12.0
 40
13.0
 40
13.0
 40
13.0
 40
14.0
 40
14.0
 40
14.0
 40
15.0
 40
15.0
 40
15.0
 40
16.0
 40
16.0
 40
16.0
 40
16.0
 10
73.69369301543075
 20
-146.40208872208
 30
0.0
 10
73.60997719513918
 20
-146.40208872208
 30
0.0
 10
73.50180119690233
 20
-146.3848632446538
 30
0.0
 10
73.39293617956844
 20
-146.3214734877252
 30
0.0
 10
73.207590042462
 20
-146.2112304321972
 30
0.0
 10
73.18519692180787
 20
-146.0803168037577
 30
0.0
 10
73.1648708584449
 20
-145.9724853150694
 30
0.0
 10
73.1648708584449
 20
-145.9724853150694
 30
0.0
 10
73.40223793737862
 20
-145.9724853150694
 30
0.0
 10
73.40223793737862
 20
-145.9724853150694
 30
0.0
 10
73.46080456062786
 20
-146.1712673245683
 30
0.0
 10
73.5965413227467
 20
-146.2008951457414
 30
0.0
 10
73.69610458227042
 20
-146.2008951457414
 30
0.0
 10
73.84527721678174
 20
-146.2008951457414
 30
0.0
 10
74.00823023323406
 20
-146.1016763957662
 30
0.0
 10
74.00823023323406
 20
-145.8687879409634
 30
0.0
 10
74.00823023323406
 20
-145.6128173464093
 30
0.0
 10
73.81599390515711
 20
-145.5428819080587
 30
0.0
 10
73.68714733400877
 20
-145.5428819080587
 30
0.0
 10
73.6530408887048
 20
-145.5428819080587
 30
0.0
 10
73.50180119690233
 20
-145.5428819080587
 30
0.0
 10
73.40671656150944
 20
-145.6720729887556
 30
0.0
 10
73.40671656150944
 20
-145.6720729887556
 30
0.0
 10
73.21895885756332
 20
-145.6531249635867
 30
0.0
 10
73.21895885756332
 20
-145.6531249635867
 30
0.0
 10
73.21895885756332
 20
-145.6531249635867
 30
0.0
 10
73.34780542871167
 20
-144.8070095124094
 30
0.0
 10
73.34780542871167
 20
-144.8070095124094
 30
0.0
 10
73.34780542871167
 20
-144.8070095124094
 30
0.0
 10
74.1797959883995
 20
-144.8070095124094
 30
0.0
 10
74.1797959883995
 20
-144.8070095124094
 30
0.0
 10
74.1797959883995
 20
-144.8070095124094
 30
0.0
 10
74.1797959883995
 20
-145.0013128977775
 30
0.0
 10
74.1797959883995
 20
-145.0013128977775
 30
0.0
 10
74.1797959883995
 20
-145.0013128977775
 30
0.0
 10
73.52212726026531
 20
-145.0013128977775
 30
0.0
 10
73.52212726026531
 20
-145.0013128977775
 30
0.0
 10
73.52212726026531
 20
-145.0013128977775
 30
0.0
 10
73.45184731236621
 20
-145.4243706233661
 30
0.0
 10
73.45184731236621
 20
-145.4243706233661
 30
0.0
 10
73.51730412658596
 20
-145.3906086876107
 30
0.0
 10
73.60549857100835
 20
-145.3506455799818
 30
0.0
 10
73.73227808486554
 20
-145.3506455799818
 30
0.0
 10
74.0034070995547
 20
-145.3506455799818
 30
0.0
 10
74.25662161772057
 20
-145.5366807361853
 30
0.0
 10
74.25662161772057
 20
-145.849495406246
 30
0.0
 10
74.25662161772057
 20
-146.167133209986
 30
0.0
 10
74.01718748149571
 20
-146.40208872208
 30
0.0
 10
73.69369301543075
 20
-146.40208872208
 30
0.0
  0
HATCH
  5
112
330
10D
100
AcDbEntity
  8
_U+30EC_U+30A4_U+30E4_U+30FC 1
 62
   179
420
  2234388
100
AcDbHatch
 10
0.0
 20
0.0
 30
0.0
210
0.0
220
0.0
230
1.0
  2
SOLID
 70
     1
 71
     0
 91
        1
 92
        1
 93
        1
 72
     4
 94
        3
 73
     0
 74
     1
 95
       53
 96
       49
 40
0.0
 40
0.0
 40
0.0
 40
0.0
 40
1.0
 40
1.0
 40
1.0
 40
2.0
 40
2.0
 40
2.0
 40
3.0
 40
3.0
 40
3.0
 40
4.0
 40
4.0
 40
4.0
 40
5.0
 40
5.0
 40
5.0
 40
6.0
 40
6.0
 40
6.0
 40
7.0
 40
7.0
 40
7.0
 40
8.0
 40
8.0
 40
8.0
 40
9.0
 40
9.0
 40
9.0
 40
10.0
 40
10.0
 40
10.0
 40
11.0
 40
11.0
 40
11.0
 40
12.0
 40
12.0
 40
12.0
 40
13.0
 40
13.0
 40
13.0
 40
14.0
 40
14.0
 40
14.0
 40
15.0
 40
15.0
 40
15.0
 40
16.0
 40
16.0
 40
16.0
 40
16.0
 10
73.69369301543075
 20
-146.40208872208
 10
73.60997719513918
 20
-146.40208872208
 10
73.50180119690233
 20
-146.3848632446538
 10
73.39293617956844
 20
-146.3214734877252
 10
73.207590042462
 20
-146.2112304321972
 10
73.18519692180787
 20
-146.0803168037577
 10
73.1648708584449
 20
-145.9724853150694
 10
73.1648708584449
 20
-145.9724853150694
 10
73.40223793737862
 20
-145.9724853150694
 10
73.40223793737862
 20
-145.9724853150694
 10
73.46080456062786
 20
-146.1712673245683
 10
73.5965413227467
 20
-146.2008951457414
 10
73.69610458227042
 20
-146.2008951457414
 10
73.84527721678174
 20
-146.2008951457414
 10
74.00823023323406
 20
-146.1016763957662
 10
74.00823023323406
 20
-145.8687879409634
 10
74.00823023323406
 20
-145.6128173464093
 10
73.81599390515711
 20
-145.5428819080587
 10
73.68714733400877
 20
-145.5428819080587
 10
73.6530408887048
 20
-145.5428819080587
 10
73.50180119690233
 20
-145.5428819080587
 10
73.40671656150944
 20
-145.6720729887556
 10
73.40671656150944
 20
-145.6720729887556
 10
73.21895885756332
 20
-145.6531249635867
 10
73.21895885756332
 20
-145.6531249635867
 10
73.21895885756332
 20
-145.6531249635867
 10
73.34780542871167
 20
-144.8070095124094
 10
73.34780542871167
 20
-144.8070095124094
 10
73.34780542871167
 20
-144.8070095124094
 10
74.1797959883995
 20
-144.8070095124094
 10
74.1797959883995
 20
-144.8070095124094
 10
74.1797959883995
 20
-144.8070095124094
 10
74.1797959883995
 20
-145.0013128977775
 10
74.1797959883995
 20
-145.0013128977775
 10
74.1797959883995
 20
-145.0013128977775
 10
73.52212726026531
 20
-145.0013128977775
 10
73.52212726026531
 20
-145.0013128977775
 10
73.52212726026531
 20
-145.0013128977775
 10
73.45184731236621
 20
-145.4243706233661
 10
73.45184731236621
 20
-145.4243706233661
 10
73.51730412658596
 20
-145.3906086876107
 10
73.60549857100835
 20
-145.3506455799818
 10
73.73227808486554
 20
-145.3506455799818
 10
74.0034070995547
 20
-145.3506455799818
 10
74.25662161772057
 20
-145.5366807361853
 10
74.25662161772057
 20
-145.849495406246
 10
74.25662161772057
 20
-146.167133209986
 10
74.01718748149571
 20
-146.40208872208
 10
73.69369301543075
 20
-146.40208872208
 97
        0
 97
        0
 75
     2
 76
     1
 98
        0
  0
ENDBLK
  5
110
330
10D
100
AcDbEntity
  8
0
100
AcDbBlockEnd
  0
BLOCK
  5
115
330
113
100
AcDbEntity
  8
0
100
AcDbBlockBegin
  2
block 8
 70
     0
 10
0.0
 20
0.0
 30
0.0
  3
block 8
  1

  0
POLYLINE
  5
117
330
113
100
AcDbEntity
  8
_U+30EC_U+30A4_U+30E4_U+30FC 1
370
     0
100
AcDb2dPolyline
 66
     1
 10
0.0
 20
0.0
 30
0.0
  0
VERTEX
  5
118
330
117
100
AcDbEntity
  8
_U+30EC_U+30A4_U+30E4_U+30FC 1
370
     0
100
AcDbVertex
100
AcDb2dVertex
 10
90.93880748594586
 20
-114.3861273585563
 30
0.0
  0
VERTEX
  5
119
330
117
100
AcDbEntity
  8
_U+30EC_U+30A4_U+30E4_U+30FC 1
370
     0
100
AcDbVertex
100
AcDb2dVertex
 10
90.93880748594586
 20
-114.7330484739209
 30
0.0
  0
VERTEX
  5
11A
330
117
100
AcDbEntity
  8
_U+30EC_U+30A4_U+30E4_U+30FC 1
370
     0
100
AcDbVertex
100
AcDb2dVertex
 10
90.70591903114297
 20
-114.7330484739209
 30
0.0
  0
VERTEX
  5
11B
330
117
100
AcDbEntity
  8
_U+30EC_U+30A4_U+30E4_U+30FC 1
370
     0
100
AcDbVertex
100
AcDb2dVertex
 10
90.70591903114297
 20
-114.3861273585563
 30
0.0
  0
VERTEX
  5
11C
330
117
100
AcDbEntity
  8
_U+30EC_U+30A4_U+30E4_U+30FC 1
370
     0
100
AcDbVertex
100
AcDb2dVertex
 10
90.00484209989463
 20
-114.3861273585563
 30
0.0
  0
VERTEX
  5
11D
330
117
100
AcDbEntity
  8
_U+30EC_U+30A4_U+30E4_U+30FC 1
370
     0
100
AcDbVertex
100
AcDb2dVertex
 10
90.00484209989463
 20
-114.1618516424665
 30
0.0
  0
VERTEX
  5
11E
330
117
100
AcDbEntity
  8
_U+30EC_U+30A4_U+30E4_U+30FC 1
370
     0
100
AcDbVertex
100
AcDb2dVertex
 10
90.73072371863677
 20
-113.1886121678834
 30
0.0
  0
VERTEX
  5
11F
330
117
100
AcDbEntity
  8
_U+30EC_U+30A4_U+30E4_U+30FC 1
370
     0
100
AcDbVertex
100
AcDb2dVertex
 10
90.93880748594586
 20
-113.1886121678834
 30
0.0
  0
VERTEX
  5
120
330
117
100
AcDbEntity
  8
_U+30EC_U+30A4_U+30E4_U+30FC 1
370
     0
100
AcDbVertex
100
AcDb2dVertex
 10
90.93880748594586
 20
-114.1873453490573
 30
0.0
  0
VERTEX
  5
121
330
117
100
AcDbEntity
  8
_U+30EC_U+30A4_U+30E4_U+30FC 1
370
     0
100
AcDbVertex
100
AcDb2dVertex
 10
91.16032712564743
 20
-114.1873453490573
 30
0.0
  0
VERTEX
  5
122
330
117
100
AcDbEntity
  8
_U+30EC_U+30A4_U+30E4_U+30FC 1
370
     0
100
AcDbVertex
100
AcDb2dVertex
 10
91.16032712564743
 20
-114.3861273585563
 30
0.0
  0
VERTEX
  5
123
330
117
100
AcDbEntity
  8
_U+30EC_U+30A4_U+30E4_U+30FC 1
370
     0
100
AcDbVertex
100
AcDb2dVertex
 10
90.93880748594586
 20
-114.3861273585563
 30
0.0
  0
SEQEND
  5
124
330
117
100
AcDbEntity
  8
_U+30EC_U+30A4_U+30E4_U+30FC 1
370
     0
  0
POLYLINE
  5
125
330
113
100
AcDbEntity
  8
_U+30EC_U+30A4_U+30E4_U+30FC 1
370
     0
100
AcDb2dPolyline
 66
     1
 10
0.0
 20
0.0
 30
0.0
  0
VERTEX
  5
126
330
125
100
AcDbEntity
  8
_U+30EC_U+30A4_U+30E4_U+30FC 1
370
     0
100
AcDbVertex
100
AcDb2dVertex
 10
90.70591903114297
 20
-113.5313991686658
 30
0.0
  0
VERTEX
  5
127
330
125
100
AcDbEntity
  8
_U+30EC_U+30A4_U+30E4_U+30FC 1
370
     0
100
AcDbVertex
100
AcDb2dVertex
 10
90.21740449133455
 20
-114.1873453490573
 30
0.0
  0
VERTEX
  5
128
330
125
100
AcDbEntity
  8
_U+30EC_U+30A4_U+30E4_U+30FC 1
370
     0
100
AcDbVertex
100
AcDb2dVertex
 10
90.70591903114297
 20
-114.1873453490573
 30
0.0
  0
VERTEX
  5
129
330
125
100
AcDbEntity
  8
_U+30EC_U+30A4_U+30E4_U+30FC 1
370
     0
100
AcDbVertex
100
AcDb2dVertex
 10
90.70591903114297
 20
-113.5313991686658
 30
0.0
  0
SEQEND
  5
12A
330
125
100
AcDbEntity
  8
_U+30EC_U+30A4_U+30E4_U+30FC 1
370
     0
  0
HATCH
  5
12B
330
113
100
AcDbEntity
  8
_U+30EC_U+30A4_U+30E4_U+30FC 1
 62
   179
420
  2234388
100
AcDbHatch
 10
0.0
 20
0.0
 30
0.0
210
0.0
220
0.0
230
1.0
  2
SOLID
 70
     1
 71
     0
 91
        2
 92
        1
 93
       11
 72
     1
 10
90.93880748594586
 20
-114.3861273585563
 11
90.93880748594586
 21
-114.7330484739209
 72
     1
 10
90.93880748594586
 20
-114.7330484739209
 11
90.70591903114297
 21
-114.7330484739209
 72
     1
 10
90.70591903114297
 20
-114.7330484739209
 11
90.70591903114297
 21
-114.3861273585563
 72
     1
 10
90.70591903114297
 20
-114.3861273585563
 11
90.00484209989463
 21
-114.3861273585563
 72
     1
 10
90.00484209989463
 20
-114.3861273585563
 11
90.00484209989463
 21
-114.1618516424665
 72
     1
 10
90.00484209989463
 20
-114.1618516424665
 11
90.73072371863677
 21
-113.1886121678834
 72
     1
 10
90.73072371863677
 20
-113.1886121678834
 11
90.93880748594586
 21
-113.1886121678834
 72
     1
 10
90.93880748594586
 20
-113.1886121678834
 11
90.93880748594586
 21
-114.1873453490573
 72
     1
 10
90.93880748594586
 20
-114.1873453490573
 11
91.16032712564743
 21
-114.1873453490573
 72
     1
 10
91.16032712564743
 20
-114.1873453490573
 11
91.16032712564743
 21
-114.3861273585563
 72
     1
 10
91.16032712564743
 20
-114.3861273585563
 11
90.93880748594586
 21
-114.3861273585563
 97
        0
 92
        1
 93
        3
 72
     1
 10
90.70591903114297
 20
-113.5313991686658
 11
90.21740449133455
 21
-114.1873453490573
 72
     1
 10
90.21740449133455
 20
-114.1873453490573
 11
90.70591903114297
 21
-114.1873453490573
 72
     1
 10
90.70591903114297
 20
-114.1873453490573
 11
90.70591903114297
 21
-113.5313991686658
 97
        0
 75
     2
 76
     1
 98
        0
  0
SPLINE
  5
12C
330
113
100
AcDbEntity
  8
_U+30EC_U+30A4_U+30E4_U+30FC 1
370
     0
100
AcDbSpline
210
0.0
220
0.0
230
1.0
 70
    11
 71
     3
 72
    29
 73
    25
 74
     0
 42
0.0000000001
 43
0.0000000001
 12
1.0
 22
0.0
 32
0.0
 13
1.0
 23
0.0
 33
0.0
 40
0.0
 40
0.0
 40
0.0
 40
0.0
 40
1.0
 40
1.0
 40
1.0
 40
2.0
 40
2.0
 40
2.0
 40
3.0
 40
3.0
 40
3.0
 40
4.0
 40
4.0
 40
4.0
 40
5.0
 40
5.0
 40
5.0
 40
6.0
 40
6.0
 40
6.0
 40
7.0
 40
7.0
 40
7.0
 40
8.0
 40
8.0
 40
8.0
 40
8.0
 10
92.26654728596114
 20
-114.555281546882
 30
0.0
 10
92.15113658720527
 20
-114.7647433523852
 30
0.0
 10
91.96579045009884
 20
-114.7836913775541
 30
0.0
 10
91.84142250308132
 20
-114.7836913775541
 30
0.0
 10
91.66985674791587
 20
-114.7836913775541
 30
0.0
 10
91.51827254656489
 20
-114.7371825885032
 30
0.0
 10
91.41664222975001
 20
-114.555281546882
 30
0.0
 10
91.30571015512497
 20
-114.3606336519654
 30
0.0
 10
91.285384091762
 20
-114.1236110825802
 30
0.0
 10
91.285384091762
 20
-113.9610025756764
 30
0.0
 10
91.285384091762
 20
-113.816997584393
 30
0.0
 10
91.30329858828529
 20
-113.5651611044212
 30
0.0
 10
91.41664222975001
 20
-113.3663790949223
 30
0.0
 10
91.53170841895735
 20
-113.1634629708411
 30
0.0
 10
91.70361868367132
 20
-113.1400363215414
 30
0.0
 10
91.84142250308132
 20
-113.1400363215414
 30
0.0
 10
92.01126571050413
 20
-113.1400363215414
 30
0.0
 10
92.16491696914628
 20
-113.1844780533011
 30
0.0
 10
92.26654728596114
 20
-113.3663790949223
 30
0.0
 10
92.37300073645537
 20
-113.5589599325478
 30
0.0
 10
92.39780542394917
 20
-113.7873697632198
 30
0.0
 10
92.39780542394917
 20
-113.9610025756764
 30
0.0
 10
92.39780542394917
 20
-114.1322238212933
 30
0.0
 10
92.37506779374651
 20
-114.3627007092566
 30
0.0
 10
92.26654728596114
 20
-114.555281546882
 30
0.0
  0
SPLINE
  5
12D
330
113
100
AcDbEntity
  8
_U+30EC_U+30A4_U+30E4_U+30FC 1
370
     0
100
AcDbSpline
210
0.0
220
0.0
230
1.0
 70
    11
 71
     3
 72
    17
 73
    13
 74
     0
 42
0.0000000001
 43
0.0000000001
 12
1.0
 22
0.0
 32
0.0
 13
1.0
 23
0.0
 33
0.0
 40
0.0
 40
0.0
 40
0.0
 40
0.0
 40
1.0
 40
1.0
 40
1.0
 40
2.0
 40
2.0
 40
2.0
 40
3.0
 40
3.0
 40
3.0
 40
4.0
 40
4.0
 40
4.0
 40
4.0
 10
91.84142250308132
 20
-113.3326171591668
 30
0.0
 10
91.57477211252298
 20
-113.3326171591668
 30
0.0
 10
91.52516273753538
 20
-113.6161485176029
 30
0.0
 10
91.52516273753538
 20
-113.9610025756764
 30
0.0
 10
91.52516273753538
 20
-114.2803629271591
 30
0.0
 10
91.56340329742166
 20
-114.5890434826375
 30
0.0
 10
91.84142250308132
 20
-114.5890434826375
 30
0.0
 10
92.1060058363485
 20
-114.5890434826375
 30
0.0
 10
92.15802677817578
 20
-114.3079236910411
 30
0.0
 10
92.15802677817578
 20
-113.9610025756764
 30
0.0
 10
92.15802677817578
 20
-113.6412977146452
 30
0.0
 10
92.11737465144982
 20
-113.3326171591668
 30
0.0
 10
91.84142250308132
 20
-113.3326171591668
 30
0.0
  0
HATCH
  5
12E
330
113
100
AcDbEntity
  8
_U+30EC_U+30A4_U+30E4_U+30FC 1
 62
   179
420
  2234388
100
AcDbHatch
 10
0.0
 20
0.0
 30
0.0
210
0.0
220
0.0
230
1.0
  2
SOLID
 70
     1
 71
     0
 91
        2
 92
        1
 93
        1
 72
     4
 94
        3
 73
     0
 74
     1
 95
       29
 96
       25
 40
0.0
 40
0.0
 40
0.0
 40
0.0
 40
1.0
 40
1.0
 40
1.0
 40
2.0
 40
2.0
 40
2.0
 40
3.0
 40
3.0
 40
3.0
 40
4.0
 40
4.0
 40
4.0
 40
5.0
 40
5.0
 40
5.0
 40
6.0
 40
6.0
 40
6.0
 40
7.0
 40
7.0
 40
7.0
 40
8.0
 40
8.0
 40
8.0
 40
8.0
 10
92.26654728596114
 20
-114.555281546882
 10
92.15113658720527
 20
-114.7647433523852
 10
91.96579045009884
 20
-114.7836913775541
 10
91.84142250308132
 20
-114.7836913775541
 10
91.66985674791587
 20
-114.7836913775541
 10
91.51827254656489
 20
-114.7371825885032
 10
91.41664222975001
 20
-114.555281546882
 10
91.30571015512497
 20
-114.3606336519654
 10
91.285384091762
 20
-114.1236110825802
 10
91.285384091762
 20
-113.9610025756764
 10
91.285384091762
 20
-113.816997584393
 10
91.30329858828529
 20
-113.5651611044212
 10
91.41664222975001
 20
-113.3663790949223
 10
91.53170841895735
 20
-113.1634629708411
 10
91.70361868367132
 20
-113.1400363215414
 10
91.84142250308132
 20
-113.1400363215414
 10
92.01126571050413
 20
-113.1400363215414
 10
92.16491696914628
 20
-113.1844780533011
 10
92.26654728596114
 20
-113.3663790949223
 10
92.37300073645537
 20
-113.5589599325478
 10
92.39780542394917
 20
-113.7873697632198
 10
92.39780542394917
 20
-113.9610025756764
 10
92.39780542394917
 20
-114.1322238212933
 10
92.37506779374651
 20
-114.3627007092566
 10
92.26654728596114
 20
-114.555281546882
 97
        0
 97
        0
 92
        1
 93
        1
 72
     4
 94
        3
 73
     0
 74
     1
 95
       17
 96
       13
 40
0.0
 40
0.0
 40
0.0
 40
0.0
 40
1.0
 40
1.0
 40
1.0
 40
2.0
 40
2.0
 40
2.0
 40
3.0
 40
3.0
 40
3.0
 40
4.0
 40
4.0
 40
4.0
 40
4.0
 10
91.84142250308132
 20
-113.3326171591668
 10
91.57477211252298
 20
-113.3326171591668
 10
91.52516273753538
 20
-113.6161485176029
 10
91.52516273753538
 20
-113.9610025756764
 10
91.52516273753538
 20
-114.2803629271591
 10
91.56340329742166
 20
-114.5890434826375
 10
91.84142250308132
 20
-114.5890434826375
 10
92.1060058363485
 20
-114.5890434826375
 10
92.15802677817578
 20
-114.3079236910411
 10
92.15802677817578
 20
-113.9610025756764
 10
92.15802677817578
 20
-113.6412977146452
 10
92.11737465144982
 20
-113.3326171591668
 10
91.84142250308132
 20
-113.3326171591668
 97
        0
 97
        0
 75
     2
 76
     1
 98
        0
  0
ENDBLK
  5
116
330
113
100
AcDbEntity
  8
0
100
AcDbBlockEnd
  0
ENDSEC
  0
SECTION
  2
ENTITIES
  0
SPLINE
  5
41
330
1F
100
AcDbEntity
  8
_U+30EC_U+30A4_U+30E4_U+30FC 1
 62
   179
420
  2234388
370
     9
100
AcDbSpline
210
0.0
220
0.0
230
1.0
 70
    11
 71
     3
 72
    17
 73
    13
 74
     0
 42
0.0000000001
 43
0.0000000001
 12
1.0
 22
0.0
 32
0.0
 13
1.0
 23
0.0
 33
0.0
 40
0.0
 40
0.0
 40
0.0
 40
0.0
 40
1.0
 40
1.0
 40
1.0
 40
2.0
 40
2.0
 40
2.0
 40
3.0
 40
3.0
 40
3.0
 40
4.0
 40
4.0
 40
4.0
 40
4.0
 10
71.26767095958802
 20
-112.801047194022
 30
0.0
 10
71.32348040260864
 20
-112.801047194022
 30
0.0
 10
71.36824790146653
 20
-112.8458146940109
 30
0.0
 10
71.36824790146653
 20
-112.9009538606637
 30
0.0
 10
71.36824790146653
 20
-112.9560577495389
 30
0.0
 10
71.32348040260864
 20
-113.0008605273053
 30
0.0
 10
71.26767095958802
 20
-113.0008605273053
 30
0.0
 10
71.21253179432807
 20
-113.0008605273053
 30
0.0
 10
71.16776429547018
 20
-112.9560577495389
 30
0.0
 10
71.16776429547018
 20
-112.9009538606637
 30
0.0
 10
71.16776429547018
 20
-112.8458146940109
 30
0.0
 10
71.21253179432807
 20
-112.801047194022
 30
0.0
 10
71.26767095958802
 20
-112.801047194022
 30
0.0
  0
SPLINE
  5
42
330
1F
100
AcDbEntity
  8
_U+30EC_U+30A4_U+30E4_U+30FC 1
 62
   179
420
  2234388
370
     9
100
AcDbSpline
210
0.0
220
0.0
230
1.0
 70
    11
 71
     3
 72
    17
 73
    13
 74
     0
 42
0.0000000001
 43
0.0000000001
 12
1.0
 22
0.0
 32
0.0
 13
1.0
 23
0.0
 33
0.0
 40
0.0
 40
0.0
 40
0.0
 40
0.0
 40
1.0
 40
1.0
 40
1.0
 40
2.0
 40
2.0
 40
2.0
 40
3.0
 40
3.0
 40
3.0
 40
4.0
 40
4.0
 40
4.0
 40
4.0
 10
74.28074588271807
 20
-112.7852074718038
 30
0.0
 10
74.3365553257387
 20
-112.7852074718038
 30
0.0
 10
74.38132282459658
 20
-112.829304694015
 30
0.0
 10
74.38132282459658
 20
-112.8851141384455
 30
0.0
 10
74.38132282459658
 20
-112.9402180273204
 30
0.0
 10
74.3365553257387
 20
-112.9850208050871
 30
0.0
 10
74.28074588271807
 20
-112.9850208050871
 30
0.0
 10
74.22560671745812
 20
-112.9850208050871
 30
0.0
 10
74.18083921860024
 20
-112.9402180273204
 30
0.0
 10
74.18083921860024
 20
-112.8851141384455
 30
0.0
 10
74.18083921860024
 20
-112.829304694015
 30
0.0
 10
74.22560671745812
 20
-112.7852074718038
 30
0.0
 10
74.28074588271807
 20
-112.7852074718038
 30
0.0
  0
POLYLINE
  5
43
330
1F
100
AcDbEntity
  8
_U+30EC_U+30A4_U+30E4_U+30FC 1
 62
   179
420
  2234388
370
    25
100
AcDb2dPolyline
 66
     1
 10
0.0
 20
0.0
 30
0.0
  0
VERTEX
  5
44
330
43
100
AcDbEntity
  8
_U+30EC_U+30A4_U+30E4_U+30FC 1
 62
   179
420
  2234388
370
    25
100
AcDbVertex
100
AcDb2dVertex
 10
76.20239694480378
 20
-139.8684513539221
 30
0.0
  0
VERTEX
  5
45
330
43
100
AcDbEntity
  8
_U+30EC_U+30A4_U+30E4_U+30FC 1
 62
   179
420
  2234388
370
    25
100
AcDbVertex
100
AcDb2dVertex
 10
71.20290275997706
 20
-139.8684513539221
 30
0.0
  0
SEQEND
  5
46
330
43
100
AcDbEntity
  8
_U+30EC_U+30A4_U+30E4_U+30FC 1
 62
   179
420
  2234388
370
    25
  0
POLYLINE
  5
47
330
1F
100
AcDbEntity
  8
_U+30EC_U+30A4_U+30E4_U+30FC 1
 62
   179
420
  2234388
370
    25
100
AcDb2dPolyline
 66
     1
 10
0.0
 20
0.0
 30
0.0
  0
VERTEX
  5
48
330
47
100
AcDbEntity
  8
_U+30EC_U+30A4_U+30E4_U+30FC 1
 62
   179
420
  2234388
370
    25
100
AcDbVertex
100
AcDb2dVertex
 10
74.20288782914884
 20
-119.8683149700329
 30
0.0
  0
VERTEX
  5
49
330
47
100
AcDbEntity
  8
_U+30EC_U+30A4_U+30E4_U+30FC 1
 62
   179
420
  2234388
370
    25
100
AcDbVertex
100
AcDb2dVertex
 10
71.20290275997706
 20
-119.8683149700329
 30
0.0
  0
SEQEND
  5
4A
330
47
100
AcDbEntity
  8
_U+30EC_U+30A4_U+30E4_U+30FC 1
 62
   179
420
  2234388
370
    25
  0
POLYLINE
  5
4B
330
1F
100
AcDbEntity
  8
_U+30EC_U+30A4_U+30E4_U+30FC 1
 62
   179
420
  2234388
370
    25
100
AcDb2dPolyline
 66
     1
 10
0.0
 20
0.0
 30
0.0
  0
VERTEX
  5
4C
330
4B
100
AcDbEntity
  8
_U+30EC_U+30A4_U+30E4_U+30FC 1
 62
   179
420
  2234388
370
    25
100
AcDbVertex
100
AcDb2dVertex
 10
111.2063124406684
 20
-127.3686174681578
 30
0.0
  0
VERTEX
  5
4D
330
4B
100
AcDbEntity
  8
_U+30EC_U+30A4_U+30E4_U+30FC 1
 62
   179
420
  2234388
370
    25
100
AcDbVertex
100
AcDb2dVertex
 10
111.2063124406684
 20
-126.3688452461856
 30
0.0
  0
SEQEND
  5
4E
330
4B
100
AcDbEntity
  8
_U+30EC_U+30A4_U+30E4_U+30FC 1
 62
   179
420
  2234388
370
    25
  0
POLYLINE
  5
4F
330
1F
100
AcDbEntity
  8
_U+30EC_U+30A4_U+30E4_U+30FC 1
 62
   179
420
  2234388
370
    25
100
AcDb2dPolyline
 66
     1
 10
0.0
 20
0.0
 30
0.0
  0
VERTEX
  5
50
330
4F
100
AcDbEntity
  8
_U+30EC_U+30A4_U+30E4_U+30FC 1
 62
   179
420
  2234388
370
    25
100
AcDbVertex
100
AcDb2dVertex
 10
71.20290275997706
 20
-139.8684513539221
 30
0.0
  0
VERTEX
  5
51
330
4F
100
AcDbEntity
  8
_U+30EC_U+30A4_U+30E4_U+30FC 1
 62
   179
420
  2234388
370
    25
100
AcDbVertex
100
AcDb2dVertex
 10
71.20290275997706
 20
-119.8683149700329
 30
0.0
  0
SEQEND
  5
52
330
4F
100
AcDbEntity
  8
_U+30EC_U+30A4_U+30E4_U+30FC 1
 62
   179
420
  2234388
370
    25
  0
POLYLINE
  5
53
330
1F
100
AcDbEntity
  8
_U+30EC_U+30A4_U+30E4_U+30FC 1
 62
   179
420
  2234388
370
    25
100
AcDb2dPolyline
 66
     1
 10
0.0
 20
0.0
 30
0.0
  0
VERTEX
  5
54
330
53
100
AcDbEntity
  8
_U+30EC_U+30A4_U+30E4_U+30FC 1
 62
   179
420
  2234388
370
    25
100
AcDbVertex
100
AcDb2dVertex
 10
76.27270555412117
 20
-136.8684644102271
 30
0.0
  0
VERTEX
  5
55
330
53
100
AcDbEntity
  8
_U+30EC_U+30A4_U+30E4_U+30FC 1
 62
   179
420
  2234388
370
    25
100
AcDbVertex
100
AcDb2dVertex
 10
73.27268340843588
 20
-136.8684644102271
 30
0.0
  0
SEQEND
  5
56
330
53
100
AcDbEntity
  8
_U+30EC_U+30A4_U+30E4_U+30FC 1
 62
   179
420
  2234388
370
    25
  0
POLYLINE
  5
57
330
1F
100
AcDbEntity
  8
_U+30EC_U+30A4_U+30E4_U+30FC 1
 62
   179
420
  2234388
370
    25
100
AcDb2dPolyline
 66
     1
 10
0.0
 20
0.0
 30
0.0
  0
VERTEX
  5
58
330
57
100
AcDbEntity
  8
_U+30EC_U+30A4_U+30E4_U+30FC 1
 62
   179
420
  2234388
370
    25
100
AcDbVertex
100
AcDb2dVertex
 10
111.2063124406684
 20
-127.3686174681578
 30
0.0
  0
VERTEX
  5
59
330
57
100
AcDbEntity
  8
_U+30EC_U+30A4_U+30E4_U+30FC 1
 62
   179
420
  2234388
370
    25
100
AcDbVertex
100
AcDb2dVertex
 10
72.20263788017947
 20
-127.3686174681578
 30
0.0
  0
SEQEND
  5
5A
330
57
100
AcDbEntity
  8
_U+30EC_U+30A4_U+30E4_U+30FC 1
 62
   179
420
  2234388
370
    25
  0
POLYLINE
  5
5B
330
1F
100
AcDbEntity
  8
_U+30EC_U+30A4_U+30E4_U+30FC 1
 62
   179
420
  2234388
370
    25
100
AcDb2dPolyline
 66
     1
 10
0.0
 20
0.0
 30
0.0
  0
VERTEX
  5
5C
330
5B
100
AcDbEntity
  8
_U+30EC_U+30A4_U+30E4_U+30FC 1
 62
   179
420
  2234388
370
    25
100
AcDbVertex
100
AcDb2dVertex
 10
111.2063124406684
 20
-126.3688452461856
 30
0.0
  0
VERTEX
  5
5D
330
5B
100
AcDbEntity
  8
_U+30EC_U+30A4_U+30E4_U+30FC 1
 62
   179
420
  2234388
370
    25
100
AcDbVertex
100
AcDb2dVertex
 10
72.20263788017947
 20
-126.3688452461856
 30
0.0
  0
SEQEND
  5
5E
330
5B
100
AcDbEntity
  8
_U+30EC_U+30A4_U+30E4_U+30FC 1
 62
   179
420
  2234388
370
    25
  0
POLYLINE
  5
5F
330
1F
100
AcDbEntity
  8
_U+30EC_U+30A4_U+30E4_U+30FC 1
 62
   179
420
  2234388
370
    25
100
AcDb2dPolyline
 66
     1
 10
0.0
 20
0.0
 30
0.0
  0
VERTEX
  5
60
330
5F
100
AcDbEntity
  8
_U+30EC_U+30A4_U+30E4_U+30FC 1
 62
   179
420
  2234388
370
    25
100
AcDbVertex
100
AcDb2dVertex
 10
72.20263788017947
 20
-138.8687144097271
 30
0.0
  0
VERTEX
  5
61
330
5F
100
AcDbEntity
  8
_U+30EC_U+30A4_U+30E4_U+30FC 1
 62
   179
420
  2234388
370
    25
100
AcDbVertex
100
AcDb2dVertex
 10
72.20263788017947
 20
-127.3686174681578
 30
0.0
  0
SEQEND
  5
62
330
5F
100
AcDbEntity
  8
_U+30EC_U+30A4_U+30E4_U+30FC 1
 62
   179
420
  2234388
370
    25
  0
POLYLINE
  5
63
330
1F
100
AcDbEntity
  8
_U+30EC_U+30A4_U+30E4_U+30FC 1
 62
   179
420
  2234388
370
    25
100
AcDb2dPolyline
 66
     1
 10
0.0
 20
0.0
 30
0.0
  0
VERTEX
  5
64
330
63
100
AcDbEntity
  8
_U+30EC_U+30A4_U+30E4_U+30FC 1
 62
   179
420
  2234388
370
    25
100
AcDbVertex
100
AcDb2dVertex
 10
74.20288782914884
 20
-120.8680871920052
 30
0.0
  0
VERTEX
  5
65
330
63
100
AcDbEntity
  8
_U+30EC_U+30A4_U+30E4_U+30FC 1
 62
   179
420
  2234388
370
    25
100
AcDbVertex
100
AcDb2dVertex
 10
72.20263788017947
 20
-120.8680871920052
 30
0.0
  0
SEQEND
  5
66
330
63
100
AcDbEntity
  8
_U+30EC_U+30A4_U+30E4_U+30FC 1
 62
   179
420
  2234388
370
    25
  0
POLYLINE
  5
67
330
1F
100
AcDbEntity
  8
_U+30EC_U+30A4_U+30E4_U+30FC 1
 62
   179
420
  2234388
370
    25
100
AcDb2dPolyline
 66
     1
 10
0.0
 20
0.0
 30
0.0
  0
VERTEX
  5
68
330
67
100
AcDbEntity
  8
_U+30EC_U+30A4_U+30E4_U+30FC 1
 62
   179
420
  2234388
370
    25
100
AcDbVertex
100
AcDb2dVertex
 10
75.20266002586474
 20
-138.8687144097271
 30
0.0
  0
VERTEX
  5
69
330
67
100
AcDbEntity
  8
_U+30EC_U+30A4_U+30E4_U+30FC 1
 62
   179
420
  2234388
370
    25
100
AcDbVertex
100
AcDb2dVertex
 10
72.20263788017947
 20
-138.8687144097271
 30
0.0
  0
SEQEND
  5
6A
330
67
100
AcDbEntity
  8
_U+30EC_U+30A4_U+30E4_U+30FC 1
 62
   179
420
  2234388
370
    25
  0
POLYLINE
  5
6B
330
1F
100
AcDbEntity
  8
_U+30EC_U+30A4_U+30E4_U+30FC 1
 62
   179
420
  2234388
370
    25
100
AcDb2dPolyline
 66
     1
 10
0.0
 20
0.0
 30
0.0
  0
VERTEX
  5
6C
330
6B
100
AcDbEntity
  8
_U+30EC_U+30A4_U+30E4_U+30FC 1
 62
   179
420
  2234388
370
    25
100
AcDbVertex
100
AcDb2dVertex
 10
76.27270555412117
 20
-139.8684513539221
 30
0.0
  0
VERTEX
  5
6D
330
6B
100
AcDbEntity
  8
_U+30EC_U+30A4_U+30E4_U+30FC 1
 62
   179
420
  2234388
370
    25
100
AcDbVertex
100
AcDb2dVertex
 10
76.27270555412117
 20
-136.8684644102271
 30
0.0
  0
SEQEND
  5
6E
330
6B
100
AcDbEntity
  8
_U+30EC_U+30A4_U+30E4_U+30FC 1
 62
   179
420
  2234388
370
    25
  0
POLYLINE
  5
6F
330
1F
100
AcDbEntity
  8
_U+30EC_U+30A4_U+30E4_U+30FC 1
 62
   179
420
  2234388
370
    25
100
AcDb2dPolyline
 66
     1
 10
0.0
 20
0.0
 30
0.0
  0
VERTEX
  5
70
330
6F
100
AcDbEntity
  8
_U+30EC_U+30A4_U+30E4_U+30FC 1
 62
   179
420
  2234388
370
    25
100
AcDbVertex
100
AcDb2dVertex
 10
75.27293335740526
 20
-138.8687144097271
 30
0.0
  0
VERTEX
  5
71
330
6F
100
AcDbEntity
  8
_U+30EC_U+30A4_U+30E4_U+30FC 1
 62
   179
420
  2234388
370
    25
100
AcDbVertex
100
AcDb2dVertex
 10
75.27293335740526
 20
-137.8689421877552
 30
0.0
  0
SEQEND
  5
72
330
6F
100
AcDbEntity
  8
_U+30EC_U+30A4_U+30E4_U+30FC 1
 62
   179
420
  2234388
370
    25
  0
POLYLINE
  5
73
330
1F
100
AcDbEntity
  8
_U+30EC_U+30A4_U+30E4_U+30FC 1
 62
   179
420
  2234388
370
    25
100
AcDb2dPolyline
 66
     1
 10
0.0
 20
0.0
 30
0.0
  0
VERTEX
  5
74
330
73
100
AcDbEntity
  8
_U+30EC_U+30A4_U+30E4_U+30FC 1
 62
   179
420
  2234388
370
    25
100
AcDbVertex
100
AcDb2dVertex
 10
75.27293335740526
 20
-137.8689421877552
 30
0.0
  0
VERTEX
  5
75
330
73
100
AcDbEntity
  8
_U+30EC_U+30A4_U+30E4_U+30FC 1
 62
   179
420
  2234388
370
    25
100
AcDbVertex
100
AcDb2dVertex
 10
73.27268340843588
 20
-137.8689421877552
 30
0.0
  0
SEQEND
  5
76
330
73
100
AcDbEntity
  8
_U+30EC_U+30A4_U+30E4_U+30FC 1
 62
   179
420
  2234388
370
    25
  0
POLYLINE
  5
77
330
1F
100
AcDbEntity
  8
_U+30EC_U+30A4_U+30E4_U+30FC 1
 62
   179
420
  2234388
370
    25
100
AcDb2dPolyline
 66
     1
 10
0.0
 20
0.0
 30
0.0
  0
VERTEX
  5
78
330
77
100
AcDbEntity
  8
_U+30EC_U+30A4_U+30E4_U+30FC 1
 62
   179
420
  2234388
370
    25
100
AcDbVertex
100
AcDb2dVertex
 10
73.27268340843588
 20
-137.8689421877552
 30
0.0
  0
VERTEX
  5
79
330
77
100
AcDbEntity
  8
_U+30EC_U+30A4_U+30E4_U+30FC 1
 62
   179
420
  2234388
370
    25
100
AcDbVertex
100
AcDb2dVertex
 10
73.27268340843588
 20
-136.8684644102271
 30
0.0
  0
SEQEND
  5
7A
330
77
100
AcDbEntity
  8
_U+30EC_U+30A4_U+30E4_U+30FC 1
 62
   179
420
  2234388
370
    25
  0
POLYLINE
  5
7B
330
1F
100
AcDbEntity
  8
_U+30EC_U+30A4_U+30E4_U+30FC 1
 62
   179
420
  2234388
370
    25
100
AcDb2dPolyline
 66
     1
 10
0.0
 20
0.0
 30
0.0
  0
VERTEX
  5
7C
330
7B
100
AcDbEntity
  8
_U+30EC_U+30A4_U+30E4_U+30FC 1
 62
   179
420
  2234388
370
    25
100
AcDbVertex
100
AcDb2dVertex
 10
74.20288782914884
 20
-120.8680871920052
 30
0.0
  0
VERTEX
  5
7D
330
7B
100
AcDbEntity
  8
_U+30EC_U+30A4_U+30E4_U+30FC 1
 62
   179
420
  2234388
370
    25
100
AcDbVertex
100
AcDb2dVertex
 10
74.20288782914884
 20
-119.8683149700329
 30
0.0
  0
SEQEND
  5
7E
330
7B
100
AcDbEntity
  8
_U+30EC_U+30A4_U+30E4_U+30FC 1
 62
   179
420
  2234388
370
    25
  0
POLYLINE
  5
7F
330
1F
100
AcDbEntity
  8
_U+30EC_U+30A4_U+30E4_U+30FC 1
 62
   179
420
  2234388
370
    25
100
AcDb2dPolyline
 66
     1
 10
0.0
 20
0.0
 30
0.0
  0
VERTEX
  5
80
330
7F
100
AcDbEntity
  8
_U+30EC_U+30A4_U+30E4_U+30FC 1
 62
   179
420
  2234388
370
    25
100
AcDbVertex
100
AcDb2dVertex
 10
72.20263788017947
 20
-126.3688452461856
 30
0.0
  0
VERTEX
  5
81
330
7F
100
AcDbEntity
  8
_U+30EC_U+30A4_U+30E4_U+30FC 1
 62
   179
420
  2234388
370
    25
100
AcDbVertex
100
AcDb2dVertex
 10
72.20263788017947
 20
-120.8680871920052
 30
0.0
  0
SEQEND
  5
82
330
7F
100
AcDbEntity
  8
_U+30EC_U+30A4_U+30E4_U+30FC 1
 62
   179
420
  2234388
370
    25
  0
SPLINE
  5
83
330
1F
100
AcDbEntity
  8
_U+30EC_U+30A4_U+30E4_U+30FC 1
 62
   179
420
  2234388
370
     9
100
AcDbSpline
210
0.0
220
0.0
230
1.0
 70
    11
 71
     3
 72
    17
 73
    13
 74
     0
 42
0.0000000001
 43
0.0000000001
 12
1.0
 22
0.0
 32
0.0
 13
1.0
 23
0.0
 33
0.0
 40
0.0
 40
0.0
 40
0.0
 40
0.0
 40
1.0
 40
1.0
 40
1.0
 40
2.0
 40
2.0
 40
2.0
 40
3.0
 40
3.0
 40
3.0
 40
4.0
 40
4.0
 40
4.0
 40
4.0
 10
115.2067417830534
 20
-136.769263299141
 30
0.0
 10
115.2618809483133
 20
-136.769263299141
 30
0.0
 10
115.3066484471712
 20
-136.8140307991295
 30
0.0
 10
115.3066484471712
 20
-136.8691699657826
 30
0.0
 10
115.3066484471712
 20
-136.9242738546575
 30
0.0
 10
115.2618809483133
 20
-136.9690766324243
 30
0.0
 10
115.2067417830534
 20
-136.9690766324243
 30
0.0
 10
115.1516378955703
 20
-136.9690766324243
 30
0.0
 10
115.1068351189355
 20
-136.9242738546575
 30
0.0
 10
115.1068351189355
 20
-136.8691699657826
 30
0.0
 10
115.1068351189355
 20
-136.8140307991295
 30
0.0
 10
115.1516378955703
 20
-136.769263299141
 30
0.0
 10
115.2067417830534
 20
-136.769263299141
 30
0.0
  0
SPLINE
  5
84
330
1F
100
AcDbEntity
  8
_U+30EC_U+30A4_U+30E4_U+30FC 1
 62
   179
420
  2234388
370
     9
100
AcDbSpline
210
0.0
220
0.0
230
1.0
 70
    11
 71
     3
 72
    17
 73
    13
 74
     0
 42
0.0000000001
 43
0.0000000001
 12
1.0
 22
0.0
 32
0.0
 13
1.0
 23
0.0
 33
0.0
 40
0.0
 40
0.0
 40
0.0
 40
0.0
 40
1.0
 40
1.0
 40
1.0
 40
2.0
 40
2.0
 40
2.0
 40
3.0
 40
3.0
 40
3.0
 40
4.0
 40
4.0
 40
4.0
 40
4.0
 10
115.2067417830534
 20
-139.7692502428353
 30
0.0
 10
115.2618809483133
 20
-139.7692502428353
 30
0.0
 10
115.3066484471712
 20
-139.8140177428245
 30
0.0
 10
115.3066484471712
 20
-139.869156909477
 30
0.0
 10
115.3066484471712
 20
-139.9242607983525
 30
0.0
 10
115.2618809483133
 20
-139.9690635761186
 30
0.0
 10
115.2067417830534
 20
-139.9690635761186
 30
0.0
 10
115.1516378955703
 20
-139.9690635761186
 30
0.0
 10
115.1068351189355
 20
-139.9242607983525
 30
0.0
 10
115.1068351189355
 20
-139.869156909477
 30
0.0
 10
115.1068351189355
 20
-139.8140177428245
 30
0.0
 10
115.1516378955703
 20
-139.7692502428353
 30
0.0
 10
115.2067417830534
 20
-139.7692502428353
 30
0.0
  0
SPLINE
  5
85
330
1F
100
AcDbEntity
  8
_U+30EC_U+30A4_U+30E4_U+30FC 1
 62
   179
420
  2234388
370
     9
100
AcDbSpline
210
0.0
220
0.0
230
1.0
 70
    11
 71
     3
 72
    17
 73
    13
 74
     0
 42
0.0000000001
 43
0.0000000001
 12
1.0
 22
0.0
 32
0.0
 13
1.0
 23
0.0
 33
0.0
 40
0.0
 40
0.0
 40
0.0
 40
0.0
 40
1.0
 40
1.0
 40
1.0
 40
2.0
 40
2.0
 40
2.0
 40
3.0
 40
3.0
 40
3.0
 40
4.0
 40
4.0
 40
4.0
 40
4.0
 10
115.2067417830534
 20
-127.2687108015162
 30
0.0
 10
115.2618809483133
 20
-127.2687108015162
 30
0.0
 10
115.3066484471712
 20
-127.3135135792829
 30
0.0
 10
115.3066484471712
 20
-127.3686174681578
 30
0.0
 10
115.3066484471712
 20
-127.4237566348109
 30
0.0
 10
115.2618809483133
 20
-127.4685241347994
 30
0.0
 10
115.2067417830534
 20
-127.4685241347994
 30
0.0
 10
115.1516378955703
 20
-127.4685241347994
 30
0.0
 10
115.1068351189355
 20
-127.4237566348109
 30
0.0
 10
115.1068351189355
 20
-127.3686174681578
 30
0.0
 10
115.1068351189355
 20
-127.3135135792829
 30
0.0
 10
115.1516378955703
 20
-127.2687108015162
 30
0.0
 10
115.2067417830534
 20
-127.2687108015162
 30
0.0
  0
SPLINE
  5
86
330
1F
100
AcDbEntity
  8
_U+30EC_U+30A4_U+30E4_U+30FC 1
 62
   179
420
  2234388
370
     9
100
AcDbSpline
210
0.0
220
0.0
230
1.0
 70
    11
 71
     3
 72
    17
 73
    13
 74
     0
 42
0.0000000001
 43
0.0000000001
 12
1.0
 22
0.0
 32
0.0
 13
1.0
 23
0.0
 33
0.0
 40
0.0
 40
0.0
 40
0.0
 40
0.0
 40
1.0
 40
1.0
 40
1.0
 40
2.0
 40
2.0
 40
2.0
 40
3.0
 40
3.0
 40
3.0
 40
4.0
 40
4.0
 40
4.0
 40
4.0
 10
115.2067417830534
 20
-126.2682683017663
 30
0.0
 10
115.2618809483133
 20
-126.2682683017663
 30
0.0
 10
115.3066484471712
 20
-126.3130358017551
 30
0.0
 10
115.3066484471712
 20
-126.3688452461856
 30
0.0
 10
115.3066484471712
 20
-126.4239844128383
 30
0.0
 10
115.2618809483133
 20
-126.4687519128272
 30
0.0
 10
115.2067417830534
 20
-126.4687519128272
 30
0.0
 10
115.1516378955703
 20
-126.4687519128272
 30
0.0
 10
115.1068351189355
 20
-126.4239844128383
 30
0.0
 10
115.1068351189355
 20
-126.3688452461856
 30
0.0
 10
115.1068351189355
 20
-126.3130358017551
 30
0.0
 10
115.1516378955703
 20
-126.2682683017663
 30
0.0
 10
115.2067417830534
 20
-126.2682683017663
 30
0.0
  0
SPLINE
  5
87
330
1F
100
AcDbEntity
  8
_U+30EC_U+30A4_U+30E4_U+30FC 1
 62
   179
420
  2234388
370
     9
100
AcDbSpline
210
0.0
220
0.0
230
1.0
 70
    11
 71
     3
 72
    17
 73
    13
 74
     0
 42
0.0000000001
 43
0.0000000001
 12
1.0
 22
0.0
 32
0.0
 13
1.0
 23
0.0
 33
0.0
 40
0.0
 40
0.0
 40
0.0
 40
0.0
 40
1.0
 40
1.0
 40
1.0
 40
2.0
 40
2.0
 40
2.0
 40
3.0
 40
3.0
 40
3.0
 40
4.0
 40
4.0
 40
4.0
 40
4.0
 10
111.2063124406684
 20
-115.7686491377244
 30
0.0
 10
111.2614163281515
 20
-115.7686491377244
 30
0.0
 10
111.3062191047862
 20
-115.8134166377133
 30
0.0
 10
111.3062191047862
 20
-115.8685558043661
 30
0.0
 10
111.3062191047862
 20
-115.9236596932413
 30
0.0
 10
111.2614163281515
 20
-115.968462471008
 30
0.0
 10
111.2063124406684
 20
-115.968462471008
 30
0.0
 10
111.1511732754084
 20
-115.968462471008
 30
0.0
 10
111.1064057765505
 20
-115.9236596932413
 30
0.0
 10
111.1064057765505
 20
-115.8685558043661
 30
0.0
 10
111.1064057765505
 20
-115.8134166377133
 30
0.0
 10
111.1511732754084
 20
-115.7686491377244
 30
0.0
 10
111.2063124406684
 20
-115.7686491377244
 30
0.0
  0
SPLINE
  5
88
330
1F
100
AcDbEntity
  8
_U+30EC_U+30A4_U+30E4_U+30FC 1
 62
   179
420
  2234388
370
     9
100
AcDbSpline
210
0.0
220
0.0
230
1.0
 70
    11
 71
     3
 72
    17
 73
    13
 74
     0
 42
0.0000000001
 43
0.0000000001
 12
1.0
 22
0.0
 32
0.0
 13
1.0
 23
0.0
 33
0.0
 40
0.0
 40
0.0
 40
0.0
 40
0.0
 40
1.0
 40
1.0
 40
1.0
 40
2.0
 40
2.0
 40
2.0
 40
3.0
 40
3.0
 40
3.0
 40
4.0
 40
4.0
 40
4.0
 40
4.0
 10
71.20290275997706
 20
-115.7686491377244
 30
0.0
 10
71.2580048487235
 20
-115.7686491377244
 30
0.0
 10
71.30280762535827
 20
-115.8134166377133
 30
0.0
 10
71.30280762535827
 20
-115.8685558043661
 30
0.0
 10
71.30280762535827
 20
-115.9236596932413
 30
0.0
 10
71.2580048487235
 20
-115.968462471008
 30
0.0
 10
71.20290275997706
 20
-115.968462471008
 30
0.0
 10
71.14776179598049
 20
-115.968462471008
 30
0.0
 10
71.1029942971226
 20
-115.9236596932413
 30
0.0
 10
71.1029942971226
 20
-115.8685558043661
 30
0.0
 10
71.1029942971226
 20
-115.8134166377133
 30
0.0
 10
71.14776179598049
 20
-115.7686491377244
 30
0.0
 10
71.20290275997706
 20
-115.7686491377244
 30
0.0
  0
SPLINE
  5
89
330
1F
100
AcDbEntity
  8
_U+30EC_U+30A4_U+30E4_U+30FC 1
 62
   179
420
  2234388
370
     9
100
AcDbSpline
210
0.0
220
0.0
230
1.0
 70
    11
 71
     3
 72
    17
 73
    13
 74
     0
 42
0.0000000001
 43
0.0000000001
 12
1.0
 22
0.0
 32
0.0
 13
1.0
 23
0.0
 33
0.0
 40
0.0
 40
0.0
 40
0.0
 40
0.0
 40
1.0
 40
1.0
 40
1.0
 40
2.0
 40
2.0
 40
2.0
 40
3.0
 40
3.0
 40
3.0
 40
4.0
 40
4.0
 40
4.0
 40
4.0
 10
67.20243634107857
 20
-119.7684083033913
 30
0.0
 10
67.2582457840992
 20
-119.7684083033913
 30
0.0
 10
67.30304856073396
 20
-119.8131758033802
 30
0.0
 10
67.30304856073396
 20
-119.8683149700329
 30
0.0
 10
67.30304856073396
 20
-119.9234188589082
 30
0.0
 10
67.2582457840992
 20
-119.9682216366746
 30
0.0
 10
67.20243634107857
 20
-119.9682216366746
 30
0.0
 10
67.1473324535955
 20
-119.9682216366746
 30
0.0
 10
67.10252967696073
 20
-119.9234188589082
 30
0.0
 10
67.10252967696073
 20
-119.8683149700329
 30
0.0
 10
67.10252967696073
 20
-119.8131758033802
 30
0.0
 10
67.1473324535955
 20
-119.7684083033913
 30
0.0
 10
67.20243634107857
 20
-119.7684083033913
 30
0.0
  0
SPLINE
  5
8A
330
1F
100
AcDbEntity
  8
_U+30EC_U+30A4_U+30E4_U+30FC 1
 62
   179
420
  2234388
370
     9
100
AcDbSpline
210
0.0
220
0.0
230
1.0
 70
    11
 71
     3
 72
    17
 73
    13
 74
     0
 42
0.0000000001
 43
0.0000000001
 12
1.0
 22
0.0
 32
0.0
 13
1.0
 23
0.0
 33
0.0
 40
0.0
 40
0.0
 40
0.0
 40
0.0
 40
1.0
 40
1.0
 40
1.0
 40
2.0
 40
2.0
 40
2.0
 40
3.0
 40
3.0
 40
3.0
 40
4.0
 40
4.0
 40
4.0
 40
4.0
 10
67.20243634107857
 20
-139.7685446872798
 30
0.0
 10
67.2582457840992
 20
-139.7685446872798
 30
0.0
 10
67.30304856073396
 20
-139.8133474650465
 30
0.0
 10
67.30304856073396
 20
-139.8684513539221
 30
0.0
 10
67.30304856073396
 20
-139.9242607983525
 30
0.0
 10
67.2582457840992
 20
-139.9690635761186
 30
0.0
 10
67.20243634107857
 20
-139.9690635761186
 30
0.0
 10
67.1473324535955
 20
-139.9690635761186
 30
0.0
 10
67.10252967696073
 20
-139.9242607983525
 30
0.0
 10
67.10252967696073
 20
-139.8684513539221
 30
0.0
 10
67.10252967696073
 20
-139.8133474650465
 30
0.0
 10
67.1473324535955
 20
-139.7685446872798
 30
0.0
 10
67.20243634107857
 20
-139.7685446872798
 30
0.0
  0
SPLINE
  5
8B
330
1F
100
AcDbEntity
  8
_U+30EC_U+30A4_U+30E4_U+30FC 1
 62
   179
420
  2234388
370
     9
100
AcDbSpline
210
0.0
220
0.0
230
1.0
 70
    11
 71
     3
 72
    17
 73
    13
 74
     0
 42
0.0000000001
 43
0.0000000001
 12
1.0
 22
0.0
 32
0.0
 13
1.0
 23
0.0
 33
0.0
 40
0.0
 40
0.0
 40
0.0
 40
0.0
 40
1.0
 40
1.0
 40
1.0
 40
2.0
 40
2.0
 40
2.0
 40
3.0
 40
3.0
 40
3.0
 40
4.0
 40
4.0
 40
4.0
 40
4.0
 10
71.20290275997706
 20
-143.7690094085022
 30
0.0
 10
71.2580048487235
 20
-143.7690094085022
 30
0.0
 10
71.30280762535827
 20
-143.8137769084908
 30
0.0
 10
71.30280762535827
 20
-143.8689160751439
 30
0.0
 10
71.30280762535827
 20
-143.9240199640188
 30
0.0
 10
71.2580048487235
 20
-143.9688227417855
 30
0.0
 10
71.20290275997706
 20
-143.9688227417855
 30
0.0
 10
71.14776179598049
 20
-143.9688227417855
 30
0.0
 10
71.1029942971226
 20
-143.9240199640188
 30
0.0
 10
71.1029942971226
 20
-143.8689160751439
 30
0.0
 10
71.1029942971226
 20
-143.8137769084908
 30
0.0
 10
71.14776179598049
 20
-143.7690094085022
 30
0.0
 10
71.20290275997706
 20
-143.7690094085022
 30
0.0
  0
SPLINE
  5
8C
330
1F
100
AcDbEntity
  8
_U+30EC_U+30A4_U+30E4_U+30FC 1
 62
   179
420
  2234388
370
     9
100
AcDbSpline
210
0.0
220
0.0
230
1.0
 70
    11
 71
     3
 72
    17
 73
    13
 74
     0
 42
0.0000000001
 43
0.0000000001
 12
1.0
 22
0.0
 32
0.0
 13
1.0
 23
0.0
 33
0.0
 40
0.0
 40
0.0
 40
0.0
 40
0.0
 40
1.0
 40
1.0
 40
1.0
 40
2.0
 40
2.0
 40
2.0
 40
3.0
 40
3.0
 40
3.0
 40
4.0
 40
4.0
 40
4.0
 40
4.0
 10
76.33606444139363
 20
-143.7690094085022
 30
0.0
 10
76.39120553645789
 20
-143.7690094085022
 30
0.0
 10
76.43597110551147
 20
-143.8137769084908
 30
0.0
 10
76.43597110551147
 20
-143.8689160751439
 30
0.0
 10
76.43597110551147
 20
-143.9240199640188
 30
0.0
 10
76.39120553645789
 20
-143.9688227417855
 30
0.0
 10
76.33606444139363
 20
-143.9688227417855
 30
0.0
 10
76.28096055391056
 20
-143.9688227417855
 30
0.0
 10
76.2361577772758
 20
-143.9240199640188
 30
0.0
 10
76.2361577772758
 20
-143.8689160751439
 30
0.0
 10
76.2361577772758
 20
-143.8137769084908
 30
0.0
 10
76.28096055391056
 20
-143.7690094085022
 30
0.0
 10
76.33606444139363
 20
-143.7690094085022
 30
0.0
  0
POLYLINE
  5
8D
330
1F
100
AcDbEntity
  8
_U+30EC_U+30A4_U+30E4_U+30FC 1
 62
   179
420
  2234388
370
     9
100
AcDb2dPolyline
 66
     1
 10
0.0
 20
0.0
 30
0.0
  0
VERTEX
  5
8E
330
8D
100
AcDbEntity
  8
_U+30EC_U+30A4_U+30E4_U+30FC 1
 62
   179
420
  2234388
370
     9
100
AcDbVertex
100
AcDb2dVertex
 10
115.2067417830534
 20
-126.3688452461856
 30
0.0
  0
VERTEX
  5
8F
330
8D
100
AcDbEntity
  8
_U+30EC_U+30A4_U+30E4_U+30FC 1
 62
   179
420
  2234388
370
     9
100
AcDbVertex
100
AcDb2dVertex
 10
115.2067417830534
 20
-122.5992383026837
 30
0.0
  0
SEQEND
  5
90
330
8D
100
AcDbEntity
  8
_U+30EC_U+30A4_U+30E4_U+30FC 1
 62
   179
420
  2234388
370
     9
  0
POLYLINE
  5
91
330
1F
100
AcDbEntity
  8
_U+30EC_U+30A4_U+30E4_U+30FC 1
 62
   179
420
  2234388
370
     9
100
AcDb2dPolyline
 66
     1
 10
0.0
 20
0.0
 30
0.0
  0
VERTEX
  5
92
330
91
100
AcDbEntity
  8
_U+30EC_U+30A4_U+30E4_U+30FC 1
 62
   179
420
  2234388
370
     9
100
AcDbVertex
100
AcDb2dVertex
 10
115.2067417830534
 20
-126.3688452461856
 30
0.0
  0
VERTEX
  5
93
330
91
100
AcDbEntity
  8
_U+30EC_U+30A4_U+30E4_U+30FC 1
 62
   179
420
  2234388
370
     9
100
AcDbVertex
100
AcDb2dVertex
 10
115.2067417830534
 20
-127.3686174681578
 30
0.0
  0
SEQEND
  5
94
330
91
100
AcDbEntity
  8
_U+30EC_U+30A4_U+30E4_U+30FC 1
 62
   179
420
  2234388
370
     9
  0
POLYLINE
  5
95
330
1F
100
AcDbEntity
  8
_U+30EC_U+30A4_U+30E4_U+30FC 1
 62
   179
420
  2234388
370
     9
100
AcDb2dPolyline
 66
     1
 10
0.0
 20
0.0
 30
0.0
  0
VERTEX
  5
96
330
95
100
AcDbEntity
  8
_U+30EC_U+30A4_U+30E4_U+30FC 1
 62
   179
420
  2234388
370
     9
100
AcDbVertex
100
AcDb2dVertex
 10
113.7467004314132
 20
-126.3688452461856
 30
0.0
  0
VERTEX
  5
97
330
95
100
AcDbEntity
  8
_U+30EC_U+30A4_U+30E4_U+30FC 1
 62
   179
420
  2234388
370
     9
100
AcDbVertex
100
AcDb2dVertex
 10
116.2068667575381
 20
-126.3688452461856
 30
0.0
  0
SEQEND
  5
98
330
95
100
AcDbEntity
  8
_U+30EC_U+30A4_U+30E4_U+30FC 1
 62
   179
420
  2234388
370
     9
  0
POLYLINE
  5
99
330
1F
100
AcDbEntity
  8
_U+30EC_U+30A4_U+30E4_U+30FC 1
 62
   179
420
  2234388
370
     9
100
AcDb2dPolyline
 66
     1
 10
0.0
 20
0.0
 30
0.0
  0
VERTEX
  5
9A
330
99
100
AcDbEntity
  8
_U+30EC_U+30A4_U+30E4_U+30FC 1
 62
   179
420
  2234388
370
     9
100
AcDbVertex
100
AcDb2dVertex
 10
113.7467004314132
 20
-127.3686174681578
 30
0.0
  0
VERTEX
  5
9B
330
99
100
AcDbEntity
  8
_U+30EC_U+30A4_U+30E4_U+30FC 1
 62
   179
420
  2234388
370
     9
100
AcDbVertex
100
AcDb2dVertex
 10
116.2068667575381
 20
-127.3686174681578
 30
0.0
  0
SEQEND
  5
9C
330
99
100
AcDbEntity
  8
_U+30EC_U+30A4_U+30E4_U+30FC 1
 62
   179
420
  2234388
370
     9
  0
POLYLINE
  5
9D
330
1F
100
AcDbEntity
  8
_U+30EC_U+30A4_U+30E4_U+30FC 1
 62
   179
420
  2234388
370
     9
100
AcDb2dPolyline
 66
     1
 10
0.0
 20
0.0
 30
0.0
  0
VERTEX
  5
9E
330
9D
100
AcDbEntity
  8
_U+30EC_U+30A4_U+30E4_U+30FC 1
 62
   179
420
  2234388
370
     9
100
AcDbVertex
100
AcDb2dVertex
 10
115.2067417830534
 20
-127.3686174681578
 30
0.0
  0
VERTEX
  5
9F
330
9D
100
AcDbEntity
  8
_U+30EC_U+30A4_U+30E4_U+30FC 1
 62
   179
420
  2234388
370
     9
100
AcDbVertex
100
AcDb2dVertex
 10
115.2067417830534
 20
-136.8691699657826
 30
0.0
  0
SEQEND
  5
A0
330
9D
100
AcDbEntity
  8
_U+30EC_U+30A4_U+30E4_U+30FC 1
 62
   179
420
  2234388
370
     9
  0
POLYLINE
  5
A1
330
1F
100
AcDbEntity
  8
_U+30EC_U+30A4_U+30E4_U+30FC 1
 62
   179
420
  2234388
370
     9
100
AcDb2dPolyline
 66
     1
 10
0.0
 20
0.0
 30
0.0
  0
VERTEX
  5
A2
330
A1
100
AcDbEntity
  8
_U+30EC_U+30A4_U+30E4_U+30FC 1
 62
   179
420
  2234388
370
     9
100
AcDbVertex
100
AcDb2dVertex
 10
113.7467004314132
 20
-127.3686174681578
 30
0.0
  0
VERTEX
  5
A3
330
A1
100
AcDbEntity
  8
_U+30EC_U+30A4_U+30E4_U+30FC 1
 62
   179
420
  2234388
370
     9
100
AcDbVertex
100
AcDb2dVertex
 10
116.2068667575381
 20
-127.3686174681578
 30
0.0
  0
SEQEND
  5
A4
330
A1
100
AcDbEntity
  8
_U+30EC_U+30A4_U+30E4_U+30FC 1
 62
   179
420
  2234388
370
     9
  0
POLYLINE
  5
A5
330
1F
100
AcDbEntity
  8
_U+30EC_U+30A4_U+30E4_U+30FC 1
 62
   179
420
  2234388
370
     9
100
AcDb2dPolyline
 66
     1
 10
0.0
 20
0.0
 30
0.0
  0
VERTEX
  5
A6
330
A5
100
AcDbEntity
  8
_U+30EC_U+30A4_U+30E4_U+30FC 1
 62
   179
420
  2234388
370
     9
100
AcDbVertex
100
AcDb2dVertex
 10
83.74252786355012
 20
-136.8684644102271
 30
0.0
  0
VERTEX
  5
A7
330
A5
100
AcDbEntity
  8
_U+30EC_U+30A4_U+30E4_U+30FC 1
 62
   179
420
  2234388
370
     9
100
AcDbVertex
100
AcDb2dVertex
 10
116.2068667575381
 20
-136.8691699657826
 30
0.0
  0
SEQEND
  5
A8
330
A5
100
AcDbEntity
  8
_U+30EC_U+30A4_U+30E4_U+30FC 1
 62
   179
420
  2234388
370
     9
  0
POLYLINE
  5
A9
330
1F
100
AcDbEntity
  8
_U+30EC_U+30A4_U+30E4_U+30FC 1
 62
   179
420
  2234388
370
     9
100
AcDb2dPolyline
 66
     1
 10
0.0
 20
0.0
 30
0.0
  0
VERTEX
  5
AA
330
A9
100
AcDbEntity
  8
_U+30EC_U+30A4_U+30E4_U+30FC 1
 62
   179
420
  2234388
370
     9
100
AcDbVertex
100
AcDb2dVertex
 10
115.2067417830534
 20
-139.869156909477
 30
0.0
  0
VERTEX
  5
AB
330
A9
100
AcDbEntity
  8
_U+30EC_U+30A4_U+30E4_U+30FC 1
 62
   179
420
  2234388
370
     9
100
AcDbVertex
100
AcDb2dVertex
 10
115.2067417830534
 20
-136.8691699657826
 30
0.0
  0
SEQEND
  5
AC
330
A9
100
AcDbEntity
  8
_U+30EC_U+30A4_U+30E4_U+30FC 1
 62
   179
420
  2234388
370
     9
  0
POLYLINE
  5
AD
330
1F
100
AcDbEntity
  8
_U+30EC_U+30A4_U+30E4_U+30FC 1
 62
   179
420
  2234388
370
     9
100
AcDb2dPolyline
 66
     1
 10
0.0
 20
0.0
 30
0.0
  0
VERTEX
  5
AE
330
AD
100
AcDbEntity
  8
_U+30EC_U+30A4_U+30E4_U+30FC 1
 62
   179
420
  2234388
370
     9
100
AcDbVertex
100
AcDb2dVertex
 10
83.74252786355012
 20
-139.8684513539221
 30
0.0
  0
VERTEX
  5
AF
330
AD
100
AcDbEntity
  8
_U+30EC_U+30A4_U+30E4_U+30FC 1
 62
   179
420
  2234388
370
     9
100
AcDbVertex
100
AcDb2dVertex
 10
116.2068667575381
 20
-139.869156909477
 30
0.0
  0
SEQEND
  5
B0
330
AD
100
AcDbEntity
  8
_U+30EC_U+30A4_U+30E4_U+30FC 1
 62
   179
420
  2234388
370
     9
  0
POLYLINE
  5
B1
330
1F
100
AcDbEntity
  8
_U+30EC_U+30A4_U+30E4_U+30FC 1
 62
   179
420
  2234388
370
     9
100
AcDb2dPolyline
 66
     1
 10
0.0
 20
0.0
 30
0.0
  0
VERTEX
  5
B2
330
B1
100
AcDbEntity
  8
_U+30EC_U+30A4_U+30E4_U+30FC 1
 62
   179
420
  2234388
370
     9
100
AcDbVertex
100
AcDb2dVertex
 10
67.20243634107857
 20
-139.8684513539221
 30
0.0
  0
VERTEX
  5
B3
330
B1
100
AcDbEntity
  8
_U+30EC_U+30A4_U+30E4_U+30FC 1
 62
   179
420
  2234388
370
     9
100
AcDbVertex
100
AcDb2dVertex
 10
67.20243634107857
 20
-119.8683149700329
 30
0.0
  0
SEQEND
  5
B4
330
B1
100
AcDbEntity
  8
_U+30EC_U+30A4_U+30E4_U+30FC 1
 62
   179
420
  2234388
370
     9
  0
POLYLINE
  5
B5
330
1F
100
AcDbEntity
  8
_U+30EC_U+30A4_U+30E4_U+30FC 1
 62
   179
420
  2234388
370
     9
100
AcDb2dPolyline
 66
     1
 10
0.0
 20
0.0
 30
0.0
  0
VERTEX
  5
B6
330
B5
100
AcDbEntity
  8
_U+30EC_U+30A4_U+30E4_U+30FC 1
 62
   179
420
  2234388
370
     9
100
AcDbVertex
100
AcDb2dVertex
 10
68.6624776927187
 20
-139.8684513539221
 30
0.0
  0
VERTEX
  5
B7
330
B5
100
AcDbEntity
  8
_U+30EC_U+30A4_U+30E4_U+30FC 1
 62
   179
420
  2234388
370
     9
100
AcDbVertex
100
AcDb2dVertex
 10
66.20266414436266
 20
-139.8684513539221
 30
0.0
  0
SEQEND
  5
B8
330
B5
100
AcDbEntity
  8
_U+30EC_U+30A4_U+30E4_U+30FC 1
 62
   179
420
  2234388
370
     9
  0
POLYLINE
  5
B9
330
1F
100
AcDbEntity
  8
_U+30EC_U+30A4_U+30E4_U+30FC 1
 62
   179
420
  2234388
370
     9
100
AcDb2dPolyline
 66
     1
 10
0.0
 20
0.0
 30
0.0
  0
VERTEX
  5
BA
330
B9
100
AcDbEntity
  8
_U+30EC_U+30A4_U+30E4_U+30FC 1
 62
   179
420
  2234388
370
     9
100
AcDbVertex
100
AcDb2dVertex
 10
68.6624776927187
 20
-119.8683149700329
 30
0.0
  0
VERTEX
  5
BB
330
B9
100
AcDbEntity
  8
_U+30EC_U+30A4_U+30E4_U+30FC 1
 62
   179
420
  2234388
370
     9
100
AcDbVertex
100
AcDb2dVertex
 10
66.20266414436266
 20
-119.8683149700329
 30
0.0
  0
SEQEND
  5
BC
330
B9
100
AcDbEntity
  8
_U+30EC_U+30A4_U+30E4_U+30FC 1
 62
   179
420
  2234388
370
     9
  0
POLYLINE
  5
BD
330
1F
100
AcDbEntity
  8
_U+30EC_U+30A4_U+30E4_U+30FC 1
 62
   179
420
  2234388
370
     9
100
AcDb2dPolyline
 66
     1
 10
0.0
 20
0.0
 30
0.0
  0
VERTEX
  5
BE
330
BD
100
AcDbEntity
  8
_U+30EC_U+30A4_U+30E4_U+30FC 1
 62
   179
420
  2234388
370
     9
100
AcDbVertex
100
AcDb2dVertex
 10
76.20239694480378
 20
-143.8689160751439
 30
0.0
  0
VERTEX
  5
BF
330
BD
100
AcDbEntity
  8
_U+30EC_U+30A4_U+30E4_U+30FC 1
 62
   179
420
  2234388
370
     9
100
AcDbVertex
100
AcDb2dVertex
 10
71.20290275997706
 20
-143.8689160751439
 30
0.0
  0
SEQEND
  5
C0
330
BD
100
AcDbEntity
  8
_U+30EC_U+30A4_U+30E4_U+30FC 1
 62
   179
420
  2234388
370
     9
  0
POLYLINE
  5
C1
330
1F
100
AcDbEntity
  8
_U+30EC_U+30A4_U+30E4_U+30FC 1
 62
   179
420
  2234388
370
     9
100
AcDb2dPolyline
 66
     1
 10
0.0
 20
0.0
 30
0.0
  0
VERTEX
  5
C2
330
C1
100
AcDbEntity
  8
_U+30EC_U+30A4_U+30E4_U+30FC 1
 62
   179
420
  2234388
370
     9
100
AcDbVertex
100
AcDb2dVertex
 10
76.33606444139363
 20
-142.4088746866202
 30
0.0
  0
VERTEX
  5
C3
330
C1
100
AcDbEntity
  8
_U+30EC_U+30A4_U+30E4_U+30FC 1
 62
   179
420
  2234388
370
     9
100
AcDbVertex
100
AcDb2dVertex
 10
76.33606444139363
 20
-144.8686882971164
 30
0.0
  0
SEQEND
  5
C4
330
C1
100
AcDbEntity
  8
_U+30EC_U+30A4_U+30E4_U+30FC 1
 62
   179
420
  2234388
370
     9
  0
POLYLINE
  5
C5
330
1F
100
AcDbEntity
  8
_U+30EC_U+30A4_U+30E4_U+30FC 1
 62
   179
420
  2234388
370
     9
100
AcDb2dPolyline
 66
     1
 10
0.0
 20
0.0
 30
0.0
  0
VERTEX
  5
C6
330
C5
100
AcDbEntity
  8
_U+30EC_U+30A4_U+30E4_U+30FC 1
 62
   179
420
  2234388
370
     9
100
AcDbVertex
100
AcDb2dVertex
 10
71.20290275997706
 20
-142.4088746866202
 30
0.0
  0
VERTEX
  5
C7
330
C5
100
AcDbEntity
  8
_U+30EC_U+30A4_U+30E4_U+30FC 1
 62
   179
420
  2234388
370
     9
100
AcDbVertex
100
AcDb2dVertex
 10
71.20290275997706
 20
-144.8686882971164
 30
0.0
  0
SEQEND
  5
C8
330
C5
100
AcDbEntity
  8
_U+30EC_U+30A4_U+30E4_U+30FC 1
 62
   179
420
  2234388
370
     9
  0
POLYLINE
  5
C9
330
1F
100
AcDbEntity
  8
_U+30EC_U+30A4_U+30E4_U+30FC 1
 62
   179
420
  2234388
370
     9
100
AcDb2dPolyline
 66
     1
 10
0.0
 20
0.0
 30
0.0
  0
VERTEX
  5
CA
330
C9
100
AcDbEntity
  8
_U+30EC_U+30A4_U+30E4_U+30FC 1
 62
   179
420
  2234388
370
     9
100
AcDbVertex
100
AcDb2dVertex
 10
71.20290275997706
 20
-115.8685558043661
 30
0.0
  0
VERTEX
  5
CB
330
C9
100
AcDbEntity
  8
_U+30EC_U+30A4_U+30E4_U+30FC 1
 62
   179
420
  2234388
370
     9
100
AcDbVertex
100
AcDb2dVertex
 10
111.2063124406684
 20
-115.8685558043661
 30
0.0
  0
SEQEND
  5
CC
330
C9
100
AcDbEntity
  8
_U+30EC_U+30A4_U+30E4_U+30FC 1
 62
   179
420
  2234388
370
     9
  0
POLYLINE
  5
CD
330
1F
100
AcDbEntity
  8
_U+30EC_U+30A4_U+30E4_U+30FC 1
 62
   179
420
  2234388
370
     9
100
AcDb2dPolyline
 66
     1
 10
0.0
 20
0.0
 30
0.0
  0
VERTEX
  5
CE
330
CD
100
AcDbEntity
  8
_U+30EC_U+30A4_U+30E4_U+30FC 1
 62
   179
420
  2234388
370
     9
100
AcDbVertex
100
AcDb2dVertex
 10
71.20290275997706
 20
-117.3285971928901
 30
0.0
  0
VERTEX
  5
CF
330
CD
100
AcDbEntity
  8
_U+30EC_U+30A4_U+30E4_U+30FC 1
 62
   179
420
  2234388
370
     9
100
AcDbVertex
100
AcDb2dVertex
 10
71.20290275997706
 20
-114.8681133046162
 30
0.0
  0
SEQEND
  5
D0
330
CD
100
AcDbEntity
  8
_U+30EC_U+30A4_U+30E4_U+30FC 1
 62
   179
420
  2234388
370
     9
  0
POLYLINE
  5
D1
330
1F
100
AcDbEntity
  8
_U+30EC_U+30A4_U+30E4_U+30FC 1
 62
   179
420
  2234388
370
     9
100
AcDb2dPolyline
 66
     1
 10
0.0
 20
0.0
 30
0.0
  0
VERTEX
  5
D2
330
D1
100
AcDbEntity
  8
_U+30EC_U+30A4_U+30E4_U+30FC 1
 62
   179
420
  2234388
370
     9
100
AcDbVertex
100
AcDb2dVertex
 10
111.2063124406684
 20
-123.8291274690427
 30
0.0
  0
VERTEX
  5
D3
330
D1
100
AcDbEntity
  8
_U+30EC_U+30A4_U+30E4_U+30FC 1
 62
   179
420
  2234388
370
     9
100
AcDbVertex
100
AcDb2dVertex
 10
111.2063124406684
 20
-114.8681133046162
 30
0.0
  0
SEQEND
  5
D4
330
D1
100
AcDbEntity
  8
_U+30EC_U+30A4_U+30E4_U+30FC 1
 62
   179
420
  2234388
370
     9
  0
POLYLINE
  5
D5
330
1F
100
AcDbEntity
  8
_U+30EC_U+30A4_U+30E4_U+30FC 1
 62
   179
420
  2234388
370
     9
100
AcDb2dPolyline
 66
     1
 10
0.0
 20
0.0
 30
0.0
  0
VERTEX
  5
D6
330
D5
100
AcDbEntity
  8
_U+30EC_U+30A4_U+30E4_U+30FC 1
 62
   179
420
  2234388
370
     9
100
AcDbVertex
100
AcDb2dVertex
 10
74.27661838282337
 20
-113.5906696938246
 30
0.0
  0
VERTEX
  5
D7
330
D5
100
AcDbEntity
  8
_U+30EC_U+30A4_U+30E4_U+30FC 1
 62
   179
420
  2234388
370
     9
100
AcDbVertex
100
AcDb2dVertex
 10
74.27661838282337
 20
-112.1795585830663
 30
0.0
  0
SEQEND
  5
D8
330
D5
100
AcDbEntity
  8
_U+30EC_U+30A4_U+30E4_U+30FC 1
 62
   179
420
  2234388
370
     9
  0
POLYLINE
  5
D9
330
1F
100
AcDbEntity
  8
_U+30EC_U+30A4_U+30E4_U+30FC 1
 62
   179
420
  2234388
370
     9
100
AcDb2dPolyline
 66
     1
 10
0.0
 20
0.0
 30
0.0
  0
VERTEX
  5
DA
330
D9
100
AcDbEntity
  8
_U+30EC_U+30A4_U+30E4_U+30FC 1
 62
   179
420
  2234388
370
     9
100
AcDbVertex
100
AcDb2dVertex
 10
71.27800734821321
 20
-113.5906696938246
 30
0.0
  0
VERTEX
  5
DB
330
D9
100
AcDbEntity
  8
_U+30EC_U+30A4_U+30E4_U+30FC 1
 62
   179
420
  2234388
370
     9
100
AcDbVertex
100
AcDb2dVertex
 10
71.27800734821321
 20
-112.1795585830663
 30
0.0
  0
SEQEND
  5
DC
330
D9
100
AcDbEntity
  8
_U+30EC_U+30A4_U+30E4_U+30FC 1
 62
   179
420
  2234388
370
     9
  0
POLYLINE
  5
DD
330
1F
100
AcDbEntity
  8
_U+30EC_U+30A4_U+30E4_U+30FC 1
 62
   179
420
  2234388
370
     9
100
AcDb2dPolyline
 66
     1
 10
0.0
 20
0.0
 30
0.0
  0
VERTEX
  5
DE
330
DD
100
AcDbEntity
  8
_U+30EC_U+30A4_U+30E4_U+30FC 1
 62
   179
420
  2234388
370
     9
100
AcDbVertex
100
AcDb2dVertex
 10
69.86689627310254
 20
-112.8851141384455
 30
0.0
  0
VERTEX
  5
DF
330
DD
100
AcDbEntity
  8
_U+30EC_U+30A4_U+30E4_U+30FC 1
 62
   179
420
  2234388
370
     9
100
AcDbVertex
100
AcDb2dVertex
 10
75.40727113175579
 20
-112.8851141384455
 30
0.0
  0
SEQEND
  5
E0
330
DD
100
AcDbEntity
  8
_U+30EC_U+30A4_U+30E4_U+30FC 1
 62
   179
420
  2234388
370
     9
  0
INSERT
  5
E2
330
1F
100
AcDbEntity
  8
_U+30EC_U+30A4_U+30E4_U+30FC 1
100
AcDbBlockReference
  2
block 2
 10
0.0
 20
0.0
 30
0.0
  0
INSERT
  5
E8
330
1F
100
AcDbEntity
  8
_U+30EC_U+30A4_U+30E4_U+30FC 1
100
AcDbBlockReference
  2
block 3
 10
0.0
 20
0.0
 30
0.0
  0
INSERT
  5
EE
330
1F
100
AcDbEntity
  8
_U+30EC_U+30A4_U+30E4_U+30FC 1
100
AcDbBlockReference
  2
block 4
 10
0.0
 20
0.0
 30
0.0
  0
INSERT
  5
FF
330
1F
100
AcDbEntity
  8
_U+30EC_U+30A4_U+30E4_U+30FC 1
100
AcDbBlockReference
  2
block 5
 10
0.0
 20
0.0
 30
0.0
  0
INSERT
  5
105
330
1F
100
AcDbEntity
  8
_U+30EC_U+30A4_U+30E4_U+30FC 1
100
AcDbBlockReference
  2
block 6
 10
0.0
 20
0.0
 30
0.0
  0
INSERT
  5
10E
330
1F
100
AcDbEntity
  8
_U+30EC_U+30A4_U+30E4_U+30FC 1
100
AcDbBlockReference
  2
block 7
 10
0.0
 20
0.0
 30
0.0
  0
INSERT
  5
114
330
1F
100
AcDbEntity
  8
_U+30EC_U+30A4_U+30E4_U+30FC 1
100
AcDbBlockReference
  2
block 8
 10
0.0
 20
0.0
 30
0.0
  0
ENDSEC
  0
SECTION
  2
OBJECTS
  0
DICTIONARY
  5
C
330
0
100
AcDbDictionary
281
     1
  3
ACAD_GROUP
350
D
  3
ACAD_LAYOUT
350
1A
  3
ACAD_MATERIAL
350
3B
  3
ACAD_MLEADERSTYLE
350
130
  3
ACAD_MLINESTYLE
350
17
  3
ACAD_PLOTSETTINGS
350
19
  3
ACAD_PLOTSTYLENAME
350
E
  3
ACAD_TABLESTYLE
350
12F
  3
ACAD_VISUALSTYLE
350
2A
  0
SUN
  5
3F
330
29
100
AcDbSun
 90
        1
290
     0
 63
     7
421
 16777215
 40
1.0
291
     1
 91
  2455826
 92
 54000000
292
     0
 70
     2
 71
   256
280
     1
  0
DICTIONARY
  5
D
102
{ACAD_REACTORS
330
C
102
}
330
C
100
AcDbDictionary
281
     1
  0
DICTIONARY
  5
1A
102
{ACAD_REACTORS
330
C
102
}
330
C
100
AcDbDictionary
281
     1
  3
Layout1
350
1E
  3
Layout2
350
26
  3
Model
350
22
  0
DICTIONARY
  5
3B
102
{ACAD_REACTORS
330
C
102
}
330
C
100
AcDbDictionary
281
     1
  3
ByBlock
350
3D
  3
ByLayer
350
3C
  3
Global
350
3E
  0
DICTIONARY
  5
130
102
{ACAD_REACTORS
330
C
102
}
330
C
100
AcDbDictionary
281
     1
  0
DICTIONARY
  5
17
102
{ACAD_REACTORS
330
C
102
}
330
C
100
AcDbDictionary
281
     1
  3
Standard
350
18
  0
DICTIONARY
  5
19
102
{ACAD_REACTORS
330
C
102
}
330
C
100
AcDbDictionary
281
     1
  0
ACDBDICTIONARYWDFLT
  5
E
102
{ACAD_REACTORS
330
C
102
}
330
C
100
AcDbDictionary
281
     1
  3
Normal
350
F
100
AcDbDictionaryWithDefault
340
F
  0
DICTIONARY
  5
12F
102
{ACAD_REACTORS
330
C
102
}
330
C
100
AcDbDictionary
281
     1
  0
DICTIONARY
  5
2A
102
{ACAD_REACTORS
330
C
102
}
330
C
100
AcDbDictionary
281
     1
  3
2dWireframe
350
2F
  3
3D Hidden
350
31
  3
3dWireframe
350
30
  3
Basic
350
32
  3
Brighten
350
36
  3
ColorChange
350
3A
  3
Conceptual
350
34
  3
Dim
350
35
  3
Facepattern
350
39
  3
Flat
350
2B
  3
FlatWithEdges
350
2C
  3
Gouraud
350
2D
  3
GouraudWithEdges
350
2E
  3
Linepattern
350
38
  3
Realistic
350
33
  3
Thicken
350
37
  0
LAYOUT
  5
1E
102
{ACAD_REACTORS
330
1A
102
}
330
1A
100
AcDbPlotSettings
  1

  2
none_device
  4

  6

 40
0.0
 41
0.0
 42
0.0
 43
0.0
 44
0.0
 45
0.0
 46
0.0
 47
0.0
 48
0.0
 49
0.0
140
0.0
141
0.0
142
1.0
143
1.0
 70
   688
 72
     0
 73
     0
 74
     5
  7

 75
    16
 76
     0
 77
     2
 78
   300
147
1.0
148
0.0
149
0.0
100
AcDbLayout
  1
Layout1
 70
     1
 71
     1
 10
0.0
 20
0.0
 11
12.0
 21
9.0
 12
0.0
 22
0.0
 32
0.0
 14
1.000000000000000E+20
 24
1.000000000000000E+20
 34
1.000000000000000E+20
 15
-1.000000000000000E+20
 25
-1.000000000000000E+20
 35
-1.000000000000000E+20
146
0.0
 13
0.0
 23
0.0
 33
0.0
 16
1.0
 26
0.0
 36
0.0
 17
0.0
 27
1.0
 37
0.0
 76
     0
330
1B
  0
LAYOUT
  5
26
102
{ACAD_REACTORS
330
1A
102
}
330
1A
100
AcDbPlotSettings
  1

  2
none_device
  4

  6

 40
0.0
 41
0.0
 42
0.0
 43
0.0
 44
0.0
 45
0.0
 46
0.0
 47
0.0
 48
0.0
 49
0.0
140
0.0
141
0.0
142
1.0
143
1.0
 70
   688
 72
     0
 73
     0
 74
     5
  7

 75
    16
 76
     0
 77
     2
 78
   300
147
1.0
148
0.0
149
0.0
100
AcDbLayout
  1
Layout2
 70
     1
 71
     2
 10
0.0
 20
0.0
 11
0.0
 21
0.0
 12
0.0
 22
0.0
 32
0.0
 14
0.0
 24
0.0
 34
0.0
 15
0.0
 25
0.0
 35
0.0
146
0.0
 13
0.0
 23
0.0
 33
0.0
 16
1.0
 26
0.0
 36
0.0
 17
0.0
 27
1.0
 37
0.0
 76
     0
330
23
  0
LAYOUT
  5
22
102
{ACAD_REACTORS
330
1A
102
}
330
1A
100
AcDbPlotSettings
  1

  2
none_device
  4

  6

 40
0.0
 41
0.0
 42
0.0
 43
0.0
 44
0.0
 45
0.0
 46
0.0
 47
0.0
 48
0.0
 49
0.0
140
0.0
141
0.0
142
1.0
143
1.0
 70
  1712
 72
     0
 73
     0
 74
     0
  7

 75
     0
 76
     0
 77
     2
 78
   300
147
1.0
148
0.0
149
0.0
100
AcDbLayout
  1
Model
 70
     1
 71
     0
 10
0.0
 20
0.0
 11
12.0
 21
9.0
 12
0.0
 22
0.0
 32
0.0
 14
1.000000000000000E+20
 24
1.000000000000000E+20
 34
1.000000000000000E+20
 15
-1.000000000000000E+20
 25
-1.000000000000000E+20
 35
-1.000000000000000E+20
146
0.0
 13
0.0
 23
0.0
 33
0.0
 16
1.0
 26
0.0
 36
0.0
 17
0.0
 27
1.0
 37
0.0
 76
     0
330
1F
331
29
  0
MATERIAL
  5
3D
102
{ACAD_REACTORS
330
3B
102
}
330
3B
100
AcDbMaterial
  1
ByBlock
 72
     1
 94
      127
  0
MATERIAL
  5
3C
102
{ACAD_REACTORS
330
3B
102
}
330
3B
100
AcDbMaterial
  1
ByLayer
 72
     1
 94
      127
  0
MATERIAL
  5
3E
102
{ACAD_REACTORS
330
3B
102
}
330
3B
100
AcDbMaterial
  1
Global
 72
     1
 94
      127
  0
MLINESTYLE
  5
18
102
{ACAD_REACTORS
330
17
102
}
330
17
100
AcDbMlineStyle
  2
Standard
 70
     0
  3

 62
   256
 51
90.0
 52
90.0
 71
     2
 49
0.5
 62
   256
  6
BYLAYER
 49
-0.5
 62
   256
  6
BYLAYER
  0
ACDBPLACEHOLDER
  5
F
102
{ACAD_REACTORS
330
E
102
}
330
E
  0
VISUALSTYLE
  5
2F
102
{ACAD_REACTORS
330
2A
102
}
330
2A
100
AcDbVisualStyle
  2
2dWireframe
 70
     4
177
     2
291
     0
 71
     0
176
     1
 72
     2
176
     1
 73
     0
176
     1
 90
        0
176
     1
 40
-0.6
176
     1
 41
-30.0
176
     1
 62
     5
 63
     7
421
 16777215
176
     1
 74
     1
176
     1
 91
        4
176
     1
 64
     7
176
     1
 65
   257
176
     1
 75
     1
176
     1
175
     1
176
     1
 42
1.0
176
     1
 92
        0
176
     1
 66
   257
176
     1
 43
1.0
176
     1
 76
     1
176
     1
 77
     6
176
     1
 78
     2
176
     1
 67
     7
176
     1
 79
     5
176
     1
170
     0
176
     1
171
     0
176
     1
290
     0
176
     1
 93
        1
176
     1
 44
0.0
176
     1
173
     0
176
     1
  0
VISUALSTYLE
  5
31
102
{ACAD_REACTORS
330
2A
102
}
330
2A
100
AcDbVisualStyle
  2
3D Hidden
 70
     6
177
     2
291
     0
 71
     1
176
     1
 72
     2
176
     1
 73
     2
176
     1
 90
        0
176
     1
 40
-0.6
176
     1
 41
-30.0
176
     1
 62
     5
 63
     7
421
 16777215
176
     1
 74
     2
176
     1
 91
        2
176
     1
 64
     7
176
     1
 65
   257
176
     1
 75
     2
176
     1
175
     1
176
     1
 42
40.0
176
     1
 92
        0
176
     1
 66
   257
176
     1
 43
1.0
176
     1
 76
     1
176
     1
 77
     6
176
     1
 78
     2
176
     1
 67
     7
176
     1
 79
     3
176
     1
170
     0
176
     1
171
     0
176
     1
290
     0
176
     1
 93
        1
176
     1
 44
0.0
176
     1
173
     0
176
     1
  0
VISUALSTYLE
  5
30
102
{ACAD_REACTORS
330
2A
102
}
330
2A
100
AcDbVisualStyle
  2
3dWireframe
 70
     5
177
     2
291
     0
 71
     0
176
     1
 72
     2
176
     1
 73
     0
176
     1
 90
        0
176
     1
 40
-0.6
176
     1
 41
-30.0
176
     1
 62
     5
 63
     7
421
 16777215
176
     1
 74
     1
176
     1
 91
        4
176
     1
 64
     7
176
     1
 65
   257
176
     1
 75
     1
176
     1
175
     1
176
     1
 42
1.0
176
     1
 92
        0
176
     1
 66
   257
176
     1
 43
1.0
176
     1
 76
     1
176
     1
 77
     6
176
     1
 78
     2
176
     1
 67
     7
176
     1
 79
     5
176
     1
170
     0
176
     1
171
     0
176
     1
290
     0
176
     1
 93
        1
176
     1
 44
0.0
176
     1
173
     0
176
     1
  0
VISUALSTYLE
  5
32
102
{ACAD_REACTORS
330
2A
102
}
330
2A
100
AcDbVisualStyle
  2
Basic
 70
     7
177
     2
291
     1
 71
     1
176
     1
 72
     0
176
     1
 73
     1
176
     1
 90
        0
176
     1
 40
-0.6
176
     1
 41
-30.0
176
     1
 62
     5
 63
     7
421
 16777215
176
     1
 74
     0
176
     1
 91
        4
176
     1
 64
     7
176
     1
 65
   257
176
     1
 75
     1
176
     1
175
     1
176
     1
 42
1.0
176
     1
 92
        8
176
     1
 66
     7
176
     1
 43
1.0
176
     1
 76
     1
176
     1
 77
     6
176
     1
 78
     2
176
     1
 67
     7
176
     1
 79
     5
176
     1
170
     0
176
     1
171
     0
176
     1
290
     0
176
     1
 93
        1
176
     1
 44
0.0
176
     1
173
     0
176
     1
  0
VISUALSTYLE
  5
36
102
{ACAD_REACTORS
330
2A
102
}
330
2A
100
AcDbVisualStyle
  2
Brighten
 70
    12
177
     2
291
     1
 71
     2
176
     1
 72
     2
176
     1
 73
     0
176
     1
 90
        0
176
     1
 40
-0.6
176
     1
 41
-30.0
176
     1
 62
     5
 63
     7
421
 16777215
176
     1
 74
     1
176
     1
 91
        4
176
     1
 64
     7
176
     1
 65
   257
176
     1
 75
     1
176
     1
175
     1
176
     1
 42
1.0
176
     1
 92
        8
176
     1
 66
     7
176
     1
 43
1.0
176
     1
 76
     1
176
     1
 77
     6
176
     1
 78
     2
176
     1
 67
     7
176
     1
 79
     5
176
     1
170
     0
176
     1
171
     0
176
     1
290
     0
176
     1
 93
        1
176
     1
 44
50.0
176
     1
173
     0
176
     1
  0
VISUALSTYLE
  5
3A
102
{ACAD_REACTORS
330
2A
102
}
330
2A
100
AcDbVisualStyle
  2
ColorChange
 70
    16
177
     2
291
     1
 71
     2
176
     1
 72
     2
176
     1
 73
     3
176
     1
 90
        0
176
     1
 40
-0.6
176
     1
 41
-30.0
176
     1
 62
     5
 63
     8
421
  8421504
176
     1
 74
     1
176
     1
 91
        4
176
     1
 64
     7
176
     1
 65
   257
176
     1
 75
     1
176
     1
175
     1
176
     1
 42
1.0
176
     1
 92
        8
176
     1
 66
     8
424
  8421504
176
     1
 43
1.0
176
     1
 76
     1
176
     1
 77
     6
176
     1
 78
     2
176
     1
 67
     7
176
     1
 79
     5
176
     1
170
     0
176
     1
171
     0
176
     1
290
     0
176
     1
 93
        1
176
     1
 44
0.0
176
     1
173
     0
176
     1
  0
VISUALSTYLE
  5
34
102
{ACAD_REACTORS
330
2A
102
}
330
2A
100
AcDbVisualStyle
  2
Conceptual
 70
     9
177
     2
291
     0
 71
     3
176
     1
 72
     2
176
     1
 73
     0
176
     1
 90
        0
176
     1
 40
-0.6
176
     1
 41
-30.0
176
     1
 62
     5
 63
     7
421
 16777215
176
     1
 74
     2
176
     1
 91
        2
176
     1
 64
     7
176
     1
 65
   257
176
     1
 75
     1
176
     1
175
     1
176
     1
 42
40.0
176
     1
 92
        8
176
     1
 66
     7
176
     1
 43
1.0
176
     1
 76
     1
176
     1
 77
     6
176
     1
 78
     2
176
     1
 67
     7
176
     1
 79
     3
176
     1
170
     0
176
     1
171
     0
176
     1
290
     0
176
     1
 93
        1
176
     1
 44
0.0
176
     1
173
     0
176
     1
  0
VISUALSTYLE
  5
35
102
{ACAD_REACTORS
330
2A
102
}
330
2A
100
AcDbVisualStyle
  2
Dim
 70
    11
177
     2
291
     1
 71
     2
176
     1
 72
     2
176
     1
 73
     0
176
     1
 90
        0
176
     1
 40
-0.6
176
     1
 41
-30.0
176
     1
 62
     5
 63
     7
421
 16777215
176
     1
 74
     1
176
     1
 91
        4
176
     1
 64
     7
176
     1
 65
   257
176
     1
 75
     1
176
     1
175
     1
176
     1
 42
1.0
176
     1
 92
        8
176
     1
 66
     7
176
     1
 43
1.0
176
     1
 76
     1
176
     1
 77
     6
176
     1
 78
     2
176
     1
 67
     7
176
     1
 79
     5
176
     1
170
     0
176
     1
171
     0
176
     1
290
     0
176
     1
 93
        1
176
     1
 44
-50.0
176
     1
173
     0
176
     1
  0
VISUALSTYLE
  5
39
102
{ACAD_REACTORS
330
2A
102
}
330
2A
100
AcDbVisualStyle
  2
Facepattern
 70
    15
177
     2
291
     1
 71
     2
176
     1
 72
     2
176
     1
 73
     0
176
     1
 90
        0
176
     1
 40
-0.6
176
     1
 41
-30.0
176
     1
 62
     5
 63
     7
421
 16777215
176
     1
 74
     1
176
     1
 91
        4
176
     1
 64
     7
176
     1
 65
   257
176
     1
 75
     1
176
     1
175
     1
176
     1
 42
1.0
176
     1
 92
        8
176
     1
 66
     7
176
     1
 43
1.0
176
     1
 76
     1
176
     1
 77
     6
176
     1
 78
     2
176
     1
 67
     7
176
     1
 79
     5
176
     1
170
     0
176
     1
171
     0
176
     1
290
     0
176
     1
 93
        1
176
     1
 44
0.0
176
     1
173
     0
176
     1
  0
VISUALSTYLE
  5
2B
102
{ACAD_REACTORS
330
2A
102
}
330
2A
100
AcDbVisualStyle
  2
Flat
 70
     0
177
     2
291
     1
 71
     2
176
     1
 72
     1
176
     1
 73
     1
176
     1
 90
        2
176
     1
 40
-0.6
176
     1
 41
30.0
176
     1
 62
     5
 63
     7
421
 16777215
176
     1
 74
     0
176
     1
 91
        4
176
     1
 64
     7
176
     1
 65
   257
176
     1
 75
     1
176
     1
175
     1
176
     1
 42
1.0
176
     1
 92
        8
176
     1
 66
     7
176
     1
 43
1.0
176
     1
 76
     1
176
     1
 77
     6
176
     1
 78
     2
176
     1
 67
     7
176
     1
 79
     5
176
     1
170
     0
176
     1
171
     0
176
     1
290
     0
176
     1
 93
       13
176
     1
 44
0.0
176
     1
173
     0
176
     1
  0
VISUALSTYLE
  5
2C
102
{ACAD_REACTORS
330
2A
102
}
330
2A
100
AcDbVisualStyle
  2
FlatWithEdges
 70
     1
177
     2
291
     1
 71
     2
176
     1
 72
     1
176
     1
 73
     1
176
     1
 90
        2
176
     1
 40
-0.6
176
     1
 41
30.0
176
     1
 62
     5
 63
     7
421
 16777215
176
     1
 74
     1
176
     1
 91
        4
176
     1
 64
     7
176
     1
 65
   257
176
     1
 75
     1
176
     1
175
     1
176
     1
 42
1.0
176
     1
 92
        0
176
     1
 66
   257
176
     1
 43
1.0
176
     1
 76
     1
176
     1
 77
     6
176
     1
 78
     2
176
     1
 67
     7
176
     1
 79
     5
176
     1
170
     0
176
     1
171
     0
176
     1
290
     0
176
     1
 93
       13
176
     1
 44
0.0
176
     1
173
     0
176
     1
  0
VISUALSTYLE
  5
2D
102
{ACAD_REACTORS
330
2A
102
}
330
2A
100
AcDbVisualStyle
  2
Gouraud
 70
     2
177
     2
291
     1
 71
     2
176
     1
 72
     2
176
     1
 73
     1
176
     1
 90
        2
176
     1
 40
-0.6
176
     1
 41
30.0
176
     1
 62
     5
 63
     7
421
 16777215
176
     1
 74
     0
176
     1
 91
        4
176
     1
 64
     7
176
     1
 65
   257
176
     1
 75
     1
176
     1
175
     1
176
     1
 42
1.0
176
     1
 92
        0
176
     1
 66
     7
176
     1
 43
1.0
176
     1
 76
     1
176
     1
 77
     6
176
     1
 78
     2
176
     1
 67
     7
176
     1
 79
     5
176
     1
170
     0
176
     1
171
     0
176
     1
290
     0
176
     1
 93
       13
176
     1
 44
0.0
176
     1
173
     0
176
     1
  0
VISUALSTYLE
  5
2E
102
{ACAD_REACTORS
330
2A
102
}
330
2A
100
AcDbVisualStyle
  2
GouraudWithEdges
 70
     3
177
     2
291
     1
 71
     2
176
     1
 72
     2
176
     1
 73
     1
176
     1
 90
        2
176
     1
 40
-0.6
176
     1
 41
30.0
176
     1
 62
     5
 63
     7
421
 16777215
176
     1
 74
     1
176
     1
 91
        4
176
     1
 64
     7
176
     1
 65
   257
176
     1
 75
     1
176
     1
175
     1
176
     1
 42
1.0
176
     1
 92
        0
176
     1
 66
   257
176
     1
 43
1.0
176
     1
 76
     1
176
     1
 77
     6
176
     1
 78
     2
176
     1
 67
     7
176
     1
 79
     5
176
     1
170
     0
176
     1
171
     0
176
     1
290
     0
176
     1
 93
       13
176
     1
 44
0.0
176
     1
173
     0
176
     1
  0
VISUALSTYLE
  5
38
102
{ACAD_REACTORS
330
2A
102
}
330
2A
100
AcDbVisualStyle
  2
Linepattern
 70
    14
177
     2
291
     1
 71
     2
176
     1
 72
     2
176
     1
 73
     0
176
     1
 90
        0
176
     1
 40
-0.6
176
     1
 41
-30.0
176
     1
 62
     5
 63
     7
421
 16777215
176
     1
 74
     1
176
     1
 91
        4
176
     1
 64
     7
176
     1
 65
   257
176
     1
 75
     7
176
     1
175
     7
176
     1
 42
1.0
176
     1
 92
        8
176
     1
 66
     7
176
     1
 43
1.0
176
     1
 76
     1
176
     1
 77
     6
176
     1
 78
     2
176
     1
 67
     7
176
     1
 79
     5
176
     1
170
     0
176
     1
171
     0
176
     1
290
     0
176
     1
 93
        1
176
     1
 44
0.0
176
     1
173
     0
176
     1
  0
VISUALSTYLE
  5
33
102
{ACAD_REACTORS
330
2A
102
}
330
2A
100
AcDbVisualStyle
  2
Realistic
 70
     8
177
     2
291
     0
 71
     2
176
     1
 72
     2
176
     1
 73
     0
176
     1
 90
        0
176
     1
 40
-0.6
176
     1
 41
-30.0
176
     1
 62
     5
 63
     7
421
 16777215
176
     1
 74
     1
176
     1
 91
        0
176
     1
 64
     7
176
     1
 65
   257
176
     1
 75
     1
176
     1
175
     1
176
     1
 42
1.0
176
     1
 92
        8
176
     1
 66
     8
424
  7895160
176
     1
 43
1.0
176
     1
 76
     1
176
     1
 77
     6
176
     1
 78
     2
176
     1
 67
     7
176
     1
 79
     5
176
     1
170
     0
176
     1
171
     0
176
     1
290
     0
176
     1
 93
       13
176
     1
 44
0.0
176
     1
173
     0
176
     1
  0
VISUALSTYLE
  5
37
102
{ACAD_REACTORS
330
2A
102
}
330
2A
100
AcDbVisualStyle
  2
Thicken
 70
    13
177
     2
291
     1
 71
     2
176
     1
 72
     2
176
     1
 73
     0
176
     1
 90
        0
176
     1
 40
-0.6
176
     1
 41
-30.0
176
     1
 62
     5
 63
     7
421
 16777215
176
     1
 74
     1
176
     1
 91
        4
176
     1
 64
     7
176
     1
 65
   257
176
     1
 75
     1
176
     1
175
     1
176
     1
 42
1.0
176
     1
 92
       12
176
     1
 66
     7
176
     1
 43
1.0
176
     1
 76
     1
176
     1
 77
     6
176
     1
 78
     2
176
     1
 67
     7
176
     1
 79
     5
176
     1
170
     0
176
     1
171
     0
176
     1
290
     0
176
     1
 93
        1
176
     1
 44
0.0
176
     1
173
     0
176
     1
  0
ENDSEC
  0
EOF
