  0
SECTION
  2
HEADER
  9
$ACADVER
  1
AC1024
  9
$ACADMAINTVER
 70
     6
  9
$DWGCODEPAGE
  3
UNDEFINED
  9
$INSBASE
 10
0.0
 20
0.0
 30
0.0
  9
$EXTMIN
 10
1.000000000000000E+20
 20
1.000000000000000E+20
 30
1.000000000000000E+20
  9
$EXTMAX
 10
-1.000000000000000E+20
 20
-1.000000000000000E+20
 30
-1.000000000000000E+20
  9
$LIMMIN
 10
0.0
 20
0.0
  9
$LIMMAX
 10
12.0
 20
9.0
  9
$ORTHOMODE
 70
     0
  9
$REGENMODE
 70
     1
  9
$FILLMODE
 70
     1
  9
$QTEXTMODE
 70
     0
  9
$MIRRTEXT
 70
     1
  9
$LTSCALE
 40
1.0
  9
$ATTMODE
 70
     1
  9
$TEXTSIZE
 40
0.2
  9
$TRACEWID
 40
0.05
  9
$TEXTSTYLE
  7
Standard
  9
$CLAYER
  8
0
  9
$CELTYPE
  6
ByLayer
  9
$CECOLOR
 62
   256
  9
$CELTSCALE
 40
1.0
  9
$DISPSILH
 70
     0
  9
$DIMSCALE
 40
1.0
  9
$DIMASZ
 40
0.18
  9
$DIMEXO
 40
0.0625
  9
$DIMDLI
 40
0.38
  9
$DIMRND
 40
0.0
  9
$DIMDLE
 40
0.0
  9
$DIMEXE
 40
0.18
  9
$DIMTP
 40
0.0
  9
$DIMTM
 40
0.0
  9
$DIMTXT
 40
0.18
  9
$DIMCEN
 40
0.09
  9
$DIMTSZ
 40
0.0
  9
$DIMTOL
 70
     0
  9
$DIMLIM
 70
     0
  9
$DIMTIH
 70
     1
  9
$DIMTOH
 70
     1
  9
$DIMSE1
 70
     0
  9
$DIMSE2
 70
     0
  9
$DIMTAD
 70
     0
  9
$DIMZIN
 70
     0
  9
$DIMBLK
  1

  9
$DIMASO
 70
     1
  9
$DIMSHO
 70
     1
  9
$DIMPOST
  1

  9
$DIMAPOST
  1

  9
$DIMALT
 70
     0
  9
$DIMALTD
 70
     2
  9
$DIMALTF
 40
25.4
  9
$DIMLFAC
 40
1.0
  9
$DIMTOFL
 70
     0
  9
$DIMTVP
 40
0.0
  9
$DIMTIX
 70
     0
  9
$DIMSOXD
 70
     0
  9
$DIMSAH
 70
     0
  9
$DIMBLK1
  1

  9
$DIMBLK2
  1

  9
$DIMSTYLE
  2
Standard
  9
$DIMCLRD
 70
     0
  9
$DIMCLRE
 70
     0
  9
$DIMCLRT
 70
     0
  9
$DIMTFAC
 40
1.0
  9
$DIMGAP
 40
0.09
  9
$DIMJUST
 70
     0
  9
$DIMSD1
 70
     0
  9
$DIMSD2
 70
     0
  9
$DIMTOLJ
 70
     1
  9
$DIMTZIN
 70
     0
  9
$DIMALTZ
 70
     0
  9
$DIMALTTZ
 70
     0
  9
$DIMUPT
 70
     0
  9
$DIMDEC
 70
     4
  9
$DIMTDEC
 70
     4
  9
$DIMALTU
 70
     2
  9
$DIMALTTD
 70
     2
  9
$DIMTXSTY
  7
Standard
  9
$DIMAUNIT
 70
     0
  9
$DIMADEC
 70
     0
  9
$DIMALTRND
 40
0.0
  9
$DIMAZIN
 70
     0
  9
$DIMDSEP
 70
    46
  9
$DIMATFIT
 70
     3
  9
$DIMFRAC
 70
     0
  9
$DIMLDRBLK
  1

  9
$DIMLUNIT
 70
     2
  9
$DIMLWD
 70
    -2
  9
$DIMLWE
 70
    -2
  9
$DIMTMOVE
 70
     0
  9
$DIMFXL
 40
1.0
  9
$DIMFXLON
 70
     0
  9
$DIMJOGANG
 40
0.7853981633974483
  9
$DIMTFILL
 70
     0
  9
$DIMTFILLCLR
 70
     0
  9
$DIMARCSYM
 70
     0
  9
$DIMLTYPE
  6

  9
$DIMLTEX1
  6

  9
$DIMLTEX2
  6

  9
$DIMTXTDIRECTION
 70
     0
  9
$LUNITS
 70
     2
  9
$LUPREC
 70
     4
  9
$SKETCHINC
 40
0.1
  9
$FILLETRAD
 40
0.5
  9
$AUNITS
 70
     0
  9
$AUPREC
 70
     0
  9
$MENU
  1
.
  9
$ELEVATION
 40
0.0
  9
$PELEVATION
 40
0.0
  9
$THICKNESS
 40
0.0
  9
$LIMCHECK
 70
     0
  9
$CHAMFERA
 40
0.5
  9
$CHAMFERB
 40
0.5
  9
$CHAMFERC
 40
1.0
  9
$CHAMFERD
 40
0.0
  9
$SKPOLY
 70
     0
  9
$TDCREATE
 40
2457917.611053241
  9
$TDUCREATE
 40
2457917.236053241
  9
$TDUPDATE
 40
2457917.611053241
  9
$TDUUPDATE
 40
2457917.236053241
  9
$TDINDWG
 40
0.0000000116
  9
$TDUSRTIMER
 40
0.0000000116
  9
$USRTIMER
 70
     1
  9
$ANGBASE
 50
0.0
  9
$ANGDIR
 70
     0
  9
$PDMODE
 70
     0
  9
$PDSIZE
 40
0.0
  9
$PLINEWID
 40
0.0
  9
$SPLFRAME
 70
     0
  9
$SPLINETYPE
 70
     6
  9
$SPLINESEGS
 70
     8
  9
$HANDSEED
  5
B8
  9
$SURFTAB1
 70
     6
  9
$SURFTAB2
 70
     6
  9
$SURFTYPE
 70
     6
  9
$SURFU
 70
     6
  9
$SURFV
 70
     6
  9
$UCSBASE
  2

  9
$UCSNAME
  2

  9
$UCSORG
 10
0.0
 20
0.0
 30
0.0
  9
$UCSXDIR
 10
1.0
 20
0.0
 30
0.0
  9
$UCSYDIR
 10
0.0
 20
1.0
 30
0.0
  9
$UCSORTHOREF
  2

  9
$UCSORTHOVIEW
 70
     0
  9
$UCSORGTOP
 10
0.0
 20
0.0
 30
0.0
  9
$UCSORGBOTTOM
 10
0.0
 20
0.0
 30
0.0
  9
$UCSORGLEFT
 10
0.0
 20
0.0
 30
0.0
  9
$UCSORGRIGHT
 10
0.0
 20
0.0
 30
0.0
  9
$UCSORGFRONT
 10
0.0
 20
0.0
 30
0.0
  9
$UCSORGBACK
 10
0.0
 20
0.0
 30
0.0
  9
$PUCSBASE
  2

  9
$PUCSNAME
  2

  9
$PUCSORG
 10
0.0
 20
0.0
 30
0.0
  9
$PUCSXDIR
 10
1.0
 20
0.0
 30
0.0
  9
$PUCSYDIR
 10
0.0
 20
1.0
 30
0.0
  9
$PUCSORTHOREF
  2

  9
$PUCSORTHOVIEW
 70
     0
  9
$PUCSORGTOP
 10
0.0
 20
0.0
 30
0.0
  9
$PUCSORGBOTTOM
 10
0.0
 20
0.0
 30
0.0
  9
$PUCSORGLEFT
 10
0.0
 20
0.0
 30
0.0
  9
$PUCSORGRIGHT
 10
0.0
 20
0.0
 30
0.0
  9
$PUCSORGFRONT
 10
0.0
 20
0.0
 30
0.0
  9
$PUCSORGBACK
 10
0.0
 20
0.0
 30
0.0
  9
$USERI1
 70
     0
  9
$USERI2
 70
     0
  9
$USERI3
 70
     0
  9
$USERI4
 70
     0
  9
$USERI5
 70
     0
  9
$USERR1
 40
0.0
  9
$USERR2
 40
0.0
  9
$USERR3
 40
0.0
  9
$USERR4
 40
0.0
  9
$USERR5
 40
0.0
  9
$WORLDVIEW
 70
     1
  9
$SHADEDGE
 70
     3
  9
$SHADEDIF
 70
    70
  9
$TILEMODE
 70
     1
  9
$MAXACTVP
 70
    64
  9
$PINSBASE
 10
0.0
 20
0.0
 30
0.0
  9
$PLIMCHECK
 70
     0
  9
$PEXTMIN
 10
1.000000000000000E+20
 20
1.000000000000000E+20
 30
1.000000000000000E+20
  9
$PEXTMAX
 10
-1.000000000000000E+20
 20
-1.000000000000000E+20
 30
-1.000000000000000E+20
  9
$PLIMMIN
 10
0.0
 20
0.0
  9
$PLIMMAX
 10
12.0
 20
9.0
  9
$UNITMODE
 70
     0
  9
$VISRETAIN
 70
     1
  9
$PLINEGEN
 70
     0
  9
$PSLTSCALE
 70
     1
  9
$TREEDEPTH
 70
  3020
  9
$CMLSTYLE
  2
Standard
  9
$CMLJUST
 70
     0
  9
$CMLSCALE
 40
1.0
  9
$PROXYGRAPHICS
 70
     1
  9
$MEASUREMENT
 70
     0
  9
$CELWEIGHT
370
    -1
  9
$ENDCAPS
280
     0
  9
$JOINSTYLE
280
     0
  9
$LWDISPLAY
290
     1
  9
$INSUNITS
 70
     1
  9
$HYPERLINKBASE
  1

  9
$STYLESHEET
  1

  9
$XEDIT
290
     1
  9
$CEPSNTYPE
380
     0
  9
$PSTYLEMODE
290
     1
  9
$FINGERPRINTGUID
  2
{866080DD-CF6E-C173-10F2-0B975041D31D}
  9
$VERSIONGUID
  2
{FAEB1C32-E019-11D5-929B-00C0DF256EC4}
  9
$EXTNAMES
290
     1
  9
$PSVPSCALE
 40
0.0
  9
$OLESTARTUP
290
     0
  9
$SORTENTS
280
   127
  9
$INDEXCTL
280
     0
  9
$HIDETEXT
280
     1
  9
$XCLIPFRAME
280
     2
  9
$HALOGAP
280
     0
  9
$OBSCOLOR
 70
   257
  9
$OBSLTYPE
280
     0
  9
$INTERSECTIONDISPLAY
280
     0
  9
$INTERSECTIONCOLOR
 70
   257
  9
$DIMASSOC
280
     2
  9
$PROJECTNAME
  1

  9
$CAMERADISPLAY
290
     0
  9
$LENSLENGTH
 40
50.0
  9
$CAMERAHEIGHT
 40
0.0
  9
$STEPSPERSEC
 40
2.0
  9
$STEPSIZE
 40
6.0
  9
$3DDWFPREC
 40
2.0
  9
$PSOLWIDTH
 40
0.25
  9
$PSOLHEIGHT
 40
4.0
  9
$LOFTANG1
 40
1.570796326794897
  9
$LOFTANG2
 40
1.570796326794897
  9
$LOFTMAG1
 40
0.0
  9
$LOFTMAG2
 40
0.0
  9
$LOFTPARAM
 70
     7
  9
$LOFTNORMALS
280
     1
  9
$LATITUDE
 40
37.795
  9
$LONGITUDE
 40
-122.394
  9
$NORTHDIRECTION
 40
0.0
  9
$TIMEZONE
 70
 -8000
  9
$LIGHTGLYPHDISPLAY
280
     1
  9
$TILEMODELIGHTSYNCH
280
     1
  9
$CMATERIAL
347
3C
  9
$SOLIDHIST
280
     1
  9
$SHOWHIST
280
     1
  9
$DWFFRAME
280
     2
  9
$DGNFRAME
280
     2
  9
$REALWORLDSCALE
290
     1
  9
$INTERFERECOLOR
 62
   256
  9
$CSHADOW
280
     0
  9
$SHADOWPLANELOCATION
 40
0.0
  0
ENDSEC
  0
SECTION
  2
CLASSES
  0
CLASS
  1
ACDBDICTIONARYWDFLT
  2
AcDbDictionaryWithDefault
  3
ObjectDBX Classes
 90
        0
 91
        4
280
     0
281
     0
  0
CLASS
  1
VISUALSTYLE
  2
AcDbVisualStyle
  3
ObjectDBX Classes
 90
     4095
 91
        4
280
     0
281
     0
  0
CLASS
  1
MATERIAL
  2
AcDbMaterial
  3
ObjectDBX Classes
 90
     1153
 91
        4
280
     0
281
     0
  0
CLASS
  1
SUN
  2
AcDbSun
  3
SCENEOE
 90
     1024
 91
        4
280
     0
281
     0
  0
ENDSEC
  0
SECTION
  2
TABLES
  0
TABLE
  2
VPORT
  5
8
330
0
100
AcDbSymbolTable
 70
     1
  0
VPORT
  5
29
330
8
100
AcDbSymbolTableRecord
100
AcDbViewportTableRecord
  2
*Active
 70
     0
 10
0.0
 20
0.0
 11
1.0
 21
1.0
 12
0.0
 22
0.0
 13
0.0
 23
0.0
 14
0.5
 24
0.5
 15
0.5
 25
0.5
 16
0.0
 26
0.0
 36
1.0
 17
63.499999984125
 27
-89.00059456108309
 37
0.0
 40
178.0011891221662
 41
0.7134783795241226
 42
50.0
 43
0.0
 44
0.0
 50
0.0
 51
0.0
 71
     0
 72
   100
 73
     1
 74
     3
 75
     0
 76
     0
 77
     0
 78
     0
281
     0
 65
     1
110
0.0
120
0.0
130
0.0
111
1.0
121
0.0
131
0.0
112
0.0
122
1.0
132
0.0
 79
     0
146
0.0
 60
     3
 61
     5
292
     1
282
     1
141
0.0
142
0.0
 63
   250
361
3F
  0
ENDTAB
  0
TABLE
  2
LTYPE
  5
5
330
0
100
AcDbSymbolTable
 70
     1
  0
LTYPE
  5
14
330
5
100
AcDbSymbolTableRecord
100
AcDbLinetypeTableRecord
  2
ByBlock
 70
     0
  3

 72
    65
 73
     0
 40
0.0
  0
LTYPE
  5
15
330
5
100
AcDbSymbolTableRecord
100
AcDbLinetypeTableRecord
  2
ByLayer
 70
     0
  3

 72
    65
 73
     0
 40
0.0
  0
LTYPE
  5
16
330
5
100
AcDbSymbolTableRecord
100
AcDbLinetypeTableRecord
  2
Continuous
 70
     0
  3
Solid line
 72
    65
 73
     0
 40
0.0
  0
ENDTAB
  0
TABLE
  2
LAYER
  5
2
330
0
100
AcDbSymbolTable
 70
     2
  0
LAYER
  5
10
330
2
100
AcDbSymbolTableRecord
100
AcDbLayerTableRecord
  2
0
 70
     0
 62
     7
  6
Continuous
370
    -3
390
F
347
3E
  0
LAYER
  5
40
330
2
100
AcDbSymbolTableRecord
100
AcDbLayerTableRecord
  2
_U+30EC_U+30A4_U+30E4_U+30FC 1
 70
     0
 62
     7
  6
Continuous
370
    -3
390
F
347
3E
  0
ENDTAB
  0
TABLE
  2
STYLE
  5
3
330
0
100
AcDbSymbolTable
 70
     1
  0
STYLE
  5
11
330
3
100
AcDbSymbolTableRecord
100
AcDbTextStyleTableRecord
  2
Standard
 70
     0
 40
0.0
 41
1.0
 50
0.0
 71
     0
 42
0.2
  3
txt
  4

  0
ENDTAB
  0
TABLE
  2
VIEW
  5
6
330
0
100
AcDbSymbolTable
 70
     0
  0
ENDTAB
  0
TABLE
  2
UCS
  5
7
330
0
100
AcDbSymbolTable
 70
     0
  0
ENDTAB
  0
TABLE
  2
APPID
  5
9
330
0
100
AcDbSymbolTable
 70
     1
  0
APPID
  5
12
330
9
100
AcDbSymbolTableRecord
100
AcDbRegAppTableRecord
  2
ACAD
 70
     0
  0
ENDTAB
  0
TABLE
  2
DIMSTYLE
  5
A
330
0
100
AcDbSymbolTable
 70
     1
100
AcDbDimStyleTable
  0
DIMSTYLE
105
27
330
A
100
AcDbSymbolTableRecord
100
AcDbDimStyleTableRecord
  2
Standard
 70
     0
178
     0
340
11
  0
ENDTAB
  0
TABLE
  2
BLOCK_RECORD
  5
1
330
0
100
AcDbSymbolTable
 70
     7
  0
BLOCK_RECORD
  5
1F
330
1
100
AcDbSymbolTableRecord
100
AcDbBlockTableRecord
  2
*Model_Space
340
22
 70
     0
280
     1
281
     0
  0
BLOCK_RECORD
  5
1B
330
1
100
AcDbSymbolTableRecord
100
AcDbBlockTableRecord
  2
*Paper_Space
340
1E
 70
     0
280
     1
281
     0
  0
BLOCK_RECORD
  5
23
330
1
100
AcDbSymbolTableRecord
100
AcDbBlockTableRecord
  2
*Paper_Space0
340
26
 70
     0
280
     1
281
     0
  0
BLOCK_RECORD
  5
59
330
1
100
AcDbSymbolTableRecord
100
AcDbBlockTableRecord
  2
block 2
340
0
102
{BLKREFS
331
5A
102
}
 70
     0
280
     1
281
     0
  0
BLOCK_RECORD
  5
61
330
1
100
AcDbSymbolTableRecord
100
AcDbBlockTableRecord
  2
block 3
340
0
102
{BLKREFS
331
62
102
}
 70
     0
280
     1
281
     0
  0
BLOCK_RECORD
  5
67
330
1
100
AcDbSymbolTableRecord
100
AcDbBlockTableRecord
  2
block 4
340
0
102
{BLKREFS
331
68
102
}
 70
     0
280
     1
281
     0
  0
BLOCK_RECORD
  5
80
330
1
100
AcDbSymbolTableRecord
100
AcDbBlockTableRecord
  2
block 5
340
0
102
{BLKREFS
331
81
102
}
 70
     0
280
     1
281
     0
  0
BLOCK_RECORD
  5
88
330
1
100
AcDbSymbolTableRecord
100
AcDbBlockTableRecord
  2
block 6
340
0
102
{BLKREFS
331
89
102
}
 70
     0
280
     1
281
     0
  0
BLOCK_RECORD
  5
9F
330
1
100
AcDbSymbolTableRecord
100
AcDbBlockTableRecord
  2
block 7
340
0
102
{BLKREFS
331
A0
102
}
 70
     0
280
     1
281
     0
  0
ENDTAB
  0
ENDSEC
  0
SECTION
  2
BLOCKS
  0
BLOCK
  5
20
330
1F
100
AcDbEntity
  8
0
100
AcDbBlockBegin
  2
*Model_Space
 70
     0
 10
0.0
 20
0.0
 30
0.0
  3
*Model_Space
  1

  0
ENDBLK
  5
21
330
1F
100
AcDbEntity
  8
0
100
AcDbBlockEnd
  0
BLOCK
  5
1C
330
1B
100
AcDbEntity
 67
     1
  8
0
100
AcDbBlockBegin
  2
*Paper_Space
 70
     0
 10
0.0
 20
0.0
 30
0.0
  3
*Paper_Space
  1

  0
ENDBLK
  5
1D
330
1B
100
AcDbEntity
 67
     1
  8
0
100
AcDbBlockEnd
  0
BLOCK
  5
24
330
23
100
AcDbEntity
  8
0
100
AcDbBlockBegin
  2
*Paper_Space0
 70
     0
 10
0.0
 20
0.0
 30
0.0
  3
*Paper_Space0
  1

  0
ENDBLK
  5
25
330
23
100
AcDbEntity
  8
0
100
AcDbBlockEnd
  0
BLOCK
  5
5B
330
59
100
AcDbEntity
  8
0
100
AcDbBlockBegin
  2
block 2
 70
     0
 10
0.0
 20
0.0
 30
0.0
  3
block 2
  1

  0
SPLINE
  5
5D
330
59
100
AcDbEntity
  8
_U+30EC_U+30A4_U+30E4_U+30FC 1
370
     0
100
AcDbSpline
210
0.0
220
0.0
230
1.0
 70
    11
 71
     3
 72
    26
 73
    22
 74
     0
 42
0.0000000001
 43
0.0000000001
 12
1.0
 22
0.0
 32
0.0
 13
1.0
 23
0.0
 33
0.0
 40
0.0
 40
0.0
 40
0.0
 40
0.0
 40
1.0
 40
1.0
 40
1.0
 40
2.0
 40
2.0
 40
2.0
 40
3.0
 40
3.0
 40
3.0
 40
4.0
 40
4.0
 40
4.0
 40
5.0
 40
5.0
 40
5.0
 40
6.0
 40
6.0
 40
6.0
 40
7.0
 40
7.0
 40
7.0
 40
7.0
 10
83.31584470573354
 20
-88.70294051601871
 30
0.0
 10
83.31584470573354
 20
-88.70294051601871
 30
0.0
 10
82.21169160271097
 20
-88.70294051601871
 30
0.0
 10
82.21169160271097
 20
-88.70294051601871
 30
0.0
 10
82.21169160271097
 20
-88.70294051601871
 30
0.0
 10
82.21169160271097
 20
-89.03298066350565
 30
0.0
 10
82.21169160271097
 20
-89.03298066350565
 30
0.0
 10
82.21169160271097
 20
-89.03298066350565
 30
0.0
 10
82.06355249684523
 20
-89.03298066350565
 30
0.0
 10
82.06355249684523
 20
-89.03298066350565
 30
0.0
 10
82.04873858625865
 20
-88.70087345872756
 30
0.0
 10
81.88578556980633
 20
-88.6543646696767
 30
0.0
 10
81.77140839969604
 20
-88.62473684850355
 30
0.0
 10
81.77140839969604
 20
-88.62473684850355
 30
0.0
 10
81.77140839969604
 20
-88.47866479992895
 30
0.0
 10
81.77140839969604
 20
-88.47866479992895
 30
0.0
 10
81.77140839969604
 20
-88.47866479992895
 30
0.0
 10
83.31584470573354
 20
-88.47866479992895
 30
0.0
 10
83.31584470573354
 20
-88.47866479992895
 30
0.0
 10
83.31584470573354
 20
-88.47866479992895
 30
0.0
 10
83.31584470573354
 20
-88.70294051601871
 30
0.0
 10
83.31584470573354
 20
-88.70294051601871
 30
0.0
  0
HATCH
  5
5E
330
59
100
AcDbEntity
  8
_U+30EC_U+30A4_U+30E4_U+30FC 1
 62
   179
420
  2234388
100
AcDbHatch
 10
0.0
 20
0.0
 30
0.0
210
0.0
220
0.0
230
1.0
  2
SOLID
 70
     1
 71
     0
 91
        1
 92
        1
 93
        1
 72
     4
 94
        3
 73
     0
 74
     1
 95
       26
 96
       22
 40
0.0
 40
0.0
 40
0.0
 40
0.0
 40
1.0
 40
1.0
 40
1.0
 40
2.0
 40
2.0
 40
2.0
 40
3.0
 40
3.0
 40
3.0
 40
4.0
 40
4.0
 40
4.0
 40
5.0
 40
5.0
 40
5.0
 40
6.0
 40
6.0
 40
6.0
 40
7.0
 40
7.0
 40
7.0
 40
7.0
 10
83.31584470573354
 20
-88.70294051601871
 10
83.31584470573354
 20
-88.70294051601871
 10
82.21169160271097
 20
-88.70294051601871
 10
82.21169160271097
 20
-88.70294051601871
 10
82.21169160271097
 20
-88.70294051601871
 10
82.21169160271097
 20
-89.03298066350565
 10
82.21169160271097
 20
-89.03298066350565
 10
82.21169160271097
 20
-89.03298066350565
 10
82.06355249684523
 20
-89.03298066350565
 10
82.06355249684523
 20
-89.03298066350565
 10
82.04873858625865
 20
-88.70087345872756
 10
81.88578556980633
 20
-88.6543646696767
 10
81.77140839969604
 20
-88.62473684850355
 10
81.77140839969604
 20
-88.62473684850355
 10
81.77140839969604
 20
-88.47866479992895
 10
81.77140839969604
 20
-88.47866479992895
 10
81.77140839969604
 20
-88.47866479992895
 10
83.31584470573354
 20
-88.47866479992895
 10
83.31584470573354
 20
-88.47866479992895
 10
83.31584470573354
 20
-88.47866479992895
 10
83.31584470573354
 20
-88.70294051601871
 10
83.31584470573354
 20
-88.70294051601871
 97
        0
 97
        0
 75
     2
 76
     1
 98
        0
  0
SPLINE
  5
5F
330
59
100
AcDbEntity
  8
_U+30EC_U+30A4_U+30E4_U+30FC 1
370
     0
100
AcDbSpline
210
0.0
220
0.0
230
1.0
 70
    11
 71
     3
 72
    62
 73
    58
 74
     0
 42
0.0000000001
 43
0.0000000001
 12
1.0
 22
0.0
 32
0.0
 13
1.0
 23
0.0
 33
0.0
 40
0.0
 40
0.0
 40
0.0
 40
0.0
 40
1.0
 40
1.0
 40
1.0
 40
2.0
 40
2.0
 40
2.0
 40
3.0
 40
3.0
 40
3.0
 40
4.0
 40
4.0
 40
4.0
 40
5.0
 40
5.0
 40
5.0
 40
6.0
 40
6.0
 40
6.0
 40
7.0
 40
7.0
 40
7.0
 40
8.0
 40
8.0
 40
8.0
 40
9.0
 40
9.0
 40
9.0
 40
10.0
 40
10.0
 40
10.0
 40
11.0
 40
11.0
 40
11.0
 40
12.0
 40
12.0
 40
12.0
 40
13.0
 40
13.0
 40
13.0
 40
14.0
 40
14.0
 40
14.0
 40
15.0
 40
15.0
 40
15.0
 40
16.0
 40
16.0
 40
16.0
 40
17.0
 40
17.0
 40
17.0
 40
18.0
 40
18.0
 40
18.0
 40
19.0
 40
19.0
 40
19.0
 40
19.0
 10
83.36648760936671
 20
-87.48578828107995
 30
0.0
 10
83.36648760936671
 20
-87.58121742602137
 30
0.0
 10
83.34547252690669
 20
-87.79894746068915
 30
0.0
 10
83.1594373707032
 20
-87.92400442680372
 30
0.0
 10
83.04712725788406
 20
-87.9980739797366
 30
0.0
 10
82.94790850790886
 20
-88.0022080943189
 30
0.0
 10
82.86315915897171
 20
-88.0063422089012
 30
0.0
 10
82.86315915897171
 20
-88.0063422089012
 30
0.0
 10
82.86315915897171
 20
-87.78620060739374
 30
0.0
 10
82.86315915897171
 20
-87.78620060739374
 30
0.0
 10
82.93722871190458
 20
-87.78413355010258
 30
0.0
 10
83.1718397144501
 20
-87.77379826364684
 30
0.0
 10
83.1718397144501
 20
-87.49026690521077
 30
0.0
 10
83.1718397144501
 20
-87.3528075953493
 30
0.0
 10
83.10224878564806
 20
-87.20018986535274
 30
0.0
 10
82.873838954976
 20
-87.20018986535274
 30
0.0
 10
82.75739472757455
 20
-87.20018986535274
 30
0.0
 10
82.70881888123252
 20
-87.238430425239
 30
0.0
 10
82.67712400276822
 20
-87.27012530370331
 30
0.0
 10
82.60305444983535
 20
-87.34419485663618
 30
0.0
 10
82.59030759653993
 20
-87.46063908403762
 30
0.0
 10
82.59030759653993
 20
-87.5154161022531
 30
0.0
 10
82.59030759653993
 20
-87.53470863697049
 30
0.0
 10
82.59237465383107
 20
-87.57053763001709
 30
0.0
 10
82.59650876841337
 20
-87.5980983938991
 30
0.0
 10
82.59650876841337
 20
-87.5980983938991
 30
0.0
 10
82.40186087349676
 20
-87.5980983938991
 30
0.0
 10
82.40186087349676
 20
-87.5980983938991
 30
0.0
 10
82.40840655491874
 20
-87.55985783401282
 30
0.0
 10
82.41047361220988
 20
-87.51782766909277
 30
0.0
 10
82.41047361220988
 20
-87.5112819876708
 30
0.0
 10
82.41047361220988
 20
-87.44582517345104
 30
0.0
 10
82.38911402020133
 20
-87.24704316395213
 30
0.0
 10
82.15243596036467
 20
-87.24704316395213
 30
0.0
 10
81.97466903332578
 20
-87.24704316395213
 30
0.0
 10
81.91954750556178
 20
-87.37795679239163
 30
0.0
 10
81.91954750556178
 20
-87.48819984791962
 30
0.0
 10
81.91954750556178
 20
-87.75243867163829
 30
0.0
 10
82.15243596036467
 20
-87.76105141035141
 30
0.0
 10
82.22409394645787
 20
-87.76518552493371
 30
0.0
 10
82.22409394645787
 20
-87.76518552493371
 30
0.0
 10
82.22409394645787
 20
-87.96844615856345
 30
0.0
 10
82.22409394645787
 20
-87.96844615856345
 30
0.0
 10
82.09938148989183
 20
-87.95983341985033
 30
0.0
 10
81.72283255335402
 20
-87.93227265596832
 30
0.0
 10
81.72283255335402
 20
-87.47545299462419
 30
0.0
 10
81.72283255335402
 20
-87.25117727853443
 30
0.0
 10
81.84995657675974
 20
-87.01002059456694
 30
0.0
 10
82.1458902789427
 20
-87.01002059456694
 30
0.0
 10
82.33226994469472
 20
-87.01002059456694
 30
0.0
 10
82.41460772679218
 20
-87.10510522995983
 30
0.0
 10
82.47593042642963
 20
-87.20466848948355
 30
0.0
 10
82.50349119031164
 20
-87.14334578984611
 30
0.0
 10
82.58376191511795
 20
-86.96144474822492
 30
0.0
 10
82.86109210168057
 20
-86.96144474822492
 30
0.0
 10
83.1994004783321
 20
-86.96144474822492
 30
0.0
 10
83.36648760936671
 20
-87.20880260406585
 30
0.0
 10
83.36648760936671
 20
-87.48578828107995
 30
0.0
  0
HATCH
  5
60
330
59
100
AcDbEntity
  8
_U+30EC_U+30A4_U+30E4_U+30FC 1
 62
   179
420
  2234388
100
AcDbHatch
 10
0.0
 20
0.0
 30
0.0
210
0.0
220
0.0
230
1.0
  2
SOLID
 70
     1
 71
     0
 91
        1
 92
        1
 93
        1
 72
     4
 94
        3
 73
     0
 74
     1
 95
       62
 96
       58
 40
0.0
 40
0.0
 40
0.0
 40
0.0
 40
1.0
 40
1.0
 40
1.0
 40
2.0
 40
2.0
 40
2.0
 40
3.0
 40
3.0
 40
3.0
 40
4.0
 40
4.0
 40
4.0
 40
5.0
 40
5.0
 40
5.0
 40
6.0
 40
6.0
 40
6.0
 40
7.0
 40
7.0
 40
7.0
 40
8.0
 40
8.0
 40
8.0
 40
9.0
 40
9.0
 40
9.0
 40
10.0
 40
10.0
 40
10.0
 40
11.0
 40
11.0
 40
11.0
 40
12.0
 40
12.0
 40
12.0
 40
13.0
 40
13.0
 40
13.0
 40
14.0
 40
14.0
 40
14.0
 40
15.0
 40
15.0
 40
15.0
 40
16.0
 40
16.0
 40
16.0
 40
17.0
 40
17.0
 40
17.0
 40
18.0
 40
18.0
 40
18.0
 40
19.0
 40
19.0
 40
19.0
 40
19.0
 10
83.36648760936671
 20
-87.48578828107995
 10
83.36648760936671
 20
-87.58121742602137
 10
83.34547252690669
 20
-87.79894746068915
 10
83.1594373707032
 20
-87.92400442680372
 10
83.04712725788406
 20
-87.9980739797366
 10
82.94790850790886
 20
-88.0022080943189
 10
82.86315915897171
 20
-88.0063422089012
 10
82.86315915897171
 20
-88.0063422089012
 10
82.86315915897171
 20
-87.78620060739374
 10
82.86315915897171
 20
-87.78620060739374
 10
82.93722871190458
 20
-87.78413355010258
 10
83.1718397144501
 20
-87.77379826364684
 10
83.1718397144501
 20
-87.49026690521077
 10
83.1718397144501
 20
-87.3528075953493
 10
83.10224878564806
 20
-87.20018986535274
 10
82.873838954976
 20
-87.20018986535274
 10
82.75739472757455
 20
-87.20018986535274
 10
82.70881888123252
 20
-87.238430425239
 10
82.67712400276822
 20
-87.27012530370331
 10
82.60305444983535
 20
-87.34419485663618
 10
82.59030759653993
 20
-87.46063908403762
 10
82.59030759653993
 20
-87.5154161022531
 10
82.59030759653993
 20
-87.53470863697049
 10
82.59237465383107
 20
-87.57053763001709
 10
82.59650876841337
 20
-87.5980983938991
 10
82.59650876841337
 20
-87.5980983938991
 10
82.40186087349676
 20
-87.5980983938991
 10
82.40186087349676
 20
-87.5980983938991
 10
82.40840655491874
 20
-87.55985783401282
 10
82.41047361220988
 20
-87.51782766909277
 10
82.41047361220988
 20
-87.5112819876708
 10
82.41047361220988
 20
-87.44582517345104
 10
82.38911402020133
 20
-87.24704316395213
 10
82.15243596036467
 20
-87.24704316395213
 10
81.97466903332578
 20
-87.24704316395213
 10
81.91954750556178
 20
-87.37795679239163
 10
81.91954750556178
 20
-87.48819984791962
 10
81.91954750556178
 20
-87.75243867163829
 10
82.15243596036467
 20
-87.76105141035141
 10
82.22409394645787
 20
-87.76518552493371
 10
82.22409394645787
 20
-87.76518552493371
 10
82.22409394645787
 20
-87.96844615856345
 10
82.22409394645787
 20
-87.96844615856345
 10
82.09938148989183
 20
-87.95983341985033
 10
81.72283255335402
 20
-87.93227265596832
 10
81.72283255335402
 20
-87.47545299462419
 10
81.72283255335402
 20
-87.25117727853443
 10
81.84995657675974
 20
-87.01002059456694
 10
82.1458902789427
 20
-87.01002059456694
 10
82.33226994469472
 20
-87.01002059456694
 10
82.41460772679218
 20
-87.10510522995983
 10
82.47593042642963
 20
-87.20466848948355
 10
82.50349119031164
 20
-87.14334578984611
 10
82.58376191511795
 20
-86.96144474822492
 10
82.86109210168057
 20
-86.96144474822492
 10
83.1994004783321
 20
-86.96144474822492
 10
83.36648760936671
 20
-87.20880260406585
 10
83.36648760936671
 20
-87.48578828107995
 97
        0
 97
        0
 75
     2
 76
     1
 98
        0
  0
ENDBLK
  5
5C
330
59
100
AcDbEntity
  8
0
100
AcDbBlockEnd
  0
BLOCK
  5
63
330
61
100
AcDbEntity
  8
0
100
AcDbBlockBegin
  2
block 3
 70
     0
 10
0.0
 20
0.0
 30
0.0
  3
block 3
  1

  0
SPLINE
  5
65
330
61
100
AcDbEntity
  8
_U+30EC_U+30A4_U+30E4_U+30FC 1
370
     0
100
AcDbSpline
210
0.0
220
0.0
230
1.0
 70
    11
 71
     3
 72
    26
 73
    22
 74
     0
 42
0.0000000001
 43
0.0000000001
 12
1.0
 22
0.0
 32
0.0
 13
1.0
 23
0.0
 33
0.0
 40
0.0
 40
0.0
 40
0.0
 40
0.0
 40
1.0
 40
1.0
 40
1.0
 40
2.0
 40
2.0
 40
2.0
 40
3.0
 40
3.0
 40
3.0
 40
4.0
 40
4.0
 40
4.0
 40
5.0
 40
5.0
 40
5.0
 40
6.0
 40
6.0
 40
6.0
 40
7.0
 40
7.0
 40
7.0
 40
7.0
 10
83.31584470573354
 20
-77.56839190769124
 30
0.0
 10
83.31584470573354
 20
-77.56839190769124
 30
0.0
 10
82.21169160271097
 20
-77.56839190769124
 30
0.0
 10
82.21169160271097
 20
-77.56839190769124
 30
0.0
 10
82.21169160271097
 20
-77.56839190769124
 30
0.0
 10
82.21169160271097
 20
-77.89843205517818
 30
0.0
 10
82.21169160271097
 20
-77.89843205517818
 30
0.0
 10
82.21169160271097
 20
-77.89843205517818
 30
0.0
 10
82.06355249684523
 20
-77.89843205517818
 30
0.0
 10
82.06355249684523
 20
-77.89843205517818
 30
0.0
 10
82.04873858625865
 20
-77.5663248504001
 30
0.0
 10
81.88578556980633
 20
-77.51981606134922
 30
0.0
 10
81.77140839969604
 20
-77.49018824017607
 30
0.0
 10
81.77140839969604
 20
-77.49018824017607
 30
0.0
 10
81.77140839969604
 20
-77.34411619160147
 30
0.0
 10
81.77140839969604
 20
-77.34411619160147
 30
0.0
 10
81.77140839969604
 20
-77.34411619160147
 30
0.0
 10
83.31584470573354
 20
-77.34411619160147
 30
0.0
 10
83.31584470573354
 20
-77.34411619160147
 30
0.0
 10
83.31584470573354
 20
-77.34411619160147
 30
0.0
 10
83.31584470573354
 20
-77.56839190769124
 30
0.0
 10
83.31584470573354
 20
-77.56839190769124
 30
0.0
  0
HATCH
  5
66
330
61
100
AcDbEntity
  8
_U+30EC_U+30A4_U+30E4_U+30FC 1
 62
   179
420
  2234388
100
AcDbHatch
 10
0.0
 20
0.0
 30
0.0
210
0.0
220
0.0
230
1.0
  2
SOLID
 70
     1
 71
     0
 91
        1
 92
        1
 93
        1
 72
     4
 94
        3
 73
     0
 74
     1
 95
       26
 96
       22
 40
0.0
 40
0.0
 40
0.0
 40
0.0
 40
1.0
 40
1.0
 40
1.0
 40
2.0
 40
2.0
 40
2.0
 40
3.0
 40
3.0
 40
3.0
 40
4.0
 40
4.0
 40
4.0
 40
5.0
 40
5.0
 40
5.0
 40
6.0
 40
6.0
 40
6.0
 40
7.0
 40
7.0
 40
7.0
 40
7.0
 10
83.31584470573354
 20
-77.56839190769124
 10
83.31584470573354
 20
-77.56839190769124
 10
82.21169160271097
 20
-77.56839190769124
 10
82.21169160271097
 20
-77.56839190769124
 10
82.21169160271097
 20
-77.56839190769124
 10
82.21169160271097
 20
-77.89843205517818
 10
82.21169160271097
 20
-77.89843205517818
 10
82.21169160271097
 20
-77.89843205517818
 10
82.06355249684523
 20
-77.89843205517818
 10
82.06355249684523
 20
-77.89843205517818
 10
82.04873858625865
 20
-77.5663248504001
 10
81.88578556980633
 20
-77.51981606134922
 10
81.77140839969604
 20
-77.49018824017607
 10
81.77140839969604
 20
-77.49018824017607
 10
81.77140839969604
 20
-77.34411619160147
 10
81.77140839969604
 20
-77.34411619160147
 10
81.77140839969604
 20
-77.34411619160147
 10
83.31584470573354
 20
-77.34411619160147
 10
83.31584470573354
 20
-77.34411619160147
 10
83.31584470573354
 20
-77.34411619160147
 10
83.31584470573354
 20
-77.56839190769124
 10
83.31584470573354
 20
-77.56839190769124
 97
        0
 97
        0
 75
     2
 76
     1
 98
        0
  0
ENDBLK
  5
64
330
61
100
AcDbEntity
  8
0
100
AcDbBlockEnd
  0
BLOCK
  5
69
330
67
100
AcDbEntity
  8
0
100
AcDbBlockBegin
  2
block 4
 70
     0
 10
0.0
 20
0.0
 30
0.0
  3
block 4
  1

  0
SPLINE
  5
6B
330
67
100
AcDbEntity
  8
_U+30EC_U+30A4_U+30E4_U+30FC 1
370
     0
100
AcDbSpline
210
0.0
220
0.0
230
1.0
 70
    11
 71
     3
 72
    62
 73
    58
 74
     0
 42
0.0000000001
 43
0.0000000001
 12
1.0
 22
0.0
 32
0.0
 13
1.0
 23
0.0
 33
0.0
 40
0.0
 40
0.0
 40
0.0
 40
0.0
 40
1.0
 40
1.0
 40
1.0
 40
2.0
 40
2.0
 40
2.0
 40
3.0
 40
3.0
 40
3.0
 40
4.0
 40
4.0
 40
4.0
 40
5.0
 40
5.0
 40
5.0
 40
6.0
 40
6.0
 40
6.0
 40
7.0
 40
7.0
 40
7.0
 40
8.0
 40
8.0
 40
8.0
 40
9.0
 40
9.0
 40
9.0
 40
10.0
 40
10.0
 40
10.0
 40
11.0
 40
11.0
 40
11.0
 40
12.0
 40
12.0
 40
12.0
 40
13.0
 40
13.0
 40
13.0
 40
14.0
 40
14.0
 40
14.0
 40
15.0
 40
15.0
 40
15.0
 40
16.0
 40
16.0
 40
16.0
 40
17.0
 40
17.0
 40
17.0
 40
18.0
 40
18.0
 40
18.0
 40
19.0
 40
19.0
 40
19.0
 40
19.0
 10
83.36648760936671
 20
-96.05167369560515
 30
0.0
 10
83.36648760936671
 20
-96.14710284054657
 30
0.0
 10
83.34547252690669
 20
-96.36483287521435
 30
0.0
 10
83.1594373707032
 20
-96.48988984132892
 30
0.0
 10
83.04712725788406
 20
-96.56395939426179
 30
0.0
 10
82.94790850790886
 20
-96.56809350884409
 30
0.0
 10
82.86315915897171
 20
-96.57222762342639
 30
0.0
 10
82.86315915897171
 20
-96.57222762342639
 30
0.0
 10
82.86315915897171
 20
-96.35208602191892
 30
0.0
 10
82.86315915897171
 20
-96.35208602191892
 30
0.0
 10
82.93722871190458
 20
-96.35001896462778
 30
0.0
 10
83.1718397144501
 20
-96.33968367817202
 30
0.0
 10
83.1718397144501
 20
-96.05615231973597
 30
0.0
 10
83.1718397144501
 20
-95.9186930098745
 30
0.0
 10
83.10224878564806
 20
-95.76607527987792
 30
0.0
 10
82.873838954976
 20
-95.76607527987792
 30
0.0
 10
82.75739472757455
 20
-95.76607527987792
 30
0.0
 10
82.70881888123252
 20
-95.8043158397642
 30
0.0
 10
82.67712400276822
 20
-95.83601071822851
 30
0.0
 10
82.60305444983535
 20
-95.91008027116138
 30
0.0
 10
82.59030759653993
 20
-96.02652449856282
 30
0.0
 10
82.59030759653993
 20
-96.0813015167783
 30
0.0
 10
82.59030759653993
 20
-96.10059405149569
 30
0.0
 10
82.59237465383107
 20
-96.13642304454228
 30
0.0
 10
82.59650876841337
 20
-96.16398380842429
 30
0.0
 10
82.59650876841337
 20
-96.16398380842429
 30
0.0
 10
82.40186087349676
 20
-96.16398380842429
 30
0.0
 10
82.40186087349676
 20
-96.16398380842429
 30
0.0
 10
82.40840655491874
 20
-96.12574324853801
 30
0.0
 10
82.41047361220988
 20
-96.08371308361797
 30
0.0
 10
82.41047361220988
 20
-96.077167402196
 30
0.0
 10
82.41047361220988
 20
-96.01171058797624
 30
0.0
 10
82.38911402020133
 20
-95.81292857847733
 30
0.0
 10
82.15243596036467
 20
-95.81292857847733
 30
0.0
 10
81.97466903332578
 20
-95.81292857847733
 30
0.0
 10
81.91954750556178
 20
-95.94384220691683
 30
0.0
 10
81.91954750556178
 20
-96.05408526244481
 30
0.0
 10
81.91954750556178
 20
-96.31832408616349
 30
0.0
 10
82.15243596036467
 20
-96.3269368248766
 30
0.0
 10
82.22409394645787
 20
-96.3310709394589
 30
0.0
 10
82.22409394645787
 20
-96.3310709394589
 30
0.0
 10
82.22409394645787
 20
-96.53433157308865
 30
0.0
 10
82.22409394645787
 20
-96.53433157308865
 30
0.0
 10
82.09938148989183
 20
-96.52571883437552
 30
0.0
 10
81.72283255335402
 20
-96.49815807049352
 30
0.0
 10
81.72283255335402
 20
-96.04133840914939
 30
0.0
 10
81.72283255335402
 20
-95.81706269305963
 30
0.0
 10
81.84995657675974
 20
-95.57590600909214
 30
0.0
 10
82.1458902789427
 20
-95.57590600909214
 30
0.0
 10
82.33226994469472
 20
-95.57590600909214
 30
0.0
 10
82.41460772679218
 20
-95.67099064448503
 30
0.0
 10
82.47593042642963
 20
-95.77055390400875
 30
0.0
 10
82.50349119031164
 20
-95.7092312043713
 30
0.0
 10
82.58376191511795
 20
-95.52733016275012
 30
0.0
 10
82.86109210168057
 20
-95.52733016275012
 30
0.0
 10
83.1994004783321
 20
-95.52733016275012
 30
0.0
 10
83.36648760936671
 20
-95.77468801859105
 30
0.0
 10
83.36648760936671
 20
-96.05167369560515
 30
0.0
  0
HATCH
  5
6C
330
67
100
AcDbEntity
  8
_U+30EC_U+30A4_U+30E4_U+30FC 1
 62
   179
420
  2234388
100
AcDbHatch
 10
0.0
 20
0.0
 30
0.0
210
0.0
220
0.0
230
1.0
  2
SOLID
 70
     1
 71
     0
 91
        1
 92
        1
 93
        1
 72
     4
 94
        3
 73
     0
 74
     1
 95
       62
 96
       58
 40
0.0
 40
0.0
 40
0.0
 40
0.0
 40
1.0
 40
1.0
 40
1.0
 40
2.0
 40
2.0
 40
2.0
 40
3.0
 40
3.0
 40
3.0
 40
4.0
 40
4.0
 40
4.0
 40
5.0
 40
5.0
 40
5.0
 40
6.0
 40
6.0
 40
6.0
 40
7.0
 40
7.0
 40
7.0
 40
8.0
 40
8.0
 40
8.0
 40
9.0
 40
9.0
 40
9.0
 40
10.0
 40
10.0
 40
10.0
 40
11.0
 40
11.0
 40
11.0
 40
12.0
 40
12.0
 40
12.0
 40
13.0
 40
13.0
 40
13.0
 40
14.0
 40
14.0
 40
14.0
 40
15.0
 40
15.0
 40
15.0
 40
16.0
 40
16.0
 40
16.0
 40
17.0
 40
17.0
 40
17.0
 40
18.0
 40
18.0
 40
18.0
 40
19.0
 40
19.0
 40
19.0
 40
19.0
 10
83.36648760936671
 20
-96.05167369560515
 10
83.36648760936671
 20
-96.14710284054657
 10
83.34547252690669
 20
-96.36483287521435
 10
83.1594373707032
 20
-96.48988984132892
 10
83.04712725788406
 20
-96.56395939426179
 10
82.94790850790886
 20
-96.56809350884409
 10
82.86315915897171
 20
-96.57222762342639
 10
82.86315915897171
 20
-96.57222762342639
 10
82.86315915897171
 20
-96.35208602191892
 10
82.86315915897171
 20
-96.35208602191892
 10
82.93722871190458
 20
-96.35001896462778
 10
83.1718397144501
 20
-96.33968367817202
 10
83.1718397144501
 20
-96.05615231973597
 10
83.1718397144501
 20
-95.9186930098745
 10
83.10224878564806
 20
-95.76607527987792
 10
82.873838954976
 20
-95.76607527987792
 10
82.75739472757455
 20
-95.76607527987792
 10
82.70881888123252
 20
-95.8043158397642
 10
82.67712400276822
 20
-95.83601071822851
 10
82.60305444983535
 20
-95.91008027116138
 10
82.59030759653993
 20
-96.02652449856282
 10
82.59030759653993
 20
-96.0813015167783
 10
82.59030759653993
 20
-96.10059405149569
 10
82.59237465383107
 20
-96.13642304454228
 10
82.59650876841337
 20
-96.16398380842429
 10
82.59650876841337
 20
-96.16398380842429
 10
82.40186087349676
 20
-96.16398380842429
 10
82.40186087349676
 20
-96.16398380842429
 10
82.40840655491874
 20
-96.12574324853801
 10
82.41047361220988
 20
-96.08371308361797
 10
82.41047361220988
 20
-96.077167402196
 10
82.41047361220988
 20
-96.01171058797624
 10
82.38911402020133
 20
-95.81292857847733
 10
82.15243596036467
 20
-95.81292857847733
 10
81.97466903332578
 20
-95.81292857847733
 10
81.91954750556178
 20
-95.94384220691683
 10
81.91954750556178
 20
-96.05408526244481
 10
81.91954750556178
 20
-96.31832408616349
 10
82.15243596036467
 20
-96.3269368248766
 10
82.22409394645787
 20
-96.3310709394589
 10
82.22409394645787
 20
-96.3310709394589
 10
82.22409394645787
 20
-96.53433157308865
 10
82.22409394645787
 20
-96.53433157308865
 10
82.09938148989183
 20
-96.52571883437552
 10
81.72283255335402
 20
-96.49815807049352
 10
81.72283255335402
 20
-96.04133840914939
 10
81.72283255335402
 20
-95.81706269305963
 10
81.84995657675974
 20
-95.57590600909214
 10
82.1458902789427
 20
-95.57590600909214
 10
82.33226994469472
 20
-95.57590600909214
 10
82.41460772679218
 20
-95.67099064448503
 10
82.47593042642963
 20
-95.77055390400875
 10
82.50349119031164
 20
-95.7092312043713
 10
82.58376191511795
 20
-95.52733016275012
 10
82.86109210168057
 20
-95.52733016275012
 10
83.1994004783321
 20
-95.52733016275012
 10
83.36648760936671
 20
-95.77468801859105
 10
83.36648760936671
 20
-96.05167369560515
 97
        0
 97
        0
 75
     2
 76
     1
 98
        0
  0
ENDBLK
  5
6A
330
67
100
AcDbEntity
  8
0
100
AcDbBlockEnd
  0
BLOCK
  5
82
330
80
100
AcDbEntity
  8
0
100
AcDbBlockBegin
  2
block 5
 70
     0
 10
0.0
 20
0.0
 30
0.0
  3
block 5
  1

  0
SPLINE
  5
84
330
80
100
AcDbEntity
  8
_U+30EC_U+30A4_U+30E4_U+30FC 1
370
     0
100
AcDbSpline
210
0.0
220
0.0
230
1.0
 70
    11
 71
     3
 72
    44
 73
    40
 74
     0
 42
0.0000000001
 43
0.0000000001
 12
1.0
 22
0.0
 32
0.0
 13
1.0
 23
0.0
 33
0.0
 40
0.0
 40
0.0
 40
0.0
 40
0.0
 40
1.0
 40
1.0
 40
1.0
 40
2.0
 40
2.0
 40
2.0
 40
3.0
 40
3.0
 40
3.0
 40
4.0
 40
4.0
 40
4.0
 40
5.0
 40
5.0
 40
5.0
 40
6.0
 40
6.0
 40
6.0
 40
7.0
 40
7.0
 40
7.0
 40
8.0
 40
8.0
 40
8.0
 40
9.0
 40
9.0
 40
9.0
 40
10.0
 40
10.0
 40
10.0
 40
11.0
 40
11.0
 40
11.0
 40
12.0
 40
12.0
 40
12.0
 40
13.0
 40
13.0
 40
13.0
 40
13.0
 10
65.16742619898592
 20
-76.63373750254296
 30
0.0
 10
64.94969616431814
 20
-76.79255640441298
 30
0.0
 10
64.85667858621639
 20
-76.86662595734585
 30
0.0
 10
64.80775823032585
 20
-77.01028643908076
 30
0.0
 10
64.80775823032585
 20
-77.01028643908076
 30
0.0
 10
65.5863498099923
 20
-77.01028643908076
 30
0.0
 10
65.5863498099923
 20
-77.01028643908076
 30
0.0
 10
65.5863498099923
 20
-77.01028643908076
 30
0.0
 10
65.5863498099923
 20
-77.21561413000165
 30
0.0
 10
65.5863498099923
 20
-77.21561413000165
 30
0.0
 10
65.5863498099923
 20
-77.21561413000165
 30
0.0
 10
64.55833331719376
 20
-77.21561413000165
 30
0.0
 10
64.55833331719376
 20
-77.21561413000165
 30
0.0
 10
64.59002819565805
 20
-76.85801321863272
 30
0.0
 10
64.6554850098778
 20
-76.77980955111755
 30
0.0
 10
65.04064668512873
 20
-76.48146428209492
 30
0.0
 10
65.29627277013427
 20
-76.282682272596
 30
0.0
 10
65.36172958435401
 20
-76.21481389153658
 30
0.0
 10
65.36172958435401
 20
-76.07735458167511
 30
0.0
 10
65.36172958435401
 20
-75.95884329698251
 30
0.0
 10
65.29007159826082
 20
-75.82792966854302
 30
0.0
 10
65.09301213650453
 20
-75.82792966854302
 30
0.0
 10
64.8332519369167
 20
-75.82792966854302
 30
0.0
 10
64.82429468865504
 20
-76.05840655650624
 30
0.0
 10
64.82016057407274
 20
-76.17485078390769
 30
0.0
 10
64.82016057407274
 20
-76.17485078390769
 30
0.0
 10
64.5962293675315
 20
-76.17485078390769
 30
0.0
 10
64.5962293675315
 20
-76.17485078390769
 30
0.0
 10
64.6044975966961
 20
-76.04772676050196
 30
0.0
 10
64.6155219022489
 20
-75.93576115723134
 30
0.0
 10
64.6954481175067
 20
-75.81724987253875
 30
0.0
 10
64.80569117303469
 20
-75.65636391337758
 30
0.0
 10
64.99172632923818
 20
-75.62260197762212
 30
0.0
 10
65.10817055663962
 20
-75.62260197762212
 30
0.0
 10
65.38515623365372
 20
-75.62260197762212
 30
0.0
 10
65.59255098186576
 20
-75.80657007653447
 30
0.0
 10
65.59255098186576
 20
-76.07942163896625
 30
0.0
 10
65.59255098186576
 20
-76.30817597918684
 30
0.0
 10
65.47610675446431
 20
-76.40739472916205
 30
0.0
 10
65.16742619898592
 20
-76.63373750254296
 30
0.0
  0
HATCH
  5
85
330
80
100
AcDbEntity
  8
_U+30EC_U+30A4_U+30E4_U+30FC 1
 62
   179
420
  2234388
100
AcDbHatch
 10
0.0
 20
0.0
 30
0.0
210
0.0
220
0.0
230
1.0
  2
SOLID
 70
     1
 71
     0
 91
        1
 92
        1
 93
        1
 72
     4
 94
        3
 73
     0
 74
     1
 95
       44
 96
       40
 40
0.0
 40
0.0
 40
0.0
 40
0.0
 40
1.0
 40
1.0
 40
1.0
 40
2.0
 40
2.0
 40
2.0
 40
3.0
 40
3.0
 40
3.0
 40
4.0
 40
4.0
 40
4.0
 40
5.0
 40
5.0
 40
5.0
 40
6.0
 40
6.0
 40
6.0
 40
7.0
 40
7.0
 40
7.0
 40
8.0
 40
8.0
 40
8.0
 40
9.0
 40
9.0
 40
9.0
 40
10.0
 40
10.0
 40
10.0
 40
11.0
 40
11.0
 40
11.0
 40
12.0
 40
12.0
 40
12.0
 40
13.0
 40
13.0
 40
13.0
 40
13.0
 10
65.16742619898592
 20
-76.63373750254296
 10
64.94969616431814
 20
-76.79255640441298
 10
64.85667858621639
 20
-76.86662595734585
 10
64.80775823032585
 20
-77.01028643908076
 10
64.80775823032585
 20
-77.01028643908076
 10
65.5863498099923
 20
-77.01028643908076
 10
65.5863498099923
 20
-77.01028643908076
 10
65.5863498099923
 20
-77.01028643908076
 10
65.5863498099923
 20
-77.21561413000165
 10
65.5863498099923
 20
-77.21561413000165
 10
65.5863498099923
 20
-77.21561413000165
 10
64.55833331719376
 20
-77.21561413000165
 10
64.55833331719376
 20
-77.21561413000165
 10
64.59002819565805
 20
-76.85801321863272
 10
64.6554850098778
 20
-76.77980955111755
 10
65.04064668512873
 20
-76.48146428209492
 10
65.29627277013427
 20
-76.282682272596
 10
65.36172958435401
 20
-76.21481389153658
 10
65.36172958435401
 20
-76.07735458167511
 10
65.36172958435401
 20
-75.95884329698251
 10
65.29007159826082
 20
-75.82792966854302
 10
65.09301213650453
 20
-75.82792966854302
 10
64.8332519369167
 20
-75.82792966854302
 10
64.82429468865504
 20
-76.05840655650624
 10
64.82016057407274
 20
-76.17485078390769
 10
64.82016057407274
 20
-76.17485078390769
 10
64.5962293675315
 20
-76.17485078390769
 10
64.5962293675315
 20
-76.17485078390769
 10
64.6044975966961
 20
-76.04772676050196
 10
64.6155219022489
 20
-75.93576115723134
 10
64.6954481175067
 20
-75.81724987253875
 10
64.80569117303469
 20
-75.65636391337758
 10
64.99172632923818
 20
-75.62260197762212
 10
65.10817055663962
 20
-75.62260197762212
 10
65.38515623365372
 20
-75.62260197762212
 10
65.59255098186576
 20
-75.80657007653447
 10
65.59255098186576
 20
-76.07942163896625
 10
65.59255098186576
 20
-76.30817597918684
 10
65.47610675446431
 20
-76.40739472916205
 10
65.16742619898592
 20
-76.63373750254296
 97
        0
 97
        0
 75
     2
 76
     1
 98
        0
  0
SPLINE
  5
86
330
80
100
AcDbEntity
  8
_U+30EC_U+30A4_U+30E4_U+30FC 1
370
     0
100
AcDbSpline
210
0.0
220
0.0
230
1.0
 70
    11
 71
     3
 72
    53
 73
    49
 74
     0
 42
0.0000000001
 43
0.0000000001
 12
1.0
 22
0.0
 32
0.0
 13
1.0
 23
0.0
 33
0.0
 40
0.0
 40
0.0
 40
0.0
 40
0.0
 40
1.0
 40
1.0
 40
1.0
 40
2.0
 40
2.0
 40
2.0
 40
3.0
 40
3.0
 40
3.0
 40
4.0
 40
4.0
 40
4.0
 40
5.0
 40
5.0
 40
5.0
 40
6.0
 40
6.0
 40
6.0
 40
7.0
 40
7.0
 40
7.0
 40
8.0
 40
8.0
 40
8.0
 40
9.0
 40
9.0
 40
9.0
 40
10.0
 40
10.0
 40
10.0
 40
11.0
 40
11.0
 40
11.0
 40
12.0
 40
12.0
 40
12.0
 40
13.0
 40
13.0
 40
13.0
 40
14.0
 40
14.0
 40
14.0
 40
15.0
 40
15.0
 40
15.0
 40
16.0
 40
16.0
 40
16.0
 40
16.0
 10
66.23196070392812
 20
-77.26625703363483
 30
0.0
 10
66.15410154596148
 20
-77.26625703363483
 30
0.0
 10
66.05212671959808
 20
-77.2493760657571
 30
0.0
 10
65.95084091233174
 20
-77.1859863088285
 30
0.0
 10
65.77720809987514
 20
-77.07608776284904
 30
0.0
 10
65.7558485078666
 20
-76.94482962486101
 30
0.0
 10
65.73724499224625
 20
-76.8369981361727
 30
0.0
 10
65.73724499224625
 20
-76.8369981361727
 30
0.0
 10
65.95910914149634
 20
-76.8369981361727
 30
0.0
 10
65.95910914149634
 20
-76.8369981361727
 30
0.0
 10
66.01423066926033
 20
-77.03578014567161
 30
0.0
 10
66.14101018311753
 20
-77.06540796684476
 30
0.0
 10
66.23402776121928
 20
-77.06540796684476
 30
0.0
 10
66.37389863792042
 20
-77.06540796684476
 30
0.0
 10
66.52617185836846
 20
-76.96584470732104
 30
0.0
 10
66.52617185836846
 20
-76.73330076206668
 30
0.0
 10
66.52617185836846
 20
-76.47733016751262
 30
0.0
 10
66.34633787403841
 20
-76.40739472916205
 30
0.0
 10
66.22575953205468
 20
-76.40739472916205
 30
0.0
 10
66.19406465359037
 20
-76.40739472916205
 30
0.0
 10
66.05212671959808
 20
-76.40739472916205
 30
0.0
 10
65.96324325607864
 20
-76.5365858098589
 30
0.0
 10
65.96324325607864
 20
-76.5365858098589
 30
0.0
 10
65.7875433863309
 20
-76.51763778469004
 30
0.0
 10
65.7875433863309
 20
-76.51763778469004
 30
0.0
 10
65.7875433863309
 20
-76.51763778469004
 30
0.0
 10
65.90812172831464
 20
-75.67117782396416
 30
0.0
 10
65.90812172831464
 20
-75.67117782396416
 30
0.0
 10
65.90812172831464
 20
-75.67117782396416
 30
0.0
 10
66.68671330798111
 20
-75.67117782396416
 30
0.0
 10
66.68671330798111
 20
-75.67117782396416
 30
0.0
 10
66.68671330798111
 20
-75.67117782396416
 30
0.0
 10
66.68671330798111
 20
-75.86582571888077
 30
0.0
 10
66.68671330798111
 20
-75.86582571888077
 30
0.0
 10
66.68671330798111
 20
-75.86582571888077
 30
0.0
 10
66.07141925431549
 20
-75.86582571888077
 30
0.0
 10
66.07141925431549
 20
-75.86582571888077
 30
0.0
 10
66.07141925431549
 20
-75.86582571888077
 30
0.0
 10
66.00596244009573
 20
-76.28888344446945
 30
0.0
 10
66.00596244009573
 20
-76.28888344446945
 30
0.0
 10
66.06728513973319
 20
-76.255121508714
 30
0.0
 10
66.14927841228213
 20
-76.21481389153658
 30
0.0
 10
66.26778969697472
 20
-76.21481389153658
 30
0.0
 10
66.52203774378616
 20
-76.21481389153658
 30
0.0
 10
66.75906031317135
 20
-76.4011935572886
 30
0.0
 10
66.75906031317135
 20
-76.71435273689781
 30
0.0
 10
66.75906031317135
 20
-77.03164603108931
 30
0.0
 10
66.53444008753306
 20
-77.26625703363483
 30
0.0
 10
66.23196070392812
 20
-77.26625703363483
 30
0.0
  0
HATCH
  5
87
330
80
100
AcDbEntity
  8
_U+30EC_U+30A4_U+30E4_U+30FC 1
 62
   179
420
  2234388
100
AcDbHatch
 10
0.0
 20
0.0
 30
0.0
210
0.0
220
0.0
230
1.0
  2
SOLID
 70
     1
 71
     0
 91
        1
 92
        1
 93
        1
 72
     4
 94
        3
 73
     0
 74
     1
 95
       53
 96
       49
 40
0.0
 40
0.0
 40
0.0
 40
0.0
 40
1.0
 40
1.0
 40
1.0
 40
2.0
 40
2.0
 40
2.0
 40
3.0
 40
3.0
 40
3.0
 40
4.0
 40
4.0
 40
4.0
 40
5.0
 40
5.0
 40
5.0
 40
6.0
 40
6.0
 40
6.0
 40
7.0
 40
7.0
 40
7.0
 40
8.0
 40
8.0
 40
8.0
 40
9.0
 40
9.0
 40
9.0
 40
10.0
 40
10.0
 40
10.0
 40
11.0
 40
11.0
 40
11.0
 40
12.0
 40
12.0
 40
12.0
 40
13.0
 40
13.0
 40
13.0
 40
14.0
 40
14.0
 40
14.0
 40
15.0
 40
15.0
 40
15.0
 40
16.0
 40
16.0
 40
16.0
 40
16.0
 10
66.23196070392812
 20
-77.26625703363483
 10
66.15410154596148
 20
-77.26625703363483
 10
66.05212671959808
 20
-77.2493760657571
 10
65.95084091233174
 20
-77.1859863088285
 10
65.77720809987514
 20
-77.07608776284904
 10
65.7558485078666
 20
-76.94482962486101
 10
65.73724499224625
 20
-76.8369981361727
 10
65.73724499224625
 20
-76.8369981361727
 10
65.95910914149634
 20
-76.8369981361727
 10
65.95910914149634
 20
-76.8369981361727
 10
66.01423066926033
 20
-77.03578014567161
 10
66.14101018311753
 20
-77.06540796684476
 10
66.23402776121928
 20
-77.06540796684476
 10
66.37389863792042
 20
-77.06540796684476
 10
66.52617185836846
 20
-76.96584470732104
 10
66.52617185836846
 20
-76.73330076206668
 10
66.52617185836846
 20
-76.47733016751262
 10
66.34633787403841
 20
-76.40739472916205
 10
66.22575953205468
 20
-76.40739472916205
 10
66.19406465359037
 20
-76.40739472916205
 10
66.05212671959808
 20
-76.40739472916205
 10
65.96324325607864
 20
-76.5365858098589
 10
65.96324325607864
 20
-76.5365858098589
 10
65.7875433863309
 20
-76.51763778469004
 10
65.7875433863309
 20
-76.51763778469004
 10
65.7875433863309
 20
-76.51763778469004
 10
65.90812172831464
 20
-75.67117782396416
 10
65.90812172831464
 20
-75.67117782396416
 10
65.90812172831464
 20
-75.67117782396416
 10
66.68671330798111
 20
-75.67117782396416
 10
66.68671330798111
 20
-75.67117782396416
 10
66.68671330798111
 20
-75.67117782396416
 10
66.68671330798111
 20
-75.86582571888077
 10
66.68671330798111
 20
-75.86582571888077
 10
66.68671330798111
 20
-75.86582571888077
 10
66.07141925431549
 20
-75.86582571888077
 10
66.07141925431549
 20
-75.86582571888077
 10
66.07141925431549
 20
-75.86582571888077
 10
66.00596244009573
 20
-76.28888344446945
 10
66.00596244009573
 20
-76.28888344446945
 10
66.06728513973319
 20
-76.255121508714
 10
66.14927841228213
 20
-76.21481389153658
 10
66.26778969697472
 20
-76.21481389153658
 10
66.52203774378616
 20
-76.21481389153658
 10
66.75906031317135
 20
-76.4011935572886
 10
66.75906031317135
 20
-76.71435273689781
 10
66.75906031317135
 20
-77.03164603108931
 10
66.53444008753306
 20
-77.26625703363483
 10
66.23196070392812
 20
-77.26625703363483
 97
        0
 97
        0
 75
     2
 76
     1
 98
        0
  0
ENDBLK
  5
83
330
80
100
AcDbEntity
  8
0
100
AcDbBlockEnd
  0
BLOCK
  5
8A
330
88
100
AcDbEntity
  8
0
100
AcDbBlockBegin
  2
block 6
 70
     0
 10
0.0
 20
0.0
 30
0.0
  3
block 6
  1

  0
SPLINE
  5
8C
330
88
100
AcDbEntity
  8
_U+30EC_U+30A4_U+30E4_U+30FC 1
370
     0
100
AcDbSpline
210
0.0
220
0.0
230
1.0
 70
    11
 71
     3
 72
    26
 73
    22
 74
     0
 42
0.0000000001
 43
0.0000000001
 12
1.0
 22
0.0
 32
0.0
 13
1.0
 23
0.0
 33
0.0
 40
0.0
 40
0.0
 40
0.0
 40
0.0
 40
1.0
 40
1.0
 40
1.0
 40
2.0
 40
2.0
 40
2.0
 40
3.0
 40
3.0
 40
3.0
 40
4.0
 40
4.0
 40
4.0
 40
5.0
 40
5.0
 40
5.0
 40
6.0
 40
6.0
 40
6.0
 40
7.0
 40
7.0
 40
7.0
 40
7.0
 10
47.72180717122927
 20
-77.21561413000165
 30
0.0
 10
47.72180717122927
 20
-77.21561413000165
 30
0.0
 10
47.72180717122927
 20
-76.11146102697909
 30
0.0
 10
47.72180717122927
 20
-76.11146102697909
 30
0.0
 10
47.72180717122927
 20
-76.11146102697909
 30
0.0
 10
47.39176702374234
 20
-76.11146102697909
 30
0.0
 10
47.39176702374234
 20
-76.11146102697909
 30
0.0
 10
47.39176702374234
 20
-76.11146102697909
 30
0.0
 10
47.39176702374234
 20
-75.96332192111333
 30
0.0
 10
47.39176702374234
 20
-75.96332192111333
 30
0.0
 10
47.72387422852042
 20
-75.94850801052677
 30
0.0
 10
47.7703830175713
 20
-75.78555499407445
 30
0.0
 10
47.80001083874444
 20
-75.67117782396416
 30
0.0
 10
47.80001083874444
 20
-75.67117782396416
 30
0.0
 10
47.94608288731904
 20
-75.67117782396416
 30
0.0
 10
47.94608288731904
 20
-75.67117782396416
 30
0.0
 10
47.94608288731904
 20
-75.67117782396416
 30
0.0
 10
47.94608288731904
 20
-77.21561413000165
 30
0.0
 10
47.94608288731904
 20
-77.21561413000165
 30
0.0
 10
47.94608288731904
 20
-77.21561413000165
 30
0.0
 10
47.72180717122927
 20
-77.21561413000165
 30
0.0
 10
47.72180717122927
 20
-77.21561413000165
 30
0.0
  0
HATCH
  5
8D
330
88
100
AcDbEntity
  8
_U+30EC_U+30A4_U+30E4_U+30FC 1
 62
   179
420
  2234388
100
AcDbHatch
 10
0.0
 20
0.0
 30
0.0
210
0.0
220
0.0
230
1.0
  2
SOLID
 70
     1
 71
     0
 91
        1
 92
        1
 93
        1
 72
     4
 94
        3
 73
     0
 74
     1
 95
       26
 96
       22
 40
0.0
 40
0.0
 40
0.0
 40
0.0
 40
1.0
 40
1.0
 40
1.0
 40
2.0
 40
2.0
 40
2.0
 40
3.0
 40
3.0
 40
3.0
 40
4.0
 40
4.0
 40
4.0
 40
5.0
 40
5.0
 40
5.0
 40
6.0
 40
6.0
 40
6.0
 40
7.0
 40
7.0
 40
7.0
 40
7.0
 10
47.72180717122927
 20
-77.21561413000165
 10
47.72180717122927
 20
-77.21561413000165
 10
47.72180717122927
 20
-76.11146102697909
 10
47.72180717122927
 20
-76.11146102697909
 10
47.72180717122927
 20
-76.11146102697909
 10
47.39176702374234
 20
-76.11146102697909
 10
47.39176702374234
 20
-76.11146102697909
 10
47.39176702374234
 20
-76.11146102697909
 10
47.39176702374234
 20
-75.96332192111333
 10
47.39176702374234
 20
-75.96332192111333
 10
47.72387422852042
 20
-75.94850801052677
 10
47.7703830175713
 20
-75.78555499407445
 10
47.80001083874444
 20
-75.67117782396416
 10
47.80001083874444
 20
-75.67117782396416
 10
47.94608288731904
 20
-75.67117782396416
 10
47.94608288731904
 20
-75.67117782396416
 10
47.94608288731904
 20
-75.67117782396416
 10
47.94608288731904
 20
-77.21561413000165
 10
47.94608288731904
 20
-77.21561413000165
 10
47.94608288731904
 20
-77.21561413000165
 10
47.72180717122927
 20
-77.21561413000165
 10
47.72180717122927
 20
-77.21561413000165
 97
        0
 97
        0
 75
     2
 76
     1
 98
        0
  0
SPLINE
  5
8E
330
88
100
AcDbEntity
  8
_U+30EC_U+30A4_U+30E4_U+30FC 1
370
     0
100
AcDbSpline
210
0.0
220
0.0
230
1.0
 70
    11
 71
     3
 72
    29
 73
    25
 74
     0
 42
0.0000000001
 43
0.0000000001
 12
1.0
 22
0.0
 32
0.0
 13
1.0
 23
0.0
 33
0.0
 40
0.0
 40
0.0
 40
0.0
 40
0.0
 40
1.0
 40
1.0
 40
1.0
 40
2.0
 40
2.0
 40
2.0
 40
3.0
 40
3.0
 40
3.0
 40
4.0
 40
4.0
 40
4.0
 40
5.0
 40
5.0
 40
5.0
 40
6.0
 40
6.0
 40
6.0
 40
7.0
 40
7.0
 40
7.0
 40
8.0
 40
8.0
 40
8.0
 40
8.0
 10
49.345136163879
 20
-77.03784720296277
 30
0.0
 10
49.23696016564215
 20
-77.24730900846595
 30
0.0
 10
49.06367186273408
 20
-77.26625703363483
 30
0.0
 10
48.94722763533264
 20
-77.26625703363483
 30
0.0
 10
48.78634167617147
 20
-77.26625703363483
 30
0.0
 10
48.64474825172771
 20
-77.21974824458395
 30
0.0
 10
48.54966361633481
 20
-77.03784720296277
 30
0.0
 10
48.44596624222878
 20
-76.84319930804615
 30
0.0
 10
48.42667370751139
 20
-76.60652124820949
 30
0.0
 10
48.42667370751139
 20
-76.44356823175717
 30
0.0
 10
48.42667370751139
 20
-76.29956324047373
 30
0.0
 10
48.44389918493764
 20
-76.04772676050196
 30
0.0
 10
48.54966361633481
 20
-75.84894475100305
 30
0.0
 10
48.65749510502313
 20
-75.64602862692183
 30
0.0
 10
48.81838106418429
 20
-75.62260197762212
 30
0.0
 10
48.94722763533264
 20
-75.62260197762212
 30
0.0
 10
49.10604653720266
 20
-75.62260197762212
 30
0.0
 10
49.24970701893758
 20
-75.66704370938186
 30
0.0
 10
49.345136163879
 20
-75.84894475100305
 30
0.0
 10
49.44435491385419
 20
-76.04152558862852
 30
0.0
 10
49.46778156315389
 20
-76.26993541930058
 30
0.0
 10
49.46778156315389
 20
-76.44356823175717
 30
0.0
 10
49.46778156315389
 20
-76.61478947737409
 30
0.0
 10
49.44642197114534
 20
-76.8452663653373
 30
0.0
 10
49.345136163879
 20
-77.03784720296277
 30
0.0
  0
SPLINE
  5
8F
330
88
100
AcDbEntity
  8
_U+30EC_U+30A4_U+30E4_U+30FC 1
370
     0
100
AcDbSpline
210
0.0
220
0.0
230
1.0
 70
    11
 71
     3
 72
    17
 73
    13
 74
     0
 42
0.0000000001
 43
0.0000000001
 12
1.0
 22
0.0
 32
0.0
 13
1.0
 23
0.0
 33
0.0
 40
0.0
 40
0.0
 40
0.0
 40
0.0
 40
1.0
 40
1.0
 40
1.0
 40
2.0
 40
2.0
 40
2.0
 40
3.0
 40
3.0
 40
3.0
 40
4.0
 40
4.0
 40
4.0
 40
4.0
 10
48.94722763533264
 20
-75.8151828152476
 30
0.0
 10
48.69745821265202
 20
-75.8151828152476
 30
0.0
 10
48.65094942360115
 20
-76.09871417368366
 30
0.0
 10
48.65094942360115
 20
-76.44356823175717
 30
0.0
 10
48.65094942360115
 20
-76.76292858323983
 30
0.0
 10
48.68712292619627
 20
-77.07160913871822
 30
0.0
 10
48.94722763533264
 20
-77.07160913871822
 30
0.0
 10
49.1949300007221
 20
-77.07160913871822
 30
0.0
 10
49.24350584706413
 20
-76.79048934712182
 30
0.0
 10
49.24350584706413
 20
-76.44356823175717
 30
0.0
 10
49.24350584706413
 20
-76.12386337072599
 30
0.0
 10
49.20526528717785
 20
-75.8151828152476
 30
0.0
 10
48.94722763533264
 20
-75.8151828152476
 30
0.0
  0
HATCH
  5
90
330
88
100
AcDbEntity
  8
_U+30EC_U+30A4_U+30E4_U+30FC 1
 62
   179
420
  2234388
100
AcDbHatch
 10
0.0
 20
0.0
 30
0.0
210
0.0
220
0.0
230
1.0
  2
SOLID
 70
     1
 71
     0
 91
        2
 92
        1
 93
        1
 72
     4
 94
        3
 73
     0
 74
     1
 95
       29
 96
       25
 40
0.0
 40
0.0
 40
0.0
 40
0.0
 40
1.0
 40
1.0
 40
1.0
 40
2.0
 40
2.0
 40
2.0
 40
3.0
 40
3.0
 40
3.0
 40
4.0
 40
4.0
 40
4.0
 40
5.0
 40
5.0
 40
5.0
 40
6.0
 40
6.0
 40
6.0
 40
7.0
 40
7.0
 40
7.0
 40
8.0
 40
8.0
 40
8.0
 40
8.0
 10
49.345136163879
 20
-77.03784720296277
 10
49.23696016564215
 20
-77.24730900846595
 10
49.06367186273408
 20
-77.26625703363483
 10
48.94722763533264
 20
-77.26625703363483
 10
48.78634167617147
 20
-77.26625703363483
 10
48.64474825172771
 20
-77.21974824458395
 10
48.54966361633481
 20
-77.03784720296277
 10
48.44596624222878
 20
-76.84319930804615
 10
48.42667370751139
 20
-76.60652124820949
 10
48.42667370751139
 20
-76.44356823175717
 10
48.42667370751139
 20
-76.29956324047373
 10
48.44389918493764
 20
-76.04772676050196
 10
48.54966361633481
 20
-75.84894475100305
 10
48.65749510502313
 20
-75.64602862692183
 10
48.81838106418429
 20
-75.62260197762212
 10
48.94722763533264
 20
-75.62260197762212
 10
49.10604653720266
 20
-75.62260197762212
 10
49.24970701893758
 20
-75.66704370938186
 10
49.345136163879
 20
-75.84894475100305
 10
49.44435491385419
 20
-76.04152558862852
 10
49.46778156315389
 20
-76.26993541930058
 10
49.46778156315389
 20
-76.44356823175717
 10
49.46778156315389
 20
-76.61478947737409
 10
49.44642197114534
 20
-76.8452663653373
 10
49.345136163879
 20
-77.03784720296277
 97
        0
 97
        0
 92
        1
 93
        1
 72
     4
 94
        3
 73
     0
 74
     1
 95
       17
 96
       13
 40
0.0
 40
0.0
 40
0.0
 40
0.0
 40
1.0
 40
1.0
 40
1.0
 40
2.0
 40
2.0
 40
2.0
 40
3.0
 40
3.0
 40
3.0
 40
4.0
 40
4.0
 40
4.0
 40
4.0
 10
48.94722763533264
 20
-75.8151828152476
 10
48.69745821265202
 20
-75.8151828152476
 10
48.65094942360115
 20
-76.09871417368366
 10
48.65094942360115
 20
-76.44356823175717
 10
48.65094942360115
 20
-76.76292858323983
 10
48.68712292619627
 20
-77.07160913871822
 10
48.94722763533264
 20
-77.07160913871822
 10
49.1949300007221
 20
-77.07160913871822
 10
49.24350584706413
 20
-76.79048934712182
 10
49.24350584706413
 20
-76.44356823175717
 10
49.24350584706413
 20
-76.12386337072599
 10
49.20526528717785
 20
-75.8151828152476
 10
48.94722763533264
 20
-75.8151828152476
 97
        0
 97
        0
 75
     2
 76
     1
 98
        0
  0
ENDBLK
  5
8B
330
88
100
AcDbEntity
  8
0
100
AcDbBlockEnd
  0
BLOCK
  5
A1
330
9F
100
AcDbEntity
  8
0
100
AcDbBlockBegin
  2
block 7
 70
     0
 10
0.0
 20
0.0
 30
0.0
  3
block 7
  1

  0
SPLINE
  5
A3
330
9F
100
AcDbEntity
  8
_U+30EC_U+30A4_U+30E4_U+30FC 1
370
     0
100
AcDbSpline
210
0.0
220
0.0
230
1.0
 70
    11
 71
     3
 72
    26
 73
    22
 74
     0
 42
0.0000000001
 43
0.0000000001
 12
1.0
 22
0.0
 32
0.0
 13
1.0
 23
0.0
 33
0.0
 40
0.0
 40
0.0
 40
0.0
 40
0.0
 40
1.0
 40
1.0
 40
1.0
 40
2.0
 40
2.0
 40
2.0
 40
3.0
 40
3.0
 40
3.0
 40
4.0
 40
4.0
 40
4.0
 40
5.0
 40
5.0
 40
5.0
 40
6.0
 40
6.0
 40
6.0
 40
7.0
 40
7.0
 40
7.0
 40
7.0
 10
50.1497382144591
 20
-100.9943521882931
 30
0.0
 10
50.1497382144591
 20
-100.9943521882931
 30
0.0
 10
50.1497382144591
 20
-99.89019908527051
 30
0.0
 10
50.1497382144591
 20
-99.89019908527051
 30
0.0
 10
50.1497382144591
 20
-99.89019908527051
 30
0.0
 10
49.81969806697216
 20
-99.89019908527051
 30
0.0
 10
49.81969806697216
 20
-99.89019908527051
 30
0.0
 10
49.81969806697216
 20
-99.89019908527051
 30
0.0
 10
49.81969806697216
 20
-99.74205997940477
 30
0.0
 10
49.81969806697216
 20
-99.74205997940477
 30
0.0
 10
50.15180527175025
 20
-99.72724606881819
 30
0.0
 10
50.19831406080112
 20
-99.56429305236587
 30
0.0
 10
50.22794188197427
 20
-99.44991588225558
 30
0.0
 10
50.22794188197427
 20
-99.44991588225558
 30
0.0
 10
50.37401393054886
 20
-99.44991588225558
 30
0.0
 10
50.37401393054886
 20
-99.44991588225558
 30
0.0
 10
50.37401393054886
 20
-99.44991588225558
 30
0.0
 10
50.37401393054886
 20
-100.9943521882931
 30
0.0
 10
50.37401393054886
 20
-100.9943521882931
 30
0.0
 10
50.37401393054886
 20
-100.9943521882931
 30
0.0
 10
50.1497382144591
 20
-100.9943521882931
 30
0.0
 10
50.1497382144591
 20
-100.9943521882931
 30
0.0
  0
HATCH
  5
A4
330
9F
100
AcDbEntity
  8
_U+30EC_U+30A4_U+30E4_U+30FC 1
 62
   179
420
  2234388
100
AcDbHatch
 10
0.0
 20
0.0
 30
0.0
210
0.0
220
0.0
230
1.0
  2
SOLID
 70
     1
 71
     0
 91
        1
 92
        1
 93
        1
 72
     4
 94
        3
 73
     0
 74
     1
 95
       26
 96
       22
 40
0.0
 40
0.0
 40
0.0
 40
0.0
 40
1.0
 40
1.0
 40
1.0
 40
2.0
 40
2.0
 40
2.0
 40
3.0
 40
3.0
 40
3.0
 40
4.0
 40
4.0
 40
4.0
 40
5.0
 40
5.0
 40
5.0
 40
6.0
 40
6.0
 40
6.0
 40
7.0
 40
7.0
 40
7.0
 40
7.0
 10
50.1497382144591
 20
-100.9943521882931
 10
50.1497382144591
 20
-100.9943521882931
 10
50.1497382144591
 20
-99.89019908527051
 10
50.1497382144591
 20
-99.89019908527051
 10
50.1497382144591
 20
-99.89019908527051
 10
49.81969806697216
 20
-99.89019908527051
 10
49.81969806697216
 20
-99.89019908527051
 10
49.81969806697216
 20
-99.89019908527051
 10
49.81969806697216
 20
-99.74205997940477
 10
49.81969806697216
 20
-99.74205997940477
 10
50.15180527175025
 20
-99.72724606881819
 10
50.19831406080112
 20
-99.56429305236587
 10
50.22794188197427
 20
-99.44991588225558
 10
50.22794188197427
 20
-99.44991588225558
 10
50.37401393054886
 20
-99.44991588225558
 10
50.37401393054886
 20
-99.44991588225558
 10
50.37401393054886
 20
-99.44991588225558
 10
50.37401393054886
 20
-100.9943521882931
 10
50.37401393054886
 20
-100.9943521882931
 10
50.37401393054886
 20
-100.9943521882931
 10
50.1497382144591
 20
-100.9943521882931
 10
50.1497382144591
 20
-100.9943521882931
 97
        0
 97
        0
 75
     2
 76
     1
 98
        0
  0
SPLINE
  5
A5
330
9F
100
AcDbEntity
  8
_U+30EC_U+30A4_U+30E4_U+30FC 1
370
     0
100
AcDbSpline
210
0.0
220
0.0
230
1.0
 70
    11
 71
     3
 72
    53
 73
    49
 74
     0
 42
0.0000000001
 43
0.0000000001
 12
1.0
 22
0.0
 32
0.0
 13
1.0
 23
0.0
 33
0.0
 40
0.0
 40
0.0
 40
0.0
 40
0.0
 40
1.0
 40
1.0
 40
1.0
 40
2.0
 40
2.0
 40
2.0
 40
3.0
 40
3.0
 40
3.0
 40
4.0
 40
4.0
 40
4.0
 40
5.0
 40
5.0
 40
5.0
 40
6.0
 40
6.0
 40
6.0
 40
7.0
 40
7.0
 40
7.0
 40
8.0
 40
8.0
 40
8.0
 40
9.0
 40
9.0
 40
9.0
 40
10.0
 40
10.0
 40
10.0
 40
11.0
 40
11.0
 40
11.0
 40
12.0
 40
12.0
 40
12.0
 40
13.0
 40
13.0
 40
13.0
 40
14.0
 40
14.0
 40
14.0
 40
15.0
 40
15.0
 40
15.0
 40
16.0
 40
16.0
 40
16.0
 40
16.0
 10
51.35621065339359
 20
-101.0449950919263
 30
0.0
 10
51.27800698587842
 20
-101.0449950919263
 30
0.0
 10
51.17637666906354
 20
-101.0281141240485
 30
0.0
 10
51.07474635224867
 20
-100.9647243671199
 30
0.0
 10
50.90145804934061
 20
-100.8548258211405
 30
0.0
 10
50.88009845733206
 20
-100.7235676831525
 30
0.0
 10
50.86115043216319
 20
-100.6157361944641
 30
0.0
 10
50.86115043216319
 20
-100.6157361944641
 30
0.0
 10
51.0833590909618
 20
-100.6157361944641
 30
0.0
 10
51.0833590909618
 20
-100.6157361944641
 30
0.0
 10
51.13813610917727
 20
-100.814518203963
 30
0.0
 10
51.26526013258299
 20
-100.8441460251362
 30
0.0
 10
51.35827771068474
 20
-100.8441460251362
 30
0.0
 10
51.49780407783736
 20
-100.8441460251362
 30
0.0
 10
51.6500772982854
 20
-100.7445827656125
 30
0.0
 10
51.6500772982854
 20
-100.5120388203581
 30
0.0
 10
51.6500772982854
 20
-100.256068225804
 30
0.0
 10
51.47024331395536
 20
-100.1861327874535
 30
0.0
 10
51.34966497197161
 20
-100.1861327874535
 30
0.0
 10
51.31797009350731
 20
-100.1861327874535
 30
0.0
 10
51.17637666906354
 20
-100.1861327874535
 30
0.0
 10
51.0874932055441
 20
-100.3153238681503
 30
0.0
 10
51.0874932055441
 20
-100.3153238681503
 30
0.0
 10
50.91179333579636
 20
-100.2963758429815
 30
0.0
 10
50.91179333579636
 20
-100.2963758429815
 30
0.0
 10
50.91179333579636
 20
-100.2963758429815
 30
0.0
 10
51.03237167778011
 20
-99.44991588225558
 30
0.0
 10
51.03237167778011
 20
-99.44991588225558
 30
0.0
 10
51.03237167778011
 20
-99.44991588225558
 30
0.0
 10
51.81096325744657
 20
-99.44991588225558
 30
0.0
 10
51.81096325744657
 20
-99.44991588225558
 30
0.0
 10
51.81096325744657
 20
-99.44991588225558
 30
0.0
 10
51.81096325744657
 20
-99.6445637771722
 30
0.0
 10
51.81096325744657
 20
-99.6445637771722
 30
0.0
 10
51.81096325744657
 20
-99.6445637771722
 30
0.0
 10
51.19532469423242
 20
-99.6445637771722
 30
0.0
 10
51.19532469423242
 20
-99.6445637771722
 30
0.0
 10
51.19532469423242
 20
-99.6445637771722
 30
0.0
 10
51.12986788001268
 20
-100.0676215027609
 30
0.0
 10
51.12986788001268
 20
-100.0676215027609
 30
0.0
 10
51.19119057965012
 20
-100.0338595670054
 30
0.0
 10
51.27352836174759
 20
-99.993551949828
 30
0.0
 10
51.39203964644019
 20
-99.993551949828
 30
0.0
 10
51.6459431837031
 20
-99.993551949828
 30
0.0
 10
51.88296575308829
 20
-100.17993161558
 30
0.0
 10
51.88296575308829
 20
-100.4930907951892
 30
0.0
 10
51.88296575308829
 20
-100.8103840893807
 30
0.0
 10
51.65869003699852
 20
-101.0449950919263
 30
0.0
 10
51.35621065339359
 20
-101.0449950919263
 30
0.0
  0
HATCH
  5
A6
330
9F
100
AcDbEntity
  8
_U+30EC_U+30A4_U+30E4_U+30FC 1
 62
   179
420
  2234388
100
AcDbHatch
 10
0.0
 20
0.0
 30
0.0
210
0.0
220
0.0
230
1.0
  2
SOLID
 70
     1
 71
     0
 91
        1
 92
        1
 93
        1
 72
     4
 94
        3
 73
     0
 74
     1
 95
       53
 96
       49
 40
0.0
 40
0.0
 40
0.0
 40
0.0
 40
1.0
 40
1.0
 40
1.0
 40
2.0
 40
2.0
 40
2.0
 40
3.0
 40
3.0
 40
3.0
 40
4.0
 40
4.0
 40
4.0
 40
5.0
 40
5.0
 40
5.0
 40
6.0
 40
6.0
 40
6.0
 40
7.0
 40
7.0
 40
7.0
 40
8.0
 40
8.0
 40
8.0
 40
9.0
 40
9.0
 40
9.0
 40
10.0
 40
10.0
 40
10.0
 40
11.0
 40
11.0
 40
11.0
 40
12.0
 40
12.0
 40
12.0
 40
13.0
 40
13.0
 40
13.0
 40
14.0
 40
14.0
 40
14.0
 40
15.0
 40
15.0
 40
15.0
 40
16.0
 40
16.0
 40
16.0
 40
16.0
 10
51.35621065339359
 20
-101.0449950919263
 10
51.27800698587842
 20
-101.0449950919263
 10
51.17637666906354
 20
-101.0281141240485
 10
51.07474635224867
 20
-100.9647243671199
 10
50.90145804934061
 20
-100.8548258211405
 10
50.88009845733206
 20
-100.7235676831525
 10
50.86115043216319
 20
-100.6157361944641
 10
50.86115043216319
 20
-100.6157361944641
 10
51.0833590909618
 20
-100.6157361944641
 10
51.0833590909618
 20
-100.6157361944641
 10
51.13813610917727
 20
-100.814518203963
 10
51.26526013258299
 20
-100.8441460251362
 10
51.35827771068474
 20
-100.8441460251362
 10
51.49780407783736
 20
-100.8441460251362
 10
51.6500772982854
 20
-100.7445827656125
 10
51.6500772982854
 20
-100.5120388203581
 10
51.6500772982854
 20
-100.256068225804
 10
51.47024331395536
 20
-100.1861327874535
 10
51.34966497197161
 20
-100.1861327874535
 10
51.31797009350731
 20
-100.1861327874535
 10
51.17637666906354
 20
-100.1861327874535
 10
51.0874932055441
 20
-100.3153238681503
 10
51.0874932055441
 20
-100.3153238681503
 10
50.91179333579636
 20
-100.2963758429815
 10
50.91179333579636
 20
-100.2963758429815
 10
50.91179333579636
 20
-100.2963758429815
 10
51.03237167778011
 20
-99.44991588225558
 10
51.03237167778011
 20
-99.44991588225558
 10
51.03237167778011
 20
-99.44991588225558
 10
51.81096325744657
 20
-99.44991588225558
 10
51.81096325744657
 20
-99.44991588225558
 10
51.81096325744657
 20
-99.44991588225558
 10
51.81096325744657
 20
-99.6445637771722
 10
51.81096325744657
 20
-99.6445637771722
 10
51.81096325744657
 20
-99.6445637771722
 10
51.19532469423242
 20
-99.6445637771722
 10
51.19532469423242
 20
-99.6445637771722
 10
51.19532469423242
 20
-99.6445637771722
 10
51.12986788001268
 20
-100.0676215027609
 10
51.12986788001268
 20
-100.0676215027609
 10
51.19119057965012
 20
-100.0338595670054
 10
51.27352836174759
 20
-99.993551949828
 10
51.39203964644019
 20
-99.993551949828
 10
51.6459431837031
 20
-99.993551949828
 10
51.88296575308829
 20
-100.17993161558
 10
51.88296575308829
 20
-100.4930907951892
 10
51.88296575308829
 20
-100.8103840893807
 10
51.65869003699852
 20
-101.0449950919263
 10
51.35621065339359
 20
-101.0449950919263
 97
        0
 97
        0
 75
     2
 76
     1
 98
        0
  0
ENDBLK
  5
A2
330
9F
100
AcDbEntity
  8
0
100
AcDbBlockEnd
  0
ENDSEC
  0
SECTION
  2
ENTITIES
  0
SPLINE
  5
41
330
1F
100
AcDbEntity
  8
_U+30EC_U+30A4_U+30E4_U+30FC 1
 62
   179
420
  2234388
370
     9
100
AcDbSpline
210
0.0
220
0.0
230
1.0
 70
    11
 71
     3
 72
    17
 73
    13
 74
     0
 42
0.0000000001
 43
0.0000000001
 12
1.0
 22
0.0
 32
0.0
 13
1.0
 23
0.0
 33
0.0
 40
0.0
 40
0.0
 40
0.0
 40
0.0
 40
1.0
 40
1.0
 40
1.0
 40
2.0
 40
2.0
 40
2.0
 40
3.0
 40
3.0
 40
3.0
 40
4.0
 40
4.0
 40
4.0
 40
4.0
 10
80.97318710086856
 20
-97.56993719782957
 30
0.0
 10
80.97318710086856
 20
-97.62504108670512
 30
0.0
 10
81.01795459972645
 20
-97.6698438644712
 30
0.0
 10
81.0730937649864
 20
-97.6698438644712
 30
0.0
 10
81.12819765246947
 20
-97.6698438644712
 30
0.0
 10
81.17300042910423
 20
-97.62504108670512
 30
0.0
 10
81.17300042910423
 20
-97.56993719782957
 30
0.0
 10
81.17300042910423
 20
-97.51479803117714
 30
0.0
 10
81.12819765246947
 20
-97.47003053118793
 30
0.0
 10
81.0730937649864
 20
-97.47003053118793
 30
0.0
 10
81.01795459972645
 20
-97.47003053118793
 30
0.0
 10
80.97318710086856
 20
-97.51479803117714
 30
0.0
 10
80.97318710086856
 20
-97.56993719782957
 30
0.0
  0
SPLINE
  5
42
330
1F
100
AcDbEntity
  8
_U+30EC_U+30A4_U+30E4_U+30FC 1
 62
   179
420
  2234388
370
     9
100
AcDbSpline
210
0.0
220
0.0
230
1.0
 70
    11
 71
     3
 72
    17
 73
    13
 74
     0
 42
0.0000000001
 43
0.0000000001
 12
1.0
 22
0.0
 32
0.0
 13
1.0
 23
0.0
 33
0.0
 40
0.0
 40
0.0
 40
0.0
 40
0.0
 40
1.0
 40
1.0
 40
1.0
 40
2.0
 40
2.0
 40
2.0
 40
3.0
 40
3.0
 40
3.0
 40
4.0
 40
4.0
 40
4.0
 40
4.0
 10
80.97318710086856
 20
-81.37246303521229
 30
0.0
 10
80.97318710086856
 20
-81.42760220186537
 30
0.0
 10
81.01795459972645
 20
-81.47236970185425
 30
0.0
 10
81.0730937649864
 20
-81.47236970185425
 30
0.0
 10
81.12819765246947
 20
-81.47236970185425
 30
0.0
 10
81.17300042910423
 20
-81.42760220186537
 30
0.0
 10
81.17300042910423
 20
-81.37246303521229
 30
0.0
 10
81.17300042910423
 20
-81.31665359078184
 30
0.0
 10
81.12819765246947
 20
-81.27188609079329
 30
0.0
 10
81.0730937649864
 20
-81.27188609079329
 30
0.0
 10
81.01795459972645
 20
-81.27188609079329
 30
0.0
 10
80.97318710086856
 20
-81.31665359078184
 30
0.0
 10
80.97318710086856
 20
-81.37246303521229
 30
0.0
  0
POLYLINE
  5
43
330
1F
100
AcDbEntity
  8
_U+30EC_U+30A4_U+30E4_U+30FC 1
 62
   179
420
  2234388
370
     9
100
AcDb2dPolyline
 66
     1
 10
0.0
 20
0.0
 30
0.0
  0
VERTEX
  5
44
330
43
100
AcDbEntity
  8
_U+30EC_U+30A4_U+30E4_U+30FC 1
 62
   179
420
  2234388
370
     9
100
AcDbVertex
100
AcDb2dVertex
 10
81.0730937649864
 20
-76.80219164746624
 30
0.0
  0
VERTEX
  5
45
330
43
100
AcDbEntity
  8
_U+30EC_U+30A4_U+30E4_U+30FC 1
 62
   179
420
  2234388
370
     9
100
AcDbVertex
100
AcDb2dVertex
 10
81.0730937649864
 20
-97.56993719782957
 30
0.0
  0
SEQEND
  5
46
330
43
100
AcDbEntity
  8
_U+30EC_U+30A4_U+30E4_U+30FC 1
 62
   179
420
  2234388
370
     9
  0
POLYLINE
  5
47
330
1F
100
AcDbEntity
  8
_U+30EC_U+30A4_U+30E4_U+30FC 1
 62
   179
420
  2234388
370
     9
100
AcDb2dPolyline
 66
     1
 10
0.0
 20
0.0
 30
0.0
  0
VERTEX
  5
48
330
47
100
AcDbEntity
  8
_U+30EC_U+30A4_U+30E4_U+30FC 1
 62
   179
420
  2234388
370
     9
100
AcDbVertex
100
AcDb2dVertex
 10
79.44908331347075
 20
-81.37246303521229
 30
0.0
  0
VERTEX
  5
49
330
47
100
AcDbEntity
  8
_U+30EC_U+30A4_U+30E4_U+30FC 1
 62
   179
420
  2234388
370
     9
100
AcDbVertex
100
AcDb2dVertex
 10
82.0728659617023
 20
-81.37246303521229
 30
0.0
  0
SEQEND
  5
4A
330
47
100
AcDbEntity
  8
_U+30EC_U+30A4_U+30E4_U+30FC 1
 62
   179
420
  2234388
370
     9
  0
SPLINE
  5
4B
330
1F
100
AcDbEntity
  8
_U+30EC_U+30A4_U+30E4_U+30FC 1
 62
   179
420
  2234388
370
     9
100
AcDbSpline
210
0.0
220
0.0
230
1.0
 70
    11
 71
     3
 72
    17
 73
    13
 74
     0
 42
0.0000000001
 43
0.0000000001
 12
1.0
 22
0.0
 32
0.0
 13
1.0
 23
0.0
 33
0.0
 40
0.0
 40
0.0
 40
0.0
 40
0.0
 40
1.0
 40
1.0
 40
1.0
 40
2.0
 40
2.0
 40
2.0
 40
3.0
 40
3.0
 40
3.0
 40
4.0
 40
4.0
 40
4.0
 40
4.0
 10
80.97318710086856
 20
-80.57250414652366
 30
0.0
 10
80.97318710086856
 20
-80.62764331317642
 30
0.0
 10
81.01795459972645
 20
-80.6724108131653
 30
0.0
 10
81.0730937649864
 20
-80.6724108131653
 30
0.0
 10
81.12819765246947
 20
-80.6724108131653
 30
0.0
 10
81.17300042910423
 20
-80.62764331317642
 30
0.0
 10
81.17300042910423
 20
-80.57250414652366
 30
0.0
 10
81.17300042910423
 20
-80.5166947020929
 30
0.0
 10
81.12819765246947
 20
-80.47192720210434
 30
0.0
 10
81.0730937649864
 20
-80.47192720210434
 30
0.0
 10
81.01795459972645
 20
-80.47192720210434
 30
0.0
 10
80.97318710086856
 20
-80.5166947020929
 30
0.0
 10
80.97318710086856
 20
-80.57250414652366
 30
0.0
  0
POLYLINE
  5
4C
330
1F
100
AcDbEntity
  8
_U+30EC_U+30A4_U+30E4_U+30FC 1
 62
   179
420
  2234388
370
     9
100
AcDb2dPolyline
 66
     1
 10
0.0
 20
0.0
 30
0.0
  0
VERTEX
  5
4D
330
4C
100
AcDbEntity
  8
_U+30EC_U+30A4_U+30E4_U+30FC 1
 62
   179
420
  2234388
370
     9
100
AcDbVertex
100
AcDb2dVertex
 10
79.44908331347075
 20
-80.57250414652366
 30
0.0
  0
VERTEX
  5
4E
330
4C
100
AcDbEntity
  8
_U+30EC_U+30A4_U+30E4_U+30FC 1
 62
   179
420
  2234388
370
     9
100
AcDbVertex
100
AcDb2dVertex
 10
82.0728659617023
 20
-80.57250414652366
 30
0.0
  0
SEQEND
  5
4F
330
4C
100
AcDbEntity
  8
_U+30EC_U+30A4_U+30E4_U+30FC 1
 62
   179
420
  2234388
370
     9
  0
POLYLINE
  5
50
330
1F
100
AcDbEntity
  8
_U+30EC_U+30A4_U+30E4_U+30FC 1
 62
   179
420
  2234388
370
     9
100
AcDb2dPolyline
 66
     1
 10
0.0
 20
0.0
 30
0.0
  0
VERTEX
  5
51
330
50
100
AcDbEntity
  8
_U+30EC_U+30A4_U+30E4_U+30FC 1
 62
   179
420
  2234388
370
     9
100
AcDbVertex
100
AcDb2dVertex
 10
59.44753431670038
 20
-97.56993719782957
 30
0.0
  0
VERTEX
  5
52
330
50
100
AcDbEntity
  8
_U+30EC_U+30A4_U+30E4_U+30FC 1
 62
   179
420
  2234388
370
     9
100
AcDbVertex
100
AcDb2dVertex
 10
82.0728659617023
 20
-97.56993719782957
 30
0.0
  0
SEQEND
  5
53
330
50
100
AcDbEntity
  8
_U+30EC_U+30A4_U+30E4_U+30FC 1
 62
   179
420
  2234388
370
     9
  0
SPLINE
  5
54
330
1F
100
AcDbEntity
  8
_U+30EC_U+30A4_U+30E4_U+30FC 1
 62
   179
420
  2234388
370
     9
100
AcDbSpline
210
0.0
220
0.0
230
1.0
 70
    11
 71
     3
 72
    17
 73
    13
 74
     0
 42
0.0000000001
 43
0.0000000001
 12
1.0
 22
0.0
 32
0.0
 13
1.0
 23
0.0
 33
0.0
 40
0.0
 40
0.0
 40
0.0
 40
0.0
 40
1.0
 40
1.0
 40
1.0
 40
2.0
 40
2.0
 40
2.0
 40
3.0
 40
3.0
 40
3.0
 40
4.0
 40
4.0
 40
4.0
 40
4.0
 10
80.97318710086856
 20
-94.56995025413524
 30
0.0
 10
80.97318710086856
 20
-94.62505414301015
 30
0.0
 10
81.01795459972645
 20
-94.66985692077687
 30
0.0
 10
81.0730937649864
 20
-94.66985692077687
 30
0.0
 10
81.12819765246947
 20
-94.66985692077687
 30
0.0
 10
81.17300042910423
 20
-94.62505414301015
 30
0.0
 10
81.17300042910423
 20
-94.56995025413524
 30
0.0
 10
81.17300042910423
 20
-94.51481108748214
 30
0.0
 10
81.12819765246947
 20
-94.47004358749359
 30
0.0
 10
81.0730937649864
 20
-94.47004358749359
 30
0.0
 10
81.01795459972645
 20
-94.47004358749359
 30
0.0
 10
80.97318710086856
 20
-94.51481108748214
 30
0.0
 10
80.97318710086856
 20
-94.56995025413524
 30
0.0
  0
POLYLINE
  5
55
330
1F
100
AcDbEntity
  8
_U+30EC_U+30A4_U+30E4_U+30FC 1
 62
   179
420
  2234388
370
     9
100
AcDb2dPolyline
 66
     1
 10
0.0
 20
0.0
 30
0.0
  0
VERTEX
  5
56
330
55
100
AcDbEntity
  8
_U+30EC_U+30A4_U+30E4_U+30FC 1
 62
   179
420
  2234388
370
     9
100
AcDbVertex
100
AcDb2dVertex
 10
59.44753431670038
 20
-94.56995025413524
 30
0.0
  0
VERTEX
  5
57
330
55
100
AcDbEntity
  8
_U+30EC_U+30A4_U+30E4_U+30FC 1
 62
   179
420
  2234388
370
     9
100
AcDbVertex
100
AcDb2dVertex
 10
82.0728659617023
 20
-94.56995025413524
 30
0.0
  0
SEQEND
  5
58
330
55
100
AcDbEntity
  8
_U+30EC_U+30A4_U+30E4_U+30FC 1
 62
   179
420
  2234388
370
     9
  0
INSERT
  5
5A
330
1F
100
AcDbEntity
  8
_U+30EC_U+30A4_U+30E4_U+30FC 1
100
AcDbBlockReference
  2
block 2
 10
0.0
 20
0.0
 30
0.0
  0
INSERT
  5
62
330
1F
100
AcDbEntity
  8
_U+30EC_U+30A4_U+30E4_U+30FC 1
100
AcDbBlockReference
  2
block 3
 10
0.0
 20
0.0
 30
0.0
  0
INSERT
  5
68
330
1F
100
AcDbEntity
  8
_U+30EC_U+30A4_U+30E4_U+30FC 1
100
AcDbBlockReference
  2
block 4
 10
0.0
 20
0.0
 30
0.0
  0
POLYLINE
  5
6D
330
1F
100
AcDbEntity
  8
_U+30EC_U+30A4_U+30E4_U+30FC 1
 62
   179
420
  2234388
370
     9
100
AcDb2dPolyline
 66
     1
 10
0.0
 20
0.0
 30
0.0
  0
VERTEX
  5
6E
330
6D
100
AcDbEntity
  8
_U+30EC_U+30A4_U+30E4_U+30FC 1
 62
   179
420
  2234388
370
     9
100
AcDbVertex
100
AcDb2dVertex
 10
78.29909633575697
 20
-77.79233303610762
 30
0.0
  0
VERTEX
  5
6F
330
6D
100
AcDbEntity
  8
_U+30EC_U+30A4_U+30E4_U+30FC 1
 62
   179
420
  2234388
370
     9
100
AcDbVertex
100
AcDb2dVertex
 10
43.27902361808234
 20
-77.79233303610762
 30
0.0
  0
SEQEND
  5
70
330
6D
100
AcDbEntity
  8
_U+30EC_U+30A4_U+30E4_U+30FC 1
 62
   179
420
  2234388
370
     9
  0
SPLINE
  5
71
330
1F
100
AcDbEntity
  8
_U+30EC_U+30A4_U+30E4_U+30FC 1
 62
   179
420
  2234388
370
     9
100
AcDbSpline
210
0.0
220
0.0
230
1.0
 70
    11
 71
     3
 72
    17
 73
    13
 74
     0
 42
0.0000000001
 43
0.0000000001
 12
1.0
 22
0.0
 32
0.0
 13
1.0
 23
0.0
 33
0.0
 40
0.0
 40
0.0
 40
0.0
 40
0.0
 40
1.0
 40
1.0
 40
1.0
 40
2.0
 40
2.0
 40
2.0
 40
3.0
 40
3.0
 40
3.0
 40
4.0
 40
4.0
 40
4.0
 40
4.0
 10
53.29787697359121
 20
-77.69242636946566
 30
0.0
 10
53.24273780833126
 20
-77.69242636946566
 30
0.0
 10
53.19797030947338
 20
-77.73719386945454
 30
0.0
 10
53.19797030947338
 20
-77.79233303610762
 30
0.0
 10
53.19797030947338
 20
-77.84743692498255
 30
0.0
 10
53.24273780833126
 20
-77.89223970274927
 30
0.0
 10
53.29787697359121
 20
-77.89223970274927
 30
0.0
 10
53.35298086107428
 20
-77.89223970274927
 30
0.0
 10
53.39778363770905
 20
-77.84743692498255
 30
0.0
 10
53.39778363770905
 20
-77.79233303610762
 30
0.0
 10
53.39778363770905
 20
-77.73719386945454
 30
0.0
 10
53.35298086107428
 20
-77.69242636946566
 30
0.0
 10
53.29787697359121
 20
-77.69242636946566
 30
0.0
  0
POLYLINE
  5
72
330
1F
100
AcDbEntity
  8
_U+30EC_U+30A4_U+30E4_U+30FC 1
 62
   179
420
  2234388
370
     9
100
AcDb2dPolyline
 66
     1
 10
0.0
 20
0.0
 30
0.0
  0
VERTEX
  5
73
330
72
100
AcDbEntity
  8
_U+30EC_U+30A4_U+30E4_U+30FC 1
 62
   179
420
  2234388
370
     9
100
AcDbVertex
100
AcDb2dVertex
 10
53.29787697359121
 20
-76.3322916475836
 30
0.0
  0
VERTEX
  5
74
330
72
100
AcDbEntity
  8
_U+30EC_U+30A4_U+30E4_U+30FC 1
 62
   179
420
  2234388
370
     9
100
AcDbVertex
100
AcDb2dVertex
 10
53.29787697359121
 20
-79.07252831356526
 30
0.0
  0
SEQEND
  5
75
330
72
100
AcDbEntity
  8
_U+30EC_U+30A4_U+30E4_U+30FC 1
 62
   179
420
  2234388
370
     9
  0
SPLINE
  5
76
330
1F
100
AcDbEntity
  8
_U+30EC_U+30A4_U+30E4_U+30FC 1
 62
   179
420
  2234388
370
     9
100
AcDbSpline
210
0.0
220
0.0
230
1.0
 70
    11
 71
     3
 72
    17
 73
    13
 74
     0
 42
0.0000000001
 43
0.0000000001
 12
1.0
 22
0.0
 32
0.0
 13
1.0
 23
0.0
 33
0.0
 40
0.0
 40
0.0
 40
0.0
 40
0.0
 40
1.0
 40
1.0
 40
1.0
 40
2.0
 40
2.0
 40
2.0
 40
3.0
 40
3.0
 40
3.0
 40
4.0
 40
4.0
 40
4.0
 40
4.0
 10
43.29832056203448
 20
-77.69242636946566
 30
0.0
 10
43.24318139677453
 20
-77.69242636946566
 30
0.0
 10
43.19837862013977
 20
-77.73719386945454
 30
0.0
 10
43.19837862013977
 20
-77.79233303610762
 30
0.0
 10
43.19837862013977
 20
-77.84743692498255
 30
0.0
 10
43.24318139677453
 20
-77.89223970274927
 30
0.0
 10
43.29832056203448
 20
-77.89223970274927
 30
0.0
 10
43.35342444951755
 20
-77.89223970274927
 30
0.0
 10
43.39822722615231
 20
-77.84743692498255
 30
0.0
 10
43.39822722615231
 20
-77.79233303610762
 30
0.0
 10
43.39822722615231
 20
-77.73719386945454
 30
0.0
 10
43.35342444951755
 20
-77.69242636946566
 30
0.0
 10
43.29832056203448
 20
-77.69242636946566
 30
0.0
  0
POLYLINE
  5
77
330
1F
100
AcDbEntity
  8
_U+30EC_U+30A4_U+30E4_U+30FC 1
 62
   179
420
  2234388
370
     9
100
AcDb2dPolyline
 66
     1
 10
0.0
 20
0.0
 30
0.0
  0
VERTEX
  5
78
330
77
100
AcDbEntity
  8
_U+30EC_U+30A4_U+30E4_U+30FC 1
 62
   179
420
  2234388
370
     9
100
AcDbVertex
100
AcDb2dVertex
 10
43.29832056203448
 20
-76.3322916475836
 30
0.0
  0
VERTEX
  5
79
330
77
100
AcDbEntity
  8
_U+30EC_U+30A4_U+30E4_U+30FC 1
 62
   179
420
  2234388
370
     9
100
AcDbVertex
100
AcDb2dVertex
 10
43.29832056203448
 20
-79.07252831356526
 30
0.0
  0
SEQEND
  5
7A
330
77
100
AcDbEntity
  8
_U+30EC_U+30A4_U+30E4_U+30FC 1
 62
   179
420
  2234388
370
     9
  0
SPLINE
  5
7B
330
1F
100
AcDbEntity
  8
_U+30EC_U+30A4_U+30E4_U+30FC 1
 62
   179
420
  2234388
370
     9
100
AcDbSpline
210
0.0
220
0.0
230
1.0
 70
    11
 71
     3
 72
    17
 73
    13
 74
     0
 42
0.0000000001
 43
0.0000000001
 12
1.0
 22
0.0
 32
0.0
 13
1.0
 23
0.0
 33
0.0
 40
0.0
 40
0.0
 40
0.0
 40
0.0
 40
1.0
 40
1.0
 40
1.0
 40
2.0
 40
2.0
 40
2.0
 40
3.0
 40
3.0
 40
3.0
 40
4.0
 40
4.0
 40
4.0
 40
4.0
 10
78.29909633575697
 20
-77.69242636946566
 30
0.0
 10
78.24395717049701
 20
-77.69242636946566
 30
0.0
 10
78.19919164711668
 20
-77.73719386945454
 30
0.0
 10
78.19919164711668
 20
-77.79233303610762
 30
0.0
 10
78.19919164711668
 20
-77.84743692498255
 30
0.0
 10
78.24395717049701
 20
-77.89223970274927
 30
0.0
 10
78.29909633575697
 20
-77.89223970274927
 30
0.0
 10
78.35420022324004
 20
-77.89223970274927
 30
0.0
 10
78.3990029998748
 20
-77.84743692498255
 30
0.0
 10
78.3990029998748
 20
-77.79233303610762
 30
0.0
 10
78.3990029998748
 20
-77.73719386945454
 30
0.0
 10
78.35420022324004
 20
-77.69242636946566
 30
0.0
 10
78.29909633575697
 20
-77.69242636946566
 30
0.0
  0
POLYLINE
  5
7C
330
1F
100
AcDbEntity
  8
_U+30EC_U+30A4_U+30E4_U+30FC 1
 62
   179
420
  2234388
370
     9
100
AcDb2dPolyline
 66
     1
 10
0.0
 20
0.0
 30
0.0
  0
VERTEX
  5
7D
330
7C
100
AcDbEntity
  8
_U+30EC_U+30A4_U+30E4_U+30FC 1
 62
   179
420
  2234388
370
     9
100
AcDbVertex
100
AcDb2dVertex
 10
78.29909633575697
 20
-76.3322916475836
 30
0.0
  0
VERTEX
  5
7E
330
7C
100
AcDbEntity
  8
_U+30EC_U+30A4_U+30E4_U+30FC 1
 62
   179
420
  2234388
370
     9
100
AcDbVertex
100
AcDb2dVertex
 10
78.29909633575697
 20
-79.07252831356526
 30
0.0
  0
SEQEND
  5
7F
330
7C
100
AcDbEntity
  8
_U+30EC_U+30A4_U+30E4_U+30FC 1
 62
   179
420
  2234388
370
     9
  0
INSERT
  5
81
330
1F
100
AcDbEntity
  8
_U+30EC_U+30A4_U+30E4_U+30FC 1
100
AcDbBlockReference
  2
block 5
 10
0.0
 20
0.0
 30
0.0
  0
INSERT
  5
89
330
1F
100
AcDbEntity
  8
_U+30EC_U+30A4_U+30E4_U+30FC 1
100
AcDbBlockReference
  2
block 6
 10
0.0
 20
0.0
 30
0.0
  0
SPLINE
  5
91
330
1F
100
AcDbEntity
  8
_U+30EC_U+30A4_U+30E4_U+30FC 1
 62
   179
420
  2234388
370
     9
100
AcDbSpline
210
0.0
220
0.0
230
1.0
 70
    11
 71
     3
 72
    17
 73
    13
 74
     0
 42
0.0000000001
 43
0.0000000001
 12
1.0
 22
0.0
 32
0.0
 13
1.0
 23
0.0
 33
0.0
 40
0.0
 40
0.0
 40
0.0
 40
0.0
 40
1.0
 40
1.0
 40
1.0
 40
2.0
 40
2.0
 40
2.0
 40
3.0
 40
3.0
 40
3.0
 40
4.0
 40
4.0
 40
4.0
 40
4.0
 10
43.37893028220018
 20
-101.5889933079363
 30
0.0
 10
43.37893028220018
 20
-101.5338541412832
 30
0.0
 10
43.33412750556541
 20
-101.4890513635165
 30
0.0
 10
43.27831806254478
 20
-101.4890513635165
 30
0.0
 10
43.22321417506171
 20
-101.4890513635165
 30
0.0
 10
43.17841139842695
 20
-101.5338541412832
 30
0.0
 10
43.17841139842695
 20
-101.5889933079363
 30
0.0
 10
43.17841139842695
 20
-101.6440971968112
 30
0.0
 10
43.22321417506171
 20
-101.6888999745779
 30
0.0
 10
43.27831806254478
 20
-101.6888999745779
 30
0.0
 10
43.33412750556541
 20
-101.6888999745779
 30
0.0
 10
43.37893028220018
 20
-101.6440971968112
 30
0.0
 10
43.37893028220018
 20
-101.5889933079363
 30
0.0
  0
POLYLINE
  5
92
330
1F
100
AcDbEntity
  8
_U+30EC_U+30A4_U+30E4_U+30FC 1
 62
   179
420
  2234388
370
     9
100
AcDb2dPolyline
 66
     1
 10
0.0
 20
0.0
 30
0.0
  0
VERTEX
  5
93
330
92
100
AcDbEntity
  8
_U+30EC_U+30A4_U+30E4_U+30FC 1
 62
   179
420
  2234388
370
     9
100
AcDbVertex
100
AcDb2dVertex
 10
43.27831806254478
 20
-101.5889933079363
 30
0.0
  0
VERTEX
  5
94
330
92
100
AcDbEntity
  8
_U+30EC_U+30A4_U+30E4_U+30FC 1
 62
   179
420
  2234388
370
     9
100
AcDbVertex
100
AcDb2dVertex
 10
58.27825240208681
 20
-101.5889933079363
 30
0.0
  0
SEQEND
  5
95
330
92
100
AcDbEntity
  8
_U+30EC_U+30A4_U+30E4_U+30FC 1
 62
   179
420
  2234388
370
     9
  0
POLYLINE
  5
96
330
1F
100
AcDbEntity
  8
_U+30EC_U+30A4_U+30E4_U+30FC 1
 62
   179
420
  2234388
370
     9
100
AcDb2dPolyline
 66
     1
 10
0.0
 20
0.0
 30
0.0
  0
VERTEX
  5
97
330
96
100
AcDbEntity
  8
_U+30EC_U+30A4_U+30E4_U+30FC 1
 62
   179
420
  2234388
370
     9
100
AcDbVertex
100
AcDb2dVertex
 10
43.27831806254478
 20
-99.12780386410715
 30
0.0
  0
VERTEX
  5
98
330
96
100
AcDbEntity
  8
_U+30EC_U+30A4_U+30E4_U+30FC 1
 62
   179
420
  2234388
370
     9
100
AcDbVertex
100
AcDb2dVertex
 10
43.27831806254478
 20
-102.5887302521307
 30
0.0
  0
SEQEND
  5
99
330
96
100
AcDbEntity
  8
_U+30EC_U+30A4_U+30E4_U+30FC 1
 62
   179
420
  2234388
370
     9
  0
SPLINE
  5
9A
330
1F
100
AcDbEntity
  8
_U+30EC_U+30A4_U+30E4_U+30FC 1
 62
   179
420
  2234388
370
     9
100
AcDbSpline
210
0.0
220
0.0
230
1.0
 70
    11
 71
     3
 72
    17
 73
    13
 74
     0
 42
0.0000000001
 43
0.0000000001
 12
1.0
 22
0.0
 32
0.0
 13
1.0
 23
0.0
 33
0.0
 40
0.0
 40
0.0
 40
0.0
 40
0.0
 40
1.0
 40
1.0
 40
1.0
 40
2.0
 40
2.0
 40
2.0
 40
3.0
 40
3.0
 40
3.0
 40
4.0
 40
4.0
 40
4.0
 40
4.0
 10
58.3788646217422
 20
-101.5889933079363
 30
0.0
 10
58.3788646217422
 20
-101.5338541412832
 30
0.0
 10
58.33406184510743
 20
-101.4890513635165
 30
0.0
 10
58.27825240208681
 20
-101.4890513635165
 30
0.0
 10
58.22314998544434
 20
-101.4890513635165
 30
0.0
 10
58.17834720767762
 20
-101.5338541412832
 30
0.0
 10
58.17834720767762
 20
-101.5889933079363
 30
0.0
 10
58.17834720767762
 20
-101.6440971968112
 30
0.0
 10
58.22314998544434
 20
-101.6888999745779
 30
0.0
 10
58.27825240208681
 20
-101.6888999745779
 30
0.0
 10
58.33406184510743
 20
-101.6888999745779
 30
0.0
 10
58.3788646217422
 20
-101.6440971968112
 30
0.0
 10
58.3788646217422
 20
-101.5889933079363
 30
0.0
  0
POLYLINE
  5
9B
330
1F
100
AcDbEntity
  8
_U+30EC_U+30A4_U+30E4_U+30FC 1
 62
   179
420
  2234388
370
     9
100
AcDb2dPolyline
 66
     1
 10
0.0
 20
0.0
 30
0.0
  0
VERTEX
  5
9C
330
9B
100
AcDbEntity
  8
_U+30EC_U+30A4_U+30E4_U+30FC 1
 62
   179
420
  2234388
370
     9
100
AcDbVertex
100
AcDb2dVertex
 10
58.27825240208681
 20
-99.12780386410715
 30
0.0
  0
VERTEX
  5
9D
330
9B
100
AcDbEntity
  8
_U+30EC_U+30A4_U+30E4_U+30FC 1
 62
   179
420
  2234388
370
     9
100
AcDbVertex
100
AcDb2dVertex
 10
58.27825240208681
 20
-102.5887302521307
 30
0.0
  0
SEQEND
  5
9E
330
9B
100
AcDbEntity
  8
_U+30EC_U+30A4_U+30E4_U+30FC 1
 62
   179
420
  2234388
370
     9
  0
INSERT
  5
A0
330
1F
100
AcDbEntity
  8
_U+30EC_U+30A4_U+30E4_U+30FC 1
100
AcDbBlockReference
  2
block 7
 10
0.0
 20
0.0
 30
0.0
  0
POLYLINE
  5
A7
330
1F
100
AcDbEntity
  8
_U+30EC_U+30A4_U+30E4_U+30FC 1
 62
   179
420
  2234388
370
    25
100
AcDb2dPolyline
 66
     1
 10
0.0
 20
0.0
 30
0.0
  0
VERTEX
  5
A8
330
A7
100
AcDbEntity
  8
_U+30EC_U+30A4_U+30E4_U+30FC 1
 62
   179
420
  2234388
370
    25
100
AcDbVertex
100
AcDb2dVertex
 10
57.29710831900919
 20
-96.56945942030215
 30
0.0
  0
VERTEX
  5
A9
330
A7
100
AcDbEntity
  8
_U+30EC_U+30A4_U+30E4_U+30FC 1
 62
   179
420
  2234388
370
    25
100
AcDbVertex
100
AcDb2dVertex
 10
54.29831944806779
 20
-96.56945942030215
 30
0.0
  0
VERTEX
  5
AA
330
A7
100
AcDbEntity
  8
_U+30EC_U+30A4_U+30E4_U+30FC 1
 62
   179
420
  2234388
370
    25
100
AcDbVertex
100
AcDb2dVertex
 10
54.29831944806779
 20
-81.57298192405108
 30
0.0
  0
VERTEX
  5
AB
330
A7
100
AcDbEntity
  8
_U+30EC_U+30A4_U+30E4_U+30FC 1
 62
   179
420
  2234388
370
    25
100
AcDbVertex
100
AcDb2dVertex
 10
78.29909633575697
 20
-81.57298192405108
 30
0.0
  0
VERTEX
  5
AC
330
A7
100
AcDbEntity
  8
_U+30EC_U+30A4_U+30E4_U+30FC 1
 62
   179
420
  2234388
370
    25
100
AcDbVertex
100
AcDb2dVertex
 10
78.2983907802194
 20
-80.57250414652366
 30
0.0
  0
VERTEX
  5
AD
330
A7
100
AcDbEntity
  8
_U+30EC_U+30A4_U+30E4_U+30FC 1
 62
   179
420
  2234388
370
    25
100
AcDbVertex
100
AcDb2dVertex
 10
53.29787697359121
 20
-80.57250414652366
 30
0.0
  0
VERTEX
  5
AE
330
A7
100
AcDbEntity
  8
_U+30EC_U+30A4_U+30E4_U+30FC 1
 62
   179
420
  2234388
370
    25
100
AcDbVertex
100
AcDb2dVertex
 10
53.29787697359121
 20
-96.56945942030215
 30
0.0
  0
VERTEX
  5
AF
330
A7
100
AcDbEntity
  8
_U+30EC_U+30A4_U+30E4_U+30FC 1
 62
   179
420
  2234388
370
    25
100
AcDbVertex
100
AcDb2dVertex
 10
44.30080914756998
 20
-96.56945942030215
 30
0.0
  0
VERTEX
  5
B0
330
A7
100
AcDbEntity
  8
_U+30EC_U+30A4_U+30E4_U+30FC 1
 62
   179
420
  2234388
370
    25
100
AcDbVertex
100
AcDb2dVertex
 10
43.29690945095937
 20
-97.56993719782957
 30
0.0
  0
VERTEX
  5
B1
330
A7
100
AcDbEntity
  8
_U+30EC_U+30A4_U+30E4_U+30FC 1
 62
   179
420
  2234388
370
    25
100
AcDbVertex
100
AcDb2dVertex
 10
58.29754934603894
 20
-97.56993719782957
 30
0.0
  0
VERTEX
  5
B2
330
A7
100
AcDbEntity
  8
_U+30EC_U+30A4_U+30E4_U+30FC 1
 62
   179
420
  2234388
370
    25
100
AcDbVertex
100
AcDb2dVertex
 10
58.29754934603894
 20
-94.56995025413524
 30
0.0
  0
VERTEX
  5
B3
330
A7
100
AcDbEntity
  8
_U+30EC_U+30A4_U+30E4_U+30FC 1
 62
   179
420
  2234388
370
    25
100
AcDbVertex
100
AcDb2dVertex
 10
57.29710831900919
 20
-94.56995025413524
 30
0.0
  0
VERTEX
  5
B4
330
A7
100
AcDbEntity
  8
_U+30EC_U+30A4_U+30E4_U+30FC 1
 62
   179
420
  2234388
370
    25
100
AcDbVertex
100
AcDb2dVertex
 10
57.29710831900919
 20
-96.56945942030215
 30
0.0
  0
SEQEND
  5
B5
330
A7
100
AcDbEntity
  8
_U+30EC_U+30A4_U+30E4_U+30FC 1
 62
   179
420
  2234388
370
    25
  0
ENDSEC
  0
SECTION
  2
OBJECTS
  0
DICTIONARY
  5
C
330
0
100
AcDbDictionary
281
     1
  3
ACAD_GROUP
350
D
  3
ACAD_LAYOUT
350
1A
  3
ACAD_MATERIAL
350
3B
  3
ACAD_MLEADERSTYLE
350
B7
  3
ACAD_MLINESTYLE
350
17
  3
ACAD_PLOTSETTINGS
350
19
  3
ACAD_PLOTSTYLENAME
350
E
  3
ACAD_TABLESTYLE
350
B6
  3
ACAD_VISUALSTYLE
350
2A
  0
SUN
  5
3F
330
29
100
AcDbSun
 90
        1
290
     0
 63
     7
421
 16777215
 40
1.0
291
     1
 91
  2455826
 92
 54000000
292
     0
 70
     2
 71
   256
280
     1
  0
DICTIONARY
  5
D
102
{ACAD_REACTORS
330
C
102
}
330
C
100
AcDbDictionary
281
     1
  0
DICTIONARY
  5
1A
102
{ACAD_REACTORS
330
C
102
}
330
C
100
AcDbDictionary
281
     1
  3
Layout1
350
1E
  3
Layout2
350
26
  3
Model
350
22
  0
DICTIONARY
  5
3B
102
{ACAD_REACTORS
330
C
102
}
330
C
100
AcDbDictionary
281
     1
  3
ByBlock
350
3D
  3
ByLayer
350
3C
  3
Global
350
3E
  0
DICTIONARY
  5
B7
102
{ACAD_REACTORS
330
C
102
}
330
C
100
AcDbDictionary
281
     1
  0
DICTIONARY
  5
17
102
{ACAD_REACTORS
330
C
102
}
330
C
100
AcDbDictionary
281
     1
  3
Standard
350
18
  0
DICTIONARY
  5
19
102
{ACAD_REACTORS
330
C
102
}
330
C
100
AcDbDictionary
281
     1
  0
ACDBDICTIONARYWDFLT
  5
E
102
{ACAD_REACTORS
330
C
102
}
330
C
100
AcDbDictionary
281
     1
  3
Normal
350
F
100
AcDbDictionaryWithDefault
340
F
  0
DICTIONARY
  5
B6
102
{ACAD_REACTORS
330
C
102
}
330
C
100
AcDbDictionary
281
     1
  0
DICTIONARY
  5
2A
102
{ACAD_REACTORS
330
C
102
}
330
C
100
AcDbDictionary
281
     1
  3
2dWireframe
350
2F
  3
3D Hidden
350
31
  3
3dWireframe
350
30
  3
Basic
350
32
  3
Brighten
350
36
  3
ColorChange
350
3A
  3
Conceptual
350
34
  3
Dim
350
35
  3
Facepattern
350
39
  3
Flat
350
2B
  3
FlatWithEdges
350
2C
  3
Gouraud
350
2D
  3
GouraudWithEdges
350
2E
  3
Linepattern
350
38
  3
Realistic
350
33
  3
Thicken
350
37
  0
LAYOUT
  5
1E
102
{ACAD_REACTORS
330
1A
102
}
330
1A
100
AcDbPlotSettings
  1

  2
none_device
  4

  6

 40
0.0
 41
0.0
 42
0.0
 43
0.0
 44
0.0
 45
0.0
 46
0.0
 47
0.0
 48
0.0
 49
0.0
140
0.0
141
0.0
142
1.0
143
1.0
 70
   688
 72
     0
 73
     0
 74
     5
  7

 75
    16
 76
     0
 77
     2
 78
   300
147
1.0
148
0.0
149
0.0
100
AcDbLayout
  1
Layout1
 70
     1
 71
     1
 10
0.0
 20
0.0
 11
12.0
 21
9.0
 12
0.0
 22
0.0
 32
0.0
 14
1.000000000000000E+20
 24
1.000000000000000E+20
 34
1.000000000000000E+20
 15
-1.000000000000000E+20
 25
-1.000000000000000E+20
 35
-1.000000000000000E+20
146
0.0
 13
0.0
 23
0.0
 33
0.0
 16
1.0
 26
0.0
 36
0.0
 17
0.0
 27
1.0
 37
0.0
 76
     0
330
1B
  0
LAYOUT
  5
26
102
{ACAD_REACTORS
330
1A
102
}
330
1A
100
AcDbPlotSettings
  1

  2
none_device
  4

  6

 40
0.0
 41
0.0
 42
0.0
 43
0.0
 44
0.0
 45
0.0
 46
0.0
 47
0.0
 48
0.0
 49
0.0
140
0.0
141
0.0
142
1.0
143
1.0
 70
   688
 72
     0
 73
     0
 74
     5
  7

 75
    16
 76
     0
 77
     2
 78
   300
147
1.0
148
0.0
149
0.0
100
AcDbLayout
  1
Layout2
 70
     1
 71
     2
 10
0.0
 20
0.0
 11
0.0
 21
0.0
 12
0.0
 22
0.0
 32
0.0
 14
0.0
 24
0.0
 34
0.0
 15
0.0
 25
0.0
 35
0.0
146
0.0
 13
0.0
 23
0.0
 33
0.0
 16
1.0
 26
0.0
 36
0.0
 17
0.0
 27
1.0
 37
0.0
 76
     0
330
23
  0
LAYOUT
  5
22
102
{ACAD_REACTORS
330
1A
102
}
330
1A
100
AcDbPlotSettings
  1

  2
none_device
  4

  6

 40
0.0
 41
0.0
 42
0.0
 43
0.0
 44
0.0
 45
0.0
 46
0.0
 47
0.0
 48
0.0
 49
0.0
140
0.0
141
0.0
142
1.0
143
1.0
 70
  1712
 72
     0
 73
     0
 74
     0
  7

 75
     0
 76
     0
 77
     2
 78
   300
147
1.0
148
0.0
149
0.0
100
AcDbLayout
  1
Model
 70
     1
 71
     0
 10
0.0
 20
0.0
 11
12.0
 21
9.0
 12
0.0
 22
0.0
 32
0.0
 14
1.000000000000000E+20
 24
1.000000000000000E+20
 34
1.000000000000000E+20
 15
-1.000000000000000E+20
 25
-1.000000000000000E+20
 35
-1.000000000000000E+20
146
0.0
 13
0.0
 23
0.0
 33
0.0
 16
1.0
 26
0.0
 36
0.0
 17
0.0
 27
1.0
 37
0.0
 76
     0
330
1F
331
29
  0
MATERIAL
  5
3D
102
{ACAD_REACTORS
330
3B
102
}
330
3B
100
AcDbMaterial
  1
ByBlock
 72
     1
 94
      127
  0
MATERIAL
  5
3C
102
{ACAD_REACTORS
330
3B
102
}
330
3B
100
AcDbMaterial
  1
ByLayer
 72
     1
 94
      127
  0
MATERIAL
  5
3E
102
{ACAD_REACTORS
330
3B
102
}
330
3B
100
AcDbMaterial
  1
Global
 72
     1
 94
      127
  0
MLINESTYLE
  5
18
102
{ACAD_REACTORS
330
17
102
}
330
17
100
AcDbMlineStyle
  2
Standard
 70
     0
  3

 62
   256
 51
90.0
 52
90.0
 71
     2
 49
0.5
 62
   256
  6
BYLAYER
 49
-0.5
 62
   256
  6
BYLAYER
  0
ACDBPLACEHOLDER
  5
F
102
{ACAD_REACTORS
330
E
102
}
330
E
  0
VISUALSTYLE
  5
2F
102
{ACAD_REACTORS
330
2A
102
}
330
2A
100
AcDbVisualStyle
  2
2dWireframe
 70
     4
177
     2
291
     0
 71
     0
176
     1
 72
     2
176
     1
 73
     0
176
     1
 90
        0
176
     1
 40
-0.6
176
     1
 41
-30.0
176
     1
 62
     5
 63
     7
421
 16777215
176
     1
 74
     1
176
     1
 91
        4
176
     1
 64
     7
176
     1
 65
   257
176
     1
 75
     1
176
     1
175
     1
176
     1
 42
1.0
176
     1
 92
        0
176
     1
 66
   257
176
     1
 43
1.0
176
     1
 76
     1
176
     1
 77
     6
176
     1
 78
     2
176
     1
 67
     7
176
     1
 79
     5
176
     1
170
     0
176
     1
171
     0
176
     1
290
     0
176
     1
 93
        1
176
     1
 44
0.0
176
     1
173
     0
176
     1
  0
VISUALSTYLE
  5
31
102
{ACAD_REACTORS
330
2A
102
}
330
2A
100
AcDbVisualStyle
  2
3D Hidden
 70
     6
177
     2
291
     0
 71
     1
176
     1
 72
     2
176
     1
 73
     2
176
     1
 90
        0
176
     1
 40
-0.6
176
     1
 41
-30.0
176
     1
 62
     5
 63
     7
421
 16777215
176
     1
 74
     2
176
     1
 91
        2
176
     1
 64
     7
176
     1
 65
   257
176
     1
 75
     2
176
     1
175
     1
176
     1
 42
40.0
176
     1
 92
        0
176
     1
 66
   257
176
     1
 43
1.0
176
     1
 76
     1
176
     1
 77
     6
176
     1
 78
     2
176
     1
 67
     7
176
     1
 79
     3
176
     1
170
     0
176
     1
171
     0
176
     1
290
     0
176
     1
 93
        1
176
     1
 44
0.0
176
     1
173
     0
176
     1
  0
VISUALSTYLE
  5
30
102
{ACAD_REACTORS
330
2A
102
}
330
2A
100
AcDbVisualStyle
  2
3dWireframe
 70
     5
177
     2
291
     0
 71
     0
176
     1
 72
     2
176
     1
 73
     0
176
     1
 90
        0
176
     1
 40
-0.6
176
     1
 41
-30.0
176
     1
 62
     5
 63
     7
421
 16777215
176
     1
 74
     1
176
     1
 91
        4
176
     1
 64
     7
176
     1
 65
   257
176
     1
 75
     1
176
     1
175
     1
176
     1
 42
1.0
176
     1
 92
        0
176
     1
 66
   257
176
     1
 43
1.0
176
     1
 76
     1
176
     1
 77
     6
176
     1
 78
     2
176
     1
 67
     7
176
     1
 79
     5
176
     1
170
     0
176
     1
171
     0
176
     1
290
     0
176
     1
 93
        1
176
     1
 44
0.0
176
     1
173
     0
176
     1
  0
VISUALSTYLE
  5
32
102
{ACAD_REACTORS
330
2A
102
}
330
2A
100
AcDbVisualStyle
  2
Basic
 70
     7
177
     2
291
     1
 71
     1
176
     1
 72
     0
176
     1
 73
     1
176
     1
 90
        0
176
     1
 40
-0.6
176
     1
 41
-30.0
176
     1
 62
     5
 63
     7
421
 16777215
176
     1
 74
     0
176
     1
 91
        4
176
     1
 64
     7
176
     1
 65
   257
176
     1
 75
     1
176
     1
175
     1
176
     1
 42
1.0
176
     1
 92
        8
176
     1
 66
     7
176
     1
 43
1.0
176
     1
 76
     1
176
     1
 77
     6
176
     1
 78
     2
176
     1
 67
     7
176
     1
 79
     5
176
     1
170
     0
176
     1
171
     0
176
     1
290
     0
176
     1
 93
        1
176
     1
 44
0.0
176
     1
173
     0
176
     1
  0
VISUALSTYLE
  5
36
102
{ACAD_REACTORS
330
2A
102
}
330
2A
100
AcDbVisualStyle
  2
Brighten
 70
    12
177
     2
291
     1
 71
     2
176
     1
 72
     2
176
     1
 73
     0
176
     1
 90
        0
176
     1
 40
-0.6
176
     1
 41
-30.0
176
     1
 62
     5
 63
     7
421
 16777215
176
     1
 74
     1
176
     1
 91
        4
176
     1
 64
     7
176
     1
 65
   257
176
     1
 75
     1
176
     1
175
     1
176
     1
 42
1.0
176
     1
 92
        8
176
     1
 66
     7
176
     1
 43
1.0
176
     1
 76
     1
176
     1
 77
     6
176
     1
 78
     2
176
     1
 67
     7
176
     1
 79
     5
176
     1
170
     0
176
     1
171
     0
176
     1
290
     0
176
     1
 93
        1
176
     1
 44
50.0
176
     1
173
     0
176
     1
  0
VISUALSTYLE
  5
3A
102
{ACAD_REACTORS
330
2A
102
}
330
2A
100
AcDbVisualStyle
  2
ColorChange
 70
    16
177
     2
291
     1
 71
     2
176
     1
 72
     2
176
     1
 73
     3
176
     1
 90
        0
176
     1
 40
-0.6
176
     1
 41
-30.0
176
     1
 62
     5
 63
     8
421
  8421504
176
     1
 74
     1
176
     1
 91
        4
176
     1
 64
     7
176
     1
 65
   257
176
     1
 75
     1
176
     1
175
     1
176
     1
 42
1.0
176
     1
 92
        8
176
     1
 66
     8
424
  8421504
176
     1
 43
1.0
176
     1
 76
     1
176
     1
 77
     6
176
     1
 78
     2
176
     1
 67
     7
176
     1
 79
     5
176
     1
170
     0
176
     1
171
     0
176
     1
290
     0
176
     1
 93
        1
176
     1
 44
0.0
176
     1
173
     0
176
     1
  0
VISUALSTYLE
  5
34
102
{ACAD_REACTORS
330
2A
102
}
330
2A
100
AcDbVisualStyle
  2
Conceptual
 70
     9
177
     2
291
     0
 71
     3
176
     1
 72
     2
176
     1
 73
     0
176
     1
 90
        0
176
     1
 40
-0.6
176
     1
 41
-30.0
176
     1
 62
     5
 63
     7
421
 16777215
176
     1
 74
     2
176
     1
 91
        2
176
     1
 64
     7
176
     1
 65
   257
176
     1
 75
     1
176
     1
175
     1
176
     1
 42
40.0
176
     1
 92
        8
176
     1
 66
     7
176
     1
 43
1.0
176
     1
 76
     1
176
     1
 77
     6
176
     1
 78
     2
176
     1
 67
     7
176
     1
 79
     3
176
     1
170
     0
176
     1
171
     0
176
     1
290
     0
176
     1
 93
        1
176
     1
 44
0.0
176
     1
173
     0
176
     1
  0
VISUALSTYLE
  5
35
102
{ACAD_REACTORS
330
2A
102
}
330
2A
100
AcDbVisualStyle
  2
Dim
 70
    11
177
     2
291
     1
 71
     2
176
     1
 72
     2
176
     1
 73
     0
176
     1
 90
        0
176
     1
 40
-0.6
176
     1
 41
-30.0
176
     1
 62
     5
 63
     7
421
 16777215
176
     1
 74
     1
176
     1
 91
        4
176
     1
 64
     7
176
     1
 65
   257
176
     1
 75
     1
176
     1
175
     1
176
     1
 42
1.0
176
     1
 92
        8
176
     1
 66
     7
176
     1
 43
1.0
176
     1
 76
     1
176
     1
 77
     6
176
     1
 78
     2
176
     1
 67
     7
176
     1
 79
     5
176
     1
170
     0
176
     1
171
     0
176
     1
290
     0
176
     1
 93
        1
176
     1
 44
-50.0
176
     1
173
     0
176
     1
  0
VISUALSTYLE
  5
39
102
{ACAD_REACTORS
330
2A
102
}
330
2A
100
AcDbVisualStyle
  2
Facepattern
 70
    15
177
     2
291
     1
 71
     2
176
     1
 72
     2
176
     1
 73
     0
176
     1
 90
        0
176
     1
 40
-0.6
176
     1
 41
-30.0
176
     1
 62
     5
 63
     7
421
 16777215
176
     1
 74
     1
176
     1
 91
        4
176
     1
 64
     7
176
     1
 65
   257
176
     1
 75
     1
176
     1
175
     1
176
     1
 42
1.0
176
     1
 92
        8
176
     1
 66
     7
176
     1
 43
1.0
176
     1
 76
     1
176
     1
 77
     6
176
     1
 78
     2
176
     1
 67
     7
176
     1
 79
     5
176
     1
170
     0
176
     1
171
     0
176
     1
290
     0
176
     1
 93
        1
176
     1
 44
0.0
176
     1
173
     0
176
     1
  0
VISUALSTYLE
  5
2B
102
{ACAD_REACTORS
330
2A
102
}
330
2A
100
AcDbVisualStyle
  2
Flat
 70
     0
177
     2
291
     1
 71
     2
176
     1
 72
     1
176
     1
 73
     1
176
     1
 90
        2
176
     1
 40
-0.6
176
     1
 41
30.0
176
     1
 62
     5
 63
     7
421
 16777215
176
     1
 74
     0
176
     1
 91
        4
176
     1
 64
     7
176
     1
 65
   257
176
     1
 75
     1
176
     1
175
     1
176
     1
 42
1.0
176
     1
 92
        8
176
     1
 66
     7
176
     1
 43
1.0
176
     1
 76
     1
176
     1
 77
     6
176
     1
 78
     2
176
     1
 67
     7
176
     1
 79
     5
176
     1
170
     0
176
     1
171
     0
176
     1
290
     0
176
     1
 93
       13
176
     1
 44
0.0
176
     1
173
     0
176
     1
  0
VISUALSTYLE
  5
2C
102
{ACAD_REACTORS
330
2A
102
}
330
2A
100
AcDbVisualStyle
  2
FlatWithEdges
 70
     1
177
     2
291
     1
 71
     2
176
     1
 72
     1
176
     1
 73
     1
176
     1
 90
        2
176
     1
 40
-0.6
176
     1
 41
30.0
176
     1
 62
     5
 63
     7
421
 16777215
176
     1
 74
     1
176
     1
 91
        4
176
     1
 64
     7
176
     1
 65
   257
176
     1
 75
     1
176
     1
175
     1
176
     1
 42
1.0
176
     1
 92
        0
176
     1
 66
   257
176
     1
 43
1.0
176
     1
 76
     1
176
     1
 77
     6
176
     1
 78
     2
176
     1
 67
     7
176
     1
 79
     5
176
     1
170
     0
176
     1
171
     0
176
     1
290
     0
176
     1
 93
       13
176
     1
 44
0.0
176
     1
173
     0
176
     1
  0
VISUALSTYLE
  5
2D
102
{ACAD_REACTORS
330
2A
102
}
330
2A
100
AcDbVisualStyle
  2
Gouraud
 70
     2
177
     2
291
     1
 71
     2
176
     1
 72
     2
176
     1
 73
     1
176
     1
 90
        2
176
     1
 40
-0.6
176
     1
 41
30.0
176
     1
 62
     5
 63
     7
421
 16777215
176
     1
 74
     0
176
     1
 91
        4
176
     1
 64
     7
176
     1
 65
   257
176
     1
 75
     1
176
     1
175
     1
176
     1
 42
1.0
176
     1
 92
        0
176
     1
 66
     7
176
     1
 43
1.0
176
     1
 76
     1
176
     1
 77
     6
176
     1
 78
     2
176
     1
 67
     7
176
     1
 79
     5
176
     1
170
     0
176
     1
171
     0
176
     1
290
     0
176
     1
 93
       13
176
     1
 44
0.0
176
     1
173
     0
176
     1
  0
VISUALSTYLE
  5
2E
102
{ACAD_REACTORS
330
2A
102
}
330
2A
100
AcDbVisualStyle
  2
GouraudWithEdges
 70
     3
177
     2
291
     1
 71
     2
176
     1
 72
     2
176
     1
 73
     1
176
     1
 90
        2
176
     1
 40
-0.6
176
     1
 41
30.0
176
     1
 62
     5
 63
     7
421
 16777215
176
     1
 74
     1
176
     1
 91
        4
176
     1
 64
     7
176
     1
 65
   257
176
     1
 75
     1
176
     1
175
     1
176
     1
 42
1.0
176
     1
 92
        0
176
     1
 66
   257
176
     1
 43
1.0
176
     1
 76
     1
176
     1
 77
     6
176
     1
 78
     2
176
     1
 67
     7
176
     1
 79
     5
176
     1
170
     0
176
     1
171
     0
176
     1
290
     0
176
     1
 93
       13
176
     1
 44
0.0
176
     1
173
     0
176
     1
  0
VISUALSTYLE
  5
38
102
{ACAD_REACTORS
330
2A
102
}
330
2A
100
AcDbVisualStyle
  2
Linepattern
 70
    14
177
     2
291
     1
 71
     2
176
     1
 72
     2
176
     1
 73
     0
176
     1
 90
        0
176
     1
 40
-0.6
176
     1
 41
-30.0
176
     1
 62
     5
 63
     7
421
 16777215
176
     1
 74
     1
176
     1
 91
        4
176
     1
 64
     7
176
     1
 65
   257
176
     1
 75
     7
176
     1
175
     7
176
     1
 42
1.0
176
     1
 92
        8
176
     1
 66
     7
176
     1
 43
1.0
176
     1
 76
     1
176
     1
 77
     6
176
     1
 78
     2
176
     1
 67
     7
176
     1
 79
     5
176
     1
170
     0
176
     1
171
     0
176
     1
290
     0
176
     1
 93
        1
176
     1
 44
0.0
176
     1
173
     0
176
     1
  0
VISUALSTYLE
  5
33
102
{ACAD_REACTORS
330
2A
102
}
330
2A
100
AcDbVisualStyle
  2
Realistic
 70
     8
177
     2
291
     0
 71
     2
176
     1
 72
     2
176
     1
 73
     0
176
     1
 90
        0
176
     1
 40
-0.6
176
     1
 41
-30.0
176
     1
 62
     5
 63
     7
421
 16777215
176
     1
 74
     1
176
     1
 91
        0
176
     1
 64
     7
176
     1
 65
   257
176
     1
 75
     1
176
     1
175
     1
176
     1
 42
1.0
176
     1
 92
        8
176
     1
 66
     8
424
  7895160
176
     1
 43
1.0
176
     1
 76
     1
176
     1
 77
     6
176
     1
 78
     2
176
     1
 67
     7
176
     1
 79
     5
176
     1
170
     0
176
     1
171
     0
176
     1
290
     0
176
     1
 93
       13
176
     1
 44
0.0
176
     1
173
     0
176
     1
  0
VISUALSTYLE
  5
37
102
{ACAD_REACTORS
330
2A
102
}
330
2A
100
AcDbVisualStyle
  2
Thicken
 70
    13
177
     2
291
     1
 71
     2
176
     1
 72
     2
176
     1
 73
     0
176
     1
 90
        0
176
     1
 40
-0.6
176
     1
 41
-30.0
176
     1
 62
     5
 63
     7
421
 16777215
176
     1
 74
     1
176
     1
 91
        4
176
     1
 64
     7
176
     1
 65
   257
176
     1
 75
     1
176
     1
175
     1
176
     1
 42
1.0
176
     1
 92
       12
176
     1
 66
     7
176
     1
 43
1.0
176
     1
 76
     1
176
     1
 77
     6
176
     1
 78
     2
176
     1
 67
     7
176
     1
 79
     5
176
     1
170
     0
176
     1
171
     0
176
     1
290
     0
176
     1
 93
        1
176
     1
 44
0.0
176
     1
173
     0
176
     1
  0
ENDSEC
  0
EOF
