  0
SECTION
  2
HEADER
  9
$ACADVER
  1
AC1024
  9
$ACADMAINTVER
 70
     6
  9
$DWGCODEPAGE
  3
UNDEFINED
  9
$INSBASE
 10
0.0
 20
0.0
 30
0.0
  9
$EXTMIN
 10
1.000000000000000E+20
 20
1.000000000000000E+20
 30
1.000000000000000E+20
  9
$EXTMAX
 10
-1.000000000000000E+20
 20
-1.000000000000000E+20
 30
-1.000000000000000E+20
  9
$LIMMIN
 10
0.0
 20
0.0
  9
$LIMMAX
 10
12.0
 20
9.0
  9
$ORTHOMODE
 70
     0
  9
$REGENMODE
 70
     1
  9
$FILLMODE
 70
     1
  9
$QTEXTMODE
 70
     0
  9
$MIRRTEXT
 70
     1
  9
$LTSCALE
 40
1.0
  9
$ATTMODE
 70
     1
  9
$TEXTSIZE
 40
0.2
  9
$TRACEWID
 40
0.05
  9
$TEXTSTYLE
  7
Standard
  9
$CLAYER
  8
0
  9
$CELTYPE
  6
ByLayer
  9
$CECOLOR
 62
   256
  9
$CELTSCALE
 40
1.0
  9
$DISPSILH
 70
     0
  9
$DIMSCALE
 40
1.0
  9
$DIMASZ
 40
0.18
  9
$DIMEXO
 40
0.0625
  9
$DIMDLI
 40
0.38
  9
$DIMRND
 40
0.0
  9
$DIMDLE
 40
0.0
  9
$DIMEXE
 40
0.18
  9
$DIMTP
 40
0.0
  9
$DIMTM
 40
0.0
  9
$DIMTXT
 40
0.18
  9
$DIMCEN
 40
0.09
  9
$DIMTSZ
 40
0.0
  9
$DIMTOL
 70
     0
  9
$DIMLIM
 70
     0
  9
$DIMTIH
 70
     1
  9
$DIMTOH
 70
     1
  9
$DIMSE1
 70
     0
  9
$DIMSE2
 70
     0
  9
$DIMTAD
 70
     0
  9
$DIMZIN
 70
     0
  9
$DIMBLK
  1

  9
$DIMASO
 70
     1
  9
$DIMSHO
 70
     1
  9
$DIMPOST
  1

  9
$DIMAPOST
  1

  9
$DIMALT
 70
     0
  9
$DIMALTD
 70
     2
  9
$DIMALTF
 40
25.4
  9
$DIMLFAC
 40
1.0
  9
$DIMTOFL
 70
     0
  9
$DIMTVP
 40
0.0
  9
$DIMTIX
 70
     0
  9
$DIMSOXD
 70
     0
  9
$DIMSAH
 70
     0
  9
$DIMBLK1
  1

  9
$DIMBLK2
  1

  9
$DIMSTYLE
  2
Standard
  9
$DIMCLRD
 70
     0
  9
$DIMCLRE
 70
     0
  9
$DIMCLRT
 70
     0
  9
$DIMTFAC
 40
1.0
  9
$DIMGAP
 40
0.09
  9
$DIMJUST
 70
     0
  9
$DIMSD1
 70
     0
  9
$DIMSD2
 70
     0
  9
$DIMTOLJ
 70
     1
  9
$DIMTZIN
 70
     0
  9
$DIMALTZ
 70
     0
  9
$DIMALTTZ
 70
     0
  9
$DIMUPT
 70
     0
  9
$DIMDEC
 70
     4
  9
$DIMTDEC
 70
     4
  9
$DIMALTU
 70
     2
  9
$DIMALTTD
 70
     2
  9
$DIMTXSTY
  7
Standard
  9
$DIMAUNIT
 70
     0
  9
$DIMADEC
 70
     0
  9
$DIMALTRND
 40
0.0
  9
$DIMAZIN
 70
     0
  9
$DIMDSEP
 70
    46
  9
$DIMATFIT
 70
     3
  9
$DIMFRAC
 70
     0
  9
$DIMLDRBLK
  1

  9
$DIMLUNIT
 70
     2
  9
$DIMLWD
 70
    -2
  9
$DIMLWE
 70
    -2
  9
$DIMTMOVE
 70
     0
  9
$DIMFXL
 40
1.0
  9
$DIMFXLON
 70
     0
  9
$DIMJOGANG
 40
0.7853981633974483
  9
$DIMTFILL
 70
     0
  9
$DIMTFILLCLR
 70
     0
  9
$DIMARCSYM
 70
     0
  9
$DIMLTYPE
  6

  9
$DIMLTEX1
  6

  9
$DIMLTEX2
  6

  9
$DIMTXTDIRECTION
 70
     0
  9
$LUNITS
 70
     2
  9
$LUPREC
 70
     4
  9
$SKETCHINC
 40
0.1
  9
$FILLETRAD
 40
0.5
  9
$AUNITS
 70
     0
  9
$AUPREC
 70
     0
  9
$MENU
  1
.
  9
$ELEVATION
 40
0.0
  9
$PELEVATION
 40
0.0
  9
$THICKNESS
 40
0.0
  9
$LIMCHECK
 70
     0
  9
$CHAMFERA
 40
0.5
  9
$CHAMFERB
 40
0.5
  9
$CHAMFERC
 40
1.0
  9
$CHAMFERD
 40
0.0
  9
$SKPOLY
 70
     0
  9
$TDCREATE
 40
2457917.611041655
  9
$TDUCREATE
 40
2457917.236041666
  9
$TDUPDATE
 40
2457917.611041655
  9
$TDUUPDATE
 40
2457917.236041666
  9
$TDINDWG
 40
0.0000000116
  9
$TDUSRTIMER
 40
0.0000000116
  9
$USRTIMER
 70
     1
  9
$ANGBASE
 50
0.0
  9
$ANGDIR
 70
     0
  9
$PDMODE
 70
     0
  9
$PDSIZE
 40
0.0
  9
$PLINEWID
 40
0.0
  9
$SPLFRAME
 70
     0
  9
$SPLINETYPE
 70
     6
  9
$SPLINESEGS
 70
     8
  9
$HANDSEED
  5
B9
  9
$SURFTAB1
 70
     6
  9
$SURFTAB2
 70
     6
  9
$SURFTYPE
 70
     6
  9
$SURFU
 70
     6
  9
$SURFV
 70
     6
  9
$UCSBASE
  2

  9
$UCSNAME
  2

  9
$UCSORG
 10
0.0
 20
0.0
 30
0.0
  9
$UCSXDIR
 10
1.0
 20
0.0
 30
0.0
  9
$UCSYDIR
 10
0.0
 20
1.0
 30
0.0
  9
$UCSORTHOREF
  2

  9
$UCSORTHOVIEW
 70
     0
  9
$UCSORGTOP
 10
0.0
 20
0.0
 30
0.0
  9
$UCSORGBOTTOM
 10
0.0
 20
0.0
 30
0.0
  9
$UCSORGLEFT
 10
0.0
 20
0.0
 30
0.0
  9
$UCSORGRIGHT
 10
0.0
 20
0.0
 30
0.0
  9
$UCSORGFRONT
 10
0.0
 20
0.0
 30
0.0
  9
$UCSORGBACK
 10
0.0
 20
0.0
 30
0.0
  9
$PUCSBASE
  2

  9
$PUCSNAME
  2

  9
$PUCSORG
 10
0.0
 20
0.0
 30
0.0
  9
$PUCSXDIR
 10
1.0
 20
0.0
 30
0.0
  9
$PUCSYDIR
 10
0.0
 20
1.0
 30
0.0
  9
$PUCSORTHOREF
  2

  9
$PUCSORTHOVIEW
 70
     0
  9
$PUCSORGTOP
 10
0.0
 20
0.0
 30
0.0
  9
$PUCSORGBOTTOM
 10
0.0
 20
0.0
 30
0.0
  9
$PUCSORGLEFT
 10
0.0
 20
0.0
 30
0.0
  9
$PUCSORGRIGHT
 10
0.0
 20
0.0
 30
0.0
  9
$PUCSORGFRONT
 10
0.0
 20
0.0
 30
0.0
  9
$PUCSORGBACK
 10
0.0
 20
0.0
 30
0.0
  9
$USERI1
 70
     0
  9
$USERI2
 70
     0
  9
$USERI3
 70
     0
  9
$USERI4
 70
     0
  9
$USERI5
 70
     0
  9
$USERR1
 40
0.0
  9
$USERR2
 40
0.0
  9
$USERR3
 40
0.0
  9
$USERR4
 40
0.0
  9
$USERR5
 40
0.0
  9
$WORLDVIEW
 70
     1
  9
$SHADEDGE
 70
     3
  9
$SHADEDIF
 70
    70
  9
$TILEMODE
 70
     1
  9
$MAXACTVP
 70
    64
  9
$PINSBASE
 10
0.0
 20
0.0
 30
0.0
  9
$PLIMCHECK
 70
     0
  9
$PEXTMIN
 10
1.000000000000000E+20
 20
1.000000000000000E+20
 30
1.000000000000000E+20
  9
$PEXTMAX
 10
-1.000000000000000E+20
 20
-1.000000000000000E+20
 30
-1.000000000000000E+20
  9
$PLIMMIN
 10
0.0
 20
0.0
  9
$PLIMMAX
 10
12.0
 20
9.0
  9
$UNITMODE
 70
     0
  9
$VISRETAIN
 70
     1
  9
$PLINEGEN
 70
     0
  9
$PSLTSCALE
 70
     1
  9
$TREEDEPTH
 70
  3020
  9
$CMLSTYLE
  2
Standard
  9
$CMLJUST
 70
     0
  9
$CMLSCALE
 40
1.0
  9
$PROXYGRAPHICS
 70
     1
  9
$MEASUREMENT
 70
     0
  9
$CELWEIGHT
370
    -1
  9
$ENDCAPS
280
     0
  9
$JOINSTYLE
280
     0
  9
$LWDISPLAY
290
     1
  9
$INSUNITS
 70
     1
  9
$HYPERLINKBASE
  1

  9
$STYLESHEET
  1

  9
$XEDIT
290
     1
  9
$CEPSNTYPE
380
     0
  9
$PSTYLEMODE
290
     1
  9
$FINGERPRINTGUID
  2
{E1F7292B-3BFF-386B-2745-8D4EB4975497}
  9
$VERSIONGUID
  2
{FAEB1C32-E019-11D5-929B-00C0DF256EC4}
  9
$EXTNAMES
290
     1
  9
$PSVPSCALE
 40
0.0
  9
$OLESTARTUP
290
     0
  9
$SORTENTS
280
   127
  9
$INDEXCTL
280
     0
  9
$HIDETEXT
280
     1
  9
$XCLIPFRAME
280
     2
  9
$HALOGAP
280
     0
  9
$OBSCOLOR
 70
   257
  9
$OBSLTYPE
280
     0
  9
$INTERSECTIONDISPLAY
280
     0
  9
$INTERSECTIONCOLOR
 70
   257
  9
$DIMASSOC
280
     2
  9
$PROJECTNAME
  1

  9
$CAMERADISPLAY
290
     0
  9
$LENSLENGTH
 40
50.0
  9
$CAMERAHEIGHT
 40
0.0
  9
$STEPSPERSEC
 40
2.0
  9
$STEPSIZE
 40
6.0
  9
$3DDWFPREC
 40
2.0
  9
$PSOLWIDTH
 40
0.25
  9
$PSOLHEIGHT
 40
4.0
  9
$LOFTANG1
 40
1.570796326794897
  9
$LOFTANG2
 40
1.570796326794897
  9
$LOFTMAG1
 40
0.0
  9
$LOFTMAG2
 40
0.0
  9
$LOFTPARAM
 70
     7
  9
$LOFTNORMALS
280
     1
  9
$LATITUDE
 40
37.795
  9
$LONGITUDE
 40
-122.394
  9
$NORTHDIRECTION
 40
0.0
  9
$TIMEZONE
 70
 -8000
  9
$LIGHTGLYPHDISPLAY
280
     1
  9
$TILEMODELIGHTSYNCH
280
     1
  9
$CMATERIAL
347
3C
  9
$SOLIDHIST
280
     1
  9
$SHOWHIST
280
     1
  9
$DWFFRAME
280
     2
  9
$DGNFRAME
280
     2
  9
$REALWORLDSCALE
290
     1
  9
$INTERFERECOLOR
 62
   256
  9
$CSHADOW
280
     0
  9
$SHADOWPLANELOCATION
 40
0.0
  0
ENDSEC
  0
SECTION
  2
CLASSES
  0
CLASS
  1
ACDBDICTIONARYWDFLT
  2
AcDbDictionaryWithDefault
  3
ObjectDBX Classes
 90
        0
 91
        4
280
     0
281
     0
  0
CLASS
  1
VISUALSTYLE
  2
AcDbVisualStyle
  3
ObjectDBX Classes
 90
     4095
 91
        4
280
     0
281
     0
  0
CLASS
  1
MATERIAL
  2
AcDbMaterial
  3
ObjectDBX Classes
 90
     1153
 91
        4
280
     0
281
     0
  0
CLASS
  1
SUN
  2
AcDbSun
  3
SCENEOE
 90
     1024
 91
        4
280
     0
281
     0
  0
ENDSEC
  0
SECTION
  2
TABLES
  0
TABLE
  2
VPORT
  5
8
330
0
100
AcDbSymbolTable
 70
     1
  0
VPORT
  5
29
330
8
100
AcDbSymbolTableRecord
100
AcDbViewportTableRecord
  2
*Active
 70
     0
 10
0.0
 20
0.0
 11
1.0
 21
1.0
 12
0.0
 22
0.0
 13
0.0
 23
0.0
 14
0.5
 24
0.5
 15
0.5
 25
0.5
 16
0.0
 26
0.0
 36
1.0
 17
63.499999984125
 27
-89.00059456108309
 37
0.0
 40
178.0011891221662
 41
0.7134783795241226
 42
50.0
 43
0.0
 44
0.0
 50
0.0
 51
0.0
 71
     0
 72
   100
 73
     1
 74
     3
 75
     0
 76
     0
 77
     0
 78
     0
281
     0
 65
     1
110
0.0
120
0.0
130
0.0
111
1.0
121
0.0
131
0.0
112
0.0
122
1.0
132
0.0
 79
     0
146
0.0
 60
     3
 61
     5
292
     1
282
     1
141
0.0
142
0.0
 63
   250
361
3F
  0
ENDTAB
  0
TABLE
  2
LTYPE
  5
5
330
0
100
AcDbSymbolTable
 70
     1
  0
LTYPE
  5
14
330
5
100
AcDbSymbolTableRecord
100
AcDbLinetypeTableRecord
  2
ByBlock
 70
     0
  3

 72
    65
 73
     0
 40
0.0
  0
LTYPE
  5
15
330
5
100
AcDbSymbolTableRecord
100
AcDbLinetypeTableRecord
  2
ByLayer
 70
     0
  3

 72
    65
 73
     0
 40
0.0
  0
LTYPE
  5
16
330
5
100
AcDbSymbolTableRecord
100
AcDbLinetypeTableRecord
  2
Continuous
 70
     0
  3
Solid line
 72
    65
 73
     0
 40
0.0
  0
ENDTAB
  0
TABLE
  2
LAYER
  5
2
330
0
100
AcDbSymbolTable
 70
     2
  0
LAYER
  5
10
330
2
100
AcDbSymbolTableRecord
100
AcDbLayerTableRecord
  2
0
 70
     0
 62
     7
  6
Continuous
370
    -3
390
F
347
3E
  0
LAYER
  5
40
330
2
100
AcDbSymbolTableRecord
100
AcDbLayerTableRecord
  2
_U+30EC_U+30A4_U+30E4_U+30FC 1
 70
     0
 62
     7
  6
Continuous
370
    -3
390
F
347
3E
  0
ENDTAB
  0
TABLE
  2
STYLE
  5
3
330
0
100
AcDbSymbolTable
 70
     1
  0
STYLE
  5
11
330
3
100
AcDbSymbolTableRecord
100
AcDbTextStyleTableRecord
  2
Standard
 70
     0
 40
0.0
 41
1.0
 50
0.0
 71
     0
 42
0.2
  3
txt
  4

  0
ENDTAB
  0
TABLE
  2
VIEW
  5
6
330
0
100
AcDbSymbolTable
 70
     0
  0
ENDTAB
  0
TABLE
  2
UCS
  5
7
330
0
100
AcDbSymbolTable
 70
     0
  0
ENDTAB
  0
TABLE
  2
APPID
  5
9
330
0
100
AcDbSymbolTable
 70
     1
  0
APPID
  5
12
330
9
100
AcDbSymbolTableRecord
100
AcDbRegAppTableRecord
  2
ACAD
 70
     0
  0
ENDTAB
  0
TABLE
  2
DIMSTYLE
  5
A
330
0
100
AcDbSymbolTable
 70
     1
100
AcDbDimStyleTable
  0
DIMSTYLE
105
27
330
A
100
AcDbSymbolTableRecord
100
AcDbDimStyleTableRecord
  2
Standard
 70
     0
178
     0
340
11
  0
ENDTAB
  0
TABLE
  2
BLOCK_RECORD
  5
1
330
0
100
AcDbSymbolTable
 70
     7
  0
BLOCK_RECORD
  5
1F
330
1
100
AcDbSymbolTableRecord
100
AcDbBlockTableRecord
  2
*Model_Space
340
22
 70
     0
280
     1
281
     0
  0
BLOCK_RECORD
  5
1B
330
1
100
AcDbSymbolTableRecord
100
AcDbBlockTableRecord
  2
*Paper_Space
340
1E
 70
     0
280
     1
281
     0
  0
BLOCK_RECORD
  5
23
330
1
100
AcDbSymbolTableRecord
100
AcDbBlockTableRecord
  2
*Paper_Space0
340
26
 70
     0
280
     1
281
     0
  0
BLOCK_RECORD
  5
59
330
1
100
AcDbSymbolTableRecord
100
AcDbBlockTableRecord
  2
block 2
340
0
102
{BLKREFS
331
5A
102
}
 70
     0
280
     1
281
     0
  0
BLOCK_RECORD
  5
62
330
1
100
AcDbSymbolTableRecord
100
AcDbBlockTableRecord
  2
block 3
340
0
102
{BLKREFS
331
63
102
}
 70
     0
280
     1
281
     0
  0
BLOCK_RECORD
  5
68
330
1
100
AcDbSymbolTableRecord
100
AcDbBlockTableRecord
  2
block 4
340
0
102
{BLKREFS
331
69
102
}
 70
     0
280
     1
281
     0
  0
BLOCK_RECORD
  5
81
330
1
100
AcDbSymbolTableRecord
100
AcDbBlockTableRecord
  2
block 5
340
0
102
{BLKREFS
331
82
102
}
 70
     0
280
     1
281
     0
  0
BLOCK_RECORD
  5
89
330
1
100
AcDbSymbolTableRecord
100
AcDbBlockTableRecord
  2
block 6
340
0
102
{BLKREFS
331
8A
102
}
 70
     0
280
     1
281
     0
  0
BLOCK_RECORD
  5
A0
330
1
100
AcDbSymbolTableRecord
100
AcDbBlockTableRecord
  2
block 7
340
0
102
{BLKREFS
331
A1
102
}
 70
     0
280
     1
281
     0
  0
ENDTAB
  0
ENDSEC
  0
SECTION
  2
BLOCKS
  0
BLOCK
  5
20
330
1F
100
AcDbEntity
  8
0
100
AcDbBlockBegin
  2
*Model_Space
 70
     0
 10
0.0
 20
0.0
 30
0.0
  3
*Model_Space
  1

  0
ENDBLK
  5
21
330
1F
100
AcDbEntity
  8
0
100
AcDbBlockEnd
  0
BLOCK
  5
1C
330
1B
100
AcDbEntity
 67
     1
  8
0
100
AcDbBlockBegin
  2
*Paper_Space
 70
     0
 10
0.0
 20
0.0
 30
0.0
  3
*Paper_Space
  1

  0
ENDBLK
  5
1D
330
1B
100
AcDbEntity
 67
     1
  8
0
100
AcDbBlockEnd
  0
BLOCK
  5
24
330
23
100
AcDbEntity
  8
0
100
AcDbBlockBegin
  2
*Paper_Space0
 70
     0
 10
0.0
 20
0.0
 30
0.0
  3
*Paper_Space0
  1

  0
ENDBLK
  5
25
330
23
100
AcDbEntity
  8
0
100
AcDbBlockEnd
  0
BLOCK
  5
5B
330
59
100
AcDbEntity
  8
0
100
AcDbBlockBegin
  2
block 2
 70
     0
 10
0.0
 20
0.0
 30
0.0
  3
block 2
  1

  0
SPLINE
  5
5D
330
59
100
AcDbEntity
  8
_U+30EC_U+30A4_U+30E4_U+30FC 1
370
     0
100
AcDbSpline
210
0.0
220
0.0
230
1.0
 70
    11
 71
     3
 72
    26
 73
    22
 74
     0
 42
0.0000000001
 43
0.0000000001
 12
1.0
 22
0.0
 32
0.0
 13
1.0
 23
0.0
 33
0.0
 40
0.0
 40
0.0
 40
0.0
 40
0.0
 40
1.0
 40
1.0
 40
1.0
 40
2.0
 40
2.0
 40
2.0
 40
3.0
 40
3.0
 40
3.0
 40
4.0
 40
4.0
 40
4.0
 40
5.0
 40
5.0
 40
5.0
 40
6.0
 40
6.0
 40
6.0
 40
7.0
 40
7.0
 40
7.0
 40
7.0
 10
83.20112302607473
 20
-88.68640405768951
 30
0.0
 10
83.20112302607473
 20
-88.68640405768951
 30
0.0
 10
82.09696992305216
 20
-88.68640405768951
 30
0.0
 10
82.09696992305216
 20
-88.68640405768951
 30
0.0
 10
82.09696992305216
 20
-88.68640405768951
 30
0.0
 10
82.09696992305216
 20
-89.01644420517646
 30
0.0
 10
82.09696992305216
 20
-89.01644420517646
 30
0.0
 10
82.09696992305216
 20
-89.01644420517646
 30
0.0
 10
81.9488308171864
 20
-89.01644420517646
 30
0.0
 10
81.9488308171864
 20
-89.01644420517646
 30
0.0
 10
81.93401690659984
 20
-88.68433700039836
 30
0.0
 10
81.77106389014752
 20
-88.6378282113475
 30
0.0
 10
81.65668672003721
 20
-88.60820039017435
 30
0.0
 10
81.65668672003721
 20
-88.60820039017435
 30
0.0
 10
81.65668672003721
 20
-88.46212834159975
 30
0.0
 10
81.65668672003721
 20
-88.46212834159975
 30
0.0
 10
81.65668672003721
 20
-88.46212834159975
 30
0.0
 10
83.20112302607473
 20
-88.46212834159975
 30
0.0
 10
83.20112302607473
 20
-88.46212834159975
 30
0.0
 10
83.20112302607473
 20
-88.46212834159975
 30
0.0
 10
83.20112302607473
 20
-88.68640405768951
 30
0.0
 10
83.20112302607473
 20
-88.68640405768951
 30
0.0
  0
HATCH
  5
5E
330
59
100
AcDbEntity
  8
_U+30EC_U+30A4_U+30E4_U+30FC 1
 62
   179
420
  2234388
100
AcDbHatch
 10
0.0
 20
0.0
 30
0.0
210
0.0
220
0.0
230
1.0
  2
SOLID
 70
     1
 71
     0
 91
        1
 92
        1
 93
        1
 72
     4
 94
        3
 73
     0
 74
     1
 95
       26
 96
       22
 40
0.0
 40
0.0
 40
0.0
 40
0.0
 40
1.0
 40
1.0
 40
1.0
 40
2.0
 40
2.0
 40
2.0
 40
3.0
 40
3.0
 40
3.0
 40
4.0
 40
4.0
 40
4.0
 40
5.0
 40
5.0
 40
5.0
 40
6.0
 40
6.0
 40
6.0
 40
7.0
 40
7.0
 40
7.0
 40
7.0
 10
83.20112302607473
 20
-88.68640405768951
 10
83.20112302607473
 20
-88.68640405768951
 10
82.09696992305216
 20
-88.68640405768951
 10
82.09696992305216
 20
-88.68640405768951
 10
82.09696992305216
 20
-88.68640405768951
 10
82.09696992305216
 20
-89.01644420517646
 10
82.09696992305216
 20
-89.01644420517646
 10
82.09696992305216
 20
-89.01644420517646
 10
81.9488308171864
 20
-89.01644420517646
 10
81.9488308171864
 20
-89.01644420517646
 10
81.93401690659984
 20
-88.68433700039836
 10
81.77106389014752
 20
-88.6378282113475
 10
81.65668672003721
 20
-88.60820039017435
 10
81.65668672003721
 20
-88.60820039017435
 10
81.65668672003721
 20
-88.46212834159975
 10
81.65668672003721
 20
-88.46212834159975
 10
81.65668672003721
 20
-88.46212834159975
 10
83.20112302607473
 20
-88.46212834159975
 10
83.20112302607473
 20
-88.46212834159975
 10
83.20112302607473
 20
-88.46212834159975
 10
83.20112302607473
 20
-88.68640405768951
 10
83.20112302607473
 20
-88.68640405768951
 97
        0
 97
        0
 75
     2
 76
     1
 98
        0
  0
SPLINE
  5
5F
330
59
100
AcDbEntity
  8
_U+30EC_U+30A4_U+30E4_U+30FC 1
370
     0
100
AcDbSpline
210
0.0
220
0.0
230
1.0
 70
    11
 71
     3
 72
    29
 73
    25
 74
     0
 42
0.0000000001
 43
0.0000000001
 12
1.0
 22
0.0
 32
0.0
 13
1.0
 23
0.0
 33
0.0
 40
0.0
 40
0.0
 40
0.0
 40
0.0
 40
1.0
 40
1.0
 40
1.0
 40
2.0
 40
2.0
 40
2.0
 40
3.0
 40
3.0
 40
3.0
 40
4.0
 40
4.0
 40
4.0
 40
5.0
 40
5.0
 40
5.0
 40
6.0
 40
6.0
 40
6.0
 40
7.0
 40
7.0
 40
7.0
 40
8.0
 40
8.0
 40
8.0
 40
8.0
 10
83.02335609903584
 20
-87.0630750650398
 30
0.0
 10
83.23281790453902
 20
-87.17125106327664
 30
0.0
 10
83.2517659297079
 20
-87.3445393661847
 30
0.0
 10
83.2517659297079
 20
-87.46098359358615
 30
0.0
 10
83.2517659297079
 20
-87.62186955274731
 30
0.0
 10
83.20525714065703
 20
-87.76346297719108
 30
0.0
 10
83.02335609903584
 20
-87.85854761258398
 30
0.0
 10
82.82870820411921
 20
-87.96224498669
 30
0.0
 10
82.59203014428255
 20
-87.9815375214074
 30
0.0
 10
82.42907712783024
 20
-87.9815375214074
 30
0.0
 10
82.28507213654679
 20
-87.9815375214074
 30
0.0
 10
82.03323565657503
 20
-87.96431204398115
 30
0.0
 10
81.83445364707612
 20
-87.85854761258398
 30
0.0
 10
81.6315375229949
 20
-87.75071612389566
 30
0.0
 10
81.6081108736952
 20
-87.5898301647345
 30
0.0
 10
81.6081108736952
 20
-87.46098359358615
 30
0.0
 10
81.6081108736952
 20
-87.30216469171613
 30
0.0
 10
81.65255260545491
 20
-87.15850420998122
 30
0.0
 10
81.83445364707612
 20
-87.0630750650398
 30
0.0
 10
82.02703448470157
 20
-86.96385631506459
 30
0.0
 10
82.25544431537364
 20
-86.9404296657649
 30
0.0
 10
82.42907712783024
 20
-86.9404296657649
 30
0.0
 10
82.60029837344715
 20
-86.9404296657649
 30
0.0
 10
82.83077526141037
 20
-86.96178925777345
 30
0.0
 10
83.02335609903584
 20
-87.0630750650398
 30
0.0
  0
SPLINE
  5
60
330
59
100
AcDbEntity
  8
_U+30EC_U+30A4_U+30E4_U+30FC 1
370
     0
100
AcDbSpline
210
0.0
220
0.0
230
1.0
 70
    11
 71
     3
 72
    17
 73
    13
 74
     0
 42
0.0000000001
 43
0.0000000001
 12
1.0
 22
0.0
 32
0.0
 13
1.0
 23
0.0
 33
0.0
 40
0.0
 40
0.0
 40
0.0
 40
0.0
 40
1.0
 40
1.0
 40
1.0
 40
2.0
 40
2.0
 40
2.0
 40
3.0
 40
3.0
 40
3.0
 40
4.0
 40
4.0
 40
4.0
 40
4.0
 10
81.80069171132067
 20
-87.46098359358615
 30
0.0
 10
81.80069171132067
 20
-87.71075301626676
 30
0.0
 10
82.08422306975673
 20
-87.75726180531764
 30
0.0
 10
82.42907712783024
 20
-87.75726180531764
 30
0.0
 10
82.7484374793129
 20
-87.75726180531764
 30
0.0
 10
83.05711803479127
 20
-87.7210883027225
 30
0.0
 10
83.05711803479127
 20
-87.46098359358615
 30
0.0
 10
83.05711803479127
 20
-87.21328122819668
 30
0.0
 10
82.77599824319489
 20
-87.16470538185466
 30
0.0
 10
82.42907712783024
 20
-87.16470538185466
 30
0.0
 10
82.10937226679906
 20
-87.16470538185466
 30
0.0
 10
81.80069171132067
 20
-87.20294594174094
 30
0.0
 10
81.80069171132067
 20
-87.46098359358615
 30
0.0
  0
HATCH
  5
61
330
59
100
AcDbEntity
  8
_U+30EC_U+30A4_U+30E4_U+30FC 1
 62
   179
420
  2234388
100
AcDbHatch
 10
0.0
 20
0.0
 30
0.0
210
0.0
220
0.0
230
1.0
  2
SOLID
 70
     1
 71
     0
 91
        2
 92
        1
 93
        1
 72
     4
 94
        3
 73
     0
 74
     1
 95
       29
 96
       25
 40
0.0
 40
0.0
 40
0.0
 40
0.0
 40
1.0
 40
1.0
 40
1.0
 40
2.0
 40
2.0
 40
2.0
 40
3.0
 40
3.0
 40
3.0
 40
4.0
 40
4.0
 40
4.0
 40
5.0
 40
5.0
 40
5.0
 40
6.0
 40
6.0
 40
6.0
 40
7.0
 40
7.0
 40
7.0
 40
8.0
 40
8.0
 40
8.0
 40
8.0
 10
83.02335609903584
 20
-87.0630750650398
 10
83.23281790453902
 20
-87.17125106327664
 10
83.2517659297079
 20
-87.3445393661847
 10
83.2517659297079
 20
-87.46098359358615
 10
83.2517659297079
 20
-87.62186955274731
 10
83.20525714065703
 20
-87.76346297719108
 10
83.02335609903584
 20
-87.85854761258398
 10
82.82870820411921
 20
-87.96224498669
 10
82.59203014428255
 20
-87.9815375214074
 10
82.42907712783024
 20
-87.9815375214074
 10
82.28507213654679
 20
-87.9815375214074
 10
82.03323565657503
 20
-87.96431204398115
 10
81.83445364707612
 20
-87.85854761258398
 10
81.6315375229949
 20
-87.75071612389566
 10
81.6081108736952
 20
-87.5898301647345
 10
81.6081108736952
 20
-87.46098359358615
 10
81.6081108736952
 20
-87.30216469171613
 10
81.65255260545491
 20
-87.15850420998122
 10
81.83445364707612
 20
-87.0630750650398
 10
82.02703448470157
 20
-86.96385631506459
 10
82.25544431537364
 20
-86.9404296657649
 10
82.42907712783024
 20
-86.9404296657649
 10
82.60029837344715
 20
-86.9404296657649
 10
82.83077526141037
 20
-86.96178925777345
 10
83.02335609903584
 20
-87.0630750650398
 97
        0
 97
        0
 92
        1
 93
        1
 72
     4
 94
        3
 73
     0
 74
     1
 95
       17
 96
       13
 40
0.0
 40
0.0
 40
0.0
 40
0.0
 40
1.0
 40
1.0
 40
1.0
 40
2.0
 40
2.0
 40
2.0
 40
3.0
 40
3.0
 40
3.0
 40
4.0
 40
4.0
 40
4.0
 40
4.0
 10
81.80069171132067
 20
-87.46098359358615
 10
81.80069171132067
 20
-87.71075301626676
 10
82.08422306975673
 20
-87.75726180531764
 10
82.42907712783024
 20
-87.75726180531764
 10
82.7484374793129
 20
-87.75726180531764
 10
83.05711803479127
 20
-87.7210883027225
 10
83.05711803479127
 20
-87.46098359358615
 10
83.05711803479127
 20
-87.21328122819668
 10
82.77599824319489
 20
-87.16470538185466
 10
82.42907712783024
 20
-87.16470538185466
 10
82.10937226679906
 20
-87.16470538185466
 10
81.80069171132067
 20
-87.20294594174094
 10
81.80069171132067
 20
-87.46098359358615
 97
        0
 97
        0
 75
     2
 76
     1
 98
        0
  0
ENDBLK
  5
5C
330
59
100
AcDbEntity
  8
0
100
AcDbBlockEnd
  0
BLOCK
  5
64
330
62
100
AcDbEntity
  8
0
100
AcDbBlockBegin
  2
block 3
 70
     0
 10
0.0
 20
0.0
 30
0.0
  3
block 3
  1

  0
SPLINE
  5
66
330
62
100
AcDbEntity
  8
_U+30EC_U+30A4_U+30E4_U+30FC 1
370
     0
100
AcDbSpline
210
0.0
220
0.0
230
1.0
 70
    11
 71
     3
 72
    26
 73
    22
 74
     0
 42
0.0000000001
 43
0.0000000001
 12
1.0
 22
0.0
 32
0.0
 13
1.0
 23
0.0
 33
0.0
 40
0.0
 40
0.0
 40
0.0
 40
0.0
 40
1.0
 40
1.0
 40
1.0
 40
2.0
 40
2.0
 40
2.0
 40
3.0
 40
3.0
 40
3.0
 40
4.0
 40
4.0
 40
4.0
 40
5.0
 40
5.0
 40
5.0
 40
6.0
 40
6.0
 40
6.0
 40
7.0
 40
7.0
 40
7.0
 40
7.0
 10
83.20112302607473
 20
-79.05253904273687
 30
0.0
 10
83.20112302607473
 20
-79.05253904273687
 30
0.0
 10
82.09696992305216
 20
-79.05253904273687
 30
0.0
 10
82.09696992305216
 20
-79.05253904273687
 30
0.0
 10
82.09696992305216
 20
-79.05253904273687
 30
0.0
 10
82.09696992305216
 20
-79.38257919022381
 30
0.0
 10
82.09696992305216
 20
-79.38257919022381
 30
0.0
 10
82.09696992305216
 20
-79.38257919022381
 30
0.0
 10
81.9488308171864
 20
-79.38257919022381
 30
0.0
 10
81.9488308171864
 20
-79.38257919022381
 30
0.0
 10
81.93401690659984
 20
-79.05047198544572
 30
0.0
 10
81.77106389014752
 20
-79.00396319639485
 30
0.0
 10
81.65668672003721
 20
-78.9743353752217
 30
0.0
 10
81.65668672003721
 20
-78.9743353752217
 30
0.0
 10
81.65668672003721
 20
-78.8282633266471
 30
0.0
 10
81.65668672003721
 20
-78.8282633266471
 30
0.0
 10
81.65668672003721
 20
-78.8282633266471
 30
0.0
 10
83.20112302607473
 20
-78.8282633266471
 30
0.0
 10
83.20112302607473
 20
-78.8282633266471
 30
0.0
 10
83.20112302607473
 20
-78.8282633266471
 30
0.0
 10
83.20112302607473
 20
-79.05253904273687
 30
0.0
 10
83.20112302607473
 20
-79.05253904273687
 30
0.0
  0
HATCH
  5
67
330
62
100
AcDbEntity
  8
_U+30EC_U+30A4_U+30E4_U+30FC 1
 62
   179
420
  2234388
100
AcDbHatch
 10
0.0
 20
0.0
 30
0.0
210
0.0
220
0.0
230
1.0
  2
SOLID
 70
     1
 71
     0
 91
        1
 92
        1
 93
        1
 72
     4
 94
        3
 73
     0
 74
     1
 95
       26
 96
       22
 40
0.0
 40
0.0
 40
0.0
 40
0.0
 40
1.0
 40
1.0
 40
1.0
 40
2.0
 40
2.0
 40
2.0
 40
3.0
 40
3.0
 40
3.0
 40
4.0
 40
4.0
 40
4.0
 40
5.0
 40
5.0
 40
5.0
 40
6.0
 40
6.0
 40
6.0
 40
7.0
 40
7.0
 40
7.0
 40
7.0
 10
83.20112302607473
 20
-79.05253904273687
 10
83.20112302607473
 20
-79.05253904273687
 10
82.09696992305216
 20
-79.05253904273687
 10
82.09696992305216
 20
-79.05253904273687
 10
82.09696992305216
 20
-79.05253904273687
 10
82.09696992305216
 20
-79.38257919022381
 10
82.09696992305216
 20
-79.38257919022381
 10
82.09696992305216
 20
-79.38257919022381
 10
81.9488308171864
 20
-79.38257919022381
 10
81.9488308171864
 20
-79.38257919022381
 10
81.93401690659984
 20
-79.05047198544572
 10
81.77106389014752
 20
-79.00396319639485
 10
81.65668672003721
 20
-78.9743353752217
 10
81.65668672003721
 20
-78.9743353752217
 10
81.65668672003721
 20
-78.8282633266471
 10
81.65668672003721
 20
-78.8282633266471
 10
81.65668672003721
 20
-78.8282633266471
 10
83.20112302607473
 20
-78.8282633266471
 10
83.20112302607473
 20
-78.8282633266471
 10
83.20112302607473
 20
-78.8282633266471
 10
83.20112302607473
 20
-79.05253904273687
 10
83.20112302607473
 20
-79.05253904273687
 97
        0
 97
        0
 75
     2
 76
     1
 98
        0
  0
ENDBLK
  5
65
330
62
100
AcDbEntity
  8
0
100
AcDbBlockEnd
  0
BLOCK
  5
6A
330
68
100
AcDbEntity
  8
0
100
AcDbBlockBegin
  2
block 4
 70
     0
 10
0.0
 20
0.0
 30
0.0
  3
block 4
  1

  0
SPLINE
  5
6C
330
68
100
AcDbEntity
  8
_U+30EC_U+30A4_U+30E4_U+30FC 1
370
     0
100
AcDbSpline
210
0.0
220
0.0
230
1.0
 70
    11
 71
     3
 72
    62
 73
    58
 74
     0
 42
0.0000000001
 43
0.0000000001
 12
1.0
 22
0.0
 32
0.0
 13
1.0
 23
0.0
 33
0.0
 40
0.0
 40
0.0
 40
0.0
 40
0.0
 40
1.0
 40
1.0
 40
1.0
 40
2.0
 40
2.0
 40
2.0
 40
3.0
 40
3.0
 40
3.0
 40
4.0
 40
4.0
 40
4.0
 40
5.0
 40
5.0
 40
5.0
 40
6.0
 40
6.0
 40
6.0
 40
7.0
 40
7.0
 40
7.0
 40
8.0
 40
8.0
 40
8.0
 40
9.0
 40
9.0
 40
9.0
 40
10.0
 40
10.0
 40
10.0
 40
11.0
 40
11.0
 40
11.0
 40
12.0
 40
12.0
 40
12.0
 40
13.0
 40
13.0
 40
13.0
 40
14.0
 40
14.0
 40
14.0
 40
15.0
 40
15.0
 40
15.0
 40
16.0
 40
16.0
 40
16.0
 40
17.0
 40
17.0
 40
17.0
 40
18.0
 40
18.0
 40
18.0
 40
19.0
 40
19.0
 40
19.0
 40
19.0
 10
83.2517659297079
 20
-94.5358316820952
 30
0.0
 10
83.2517659297079
 20
-94.63126082703663
 30
0.0
 10
83.23075084724788
 20
-94.84899086170442
 30
0.0
 10
83.04471569104437
 20
-94.97404782781899
 30
0.0
 10
82.93240557822523
 20
-95.04811738075186
 30
0.0
 10
82.83318682825004
 20
-95.05225149533416
 30
0.0
 10
82.7484374793129
 20
-95.05638560991646
 30
0.0
 10
82.7484374793129
 20
-95.05638560991646
 30
0.0
 10
82.7484374793129
 20
-94.836244008409
 30
0.0
 10
82.7484374793129
 20
-94.836244008409
 30
0.0
 10
82.82250703224577
 20
-94.83417695111785
 30
0.0
 10
83.05711803479127
 20
-94.8238416646621
 30
0.0
 10
83.05711803479127
 20
-94.54031030622603
 30
0.0
 10
83.05711803479127
 20
-94.40285099636456
 30
0.0
 10
82.98752710598923
 20
-94.250233266368
 30
0.0
 10
82.75911727531717
 20
-94.250233266368
 30
0.0
 10
82.64267304791572
 20
-94.250233266368
 30
0.0
 10
82.5940972015737
 20
-94.28847382625428
 30
0.0
 10
82.56240232310941
 20
-94.32016870471857
 30
0.0
 10
82.48833277017653
 20
-94.39423825765145
 30
0.0
 10
82.4755859168811
 20
-94.51068248505288
 30
0.0
 10
82.4755859168811
 20
-94.56545950326836
 30
0.0
 10
82.4755859168811
 20
-94.58475203798577
 30
0.0
 10
82.47765297417226
 20
-94.62058103103236
 30
0.0
 10
82.48178708875456
 20
-94.64814179491435
 30
0.0
 10
82.48178708875456
 20
-94.64814179491435
 30
0.0
 10
82.28713919383794
 20
-94.64814179491435
 30
0.0
 10
82.28713919383794
 20
-94.64814179491435
 30
0.0
 10
82.29368487525991
 20
-94.60990123502809
 30
0.0
 10
82.29575193255107
 20
-94.56787107010804
 30
0.0
 10
82.29575193255107
 20
-94.56132538868606
 30
0.0
 10
82.29575193255107
 20
-94.49586857446631
 30
0.0
 10
82.27439234054252
 20
-94.2970865649674
 30
0.0
 10
82.03771428070586
 20
-94.2970865649674
 30
0.0
 10
81.85994735366697
 20
-94.2970865649674
 30
0.0
 10
81.80482582590297
 20
-94.42800019340689
 30
0.0
 10
81.80482582590297
 20
-94.53824324893489
 30
0.0
 10
81.80482582590297
 20
-94.80248207265355
 30
0.0
 10
82.03771428070586
 20
-94.81109481136667
 30
0.0
 10
82.10937226679906
 20
-94.81522892594897
 30
0.0
 10
82.10937226679906
 20
-94.81522892594897
 30
0.0
 10
82.10937226679906
 20
-95.01848955957871
 30
0.0
 10
82.10937226679906
 20
-95.01848955957871
 30
0.0
 10
81.98465981023301
 20
-95.00987682086559
 30
0.0
 10
81.6081108736952
 20
-94.98231605698359
 30
0.0
 10
81.6081108736952
 20
-94.52549639563946
 30
0.0
 10
81.6081108736952
 20
-94.3012206795497
 30
0.0
 10
81.73523489710092
 20
-94.06006399558221
 30
0.0
 10
82.03116859928387
 20
-94.06006399558221
 30
0.0
 10
82.2175482650359
 20
-94.06006399558221
 30
0.0
 10
82.29988604713337
 20
-94.1551486309751
 30
0.0
 10
82.36120874677081
 20
-94.25471189049883
 30
0.0
 10
82.3887695106528
 20
-94.19338919086138
 30
0.0
 10
82.46904023545913
 20
-94.0114881492402
 30
0.0
 10
82.74637042202174
 20
-94.0114881492402
 30
0.0
 10
83.08467879867328
 20
-94.0114881492402
 30
0.0
 10
83.2517659297079
 20
-94.25884600508112
 30
0.0
 10
83.2517659297079
 20
-94.5358316820952
 30
0.0
  0
HATCH
  5
6D
330
68
100
AcDbEntity
  8
_U+30EC_U+30A4_U+30E4_U+30FC 1
 62
   179
420
  2234388
100
AcDbHatch
 10
0.0
 20
0.0
 30
0.0
210
0.0
220
0.0
230
1.0
  2
SOLID
 70
     1
 71
     0
 91
        1
 92
        1
 93
        1
 72
     4
 94
        3
 73
     0
 74
     1
 95
       62
 96
       58
 40
0.0
 40
0.0
 40
0.0
 40
0.0
 40
1.0
 40
1.0
 40
1.0
 40
2.0
 40
2.0
 40
2.0
 40
3.0
 40
3.0
 40
3.0
 40
4.0
 40
4.0
 40
4.0
 40
5.0
 40
5.0
 40
5.0
 40
6.0
 40
6.0
 40
6.0
 40
7.0
 40
7.0
 40
7.0
 40
8.0
 40
8.0
 40
8.0
 40
9.0
 40
9.0
 40
9.0
 40
10.0
 40
10.0
 40
10.0
 40
11.0
 40
11.0
 40
11.0
 40
12.0
 40
12.0
 40
12.0
 40
13.0
 40
13.0
 40
13.0
 40
14.0
 40
14.0
 40
14.0
 40
15.0
 40
15.0
 40
15.0
 40
16.0
 40
16.0
 40
16.0
 40
17.0
 40
17.0
 40
17.0
 40
18.0
 40
18.0
 40
18.0
 40
19.0
 40
19.0
 40
19.0
 40
19.0
 10
83.2517659297079
 20
-94.5358316820952
 10
83.2517659297079
 20
-94.63126082703663
 10
83.23075084724788
 20
-94.84899086170442
 10
83.04471569104437
 20
-94.97404782781899
 10
82.93240557822523
 20
-95.04811738075186
 10
82.83318682825004
 20
-95.05225149533416
 10
82.7484374793129
 20
-95.05638560991646
 10
82.7484374793129
 20
-95.05638560991646
 10
82.7484374793129
 20
-94.836244008409
 10
82.7484374793129
 20
-94.836244008409
 10
82.82250703224577
 20
-94.83417695111785
 10
83.05711803479127
 20
-94.8238416646621
 10
83.05711803479127
 20
-94.54031030622603
 10
83.05711803479127
 20
-94.40285099636456
 10
82.98752710598923
 20
-94.250233266368
 10
82.75911727531717
 20
-94.250233266368
 10
82.64267304791572
 20
-94.250233266368
 10
82.5940972015737
 20
-94.28847382625428
 10
82.56240232310941
 20
-94.32016870471857
 10
82.48833277017653
 20
-94.39423825765145
 10
82.4755859168811
 20
-94.51068248505288
 10
82.4755859168811
 20
-94.56545950326836
 10
82.4755859168811
 20
-94.58475203798577
 10
82.47765297417226
 20
-94.62058103103236
 10
82.48178708875456
 20
-94.64814179491435
 10
82.48178708875456
 20
-94.64814179491435
 10
82.28713919383794
 20
-94.64814179491435
 10
82.28713919383794
 20
-94.64814179491435
 10
82.29368487525991
 20
-94.60990123502809
 10
82.29575193255107
 20
-94.56787107010804
 10
82.29575193255107
 20
-94.56132538868606
 10
82.29575193255107
 20
-94.49586857446631
 10
82.27439234054252
 20
-94.2970865649674
 10
82.03771428070586
 20
-94.2970865649674
 10
81.85994735366697
 20
-94.2970865649674
 10
81.80482582590297
 20
-94.42800019340689
 10
81.80482582590297
 20
-94.53824324893489
 10
81.80482582590297
 20
-94.80248207265355
 10
82.03771428070586
 20
-94.81109481136667
 10
82.10937226679906
 20
-94.81522892594897
 10
82.10937226679906
 20
-94.81522892594897
 10
82.10937226679906
 20
-95.01848955957871
 10
82.10937226679906
 20
-95.01848955957871
 10
81.98465981023301
 20
-95.00987682086559
 10
81.6081108736952
 20
-94.98231605698359
 10
81.6081108736952
 20
-94.52549639563946
 10
81.6081108736952
 20
-94.3012206795497
 10
81.73523489710092
 20
-94.06006399558221
 10
82.03116859928387
 20
-94.06006399558221
 10
82.2175482650359
 20
-94.06006399558221
 10
82.29988604713337
 20
-94.1551486309751
 10
82.36120874677081
 20
-94.25471189049883
 10
82.3887695106528
 20
-94.19338919086138
 10
82.46904023545913
 20
-94.0114881492402
 10
82.74637042202174
 20
-94.0114881492402
 10
83.08467879867328
 20
-94.0114881492402
 10
83.2517659297079
 20
-94.25884600508112
 10
83.2517659297079
 20
-94.5358316820952
 97
        0
 97
        0
 75
     2
 76
     1
 98
        0
  0
ENDBLK
  5
6B
330
68
100
AcDbEntity
  8
0
100
AcDbBlockEnd
  0
BLOCK
  5
83
330
81
100
AcDbEntity
  8
0
100
AcDbBlockBegin
  2
block 5
 70
     0
 10
0.0
 20
0.0
 30
0.0
  3
block 5
  1

  0
SPLINE
  5
85
330
81
100
AcDbEntity
  8
_U+30EC_U+30A4_U+30E4_U+30FC 1
370
     0
100
AcDbSpline
210
0.0
220
0.0
230
1.0
 70
    11
 71
     3
 72
    44
 73
    40
 74
     0
 42
0.0000000001
 43
0.0000000001
 12
1.0
 22
0.0
 32
0.0
 13
1.0
 23
0.0
 33
0.0
 40
0.0
 40
0.0
 40
0.0
 40
0.0
 40
1.0
 40
1.0
 40
1.0
 40
2.0
 40
2.0
 40
2.0
 40
3.0
 40
3.0
 40
3.0
 40
4.0
 40
4.0
 40
4.0
 40
5.0
 40
5.0
 40
5.0
 40
6.0
 40
6.0
 40
6.0
 40
7.0
 40
7.0
 40
7.0
 40
8.0
 40
8.0
 40
8.0
 40
9.0
 40
9.0
 40
9.0
 40
10.0
 40
10.0
 40
10.0
 40
11.0
 40
11.0
 40
11.0
 40
12.0
 40
12.0
 40
12.0
 40
13.0
 40
13.0
 40
13.0
 40
13.0
 10
65.05270451932711
 20
-78.11685110894301
 30
0.0
 10
64.83497448465931
 20
-78.27567001081303
 30
0.0
 10
64.74195690655758
 20
-78.3497395637459
 30
0.0
 10
64.69303655066702
 20
-78.49340004548083
 30
0.0
 10
64.69303655066702
 20
-78.49340004548083
 30
0.0
 10
65.47162813033349
 20
-78.49340004548083
 30
0.0
 10
65.47162813033349
 20
-78.49340004548083
 30
0.0
 10
65.47162813033349
 20
-78.49340004548083
 30
0.0
 10
65.47162813033349
 20
-78.69872773640171
 30
0.0
 10
65.47162813033349
 20
-78.69872773640171
 30
0.0
 10
65.47162813033349
 20
-78.69872773640171
 30
0.0
 10
64.44361163753493
 20
-78.69872773640171
 30
0.0
 10
64.44361163753493
 20
-78.69872773640171
 30
0.0
 10
64.47530651599924
 20
-78.34112682503277
 30
0.0
 10
64.54076333021898
 20
-78.2629231575176
 30
0.0
 10
64.9259250054699
 20
-77.96457788849497
 30
0.0
 10
65.18189560002398
 20
-77.76579587899606
 30
0.0
 10
65.24735241424372
 20
-77.69792749793663
 30
0.0
 10
65.24735241424372
 20
-77.56046818807516
 30
0.0
 10
65.24735241424372
 20
-77.44195690338258
 30
0.0
 10
65.175349918602
 20
-77.31104327494307
 30
0.0
 10
64.97863496639424
 20
-77.31104327494307
 30
0.0
 10
64.71853025725787
 20
-77.31104327494307
 30
0.0
 10
64.70991751854474
 20
-77.5415201629063
 30
0.0
 10
64.70578340396244
 20
-77.65796439030774
 30
0.0
 10
64.70578340396244
 20
-77.65796439030774
 30
0.0
 10
64.48150768787268
 20
-77.65796439030774
 30
0.0
 10
64.48150768787268
 20
-77.65796439030774
 30
0.0
 10
64.4901204265858
 20
-77.53084036690201
 30
0.0
 10
64.50080022259009
 20
-77.4188747636314
 30
0.0
 10
64.5810709473964
 20
-77.3003634789388
 30
0.0
 10
64.69096949337587
 20
-77.13947751977763
 30
0.0
 10
64.87734915912789
 20
-77.10571558402219
 30
0.0
 10
64.9934488769808
 20
-77.10571558402219
 30
0.0
 10
65.27077906354342
 20
-77.10571558402219
 30
0.0
 10
65.47817381175545
 20
-77.28968368293452
 30
0.0
 10
65.47817381175545
 20
-77.56253524536632
 30
0.0
 10
65.47817381175545
 20
-77.79128958558691
 30
0.0
 10
65.36172958435401
 20
-77.8905083355621
 30
0.0
 10
65.05270451932711
 20
-78.11685110894301
 30
0.0
  0
HATCH
  5
86
330
81
100
AcDbEntity
  8
_U+30EC_U+30A4_U+30E4_U+30FC 1
 62
   179
420
  2234388
100
AcDbHatch
 10
0.0
 20
0.0
 30
0.0
210
0.0
220
0.0
230
1.0
  2
SOLID
 70
     1
 71
     0
 91
        1
 92
        1
 93
        1
 72
     4
 94
        3
 73
     0
 74
     1
 95
       44
 96
       40
 40
0.0
 40
0.0
 40
0.0
 40
0.0
 40
1.0
 40
1.0
 40
1.0
 40
2.0
 40
2.0
 40
2.0
 40
3.0
 40
3.0
 40
3.0
 40
4.0
 40
4.0
 40
4.0
 40
5.0
 40
5.0
 40
5.0
 40
6.0
 40
6.0
 40
6.0
 40
7.0
 40
7.0
 40
7.0
 40
8.0
 40
8.0
 40
8.0
 40
9.0
 40
9.0
 40
9.0
 40
10.0
 40
10.0
 40
10.0
 40
11.0
 40
11.0
 40
11.0
 40
12.0
 40
12.0
 40
12.0
 40
13.0
 40
13.0
 40
13.0
 40
13.0
 10
65.05270451932711
 20
-78.11685110894301
 10
64.83497448465931
 20
-78.27567001081303
 10
64.74195690655758
 20
-78.3497395637459
 10
64.69303655066702
 20
-78.49340004548083
 10
64.69303655066702
 20
-78.49340004548083
 10
65.47162813033349
 20
-78.49340004548083
 10
65.47162813033349
 20
-78.49340004548083
 10
65.47162813033349
 20
-78.49340004548083
 10
65.47162813033349
 20
-78.69872773640171
 10
65.47162813033349
 20
-78.69872773640171
 10
65.47162813033349
 20
-78.69872773640171
 10
64.44361163753493
 20
-78.69872773640171
 10
64.44361163753493
 20
-78.69872773640171
 10
64.47530651599924
 20
-78.34112682503277
 10
64.54076333021898
 20
-78.2629231575176
 10
64.9259250054699
 20
-77.96457788849497
 10
65.18189560002398
 20
-77.76579587899606
 10
65.24735241424372
 20
-77.69792749793663
 10
65.24735241424372
 20
-77.56046818807516
 10
65.24735241424372
 20
-77.44195690338258
 10
65.175349918602
 20
-77.31104327494307
 10
64.97863496639424
 20
-77.31104327494307
 10
64.71853025725787
 20
-77.31104327494307
 10
64.70991751854474
 20
-77.5415201629063
 10
64.70578340396244
 20
-77.65796439030774
 10
64.70578340396244
 20
-77.65796439030774
 10
64.48150768787268
 20
-77.65796439030774
 10
64.48150768787268
 20
-77.65796439030774
 10
64.4901204265858
 20
-77.53084036690201
 10
64.50080022259009
 20
-77.4188747636314
 10
64.5810709473964
 20
-77.3003634789388
 10
64.69096949337587
 20
-77.13947751977763
 10
64.87734915912789
 20
-77.10571558402219
 10
64.9934488769808
 20
-77.10571558402219
 10
65.27077906354342
 20
-77.10571558402219
 10
65.47817381175545
 20
-77.28968368293452
 10
65.47817381175545
 20
-77.56253524536632
 10
65.47817381175545
 20
-77.79128958558691
 10
65.36172958435401
 20
-77.8905083355621
 10
65.05270451932711
 20
-78.11685110894301
 97
        0
 97
        0
 75
     2
 76
     1
 98
        0
  0
SPLINE
  5
87
330
81
100
AcDbEntity
  8
_U+30EC_U+30A4_U+30E4_U+30FC 1
370
     0
100
AcDbSpline
210
0.0
220
0.0
230
1.0
 70
    11
 71
     3
 72
    53
 73
    49
 74
     0
 42
0.0000000001
 43
0.0000000001
 12
1.0
 22
0.0
 32
0.0
 13
1.0
 23
0.0
 33
0.0
 40
0.0
 40
0.0
 40
0.0
 40
0.0
 40
1.0
 40
1.0
 40
1.0
 40
2.0
 40
2.0
 40
2.0
 40
3.0
 40
3.0
 40
3.0
 40
4.0
 40
4.0
 40
4.0
 40
5.0
 40
5.0
 40
5.0
 40
6.0
 40
6.0
 40
6.0
 40
7.0
 40
7.0
 40
7.0
 40
8.0
 40
8.0
 40
8.0
 40
9.0
 40
9.0
 40
9.0
 40
10.0
 40
10.0
 40
10.0
 40
11.0
 40
11.0
 40
11.0
 40
12.0
 40
12.0
 40
12.0
 40
13.0
 40
13.0
 40
13.0
 40
14.0
 40
14.0
 40
14.0
 40
15.0
 40
15.0
 40
15.0
 40
16.0
 40
16.0
 40
16.0
 40
16.0
 10
66.11758353381784
 20
-78.74937064003488
 30
0.0
 10
66.03937986630265
 20
-78.74937064003488
 30
0.0
 10
65.93774954948779
 20
-78.73248967215716
 30
0.0
 10
65.83611923267291
 20
-78.66909991522856
 30
0.0
 10
65.66283092976485
 20
-78.5592013692491
 30
0.0
 10
65.6414713377563
 20
-78.42794323126107
 30
0.0
 10
65.62252331258743
 20
-78.32011174257275
 30
0.0
 10
65.62252331258743
 20
-78.32011174257275
 30
0.0
 10
65.84473197138604
 20
-78.32011174257275
 30
0.0
 10
65.84473197138604
 20
-78.32011174257275
 30
0.0
 10
65.89950898960151
 20
-78.51889375207166
 30
0.0
 10
66.02663301300723
 20
-78.54852157324481
 30
0.0
 10
66.11965059110898
 20
-78.54852157324481
 30
0.0
 10
66.25917695826159
 20
-78.54852157324481
 30
0.0
 10
66.41145017870964
 20
-78.44895831372109
 30
0.0
 10
66.41145017870964
 20
-78.21641436846673
 30
0.0
 10
66.41145017870964
 20
-77.96044377391267
 30
0.0
 10
66.2316161943796
 20
-77.8905083355621
 30
0.0
 10
66.11103785239585
 20
-77.8905083355621
 30
0.0
 10
66.07934297393156
 20
-77.8905083355621
 30
0.0
 10
65.93774954948779
 20
-77.8905083355621
 30
0.0
 10
65.84886608596834
 20
-78.01969941625897
 30
0.0
 10
65.84886608596834
 20
-78.01969941625897
 30
0.0
 10
65.6731662162206
 20
-78.00075139109009
 30
0.0
 10
65.6731662162206
 20
-78.00075139109009
 30
0.0
 10
65.6731662162206
 20
-78.00075139109009
 30
0.0
 10
65.79374455820434
 20
-77.15429143036421
 30
0.0
 10
65.79374455820434
 20
-77.15429143036421
 30
0.0
 10
65.79374455820434
 20
-77.15429143036421
 30
0.0
 10
66.5723361378708
 20
-77.15429143036421
 30
0.0
 10
66.5723361378708
 20
-77.15429143036421
 30
0.0
 10
66.5723361378708
 20
-77.15429143036421
 30
0.0
 10
66.5723361378708
 20
-77.34893932528082
 30
0.0
 10
66.5723361378708
 20
-77.34893932528082
 30
0.0
 10
66.5723361378708
 20
-77.34893932528082
 30
0.0
 10
65.95669757465666
 20
-77.34893932528082
 30
0.0
 10
65.95669757465666
 20
-77.34893932528082
 30
0.0
 10
65.95669757465666
 20
-77.34893932528082
 30
0.0
 10
65.89124076043692
 20
-77.7719970508695
 30
0.0
 10
65.89124076043692
 20
-77.7719970508695
 30
0.0
 10
65.95256346007436
 20
-77.73823511511405
 30
0.0
 10
66.03490124217183
 20
-77.69792749793663
 30
0.0
 10
66.15341252686443
 20
-77.69792749793663
 30
0.0
 10
66.40731606412734
 20
-77.69792749793663
 30
0.0
 10
66.64433863351253
 20
-77.88430716368865
 30
0.0
 10
66.64433863351253
 20
-78.19746634329786
 30
0.0
 10
66.64433863351253
 20
-78.51475963748936
 30
0.0
 10
66.42006291742277
 20
-78.74937064003488
 30
0.0
 10
66.11758353381784
 20
-78.74937064003488
 30
0.0
  0
HATCH
  5
88
330
81
100
AcDbEntity
  8
_U+30EC_U+30A4_U+30E4_U+30FC 1
 62
   179
420
  2234388
100
AcDbHatch
 10
0.0
 20
0.0
 30
0.0
210
0.0
220
0.0
230
1.0
  2
SOLID
 70
     1
 71
     0
 91
        1
 92
        1
 93
        1
 72
     4
 94
        3
 73
     0
 74
     1
 95
       53
 96
       49
 40
0.0
 40
0.0
 40
0.0
 40
0.0
 40
1.0
 40
1.0
 40
1.0
 40
2.0
 40
2.0
 40
2.0
 40
3.0
 40
3.0
 40
3.0
 40
4.0
 40
4.0
 40
4.0
 40
5.0
 40
5.0
 40
5.0
 40
6.0
 40
6.0
 40
6.0
 40
7.0
 40
7.0
 40
7.0
 40
8.0
 40
8.0
 40
8.0
 40
9.0
 40
9.0
 40
9.0
 40
10.0
 40
10.0
 40
10.0
 40
11.0
 40
11.0
 40
11.0
 40
12.0
 40
12.0
 40
12.0
 40
13.0
 40
13.0
 40
13.0
 40
14.0
 40
14.0
 40
14.0
 40
15.0
 40
15.0
 40
15.0
 40
16.0
 40
16.0
 40
16.0
 40
16.0
 10
66.11758353381784
 20
-78.74937064003488
 10
66.03937986630265
 20
-78.74937064003488
 10
65.93774954948779
 20
-78.73248967215716
 10
65.83611923267291
 20
-78.66909991522856
 10
65.66283092976485
 20
-78.5592013692491
 10
65.6414713377563
 20
-78.42794323126107
 10
65.62252331258743
 20
-78.32011174257275
 10
65.62252331258743
 20
-78.32011174257275
 10
65.84473197138604
 20
-78.32011174257275
 10
65.84473197138604
 20
-78.32011174257275
 10
65.89950898960151
 20
-78.51889375207166
 10
66.02663301300723
 20
-78.54852157324481
 10
66.11965059110898
 20
-78.54852157324481
 10
66.25917695826159
 20
-78.54852157324481
 10
66.41145017870964
 20
-78.44895831372109
 10
66.41145017870964
 20
-78.21641436846673
 10
66.41145017870964
 20
-77.96044377391267
 10
66.2316161943796
 20
-77.8905083355621
 10
66.11103785239585
 20
-77.8905083355621
 10
66.07934297393156
 20
-77.8905083355621
 10
65.93774954948779
 20
-77.8905083355621
 10
65.84886608596834
 20
-78.01969941625897
 10
65.84886608596834
 20
-78.01969941625897
 10
65.6731662162206
 20
-78.00075139109009
 10
65.6731662162206
 20
-78.00075139109009
 10
65.6731662162206
 20
-78.00075139109009
 10
65.79374455820434
 20
-77.15429143036421
 10
65.79374455820434
 20
-77.15429143036421
 10
65.79374455820434
 20
-77.15429143036421
 10
66.5723361378708
 20
-77.15429143036421
 10
66.5723361378708
 20
-77.15429143036421
 10
66.5723361378708
 20
-77.15429143036421
 10
66.5723361378708
 20
-77.34893932528082
 10
66.5723361378708
 20
-77.34893932528082
 10
66.5723361378708
 20
-77.34893932528082
 10
65.95669757465666
 20
-77.34893932528082
 10
65.95669757465666
 20
-77.34893932528082
 10
65.95669757465666
 20
-77.34893932528082
 10
65.89124076043692
 20
-77.7719970508695
 10
65.89124076043692
 20
-77.7719970508695
 10
65.95256346007436
 20
-77.73823511511405
 10
66.03490124217183
 20
-77.69792749793663
 10
66.15341252686443
 20
-77.69792749793663
 10
66.40731606412734
 20
-77.69792749793663
 10
66.64433863351253
 20
-77.88430716368865
 10
66.64433863351253
 20
-78.19746634329786
 10
66.64433863351253
 20
-78.51475963748936
 10
66.42006291742277
 20
-78.74937064003488
 10
66.11758353381784
 20
-78.74937064003488
 97
        0
 97
        0
 75
     2
 76
     1
 98
        0
  0
ENDBLK
  5
84
330
81
100
AcDbEntity
  8
0
100
AcDbBlockEnd
  0
BLOCK
  5
8B
330
89
100
AcDbEntity
  8
0
100
AcDbBlockBegin
  2
block 6
 70
     0
 10
0.0
 20
0.0
 30
0.0
  3
block 6
  1

  0
SPLINE
  5
8D
330
89
100
AcDbEntity
  8
_U+30EC_U+30A4_U+30E4_U+30FC 1
370
     0
100
AcDbSpline
210
0.0
220
0.0
230
1.0
 70
    11
 71
     3
 72
    26
 73
    22
 74
     0
 42
0.0000000001
 43
0.0000000001
 12
1.0
 22
0.0
 32
0.0
 13
1.0
 23
0.0
 33
0.0
 40
0.0
 40
0.0
 40
0.0
 40
0.0
 40
1.0
 40
1.0
 40
1.0
 40
2.0
 40
2.0
 40
2.0
 40
3.0
 40
3.0
 40
3.0
 40
4.0
 40
4.0
 40
4.0
 40
5.0
 40
5.0
 40
5.0
 40
6.0
 40
6.0
 40
6.0
 40
7.0
 40
7.0
 40
7.0
 40
7.0
 10
47.60674098202193
 20
-78.69872773640171
 30
0.0
 10
47.60674098202193
 20
-78.69872773640171
 30
0.0
 10
47.60674098202193
 20
-77.59457463337914
 30
0.0
 10
47.60674098202193
 20
-77.59457463337914
 30
0.0
 10
47.60674098202193
 20
-77.59457463337914
 30
0.0
 10
47.27670083453499
 20
-77.59457463337914
 30
0.0
 10
47.27670083453499
 20
-77.59457463337914
 30
0.0
 10
47.27670083453499
 20
-77.59457463337914
 30
0.0
 10
47.27670083453499
 20
-77.4464355275134
 30
0.0
 10
47.27670083453499
 20
-77.4464355275134
 30
0.0
 10
47.60880803931308
 20
-77.43162161692682
 30
0.0
 10
47.65531682836395
 20
-77.2686686004745
 30
0.0
 10
47.6849446495371
 20
-77.15429143036421
 30
0.0
 10
47.6849446495371
 20
-77.15429143036421
 30
0.0
 10
47.83101669811169
 20
-77.15429143036421
 30
0.0
 10
47.83101669811169
 20
-77.15429143036421
 30
0.0
 10
47.83101669811169
 20
-77.15429143036421
 30
0.0
 10
47.83101669811169
 20
-78.69872773640171
 30
0.0
 10
47.83101669811169
 20
-78.69872773640171
 30
0.0
 10
47.83101669811169
 20
-78.69872773640171
 30
0.0
 10
47.60674098202193
 20
-78.69872773640171
 30
0.0
 10
47.60674098202193
 20
-78.69872773640171
 30
0.0
  0
HATCH
  5
8E
330
89
100
AcDbEntity
  8
_U+30EC_U+30A4_U+30E4_U+30FC 1
 62
   179
420
  2234388
100
AcDbHatch
 10
0.0
 20
0.0
 30
0.0
210
0.0
220
0.0
230
1.0
  2
SOLID
 70
     1
 71
     0
 91
        1
 92
        1
 93
        1
 72
     4
 94
        3
 73
     0
 74
     1
 95
       26
 96
       22
 40
0.0
 40
0.0
 40
0.0
 40
0.0
 40
1.0
 40
1.0
 40
1.0
 40
2.0
 40
2.0
 40
2.0
 40
3.0
 40
3.0
 40
3.0
 40
4.0
 40
4.0
 40
4.0
 40
5.0
 40
5.0
 40
5.0
 40
6.0
 40
6.0
 40
6.0
 40
7.0
 40
7.0
 40
7.0
 40
7.0
 10
47.60674098202193
 20
-78.69872773640171
 10
47.60674098202193
 20
-78.69872773640171
 10
47.60674098202193
 20
-77.59457463337914
 10
47.60674098202193
 20
-77.59457463337914
 10
47.60674098202193
 20
-77.59457463337914
 10
47.27670083453499
 20
-77.59457463337914
 10
47.27670083453499
 20
-77.59457463337914
 10
47.27670083453499
 20
-77.59457463337914
 10
47.27670083453499
 20
-77.4464355275134
 10
47.27670083453499
 20
-77.4464355275134
 10
47.60880803931308
 20
-77.43162161692682
 10
47.65531682836395
 20
-77.2686686004745
 10
47.6849446495371
 20
-77.15429143036421
 10
47.6849446495371
 20
-77.15429143036421
 10
47.83101669811169
 20
-77.15429143036421
 10
47.83101669811169
 20
-77.15429143036421
 10
47.83101669811169
 20
-77.15429143036421
 10
47.83101669811169
 20
-78.69872773640171
 10
47.83101669811169
 20
-78.69872773640171
 10
47.83101669811169
 20
-78.69872773640171
 10
47.60674098202193
 20
-78.69872773640171
 10
47.60674098202193
 20
-78.69872773640171
 97
        0
 97
        0
 75
     2
 76
     1
 98
        0
  0
SPLINE
  5
8F
330
89
100
AcDbEntity
  8
_U+30EC_U+30A4_U+30E4_U+30FC 1
370
     0
100
AcDbSpline
210
0.0
220
0.0
230
1.0
 70
    11
 71
     3
 72
    29
 73
    25
 74
     0
 42
0.0000000001
 43
0.0000000001
 12
1.0
 22
0.0
 32
0.0
 13
1.0
 23
0.0
 33
0.0
 40
0.0
 40
0.0
 40
0.0
 40
0.0
 40
1.0
 40
1.0
 40
1.0
 40
2.0
 40
2.0
 40
2.0
 40
3.0
 40
3.0
 40
3.0
 40
4.0
 40
4.0
 40
4.0
 40
5.0
 40
5.0
 40
5.0
 40
6.0
 40
6.0
 40
6.0
 40
7.0
 40
7.0
 40
7.0
 40
8.0
 40
8.0
 40
8.0
 40
8.0
 10
49.23006997467165
 20
-78.52096080936282
 30
0.0
 10
49.12189397643481
 20
-78.73042261486601
 30
0.0
 10
48.94860567352674
 20
-78.74937064003488
 30
0.0
 10
48.8321614461253
 20
-78.74937064003488
 30
0.0
 10
48.67127548696413
 20
-78.74937064003488
 30
0.0
 10
48.52968206252036
 20
-78.70286185098401
 30
0.0
 10
48.43459742712746
 20
-78.52096080936282
 30
0.0
 10
48.33090005302144
 20
-78.3263129144462
 30
0.0
 10
48.31160751830404
 20
-78.08963485460954
 30
0.0
 10
48.31160751830404
 20
-77.92668183815722
 30
0.0
 10
48.31160751830404
 20
-77.78267684687378
 30
0.0
 10
48.32883299573029
 20
-77.53084036690201
 30
0.0
 10
48.43459742712746
 20
-77.3320583574031
 30
0.0
 10
48.54242891581578
 20
-77.12914223332189
 30
0.0
 10
48.70331487497695
 20
-77.10571558402219
 30
0.0
 10
48.8321614461253
 20
-77.10571558402219
 30
0.0
 10
48.99098034799531
 20
-77.10571558402219
 30
0.0
 10
49.13464082973023
 20
-77.15015731578191
 30
0.0
 10
49.23006997467165
 20
-77.3320583574031
 30
0.0
 10
49.32928872464684
 20
-77.52463919502857
 30
0.0
 10
49.35271537394654
 20
-77.75304902570063
 30
0.0
 10
49.35271537394654
 20
-77.92668183815722
 30
0.0
 10
49.35271537394654
 20
-78.09790308377414
 30
0.0
 10
49.33135578193799
 20
-78.32837997173735
 30
0.0
 10
49.23006997467165
 20
-78.52096080936282
 30
0.0
  0
SPLINE
  5
90
330
89
100
AcDbEntity
  8
_U+30EC_U+30A4_U+30E4_U+30FC 1
370
     0
100
AcDbSpline
210
0.0
220
0.0
230
1.0
 70
    11
 71
     3
 72
    17
 73
    13
 74
     0
 42
0.0000000001
 43
0.0000000001
 12
1.0
 22
0.0
 32
0.0
 13
1.0
 23
0.0
 33
0.0
 40
0.0
 40
0.0
 40
0.0
 40
0.0
 40
1.0
 40
1.0
 40
1.0
 40
2.0
 40
2.0
 40
2.0
 40
3.0
 40
3.0
 40
3.0
 40
4.0
 40
4.0
 40
4.0
 40
4.0
 10
48.8321614461253
 20
-77.29829642164765
 30
0.0
 10
48.58239202344468
 20
-77.29829642164765
 30
0.0
 10
48.53588323439381
 20
-77.58182778008371
 30
0.0
 10
48.53588323439381
 20
-77.92668183815722
 30
0.0
 10
48.53588323439381
 20
-78.24604218963988
 30
0.0
 10
48.57205673698893
 20
-78.55472274511827
 30
0.0
 10
48.8321614461253
 20
-78.55472274511827
 30
0.0
 10
49.07986381151476
 20
-78.55472274511827
 30
0.0
 10
49.12843965785678
 20
-78.27360295352189
 30
0.0
 10
49.12843965785678
 20
-77.92668183815722
 30
0.0
 10
49.12843965785678
 20
-77.60697697712604
 30
0.0
 10
49.0901990979705
 20
-77.29829642164765
 30
0.0
 10
48.8321614461253
 20
-77.29829642164765
 30
0.0
  0
HATCH
  5
91
330
89
100
AcDbEntity
  8
_U+30EC_U+30A4_U+30E4_U+30FC 1
 62
   179
420
  2234388
100
AcDbHatch
 10
0.0
 20
0.0
 30
0.0
210
0.0
220
0.0
230
1.0
  2
SOLID
 70
     1
 71
     0
 91
        2
 92
        1
 93
        1
 72
     4
 94
        3
 73
     0
 74
     1
 95
       29
 96
       25
 40
0.0
 40
0.0
 40
0.0
 40
0.0
 40
1.0
 40
1.0
 40
1.0
 40
2.0
 40
2.0
 40
2.0
 40
3.0
 40
3.0
 40
3.0
 40
4.0
 40
4.0
 40
4.0
 40
5.0
 40
5.0
 40
5.0
 40
6.0
 40
6.0
 40
6.0
 40
7.0
 40
7.0
 40
7.0
 40
8.0
 40
8.0
 40
8.0
 40
8.0
 10
49.23006997467165
 20
-78.52096080936282
 10
49.12189397643481
 20
-78.73042261486601
 10
48.94860567352674
 20
-78.74937064003488
 10
48.8321614461253
 20
-78.74937064003488
 10
48.67127548696413
 20
-78.74937064003488
 10
48.52968206252036
 20
-78.70286185098401
 10
48.43459742712746
 20
-78.52096080936282
 10
48.33090005302144
 20
-78.3263129144462
 10
48.31160751830404
 20
-78.08963485460954
 10
48.31160751830404
 20
-77.92668183815722
 10
48.31160751830404
 20
-77.78267684687378
 10
48.32883299573029
 20
-77.53084036690201
 10
48.43459742712746
 20
-77.3320583574031
 10
48.54242891581578
 20
-77.12914223332189
 10
48.70331487497695
 20
-77.10571558402219
 10
48.8321614461253
 20
-77.10571558402219
 10
48.99098034799531
 20
-77.10571558402219
 10
49.13464082973023
 20
-77.15015731578191
 10
49.23006997467165
 20
-77.3320583574031
 10
49.32928872464684
 20
-77.52463919502857
 10
49.35271537394654
 20
-77.75304902570063
 10
49.35271537394654
 20
-77.92668183815722
 10
49.35271537394654
 20
-78.09790308377414
 10
49.33135578193799
 20
-78.32837997173735
 10
49.23006997467165
 20
-78.52096080936282
 97
        0
 97
        0
 92
        1
 93
        1
 72
     4
 94
        3
 73
     0
 74
     1
 95
       17
 96
       13
 40
0.0
 40
0.0
 40
0.0
 40
0.0
 40
1.0
 40
1.0
 40
1.0
 40
2.0
 40
2.0
 40
2.0
 40
3.0
 40
3.0
 40
3.0
 40
4.0
 40
4.0
 40
4.0
 40
4.0
 10
48.8321614461253
 20
-77.29829642164765
 10
48.58239202344468
 20
-77.29829642164765
 10
48.53588323439381
 20
-77.58182778008371
 10
48.53588323439381
 20
-77.92668183815722
 10
48.53588323439381
 20
-78.24604218963988
 10
48.57205673698893
 20
-78.55472274511827
 10
48.8321614461253
 20
-78.55472274511827
 10
49.07986381151476
 20
-78.55472274511827
 10
49.12843965785678
 20
-78.27360295352189
 10
49.12843965785678
 20
-77.92668183815722
 10
49.12843965785678
 20
-77.60697697712604
 10
49.0901990979705
 20
-77.29829642164765
 10
48.8321614461253
 20
-77.29829642164765
 97
        0
 97
        0
 75
     2
 76
     1
 98
        0
  0
ENDBLK
  5
8C
330
89
100
AcDbEntity
  8
0
100
AcDbBlockEnd
  0
BLOCK
  5
A2
330
A0
100
AcDbEntity
  8
0
100
AcDbBlockBegin
  2
block 7
 70
     0
 10
0.0
 20
0.0
 30
0.0
  3
block 7
  1

  0
SPLINE
  5
A4
330
A0
100
AcDbEntity
  8
_U+30EC_U+30A4_U+30E4_U+30FC 1
370
     0
100
AcDbSpline
210
0.0
220
0.0
230
1.0
 70
    11
 71
     3
 72
    26
 73
    22
 74
     0
 42
0.0000000001
 43
0.0000000001
 12
1.0
 22
0.0
 32
0.0
 13
1.0
 23
0.0
 33
0.0
 40
0.0
 40
0.0
 40
0.0
 40
0.0
 40
1.0
 40
1.0
 40
1.0
 40
2.0
 40
2.0
 40
2.0
 40
3.0
 40
3.0
 40
3.0
 40
4.0
 40
4.0
 40
4.0
 40
5.0
 40
5.0
 40
5.0
 40
6.0
 40
6.0
 40
6.0
 40
7.0
 40
7.0
 40
7.0
 40
7.0
 10
50.03484428002601
 20
-99.47747664613757
 30
0.0
 10
50.03484428002601
 20
-99.47747664613757
 30
0.0
 10
50.03484428002601
 20
-98.373323543115
 30
0.0
 10
50.03484428002601
 20
-98.373323543115
 30
0.0
 10
50.03484428002601
 20
-98.373323543115
 30
0.0
 10
49.70480413253908
 20
-98.373323543115
 30
0.0
 10
49.70480413253908
 20
-98.373323543115
 30
0.0
 10
49.70480413253908
 20
-98.373323543115
 30
0.0
 10
49.70480413253908
 20
-98.22518443724927
 30
0.0
 10
49.70480413253908
 20
-98.22518443724927
 30
0.0
 10
50.03691133731716
 20
-98.21037052666269
 30
0.0
 10
50.08342012636803
 20
-98.04741751021037
 30
0.0
 10
50.11304794754118
 20
-97.93304034010008
 30
0.0
 10
50.11304794754118
 20
-97.93304034010008
 30
0.0
 10
50.25911999611578
 20
-97.93304034010008
 30
0.0
 10
50.25911999611578
 20
-97.93304034010008
 30
0.0
 10
50.25911999611578
 20
-97.93304034010008
 30
0.0
 10
50.25911999611578
 20
-99.47747664613757
 30
0.0
 10
50.25911999611578
 20
-99.47747664613757
 30
0.0
 10
50.25911999611578
 20
-99.47747664613757
 30
0.0
 10
50.03484428002601
 20
-99.47747664613757
 30
0.0
 10
50.03484428002601
 20
-99.47747664613757
 30
0.0
  0
HATCH
  5
A5
330
A0
100
AcDbEntity
  8
_U+30EC_U+30A4_U+30E4_U+30FC 1
 62
   179
420
  2234388
100
AcDbHatch
 10
0.0
 20
0.0
 30
0.0
210
0.0
220
0.0
230
1.0
  2
SOLID
 70
     1
 71
     0
 91
        1
 92
        1
 93
        1
 72
     4
 94
        3
 73
     0
 74
     1
 95
       26
 96
       22
 40
0.0
 40
0.0
 40
0.0
 40
0.0
 40
1.0
 40
1.0
 40
1.0
 40
2.0
 40
2.0
 40
2.0
 40
3.0
 40
3.0
 40
3.0
 40
4.0
 40
4.0
 40
4.0
 40
5.0
 40
5.0
 40
5.0
 40
6.0
 40
6.0
 40
6.0
 40
7.0
 40
7.0
 40
7.0
 40
7.0
 10
50.03484428002601
 20
-99.47747664613757
 10
50.03484428002601
 20
-99.47747664613757
 10
50.03484428002601
 20
-98.373323543115
 10
50.03484428002601
 20
-98.373323543115
 10
50.03484428002601
 20
-98.373323543115
 10
49.70480413253908
 20
-98.373323543115
 10
49.70480413253908
 20
-98.373323543115
 10
49.70480413253908
 20
-98.373323543115
 10
49.70480413253908
 20
-98.22518443724927
 10
49.70480413253908
 20
-98.22518443724927
 10
50.03691133731716
 20
-98.21037052666269
 10
50.08342012636803
 20
-98.04741751021037
 10
50.11304794754118
 20
-97.93304034010008
 10
50.11304794754118
 20
-97.93304034010008
 10
50.25911999611578
 20
-97.93304034010008
 10
50.25911999611578
 20
-97.93304034010008
 10
50.25911999611578
 20
-97.93304034010008
 10
50.25911999611578
 20
-99.47747664613757
 10
50.25911999611578
 20
-99.47747664613757
 10
50.25911999611578
 20
-99.47747664613757
 10
50.03484428002601
 20
-99.47747664613757
 10
50.03484428002601
 20
-99.47747664613757
 97
        0
 97
        0
 75
     2
 76
     1
 98
        0
  0
SPLINE
  5
A6
330
A0
100
AcDbEntity
  8
_U+30EC_U+30A4_U+30E4_U+30FC 1
370
     0
100
AcDbSpline
210
0.0
220
0.0
230
1.0
 70
    11
 71
     3
 72
    53
 73
    49
 74
     0
 42
0.0000000001
 43
0.0000000001
 12
1.0
 22
0.0
 32
0.0
 13
1.0
 23
0.0
 33
0.0
 40
0.0
 40
0.0
 40
0.0
 40
0.0
 40
1.0
 40
1.0
 40
1.0
 40
2.0
 40
2.0
 40
2.0
 40
3.0
 40
3.0
 40
3.0
 40
4.0
 40
4.0
 40
4.0
 40
5.0
 40
5.0
 40
5.0
 40
6.0
 40
6.0
 40
6.0
 40
7.0
 40
7.0
 40
7.0
 40
8.0
 40
8.0
 40
8.0
 40
9.0
 40
9.0
 40
9.0
 40
10.0
 40
10.0
 40
10.0
 40
11.0
 40
11.0
 40
11.0
 40
12.0
 40
12.0
 40
12.0
 40
13.0
 40
13.0
 40
13.0
 40
14.0
 40
14.0
 40
14.0
 40
15.0
 40
15.0
 40
15.0
 40
16.0
 40
16.0
 40
16.0
 40
16.0
 10
51.2413167189605
 20
-99.52811954977075
 30
0.0
 10
51.16311305144534
 20
-99.52811954977075
 30
0.0
 10
51.06148273463047
 20
-99.51123858189302
 30
0.0
 10
50.9598524178156
 20
-99.44784882496442
 30
0.0
 10
50.78656411490753
 20
-99.33795027898496
 30
0.0
 10
50.76520452289898
 20
-99.20669214099695
 30
0.0
 10
50.7462564977301
 20
-99.09886065230862
 30
0.0
 10
50.7462564977301
 20
-99.09886065230862
 30
0.0
 10
50.96846515652872
 20
-99.09886065230862
 30
0.0
 10
50.96846515652872
 20
-99.09886065230862
 30
0.0
 10
51.02324217474419
 20
-99.29764266180754
 30
0.0
 10
51.15036619814991
 20
-99.32727048298068
 30
0.0
 10
51.24338377625165
 20
-99.32727048298068
 30
0.0
 10
51.38291014340427
 20
-99.32727048298068
 30
0.0
 10
51.53518336385232
 20
-99.22770722345696
 30
0.0
 10
51.53518336385232
 20
-98.9951632782026
 30
0.0
 10
51.53518336385232
 20
-98.73919268364854
 30
0.0
 10
51.35534937952227
 20
-98.66925724529797
 30
0.0
 10
51.23477103753853
 20
-98.66925724529797
 30
0.0
 10
51.20307615907424
 20
-98.66925724529797
 30
0.0
 10
51.06148273463047
 20
-98.66925724529797
 30
0.0
 10
50.97259927111102
 20
-98.79844832599484
 30
0.0
 10
50.97259927111102
 20
-98.79844832599484
 30
0.0
 10
50.79689940136328
 20
-98.77950030082596
 30
0.0
 10
50.79689940136328
 20
-98.77950030082596
 30
0.0
 10
50.79689940136328
 20
-98.77950030082596
 30
0.0
 10
50.91747774334702
 20
-97.93304034010008
 30
0.0
 10
50.91747774334702
 20
-97.93304034010008
 30
0.0
 10
50.91747774334702
 20
-97.93304034010008
 30
0.0
 10
51.69606932301348
 20
-97.93304034010008
 30
0.0
 10
51.69606932301348
 20
-97.93304034010008
 30
0.0
 10
51.69606932301348
 20
-97.93304034010008
 30
0.0
 10
51.69606932301348
 20
-98.12768823501669
 30
0.0
 10
51.69606932301348
 20
-98.12768823501669
 30
0.0
 10
51.69606932301348
 20
-98.12768823501669
 30
0.0
 10
51.08043075979934
 20
-98.12768823501669
 30
0.0
 10
51.08043075979934
 20
-98.12768823501669
 30
0.0
 10
51.08043075979934
 20
-98.12768823501669
 30
0.0
 10
51.01497394557959
 20
-98.55074596060537
 30
0.0
 10
51.01497394557959
 20
-98.55074596060537
 30
0.0
 10
51.07629664521704
 20
-98.51698402484992
 30
0.0
 10
51.15863442731451
 20
-98.4766764076725
 30
0.0
 10
51.2771457120071
 20
-98.4766764076725
 30
0.0
 10
51.53104924927002
 20
-98.4766764076725
 30
0.0
 10
51.76807181865521
 20
-98.66305607342451
 30
0.0
 10
51.76807181865521
 20
-98.97621525303373
 30
0.0
 10
51.76807181865521
 20
-99.29350854722524
 30
0.0
 10
51.54379610256544
 20
-99.52811954977075
 30
0.0
 10
51.2413167189605
 20
-99.52811954977075
 30
0.0
  0
HATCH
  5
A7
330
A0
100
AcDbEntity
  8
_U+30EC_U+30A4_U+30E4_U+30FC 1
 62
   179
420
  2234388
100
AcDbHatch
 10
0.0
 20
0.0
 30
0.0
210
0.0
220
0.0
230
1.0
  2
SOLID
 70
     1
 71
     0
 91
        1
 92
        1
 93
        1
 72
     4
 94
        3
 73
     0
 74
     1
 95
       53
 96
       49
 40
0.0
 40
0.0
 40
0.0
 40
0.0
 40
1.0
 40
1.0
 40
1.0
 40
2.0
 40
2.0
 40
2.0
 40
3.0
 40
3.0
 40
3.0
 40
4.0
 40
4.0
 40
4.0
 40
5.0
 40
5.0
 40
5.0
 40
6.0
 40
6.0
 40
6.0
 40
7.0
 40
7.0
 40
7.0
 40
8.0
 40
8.0
 40
8.0
 40
9.0
 40
9.0
 40
9.0
 40
10.0
 40
10.0
 40
10.0
 40
11.0
 40
11.0
 40
11.0
 40
12.0
 40
12.0
 40
12.0
 40
13.0
 40
13.0
 40
13.0
 40
14.0
 40
14.0
 40
14.0
 40
15.0
 40
15.0
 40
15.0
 40
16.0
 40
16.0
 40
16.0
 40
16.0
 10
51.2413167189605
 20
-99.52811954977075
 10
51.16311305144534
 20
-99.52811954977075
 10
51.06148273463047
 20
-99.51123858189302
 10
50.9598524178156
 20
-99.44784882496442
 10
50.78656411490753
 20
-99.33795027898496
 10
50.76520452289898
 20
-99.20669214099695
 10
50.7462564977301
 20
-99.09886065230862
 10
50.7462564977301
 20
-99.09886065230862
 10
50.96846515652872
 20
-99.09886065230862
 10
50.96846515652872
 20
-99.09886065230862
 10
51.02324217474419
 20
-99.29764266180754
 10
51.15036619814991
 20
-99.32727048298068
 10
51.24338377625165
 20
-99.32727048298068
 10
51.38291014340427
 20
-99.32727048298068
 10
51.53518336385232
 20
-99.22770722345696
 10
51.53518336385232
 20
-98.9951632782026
 10
51.53518336385232
 20
-98.73919268364854
 10
51.35534937952227
 20
-98.66925724529797
 10
51.23477103753853
 20
-98.66925724529797
 10
51.20307615907424
 20
-98.66925724529797
 10
51.06148273463047
 20
-98.66925724529797
 10
50.97259927111102
 20
-98.79844832599484
 10
50.97259927111102
 20
-98.79844832599484
 10
50.79689940136328
 20
-98.77950030082596
 10
50.79689940136328
 20
-98.77950030082596
 10
50.79689940136328
 20
-98.77950030082596
 10
50.91747774334702
 20
-97.93304034010008
 10
50.91747774334702
 20
-97.93304034010008
 10
50.91747774334702
 20
-97.93304034010008
 10
51.69606932301348
 20
-97.93304034010008
 10
51.69606932301348
 20
-97.93304034010008
 10
51.69606932301348
 20
-97.93304034010008
 10
51.69606932301348
 20
-98.12768823501669
 10
51.69606932301348
 20
-98.12768823501669
 10
51.69606932301348
 20
-98.12768823501669
 10
51.08043075979934
 20
-98.12768823501669
 10
51.08043075979934
 20
-98.12768823501669
 10
51.08043075979934
 20
-98.12768823501669
 10
51.01497394557959
 20
-98.55074596060537
 10
51.01497394557959
 20
-98.55074596060537
 10
51.07629664521704
 20
-98.51698402484992
 10
51.15863442731451
 20
-98.4766764076725
 10
51.2771457120071
 20
-98.4766764076725
 10
51.53104924927002
 20
-98.4766764076725
 10
51.76807181865521
 20
-98.66305607342451
 10
51.76807181865521
 20
-98.97621525303373
 10
51.76807181865521
 20
-99.29350854722524
 10
51.54379610256544
 20
-99.52811954977075
 10
51.2413167189605
 20
-99.52811954977075
 97
        0
 97
        0
 75
     2
 76
     1
 98
        0
  0
ENDBLK
  5
A3
330
A0
100
AcDbEntity
  8
0
100
AcDbBlockEnd
  0
ENDSEC
  0
SECTION
  2
ENTITIES
  0
SPLINE
  5
41
330
1F
100
AcDbEntity
  8
_U+30EC_U+30A4_U+30E4_U+30FC 1
 62
   179
420
  2234388
370
     9
100
AcDbSpline
210
0.0
220
0.0
230
1.0
 70
    11
 71
     3
 72
    17
 73
    13
 74
     0
 42
0.0000000001
 43
0.0000000001
 12
1.0
 22
0.0
 32
0.0
 13
1.0
 23
0.0
 33
0.0
 40
0.0
 40
0.0
 40
0.0
 40
0.0
 40
1.0
 40
1.0
 40
1.0
 40
2.0
 40
2.0
 40
2.0
 40
3.0
 40
3.0
 40
3.0
 40
4.0
 40
4.0
 40
4.0
 40
4.0
 10
80.85708793716383
 20
-96.05235775376478
 30
0.0
 10
80.85708793716383
 20
-96.10749692041786
 30
0.0
 10
80.90185543602172
 20
-96.15226442040641
 30
0.0
 10
80.95699460128166
 20
-96.15226442040641
 30
0.0
 10
81.01209848876474
 20
-96.15226442040641
 30
0.0
 10
81.0569012653995
 20
-96.10749692041786
 30
0.0
 10
81.0569012653995
 20
-96.05235775376478
 30
0.0
 10
81.0569012653995
 20
-95.99725386488986
 30
0.0
 10
81.01209848876474
 20
-95.95245108712314
 30
0.0
 10
80.95699460128166
 20
-95.95245108712314
 30
0.0
 10
80.90185543602172
 20
-95.95245108712314
 30
0.0
 10
80.85708793716383
 20
-95.99725386488986
 30
0.0
 10
80.85708793716383
 20
-96.05235775376478
 30
0.0
  0
SPLINE
  5
42
330
1F
100
AcDbEntity
  8
_U+30EC_U+30A4_U+30E4_U+30FC 1
 62
   179
420
  2234388
370
     9
100
AcDbSpline
210
0.0
220
0.0
230
1.0
 70
    11
 71
     3
 72
    17
 73
    13
 74
     0
 42
0.0000000001
 43
0.0000000001
 12
1.0
 22
0.0
 32
0.0
 13
1.0
 23
0.0
 33
0.0
 40
0.0
 40
0.0
 40
0.0
 40
0.0
 40
1.0
 40
1.0
 40
1.0
 40
2.0
 40
2.0
 40
2.0
 40
3.0
 40
3.0
 40
3.0
 40
4.0
 40
4.0
 40
4.0
 40
4.0
 10
80.85708793716383
 20
-82.85557609039736
 30
0.0
 10
80.85708793716383
 20
-82.91071525705011
 30
0.0
 10
80.90185543602172
 20
-82.955482757039
 30
0.0
 10
80.95699460128166
 20
-82.955482757039
 30
0.0
 10
81.01209848876474
 20
-82.955482757039
 30
0.0
 10
81.0569012653995
 20
-82.91071525705011
 30
0.0
 10
81.0569012653995
 20
-82.85557609039736
 30
0.0
 10
81.0569012653995
 20
-82.7997666459666
 30
0.0
 10
81.01209848876474
 20
-82.75499914597803
 30
0.0
 10
80.95699460128166
 20
-82.75499914597803
 30
0.0
 10
80.90185543602172
 20
-82.75499914597803
 30
0.0
 10
80.85708793716383
 20
-82.7997666459666
 30
0.0
 10
80.85708793716383
 20
-82.85557609039736
 30
0.0
  0
POLYLINE
  5
43
330
1F
100
AcDbEntity
  8
_U+30EC_U+30A4_U+30E4_U+30FC 1
 62
   179
420
  2234388
370
     9
100
AcDb2dPolyline
 66
     1
 10
0.0
 20
0.0
 30
0.0
  0
VERTEX
  5
44
330
43
100
AcDbEntity
  8
_U+30EC_U+30A4_U+30E4_U+30FC 1
 62
   179
420
  2234388
370
     9
100
AcDbVertex
100
AcDb2dVertex
 10
80.95699460128166
 20
-78.28530470265099
 30
0.0
  0
VERTEX
  5
45
330
43
100
AcDbEntity
  8
_U+30EC_U+30A4_U+30E4_U+30FC 1
 62
   179
420
  2234388
370
     9
100
AcDbVertex
100
AcDb2dVertex
 10
80.95699460128166
 20
-96.05235775376478
 30
0.0
  0
SEQEND
  5
46
330
43
100
AcDbEntity
  8
_U+30EC_U+30A4_U+30E4_U+30FC 1
 62
   179
420
  2234388
370
     9
  0
POLYLINE
  5
47
330
1F
100
AcDbEntity
  8
_U+30EC_U+30A4_U+30E4_U+30FC 1
 62
   179
420
  2234388
370
     9
100
AcDb2dPolyline
 66
     1
 10
0.0
 20
0.0
 30
0.0
  0
VERTEX
  5
48
330
47
100
AcDbEntity
  8
_U+30EC_U+30A4_U+30E4_U+30FC 1
 62
   179
420
  2234388
370
     9
100
AcDbVertex
100
AcDb2dVertex
 10
79.33298214271367
 20
-82.85557609039736
 30
0.0
  0
VERTEX
  5
49
330
47
100
AcDbEntity
  8
_U+30EC_U+30A4_U+30E4_U+30FC 1
 62
   179
420
  2234388
370
     9
100
AcDbVertex
100
AcDb2dVertex
 10
81.95676679799757
 20
-82.85557609039736
 30
0.0
  0
SEQEND
  5
4A
330
47
100
AcDbEntity
  8
_U+30EC_U+30A4_U+30E4_U+30FC 1
 62
   179
420
  2234388
370
     9
  0
SPLINE
  5
4B
330
1F
100
AcDbEntity
  8
_U+30EC_U+30A4_U+30E4_U+30FC 1
 62
   179
420
  2234388
370
     9
100
AcDbSpline
210
0.0
220
0.0
230
1.0
 70
    11
 71
     3
 72
    17
 73
    13
 74
     0
 42
0.0000000001
 43
0.0000000001
 12
1.0
 22
0.0
 32
0.0
 13
1.0
 23
0.0
 33
0.0
 40
0.0
 40
0.0
 40
0.0
 40
0.0
 40
1.0
 40
1.0
 40
1.0
 40
2.0
 40
2.0
 40
2.0
 40
3.0
 40
3.0
 40
3.0
 40
4.0
 40
4.0
 40
4.0
 40
4.0
 10
80.85708793716383
 20
-82.05561720170842
 30
0.0
 10
80.85708793716383
 20
-82.11075636836117
 30
0.0
 10
80.90185543602172
 20
-82.15552386835004
 30
0.0
 10
80.95699460128166
 20
-82.15552386835004
 30
0.0
 10
81.01209848876474
 20
-82.15552386835004
 30
0.0
 10
81.0569012653995
 20
-82.11075636836117
 30
0.0
 10
81.0569012653995
 20
-82.05561720170842
 30
0.0
 10
81.0569012653995
 20
-81.99980775727798
 30
0.0
 10
81.01209848876474
 20
-81.9550402572891
 30
0.0
 10
80.95699460128166
 20
-81.9550402572891
 30
0.0
 10
80.90185543602172
 20
-81.9550402572891
 30
0.0
 10
80.85708793716383
 20
-81.99980775727798
 30
0.0
 10
80.85708793716383
 20
-82.05561720170842
 30
0.0
  0
POLYLINE
  5
4C
330
1F
100
AcDbEntity
  8
_U+30EC_U+30A4_U+30E4_U+30FC 1
 62
   179
420
  2234388
370
     9
100
AcDb2dPolyline
 66
     1
 10
0.0
 20
0.0
 30
0.0
  0
VERTEX
  5
4D
330
4C
100
AcDbEntity
  8
_U+30EC_U+30A4_U+30E4_U+30FC 1
 62
   179
420
  2234388
370
     9
100
AcDbVertex
100
AcDb2dVertex
 10
79.33298214271367
 20
-82.05561720170842
 30
0.0
  0
VERTEX
  5
4E
330
4C
100
AcDbEntity
  8
_U+30EC_U+30A4_U+30E4_U+30FC 1
 62
   179
420
  2234388
370
     9
100
AcDbVertex
100
AcDb2dVertex
 10
81.95676679799757
 20
-82.05561720170842
 30
0.0
  0
SEQEND
  5
4F
330
4C
100
AcDbEntity
  8
_U+30EC_U+30A4_U+30E4_U+30FC 1
 62
   179
420
  2234388
370
     9
  0
POLYLINE
  5
50
330
1F
100
AcDbEntity
  8
_U+30EC_U+30A4_U+30E4_U+30FC 1
 62
   179
420
  2234388
370
     9
100
AcDb2dPolyline
 66
     1
 10
0.0
 20
0.0
 30
0.0
  0
VERTEX
  5
51
330
50
100
AcDbEntity
  8
_U+30EC_U+30A4_U+30E4_U+30FC 1
 62
   179
420
  2234388
370
     9
100
AcDbVertex
100
AcDb2dVertex
 10
59.33228331850016
 20
-96.05235775376478
 30
0.0
  0
VERTEX
  5
52
330
50
100
AcDbEntity
  8
_U+30EC_U+30A4_U+30E4_U+30FC 1
 62
   179
420
  2234388
370
     9
100
AcDbVertex
100
AcDb2dVertex
 10
81.95676679799757
 20
-96.05235775376478
 30
0.0
  0
SEQEND
  5
53
330
50
100
AcDbEntity
  8
_U+30EC_U+30A4_U+30E4_U+30FC 1
 62
   179
420
  2234388
370
     9
  0
SPLINE
  5
54
330
1F
100
AcDbEntity
  8
_U+30EC_U+30A4_U+30E4_U+30FC 1
 62
   179
420
  2234388
370
     9
100
AcDbSpline
210
0.0
220
0.0
230
1.0
 70
    11
 71
     3
 72
    17
 73
    13
 74
     0
 42
0.0000000001
 43
0.0000000001
 12
1.0
 22
0.0
 32
0.0
 13
1.0
 23
0.0
 33
0.0
 40
0.0
 40
0.0
 40
0.0
 40
0.0
 40
1.0
 40
1.0
 40
1.0
 40
2.0
 40
2.0
 40
2.0
 40
3.0
 40
3.0
 40
3.0
 40
4.0
 40
4.0
 40
4.0
 40
4.0
 10
80.85708793716383
 20
-93.05237081007043
 30
0.0
 10
80.85708793716383
 20
-93.10750997672287
 30
0.0
 10
80.90185543602172
 20
-93.15227747671207
 30
0.0
 10
80.95699460128166
 20
-93.15227747671207
 30
0.0
 10
81.01209848876474
 20
-93.15227747671207
 30
0.0
 10
81.0569012653995
 20
-93.10750997672287
 30
0.0
 10
81.0569012653995
 20
-93.05237081007043
 30
0.0
 10
81.0569012653995
 20
-92.99726692119488
 30
0.0
 10
81.01209848876474
 20
-92.9524641434288
 30
0.0
 10
80.95699460128166
 20
-92.9524641434288
 30
0.0
 10
80.90185543602172
 20
-92.9524641434288
 30
0.0
 10
80.85708793716383
 20
-92.99726692119488
 30
0.0
 10
80.85708793716383
 20
-93.05237081007043
 30
0.0
  0
POLYLINE
  5
55
330
1F
100
AcDbEntity
  8
_U+30EC_U+30A4_U+30E4_U+30FC 1
 62
   179
420
  2234388
370
     9
100
AcDb2dPolyline
 66
     1
 10
0.0
 20
0.0
 30
0.0
  0
VERTEX
  5
56
330
55
100
AcDbEntity
  8
_U+30EC_U+30A4_U+30E4_U+30FC 1
 62
   179
420
  2234388
370
     9
100
AcDbVertex
100
AcDb2dVertex
 10
59.33228331850016
 20
-93.05237081007043
 30
0.0
  0
VERTEX
  5
57
330
55
100
AcDbEntity
  8
_U+30EC_U+30A4_U+30E4_U+30FC 1
 62
   179
420
  2234388
370
     9
100
AcDbVertex
100
AcDb2dVertex
 10
81.95676679799757
 20
-93.05237081007043
 30
0.0
  0
SEQEND
  5
58
330
55
100
AcDbEntity
  8
_U+30EC_U+30A4_U+30E4_U+30FC 1
 62
   179
420
  2234388
370
     9
  0
INSERT
  5
5A
330
1F
100
AcDbEntity
  8
_U+30EC_U+30A4_U+30E4_U+30FC 1
100
AcDbBlockReference
  2
block 2
 10
0.0
 20
0.0
 30
0.0
  0
INSERT
  5
63
330
1F
100
AcDbEntity
  8
_U+30EC_U+30A4_U+30E4_U+30FC 1
100
AcDbBlockReference
  2
block 3
 10
0.0
 20
0.0
 30
0.0
  0
INSERT
  5
69
330
1F
100
AcDbEntity
  8
_U+30EC_U+30A4_U+30E4_U+30FC 1
100
AcDbBlockReference
  2
block 4
 10
0.0
 20
0.0
 30
0.0
  0
POLYLINE
  5
6E
330
1F
100
AcDbEntity
  8
_U+30EC_U+30A4_U+30E4_U+30FC 1
 62
   179
420
  2234388
370
     9
100
AcDb2dPolyline
 66
     1
 10
0.0
 20
0.0
 30
0.0
  0
VERTEX
  5
6F
330
6E
100
AcDbEntity
  8
_U+30EC_U+30A4_U+30E4_U+30FC 1
 62
   179
420
  2234388
370
     9
100
AcDbVertex
100
AcDb2dVertex
 10
78.18299717205224
 20
-79.27544609129238
 30
0.0
  0
VERTEX
  5
70
330
6E
100
AcDbEntity
  8
_U+30EC_U+30A4_U+30E4_U+30FC 1
 62
   179
420
  2234388
370
     9
100
AcDbVertex
100
AcDb2dVertex
 10
43.16430028767584
 20
-79.27544609129238
 30
0.0
  0
SEQEND
  5
71
330
6E
100
AcDbEntity
  8
_U+30EC_U+30A4_U+30E4_U+30FC 1
 62
   179
420
  2234388
370
     9
  0
SPLINE
  5
72
330
1F
100
AcDbEntity
  8
_U+30EC_U+30A4_U+30E4_U+30FC 1
 62
   179
420
  2234388
370
     9
100
AcDbSpline
210
0.0
220
0.0
230
1.0
 70
    11
 71
     3
 72
    17
 73
    13
 74
     0
 42
0.0000000001
 43
0.0000000001
 12
1.0
 22
0.0
 32
0.0
 13
1.0
 23
0.0
 33
0.0
 40
0.0
 40
0.0
 40
0.0
 40
0.0
 40
1.0
 40
1.0
 40
1.0
 40
2.0
 40
2.0
 40
2.0
 40
3.0
 40
3.0
 40
3.0
 40
4.0
 40
4.0
 40
4.0
 40
4.0
 10
53.18315364318471
 20
-79.17553942465042
 30
0.0
 10
53.12801447792476
 20
-79.17553942465042
 30
0.0
 10
53.08324697906688
 20
-79.2203069246393
 30
0.0
 10
53.08324697906688
 20
-79.27544609129238
 30
0.0
 10
53.08324697906688
 20
-79.33054998016729
 30
0.0
 10
53.12801447792476
 20
-79.37535275793401
 30
0.0
 10
53.18315364318471
 20
-79.37535275793401
 30
0.0
 10
53.23825753066779
 20
-79.37535275793401
 30
0.0
 10
53.28306030730255
 20
-79.33054998016729
 30
0.0
 10
53.28306030730255
 20
-79.27544609129238
 30
0.0
 10
53.28306030730255
 20
-79.2203069246393
 30
0.0
 10
53.23825753066779
 20
-79.17553942465042
 30
0.0
 10
53.18315364318471
 20
-79.17553942465042
 30
0.0
  0
POLYLINE
  5
73
330
1F
100
AcDbEntity
  8
_U+30EC_U+30A4_U+30E4_U+30FC 1
 62
   179
420
  2234388
370
     9
100
AcDb2dPolyline
 66
     1
 10
0.0
 20
0.0
 30
0.0
  0
VERTEX
  5
74
330
73
100
AcDbEntity
  8
_U+30EC_U+30A4_U+30E4_U+30FC 1
 62
   179
420
  2234388
370
     9
100
AcDbVertex
100
AcDb2dVertex
 10
53.18315364318471
 20
-77.81540470276835
 30
0.0
  0
VERTEX
  5
75
330
73
100
AcDbEntity
  8
_U+30EC_U+30A4_U+30E4_U+30FC 1
 62
   179
420
  2234388
370
     9
100
AcDbVertex
100
AcDb2dVertex
 10
53.18315364318471
 20
-80.55564136875
 30
0.0
  0
SEQEND
  5
76
330
73
100
AcDbEntity
  8
_U+30EC_U+30A4_U+30E4_U+30FC 1
 62
   179
420
  2234388
370
     9
  0
SPLINE
  5
77
330
1F
100
AcDbEntity
  8
_U+30EC_U+30A4_U+30E4_U+30FC 1
 62
   179
420
  2234388
370
     9
100
AcDbSpline
210
0.0
220
0.0
230
1.0
 70
    11
 71
     3
 72
    17
 73
    13
 74
     0
 42
0.0000000001
 43
0.0000000001
 12
1.0
 22
0.0
 32
0.0
 13
1.0
 23
0.0
 33
0.0
 40
0.0
 40
0.0
 40
0.0
 40
0.0
 40
1.0
 40
1.0
 40
1.0
 40
2.0
 40
2.0
 40
2.0
 40
3.0
 40
3.0
 40
3.0
 40
4.0
 40
4.0
 40
4.0
 40
4.0
 10
43.1832444538592
 20
-79.17553942465042
 30
0.0
 10
43.12810528859926
 20
-79.17553942465042
 30
0.0
 10
43.08333887811813
 20
-79.2203069246393
 30
0.0
 10
43.08333887811813
 20
-79.27544609129238
 30
0.0
 10
43.08333887811813
 20
-79.33054998016729
 30
0.0
 10
43.12810528859926
 20
-79.37535275793401
 30
0.0
 10
43.1832444538592
 20
-79.37535275793401
 30
0.0
 10
43.23834834134228
 20
-79.37535275793401
 30
0.0
 10
43.28315111797704
 20
-79.33054998016729
 30
0.0
 10
43.28315111797704
 20
-79.27544609129238
 30
0.0
 10
43.28315111797704
 20
-79.2203069246393
 30
0.0
 10
43.23834834134228
 20
-79.17553942465042
 30
0.0
 10
43.1832444538592
 20
-79.17553942465042
 30
0.0
  0
POLYLINE
  5
78
330
1F
100
AcDbEntity
  8
_U+30EC_U+30A4_U+30E4_U+30FC 1
 62
   179
420
  2234388
370
     9
100
AcDb2dPolyline
 66
     1
 10
0.0
 20
0.0
 30
0.0
  0
VERTEX
  5
79
330
78
100
AcDbEntity
  8
_U+30EC_U+30A4_U+30E4_U+30FC 1
 62
   179
420
  2234388
370
     9
100
AcDbVertex
100
AcDb2dVertex
 10
43.1832444538592
 20
-77.81540470276835
 30
0.0
  0
VERTEX
  5
7A
330
78
100
AcDbEntity
  8
_U+30EC_U+30A4_U+30E4_U+30FC 1
 62
   179
420
  2234388
370
     9
100
AcDbVertex
100
AcDb2dVertex
 10
43.1832444538592
 20
-80.55564136875
 30
0.0
  0
SEQEND
  5
7B
330
78
100
AcDbEntity
  8
_U+30EC_U+30A4_U+30E4_U+30FC 1
 62
   179
420
  2234388
370
     9
  0
SPLINE
  5
7C
330
1F
100
AcDbEntity
  8
_U+30EC_U+30A4_U+30E4_U+30FC 1
 62
   179
420
  2234388
370
     9
100
AcDbSpline
210
0.0
220
0.0
230
1.0
 70
    11
 71
     3
 72
    17
 73
    13
 74
     0
 42
0.0000000001
 43
0.0000000001
 12
1.0
 22
0.0
 32
0.0
 13
1.0
 23
0.0
 33
0.0
 40
0.0
 40
0.0
 40
0.0
 40
0.0
 40
1.0
 40
1.0
 40
1.0
 40
2.0
 40
2.0
 40
2.0
 40
3.0
 40
3.0
 40
3.0
 40
4.0
 40
4.0
 40
4.0
 40
4.0
 10
78.18299717205224
 20
-79.17553942465042
 30
0.0
 10
78.12785800679228
 20
-79.17553942465042
 30
0.0
 10
78.0830905079344
 20
-79.2203069246393
 30
0.0
 10
78.0830905079344
 20
-79.27544609129238
 30
0.0
 10
78.0830905079344
 20
-79.33054998016729
 30
0.0
 10
78.12785800679228
 20
-79.37535275793401
 30
0.0
 10
78.18299717205224
 20
-79.37535275793401
 30
0.0
 10
78.23810105953531
 20
-79.37535275793401
 30
0.0
 10
78.28290383617008
 20
-79.33054998016729
 30
0.0
 10
78.28290383617008
 20
-79.27544609129238
 30
0.0
 10
78.28290383617008
 20
-79.2203069246393
 30
0.0
 10
78.23810105953531
 20
-79.17553942465042
 30
0.0
 10
78.18299717205224
 20
-79.17553942465042
 30
0.0
  0
POLYLINE
  5
7D
330
1F
100
AcDbEntity
  8
_U+30EC_U+30A4_U+30E4_U+30FC 1
 62
   179
420
  2234388
370
     9
100
AcDb2dPolyline
 66
     1
 10
0.0
 20
0.0
 30
0.0
  0
VERTEX
  5
7E
330
7D
100
AcDbEntity
  8
_U+30EC_U+30A4_U+30E4_U+30FC 1
 62
   179
420
  2234388
370
     9
100
AcDbVertex
100
AcDb2dVertex
 10
78.18299717205224
 20
-77.81540470276835
 30
0.0
  0
VERTEX
  5
7F
330
7D
100
AcDbEntity
  8
_U+30EC_U+30A4_U+30E4_U+30FC 1
 62
   179
420
  2234388
370
     9
100
AcDbVertex
100
AcDb2dVertex
 10
78.18299717205224
 20
-80.55564136875
 30
0.0
  0
SEQEND
  5
80
330
7D
100
AcDbEntity
  8
_U+30EC_U+30A4_U+30E4_U+30FC 1
 62
   179
420
  2234388
370
     9
  0
INSERT
  5
82
330
1F
100
AcDbEntity
  8
_U+30EC_U+30A4_U+30E4_U+30FC 1
100
AcDbBlockReference
  2
block 5
 10
0.0
 20
0.0
 30
0.0
  0
INSERT
  5
8A
330
1F
100
AcDbEntity
  8
_U+30EC_U+30A4_U+30E4_U+30FC 1
100
AcDbBlockReference
  2
block 6
 10
0.0
 20
0.0
 30
0.0
  0
SPLINE
  5
92
330
1F
100
AcDbEntity
  8
_U+30EC_U+30A4_U+30E4_U+30FC 1
 62
   179
420
  2234388
370
     9
100
AcDbSpline
210
0.0
220
0.0
230
1.0
 70
    11
 71
     3
 72
    17
 73
    13
 74
     0
 42
0.0000000001
 43
0.0000000001
 12
1.0
 22
0.0
 32
0.0
 13
1.0
 23
0.0
 33
0.0
 40
0.0
 40
0.0
 40
0.0
 40
0.0
 40
1.0
 40
1.0
 40
1.0
 40
2.0
 40
2.0
 40
2.0
 40
3.0
 40
3.0
 40
3.0
 40
4.0
 40
4.0
 40
4.0
 40
4.0
 10
43.26420695179368
 20
-100.0714138638708
 30
0.0
 10
43.26420695179368
 20
-100.0162746972184
 30
0.0
 10
43.21940417515891
 20
-99.97150719722922
 30
0.0
 10
43.16359473213829
 20
-99.97150719722922
 30
0.0
 10
43.10849084465522
 20
-99.97150719722922
 30
0.0
 10
43.06368806802045
 20
-100.0162746972184
 30
0.0
 10
43.06368806802045
 20
-100.0714138638708
 30
0.0
 10
43.06368806802045
 20
-100.1265177527464
 30
0.0
 10
43.10849084465522
 20
-100.1713205305125
 30
0.0
 10
43.16359473213829
 20
-100.1713205305125
 30
0.0
 10
43.21940417515891
 20
-100.1713205305125
 30
0.0
 10
43.26420695179368
 20
-100.1265177527464
 30
0.0
 10
43.26420695179368
 20
-100.0714138638708
 30
0.0
  0
POLYLINE
  5
93
330
1F
100
AcDbEntity
  8
_U+30EC_U+30A4_U+30E4_U+30FC 1
 62
   179
420
  2234388
370
     9
100
AcDb2dPolyline
 66
     1
 10
0.0
 20
0.0
 30
0.0
  0
VERTEX
  5
94
330
93
100
AcDbEntity
  8
_U+30EC_U+30A4_U+30E4_U+30FC 1
 62
   179
420
  2234388
370
     9
100
AcDbVertex
100
AcDb2dVertex
 10
43.16359473213829
 20
-100.0714138638708
 30
0.0
  0
VERTEX
  5
95
330
93
100
AcDbEntity
  8
_U+30EC_U+30A4_U+30E4_U+30FC 1
 62
   179
420
  2234388
370
     9
100
AcDbVertex
100
AcDb2dVertex
 10
58.1633879605728
 20
-100.0714138638708
 30
0.0
  0
SEQEND
  5
96
330
93
100
AcDbEntity
  8
_U+30EC_U+30A4_U+30E4_U+30FC 1
 62
   179
420
  2234388
370
     9
  0
POLYLINE
  5
97
330
1F
100
AcDbEntity
  8
_U+30EC_U+30A4_U+30E4_U+30FC 1
 62
   179
420
  2234388
370
     9
100
AcDb2dPolyline
 66
     1
 10
0.0
 20
0.0
 30
0.0
  0
VERTEX
  5
98
330
97
100
AcDbEntity
  8
_U+30EC_U+30A4_U+30E4_U+30FC 1
 62
   179
420
  2234388
370
     9
100
AcDbVertex
100
AcDb2dVertex
 10
43.16359473213829
 20
-97.61092997559724
 30
0.0
  0
VERTEX
  5
99
330
97
100
AcDbEntity
  8
_U+30EC_U+30A4_U+30E4_U+30FC 1
 62
   179
420
  2234388
370
     9
100
AcDbVertex
100
AcDb2dVertex
 10
43.16359473213829
 20
-101.0711860858434
 30
0.0
  0
SEQEND
  5
9A
330
97
100
AcDbEntity
  8
_U+30EC_U+30A4_U+30E4_U+30FC 1
 62
   179
420
  2234388
370
     9
  0
SPLINE
  5
9B
330
1F
100
AcDbEntity
  8
_U+30EC_U+30A4_U+30E4_U+30FC 1
 62
   179
420
  2234388
370
     9
100
AcDbSpline
210
0.0
220
0.0
230
1.0
 70
    11
 71
     3
 72
    17
 73
    13
 74
     0
 42
0.0000000001
 43
0.0000000001
 12
1.0
 22
0.0
 32
0.0
 13
1.0
 23
0.0
 33
0.0
 40
0.0
 40
0.0
 40
0.0
 40
0.0
 40
1.0
 40
1.0
 40
1.0
 40
2.0
 40
2.0
 40
2.0
 40
3.0
 40
3.0
 40
3.0
 40
4.0
 40
4.0
 40
4.0
 40
4.0
 10
58.26396490245131
 20
-100.0714138638708
 30
0.0
 10
58.26396490245131
 20
-100.0162746972184
 30
0.0
 10
58.21919740359342
 20
-99.97150719722922
 30
0.0
 10
58.1633879605728
 20
-99.97150719722922
 30
0.0
 10
58.10824879531285
 20
-99.97150719722922
 30
0.0
 10
58.06348129645496
 20
-100.0162746972184
 30
0.0
 10
58.06348129645496
 20
-100.0714138638708
 30
0.0
 10
58.06348129645496
 20
-100.1265177527464
 30
0.0
 10
58.10824879531285
 20
-100.1713205305125
 30
0.0
 10
58.1633879605728
 20
-100.1713205305125
 30
0.0
 10
58.21919740359342
 20
-100.1713205305125
 30
0.0
 10
58.26396490245131
 20
-100.1265177527464
 30
0.0
 10
58.26396490245131
 20
-100.0714138638708
 30
0.0
  0
POLYLINE
  5
9C
330
1F
100
AcDbEntity
  8
_U+30EC_U+30A4_U+30E4_U+30FC 1
 62
   179
420
  2234388
370
     9
100
AcDb2dPolyline
 66
     1
 10
0.0
 20
0.0
 30
0.0
  0
VERTEX
  5
9D
330
9C
100
AcDbEntity
  8
_U+30EC_U+30A4_U+30E4_U+30FC 1
 62
   179
420
  2234388
370
     9
100
AcDbVertex
100
AcDb2dVertex
 10
58.1633879605728
 20
-97.61092997559724
 30
0.0
  0
VERTEX
  5
9E
330
9C
100
AcDbEntity
  8
_U+30EC_U+30A4_U+30E4_U+30FC 1
 62
   179
420
  2234388
370
     9
100
AcDbVertex
100
AcDb2dVertex
 10
58.1633879605728
 20
-101.0711860858434
 30
0.0
  0
SEQEND
  5
9F
330
9C
100
AcDbEntity
  8
_U+30EC_U+30A4_U+30E4_U+30FC 1
 62
   179
420
  2234388
370
     9
  0
INSERT
  5
A1
330
1F
100
AcDbEntity
  8
_U+30EC_U+30A4_U+30E4_U+30FC 1
100
AcDbBlockReference
  2
block 7
 10
0.0
 20
0.0
 30
0.0
  0
POLYLINE
  5
A8
330
1F
100
AcDbEntity
  8
_U+30EC_U+30A4_U+30E4_U+30FC 1
 62
   179
420
  2234388
370
    25
100
AcDb2dPolyline
 66
     1
 10
0.0
 20
0.0
 30
0.0
  0
VERTEX
  5
A9
330
A8
100
AcDbEntity
  8
_U+30EC_U+30A4_U+30E4_U+30FC 1
 62
   179
420
  2234388
370
    25
100
AcDbVertex
100
AcDb2dVertex
 10
57.18220715227147
 20
-95.05258553179223
 30
0.0
  0
VERTEX
  5
AA
330
A8
100
AcDbEntity
  8
_U+30EC_U+30A4_U+30E4_U+30FC 1
 62
   179
420
  2234388
370
    25
100
AcDbVertex
100
AcDb2dVertex
 10
54.18324333989252
 20
-95.05258553179223
 30
0.0
  0
VERTEX
  5
AB
330
A8
100
AcDbEntity
  8
_U+30EC_U+30A4_U+30E4_U+30FC 1
 62
   179
420
  2234388
370
    25
100
AcDbVertex
100
AcDb2dVertex
 10
54.18324333989252
 20
-83.05538942368064
 30
0.0
  0
VERTEX
  5
AC
330
A8
100
AcDbEntity
  8
_U+30EC_U+30A4_U+30E4_U+30FC 1
 62
   179
420
  2234388
370
    25
100
AcDbVertex
100
AcDb2dVertex
 10
78.18299717205224
 20
-83.05538942368064
 30
0.0
  0
VERTEX
  5
AD
330
A8
100
AcDbEntity
  8
_U+30EC_U+30A4_U+30E4_U+30FC 1
 62
   179
420
  2234388
370
    25
100
AcDbVertex
100
AcDb2dVertex
 10
78.18299717205224
 20
-82.05561720170842
 30
0.0
  0
VERTEX
  5
AE
330
A8
100
AcDbEntity
  8
_U+30EC_U+30A4_U+30E4_U+30FC 1
 62
   179
420
  2234388
370
    25
100
AcDbVertex
100
AcDb2dVertex
 10
53.18280086541593
 20
-82.05561720170842
 30
0.0
  0
VERTEX
  5
AF
330
A8
100
AcDbEntity
  8
_U+30EC_U+30A4_U+30E4_U+30FC 1
 62
   179
420
  2234388
370
    25
100
AcDbVertex
100
AcDb2dVertex
 10
53.18280086541593
 20
-95.05258553179223
 30
0.0
  0
VERTEX
  5
B0
330
A8
100
AcDbEntity
  8
_U+30EC_U+30A4_U+30E4_U+30FC 1
 62
   179
420
  2234388
370
    25
100
AcDbVertex
100
AcDb2dVertex
 10
44.18612221117584
 20
-95.05258553179223
 30
0.0
  0
VERTEX
  5
B1
330
A8
100
AcDbEntity
  8
_U+30EC_U+30A4_U+30E4_U+30FC 1
 62
   179
420
  2234388
370
    25
100
AcDbVertex
100
AcDb2dVertex
 10
43.18222139832975
 20
-96.05235775376478
 30
0.0
  0
VERTEX
  5
B2
330
A8
100
AcDbEntity
  8
_U+30EC_U+30A4_U+30E4_U+30FC 1
 62
   179
420
  2234388
370
    25
100
AcDbVertex
100
AcDb2dVertex
 10
58.18233212675616
 20
-96.05235775376478
 30
0.0
  0
VERTEX
  5
B3
330
A8
100
AcDbEntity
  8
_U+30EC_U+30A4_U+30E4_U+30FC 1
 62
   179
420
  2234388
370
    25
100
AcDbVertex
100
AcDb2dVertex
 10
58.18233212675616
 20
-93.05237081007043
 30
0.0
  0
VERTEX
  5
B4
330
A8
100
AcDbEntity
  8
_U+30EC_U+30A4_U+30E4_U+30FC 1
 62
   179
420
  2234388
370
    25
100
AcDbVertex
100
AcDb2dVertex
 10
57.18220715227147
 20
-93.05237081007043
 30
0.0
  0
VERTEX
  5
B5
330
A8
100
AcDbEntity
  8
_U+30EC_U+30A4_U+30E4_U+30FC 1
 62
   179
420
  2234388
370
    25
100
AcDbVertex
100
AcDb2dVertex
 10
57.18220715227147
 20
-95.05258553179223
 30
0.0
  0
SEQEND
  5
B6
330
A8
100
AcDbEntity
  8
_U+30EC_U+30A4_U+30E4_U+30FC 1
 62
   179
420
  2234388
370
    25
  0
ENDSEC
  0
SECTION
  2
OBJECTS
  0
DICTIONARY
  5
C
330
0
100
AcDbDictionary
281
     1
  3
ACAD_GROUP
350
D
  3
ACAD_LAYOUT
350
1A
  3
ACAD_MATERIAL
350
3B
  3
ACAD_MLEADERSTYLE
350
B8
  3
ACAD_MLINESTYLE
350
17
  3
ACAD_PLOTSETTINGS
350
19
  3
ACAD_PLOTSTYLENAME
350
E
  3
ACAD_TABLESTYLE
350
B7
  3
ACAD_VISUALSTYLE
350
2A
  0
SUN
  5
3F
330
29
100
AcDbSun
 90
        1
290
     0
 63
     7
421
 16777215
 40
1.0
291
     1
 91
  2455826
 92
 54000000
292
     0
 70
     2
 71
   256
280
     1
  0
DICTIONARY
  5
D
102
{ACAD_REACTORS
330
C
102
}
330
C
100
AcDbDictionary
281
     1
  0
DICTIONARY
  5
1A
102
{ACAD_REACTORS
330
C
102
}
330
C
100
AcDbDictionary
281
     1
  3
Layout1
350
1E
  3
Layout2
350
26
  3
Model
350
22
  0
DICTIONARY
  5
3B
102
{ACAD_REACTORS
330
C
102
}
330
C
100
AcDbDictionary
281
     1
  3
ByBlock
350
3D
  3
ByLayer
350
3C
  3
Global
350
3E
  0
DICTIONARY
  5
B8
102
{ACAD_REACTORS
330
C
102
}
330
C
100
AcDbDictionary
281
     1
  0
DICTIONARY
  5
17
102
{ACAD_REACTORS
330
C
102
}
330
C
100
AcDbDictionary
281
     1
  3
Standard
350
18
  0
DICTIONARY
  5
19
102
{ACAD_REACTORS
330
C
102
}
330
C
100
AcDbDictionary
281
     1
  0
ACDBDICTIONARYWDFLT
  5
E
102
{ACAD_REACTORS
330
C
102
}
330
C
100
AcDbDictionary
281
     1
  3
Normal
350
F
100
AcDbDictionaryWithDefault
340
F
  0
DICTIONARY
  5
B7
102
{ACAD_REACTORS
330
C
102
}
330
C
100
AcDbDictionary
281
     1
  0
DICTIONARY
  5
2A
102
{ACAD_REACTORS
330
C
102
}
330
C
100
AcDbDictionary
281
     1
  3
2dWireframe
350
2F
  3
3D Hidden
350
31
  3
3dWireframe
350
30
  3
Basic
350
32
  3
Brighten
350
36
  3
ColorChange
350
3A
  3
Conceptual
350
34
  3
Dim
350
35
  3
Facepattern
350
39
  3
Flat
350
2B
  3
FlatWithEdges
350
2C
  3
Gouraud
350
2D
  3
GouraudWithEdges
350
2E
  3
Linepattern
350
38
  3
Realistic
350
33
  3
Thicken
350
37
  0
LAYOUT
  5
1E
102
{ACAD_REACTORS
330
1A
102
}
330
1A
100
AcDbPlotSettings
  1

  2
none_device
  4

  6

 40
0.0
 41
0.0
 42
0.0
 43
0.0
 44
0.0
 45
0.0
 46
0.0
 47
0.0
 48
0.0
 49
0.0
140
0.0
141
0.0
142
1.0
143
1.0
 70
   688
 72
     0
 73
     0
 74
     5
  7

 75
    16
 76
     0
 77
     2
 78
   300
147
1.0
148
0.0
149
0.0
100
AcDbLayout
  1
Layout1
 70
     1
 71
     1
 10
0.0
 20
0.0
 11
12.0
 21
9.0
 12
0.0
 22
0.0
 32
0.0
 14
1.000000000000000E+20
 24
1.000000000000000E+20
 34
1.000000000000000E+20
 15
-1.000000000000000E+20
 25
-1.000000000000000E+20
 35
-1.000000000000000E+20
146
0.0
 13
0.0
 23
0.0
 33
0.0
 16
1.0
 26
0.0
 36
0.0
 17
0.0
 27
1.0
 37
0.0
 76
     0
330
1B
  0
LAYOUT
  5
26
102
{ACAD_REACTORS
330
1A
102
}
330
1A
100
AcDbPlotSettings
  1

  2
none_device
  4

  6

 40
0.0
 41
0.0
 42
0.0
 43
0.0
 44
0.0
 45
0.0
 46
0.0
 47
0.0
 48
0.0
 49
0.0
140
0.0
141
0.0
142
1.0
143
1.0
 70
   688
 72
     0
 73
     0
 74
     5
  7

 75
    16
 76
     0
 77
     2
 78
   300
147
1.0
148
0.0
149
0.0
100
AcDbLayout
  1
Layout2
 70
     1
 71
     2
 10
0.0
 20
0.0
 11
0.0
 21
0.0
 12
0.0
 22
0.0
 32
0.0
 14
0.0
 24
0.0
 34
0.0
 15
0.0
 25
0.0
 35
0.0
146
0.0
 13
0.0
 23
0.0
 33
0.0
 16
1.0
 26
0.0
 36
0.0
 17
0.0
 27
1.0
 37
0.0
 76
     0
330
23
  0
LAYOUT
  5
22
102
{ACAD_REACTORS
330
1A
102
}
330
1A
100
AcDbPlotSettings
  1

  2
none_device
  4

  6

 40
0.0
 41
0.0
 42
0.0
 43
0.0
 44
0.0
 45
0.0
 46
0.0
 47
0.0
 48
0.0
 49
0.0
140
0.0
141
0.0
142
1.0
143
1.0
 70
  1712
 72
     0
 73
     0
 74
     0
  7

 75
     0
 76
     0
 77
     2
 78
   300
147
1.0
148
0.0
149
0.0
100
AcDbLayout
  1
Model
 70
     1
 71
     0
 10
0.0
 20
0.0
 11
12.0
 21
9.0
 12
0.0
 22
0.0
 32
0.0
 14
1.000000000000000E+20
 24
1.000000000000000E+20
 34
1.000000000000000E+20
 15
-1.000000000000000E+20
 25
-1.000000000000000E+20
 35
-1.000000000000000E+20
146
0.0
 13
0.0
 23
0.0
 33
0.0
 16
1.0
 26
0.0
 36
0.0
 17
0.0
 27
1.0
 37
0.0
 76
     0
330
1F
331
29
  0
MATERIAL
  5
3D
102
{ACAD_REACTORS
330
3B
102
}
330
3B
100
AcDbMaterial
  1
ByBlock
 72
     1
 94
      127
  0
MATERIAL
  5
3C
102
{ACAD_REACTORS
330
3B
102
}
330
3B
100
AcDbMaterial
  1
ByLayer
 72
     1
 94
      127
  0
MATERIAL
  5
3E
102
{ACAD_REACTORS
330
3B
102
}
330
3B
100
AcDbMaterial
  1
Global
 72
     1
 94
      127
  0
MLINESTYLE
  5
18
102
{ACAD_REACTORS
330
17
102
}
330
17
100
AcDbMlineStyle
  2
Standard
 70
     0
  3

 62
   256
 51
90.0
 52
90.0
 71
     2
 49
0.5
 62
   256
  6
BYLAYER
 49
-0.5
 62
   256
  6
BYLAYER
  0
ACDBPLACEHOLDER
  5
F
102
{ACAD_REACTORS
330
E
102
}
330
E
  0
VISUALSTYLE
  5
2F
102
{ACAD_REACTORS
330
2A
102
}
330
2A
100
AcDbVisualStyle
  2
2dWireframe
 70
     4
177
     2
291
     0
 71
     0
176
     1
 72
     2
176
     1
 73
     0
176
     1
 90
        0
176
     1
 40
-0.6
176
     1
 41
-30.0
176
     1
 62
     5
 63
     7
421
 16777215
176
     1
 74
     1
176
     1
 91
        4
176
     1
 64
     7
176
     1
 65
   257
176
     1
 75
     1
176
     1
175
     1
176
     1
 42
1.0
176
     1
 92
        0
176
     1
 66
   257
176
     1
 43
1.0
176
     1
 76
     1
176
     1
 77
     6
176
     1
 78
     2
176
     1
 67
     7
176
     1
 79
     5
176
     1
170
     0
176
     1
171
     0
176
     1
290
     0
176
     1
 93
        1
176
     1
 44
0.0
176
     1
173
     0
176
     1
  0
VISUALSTYLE
  5
31
102
{ACAD_REACTORS
330
2A
102
}
330
2A
100
AcDbVisualStyle
  2
3D Hidden
 70
     6
177
     2
291
     0
 71
     1
176
     1
 72
     2
176
     1
 73
     2
176
     1
 90
        0
176
     1
 40
-0.6
176
     1
 41
-30.0
176
     1
 62
     5
 63
     7
421
 16777215
176
     1
 74
     2
176
     1
 91
        2
176
     1
 64
     7
176
     1
 65
   257
176
     1
 75
     2
176
     1
175
     1
176
     1
 42
40.0
176
     1
 92
        0
176
     1
 66
   257
176
     1
 43
1.0
176
     1
 76
     1
176
     1
 77
     6
176
     1
 78
     2
176
     1
 67
     7
176
     1
 79
     3
176
     1
170
     0
176
     1
171
     0
176
     1
290
     0
176
     1
 93
        1
176
     1
 44
0.0
176
     1
173
     0
176
     1
  0
VISUALSTYLE
  5
30
102
{ACAD_REACTORS
330
2A
102
}
330
2A
100
AcDbVisualStyle
  2
3dWireframe
 70
     5
177
     2
291
     0
 71
     0
176
     1
 72
     2
176
     1
 73
     0
176
     1
 90
        0
176
     1
 40
-0.6
176
     1
 41
-30.0
176
     1
 62
     5
 63
     7
421
 16777215
176
     1
 74
     1
176
     1
 91
        4
176
     1
 64
     7
176
     1
 65
   257
176
     1
 75
     1
176
     1
175
     1
176
     1
 42
1.0
176
     1
 92
        0
176
     1
 66
   257
176
     1
 43
1.0
176
     1
 76
     1
176
     1
 77
     6
176
     1
 78
     2
176
     1
 67
     7
176
     1
 79
     5
176
     1
170
     0
176
     1
171
     0
176
     1
290
     0
176
     1
 93
        1
176
     1
 44
0.0
176
     1
173
     0
176
     1
  0
VISUALSTYLE
  5
32
102
{ACAD_REACTORS
330
2A
102
}
330
2A
100
AcDbVisualStyle
  2
Basic
 70
     7
177
     2
291
     1
 71
     1
176
     1
 72
     0
176
     1
 73
     1
176
     1
 90
        0
176
     1
 40
-0.6
176
     1
 41
-30.0
176
     1
 62
     5
 63
     7
421
 16777215
176
     1
 74
     0
176
     1
 91
        4
176
     1
 64
     7
176
     1
 65
   257
176
     1
 75
     1
176
     1
175
     1
176
     1
 42
1.0
176
     1
 92
        8
176
     1
 66
     7
176
     1
 43
1.0
176
     1
 76
     1
176
     1
 77
     6
176
     1
 78
     2
176
     1
 67
     7
176
     1
 79
     5
176
     1
170
     0
176
     1
171
     0
176
     1
290
     0
176
     1
 93
        1
176
     1
 44
0.0
176
     1
173
     0
176
     1
  0
VISUALSTYLE
  5
36
102
{ACAD_REACTORS
330
2A
102
}
330
2A
100
AcDbVisualStyle
  2
Brighten
 70
    12
177
     2
291
     1
 71
     2
176
     1
 72
     2
176
     1
 73
     0
176
     1
 90
        0
176
     1
 40
-0.6
176
     1
 41
-30.0
176
     1
 62
     5
 63
     7
421
 16777215
176
     1
 74
     1
176
     1
 91
        4
176
     1
 64
     7
176
     1
 65
   257
176
     1
 75
     1
176
     1
175
     1
176
     1
 42
1.0
176
     1
 92
        8
176
     1
 66
     7
176
     1
 43
1.0
176
     1
 76
     1
176
     1
 77
     6
176
     1
 78
     2
176
     1
 67
     7
176
     1
 79
     5
176
     1
170
     0
176
     1
171
     0
176
     1
290
     0
176
     1
 93
        1
176
     1
 44
50.0
176
     1
173
     0
176
     1
  0
VISUALSTYLE
  5
3A
102
{ACAD_REACTORS
330
2A
102
}
330
2A
100
AcDbVisualStyle
  2
ColorChange
 70
    16
177
     2
291
     1
 71
     2
176
     1
 72
     2
176
     1
 73
     3
176
     1
 90
        0
176
     1
 40
-0.6
176
     1
 41
-30.0
176
     1
 62
     5
 63
     8
421
  8421504
176
     1
 74
     1
176
     1
 91
        4
176
     1
 64
     7
176
     1
 65
   257
176
     1
 75
     1
176
     1
175
     1
176
     1
 42
1.0
176
     1
 92
        8
176
     1
 66
     8
424
  8421504
176
     1
 43
1.0
176
     1
 76
     1
176
     1
 77
     6
176
     1
 78
     2
176
     1
 67
     7
176
     1
 79
     5
176
     1
170
     0
176
     1
171
     0
176
     1
290
     0
176
     1
 93
        1
176
     1
 44
0.0
176
     1
173
     0
176
     1
  0
VISUALSTYLE
  5
34
102
{ACAD_REACTORS
330
2A
102
}
330
2A
100
AcDbVisualStyle
  2
Conceptual
 70
     9
177
     2
291
     0
 71
     3
176
     1
 72
     2
176
     1
 73
     0
176
     1
 90
        0
176
     1
 40
-0.6
176
     1
 41
-30.0
176
     1
 62
     5
 63
     7
421
 16777215
176
     1
 74
     2
176
     1
 91
        2
176
     1
 64
     7
176
     1
 65
   257
176
     1
 75
     1
176
     1
175
     1
176
     1
 42
40.0
176
     1
 92
        8
176
     1
 66
     7
176
     1
 43
1.0
176
     1
 76
     1
176
     1
 77
     6
176
     1
 78
     2
176
     1
 67
     7
176
     1
 79
     3
176
     1
170
     0
176
     1
171
     0
176
     1
290
     0
176
     1
 93
        1
176
     1
 44
0.0
176
     1
173
     0
176
     1
  0
VISUALSTYLE
  5
35
102
{ACAD_REACTORS
330
2A
102
}
330
2A
100
AcDbVisualStyle
  2
Dim
 70
    11
177
     2
291
     1
 71
     2
176
     1
 72
     2
176
     1
 73
     0
176
     1
 90
        0
176
     1
 40
-0.6
176
     1
 41
-30.0
176
     1
 62
     5
 63
     7
421
 16777215
176
     1
 74
     1
176
     1
 91
        4
176
     1
 64
     7
176
     1
 65
   257
176
     1
 75
     1
176
     1
175
     1
176
     1
 42
1.0
176
     1
 92
        8
176
     1
 66
     7
176
     1
 43
1.0
176
     1
 76
     1
176
     1
 77
     6
176
     1
 78
     2
176
     1
 67
     7
176
     1
 79
     5
176
     1
170
     0
176
     1
171
     0
176
     1
290
     0
176
     1
 93
        1
176
     1
 44
-50.0
176
     1
173
     0
176
     1
  0
VISUALSTYLE
  5
39
102
{ACAD_REACTORS
330
2A
102
}
330
2A
100
AcDbVisualStyle
  2
Facepattern
 70
    15
177
     2
291
     1
 71
     2
176
     1
 72
     2
176
     1
 73
     0
176
     1
 90
        0
176
     1
 40
-0.6
176
     1
 41
-30.0
176
     1
 62
     5
 63
     7
421
 16777215
176
     1
 74
     1
176
     1
 91
        4
176
     1
 64
     7
176
     1
 65
   257
176
     1
 75
     1
176
     1
175
     1
176
     1
 42
1.0
176
     1
 92
        8
176
     1
 66
     7
176
     1
 43
1.0
176
     1
 76
     1
176
     1
 77
     6
176
     1
 78
     2
176
     1
 67
     7
176
     1
 79
     5
176
     1
170
     0
176
     1
171
     0
176
     1
290
     0
176
     1
 93
        1
176
     1
 44
0.0
176
     1
173
     0
176
     1
  0
VISUALSTYLE
  5
2B
102
{ACAD_REACTORS
330
2A
102
}
330
2A
100
AcDbVisualStyle
  2
Flat
 70
     0
177
     2
291
     1
 71
     2
176
     1
 72
     1
176
     1
 73
     1
176
     1
 90
        2
176
     1
 40
-0.6
176
     1
 41
30.0
176
     1
 62
     5
 63
     7
421
 16777215
176
     1
 74
     0
176
     1
 91
        4
176
     1
 64
     7
176
     1
 65
   257
176
     1
 75
     1
176
     1
175
     1
176
     1
 42
1.0
176
     1
 92
        8
176
     1
 66
     7
176
     1
 43
1.0
176
     1
 76
     1
176
     1
 77
     6
176
     1
 78
     2
176
     1
 67
     7
176
     1
 79
     5
176
     1
170
     0
176
     1
171
     0
176
     1
290
     0
176
     1
 93
       13
176
     1
 44
0.0
176
     1
173
     0
176
     1
  0
VISUALSTYLE
  5
2C
102
{ACAD_REACTORS
330
2A
102
}
330
2A
100
AcDbVisualStyle
  2
FlatWithEdges
 70
     1
177
     2
291
     1
 71
     2
176
     1
 72
     1
176
     1
 73
     1
176
     1
 90
        2
176
     1
 40
-0.6
176
     1
 41
30.0
176
     1
 62
     5
 63
     7
421
 16777215
176
     1
 74
     1
176
     1
 91
        4
176
     1
 64
     7
176
     1
 65
   257
176
     1
 75
     1
176
     1
175
     1
176
     1
 42
1.0
176
     1
 92
        0
176
     1
 66
   257
176
     1
 43
1.0
176
     1
 76
     1
176
     1
 77
     6
176
     1
 78
     2
176
     1
 67
     7
176
     1
 79
     5
176
     1
170
     0
176
     1
171
     0
176
     1
290
     0
176
     1
 93
       13
176
     1
 44
0.0
176
     1
173
     0
176
     1
  0
VISUALSTYLE
  5
2D
102
{ACAD_REACTORS
330
2A
102
}
330
2A
100
AcDbVisualStyle
  2
Gouraud
 70
     2
177
     2
291
     1
 71
     2
176
     1
 72
     2
176
     1
 73
     1
176
     1
 90
        2
176
     1
 40
-0.6
176
     1
 41
30.0
176
     1
 62
     5
 63
     7
421
 16777215
176
     1
 74
     0
176
     1
 91
        4
176
     1
 64
     7
176
     1
 65
   257
176
     1
 75
     1
176
     1
175
     1
176
     1
 42
1.0
176
     1
 92
        0
176
     1
 66
     7
176
     1
 43
1.0
176
     1
 76
     1
176
     1
 77
     6
176
     1
 78
     2
176
     1
 67
     7
176
     1
 79
     5
176
     1
170
     0
176
     1
171
     0
176
     1
290
     0
176
     1
 93
       13
176
     1
 44
0.0
176
     1
173
     0
176
     1
  0
VISUALSTYLE
  5
2E
102
{ACAD_REACTORS
330
2A
102
}
330
2A
100
AcDbVisualStyle
  2
GouraudWithEdges
 70
     3
177
     2
291
     1
 71
     2
176
     1
 72
     2
176
     1
 73
     1
176
     1
 90
        2
176
     1
 40
-0.6
176
     1
 41
30.0
176
     1
 62
     5
 63
     7
421
 16777215
176
     1
 74
     1
176
     1
 91
        4
176
     1
 64
     7
176
     1
 65
   257
176
     1
 75
     1
176
     1
175
     1
176
     1
 42
1.0
176
     1
 92
        0
176
     1
 66
   257
176
     1
 43
1.0
176
     1
 76
     1
176
     1
 77
     6
176
     1
 78
     2
176
     1
 67
     7
176
     1
 79
     5
176
     1
170
     0
176
     1
171
     0
176
     1
290
     0
176
     1
 93
       13
176
     1
 44
0.0
176
     1
173
     0
176
     1
  0
VISUALSTYLE
  5
38
102
{ACAD_REACTORS
330
2A
102
}
330
2A
100
AcDbVisualStyle
  2
Linepattern
 70
    14
177
     2
291
     1
 71
     2
176
     1
 72
     2
176
     1
 73
     0
176
     1
 90
        0
176
     1
 40
-0.6
176
     1
 41
-30.0
176
     1
 62
     5
 63
     7
421
 16777215
176
     1
 74
     1
176
     1
 91
        4
176
     1
 64
     7
176
     1
 65
   257
176
     1
 75
     7
176
     1
175
     7
176
     1
 42
1.0
176
     1
 92
        8
176
     1
 66
     7
176
     1
 43
1.0
176
     1
 76
     1
176
     1
 77
     6
176
     1
 78
     2
176
     1
 67
     7
176
     1
 79
     5
176
     1
170
     0
176
     1
171
     0
176
     1
290
     0
176
     1
 93
        1
176
     1
 44
0.0
176
     1
173
     0
176
     1
  0
VISUALSTYLE
  5
33
102
{ACAD_REACTORS
330
2A
102
}
330
2A
100
AcDbVisualStyle
  2
Realistic
 70
     8
177
     2
291
     0
 71
     2
176
     1
 72
     2
176
     1
 73
     0
176
     1
 90
        0
176
     1
 40
-0.6
176
     1
 41
-30.0
176
     1
 62
     5
 63
     7
421
 16777215
176
     1
 74
     1
176
     1
 91
        0
176
     1
 64
     7
176
     1
 65
   257
176
     1
 75
     1
176
     1
175
     1
176
     1
 42
1.0
176
     1
 92
        8
176
     1
 66
     8
424
  7895160
176
     1
 43
1.0
176
     1
 76
     1
176
     1
 77
     6
176
     1
 78
     2
176
     1
 67
     7
176
     1
 79
     5
176
     1
170
     0
176
     1
171
     0
176
     1
290
     0
176
     1
 93
       13
176
     1
 44
0.0
176
     1
173
     0
176
     1
  0
VISUALSTYLE
  5
37
102
{ACAD_REACTORS
330
2A
102
}
330
2A
100
AcDbVisualStyle
  2
Thicken
 70
    13
177
     2
291
     1
 71
     2
176
     1
 72
     2
176
     1
 73
     0
176
     1
 90
        0
176
     1
 40
-0.6
176
     1
 41
-30.0
176
     1
 62
     5
 63
     7
421
 16777215
176
     1
 74
     1
176
     1
 91
        4
176
     1
 64
     7
176
     1
 65
   257
176
     1
 75
     1
176
     1
175
     1
176
     1
 42
1.0
176
     1
 92
       12
176
     1
 66
     7
176
     1
 43
1.0
176
     1
 76
     1
176
     1
 77
     6
176
     1
 78
     2
176
     1
 67
     7
176
     1
 79
     5
176
     1
170
     0
176
     1
171
     0
176
     1
290
     0
176
     1
 93
        1
176
     1
 44
0.0
176
     1
173
     0
176
     1
  0
ENDSEC
  0
EOF
