  0
SECTION
  2
HEADER
  9
$ACADVER
  1
AC1024
  9
$ACADMAINTVER
 70
     6
  9
$DWGCODEPAGE
  3
UNDEFINED
  9
$INSBASE
 10
0.0
 20
0.0
 30
0.0
  9
$EXTMIN
 10
1.000000000000000E+20
 20
1.000000000000000E+20
 30
1.000000000000000E+20
  9
$EXTMAX
 10
-1.000000000000000E+20
 20
-1.000000000000000E+20
 30
-1.000000000000000E+20
  9
$LIMMIN
 10
0.0
 20
0.0
  9
$LIMMAX
 10
12.0
 20
9.0
  9
$ORTHOMODE
 70
     0
  9
$REGENMODE
 70
     1
  9
$FILLMODE
 70
     1
  9
$QTEXTMODE
 70
     0
  9
$MIRRTEXT
 70
     1
  9
$LTSCALE
 40
1.0
  9
$ATTMODE
 70
     1
  9
$TEXTSIZE
 40
0.2
  9
$TRACEWID
 40
0.05
  9
$TEXTSTYLE
  7
Standard
  9
$CLAYER
  8
0
  9
$CELTYPE
  6
ByLayer
  9
$CECOLOR
 62
   256
  9
$CELTSCALE
 40
1.0
  9
$DISPSILH
 70
     0
  9
$DIMSCALE
 40
1.0
  9
$DIMASZ
 40
0.18
  9
$DIMEXO
 40
0.0625
  9
$DIMDLI
 40
0.38
  9
$DIMRND
 40
0.0
  9
$DIMDLE
 40
0.0
  9
$DIMEXE
 40
0.18
  9
$DIMTP
 40
0.0
  9
$DIMTM
 40
0.0
  9
$DIMTXT
 40
0.18
  9
$DIMCEN
 40
0.09
  9
$DIMTSZ
 40
0.0
  9
$DIMTOL
 70
     0
  9
$DIMLIM
 70
     0
  9
$DIMTIH
 70
     1
  9
$DIMTOH
 70
     1
  9
$DIMSE1
 70
     0
  9
$DIMSE2
 70
     0
  9
$DIMTAD
 70
     0
  9
$DIMZIN
 70
     0
  9
$DIMBLK
  1

  9
$DIMASO
 70
     1
  9
$DIMSHO
 70
     1
  9
$DIMPOST
  1

  9
$DIMAPOST
  1

  9
$DIMALT
 70
     0
  9
$DIMALTD
 70
     2
  9
$DIMALTF
 40
25.4
  9
$DIMLFAC
 40
1.0
  9
$DIMTOFL
 70
     0
  9
$DIMTVP
 40
0.0
  9
$DIMTIX
 70
     0
  9
$DIMSOXD
 70
     0
  9
$DIMSAH
 70
     0
  9
$DIMBLK1
  1

  9
$DIMBLK2
  1

  9
$DIMSTYLE
  2
Standard
  9
$DIMCLRD
 70
     0
  9
$DIMCLRE
 70
     0
  9
$DIMCLRT
 70
     0
  9
$DIMTFAC
 40
1.0
  9
$DIMGAP
 40
0.09
  9
$DIMJUST
 70
     0
  9
$DIMSD1
 70
     0
  9
$DIMSD2
 70
     0
  9
$DIMTOLJ
 70
     1
  9
$DIMTZIN
 70
     0
  9
$DIMALTZ
 70
     0
  9
$DIMALTTZ
 70
     0
  9
$DIMUPT
 70
     0
  9
$DIMDEC
 70
     4
  9
$DIMTDEC
 70
     4
  9
$DIMALTU
 70
     2
  9
$DIMALTTD
 70
     2
  9
$DIMTXSTY
  7
Standard
  9
$DIMAUNIT
 70
     0
  9
$DIMADEC
 70
     0
  9
$DIMALTRND
 40
0.0
  9
$DIMAZIN
 70
     0
  9
$DIMDSEP
 70
    46
  9
$DIMATFIT
 70
     3
  9
$DIMFRAC
 70
     0
  9
$DIMLDRBLK
  1

  9
$DIMLUNIT
 70
     2
  9
$DIMLWD
 70
    -2
  9
$DIMLWE
 70
    -2
  9
$DIMTMOVE
 70
     0
  9
$DIMFXL
 40
1.0
  9
$DIMFXLON
 70
     0
  9
$DIMJOGANG
 40
0.7853981633974483
  9
$DIMTFILL
 70
     0
  9
$DIMTFILLCLR
 70
     0
  9
$DIMARCSYM
 70
     0
  9
$DIMLTYPE
  6

  9
$DIMLTEX1
  6

  9
$DIMLTEX2
  6

  9
$DIMTXTDIRECTION
 70
     0
  9
$LUNITS
 70
     2
  9
$LUPREC
 70
     4
  9
$SKETCHINC
 40
0.1
  9
$FILLETRAD
 40
0.5
  9
$AUNITS
 70
     0
  9
$AUPREC
 70
     0
  9
$MENU
  1
.
  9
$ELEVATION
 40
0.0
  9
$PELEVATION
 40
0.0
  9
$THICKNESS
 40
0.0
  9
$LIMCHECK
 70
     0
  9
$CHAMFERA
 40
0.5
  9
$CHAMFERB
 40
0.5
  9
$CHAMFERC
 40
1.0
  9
$CHAMFERD
 40
0.0
  9
$SKPOLY
 70
     0
  9
$TDCREATE
 40
2458263.577164352
  9
$TDUCREATE
 40
2458263.202164352
  9
$TDUPDATE
 40
2458263.577164352
  9
$TDUUPDATE
 40
2458263.202164352
  9
$TDINDWG
 40
0.0000000116
  9
$TDUSRTIMER
 40
0.0000000116
  9
$USRTIMER
 70
     1
  9
$ANGBASE
 50
0.0
  9
$ANGDIR
 70
     0
  9
$PDMODE
 70
     0
  9
$PDSIZE
 40
0.0
  9
$PLINEWID
 40
0.0
  9
$SPLFRAME
 70
     0
  9
$SPLINETYPE
 70
     6
  9
$SPLINESEGS
 70
     8
  9
$HANDSEED
  5
EF
  9
$SURFTAB1
 70
     6
  9
$SURFTAB2
 70
     6
  9
$SURFTYPE
 70
     6
  9
$SURFU
 70
     6
  9
$SURFV
 70
     6
  9
$UCSBASE
  2

  9
$UCSNAME
  2

  9
$UCSORG
 10
0.0
 20
0.0
 30
0.0
  9
$UCSXDIR
 10
1.0
 20
0.0
 30
0.0
  9
$UCSYDIR
 10
0.0
 20
1.0
 30
0.0
  9
$UCSORTHOREF
  2

  9
$UCSORTHOVIEW
 70
     0
  9
$UCSORGTOP
 10
0.0
 20
0.0
 30
0.0
  9
$UCSORGBOTTOM
 10
0.0
 20
0.0
 30
0.0
  9
$UCSORGLEFT
 10
0.0
 20
0.0
 30
0.0
  9
$UCSORGRIGHT
 10
0.0
 20
0.0
 30
0.0
  9
$UCSORGFRONT
 10
0.0
 20
0.0
 30
0.0
  9
$UCSORGBACK
 10
0.0
 20
0.0
 30
0.0
  9
$PUCSBASE
  2

  9
$PUCSNAME
  2

  9
$PUCSORG
 10
0.0
 20
0.0
 30
0.0
  9
$PUCSXDIR
 10
1.0
 20
0.0
 30
0.0
  9
$PUCSYDIR
 10
0.0
 20
1.0
 30
0.0
  9
$PUCSORTHOREF
  2

  9
$PUCSORTHOVIEW
 70
     0
  9
$PUCSORGTOP
 10
0.0
 20
0.0
 30
0.0
  9
$PUCSORGBOTTOM
 10
0.0
 20
0.0
 30
0.0
  9
$PUCSORGLEFT
 10
0.0
 20
0.0
 30
0.0
  9
$PUCSORGRIGHT
 10
0.0
 20
0.0
 30
0.0
  9
$PUCSORGFRONT
 10
0.0
 20
0.0
 30
0.0
  9
$PUCSORGBACK
 10
0.0
 20
0.0
 30
0.0
  9
$USERI1
 70
     0
  9
$USERI2
 70
     0
  9
$USERI3
 70
     0
  9
$USERI4
 70
     0
  9
$USERI5
 70
     0
  9
$USERR1
 40
0.0
  9
$USERR2
 40
0.0
  9
$USERR3
 40
0.0
  9
$USERR4
 40
0.0
  9
$USERR5
 40
0.0
  9
$WORLDVIEW
 70
     1
  9
$SHADEDGE
 70
     3
  9
$SHADEDIF
 70
    70
  9
$TILEMODE
 70
     1
  9
$MAXACTVP
 70
    64
  9
$PINSBASE
 10
0.0
 20
0.0
 30
0.0
  9
$PLIMCHECK
 70
     0
  9
$PEXTMIN
 10
1.000000000000000E+20
 20
1.000000000000000E+20
 30
1.000000000000000E+20
  9
$PEXTMAX
 10
-1.000000000000000E+20
 20
-1.000000000000000E+20
 30
-1.000000000000000E+20
  9
$PLIMMIN
 10
0.0
 20
0.0
  9
$PLIMMAX
 10
12.0
 20
9.0
  9
$UNITMODE
 70
     0
  9
$VISRETAIN
 70
     1
  9
$PLINEGEN
 70
     0
  9
$PSLTSCALE
 70
     1
  9
$TREEDEPTH
 70
  3020
  9
$CMLSTYLE
  2
Standard
  9
$CMLJUST
 70
     0
  9
$CMLSCALE
 40
1.0
  9
$PROXYGRAPHICS
 70
     1
  9
$MEASUREMENT
 70
     0
  9
$CELWEIGHT
370
    -1
  9
$ENDCAPS
280
     0
  9
$JOINSTYLE
280
     0
  9
$LWDISPLAY
290
     1
  9
$INSUNITS
 70
     1
  9
$HYPERLINKBASE
  1

  9
$STYLESHEET
  1

  9
$XEDIT
290
     1
  9
$CEPSNTYPE
380
     0
  9
$PSTYLEMODE
290
     1
  9
$FINGERPRINTGUID
  2
{F44DD4FF-D68C-9936-5C6F-3C69984DC7DC}
  9
$VERSIONGUID
  2
{FAEB1C32-E019-11D5-929B-00C0DF256EC4}
  9
$EXTNAMES
290
     1
  9
$PSVPSCALE
 40
0.0
  9
$OLESTARTUP
290
     0
  9
$SORTENTS
280
   127
  9
$INDEXCTL
280
     0
  9
$HIDETEXT
280
     1
  9
$XCLIPFRAME
280
     2
  9
$HALOGAP
280
     0
  9
$OBSCOLOR
 70
   257
  9
$OBSLTYPE
280
     0
  9
$INTERSECTIONDISPLAY
280
     0
  9
$INTERSECTIONCOLOR
 70
   257
  9
$DIMASSOC
280
     2
  9
$PROJECTNAME
  1

  9
$CAMERADISPLAY
290
     0
  9
$LENSLENGTH
 40
50.0
  9
$CAMERAHEIGHT
 40
0.0
  9
$STEPSPERSEC
 40
2.0
  9
$STEPSIZE
 40
6.0
  9
$3DDWFPREC
 40
2.0
  9
$PSOLWIDTH
 40
0.25
  9
$PSOLHEIGHT
 40
4.0
  9
$LOFTANG1
 40
1.570796326794897
  9
$LOFTANG2
 40
1.570796326794897
  9
$LOFTMAG1
 40
0.0
  9
$LOFTMAG2
 40
0.0
  9
$LOFTPARAM
 70
     7
  9
$LOFTNORMALS
280
     1
  9
$LATITUDE
 40
37.795
  9
$LONGITUDE
 40
-122.394
  9
$NORTHDIRECTION
 40
0.0
  9
$TIMEZONE
 70
 -8000
  9
$LIGHTGLYPHDISPLAY
280
     1
  9
$TILEMODELIGHTSYNCH
280
     1
  9
$CMATERIAL
347
3C
  9
$SOLIDHIST
280
     1
  9
$SHOWHIST
280
     1
  9
$DWFFRAME
280
     2
  9
$DGNFRAME
280
     2
  9
$REALWORLDSCALE
290
     1
  9
$INTERFERECOLOR
 62
   256
  9
$CSHADOW
280
     0
  9
$SHADOWPLANELOCATION
 40
0.0
  0
ENDSEC
  0
SECTION
  2
CLASSES
  0
CLASS
  1
ACDBDICTIONARYWDFLT
  2
AcDbDictionaryWithDefault
  3
ObjectDBX Classes
 90
        0
 91
        4
280
     0
281
     0
  0
CLASS
  1
VISUALSTYLE
  2
AcDbVisualStyle
  3
ObjectDBX Classes
 90
     4095
 91
        4
280
     0
281
     0
  0
CLASS
  1
MATERIAL
  2
AcDbMaterial
  3
ObjectDBX Classes
 90
     1153
 91
        4
280
     0
281
     0
  0
CLASS
  1
SUN
  2
AcDbSun
  3
SCENEOE
 90
     1024
 91
        4
280
     0
281
     0
  0
ENDSEC
  0
SECTION
  2
TABLES
  0
TABLE
  2
VPORT
  5
8
330
0
100
AcDbSymbolTable
 70
     1
  0
VPORT
  5
29
330
8
100
AcDbSymbolTableRecord
100
AcDbViewportTableRecord
  2
*Active
 70
     0
 10
0.0
 20
0.0
 11
1.0
 21
1.0
 12
0.0
 22
0.0
 13
0.0
 23
0.0
 14
0.5
 24
0.5
 15
0.5
 25
0.5
 16
0.0
 26
0.0
 36
1.0
 17
105.0007777515277
 27
-148.5000416295416
 37
0.0
 40
297.0000832590831
 41
0.7070757462376333
 42
50.0
 43
0.0
 44
0.0
 50
0.0
 51
0.0
 71
     0
 72
   100
 73
     1
 74
     3
 75
     0
 76
     0
 77
     0
 78
     0
281
     0
 65
     1
110
0.0
120
0.0
130
0.0
111
1.0
121
0.0
131
0.0
112
0.0
122
1.0
132
0.0
 79
     0
146
0.0
 60
     3
 61
     5
292
     1
282
     1
141
0.0
142
0.0
 63
   250
361
3F
  0
ENDTAB
  0
TABLE
  2
LTYPE
  5
5
330
0
100
AcDbSymbolTable
 70
     1
  0
LTYPE
  5
14
330
5
100
AcDbSymbolTableRecord
100
AcDbLinetypeTableRecord
  2
ByBlock
 70
     0
  3

 72
    65
 73
     0
 40
0.0
  0
LTYPE
  5
15
330
5
100
AcDbSymbolTableRecord
100
AcDbLinetypeTableRecord
  2
ByLayer
 70
     0
  3

 72
    65
 73
     0
 40
0.0
  0
LTYPE
  5
16
330
5
100
AcDbSymbolTableRecord
100
AcDbLinetypeTableRecord
  2
Continuous
 70
     0
  3
Solid line
 72
    65
 73
     0
 40
0.0
  0
ENDTAB
  0
TABLE
  2
LAYER
  5
2
330
0
100
AcDbSymbolTable
 70
     2
  0
LAYER
  5
10
330
2
100
AcDbSymbolTableRecord
100
AcDbLayerTableRecord
  2
0
 70
     0
 62
     7
  6
Continuous
370
    -3
390
F
347
3E
  0
LAYER
  5
40
330
2
100
AcDbSymbolTableRecord
100
AcDbLayerTableRecord
  2
_U+30EC_U+30A4_U+30E4_U+30FC 1
 70
     0
 62
     7
  6
Continuous
370
    -3
390
F
347
3E
  0
ENDTAB
  0
TABLE
  2
STYLE
  5
3
330
0
100
AcDbSymbolTable
 70
     1
  0
STYLE
  5
11
330
3
100
AcDbSymbolTableRecord
100
AcDbTextStyleTableRecord
  2
Standard
 70
     0
 40
0.0
 41
1.0
 50
0.0
 71
     0
 42
0.2
  3
txt
  4

  0
ENDTAB
  0
TABLE
  2
VIEW
  5
6
330
0
100
AcDbSymbolTable
 70
     0
  0
ENDTAB
  0
TABLE
  2
UCS
  5
7
330
0
100
AcDbSymbolTable
 70
     0
  0
ENDTAB
  0
TABLE
  2
APPID
  5
9
330
0
100
AcDbSymbolTable
 70
     1
  0
APPID
  5
12
330
9
100
AcDbSymbolTableRecord
100
AcDbRegAppTableRecord
  2
ACAD
 70
     0
  0
ENDTAB
  0
TABLE
  2
DIMSTYLE
  5
A
330
0
100
AcDbSymbolTable
 70
     1
100
AcDbDimStyleTable
  0
DIMSTYLE
105
27
330
A
100
AcDbSymbolTableRecord
100
AcDbDimStyleTableRecord
  2
Standard
 70
     0
178
     0
340
11
  0
ENDTAB
  0
TABLE
  2
BLOCK_RECORD
  5
1
330
0
100
AcDbSymbolTable
 70
     6
  0
BLOCK_RECORD
  5
1F
330
1
100
AcDbSymbolTableRecord
100
AcDbBlockTableRecord
  2
*Model_Space
340
22
 70
     0
280
     1
281
     0
  0
BLOCK_RECORD
  5
1B
330
1
100
AcDbSymbolTableRecord
100
AcDbBlockTableRecord
  2
*Paper_Space
340
1E
 70
     0
280
     1
281
     0
  0
BLOCK_RECORD
  5
23
330
1
100
AcDbSymbolTableRecord
100
AcDbBlockTableRecord
  2
*Paper_Space0
340
26
 70
     0
280
     1
281
     0
  0
BLOCK_RECORD
  5
41
330
1
100
AcDbSymbolTableRecord
100
AcDbBlockTableRecord
  2
block 2
340
0
102
{BLKREFS
331
42
102
}
 70
     0
280
     1
281
     0
  0
BLOCK_RECORD
  5
47
330
1
100
AcDbSymbolTableRecord
100
AcDbBlockTableRecord
  2
block 3
340
0
102
{BLKREFS
331
48
102
}
 70
     0
280
     1
281
     0
  0
BLOCK_RECORD
  5
4F
330
1
100
AcDbSymbolTableRecord
100
AcDbBlockTableRecord
  2
block 4
340
0
102
{BLKREFS
331
50
102
}
 70
     0
280
     1
281
     0
  0
BLOCK_RECORD
  5
58
330
1
100
AcDbSymbolTableRecord
100
AcDbBlockTableRecord
  2
block 5
340
0
102
{BLKREFS
331
59
102
}
 70
     0
280
     1
281
     0
  0
BLOCK_RECORD
  5
61
330
1
100
AcDbSymbolTableRecord
100
AcDbBlockTableRecord
  2
block 6
340
0
102
{BLKREFS
331
62
102
}
 70
     0
280
     1
281
     0
  0
ENDTAB
  0
ENDSEC
  0
SECTION
  2
BLOCKS
  0
BLOCK
  5
20
330
1F
100
AcDbEntity
  8
0
100
AcDbBlockBegin
  2
*Model_Space
 70
     0
 10
0.0
 20
0.0
 30
0.0
  3
*Model_Space
  1

  0
ENDBLK
  5
21
330
1F
100
AcDbEntity
  8
0
100
AcDbBlockEnd
  0
BLOCK
  5
1C
330
1B
100
AcDbEntity
 67
     1
  8
0
100
AcDbBlockBegin
  2
*Paper_Space
 70
     0
 10
0.0
 20
0.0
 30
0.0
  3
*Paper_Space
  1

  0
ENDBLK
  5
1D
330
1B
100
AcDbEntity
 67
     1
  8
0
100
AcDbBlockEnd
  0
BLOCK
  5
24
330
23
100
AcDbEntity
  8
0
100
AcDbBlockBegin
  2
*Paper_Space0
 70
     0
 10
0.0
 20
0.0
 30
0.0
  3
*Paper_Space0
  1

  0
ENDBLK
  5
25
330
23
100
AcDbEntity
  8
0
100
AcDbBlockEnd
  0
BLOCK
  5
43
330
41
100
AcDbEntity
  8
0
100
AcDbBlockBegin
  2
block 2
 70
     0
 10
0.0
 20
0.0
 30
0.0
  3
block 2
  1

  0
SPLINE
  5
45
330
41
100
AcDbEntity
  8
_U+30EC_U+30A4_U+30E4_U+30FC 1
370
     0
100
AcDbSpline
210
0.0
220
0.0
230
1.0
 70
    11
 71
     3
 72
    26
 73
    22
 74
     0
 42
0.0000000001
 43
0.0000000001
 12
1.0
 22
0.0
 32
0.0
 13
1.0
 23
0.0
 33
0.0
 40
0.0
 40
0.0
 40
0.0
 40
0.0
 40
1.0
 40
1.0
 40
1.0
 40
2.0
 40
2.0
 40
2.0
 40
3.0
 40
3.0
 40
3.0
 40
4.0
 40
4.0
 40
4.0
 40
5.0
 40
5.0
 40
5.0
 40
6.0
 40
6.0
 40
6.0
 40
7.0
 40
7.0
 40
7.0
 40
7.0
 10
118.8992024442335
 20
-135.3671033732763
 30
0.0
 10
118.8992024442335
 20
-135.3671033732763
 30
0.0
 10
117.7947048316624
 20
-135.3671033732763
 30
0.0
 10
117.7947048316624
 20
-135.3671033732763
 30
0.0
 10
117.7947048316624
 20
-135.3671033732763
 30
0.0
 10
117.7947048316624
 20
-135.696971265989
 30
0.0
 10
117.7947048316624
 20
-135.696971265989
 30
0.0
 10
117.7947048316624
 20
-135.696971265989
 30
0.0
 10
117.6465657257967
 20
-135.696971265989
 30
0.0
 10
117.6465657257967
 20
-135.696971265989
 30
0.0
 10
117.6320963247586
 20
-135.3646918064366
 30
0.0
 10
117.4687987987578
 20
-135.3181830173857
 30
0.0
 10
117.354766138196
 20
-135.2885551962126
 30
0.0
 10
117.354766138196
 20
-135.2885551962126
 30
0.0
 10
117.354766138196
 20
-135.1428276571865
 30
0.0
 10
117.354766138196
 20
-135.1428276571865
 30
0.0
 10
117.354766138196
 20
-135.1428276571865
 30
0.0
 10
118.8992024442335
 20
-135.1428276571865
 30
0.0
 10
118.8992024442335
 20
-135.1428276571865
 30
0.0
 10
118.8992024442335
 20
-135.1428276571865
 30
0.0
 10
118.8992024442335
 20
-135.3671033732763
 30
0.0
 10
118.8992024442335
 20
-135.3671033732763
 30
0.0
  0
HATCH
  5
46
330
41
100
AcDbEntity
  8
_U+30EC_U+30A4_U+30E4_U+30FC 1
 62
   179
420
  2234388
100
AcDbHatch
 10
0.0
 20
0.0
 30
0.0
210
0.0
220
0.0
230
1.0
  2
SOLID
 70
     1
 71
     0
 91
        1
 92
        1
 93
        1
 72
     4
 94
        3
 73
     0
 74
     1
 95
       26
 96
       22
 40
0.0
 40
0.0
 40
0.0
 40
0.0
 40
1.0
 40
1.0
 40
1.0
 40
2.0
 40
2.0
 40
2.0
 40
3.0
 40
3.0
 40
3.0
 40
4.0
 40
4.0
 40
4.0
 40
5.0
 40
5.0
 40
5.0
 40
6.0
 40
6.0
 40
6.0
 40
7.0
 40
7.0
 40
7.0
 40
7.0
 10
118.8992024442335
 20
-135.3671033732763
 10
118.8992024442335
 20
-135.3671033732763
 10
117.7947048316624
 20
-135.3671033732763
 10
117.7947048316624
 20
-135.3671033732763
 10
117.7947048316624
 20
-135.3671033732763
 10
117.7947048316624
 20
-135.696971265989
 10
117.7947048316624
 20
-135.696971265989
 10
117.7947048316624
 20
-135.696971265989
 10
117.6465657257967
 20
-135.696971265989
 10
117.6465657257967
 20
-135.696971265989
 10
117.6320963247586
 20
-135.3646918064366
 10
117.4687987987578
 20
-135.3181830173857
 10
117.354766138196
 20
-135.2885551962126
 10
117.354766138196
 20
-135.2885551962126
 10
117.354766138196
 20
-135.1428276571865
 10
117.354766138196
 20
-135.1428276571865
 10
117.354766138196
 20
-135.1428276571865
 10
118.8992024442335
 20
-135.1428276571865
 10
118.8992024442335
 20
-135.1428276571865
 10
118.8992024442335
 20
-135.1428276571865
 10
118.8992024442335
 20
-135.3671033732763
 10
118.8992024442335
 20
-135.3671033732763
 97
        0
 97
        0
 75
     2
 76
     1
 98
        0
  0
ENDBLK
  5
44
330
41
100
AcDbEntity
  8
0
100
AcDbBlockEnd
  0
BLOCK
  5
49
330
47
100
AcDbEntity
  8
0
100
AcDbBlockBegin
  2
block 3
 70
     0
 10
0.0
 20
0.0
 30
0.0
  3
block 3
  1

  0
SPLINE
  5
4B
330
47
100
AcDbEntity
  8
_U+30EC_U+30A4_U+30E4_U+30FC 1
370
     0
100
AcDbSpline
210
0.0
220
0.0
230
1.0
 70
    11
 71
     3
 72
    26
 73
    22
 74
     0
 42
0.0000000001
 43
0.0000000001
 12
1.0
 22
0.0
 32
0.0
 13
1.0
 23
0.0
 33
0.0
 40
0.0
 40
0.0
 40
0.0
 40
0.0
 40
1.0
 40
1.0
 40
1.0
 40
2.0
 40
2.0
 40
2.0
 40
3.0
 40
3.0
 40
3.0
 40
4.0
 40
4.0
 40
4.0
 40
5.0
 40
5.0
 40
5.0
 40
6.0
 40
6.0
 40
6.0
 40
7.0
 40
7.0
 40
7.0
 40
7.0
 10
118.7827582168321
 20
-146.0245062568967
 30
0.0
 10
118.7827582168321
 20
-146.0245062568967
 30
0.0
 10
117.678260604261
 20
-146.0245062568967
 30
0.0
 10
117.678260604261
 20
-146.0245062568967
 30
0.0
 10
117.678260604261
 20
-146.0245062568967
 30
0.0
 10
117.678260604261
 20
-146.3543741496093
 30
0.0
 10
117.678260604261
 20
-146.3543741496093
 30
0.0
 10
117.678260604261
 20
-146.3543741496093
 30
0.0
 10
117.5301214983952
 20
-146.3543741496093
 30
0.0
 10
117.5301214983952
 20
-146.3543741496093
 30
0.0
 10
117.5156520973572
 20
-146.022094690057
 30
0.0
 10
117.3523545713564
 20
-145.9755859010061
 30
0.0
 10
117.2383219107946
 20
-145.945958079833
 30
0.0
 10
117.2383219107946
 20
-145.945958079833
 30
0.0
 10
117.2383219107946
 20
-145.8002305408069
 30
0.0
 10
117.2383219107946
 20
-145.8002305408069
 30
0.0
 10
117.2383219107946
 20
-145.8002305408069
 30
0.0
 10
118.7827582168321
 20
-145.8002305408069
 30
0.0
 10
118.7827582168321
 20
-145.8002305408069
 30
0.0
 10
118.7827582168321
 20
-145.8002305408069
 30
0.0
 10
118.7827582168321
 20
-146.0245062568967
 30
0.0
 10
118.7827582168321
 20
-146.0245062568967
 30
0.0
  0
HATCH
  5
4C
330
47
100
AcDbEntity
  8
_U+30EC_U+30A4_U+30E4_U+30FC 1
 62
   179
420
  2234388
100
AcDbHatch
 10
0.0
 20
0.0
 30
0.0
210
0.0
220
0.0
230
1.0
  2
SOLID
 70
     1
 71
     0
 91
        1
 92
        1
 93
        1
 72
     4
 94
        3
 73
     0
 74
     1
 95
       26
 96
       22
 40
0.0
 40
0.0
 40
0.0
 40
0.0
 40
1.0
 40
1.0
 40
1.0
 40
2.0
 40
2.0
 40
2.0
 40
3.0
 40
3.0
 40
3.0
 40
4.0
 40
4.0
 40
4.0
 40
5.0
 40
5.0
 40
5.0
 40
6.0
 40
6.0
 40
6.0
 40
7.0
 40
7.0
 40
7.0
 40
7.0
 10
118.7827582168321
 20
-146.0245062568967
 10
118.7827582168321
 20
-146.0245062568967
 10
117.678260604261
 20
-146.0245062568967
 10
117.678260604261
 20
-146.0245062568967
 10
117.678260604261
 20
-146.0245062568967
 10
117.678260604261
 20
-146.3543741496093
 10
117.678260604261
 20
-146.3543741496093
 10
117.678260604261
 20
-146.3543741496093
 10
117.5301214983952
 20
-146.3543741496093
 10
117.5301214983952
 20
-146.3543741496093
 10
117.5156520973572
 20
-146.022094690057
 10
117.3523545713564
 20
-145.9755859010061
 10
117.2383219107946
 20
-145.945958079833
 10
117.2383219107946
 20
-145.945958079833
 10
117.2383219107946
 20
-145.8002305408069
 10
117.2383219107946
 20
-145.8002305408069
 10
117.2383219107946
 20
-145.8002305408069
 10
118.7827582168321
 20
-145.8002305408069
 10
118.7827582168321
 20
-145.8002305408069
 10
118.7827582168321
 20
-145.8002305408069
 10
118.7827582168321
 20
-146.0245062568967
 10
118.7827582168321
 20
-146.0245062568967
 97
        0
 97
        0
 75
     2
 76
     1
 98
        0
  0
SPLINE
  5
4D
330
47
100
AcDbEntity
  8
_U+30EC_U+30A4_U+30E4_U+30FC 1
370
     0
100
AcDbSpline
210
0.0
220
0.0
230
1.0
 70
    11
 71
     3
 72
    62
 73
    58
 74
     0
 42
0.0000000001
 43
0.0000000001
 12
1.0
 22
0.0
 32
0.0
 13
1.0
 23
0.0
 33
0.0
 40
0.0
 40
0.0
 40
0.0
 40
0.0
 40
1.0
 40
1.0
 40
1.0
 40
2.0
 40
2.0
 40
2.0
 40
3.0
 40
3.0
 40
3.0
 40
4.0
 40
4.0
 40
4.0
 40
5.0
 40
5.0
 40
5.0
 40
6.0
 40
6.0
 40
6.0
 40
7.0
 40
7.0
 40
7.0
 40
8.0
 40
8.0
 40
8.0
 40
9.0
 40
9.0
 40
9.0
 40
10.0
 40
10.0
 40
10.0
 40
11.0
 40
11.0
 40
11.0
 40
12.0
 40
12.0
 40
12.0
 40
13.0
 40
13.0
 40
13.0
 40
14.0
 40
14.0
 40
14.0
 40
15.0
 40
15.0
 40
15.0
 40
16.0
 40
16.0
 40
16.0
 40
17.0
 40
17.0
 40
17.0
 40
18.0
 40
18.0
 40
18.0
 40
19.0
 40
19.0
 40
19.0
 40
19.0
 10
118.8334011204653
 20
-144.8070095124094
 30
0.0
 10
118.8334011204653
 20
-144.9024386573508
 30
0.0
 10
118.8123860380052
 20
-145.1201686920186
 30
0.0
 10
118.6260063722532
 20
-145.2452256581331
 30
0.0
 10
118.5140407689826
 20
-145.319295211066
 30
0.0
 10
118.4144775094589
 20
-145.3234293256483
 30
0.0
 10
118.3300726700703
 20
-145.3275634402306
 30
0.0
 10
118.3300726700703
 20
-145.3275634402306
 30
0.0
 10
118.3300726700703
 20
-145.1074218387232
 30
0.0
 10
118.3300726700703
 20
-145.1074218387232
 30
0.0
 10
118.4037977134546
 20
-145.105354781432
 30
0.0
 10
118.6387532255487
 20
-145.0950194949762
 30
0.0
 10
118.6387532255487
 20
-144.8114881365402
 30
0.0
 10
118.6387532255487
 20
-144.6740288266787
 30
0.0
 10
118.5691622967466
 20
-144.5214110966822
 30
0.0
 10
118.340407956526
 20
-144.5214110966822
 30
0.0
 10
118.2239637291246
 20
-144.5214110966822
 30
0.0
 10
118.1753878827825
 20
-144.5596516565684
 30
0.0
 10
118.1436930043183
 20
-144.5913465350327
 30
0.0
 10
118.0696234513854
 20
-144.6654160879656
 30
0.0
 10
118.0572211076385
 20
-144.7818603153671
 30
0.0
 10
118.0572211076385
 20
-144.8366373335825
 30
0.0
 10
118.0572211076385
 20
-144.8559298682999
 30
0.0
 10
118.0592881649296
 20
-144.8917588613465
 30
0.0
 10
118.0634222795119
 20
-144.9193196252285
 30
0.0
 10
118.0634222795119
 20
-144.9193196252285
 30
0.0
 10
117.8684298750468
 20
-144.9193196252285
 30
0.0
 10
117.8684298750468
 20
-144.9193196252285
 30
0.0
 10
117.8749755564688
 20
-144.8810790653422
 30
0.0
 10
117.8773871233084
 20
-144.8390489004222
 30
0.0
 10
117.8773871233084
 20
-144.8325032190002
 30
0.0
 10
117.8773871233084
 20
-144.7670464047805
 30
0.0
 10
117.8560275312999
 20
-144.5682643952815
 30
0.0
 10
117.6190049619147
 20
-144.5682643952815
 30
0.0
 10
117.4412380348758
 20
-144.5682643952815
 30
0.0
 10
117.3861165071118
 20
-144.699178023721
 30
0.0
 10
117.3861165071118
 20
-144.809421079249
 30
0.0
 10
117.3861165071118
 20
-145.0736599029677
 30
0.0
 10
117.6190049619147
 20
-145.0822726416808
 30
0.0
 10
117.6910074575564
 20
-145.0864067562631
 30
0.0
 10
117.6910074575564
 20
-145.0864067562631
 30
0.0
 10
117.6910074575564
 20
-145.2896673898929
 30
0.0
 10
117.6910074575564
 20
-145.2896673898929
 30
0.0
 10
117.5659504914419
 20
-145.2810546511797
 30
0.0
 10
117.1897460644526
 20
-145.2534938872977
 30
0.0
 10
117.1897460644526
 20
-144.7966742259536
 30
0.0
 10
117.1897460644526
 20
-144.5723985098639
 30
0.0
 10
117.3165255783098
 20
-144.3312418258964
 30
0.0
 10
117.6128037900413
 20
-144.3312418258964
 30
0.0
 10
117.7988389462447
 20
-144.3312418258964
 30
0.0
 10
117.8815212378907
 20
-144.4263264612892
 30
0.0
 10
117.9428439375282
 20
-144.525889720813
 30
0.0
 10
117.9704047014102
 20
-144.4645670211755
 30
0.0
 10
118.0506754262165
 20
-144.2826659795543
 30
0.0
 10
118.3280056127791
 20
-144.2826659795543
 30
0.0
 10
118.6663139894306
 20
-144.2826659795543
 30
0.0
 10
118.8334011204653
 20
-144.5300238353953
 30
0.0
 10
118.8334011204653
 20
-144.8070095124094
 30
0.0
  0
HATCH
  5
4E
330
47
100
AcDbEntity
  8
_U+30EC_U+30A4_U+30E4_U+30FC 1
 62
   179
420
  2234388
100
AcDbHatch
 10
0.0
 20
0.0
 30
0.0
210
0.0
220
0.0
230
1.0
  2
SOLID
 70
     1
 71
     0
 91
        1
 92
        1
 93
        1
 72
     4
 94
        3
 73
     0
 74
     1
 95
       62
 96
       58
 40
0.0
 40
0.0
 40
0.0
 40
0.0
 40
1.0
 40
1.0
 40
1.0
 40
2.0
 40
2.0
 40
2.0
 40
3.0
 40
3.0
 40
3.0
 40
4.0
 40
4.0
 40
4.0
 40
5.0
 40
5.0
 40
5.0
 40
6.0
 40
6.0
 40
6.0
 40
7.0
 40
7.0
 40
7.0
 40
8.0
 40
8.0
 40
8.0
 40
9.0
 40
9.0
 40
9.0
 40
10.0
 40
10.0
 40
10.0
 40
11.0
 40
11.0
 40
11.0
 40
12.0
 40
12.0
 40
12.0
 40
13.0
 40
13.0
 40
13.0
 40
14.0
 40
14.0
 40
14.0
 40
15.0
 40
15.0
 40
15.0
 40
16.0
 40
16.0
 40
16.0
 40
17.0
 40
17.0
 40
17.0
 40
18.0
 40
18.0
 40
18.0
 40
19.0
 40
19.0
 40
19.0
 40
19.0
 10
118.8334011204653
 20
-144.8070095124094
 10
118.8334011204653
 20
-144.9024386573508
 10
118.8123860380052
 20
-145.1201686920186
 10
118.6260063722532
 20
-145.2452256581331
 10
118.5140407689826
 20
-145.319295211066
 10
118.4144775094589
 20
-145.3234293256483
 10
118.3300726700703
 20
-145.3275634402306
 10
118.3300726700703
 20
-145.3275634402306
 10
118.3300726700703
 20
-145.1074218387232
 10
118.3300726700703
 20
-145.1074218387232
 10
118.4037977134546
 20
-145.105354781432
 10
118.6387532255487
 20
-145.0950194949762
 10
118.6387532255487
 20
-144.8114881365402
 10
118.6387532255487
 20
-144.6740288266787
 10
118.5691622967466
 20
-144.5214110966822
 10
118.340407956526
 20
-144.5214110966822
 10
118.2239637291246
 20
-144.5214110966822
 10
118.1753878827825
 20
-144.5596516565684
 10
118.1436930043183
 20
-144.5913465350327
 10
118.0696234513854
 20
-144.6654160879656
 10
118.0572211076385
 20
-144.7818603153671
 10
118.0572211076385
 20
-144.8366373335825
 10
118.0572211076385
 20
-144.8559298682999
 10
118.0592881649296
 20
-144.8917588613465
 10
118.0634222795119
 20
-144.9193196252285
 10
118.0634222795119
 20
-144.9193196252285
 10
117.8684298750468
 20
-144.9193196252285
 10
117.8684298750468
 20
-144.9193196252285
 10
117.8749755564688
 20
-144.8810790653422
 10
117.8773871233084
 20
-144.8390489004222
 10
117.8773871233084
 20
-144.8325032190002
 10
117.8773871233084
 20
-144.7670464047805
 10
117.8560275312999
 20
-144.5682643952815
 10
117.6190049619147
 20
-144.5682643952815
 10
117.4412380348758
 20
-144.5682643952815
 10
117.3861165071118
 20
-144.699178023721
 10
117.3861165071118
 20
-144.809421079249
 10
117.3861165071118
 20
-145.0736599029677
 10
117.6190049619147
 20
-145.0822726416808
 10
117.6910074575564
 20
-145.0864067562631
 10
117.6910074575564
 20
-145.0864067562631
 10
117.6910074575564
 20
-145.2896673898929
 10
117.6910074575564
 20
-145.2896673898929
 10
117.5659504914419
 20
-145.2810546511797
 10
117.1897460644526
 20
-145.2534938872977
 10
117.1897460644526
 20
-144.7966742259536
 10
117.1897460644526
 20
-144.5723985098639
 10
117.3165255783098
 20
-144.3312418258964
 10
117.6128037900413
 20
-144.3312418258964
 10
117.7988389462447
 20
-144.3312418258964
 10
117.8815212378907
 20
-144.4263264612892
 10
117.9428439375282
 20
-144.525889720813
 10
117.9704047014102
 20
-144.4645670211755
 10
118.0506754262165
 20
-144.2826659795543
 10
118.3280056127791
 20
-144.2826659795543
 10
118.6663139894306
 20
-144.2826659795543
 10
118.8334011204653
 20
-144.5300238353953
 10
118.8334011204653
 20
-144.8070095124094
 97
        0
 97
        0
 75
     2
 76
     1
 98
        0
  0
ENDBLK
  5
4A
330
47
100
AcDbEntity
  8
0
100
AcDbBlockEnd
  0
BLOCK
  5
51
330
4F
100
AcDbEntity
  8
0
100
AcDbBlockBegin
  2
block 4
 70
     0
 10
0.0
 20
0.0
 30
0.0
  3
block 4
  1

  0
SPLINE
  5
53
330
4F
100
AcDbEntity
  8
_U+30EC_U+30A4_U+30E4_U+30FC 1
370
     0
100
AcDbSpline
210
0.0
220
0.0
230
1.0
 70
    11
 71
     3
 72
    26
 73
    22
 74
     0
 42
0.0000000001
 43
0.0000000001
 12
1.0
 22
0.0
 32
0.0
 13
1.0
 23
0.0
 33
0.0
 40
0.0
 40
0.0
 40
0.0
 40
0.0
 40
1.0
 40
1.0
 40
1.0
 40
2.0
 40
2.0
 40
2.0
 40
3.0
 40
3.0
 40
3.0
 40
4.0
 40
4.0
 40
4.0
 40
5.0
 40
5.0
 40
5.0
 40
6.0
 40
6.0
 40
6.0
 40
7.0
 40
7.0
 40
7.0
 40
7.0
 10
118.8992024442335
 20
-157.5266465535003
 30
0.0
 10
118.8992024442335
 20
-157.5266465535003
 30
0.0
 10
117.7947048316624
 20
-157.5266465535003
 30
0.0
 10
117.7947048316624
 20
-157.5266465535003
 30
0.0
 10
117.7947048316624
 20
-157.5266465535003
 30
0.0
 10
117.7947048316624
 20
-157.8563421914387
 30
0.0
 10
117.7947048316624
 20
-157.8563421914387
 30
0.0
 10
117.7947048316624
 20
-157.8563421914387
 30
0.0
 10
117.6465657257967
 20
-157.8563421914387
 30
0.0
 10
117.6465657257967
 20
-157.8563421914387
 30
0.0
 10
117.6320963247586
 20
-157.5242349866606
 30
0.0
 10
117.4687987987578
 20
-157.4777261976097
 30
0.0
 10
117.354766138196
 20
-157.4480983764366
 30
0.0
 10
117.354766138196
 20
-157.4480983764366
 30
0.0
 10
117.354766138196
 20
-157.3023708374105
 30
0.0
 10
117.354766138196
 20
-157.3023708374105
 30
0.0
 10
117.354766138196
 20
-157.3023708374105
 30
0.0
 10
118.8992024442335
 20
-157.3023708374105
 30
0.0
 10
118.8992024442335
 20
-157.3023708374105
 30
0.0
 10
118.8992024442335
 20
-157.3023708374105
 30
0.0
 10
118.8992024442335
 20
-157.5266465535003
 30
0.0
 10
118.8992024442335
 20
-157.5266465535003
 30
0.0
  0
HATCH
  5
54
330
4F
100
AcDbEntity
  8
_U+30EC_U+30A4_U+30E4_U+30FC 1
 62
   179
420
  2234388
100
AcDbHatch
 10
0.0
 20
0.0
 30
0.0
210
0.0
220
0.0
230
1.0
  2
SOLID
 70
     1
 71
     0
 91
        1
 92
        1
 93
        1
 72
     4
 94
        3
 73
     0
 74
     1
 95
       26
 96
       22
 40
0.0
 40
0.0
 40
0.0
 40
0.0
 40
1.0
 40
1.0
 40
1.0
 40
2.0
 40
2.0
 40
2.0
 40
3.0
 40
3.0
 40
3.0
 40
4.0
 40
4.0
 40
4.0
 40
5.0
 40
5.0
 40
5.0
 40
6.0
 40
6.0
 40
6.0
 40
7.0
 40
7.0
 40
7.0
 40
7.0
 10
118.8992024442335
 20
-157.5266465535003
 10
118.8992024442335
 20
-157.5266465535003
 10
117.7947048316624
 20
-157.5266465535003
 10
117.7947048316624
 20
-157.5266465535003
 10
117.7947048316624
 20
-157.5266465535003
 10
117.7947048316624
 20
-157.8563421914387
 10
117.7947048316624
 20
-157.8563421914387
 10
117.7947048316624
 20
-157.8563421914387
 10
117.6465657257967
 20
-157.8563421914387
 10
117.6465657257967
 20
-157.8563421914387
 10
117.6320963247586
 20
-157.5242349866606
 10
117.4687987987578
 20
-157.4777261976097
 10
117.354766138196
 20
-157.4480983764366
 10
117.354766138196
 20
-157.4480983764366
 10
117.354766138196
 20
-157.3023708374105
 10
117.354766138196
 20
-157.3023708374105
 10
117.354766138196
 20
-157.3023708374105
 10
118.8992024442335
 20
-157.3023708374105
 10
118.8992024442335
 20
-157.3023708374105
 10
118.8992024442335
 20
-157.3023708374105
 10
118.8992024442335
 20
-157.5266465535003
 10
118.8992024442335
 20
-157.5266465535003
 97
        0
 97
        0
 75
     2
 76
     1
 98
        0
  0
SPLINE
  5
55
330
4F
100
AcDbEntity
  8
_U+30EC_U+30A4_U+30E4_U+30FC 1
370
     0
100
AcDbSpline
210
0.0
220
0.0
230
1.0
 70
    11
 71
     3
 72
    29
 73
    25
 74
     0
 42
0.0000000001
 43
0.0000000001
 12
1.0
 22
0.0
 32
0.0
 13
1.0
 23
0.0
 33
0.0
 40
0.0
 40
0.0
 40
0.0
 40
0.0
 40
1.0
 40
1.0
 40
1.0
 40
2.0
 40
2.0
 40
2.0
 40
3.0
 40
3.0
 40
3.0
 40
4.0
 40
4.0
 40
4.0
 40
5.0
 40
5.0
 40
5.0
 40
6.0
 40
6.0
 40
6.0
 40
7.0
 40
7.0
 40
7.0
 40
8.0
 40
8.0
 40
8.0
 40
8.0
 10
118.7214355171946
 20
-155.902973051302
 30
0.0
 10
118.9308973226978
 20
-156.0111490495389
 30
0.0
 10
118.9498453478667
 20
-156.184437352447
 30
0.0
 10
118.9498453478667
 20
-156.3008815798484
 30
0.0
 10
118.9498453478667
 20
-156.4617675390096
 30
0.0
 10
118.9033365588158
 20
-156.6033609634533
 30
0.0
 10
118.7214355171946
 20
-156.6984455988462
 30
0.0
 10
118.526787622278
 20
-156.8021429729523
 30
0.0
 10
118.2897650528928
 20
-156.8214355076697
 30
0.0
 10
118.1268120364405
 20
-156.8214355076697
 30
0.0
 10
117.9828070451571
 20
-156.8214355076697
 30
0.0
 10
117.7313150747338
 20
-156.8042100302434
 30
0.0
 10
117.5321885556864
 20
-156.6984455988462
 30
0.0
 10
117.3292724316052
 20
-156.5906141101579
 30
0.0
 10
117.306190291854
 20
-156.4297281509967
 30
0.0
 10
117.306190291854
 20
-156.3008815798484
 30
0.0
 10
117.306190291854
 20
-156.1420626779784
 30
0.0
 10
117.3502875140652
 20
-155.9984021962435
 30
0.0
 10
117.5321885556864
 20
-155.902973051302
 30
0.0
 10
117.7251139028604
 20
-155.8037543013268
 30
0.0
 10
117.9531792239839
 20
-155.7803276520272
 30
0.0
 10
118.1268120364405
 20
-155.7803276520272
 30
0.0
 10
118.298377791606
 20
-155.7803276520272
 30
0.0
 10
118.5288546795692
 20
-155.8016872440357
 30
0.0
 10
118.7214355171946
 20
-155.902973051302
 30
0.0
  0
SPLINE
  5
56
330
4F
100
AcDbEntity
  8
_U+30EC_U+30A4_U+30E4_U+30FC 1
370
     0
100
AcDbSpline
210
0.0
220
0.0
230
1.0
 70
    11
 71
     3
 72
    17
 73
    13
 74
     0
 42
0.0000000001
 43
0.0000000001
 12
1.0
 22
0.0
 32
0.0
 13
1.0
 23
0.0
 33
0.0
 40
0.0
 40
0.0
 40
0.0
 40
0.0
 40
1.0
 40
1.0
 40
1.0
 40
2.0
 40
2.0
 40
2.0
 40
3.0
 40
3.0
 40
3.0
 40
4.0
 40
4.0
 40
4.0
 40
4.0
 10
117.498426619931
 20
-156.3008815798484
 30
0.0
 10
117.498426619931
 20
-156.550651002529
 30
0.0
 10
117.781957978367
 20
-156.5971597915799
 30
0.0
 10
118.1268120364405
 20
-156.5971597915799
 30
0.0
 10
118.4465168974717
 20
-156.5971597915799
 30
0.0
 10
118.7551974529501
 20
-156.5609862889848
 30
0.0
 10
118.7551974529501
 20
-156.3008815798484
 30
0.0
 10
118.7551974529501
 20
-156.0531792144589
 30
0.0
 10
118.4737331518052
 20
-156.0046033681169
 30
0.0
 10
118.1268120364405
 20
-156.0046033681169
 30
0.0
 10
117.8074516849579
 20
-156.0046033681169
 30
0.0
 10
117.498426619931
 20
-156.0428439280032
 30
0.0
 10
117.498426619931
 20
-156.3008815798484
 30
0.0
  0
HATCH
  5
57
330
4F
100
AcDbEntity
  8
_U+30EC_U+30A4_U+30E4_U+30FC 1
 62
   179
420
  2234388
100
AcDbHatch
 10
0.0
 20
0.0
 30
0.0
210
0.0
220
0.0
230
1.0
  2
SOLID
 70
     1
 71
     0
 91
        2
 92
        1
 93
        1
 72
     4
 94
        3
 73
     0
 74
     1
 95
       29
 96
       25
 40
0.0
 40
0.0
 40
0.0
 40
0.0
 40
1.0
 40
1.0
 40
1.0
 40
2.0
 40
2.0
 40
2.0
 40
3.0
 40
3.0
 40
3.0
 40
4.0
 40
4.0
 40
4.0
 40
5.0
 40
5.0
 40
5.0
 40
6.0
 40
6.0
 40
6.0
 40
7.0
 40
7.0
 40
7.0
 40
8.0
 40
8.0
 40
8.0
 40
8.0
 10
118.7214355171946
 20
-155.902973051302
 10
118.9308973226978
 20
-156.0111490495389
 10
118.9498453478667
 20
-156.184437352447
 10
118.9498453478667
 20
-156.3008815798484
 10
118.9498453478667
 20
-156.4617675390096
 10
118.9033365588158
 20
-156.6033609634533
 10
118.7214355171946
 20
-156.6984455988462
 10
118.526787622278
 20
-156.8021429729523
 10
118.2897650528928
 20
-156.8214355076697
 10
118.1268120364405
 20
-156.8214355076697
 10
117.9828070451571
 20
-156.8214355076697
 10
117.7313150747338
 20
-156.8042100302434
 10
117.5321885556864
 20
-156.6984455988462
 10
117.3292724316052
 20
-156.5906141101579
 10
117.306190291854
 20
-156.4297281509967
 10
117.306190291854
 20
-156.3008815798484
 10
117.306190291854
 20
-156.1420626779784
 10
117.3502875140652
 20
-155.9984021962435
 10
117.5321885556864
 20
-155.902973051302
 10
117.7251139028604
 20
-155.8037543013268
 10
117.9531792239839
 20
-155.7803276520272
 10
118.1268120364405
 20
-155.7803276520272
 10
118.298377791606
 20
-155.7803276520272
 10
118.5288546795692
 20
-155.8016872440357
 10
118.7214355171946
 20
-155.902973051302
 97
        0
 97
        0
 92
        1
 93
        1
 72
     4
 94
        3
 73
     0
 74
     1
 95
       17
 96
       13
 40
0.0
 40
0.0
 40
0.0
 40
0.0
 40
1.0
 40
1.0
 40
1.0
 40
2.0
 40
2.0
 40
2.0
 40
3.0
 40
3.0
 40
3.0
 40
4.0
 40
4.0
 40
4.0
 40
4.0
 10
117.498426619931
 20
-156.3008815798484
 10
117.498426619931
 20
-156.550651002529
 10
117.781957978367
 20
-156.5971597915799
 10
118.1268120364405
 20
-156.5971597915799
 10
118.4465168974717
 20
-156.5971597915799
 10
118.7551974529501
 20
-156.5609862889848
 10
118.7551974529501
 20
-156.3008815798484
 10
118.7551974529501
 20
-156.0531792144589
 10
118.4737331518052
 20
-156.0046033681169
 10
118.1268120364405
 20
-156.0046033681169
 10
117.8074516849579
 20
-156.0046033681169
 10
117.498426619931
 20
-156.0428439280032
 10
117.498426619931
 20
-156.3008815798484
 97
        0
 97
        0
 75
     2
 76
     1
 98
        0
  0
ENDBLK
  5
52
330
4F
100
AcDbEntity
  8
0
100
AcDbBlockEnd
  0
BLOCK
  5
5A
330
58
100
AcDbEntity
  8
0
100
AcDbBlockBegin
  2
block 5
 70
     0
 10
0.0
 20
0.0
 30
0.0
  3
block 5
  1

  0
SPLINE
  5
5C
330
58
100
AcDbEntity
  8
_U+30EC_U+30A4_U+30E4_U+30FC 1
370
     0
100
AcDbSpline
210
0.0
220
0.0
230
1.0
 70
    11
 71
     3
 72
    26
 73
    22
 74
     0
 42
0.0000000001
 43
0.0000000001
 12
1.0
 22
0.0
 32
0.0
 13
1.0
 23
0.0
 33
0.0
 40
0.0
 40
0.0
 40
0.0
 40
0.0
 40
1.0
 40
1.0
 40
1.0
 40
2.0
 40
2.0
 40
2.0
 40
3.0
 40
3.0
 40
3.0
 40
4.0
 40
4.0
 40
4.0
 40
5.0
 40
5.0
 40
5.0
 40
6.0
 40
6.0
 40
6.0
 40
7.0
 40
7.0
 40
7.0
 40
7.0
 10
94.14343530632526
 20
-164.5367268468867
 30
0.0
 10
94.14343530632526
 20
-164.5367268468867
 30
0.0
 10
94.14343530632526
 20
-163.4325737438641
 30
0.0
 10
94.14343530632526
 20
-163.4325737438641
 30
0.0
 10
94.14343530632526
 20
-163.4325737438641
 30
0.0
 10
93.81339515883832
 20
-163.4325737438641
 30
0.0
 10
93.81339515883832
 20
-163.4325737438641
 30
0.0
 10
93.81339515883832
 20
-163.4325737438641
 30
0.0
 10
93.81339515883832
 20
-163.2844346379983
 30
0.0
 10
93.81339515883832
 20
-163.2844346379983
 30
0.0
 10
94.1455023636164
 20
-163.2696207274118
 30
0.0
 10
94.19201115266728
 20
-163.1066677109594
 30
0.0
 10
94.22163897384043
 20
-162.9926350503977
 30
0.0
 10
94.22163897384043
 20
-162.9926350503977
 30
0.0
 10
94.36771102241502
 20
-162.9926350503977
 30
0.0
 10
94.36771102241502
 20
-162.9926350503977
 30
0.0
 10
94.36771102241502
 20
-162.9926350503977
 30
0.0
 10
94.36771102241502
 20
-164.5367268468867
 30
0.0
 10
94.36771102241502
 20
-164.5367268468867
 30
0.0
 10
94.36771102241502
 20
-164.5367268468867
 30
0.0
 10
94.14343530632526
 20
-164.5367268468867
 30
0.0
 10
94.14343530632526
 20
-164.5367268468867
 30
0.0
  0
HATCH
  5
5D
330
58
100
AcDbEntity
  8
_U+30EC_U+30A4_U+30E4_U+30FC 1
 62
   179
420
  2234388
100
AcDbHatch
 10
0.0
 20
0.0
 30
0.0
210
0.0
220
0.0
230
1.0
  2
SOLID
 70
     1
 71
     0
 91
        1
 92
        1
 93
        1
 72
     4
 94
        3
 73
     0
 74
     1
 95
       26
 96
       22
 40
0.0
 40
0.0
 40
0.0
 40
0.0
 40
1.0
 40
1.0
 40
1.0
 40
2.0
 40
2.0
 40
2.0
 40
3.0
 40
3.0
 40
3.0
 40
4.0
 40
4.0
 40
4.0
 40
5.0
 40
5.0
 40
5.0
 40
6.0
 40
6.0
 40
6.0
 40
7.0
 40
7.0
 40
7.0
 40
7.0
 10
94.14343530632526
 20
-164.5367268468867
 10
94.14343530632526
 20
-164.5367268468867
 10
94.14343530632526
 20
-163.4325737438641
 10
94.14343530632526
 20
-163.4325737438641
 10
94.14343530632526
 20
-163.4325737438641
 10
93.81339515883832
 20
-163.4325737438641
 10
93.81339515883832
 20
-163.4325737438641
 10
93.81339515883832
 20
-163.4325737438641
 10
93.81339515883832
 20
-163.2844346379983
 10
93.81339515883832
 20
-163.2844346379983
 10
94.1455023636164
 20
-163.2696207274118
 10
94.19201115266728
 20
-163.1066677109594
 10
94.22163897384043
 20
-162.9926350503977
 10
94.22163897384043
 20
-162.9926350503977
 10
94.36771102241502
 20
-162.9926350503977
 10
94.36771102241502
 20
-162.9926350503977
 10
94.36771102241502
 20
-162.9926350503977
 10
94.36771102241502
 20
-164.5367268468867
 10
94.36771102241502
 20
-164.5367268468867
 10
94.36771102241502
 20
-164.5367268468867
 10
94.14343530632526
 20
-164.5367268468867
 10
94.14343530632526
 20
-164.5367268468867
 97
        0
 97
        0
 75
     2
 76
     1
 98
        0
  0
SPLINE
  5
5E
330
58
100
AcDbEntity
  8
_U+30EC_U+30A4_U+30E4_U+30FC 1
370
     0
100
AcDbSpline
210
0.0
220
0.0
230
1.0
 70
    11
 71
     3
 72
    29
 73
    25
 74
     0
 42
0.0000000001
 43
0.0000000001
 12
1.0
 22
0.0
 32
0.0
 13
1.0
 23
0.0
 33
0.0
 40
0.0
 40
0.0
 40
0.0
 40
0.0
 40
1.0
 40
1.0
 40
1.0
 40
2.0
 40
2.0
 40
2.0
 40
3.0
 40
3.0
 40
3.0
 40
4.0
 40
4.0
 40
4.0
 40
5.0
 40
5.0
 40
5.0
 40
6.0
 40
6.0
 40
6.0
 40
7.0
 40
7.0
 40
7.0
 40
8.0
 40
8.0
 40
8.0
 40
8.0
 10
95.76659204420072
 20
-164.3589599198478
 30
0.0
 10
95.6587605555124
 20
-164.568421725351
 30
0.0
 10
95.48529999783007
 20
-164.5877142600684
 30
0.0
 10
95.36885577042862
 20
-164.5877142600684
 30
0.0
 10
95.20814206604172
 20
-164.5877142600684
 30
0.0
 10
95.06637638682369
 20
-164.5412054710175
 30
0.0
 10
94.97111949665653
 20
-164.3589599198478
 30
0.0
 10
94.86759437732478
 20
-164.1643120249311
 30
0.0
 10
94.84847409738164
 20
-163.9276339650945
 30
0.0
 10
94.84847409738164
 20
-163.7646809486422
 30
0.0
 10
94.84847409738164
 20
-163.6206759573587
 30
0.0
 10
94.86535506525937
 20
-163.3691839869355
 30
0.0
 10
94.97111949665653
 20
-163.1700574678881
 30
0.0
 10
95.07912324011912
 20
-162.9671413438068
 30
0.0
 10
95.23983694450602
 20
-162.9437146945071
 30
0.0
 10
95.36885577042862
 20
-162.9437146945071
 30
0.0
 10
95.52750241752437
 20
-162.9437146945071
 30
0.0
 10
95.67133515403356
 20
-162.9881564262669
 30
0.0
 10
95.76659204420072
 20
-163.1700574678881
 30
0.0
 10
95.86598304895017
 20
-163.3626383055135
 30
0.0
 10
95.88923744347561
 20
-163.5910481361856
 30
0.0
 10
95.88923744347561
 20
-163.7646809486422
 30
0.0
 10
95.88923744347561
 20
-163.9359021942591
 30
0.0
 10
95.86822236101558
 20
-164.1667235917708
 30
0.0
 10
95.76659204420072
 20
-164.3589599198478
 30
0.0
  0
SPLINE
  5
5F
330
58
100
AcDbEntity
  8
_U+30EC_U+30A4_U+30E4_U+30FC 1
370
     0
100
AcDbSpline
210
0.0
220
0.0
230
1.0
 70
    11
 71
     3
 72
    17
 73
    13
 74
     0
 42
0.0000000001
 43
0.0000000001
 12
1.0
 22
0.0
 32
0.0
 13
1.0
 23
0.0
 33
0.0
 40
0.0
 40
0.0
 40
0.0
 40
0.0
 40
1.0
 40
1.0
 40
1.0
 40
2.0
 40
2.0
 40
2.0
 40
3.0
 40
3.0
 40
3.0
 40
4.0
 40
4.0
 40
4.0
 40
4.0
 10
95.36885577042862
 20
-163.1362955321326
 30
0.0
 10
95.11925860252228
 20
-163.1362955321326
 30
0.0
 10
95.0727498134714
 20
-163.4198268905687
 30
0.0
 10
95.0727498134714
 20
-163.7646809486422
 30
0.0
 10
95.0727498134714
 20
-164.0840413001248
 30
0.0
 10
95.10875106129227
 20
-164.3930663651518
 30
0.0
 10
95.36885577042862
 20
-164.3930663651518
 30
0.0
 10
95.61638588104383
 20
-164.3930663651518
 30
0.0
 10
95.66513398216011
 20
-164.1116020640068
 30
0.0
 10
95.66513398216011
 20
-163.7646809486422
 30
0.0
 10
95.66513398216011
 20
-163.4453205971595
 30
0.0
 10
95.62689342227384
 20
-163.1362955321326
 30
0.0
 10
95.36885577042862
 20
-163.1362955321326
 30
0.0
  0
HATCH
  5
60
330
58
100
AcDbEntity
  8
_U+30EC_U+30A4_U+30E4_U+30FC 1
 62
   179
420
  2234388
100
AcDbHatch
 10
0.0
 20
0.0
 30
0.0
210
0.0
220
0.0
230
1.0
  2
SOLID
 70
     1
 71
     0
 91
        2
 92
        1
 93
        1
 72
     4
 94
        3
 73
     0
 74
     1
 95
       29
 96
       25
 40
0.0
 40
0.0
 40
0.0
 40
0.0
 40
1.0
 40
1.0
 40
1.0
 40
2.0
 40
2.0
 40
2.0
 40
3.0
 40
3.0
 40
3.0
 40
4.0
 40
4.0
 40
4.0
 40
5.0
 40
5.0
 40
5.0
 40
6.0
 40
6.0
 40
6.0
 40
7.0
 40
7.0
 40
7.0
 40
8.0
 40
8.0
 40
8.0
 40
8.0
 10
95.76659204420072
 20
-164.3589599198478
 10
95.6587605555124
 20
-164.568421725351
 10
95.48529999783007
 20
-164.5877142600684
 10
95.36885577042862
 20
-164.5877142600684
 10
95.20814206604172
 20
-164.5877142600684
 10
95.06637638682369
 20
-164.5412054710175
 10
94.97111949665653
 20
-164.3589599198478
 10
94.86759437732478
 20
-164.1643120249311
 10
94.84847409738164
 20
-163.9276339650945
 10
94.84847409738164
 20
-163.7646809486422
 10
94.84847409738164
 20
-163.6206759573587
 10
94.86535506525937
 20
-163.3691839869355
 10
94.97111949665653
 20
-163.1700574678881
 10
95.07912324011912
 20
-162.9671413438068
 10
95.23983694450602
 20
-162.9437146945071
 10
95.36885577042862
 20
-162.9437146945071
 10
95.52750241752437
 20
-162.9437146945071
 10
95.67133515403356
 20
-162.9881564262669
 10
95.76659204420072
 20
-163.1700574678881
 10
95.86598304895017
 20
-163.3626383055135
 10
95.88923744347561
 20
-163.5910481361856
 10
95.88923744347561
 20
-163.7646809486422
 10
95.88923744347561
 20
-163.9359021942591
 10
95.86822236101558
 20
-164.1667235917708
 10
95.76659204420072
 20
-164.3589599198478
 97
        0
 97
        0
 92
        1
 93
        1
 72
     4
 94
        3
 73
     0
 74
     1
 95
       17
 96
       13
 40
0.0
 40
0.0
 40
0.0
 40
0.0
 40
1.0
 40
1.0
 40
1.0
 40
2.0
 40
2.0
 40
2.0
 40
3.0
 40
3.0
 40
3.0
 40
4.0
 40
4.0
 40
4.0
 40
4.0
 10
95.36885577042862
 20
-163.1362955321326
 10
95.11925860252228
 20
-163.1362955321326
 10
95.0727498134714
 20
-163.4198268905687
 10
95.0727498134714
 20
-163.7646809486422
 10
95.0727498134714
 20
-164.0840413001248
 10
95.10875106129227
 20
-164.3930663651518
 10
95.36885577042862
 20
-164.3930663651518
 10
95.61638588104383
 20
-164.3930663651518
 10
95.66513398216011
 20
-164.1116020640068
 10
95.66513398216011
 20
-163.7646809486422
 10
95.66513398216011
 20
-163.4453205971595
 10
95.62689342227384
 20
-163.1362955321326
 10
95.36885577042862
 20
-163.1362955321326
 97
        0
 97
        0
 75
     2
 76
     1
 98
        0
  0
ENDBLK
  5
5B
330
58
100
AcDbEntity
  8
0
100
AcDbBlockEnd
  0
BLOCK
  5
63
330
61
100
AcDbEntity
  8
0
100
AcDbBlockBegin
  2
block 6
 70
     0
 10
0.0
 20
0.0
 30
0.0
  3
block 6
  1

  0
SPLINE
  5
65
330
61
100
AcDbEntity
  8
_U+30EC_U+30A4_U+30E4_U+30FC 1
370
     0
100
AcDbSpline
210
0.0
220
0.0
230
1.0
 70
    11
 71
     3
 72
    44
 73
    40
 74
     0
 42
0.0000000001
 43
0.0000000001
 12
1.0
 22
0.0
 32
0.0
 13
1.0
 23
0.0
 33
0.0
 40
0.0
 40
0.0
 40
0.0
 40
0.0
 40
1.0
 40
1.0
 40
1.0
 40
2.0
 40
2.0
 40
2.0
 40
3.0
 40
3.0
 40
3.0
 40
4.0
 40
4.0
 40
4.0
 40
5.0
 40
5.0
 40
5.0
 40
6.0
 40
6.0
 40
6.0
 40
7.0
 40
7.0
 40
7.0
 40
8.0
 40
8.0
 40
8.0
 40
9.0
 40
9.0
 40
9.0
 40
10.0
 40
10.0
 40
10.0
 40
11.0
 40
11.0
 40
11.0
 40
12.0
 40
12.0
 40
12.0
 40
13.0
 40
13.0
 40
13.0
 40
13.0
 10
102.6057956015187
 20
-132.253770583256
 30
0.0
 10
102.3878933120766
 20
-132.4124172303518
 30
0.0
 10
102.2947034792006
 20
-132.4864867832846
 30
0.0
 10
102.2461276328586
 20
-132.6303195197938
 30
0.0
 10
102.2461276328586
 20
-132.6303195197938
 30
0.0
 10
103.0245469577508
 20
-132.6303195197938
 30
0.0
 10
103.0245469577508
 20
-132.6303195197938
 30
0.0
 10
103.0245469577508
 20
-132.6303195197938
 30
0.0
 10
103.0245469577508
 20
-132.8354749559404
 30
0.0
 10
103.0245469577508
 20
-132.8354749559404
 30
0.0
 10
103.0245469577508
 20
-132.8354749559404
 30
0.0
 10
101.9965304649523
 20
-132.8354749559404
 30
0.0
 10
101.9965304649523
 20
-132.8354749559404
 30
0.0
 10
102.0282253434166
 20
-132.4778740445715
 30
0.0
 10
102.0936821576363
 20
-132.3996703770563
 30
0.0
 10
102.4788438328872
 20
-132.1013251080337
 30
0.0
 10
102.7348144274413
 20
-131.9025430985348
 30
0.0
 10
102.8002712416611
 20
-131.8348469722496
 30
0.0
 10
102.8002712416611
 20
-131.6973876623882
 30
0.0
 10
102.8002712416611
 20
-131.5788763776956
 30
0.0
 10
102.7284410007936
 20
-131.4477904944818
 30
0.0
 10
102.5317260485858
 20
-131.4477904944818
 30
0.0
 10
102.2714490846752
 20
-131.4477904944818
 30
0.0
 10
102.2630086007363
 20
-131.678267382445
 30
0.0
 10
102.2587022313798
 20
-131.7947116098465
 30
0.0
 10
102.2587022313798
 20
-131.7947116098465
 30
0.0
 10
102.0345987700643
 20
-131.7947116098465
 30
0.0
 10
102.0345987700643
 20
-131.7947116098465
 30
0.0
 10
102.0430392540031
 20
-131.667759841215
 30
0.0
 10
102.0535467952331
 20
-131.5556219831701
 30
0.0
 10
102.1339897748137
 20
-131.4371106984775
 30
0.0
 10
102.2438883207932
 20
-131.2763969940906
 30
0.0
 10
102.4300957317709
 20
-131.2424628035609
 30
0.0
 10
102.5465399591724
 20
-131.2424628035609
 30
0.0
 10
102.8236978909607
 20
-131.2424628035609
 30
0.0
 10
103.0309203843985
 20
-131.4266031572475
 30
0.0
 10
103.0309203843985
 20
-131.6994547196793
 30
0.0
 10
103.0309203843985
 20
-131.9278645503514
 30
0.0
 10
102.9146484117713
 20
-132.0274278098751
 30
0.0
 10
102.6057956015187
 20
-132.253770583256
 30
0.0
  0
HATCH
  5
66
330
61
100
AcDbEntity
  8
_U+30EC_U+30A4_U+30E4_U+30FC 1
 62
   179
420
  2234388
100
AcDbHatch
 10
0.0
 20
0.0
 30
0.0
210
0.0
220
0.0
230
1.0
  2
SOLID
 70
     1
 71
     0
 91
        1
 92
        1
 93
        1
 72
     4
 94
        3
 73
     0
 74
     1
 95
       44
 96
       40
 40
0.0
 40
0.0
 40
0.0
 40
0.0
 40
1.0
 40
1.0
 40
1.0
 40
2.0
 40
2.0
 40
2.0
 40
3.0
 40
3.0
 40
3.0
 40
4.0
 40
4.0
 40
4.0
 40
5.0
 40
5.0
 40
5.0
 40
6.0
 40
6.0
 40
6.0
 40
7.0
 40
7.0
 40
7.0
 40
8.0
 40
8.0
 40
8.0
 40
9.0
 40
9.0
 40
9.0
 40
10.0
 40
10.0
 40
10.0
 40
11.0
 40
11.0
 40
11.0
 40
12.0
 40
12.0
 40
12.0
 40
13.0
 40
13.0
 40
13.0
 40
13.0
 10
102.6057956015187
 20
-132.253770583256
 10
102.3878933120766
 20
-132.4124172303518
 10
102.2947034792006
 20
-132.4864867832846
 10
102.2461276328586
 20
-132.6303195197938
 10
102.2461276328586
 20
-132.6303195197938
 10
103.0245469577508
 20
-132.6303195197938
 10
103.0245469577508
 20
-132.6303195197938
 10
103.0245469577508
 20
-132.6303195197938
 10
103.0245469577508
 20
-132.8354749559404
 10
103.0245469577508
 20
-132.8354749559404
 10
103.0245469577508
 20
-132.8354749559404
 10
101.9965304649523
 20
-132.8354749559404
 10
101.9965304649523
 20
-132.8354749559404
 10
102.0282253434166
 20
-132.4778740445715
 10
102.0936821576363
 20
-132.3996703770563
 10
102.4788438328872
 20
-132.1013251080337
 10
102.7348144274413
 20
-131.9025430985348
 10
102.8002712416611
 20
-131.8348469722496
 10
102.8002712416611
 20
-131.6973876623882
 10
102.8002712416611
 20
-131.5788763776956
 10
102.7284410007936
 20
-131.4477904944818
 10
102.5317260485858
 20
-131.4477904944818
 10
102.2714490846752
 20
-131.4477904944818
 10
102.2630086007363
 20
-131.678267382445
 10
102.2587022313798
 20
-131.7947116098465
 10
102.2587022313798
 20
-131.7947116098465
 10
102.0345987700643
 20
-131.7947116098465
 10
102.0345987700643
 20
-131.7947116098465
 10
102.0430392540031
 20
-131.667759841215
 10
102.0535467952331
 20
-131.5556219831701
 10
102.1339897748137
 20
-131.4371106984775
 10
102.2438883207932
 20
-131.2763969940906
 10
102.4300957317709
 20
-131.2424628035609
 10
102.5465399591724
 20
-131.2424628035609
 10
102.8236978909607
 20
-131.2424628035609
 10
103.0309203843985
 20
-131.4266031572475
 10
103.0309203843985
 20
-131.6994547196793
 10
103.0309203843985
 20
-131.9278645503514
 10
102.9146484117713
 20
-132.0274278098751
 10
102.6057956015187
 20
-132.253770583256
 97
        0
 97
        0
 75
     2
 76
     1
 98
        0
  0
SPLINE
  5
67
330
61
100
AcDbEntity
  8
_U+30EC_U+30A4_U+30E4_U+30FC 1
370
     0
100
AcDbSpline
210
0.0
220
0.0
230
1.0
 70
    11
 71
     3
 72
    53
 73
    49
 74
     0
 42
0.0000000001
 43
0.0000000001
 12
1.0
 22
0.0
 32
0.0
 13
1.0
 23
0.0
 33
0.0
 40
0.0
 40
0.0
 40
0.0
 40
0.0
 40
1.0
 40
1.0
 40
1.0
 40
2.0
 40
2.0
 40
2.0
 40
3.0
 40
3.0
 40
3.0
 40
4.0
 40
4.0
 40
4.0
 40
5.0
 40
5.0
 40
5.0
 40
6.0
 40
6.0
 40
6.0
 40
7.0
 40
7.0
 40
7.0
 40
8.0
 40
8.0
 40
8.0
 40
9.0
 40
9.0
 40
9.0
 40
10.0
 40
10.0
 40
10.0
 40
11.0
 40
11.0
 40
11.0
 40
12.0
 40
12.0
 40
12.0
 40
13.0
 40
13.0
 40
13.0
 40
14.0
 40
14.0
 40
14.0
 40
15.0
 40
15.0
 40
15.0
 40
16.0
 40
16.0
 40
16.0
 40
16.0
 10
103.6705023612352
 20
-132.8862901143479
 30
0.0
 10
103.5921264389457
 20
-132.8862901143479
 30
0.0
 10
103.4906683769051
 20
-132.8692368916959
 30
0.0
 10
103.3890380600902
 20
-132.8058471347673
 30
0.0
 10
103.2155775024079
 20
-132.6957763340136
 30
0.0
 10
103.1943901651736
 20
-132.5646904507998
 30
0.0
 10
103.1754421400048
 20
-132.4568589621115
 30
0.0
 10
103.1754421400048
 20
-132.4568589621115
 30
0.0
 10
103.3974785440291
 20
-132.4568589621115
 30
0.0
 10
103.3974785440291
 20
-132.4568589621115
 30
0.0
 10
103.4526000717931
 20
-132.6556409716104
 30
0.0
 10
103.5795518404246
 20
-132.6852687927835
 30
0.0
 10
103.6725694185263
 20
-132.6852687927835
 30
0.0
 10
103.8120957856789
 20
-132.6852687927835
 30
0.0
 10
103.9645412609012
 20
-132.5858777880341
 30
0.0
 10
103.9645412609012
 20
-132.3531615880055
 30
0.0
 10
103.9645412609012
 20
-132.0971909934514
 30
0.0
 10
103.7847072765712
 20
-132.0274278098751
 30
0.0
 10
103.6641289345874
 20
-132.0274278098751
 30
0.0
 10
103.6324340561231
 20
-132.0274278098751
 30
0.0
 10
103.4906683769051
 20
-132.0274278098751
 30
0.0
 10
103.4017849133857
 20
-132.1564466357977
 30
0.0
 10
103.4017849133857
 20
-132.1564466357977
 30
0.0
 10
103.2262572984122
 20
-132.1373263558546
 30
0.0
 10
103.2262572984122
 20
-132.1373263558546
 30
0.0
 10
103.2262572984122
 20
-132.1373263558546
 30
0.0
 10
103.3468356403959
 20
-131.2912109046772
 30
0.0
 10
103.3468356403959
 20
-131.2912109046772
 30
0.0
 10
103.3468356403959
 20
-131.2912109046772
 30
0.0
 10
104.1252549652881
 20
-131.2912109046772
 30
0.0
 10
104.1252549652881
 20
-131.2912109046772
 30
0.0
 10
104.1252549652881
 20
-131.2912109046772
 30
0.0
 10
104.1252549652881
 20
-131.4858587995938
 30
0.0
 10
104.1252549652881
 20
-131.4858587995938
 30
0.0
 10
104.1252549652881
 20
-131.4858587995938
 30
0.0
 10
103.509616402074
 20
-131.4858587995938
 30
0.0
 10
103.509616402074
 20
-131.4858587995938
 30
0.0
 10
103.509616402074
 20
-131.4858587995938
 30
0.0
 10
103.4441595878542
 20
-131.9089165251825
 30
0.0
 10
103.4441595878542
 20
-131.9089165251825
 30
0.0
 10
103.5054822874917
 20
-131.8749823346528
 30
0.0
 10
103.5879923243634
 20
-131.8348469722496
 30
0.0
 10
103.7063313542818
 20
-131.8348469722496
 30
0.0
 10
103.9602348915447
 20
-131.8348469722496
 30
0.0
 10
104.1972574609299
 20
-132.0210543832274
 30
0.0
 10
104.1972574609299
 20
-132.3340413080623
 30
0.0
 10
104.1972574609299
 20
-132.6515068570281
 30
0.0
 10
103.9729817448401
 20
-132.8862901143479
 30
0.0
 10
103.6705023612352
 20
-132.8862901143479
 30
0.0
  0
HATCH
  5
68
330
61
100
AcDbEntity
  8
_U+30EC_U+30A4_U+30E4_U+30FC 1
 62
   179
420
  2234388
100
AcDbHatch
 10
0.0
 20
0.0
 30
0.0
210
0.0
220
0.0
230
1.0
  2
SOLID
 70
     1
 71
     0
 91
        1
 92
        1
 93
        1
 72
     4
 94
        3
 73
     0
 74
     1
 95
       53
 96
       49
 40
0.0
 40
0.0
 40
0.0
 40
0.0
 40
1.0
 40
1.0
 40
1.0
 40
2.0
 40
2.0
 40
2.0
 40
3.0
 40
3.0
 40
3.0
 40
4.0
 40
4.0
 40
4.0
 40
5.0
 40
5.0
 40
5.0
 40
6.0
 40
6.0
 40
6.0
 40
7.0
 40
7.0
 40
7.0
 40
8.0
 40
8.0
 40
8.0
 40
9.0
 40
9.0
 40
9.0
 40
10.0
 40
10.0
 40
10.0
 40
11.0
 40
11.0
 40
11.0
 40
12.0
 40
12.0
 40
12.0
 40
13.0
 40
13.0
 40
13.0
 40
14.0
 40
14.0
 40
14.0
 40
15.0
 40
15.0
 40
15.0
 40
16.0
 40
16.0
 40
16.0
 40
16.0
 10
103.6705023612352
 20
-132.8862901143479
 10
103.5921264389457
 20
-132.8862901143479
 10
103.4906683769051
 20
-132.8692368916959
 10
103.3890380600902
 20
-132.8058471347673
 10
103.2155775024079
 20
-132.6957763340136
 10
103.1943901651736
 20
-132.5646904507998
 10
103.1754421400048
 20
-132.4568589621115
 10
103.1754421400048
 20
-132.4568589621115
 10
103.3974785440291
 20
-132.4568589621115
 10
103.3974785440291
 20
-132.4568589621115
 10
103.4526000717931
 20
-132.6556409716104
 10
103.5795518404246
 20
-132.6852687927835
 10
103.6725694185263
 20
-132.6852687927835
 10
103.8120957856789
 20
-132.6852687927835
 10
103.9645412609012
 20
-132.5858777880341
 10
103.9645412609012
 20
-132.3531615880055
 10
103.9645412609012
 20
-132.0971909934514
 10
103.7847072765712
 20
-132.0274278098751
 10
103.6641289345874
 20
-132.0274278098751
 10
103.6324340561231
 20
-132.0274278098751
 10
103.4906683769051
 20
-132.0274278098751
 10
103.4017849133857
 20
-132.1564466357977
 10
103.4017849133857
 20
-132.1564466357977
 10
103.2262572984122
 20
-132.1373263558546
 10
103.2262572984122
 20
-132.1373263558546
 10
103.2262572984122
 20
-132.1373263558546
 10
103.3468356403959
 20
-131.2912109046772
 10
103.3468356403959
 20
-131.2912109046772
 10
103.3468356403959
 20
-131.2912109046772
 10
104.1252549652881
 20
-131.2912109046772
 10
104.1252549652881
 20
-131.2912109046772
 10
104.1252549652881
 20
-131.2912109046772
 10
104.1252549652881
 20
-131.4858587995938
 10
104.1252549652881
 20
-131.4858587995938
 10
104.1252549652881
 20
-131.4858587995938
 10
103.509616402074
 20
-131.4858587995938
 10
103.509616402074
 20
-131.4858587995938
 10
103.509616402074
 20
-131.4858587995938
 10
103.4441595878542
 20
-131.9089165251825
 10
103.4441595878542
 20
-131.9089165251825
 10
103.5054822874917
 20
-131.8749823346528
 10
103.5879923243634
 20
-131.8348469722496
 10
103.7063313542818
 20
-131.8348469722496
 10
103.9602348915447
 20
-131.8348469722496
 10
104.1972574609299
 20
-132.0210543832274
 10
104.1972574609299
 20
-132.3340413080623
 10
104.1972574609299
 20
-132.6515068570281
 10
103.9729817448401
 20
-132.8862901143479
 10
103.6705023612352
 20
-132.8862901143479
 97
        0
 97
        0
 75
     2
 76
     1
 98
        0
  0
ENDBLK
  5
64
330
61
100
AcDbEntity
  8
0
100
AcDbBlockEnd
  0
ENDSEC
  0
SECTION
  2
ENTITIES
  0
INSERT
  5
42
330
1F
100
AcDbEntity
  8
_U+30EC_U+30A4_U+30E4_U+30FC 1
100
AcDbBlockReference
  2
block 2
 10
0.0
 20
0.0
 30
0.0
  0
INSERT
  5
48
330
1F
100
AcDbEntity
  8
_U+30EC_U+30A4_U+30E4_U+30FC 1
100
AcDbBlockReference
  2
block 3
 10
0.0
 20
0.0
 30
0.0
  0
INSERT
  5
50
330
1F
100
AcDbEntity
  8
_U+30EC_U+30A4_U+30E4_U+30FC 1
100
AcDbBlockReference
  2
block 4
 10
0.0
 20
0.0
 30
0.0
  0
INSERT
  5
59
330
1F
100
AcDbEntity
  8
_U+30EC_U+30A4_U+30E4_U+30FC 1
100
AcDbBlockReference
  2
block 5
 10
0.0
 20
0.0
 30
0.0
  0
INSERT
  5
62
330
1F
100
AcDbEntity
  8
_U+30EC_U+30A4_U+30E4_U+30FC 1
100
AcDbBlockReference
  2
block 6
 10
0.0
 20
0.0
 30
0.0
  0
POLYLINE
  5
69
330
1F
100
AcDbEntity
  8
_U+30EC_U+30A4_U+30E4_U+30FC 1
 62
   179
420
  2234388
370
    25
100
AcDb2dPolyline
 66
     1
 10
0.0
 20
0.0
 30
0.0
  0
VERTEX
  5
6A
330
69
100
AcDbEntity
  8
_U+30EC_U+30A4_U+30E4_U+30FC 1
 62
   179
420
  2234388
370
    25
100
AcDbVertex
100
AcDb2dVertex
 10
90.50210933542027
 20
-137.8867600838009
 30
0.0
  0
VERTEX
  5
6B
330
69
100
AcDbEntity
  8
_U+30EC_U+30A4_U+30E4_U+30FC 1
 62
   179
420
  2234388
370
    25
100
AcDbVertex
100
AcDb2dVertex
 10
115.502058381769
 20
-137.8867600838009
 30
0.0
  0
SEQEND
  5
6C
330
69
100
AcDbEntity
  8
_U+30EC_U+30A4_U+30E4_U+30FC 1
 62
   179
420
  2234388
370
    25
  0
POLYLINE
  5
6D
330
1F
100
AcDbEntity
  8
_U+30EC_U+30A4_U+30E4_U+30FC 1
 62
   179
420
  2234388
370
    25
100
AcDb2dPolyline
 66
     1
 10
0.0
 20
0.0
 30
0.0
  0
VERTEX
  5
6E
330
6D
100
AcDbEntity
  8
_U+30EC_U+30A4_U+30E4_U+30FC 1
 62
   179
420
  2234388
370
    25
100
AcDbVertex
100
AcDb2dVertex
 10
91.50204830001404
 20
-138.8867205802414
 30
0.0
  0
VERTEX
  5
6F
330
6D
100
AcDbEntity
  8
_U+30EC_U+30A4_U+30E4_U+30FC 1
 62
   179
420
  2234388
370
    25
100
AcDbVertex
100
AcDb2dVertex
 10
115.5022198706199
 20
-138.8867205802414
 30
0.0
  0
SEQEND
  5
70
330
6D
100
AcDbEntity
  8
_U+30EC_U+30A4_U+30E4_U+30FC 1
 62
   179
420
  2234388
370
    25
  0
POLYLINE
  5
71
330
1F
100
AcDbEntity
  8
_U+30EC_U+30A4_U+30E4_U+30FC 1
 62
   179
420
  2234388
370
    25
100
AcDb2dPolyline
 66
     1
 10
0.0
 20
0.0
 30
0.0
  0
VERTEX
  5
72
330
71
100
AcDbEntity
  8
_U+30EC_U+30A4_U+30E4_U+30FC 1
 62
   179
420
  2234388
370
    25
100
AcDbVertex
100
AcDb2dVertex
 10
115.5021229773094
 20
-137.8867600838009
 30
0.0
  0
VERTEX
  5
73
330
71
100
AcDbEntity
  8
_U+30EC_U+30A4_U+30E4_U+30FC 1
 62
   179
420
  2234388
370
    25
100
AcDbVertex
100
AcDb2dVertex
 10
115.5021229773094
 20
-138.8865483254672
 30
0.0
  0
SEQEND
  5
74
330
71
100
AcDbEntity
  8
_U+30EC_U+30A4_U+30E4_U+30FC 1
 62
   179
420
  2234388
370
    25
  0
POLYLINE
  5
75
330
1F
100
AcDbEntity
  8
_U+30EC_U+30A4_U+30E4_U+30FC 1
 62
   179
420
  2234388
370
    25
100
AcDb2dPolyline
 66
     1
 10
0.0
 20
0.0
 30
0.0
  0
VERTEX
  5
76
330
75
100
AcDbEntity
  8
_U+30EC_U+30A4_U+30E4_U+30FC 1
 62
   179
420
  2234388
370
    25
100
AcDbVertex
100
AcDb2dVertex
 10
96.54289048218482
 20
-151.8879941772515
 30
0.0
  0
VERTEX
  5
77
330
75
100
AcDbEntity
  8
_U+30EC_U+30A4_U+30E4_U+30FC 1
 62
   179
420
  2234388
370
    25
100
AcDbVertex
100
AcDb2dVertex
 10
99.53126319940137
 20
-151.8879941772515
 30
0.0
  0
SEQEND
  5
78
330
75
100
AcDbEntity
  8
_U+30EC_U+30A4_U+30E4_U+30FC 1
 62
   179
420
  2234388
370
    25
  0
POLYLINE
  5
79
330
1F
100
AcDbEntity
  8
_U+30EC_U+30A4_U+30E4_U+30FC 1
 62
   179
420
  2234388
370
    25
100
AcDb2dPolyline
 66
     1
 10
0.0
 20
0.0
 30
0.0
  0
VERTEX
  5
7A
330
79
100
AcDbEntity
  8
_U+30EC_U+30A4_U+30E4_U+30FC 1
 62
   179
420
  2234388
370
    25
100
AcDbVertex
100
AcDb2dVertex
 10
90.50210933542027
 20
-161.8877283327377
 30
0.0
  0
VERTEX
  5
7B
330
79
100
AcDbEntity
  8
_U+30EC_U+30A4_U+30E4_U+30FC 1
 62
   179
420
  2234388
370
    25
100
AcDbVertex
100
AcDb2dVertex
 10
99.5314462200987
 20
-161.8877283327377
 30
0.0
  0
SEQEND
  5
7C
330
79
100
AcDbEntity
  8
_U+30EC_U+30A4_U+30E4_U+30FC 1
 62
   179
420
  2234388
370
    25
  0
POLYLINE
  5
7D
330
1F
100
AcDbEntity
  8
_U+30EC_U+30A4_U+30E4_U+30FC 1
 62
   179
420
  2234388
370
    25
100
AcDb2dPolyline
 66
     1
 10
0.0
 20
0.0
 30
0.0
  0
VERTEX
  5
7E
330
7D
100
AcDbEntity
  8
_U+30EC_U+30A4_U+30E4_U+30FC 1
 62
   179
420
  2234388
370
    25
100
AcDbVertex
100
AcDb2dVertex
 10
91.50204830001404
 20
-160.8877678362972
 30
0.0
  0
VERTEX
  5
7F
330
7D
100
AcDbEntity
  8
_U+30EC_U+30A4_U+30E4_U+30FC 1
 62
   179
420
  2234388
370
    25
100
AcDbVertex
100
AcDb2dVertex
 10
98.53149648958185
 20
-160.8877678362972
 30
0.0
  0
SEQEND
  5
80
330
7D
100
AcDbEntity
  8
_U+30EC_U+30A4_U+30E4_U+30FC 1
 62
   179
420
  2234388
370
    25
  0
POLYLINE
  5
81
330
1F
100
AcDbEntity
  8
_U+30EC_U+30A4_U+30E4_U+30FC 1
 62
   179
420
  2234388
370
    25
100
AcDb2dPolyline
 66
     1
 10
0.0
 20
0.0
 30
0.0
  0
VERTEX
  5
82
330
81
100
AcDbEntity
  8
_U+30EC_U+30A4_U+30E4_U+30FC 1
 62
   179
420
  2234388
370
    25
100
AcDbVertex
100
AcDb2dVertex
 10
98.53143189404119
 20
-152.8878900781517
 30
0.0
  0
VERTEX
  5
83
330
81
100
AcDbEntity
  8
_U+30EC_U+30A4_U+30E4_U+30FC 1
 62
   179
420
  2234388
370
    25
100
AcDbVertex
100
AcDb2dVertex
 10
98.53143189404119
 20
-160.8878324318375
 30
0.0
  0
SEQEND
  5
84
330
81
100
AcDbEntity
  8
_U+30EC_U+30A4_U+30E4_U+30FC 1
 62
   179
420
  2234388
370
    25
  0
POLYLINE
  5
85
330
1F
100
AcDbEntity
  8
_U+30EC_U+30A4_U+30E4_U+30FC 1
 62
   179
420
  2234388
370
    25
100
AcDb2dPolyline
 66
     1
 10
0.0
 20
0.0
 30
0.0
  0
VERTEX
  5
86
330
85
100
AcDbEntity
  8
_U+30EC_U+30A4_U+30E4_U+30FC 1
 62
   179
420
  2234388
370
    25
100
AcDbVertex
100
AcDb2dVertex
 10
97.54284021270229
 20
-152.8878900781517
 30
0.0
  0
VERTEX
  5
87
330
85
100
AcDbEntity
  8
_U+30EC_U+30A4_U+30E4_U+30FC 1
 62
   179
420
  2234388
370
    25
100
AcDbVertex
100
AcDb2dVertex
 10
98.53131346888388
 20
-152.8878900781517
 30
0.0
  0
SEQEND
  5
88
330
85
100
AcDbEntity
  8
_U+30EC_U+30A4_U+30E4_U+30FC 1
 62
   179
420
  2234388
370
    25
  0
POLYLINE
  5
89
330
1F
100
AcDbEntity
  8
_U+30EC_U+30A4_U+30E4_U+30FC 1
 62
   179
420
  2234388
370
    25
100
AcDb2dPolyline
 66
     1
 10
0.0
 20
0.0
 30
0.0
  0
VERTEX
  5
8A
330
89
100
AcDbEntity
  8
_U+30EC_U+30A4_U+30E4_U+30FC 1
 62
   179
420
  2234388
370
    25
100
AcDbVertex
100
AcDb2dVertex
 10
96.54289048218482
 20
-155.6877622427078
 30
0.0
  0
VERTEX
  5
8B
330
89
100
AcDbEntity
  8
_U+30EC_U+30A4_U+30E4_U+30FC 1
 62
   179
420
  2234388
370
    25
100
AcDbVertex
100
AcDb2dVertex
 10
96.54289048218482
 20
-151.8879941772515
 30
0.0
  0
SEQEND
  5
8C
330
89
100
AcDbEntity
  8
_U+30EC_U+30A4_U+30E4_U+30FC 1
 62
   179
420
  2234388
370
    25
  0
POLYLINE
  5
8D
330
1F
100
AcDbEntity
  8
_U+30EC_U+30A4_U+30E4_U+30FC 1
 62
   179
420
  2234388
370
    25
100
AcDb2dPolyline
 66
     1
 10
0.0
 20
0.0
 30
0.0
  0
VERTEX
  5
8E
330
8D
100
AcDbEntity
  8
_U+30EC_U+30A4_U+30E4_U+30FC 1
 62
   179
420
  2234388
370
    25
100
AcDbVertex
100
AcDb2dVertex
 10
96.54289048218482
 20
-155.6877622427078
 30
0.0
  0
VERTEX
  5
8F
330
8D
100
AcDbEntity
  8
_U+30EC_U+30A4_U+30E4_U+30FC 1
 62
   179
420
  2234388
370
    25
100
AcDbVertex
100
AcDb2dVertex
 10
97.54265719200431
 20
-155.6877622427078
 30
0.0
  0
SEQEND
  5
90
330
8D
100
AcDbEntity
  8
_U+30EC_U+30A4_U+30E4_U+30FC 1
 62
   179
420
  2234388
370
    25
  0
POLYLINE
  5
91
330
1F
100
AcDbEntity
  8
_U+30EC_U+30A4_U+30E4_U+30FC 1
 62
   179
420
  2234388
370
    25
100
AcDb2dPolyline
 66
     1
 10
0.0
 20
0.0
 30
0.0
  0
VERTEX
  5
92
330
91
100
AcDbEntity
  8
_U+30EC_U+30A4_U+30E4_U+30FC 1
 62
   179
420
  2234388
370
    25
100
AcDbVertex
100
AcDb2dVertex
 10
97.54284021270229
 20
-155.6877622427078
 30
0.0
  0
VERTEX
  5
93
330
91
100
AcDbEntity
  8
_U+30EC_U+30A4_U+30E4_U+30FC 1
 62
   179
420
  2234388
370
    25
100
AcDbVertex
100
AcDb2dVertex
 10
97.54284021270229
 20
-152.8877824189178
 30
0.0
  0
SEQEND
  5
94
330
91
100
AcDbEntity
  8
_U+30EC_U+30A4_U+30E4_U+30FC 1
 62
   179
420
  2234388
370
    25
  0
POLYLINE
  5
95
330
1F
100
AcDbEntity
  8
_U+30EC_U+30A4_U+30E4_U+30FC 1
 62
   179
420
  2234388
370
    25
100
AcDb2dPolyline
 66
     1
 10
0.0
 20
0.0
 30
0.0
  0
VERTEX
  5
96
330
95
100
AcDbEntity
  8
_U+30EC_U+30A4_U+30E4_U+30FC 1
 62
   179
420
  2234388
370
    25
100
AcDbVertex
100
AcDb2dVertex
 10
89.50215960490343
 20
-160.8877678362972
 30
0.0
  0
VERTEX
  5
97
330
95
100
AcDbEntity
  8
_U+30EC_U+30A4_U+30E4_U+30FC 1
 62
   179
420
  2234388
370
    25
100
AcDbVertex
100
AcDb2dVertex
 10
90.50192631472294
 20
-160.8877678362972
 30
0.0
  0
SEQEND
  5
98
330
95
100
AcDbEntity
  8
_U+30EC_U+30A4_U+30E4_U+30FC 1
 62
   179
420
  2234388
370
    25
  0
POLYLINE
  5
99
330
1F
100
AcDbEntity
  8
_U+30EC_U+30A4_U+30E4_U+30FC 1
 62
   179
420
  2234388
370
    25
100
AcDb2dPolyline
 66
     1
 10
0.0
 20
0.0
 30
0.0
  0
VERTEX
  5
9A
330
99
100
AcDbEntity
  8
_U+30EC_U+30A4_U+30E4_U+30FC 1
 62
   179
420
  2234388
370
    25
100
AcDbVertex
100
AcDb2dVertex
 10
89.50215960490343
 20
-160.8877678362972
 30
0.0
  0
VERTEX
  5
9B
330
99
100
AcDbEntity
  8
_U+30EC_U+30A4_U+30E4_U+30FC 1
 62
   179
420
  2234388
370
    25
100
AcDbVertex
100
AcDb2dVertex
 10
89.50215960490343
 20
-161.8875560779634
 30
0.0
  0
SEQEND
  5
9C
330
99
100
AcDbEntity
  8
_U+30EC_U+30A4_U+30E4_U+30FC 1
 62
   179
420
  2234388
370
    25
  0
POLYLINE
  5
9D
330
1F
100
AcDbEntity
  8
_U+30EC_U+30A4_U+30E4_U+30FC 1
 62
   179
420
  2234388
370
    25
100
AcDb2dPolyline
 66
     1
 10
0.0
 20
0.0
 30
0.0
  0
VERTEX
  5
9E
330
9D
100
AcDbEntity
  8
_U+30EC_U+30A4_U+30E4_U+30FC 1
 62
   179
420
  2234388
370
    25
100
AcDbVertex
100
AcDb2dVertex
 10
89.50215960490343
 20
-161.8877283327377
 30
0.0
  0
VERTEX
  5
9F
330
9D
100
AcDbEntity
  8
_U+30EC_U+30A4_U+30E4_U+30FC 1
 62
   179
420
  2234388
370
    25
100
AcDbVertex
100
AcDb2dVertex
 10
90.50192631472294
 20
-161.8877283327377
 30
0.0
  0
SEQEND
  5
A0
330
9D
100
AcDbEntity
  8
_U+30EC_U+30A4_U+30E4_U+30FC 1
 62
   179
420
  2234388
370
    25
  0
POLYLINE
  5
A1
330
1F
100
AcDbEntity
  8
_U+30EC_U+30A4_U+30E4_U+30FC 1
 62
   179
420
  2234388
370
    25
100
AcDb2dPolyline
 66
     1
 10
0.0
 20
0.0
 30
0.0
  0
VERTEX
  5
A2
330
A1
100
AcDbEntity
  8
_U+30EC_U+30A4_U+30E4_U+30FC 1
 62
   179
420
  2234388
370
    25
100
AcDbVertex
100
AcDb2dVertex
 10
91.50204830001404
 20
-138.8880986184355
 30
0.0
  0
VERTEX
  5
A3
330
A1
100
AcDbEntity
  8
_U+30EC_U+30A4_U+30E4_U+30FC 1
 62
   179
420
  2234388
370
    25
100
AcDbVertex
100
AcDb2dVertex
 10
91.50204830001404
 20
-160.8891028107977
 30
0.0
  0
SEQEND
  5
A4
330
A1
100
AcDbEntity
  8
_U+30EC_U+30A4_U+30E4_U+30FC 1
 62
   179
420
  2234388
370
    25
  0
SPLINE
  5
A5
330
1F
100
AcDbEntity
  8
_U+30EC_U+30A4_U+30E4_U+30FC 1
 62
   179
420
  2234388
370
     9
100
AcDbSpline
210
0.0
220
0.0
230
1.0
 70
    11
 71
     3
 72
    17
 73
    13
 74
     0
 42
0.0000000001
 43
0.0000000001
 12
1.0
 22
0.0
 32
0.0
 13
1.0
 23
0.0
 33
0.0
 40
0.0
 40
0.0
 40
0.0
 40
0.0
 40
1.0
 40
1.0
 40
1.0
 40
2.0
 40
2.0
 40
2.0
 40
3.0
 40
3.0
 40
3.0
 40
4.0
 40
4.0
 40
4.0
 40
4.0
 10
119.8019574183731
 20
-137.8867600838009
 30
0.0
 10
119.8019574183731
 20
-137.831035664327
 30
0.0
 10
119.757149645218
 20
-137.7869384421158
 30
0.0
 10
119.7021142448412
 20
-137.7869384421158
 30
0.0
 10
119.6470788444643
 20
-137.7869384421158
 30
0.0
 10
119.6022818372327
 20
-137.831035664327
 30
0.0
 10
119.6022818372327
 20
-137.8867600838009
 30
0.0
 10
119.6022818372327
 20
-137.9417954841778
 30
0.0
 10
119.6470788444643
 20
-137.9866032573328
 30
0.0
 10
119.7021142448412
 20
-137.9866032573328
 30
0.0
 10
119.757149645218
 20
-137.9866032573328
 30
0.0
 10
119.8019574183731
 20
-137.9417954841778
 30
0.0
 10
119.8019574183731
 20
-137.8867600838009
 30
0.0
  0
SPLINE
  5
A6
330
1F
100
AcDbEntity
  8
_U+30EC_U+30A4_U+30E4_U+30FC 1
 62
   179
420
  2234388
370
     9
100
AcDbSpline
210
0.0
220
0.0
230
1.0
 70
    11
 71
     3
 72
    17
 73
    13
 74
     0
 42
0.0000000001
 43
0.0000000001
 12
1.0
 22
0.0
 32
0.0
 13
1.0
 23
0.0
 33
0.0
 40
0.0
 40
0.0
 40
0.0
 40
0.0
 40
1.0
 40
1.0
 40
1.0
 40
2.0
 40
2.0
 40
2.0
 40
3.0
 40
3.0
 40
3.0
 40
4.0
 40
4.0
 40
4.0
 40
4.0
 10
119.8019574183731
 20
-138.8867205802414
 30
0.0
 10
119.8019574183731
 20
-138.8317067117117
 30
0.0
 10
119.757149645218
 20
-138.7868989385563
 30
0.0
 10
119.7021142448412
 20
-138.7868989385563
 30
0.0
 10
119.6470788444643
 20
-138.7868989385563
 30
0.0
 10
119.6022818372327
 20
-138.8317067117117
 30
0.0
 10
119.6022818372327
 20
-138.8867205802414
 30
0.0
 10
119.6022818372327
 20
-138.9417559806183
 30
0.0
 10
119.6470788444643
 20
-138.9865637537737
 30
0.0
 10
119.7021142448412
 20
-138.9865637537737
 30
0.0
 10
119.757149645218
 20
-138.9865637537737
 30
0.0
 10
119.8019574183731
 20
-138.9417559806183
 30
0.0
 10
119.8019574183731
 20
-138.8867205802414
 30
0.0
  0
SPLINE
  5
A7
330
1F
100
AcDbEntity
  8
_U+30EC_U+30A4_U+30E4_U+30FC 1
 62
   179
420
  2234388
370
     9
100
AcDbSpline
210
0.0
220
0.0
230
1.0
 70
    11
 71
     3
 72
    17
 73
    13
 74
     0
 42
0.0000000001
 43
0.0000000001
 12
1.0
 22
0.0
 32
0.0
 13
1.0
 23
0.0
 33
0.0
 40
0.0
 40
0.0
 40
0.0
 40
0.0
 40
1.0
 40
1.0
 40
1.0
 40
2.0
 40
2.0
 40
2.0
 40
3.0
 40
3.0
 40
3.0
 40
4.0
 40
4.0
 40
4.0
 40
4.0
 10
115.6020307463816
 20
-134.1864045549408
 30
0.0
 10
115.6020307463816
 20
-134.1313906864111
 30
0.0
 10
115.5572229732266
 20
-134.0865829132557
 30
0.0
 10
115.5018322973778
 20
-134.0865829132557
 30
0.0
 10
115.4468076629243
 20
-134.0865829132557
 30
0.0
 10
115.4019998897693
 20
-134.1313906864111
 30
0.0
 10
115.4019998897693
 20
-134.1864045549408
 30
0.0
 10
115.4019998897693
 20
-134.2414399553177
 30
0.0
 10
115.4468076629243
 20
-134.286247728473
 30
0.0
 10
115.5018322973778
 20
-134.286247728473
 30
0.0
 10
115.5572229732266
 20
-134.286247728473
 30
0.0
 10
115.6020307463816
 20
-134.2414399553177
 30
0.0
 10
115.6020307463816
 20
-134.1864045549408
 30
0.0
  0
SPLINE
  5
A8
330
1F
100
AcDbEntity
  8
_U+30EC_U+30A4_U+30E4_U+30FC 1
 62
   179
420
  2234388
370
     9
100
AcDbSpline
210
0.0
220
0.0
230
1.0
 70
    11
 71
     3
 72
    17
 73
    13
 74
     0
 42
0.0000000001
 43
0.0000000001
 12
1.0
 22
0.0
 32
0.0
 13
1.0
 23
0.0
 33
0.0
 40
0.0
 40
0.0
 40
0.0
 40
0.0
 40
1.0
 40
1.0
 40
1.0
 40
2.0
 40
2.0
 40
2.0
 40
3.0
 40
3.0
 40
3.0
 40
4.0
 40
4.0
 40
4.0
 40
4.0
 10
99.80213383192913
 20
-165.8877856369677
 30
0.0
 10
99.80213383192913
 20
-165.8324057270423
 30
0.0
 10
99.75732605877378
 20
-165.7875979538873
 30
0.0
 10
99.701935382925
 20
-165.7875979538873
 30
0.0
 10
99.64691074847153
 20
-165.7875979538873
 30
0.0
 10
99.6021029753165
 20
-165.8324057270423
 30
0.0
 10
99.6021029753165
 20
-165.8877856369677
 30
0.0
 10
99.6021029753165
 20
-165.9428210373446
 30
0.0
 10
99.64691074847153
 20
-165.9876288104996
 30
0.0
 10
99.701935382925
 20
-165.9876288104996
 30
0.0
 10
99.75732605877378
 20
-165.9876288104996
 30
0.0
 10
99.80213383192913
 20
-165.9428210373446
 30
0.0
 10
99.80213383192913
 20
-165.8877856369677
 30
0.0
  0
SPLINE
  5
A9
330
1F
100
AcDbEntity
  8
_U+30EC_U+30A4_U+30E4_U+30FC 1
 62
   179
420
  2234388
370
     9
100
AcDbSpline
210
0.0
220
0.0
230
1.0
 70
    11
 71
     3
 72
    17
 73
    13
 74
     0
 42
0.0000000001
 43
0.0000000001
 12
1.0
 22
0.0
 32
0.0
 13
1.0
 23
0.0
 33
0.0
 40
0.0
 40
0.0
 40
0.0
 40
0.0
 40
1.0
 40
1.0
 40
1.0
 40
2.0
 40
2.0
 40
2.0
 40
3.0
 40
3.0
 40
3.0
 40
4.0
 40
4.0
 40
4.0
 40
4.0
 10
119.8019574183731
 20
-161.8877283327377
 30
0.0
 10
119.8019574183731
 20
-161.8327144642076
 30
0.0
 10
119.757149645218
 20
-161.7879066910526
 30
0.0
 10
119.7021142448412
 20
-161.7879066910526
 30
0.0
 10
119.6470788444643
 20
-161.7879066910526
 30
0.0
 10
119.6022818372327
 20
-161.8327144642076
 30
0.0
 10
119.6022818372327
 20
-161.8877283327377
 30
0.0
 10
119.6022818372327
 20
-161.9427637331146
 30
0.0
 10
119.6470788444643
 20
-161.9875715062696
 30
0.0
 10
119.7021142448412
 20
-161.9875715062696
 30
0.0
 10
119.757149645218
 20
-161.9875715062696
 30
0.0
 10
119.8019574183731
 20
-161.9427637331146
 30
0.0
 10
119.8019574183731
 20
-161.8877283327377
 30
0.0
  0
SPLINE
  5
AA
330
1F
100
AcDbEntity
  8
_U+30EC_U+30A4_U+30E4_U+30FC 1
 62
   179
420
  2234388
370
     9
100
AcDbSpline
210
0.0
220
0.0
230
1.0
 70
    11
 71
     3
 72
    17
 73
    13
 74
     0
 42
0.0000000001
 43
0.0000000001
 12
1.0
 22
0.0
 32
0.0
 13
1.0
 23
0.0
 33
0.0
 40
0.0
 40
0.0
 40
0.0
 40
0.0
 40
1.0
 40
1.0
 40
1.0
 40
2.0
 40
2.0
 40
2.0
 40
3.0
 40
3.0
 40
3.0
 40
4.0
 40
4.0
 40
4.0
 40
4.0
 10
119.8019574183731
 20
-151.8878003906305
 30
0.0
 10
119.8019574183731
 20
-151.8327865221004
 30
0.0
 10
119.757149645218
 20
-151.7879787489454
 30
0.0
 10
119.7021142448412
 20
-151.7879787489454
 30
0.0
 10
119.6470788444643
 20
-151.7879787489454
 30
0.0
 10
119.6022818372327
 20
-151.8327865221004
 30
0.0
 10
119.6022818372327
 20
-151.8878003906305
 30
0.0
 10
119.6022818372327
 20
-151.9428357910074
 30
0.0
 10
119.6470788444643
 20
-151.9876435641624
 30
0.0
 10
119.7021142448412
 20
-151.9876435641624
 30
0.0
 10
119.757149645218
 20
-151.9876435641624
 30
0.0
 10
119.8019574183731
 20
-151.9428357910074
 30
0.0
 10
119.8019574183731
 20
-151.8878003906305
 30
0.0
  0
SPLINE
  5
AB
330
1F
100
AcDbEntity
  8
_U+30EC_U+30A4_U+30E4_U+30FC 1
 62
   179
420
  2234388
370
     9
100
AcDbSpline
210
0.0
220
0.0
230
1.0
 70
    11
 71
     3
 72
    17
 73
    13
 74
     0
 42
0.0000000001
 43
0.0000000001
 12
1.0
 22
0.0
 32
0.0
 13
1.0
 23
0.0
 33
0.0
 40
0.0
 40
0.0
 40
0.0
 40
0.0
 40
1.0
 40
1.0
 40
1.0
 40
2.0
 40
2.0
 40
2.0
 40
3.0
 40
3.0
 40
3.0
 40
4.0
 40
4.0
 40
4.0
 40
4.0
 10
90.80200489741127
 20
-134.1864045549408
 30
0.0
 10
90.80200489741127
 20
-134.1313906864111
 30
0.0
 10
90.75719712425624
 20
-134.0865829132557
 30
0.0
 10
90.70216172387937
 20
-134.0865829132557
 30
0.0
 10
90.6471263235025
 20
-134.0865829132557
 30
0.0
 10
90.60232931627087
 20
-134.1313906864111
 30
0.0
 10
90.60232931627087
 20
-134.1864045549408
 30
0.0
 10
90.60232931627087
 20
-134.2414399553177
 30
0.0
 10
90.6471263235025
 20
-134.286247728473
 30
0.0
 10
90.70216172387937
 20
-134.286247728473
 30
0.0
 10
90.75719712425624
 20
-134.286247728473
 30
0.0
 10
90.80200489741127
 20
-134.2414399553177
 30
0.0
 10
90.80200489741127
 20
-134.1864045549408
 30
0.0
  0
SPLINE
  5
AC
330
1F
100
AcDbEntity
  8
_U+30EC_U+30A4_U+30E4_U+30FC 1
 62
   179
420
  2234388
370
     9
100
AcDbSpline
210
0.0
220
0.0
230
1.0
 70
    11
 71
     3
 72
    17
 73
    13
 74
     0
 42
0.0000000001
 43
0.0000000001
 12
1.0
 22
0.0
 32
0.0
 13
1.0
 23
0.0
 33
0.0
 40
0.0
 40
0.0
 40
0.0
 40
0.0
 40
1.0
 40
1.0
 40
1.0
 40
2.0
 40
2.0
 40
2.0
 40
3.0
 40
3.0
 40
3.0
 40
4.0
 40
4.0
 40
4.0
 40
4.0
 10
89.80205516689443
 20
-165.8877856369677
 30
0.0
 10
89.80205516689443
 20
-165.8324057270423
 30
0.0
 10
89.75724739373908
 20
-165.7875979538873
 30
0.0
 10
89.70221199336221
 20
-165.7875979538873
 30
0.0
 10
89.64717659298535
 20
-165.7875979538873
 30
0.0
 10
89.60237958575371
 20
-165.8324057270423
 30
0.0
 10
89.60237958575371
 20
-165.8877856369677
 30
0.0
 10
89.60237958575371
 20
-165.9428210373446
 30
0.0
 10
89.64717659298535
 20
-165.9876288104996
 30
0.0
 10
89.70221199336221
 20
-165.9876288104996
 30
0.0
 10
89.75724739373908
 20
-165.9876288104996
 30
0.0
 10
89.80205516689443
 20
-165.9428210373446
 30
0.0
 10
89.80205516689443
 20
-165.8877856369677
 30
0.0
  0
POLYLINE
  5
AD
330
1F
100
AcDbEntity
  8
_U+30EC_U+30A4_U+30E4_U+30FC 1
 62
   179
420
  2234388
370
     9
100
AcDb2dPolyline
 66
     1
 10
0.0
 20
0.0
 30
0.0
  0
VERTEX
  5
AE
330
AD
100
AcDbEntity
  8
_U+30EC_U+30A4_U+30E4_U+30FC 1
 62
   179
420
  2234388
370
     9
100
AcDbVertex
100
AcDb2dVertex
 10
119.7022219040751
 20
-138.0867478767196
 30
0.0
  0
VERTEX
  5
AF
330
AD
100
AcDbEntity
  8
_U+30EC_U+30A4_U+30E4_U+30FC 1
 62
   179
420
  2234388
370
     9
100
AcDbVertex
100
AcDb2dVertex
 10
119.7022219040751
 20
-132.8289508063652
 30
0.0
  0
SEQEND
  5
B0
330
AD
100
AcDbEntity
  8
_U+30EC_U+30A4_U+30E4_U+30FC 1
 62
   179
420
  2234388
370
     9
  0
POLYLINE
  5
B1
330
1F
100
AcDbEntity
  8
_U+30EC_U+30A4_U+30E4_U+30FC 1
 62
   179
420
  2234388
370
     9
100
AcDb2dPolyline
 66
     1
 10
0.0
 20
0.0
 30
0.0
  0
VERTEX
  5
B2
330
B1
100
AcDbEntity
  8
_U+30EC_U+30A4_U+30E4_U+30FC 1
 62
   179
420
  2234388
370
     9
100
AcDbVertex
100
AcDb2dVertex
 10
119.7022219040751
 20
-138.0867478767196
 30
0.0
  0
VERTEX
  5
B3
330
B1
100
AcDbEntity
  8
_U+30EC_U+30A4_U+30E4_U+30FC 1
 62
   179
420
  2234388
370
     9
100
AcDbVertex
100
AcDb2dVertex
 10
119.7022219040751
 20
-138.8868497713221
 30
0.0
  0
SEQEND
  5
B4
330
B1
100
AcDbEntity
  8
_U+30EC_U+30A4_U+30E4_U+30FC 1
 62
   179
420
  2234388
370
     9
  0
POLYLINE
  5
B5
330
1F
100
AcDbEntity
  8
_U+30EC_U+30A4_U+30E4_U+30FC 1
 62
   179
420
  2234388
370
     9
100
AcDb2dPolyline
 66
     1
 10
0.0
 20
0.0
 30
0.0
  0
VERTEX
  5
B6
330
B5
100
AcDbEntity
  8
_U+30EC_U+30A4_U+30E4_U+30FC 1
 62
   179
420
  2234388
370
     9
100
AcDbVertex
100
AcDb2dVertex
 10
118.2420074167286
 20
-137.8867600838009
 30
0.0
  0
VERTEX
  5
B7
330
B5
100
AcDbEntity
  8
_U+30EC_U+30A4_U+30E4_U+30FC 1
 62
   179
420
  2234388
370
     9
100
AcDbVertex
100
AcDb2dVertex
 10
120.7026238033747
 20
-137.8867600838009
 30
0.0
  0
SEQEND
  5
B8
330
B5
100
AcDbEntity
  8
_U+30EC_U+30A4_U+30E4_U+30FC 1
 62
   179
420
  2234388
370
     9
  0
POLYLINE
  5
B9
330
1F
100
AcDbEntity
  8
_U+30EC_U+30A4_U+30E4_U+30FC 1
 62
   179
420
  2234388
370
     9
100
AcDb2dPolyline
 66
     1
 10
0.0
 20
0.0
 30
0.0
  0
VERTEX
  5
BA
330
B9
100
AcDbEntity
  8
_U+30EC_U+30A4_U+30E4_U+30FC 1
 62
   179
420
  2234388
370
     9
100
AcDbVertex
100
AcDb2dVertex
 10
118.2420074167286
 20
-138.8867205802414
 30
0.0
  0
VERTEX
  5
BB
330
B9
100
AcDbEntity
  8
_U+30EC_U+30A4_U+30E4_U+30FC 1
 62
   179
420
  2234388
370
     9
100
AcDbVertex
100
AcDb2dVertex
 10
120.7026238033747
 20
-138.8867205802414
 30
0.0
  0
SEQEND
  5
BC
330
B9
100
AcDbEntity
  8
_U+30EC_U+30A4_U+30E4_U+30FC 1
 62
   179
420
  2234388
370
     9
  0
POLYLINE
  5
BD
330
1F
100
AcDbEntity
  8
_U+30EC_U+30A4_U+30E4_U+30FC 1
 62
   179
420
  2234388
370
     9
100
AcDb2dPolyline
 66
     1
 10
0.0
 20
0.0
 30
0.0
  0
VERTEX
  5
BE
330
BD
100
AcDbEntity
  8
_U+30EC_U+30A4_U+30E4_U+30FC 1
 62
   179
420
  2234388
370
     9
100
AcDbVertex
100
AcDb2dVertex
 10
119.7022219040751
 20
-151.8878003906305
 30
0.0
  0
VERTEX
  5
BF
330
BD
100
AcDbEntity
  8
_U+30EC_U+30A4_U+30E4_U+30FC 1
 62
   179
420
  2234388
370
     9
100
AcDbVertex
100
AcDb2dVertex
 10
119.7022219040751
 20
-138.8879478955084
 30
0.0
  0
SEQEND
  5
C0
330
BD
100
AcDbEntity
  8
_U+30EC_U+30A4_U+30E4_U+30FC 1
 62
   179
420
  2234388
370
     9
  0
POLYLINE
  5
C1
330
1F
100
AcDbEntity
  8
_U+30EC_U+30A4_U+30E4_U+30FC 1
 62
   179
420
  2234388
370
     9
100
AcDb2dPolyline
 66
     1
 10
0.0
 20
0.0
 30
0.0
  0
VERTEX
  5
C2
330
C1
100
AcDbEntity
  8
_U+30EC_U+30A4_U+30E4_U+30FC 1
 62
   179
420
  2234388
370
     9
100
AcDbVertex
100
AcDb2dVertex
 10
102.2419504545831
 20
-151.8878003906305
 30
0.0
  0
VERTEX
  5
C3
330
C1
100
AcDbEntity
  8
_U+30EC_U+30A4_U+30E4_U+30FC 1
 62
   179
420
  2234388
370
     9
100
AcDbVertex
100
AcDb2dVertex
 10
120.7024515486004
 20
-151.8878003906305
 30
0.0
  0
SEQEND
  5
C4
330
C1
100
AcDbEntity
  8
_U+30EC_U+30A4_U+30E4_U+30FC 1
 62
   179
420
  2234388
370
     9
  0
POLYLINE
  5
C5
330
1F
100
AcDbEntity
  8
_U+30EC_U+30A4_U+30E4_U+30FC 1
 62
   179
420
  2234388
370
     9
100
AcDb2dPolyline
 66
     1
 10
0.0
 20
0.0
 30
0.0
  0
VERTEX
  5
C6
330
C5
100
AcDbEntity
  8
_U+30EC_U+30A4_U+30E4_U+30FC 1
 62
   179
420
  2234388
370
     9
100
AcDbVertex
100
AcDb2dVertex
 10
119.7022219040751
 20
-151.8878003906305
 30
0.0
  0
VERTEX
  5
C7
330
C5
100
AcDbEntity
  8
_U+30EC_U+30A4_U+30E4_U+30FC 1
 62
   179
420
  2234388
370
     9
100
AcDbVertex
100
AcDb2dVertex
 10
119.7022219040751
 20
-161.8876422053506
 30
0.0
  0
SEQEND
  5
C8
330
C5
100
AcDbEntity
  8
_U+30EC_U+30A4_U+30E4_U+30FC 1
 62
   179
420
  2234388
370
     9
  0
POLYLINE
  5
C9
330
1F
100
AcDbEntity
  8
_U+30EC_U+30A4_U+30E4_U+30FC 1
 62
   179
420
  2234388
370
     9
100
AcDb2dPolyline
 66
     1
 10
0.0
 20
0.0
 30
0.0
  0
VERTEX
  5
CA
330
C9
100
AcDbEntity
  8
_U+30EC_U+30A4_U+30E4_U+30FC 1
 62
   179
420
  2234388
370
     9
100
AcDbVertex
100
AcDb2dVertex
 10
102.2419504545831
 20
-161.8877283327377
 30
0.0
  0
VERTEX
  5
CB
330
C9
100
AcDbEntity
  8
_U+30EC_U+30A4_U+30E4_U+30FC 1
 62
   179
420
  2234388
370
     9
100
AcDbVertex
100
AcDb2dVertex
 10
120.7024515486004
 20
-161.8877283327377
 30
0.0
  0
SEQEND
  5
CC
330
C9
100
AcDbEntity
  8
_U+30EC_U+30A4_U+30E4_U+30FC 1
 62
   179
420
  2234388
370
     9
  0
POLYLINE
  5
CD
330
1F
100
AcDbEntity
  8
_U+30EC_U+30A4_U+30E4_U+30FC 1
 62
   179
420
  2234388
370
     9
100
AcDb2dPolyline
 66
     1
 10
0.0
 20
0.0
 30
0.0
  0
VERTEX
  5
CE
330
CD
100
AcDbEntity
  8
_U+30EC_U+30A4_U+30E4_U+30FC 1
 62
   179
420
  2234388
370
     9
100
AcDbVertex
100
AcDb2dVertex
 10
89.70214739782219
 20
-165.8877856369677
 30
0.0
  0
VERTEX
  5
CF
330
CD
100
AcDbEntity
  8
_U+30EC_U+30A4_U+30E4_U+30FC 1
 62
   179
420
  2234388
370
     9
100
AcDbVertex
100
AcDb2dVertex
 10
99.70197844661857
 20
-165.8877856369677
 30
0.0
  0
SEQEND
  5
D0
330
CD
100
AcDbEntity
  8
_U+30EC_U+30A4_U+30E4_U+30FC 1
 62
   179
420
  2234388
370
     9
  0
POLYLINE
  5
D1
330
1F
100
AcDbEntity
  8
_U+30EC_U+30A4_U+30E4_U+30FC 1
 62
   179
420
  2234388
370
     9
100
AcDb2dPolyline
 66
     1
 10
0.0
 20
0.0
 30
0.0
  0
VERTEX
  5
D2
330
D1
100
AcDbEntity
  8
_U+30EC_U+30A4_U+30E4_U+30FC 1
 62
   179
420
  2234388
370
     9
100
AcDbVertex
100
AcDb2dVertex
 10
89.70214739782219
 20
-164.4277972340124
 30
0.0
  0
VERTEX
  5
D3
330
D1
100
AcDbEntity
  8
_U+30EC_U+30A4_U+30E4_U+30FC 1
 62
   179
420
  2234388
370
     9
100
AcDbVertex
100
AcDb2dVertex
 10
89.70214739782219
 20
-166.8877246015615
 30
0.0
  0
SEQEND
  5
D4
330
D1
100
AcDbEntity
  8
_U+30EC_U+30A4_U+30E4_U+30FC 1
 62
   179
420
  2234388
370
     9
  0
POLYLINE
  5
D5
330
1F
100
AcDbEntity
  8
_U+30EC_U+30A4_U+30E4_U+30FC 1
 62
   179
420
  2234388
370
     9
100
AcDb2dPolyline
 66
     1
 10
0.0
 20
0.0
 30
0.0
  0
VERTEX
  5
D6
330
D5
100
AcDbEntity
  8
_U+30EC_U+30A4_U+30E4_U+30FC 1
 62
   179
420
  2234388
370
     9
100
AcDbVertex
100
AcDb2dVertex
 10
99.70188155330837
 20
-164.4277972340124
 30
0.0
  0
VERTEX
  5
D7
330
D5
100
AcDbEntity
  8
_U+30EC_U+30A4_U+30E4_U+30FC 1
 62
   179
420
  2234388
370
     9
100
AcDbVertex
100
AcDb2dVertex
 10
99.70188155330837
 20
-166.8877246015615
 30
0.0
  0
SEQEND
  5
D8
330
D5
100
AcDbEntity
  8
_U+30EC_U+30A4_U+30E4_U+30FC 1
 62
   179
420
  2234388
370
     9
  0
POLYLINE
  5
D9
330
1F
100
AcDbEntity
  8
_U+30EC_U+30A4_U+30E4_U+30FC 1
 62
   179
420
  2234388
370
     9
100
AcDb2dPolyline
 66
     1
 10
0.0
 20
0.0
 30
0.0
  0
VERTEX
  5
DA
330
D9
100
AcDbEntity
  8
_U+30EC_U+30A4_U+30E4_U+30FC 1
 62
   179
420
  2234388
370
     9
100
AcDbVertex
100
AcDb2dVertex
 10
90.70209712833902
 20
-134.1864045549408
 30
0.0
  0
VERTEX
  5
DB
330
D9
100
AcDbEntity
  8
_U+30EC_U+30A4_U+30E4_U+30FC 1
 62
   179
420
  2234388
370
     9
100
AcDbVertex
100
AcDb2dVertex
 10
115.5016600426035
 20
-134.1864045549408
 30
0.0
  0
SEQEND
  5
DC
330
D9
100
AcDbEntity
  8
_U+30EC_U+30A4_U+30E4_U+30FC 1
 62
   179
420
  2234388
370
     9
  0
POLYLINE
  5
DD
330
1F
100
AcDbEntity
  8
_U+30EC_U+30A4_U+30E4_U+30FC 1
 62
   179
420
  2234388
370
     9
100
AcDb2dPolyline
 66
     1
 10
0.0
 20
0.0
 30
0.0
  0
VERTEX
  5
DE
330
DD
100
AcDbEntity
  8
_U+30EC_U+30A4_U+30E4_U+30FC 1
 62
   179
420
  2234388
370
     9
100
AcDbVertex
100
AcDb2dVertex
 10
90.70209712833902
 20
-135.6463714260497
 30
0.0
  0
VERTEX
  5
DF
330
DD
100
AcDbEntity
  8
_U+30EC_U+30A4_U+30E4_U+30FC 1
 62
   179
420
  2234388
370
     9
100
AcDbVertex
100
AcDb2dVertex
 10
90.70209712833902
 20
-133.186465590347
 30
0.0
  0
SEQEND
  5
E0
330
DD
100
AcDbEntity
  8
_U+30EC_U+30A4_U+30E4_U+30FC 1
 62
   179
420
  2234388
370
     9
  0
POLYLINE
  5
E1
330
1F
100
AcDbEntity
  8
_U+30EC_U+30A4_U+30E4_U+30FC 1
 62
   179
420
  2234388
370
     9
100
AcDb2dPolyline
 66
     1
 10
0.0
 20
0.0
 30
0.0
  0
VERTEX
  5
E2
330
E1
100
AcDbEntity
  8
_U+30EC_U+30A4_U+30E4_U+30FC 1
 62
   179
420
  2234388
370
     9
100
AcDbVertex
100
AcDb2dVertex
 10
115.5017677018375
 20
-135.6463714260497
 30
0.0
  0
VERTEX
  5
E3
330
E1
100
AcDbEntity
  8
_U+30EC_U+30A4_U+30E4_U+30FC 1
 62
   179
420
  2234388
370
     9
100
AcDbVertex
100
AcDb2dVertex
 10
115.5017677018375
 20
-133.186465590347
 30
0.0
  0
SEQEND
  5
E4
330
E1
100
AcDbEntity
  8
_U+30EC_U+30A4_U+30E4_U+30FC 1
 62
   179
420
  2234388
370
     9
  0
POLYLINE
  5
E5
330
1F
100
AcDbEntity
  8
_U+30EC_U+30A4_U+30E4_U+30FC 1
 62
   179
420
  2234388
370
    25
100
AcDb2dPolyline
 66
     1
 10
0.0
 20
0.0
 30
0.0
  0
VERTEX
  5
E6
330
E5
100
AcDbEntity
  8
_U+30EC_U+30A4_U+30E4_U+30FC 1
 62
   179
420
  2234388
370
    25
100
AcDbVertex
100
AcDb2dVertex
 10
90.50210933542027
 20
-137.8936718066182
 30
0.0
  0
VERTEX
  5
E7
330
E5
100
AcDbEntity
  8
_U+30EC_U+30A4_U+30E4_U+30FC 1
 62
   179
420
  2234388
370
    25
100
AcDbVertex
100
AcDb2dVertex
 10
90.50210933542027
 20
-160.8877463044504
 30
0.0
  0
SEQEND
  5
E8
330
E5
100
AcDbEntity
  8
_U+30EC_U+30A4_U+30E4_U+30FC 1
 62
   179
420
  2234388
370
    25
  0
POLYLINE
  5
E9
330
1F
100
AcDbEntity
  8
_U+30EC_U+30A4_U+30E4_U+30FC 1
 62
   179
420
  2234388
370
    25
100
AcDb2dPolyline
 66
     1
 10
0.0
 20
0.0
 30
0.0
  0
VERTEX
  5
EA
330
E9
100
AcDbEntity
  8
_U+30EC_U+30A4_U+30E4_U+30FC 1
 62
   179
420
  2234388
370
    25
100
AcDbVertex
100
AcDb2dVertex
 10
99.5313493267885
 20
-151.8879941772515
 30
0.0
  0
VERTEX
  5
EB
330
E9
100
AcDbEntity
  8
_U+30EC_U+30A4_U+30E4_U+30FC 1
 62
   179
420
  2234388
370
    25
100
AcDbVertex
100
AcDb2dVertex
 10
99.5313493267885
 20
-161.8878359919716
 30
0.0
  0
SEQEND
  5
EC
330
E9
100
AcDbEntity
  8
_U+30EC_U+30A4_U+30E4_U+30FC 1
 62
   179
420
  2234388
370
    25
  0
ENDSEC
  0
SECTION
  2
OBJECTS
  0
DICTIONARY
  5
C
330
0
100
AcDbDictionary
281
     1
  3
ACAD_GROUP
350
D
  3
ACAD_LAYOUT
350
1A
  3
ACAD_MATERIAL
350
3B
  3
ACAD_MLEADERSTYLE
350
EE
  3
ACAD_MLINESTYLE
350
17
  3
ACAD_PLOTSETTINGS
350
19
  3
ACAD_PLOTSTYLENAME
350
E
  3
ACAD_TABLESTYLE
350
ED
  3
ACAD_VISUALSTYLE
350
2A
  0
SUN
  5
3F
330
29
100
AcDbSun
 90
        1
290
     0
 63
     7
421
 16777215
 40
1.0
291
     1
 91
  2455826
 92
 54000000
292
     0
 70
     2
 71
   256
280
     1
  0
DICTIONARY
  5
D
102
{ACAD_REACTORS
330
C
102
}
330
C
100
AcDbDictionary
281
     1
  0
DICTIONARY
  5
1A
102
{ACAD_REACTORS
330
C
102
}
330
C
100
AcDbDictionary
281
     1
  3
Layout1
350
1E
  3
Layout2
350
26
  3
Model
350
22
  0
DICTIONARY
  5
3B
102
{ACAD_REACTORS
330
C
102
}
330
C
100
AcDbDictionary
281
     1
  3
ByBlock
350
3D
  3
ByLayer
350
3C
  3
Global
350
3E
  0
DICTIONARY
  5
EE
102
{ACAD_REACTORS
330
C
102
}
330
C
100
AcDbDictionary
281
     1
  0
DICTIONARY
  5
17
102
{ACAD_REACTORS
330
C
102
}
330
C
100
AcDbDictionary
281
     1
  3
Standard
350
18
  0
DICTIONARY
  5
19
102
{ACAD_REACTORS
330
C
102
}
330
C
100
AcDbDictionary
281
     1
  0
ACDBDICTIONARYWDFLT
  5
E
102
{ACAD_REACTORS
330
C
102
}
330
C
100
AcDbDictionary
281
     1
  3
Normal
350
F
100
AcDbDictionaryWithDefault
340
F
  0
DICTIONARY
  5
ED
102
{ACAD_REACTORS
330
C
102
}
330
C
100
AcDbDictionary
281
     1
  0
DICTIONARY
  5
2A
102
{ACAD_REACTORS
330
C
102
}
330
C
100
AcDbDictionary
281
     1
  3
2dWireframe
350
2F
  3
3D Hidden
350
31
  3
3dWireframe
350
30
  3
Basic
350
32
  3
Brighten
350
36
  3
ColorChange
350
3A
  3
Conceptual
350
34
  3
Dim
350
35
  3
Facepattern
350
39
  3
Flat
350
2B
  3
FlatWithEdges
350
2C
  3
Gouraud
350
2D
  3
GouraudWithEdges
350
2E
  3
Linepattern
350
38
  3
Realistic
350
33
  3
Thicken
350
37
  0
LAYOUT
  5
1E
102
{ACAD_REACTORS
330
1A
102
}
330
1A
100
AcDbPlotSettings
  1

  2
none_device
  4

  6

 40
0.0
 41
0.0
 42
0.0
 43
0.0
 44
0.0
 45
0.0
 46
0.0
 47
0.0
 48
0.0
 49
0.0
140
0.0
141
0.0
142
1.0
143
1.0
 70
   688
 72
     0
 73
     0
 74
     5
  7

 75
    16
 76
     0
 77
     2
 78
   300
147
1.0
148
0.0
149
0.0
100
AcDbLayout
  1
Layout1
 70
     1
 71
     1
 10
0.0
 20
0.0
 11
12.0
 21
9.0
 12
0.0
 22
0.0
 32
0.0
 14
1.000000000000000E+20
 24
1.000000000000000E+20
 34
1.000000000000000E+20
 15
-1.000000000000000E+20
 25
-1.000000000000000E+20
 35
-1.000000000000000E+20
146
0.0
 13
0.0
 23
0.0
 33
0.0
 16
1.0
 26
0.0
 36
0.0
 17
0.0
 27
1.0
 37
0.0
 76
     0
330
1B
  0
LAYOUT
  5
26
102
{ACAD_REACTORS
330
1A
102
}
330
1A
100
AcDbPlotSettings
  1

  2
none_device
  4

  6

 40
0.0
 41
0.0
 42
0.0
 43
0.0
 44
0.0
 45
0.0
 46
0.0
 47
0.0
 48
0.0
 49
0.0
140
0.0
141
0.0
142
1.0
143
1.0
 70
   688
 72
     0
 73
     0
 74
     5
  7

 75
    16
 76
     0
 77
     2
 78
   300
147
1.0
148
0.0
149
0.0
100
AcDbLayout
  1
Layout2
 70
     1
 71
     2
 10
0.0
 20
0.0
 11
0.0
 21
0.0
 12
0.0
 22
0.0
 32
0.0
 14
0.0
 24
0.0
 34
0.0
 15
0.0
 25
0.0
 35
0.0
146
0.0
 13
0.0
 23
0.0
 33
0.0
 16
1.0
 26
0.0
 36
0.0
 17
0.0
 27
1.0
 37
0.0
 76
     0
330
23
  0
LAYOUT
  5
22
102
{ACAD_REACTORS
330
1A
102
}
330
1A
100
AcDbPlotSettings
  1

  2
none_device
  4

  6

 40
0.0
 41
0.0
 42
0.0
 43
0.0
 44
0.0
 45
0.0
 46
0.0
 47
0.0
 48
0.0
 49
0.0
140
0.0
141
0.0
142
1.0
143
1.0
 70
  1712
 72
     0
 73
     0
 74
     0
  7

 75
     0
 76
     0
 77
     2
 78
   300
147
1.0
148
0.0
149
0.0
100
AcDbLayout
  1
Model
 70
     1
 71
     0
 10
0.0
 20
0.0
 11
12.0
 21
9.0
 12
0.0
 22
0.0
 32
0.0
 14
1.000000000000000E+20
 24
1.000000000000000E+20
 34
1.000000000000000E+20
 15
-1.000000000000000E+20
 25
-1.000000000000000E+20
 35
-1.000000000000000E+20
146
0.0
 13
0.0
 23
0.0
 33
0.0
 16
1.0
 26
0.0
 36
0.0
 17
0.0
 27
1.0
 37
0.0
 76
     0
330
1F
331
29
  0
MATERIAL
  5
3D
102
{ACAD_REACTORS
330
3B
102
}
330
3B
100
AcDbMaterial
  1
ByBlock
 72
     1
 94
      127
  0
MATERIAL
  5
3C
102
{ACAD_REACTORS
330
3B
102
}
330
3B
100
AcDbMaterial
  1
ByLayer
 72
     1
 94
      127
  0
MATERIAL
  5
3E
102
{ACAD_REACTORS
330
3B
102
}
330
3B
100
AcDbMaterial
  1
Global
 72
     1
 94
      127
  0
MLINESTYLE
  5
18
102
{ACAD_REACTORS
330
17
102
}
330
17
100
AcDbMlineStyle
  2
Standard
 70
     0
  3

 62
   256
 51
90.0
 52
90.0
 71
     2
 49
0.5
 62
   256
  6
BYLAYER
 49
-0.5
 62
   256
  6
BYLAYER
  0
ACDBPLACEHOLDER
  5
F
102
{ACAD_REACTORS
330
E
102
}
330
E
  0
VISUALSTYLE
  5
2F
102
{ACAD_REACTORS
330
2A
102
}
330
2A
100
AcDbVisualStyle
  2
2dWireframe
 70
     4
177
     2
291
     0
 71
     0
176
     1
 72
     2
176
     1
 73
     0
176
     1
 90
        0
176
     1
 40
-0.6
176
     1
 41
-30.0
176
     1
 62
     5
 63
     7
421
 16777215
176
     1
 74
     1
176
     1
 91
        4
176
     1
 64
     7
176
     1
 65
   257
176
     1
 75
     1
176
     1
175
     1
176
     1
 42
1.0
176
     1
 92
        0
176
     1
 66
   257
176
     1
 43
1.0
176
     1
 76
     1
176
     1
 77
     6
176
     1
 78
     2
176
     1
 67
     7
176
     1
 79
     5
176
     1
170
     0
176
     1
171
     0
176
     1
290
     0
176
     1
 93
        1
176
     1
 44
0.0
176
     1
173
     0
176
     1
  0
VISUALSTYLE
  5
31
102
{ACAD_REACTORS
330
2A
102
}
330
2A
100
AcDbVisualStyle
  2
3D Hidden
 70
     6
177
     2
291
     0
 71
     1
176
     1
 72
     2
176
     1
 73
     2
176
     1
 90
        0
176
     1
 40
-0.6
176
     1
 41
-30.0
176
     1
 62
     5
 63
     7
421
 16777215
176
     1
 74
     2
176
     1
 91
        2
176
     1
 64
     7
176
     1
 65
   257
176
     1
 75
     2
176
     1
175
     1
176
     1
 42
40.0
176
     1
 92
        0
176
     1
 66
   257
176
     1
 43
1.0
176
     1
 76
     1
176
     1
 77
     6
176
     1
 78
     2
176
     1
 67
     7
176
     1
 79
     3
176
     1
170
     0
176
     1
171
     0
176
     1
290
     0
176
     1
 93
        1
176
     1
 44
0.0
176
     1
173
     0
176
     1
  0
VISUALSTYLE
  5
30
102
{ACAD_REACTORS
330
2A
102
}
330
2A
100
AcDbVisualStyle
  2
3dWireframe
 70
     5
177
     2
291
     0
 71
     0
176
     1
 72
     2
176
     1
 73
     0
176
     1
 90
        0
176
     1
 40
-0.6
176
     1
 41
-30.0
176
     1
 62
     5
 63
     7
421
 16777215
176
     1
 74
     1
176
     1
 91
        4
176
     1
 64
     7
176
     1
 65
   257
176
     1
 75
     1
176
     1
175
     1
176
     1
 42
1.0
176
     1
 92
        0
176
     1
 66
   257
176
     1
 43
1.0
176
     1
 76
     1
176
     1
 77
     6
176
     1
 78
     2
176
     1
 67
     7
176
     1
 79
     5
176
     1
170
     0
176
     1
171
     0
176
     1
290
     0
176
     1
 93
        1
176
     1
 44
0.0
176
     1
173
     0
176
     1
  0
VISUALSTYLE
  5
32
102
{ACAD_REACTORS
330
2A
102
}
330
2A
100
AcDbVisualStyle
  2
Basic
 70
     7
177
     2
291
     1
 71
     1
176
     1
 72
     0
176
     1
 73
     1
176
     1
 90
        0
176
     1
 40
-0.6
176
     1
 41
-30.0
176
     1
 62
     5
 63
     7
421
 16777215
176
     1
 74
     0
176
     1
 91
        4
176
     1
 64
     7
176
     1
 65
   257
176
     1
 75
     1
176
     1
175
     1
176
     1
 42
1.0
176
     1
 92
        8
176
     1
 66
     7
176
     1
 43
1.0
176
     1
 76
     1
176
     1
 77
     6
176
     1
 78
     2
176
     1
 67
     7
176
     1
 79
     5
176
     1
170
     0
176
     1
171
     0
176
     1
290
     0
176
     1
 93
        1
176
     1
 44
0.0
176
     1
173
     0
176
     1
  0
VISUALSTYLE
  5
36
102
{ACAD_REACTORS
330
2A
102
}
330
2A
100
AcDbVisualStyle
  2
Brighten
 70
    12
177
     2
291
     1
 71
     2
176
     1
 72
     2
176
     1
 73
     0
176
     1
 90
        0
176
     1
 40
-0.6
176
     1
 41
-30.0
176
     1
 62
     5
 63
     7
421
 16777215
176
     1
 74
     1
176
     1
 91
        4
176
     1
 64
     7
176
     1
 65
   257
176
     1
 75
     1
176
     1
175
     1
176
     1
 42
1.0
176
     1
 92
        8
176
     1
 66
     7
176
     1
 43
1.0
176
     1
 76
     1
176
     1
 77
     6
176
     1
 78
     2
176
     1
 67
     7
176
     1
 79
     5
176
     1
170
     0
176
     1
171
     0
176
     1
290
     0
176
     1
 93
        1
176
     1
 44
50.0
176
     1
173
     0
176
     1
  0
VISUALSTYLE
  5
3A
102
{ACAD_REACTORS
330
2A
102
}
330
2A
100
AcDbVisualStyle
  2
ColorChange
 70
    16
177
     2
291
     1
 71
     2
176
     1
 72
     2
176
     1
 73
     3
176
     1
 90
        0
176
     1
 40
-0.6
176
     1
 41
-30.0
176
     1
 62
     5
 63
     8
421
  8421504
176
     1
 74
     1
176
     1
 91
        4
176
     1
 64
     7
176
     1
 65
   257
176
     1
 75
     1
176
     1
175
     1
176
     1
 42
1.0
176
     1
 92
        8
176
     1
 66
     8
424
  8421504
176
     1
 43
1.0
176
     1
 76
     1
176
     1
 77
     6
176
     1
 78
     2
176
     1
 67
     7
176
     1
 79
     5
176
     1
170
     0
176
     1
171
     0
176
     1
290
     0
176
     1
 93
        1
176
     1
 44
0.0
176
     1
173
     0
176
     1
  0
VISUALSTYLE
  5
34
102
{ACAD_REACTORS
330
2A
102
}
330
2A
100
AcDbVisualStyle
  2
Conceptual
 70
     9
177
     2
291
     0
 71
     3
176
     1
 72
     2
176
     1
 73
     0
176
     1
 90
        0
176
     1
 40
-0.6
176
     1
 41
-30.0
176
     1
 62
     5
 63
     7
421
 16777215
176
     1
 74
     2
176
     1
 91
        2
176
     1
 64
     7
176
     1
 65
   257
176
     1
 75
     1
176
     1
175
     1
176
     1
 42
40.0
176
     1
 92
        8
176
     1
 66
     7
176
     1
 43
1.0
176
     1
 76
     1
176
     1
 77
     6
176
     1
 78
     2
176
     1
 67
     7
176
     1
 79
     3
176
     1
170
     0
176
     1
171
     0
176
     1
290
     0
176
     1
 93
        1
176
     1
 44
0.0
176
     1
173
     0
176
     1
  0
VISUALSTYLE
  5
35
102
{ACAD_REACTORS
330
2A
102
}
330
2A
100
AcDbVisualStyle
  2
Dim
 70
    11
177
     2
291
     1
 71
     2
176
     1
 72
     2
176
     1
 73
     0
176
     1
 90
        0
176
     1
 40
-0.6
176
     1
 41
-30.0
176
     1
 62
     5
 63
     7
421
 16777215
176
     1
 74
     1
176
     1
 91
        4
176
     1
 64
     7
176
     1
 65
   257
176
     1
 75
     1
176
     1
175
     1
176
     1
 42
1.0
176
     1
 92
        8
176
     1
 66
     7
176
     1
 43
1.0
176
     1
 76
     1
176
     1
 77
     6
176
     1
 78
     2
176
     1
 67
     7
176
     1
 79
     5
176
     1
170
     0
176
     1
171
     0
176
     1
290
     0
176
     1
 93
        1
176
     1
 44
-50.0
176
     1
173
     0
176
     1
  0
VISUALSTYLE
  5
39
102
{ACAD_REACTORS
330
2A
102
}
330
2A
100
AcDbVisualStyle
  2
Facepattern
 70
    15
177
     2
291
     1
 71
     2
176
     1
 72
     2
176
     1
 73
     0
176
     1
 90
        0
176
     1
 40
-0.6
176
     1
 41
-30.0
176
     1
 62
     5
 63
     7
421
 16777215
176
     1
 74
     1
176
     1
 91
        4
176
     1
 64
     7
176
     1
 65
   257
176
     1
 75
     1
176
     1
175
     1
176
     1
 42
1.0
176
     1
 92
        8
176
     1
 66
     7
176
     1
 43
1.0
176
     1
 76
     1
176
     1
 77
     6
176
     1
 78
     2
176
     1
 67
     7
176
     1
 79
     5
176
     1
170
     0
176
     1
171
     0
176
     1
290
     0
176
     1
 93
        1
176
     1
 44
0.0
176
     1
173
     0
176
     1
  0
VISUALSTYLE
  5
2B
102
{ACAD_REACTORS
330
2A
102
}
330
2A
100
AcDbVisualStyle
  2
Flat
 70
     0
177
     2
291
     1
 71
     2
176
     1
 72
     1
176
     1
 73
     1
176
     1
 90
        2
176
     1
 40
-0.6
176
     1
 41
30.0
176
     1
 62
     5
 63
     7
421
 16777215
176
     1
 74
     0
176
     1
 91
        4
176
     1
 64
     7
176
     1
 65
   257
176
     1
 75
     1
176
     1
175
     1
176
     1
 42
1.0
176
     1
 92
        8
176
     1
 66
     7
176
     1
 43
1.0
176
     1
 76
     1
176
     1
 77
     6
176
     1
 78
     2
176
     1
 67
     7
176
     1
 79
     5
176
     1
170
     0
176
     1
171
     0
176
     1
290
     0
176
     1
 93
       13
176
     1
 44
0.0
176
     1
173
     0
176
     1
  0
VISUALSTYLE
  5
2C
102
{ACAD_REACTORS
330
2A
102
}
330
2A
100
AcDbVisualStyle
  2
FlatWithEdges
 70
     1
177
     2
291
     1
 71
     2
176
     1
 72
     1
176
     1
 73
     1
176
     1
 90
        2
176
     1
 40
-0.6
176
     1
 41
30.0
176
     1
 62
     5
 63
     7
421
 16777215
176
     1
 74
     1
176
     1
 91
        4
176
     1
 64
     7
176
     1
 65
   257
176
     1
 75
     1
176
     1
175
     1
176
     1
 42
1.0
176
     1
 92
        0
176
     1
 66
   257
176
     1
 43
1.0
176
     1
 76
     1
176
     1
 77
     6
176
     1
 78
     2
176
     1
 67
     7
176
     1
 79
     5
176
     1
170
     0
176
     1
171
     0
176
     1
290
     0
176
     1
 93
       13
176
     1
 44
0.0
176
     1
173
     0
176
     1
  0
VISUALSTYLE
  5
2D
102
{ACAD_REACTORS
330
2A
102
}
330
2A
100
AcDbVisualStyle
  2
Gouraud
 70
     2
177
     2
291
     1
 71
     2
176
     1
 72
     2
176
     1
 73
     1
176
     1
 90
        2
176
     1
 40
-0.6
176
     1
 41
30.0
176
     1
 62
     5
 63
     7
421
 16777215
176
     1
 74
     0
176
     1
 91
        4
176
     1
 64
     7
176
     1
 65
   257
176
     1
 75
     1
176
     1
175
     1
176
     1
 42
1.0
176
     1
 92
        0
176
     1
 66
     7
176
     1
 43
1.0
176
     1
 76
     1
176
     1
 77
     6
176
     1
 78
     2
176
     1
 67
     7
176
     1
 79
     5
176
     1
170
     0
176
     1
171
     0
176
     1
290
     0
176
     1
 93
       13
176
     1
 44
0.0
176
     1
173
     0
176
     1
  0
VISUALSTYLE
  5
2E
102
{ACAD_REACTORS
330
2A
102
}
330
2A
100
AcDbVisualStyle
  2
GouraudWithEdges
 70
     3
177
     2
291
     1
 71
     2
176
     1
 72
     2
176
     1
 73
     1
176
     1
 90
        2
176
     1
 40
-0.6
176
     1
 41
30.0
176
     1
 62
     5
 63
     7
421
 16777215
176
     1
 74
     1
176
     1
 91
        4
176
     1
 64
     7
176
     1
 65
   257
176
     1
 75
     1
176
     1
175
     1
176
     1
 42
1.0
176
     1
 92
        0
176
     1
 66
   257
176
     1
 43
1.0
176
     1
 76
     1
176
     1
 77
     6
176
     1
 78
     2
176
     1
 67
     7
176
     1
 79
     5
176
     1
170
     0
176
     1
171
     0
176
     1
290
     0
176
     1
 93
       13
176
     1
 44
0.0
176
     1
173
     0
176
     1
  0
VISUALSTYLE
  5
38
102
{ACAD_REACTORS
330
2A
102
}
330
2A
100
AcDbVisualStyle
  2
Linepattern
 70
    14
177
     2
291
     1
 71
     2
176
     1
 72
     2
176
     1
 73
     0
176
     1
 90
        0
176
     1
 40
-0.6
176
     1
 41
-30.0
176
     1
 62
     5
 63
     7
421
 16777215
176
     1
 74
     1
176
     1
 91
        4
176
     1
 64
     7
176
     1
 65
   257
176
     1
 75
     7
176
     1
175
     7
176
     1
 42
1.0
176
     1
 92
        8
176
     1
 66
     7
176
     1
 43
1.0
176
     1
 76
     1
176
     1
 77
     6
176
     1
 78
     2
176
     1
 67
     7
176
     1
 79
     5
176
     1
170
     0
176
     1
171
     0
176
     1
290
     0
176
     1
 93
        1
176
     1
 44
0.0
176
     1
173
     0
176
     1
  0
VISUALSTYLE
  5
33
102
{ACAD_REACTORS
330
2A
102
}
330
2A
100
AcDbVisualStyle
  2
Realistic
 70
     8
177
     2
291
     0
 71
     2
176
     1
 72
     2
176
     1
 73
     0
176
     1
 90
        0
176
     1
 40
-0.6
176
     1
 41
-30.0
176
     1
 62
     5
 63
     7
421
 16777215
176
     1
 74
     1
176
     1
 91
        0
176
     1
 64
     7
176
     1
 65
   257
176
     1
 75
     1
176
     1
175
     1
176
     1
 42
1.0
176
     1
 92
        8
176
     1
 66
     8
424
  7895160
176
     1
 43
1.0
176
     1
 76
     1
176
     1
 77
     6
176
     1
 78
     2
176
     1
 67
     7
176
     1
 79
     5
176
     1
170
     0
176
     1
171
     0
176
     1
290
     0
176
     1
 93
       13
176
     1
 44
0.0
176
     1
173
     0
176
     1
  0
VISUALSTYLE
  5
37
102
{ACAD_REACTORS
330
2A
102
}
330
2A
100
AcDbVisualStyle
  2
Thicken
 70
    13
177
     2
291
     1
 71
     2
176
     1
 72
     2
176
     1
 73
     0
176
     1
 90
        0
176
     1
 40
-0.6
176
     1
 41
-30.0
176
     1
 62
     5
 63
     7
421
 16777215
176
     1
 74
     1
176
     1
 91
        4
176
     1
 64
     7
176
     1
 65
   257
176
     1
 75
     1
176
     1
175
     1
176
     1
 42
1.0
176
     1
 92
       12
176
     1
 66
     7
176
     1
 43
1.0
176
     1
 76
     1
176
     1
 77
     6
176
     1
 78
     2
176
     1
 67
     7
176
     1
 79
     5
176
     1
170
     0
176
     1
171
     0
176
     1
290
     0
176
     1
 93
        1
176
     1
 44
0.0
176
     1
173
     0
176
     1
  0
ENDSEC
  0
EOF
