  0
SECTION
  2
HEADER
  9
$ACADVER
  1
AC1024
  9
$ACADMAINTVER
 70
     6
  9
$DWGCODEPAGE
  3
UNDEFINED
  9
$INSBASE
 10
0.0
 20
0.0
 30
0.0
  9
$EXTMIN
 10
1.000000000000000E+20
 20
1.000000000000000E+20
 30
1.000000000000000E+20
  9
$EXTMAX
 10
-1.000000000000000E+20
 20
-1.000000000000000E+20
 30
-1.000000000000000E+20
  9
$LIMMIN
 10
0.0
 20
0.0
  9
$LIMMAX
 10
12.0
 20
9.0
  9
$ORTHOMODE
 70
     0
  9
$REGENMODE
 70
     1
  9
$FILLMODE
 70
     1
  9
$QTEXTMODE
 70
     0
  9
$MIRRTEXT
 70
     1
  9
$LTSCALE
 40
1.0
  9
$ATTMODE
 70
     1
  9
$TEXTSIZE
 40
0.2
  9
$TRACEWID
 40
0.05
  9
$TEXTSTYLE
  7
Standard
  9
$CLAYER
  8
0
  9
$CELTYPE
  6
ByLayer
  9
$CECOLOR
 62
   256
  9
$CELTSCALE
 40
1.0
  9
$DISPSILH
 70
     0
  9
$DIMSCALE
 40
1.0
  9
$DIMASZ
 40
0.18
  9
$DIMEXO
 40
0.0625
  9
$DIMDLI
 40
0.38
  9
$DIMRND
 40
0.0
  9
$DIMDLE
 40
0.0
  9
$DIMEXE
 40
0.18
  9
$DIMTP
 40
0.0
  9
$DIMTM
 40
0.0
  9
$DIMTXT
 40
0.18
  9
$DIMCEN
 40
0.09
  9
$DIMTSZ
 40
0.0
  9
$DIMTOL
 70
     0
  9
$DIMLIM
 70
     0
  9
$DIMTIH
 70
     1
  9
$DIMTOH
 70
     1
  9
$DIMSE1
 70
     0
  9
$DIMSE2
 70
     0
  9
$DIMTAD
 70
     0
  9
$DIMZIN
 70
     0
  9
$DIMBLK
  1

  9
$DIMASO
 70
     1
  9
$DIMSHO
 70
     1
  9
$DIMPOST
  1

  9
$DIMAPOST
  1

  9
$DIMALT
 70
     0
  9
$DIMALTD
 70
     2
  9
$DIMALTF
 40
25.4
  9
$DIMLFAC
 40
1.0
  9
$DIMTOFL
 70
     0
  9
$DIMTVP
 40
0.0
  9
$DIMTIX
 70
     0
  9
$DIMSOXD
 70
     0
  9
$DIMSAH
 70
     0
  9
$DIMBLK1
  1

  9
$DIMBLK2
  1

  9
$DIMSTYLE
  2
Standard
  9
$DIMCLRD
 70
     0
  9
$DIMCLRE
 70
     0
  9
$DIMCLRT
 70
     0
  9
$DIMTFAC
 40
1.0
  9
$DIMGAP
 40
0.09
  9
$DIMJUST
 70
     0
  9
$DIMSD1
 70
     0
  9
$DIMSD2
 70
     0
  9
$DIMTOLJ
 70
     1
  9
$DIMTZIN
 70
     0
  9
$DIMALTZ
 70
     0
  9
$DIMALTTZ
 70
     0
  9
$DIMUPT
 70
     0
  9
$DIMDEC
 70
     4
  9
$DIMTDEC
 70
     4
  9
$DIMALTU
 70
     2
  9
$DIMALTTD
 70
     2
  9
$DIMTXSTY
  7
Standard
  9
$DIMAUNIT
 70
     0
  9
$DIMADEC
 70
     0
  9
$DIMALTRND
 40
0.0
  9
$DIMAZIN
 70
     0
  9
$DIMDSEP
 70
    46
  9
$DIMATFIT
 70
     3
  9
$DIMFRAC
 70
     0
  9
$DIMLDRBLK
  1

  9
$DIMLUNIT
 70
     2
  9
$DIMLWD
 70
    -2
  9
$DIMLWE
 70
    -2
  9
$DIMTMOVE
 70
     0
  9
$DIMFXL
 40
1.0
  9
$DIMFXLON
 70
     0
  9
$DIMJOGANG
 40
0.7853981633974483
  9
$DIMTFILL
 70
     0
  9
$DIMTFILLCLR
 70
     0
  9
$DIMARCSYM
 70
     0
  9
$DIMLTYPE
  6

  9
$DIMLTEX1
  6

  9
$DIMLTEX2
  6

  9
$DIMTXTDIRECTION
 70
     0
  9
$LUNITS
 70
     2
  9
$LUPREC
 70
     4
  9
$SKETCHINC
 40
0.1
  9
$FILLETRAD
 40
0.5
  9
$AUNITS
 70
     0
  9
$AUPREC
 70
     0
  9
$MENU
  1
.
  9
$ELEVATION
 40
0.0
  9
$PELEVATION
 40
0.0
  9
$THICKNESS
 40
0.0
  9
$LIMCHECK
 70
     0
  9
$CHAMFERA
 40
0.5
  9
$CHAMFERB
 40
0.5
  9
$CHAMFERC
 40
1.0
  9
$CHAMFERD
 40
0.0
  9
$SKPOLY
 70
     0
  9
$TDCREATE
 40
2458263.577118044
  9
$TDUCREATE
 40
2458263.202118055
  9
$TDUPDATE
 40
2458263.577118044
  9
$TDUUPDATE
 40
2458263.202118055
  9
$TDINDWG
 40
0.0000000116
  9
$TDUSRTIMER
 40
0.0000000116
  9
$USRTIMER
 70
     1
  9
$ANGBASE
 50
0.0
  9
$ANGDIR
 70
     0
  9
$PDMODE
 70
     0
  9
$PDSIZE
 40
0.0
  9
$PLINEWID
 40
0.0
  9
$SPLFRAME
 70
     0
  9
$SPLINETYPE
 70
     6
  9
$SPLINESEGS
 70
     8
  9
$HANDSEED
  5
F0
  9
$SURFTAB1
 70
     6
  9
$SURFTAB2
 70
     6
  9
$SURFTYPE
 70
     6
  9
$SURFU
 70
     6
  9
$SURFV
 70
     6
  9
$UCSBASE
  2

  9
$UCSNAME
  2

  9
$UCSORG
 10
0.0
 20
0.0
 30
0.0
  9
$UCSXDIR
 10
1.0
 20
0.0
 30
0.0
  9
$UCSYDIR
 10
0.0
 20
1.0
 30
0.0
  9
$UCSORTHOREF
  2

  9
$UCSORTHOVIEW
 70
     0
  9
$UCSORGTOP
 10
0.0
 20
0.0
 30
0.0
  9
$UCSORGBOTTOM
 10
0.0
 20
0.0
 30
0.0
  9
$UCSORGLEFT
 10
0.0
 20
0.0
 30
0.0
  9
$UCSORGRIGHT
 10
0.0
 20
0.0
 30
0.0
  9
$UCSORGFRONT
 10
0.0
 20
0.0
 30
0.0
  9
$UCSORGBACK
 10
0.0
 20
0.0
 30
0.0
  9
$PUCSBASE
  2

  9
$PUCSNAME
  2

  9
$PUCSORG
 10
0.0
 20
0.0
 30
0.0
  9
$PUCSXDIR
 10
1.0
 20
0.0
 30
0.0
  9
$PUCSYDIR
 10
0.0
 20
1.0
 30
0.0
  9
$PUCSORTHOREF
  2

  9
$PUCSORTHOVIEW
 70
     0
  9
$PUCSORGTOP
 10
0.0
 20
0.0
 30
0.0
  9
$PUCSORGBOTTOM
 10
0.0
 20
0.0
 30
0.0
  9
$PUCSORGLEFT
 10
0.0
 20
0.0
 30
0.0
  9
$PUCSORGRIGHT
 10
0.0
 20
0.0
 30
0.0
  9
$PUCSORGFRONT
 10
0.0
 20
0.0
 30
0.0
  9
$PUCSORGBACK
 10
0.0
 20
0.0
 30
0.0
  9
$USERI1
 70
     0
  9
$USERI2
 70
     0
  9
$USERI3
 70
     0
  9
$USERI4
 70
     0
  9
$USERI5
 70
     0
  9
$USERR1
 40
0.0
  9
$USERR2
 40
0.0
  9
$USERR3
 40
0.0
  9
$USERR4
 40
0.0
  9
$USERR5
 40
0.0
  9
$WORLDVIEW
 70
     1
  9
$SHADEDGE
 70
     3
  9
$SHADEDIF
 70
    70
  9
$TILEMODE
 70
     1
  9
$MAXACTVP
 70
    64
  9
$PINSBASE
 10
0.0
 20
0.0
 30
0.0
  9
$PLIMCHECK
 70
     0
  9
$PEXTMIN
 10
1.000000000000000E+20
 20
1.000000000000000E+20
 30
1.000000000000000E+20
  9
$PEXTMAX
 10
-1.000000000000000E+20
 20
-1.000000000000000E+20
 30
-1.000000000000000E+20
  9
$PLIMMIN
 10
0.0
 20
0.0
  9
$PLIMMAX
 10
12.0
 20
9.0
  9
$UNITMODE
 70
     0
  9
$VISRETAIN
 70
     1
  9
$PLINEGEN
 70
     0
  9
$PSLTSCALE
 70
     1
  9
$TREEDEPTH
 70
  3020
  9
$CMLSTYLE
  2
Standard
  9
$CMLJUST
 70
     0
  9
$CMLSCALE
 40
1.0
  9
$PROXYGRAPHICS
 70
     1
  9
$MEASUREMENT
 70
     0
  9
$CELWEIGHT
370
    -1
  9
$ENDCAPS
280
     0
  9
$JOINSTYLE
280
     0
  9
$LWDISPLAY
290
     1
  9
$INSUNITS
 70
     1
  9
$HYPERLINKBASE
  1

  9
$STYLESHEET
  1

  9
$XEDIT
290
     1
  9
$CEPSNTYPE
380
     0
  9
$PSTYLEMODE
290
     1
  9
$FINGERPRINTGUID
  2
{F6D89068-CB07-82AE-B067-41FEAC2A5246}
  9
$VERSIONGUID
  2
{FAEB1C32-E019-11D5-929B-00C0DF256EC4}
  9
$EXTNAMES
290
     1
  9
$PSVPSCALE
 40
0.0
  9
$OLESTARTUP
290
     0
  9
$SORTENTS
280
   127
  9
$INDEXCTL
280
     0
  9
$HIDETEXT
280
     1
  9
$XCLIPFRAME
280
     2
  9
$HALOGAP
280
     0
  9
$OBSCOLOR
 70
   257
  9
$OBSLTYPE
280
     0
  9
$INTERSECTIONDISPLAY
280
     0
  9
$INTERSECTIONCOLOR
 70
   257
  9
$DIMASSOC
280
     2
  9
$PROJECTNAME
  1

  9
$CAMERADISPLAY
290
     0
  9
$LENSLENGTH
 40
50.0
  9
$CAMERAHEIGHT
 40
0.0
  9
$STEPSPERSEC
 40
2.0
  9
$STEPSIZE
 40
6.0
  9
$3DDWFPREC
 40
2.0
  9
$PSOLWIDTH
 40
0.25
  9
$PSOLHEIGHT
 40
4.0
  9
$LOFTANG1
 40
1.570796326794897
  9
$LOFTANG2
 40
1.570796326794897
  9
$LOFTMAG1
 40
0.0
  9
$LOFTMAG2
 40
0.0
  9
$LOFTPARAM
 70
     7
  9
$LOFTNORMALS
280
     1
  9
$LATITUDE
 40
37.795
  9
$LONGITUDE
 40
-122.394
  9
$NORTHDIRECTION
 40
0.0
  9
$TIMEZONE
 70
 -8000
  9
$LIGHTGLYPHDISPLAY
280
     1
  9
$TILEMODELIGHTSYNCH
280
     1
  9
$CMATERIAL
347
3C
  9
$SOLIDHIST
280
     1
  9
$SHOWHIST
280
     1
  9
$DWFFRAME
280
     2
  9
$DGNFRAME
280
     2
  9
$REALWORLDSCALE
290
     1
  9
$INTERFERECOLOR
 62
   256
  9
$CSHADOW
280
     0
  9
$SHADOWPLANELOCATION
 40
0.0
  0
ENDSEC
  0
SECTION
  2
CLASSES
  0
CLASS
  1
ACDBDICTIONARYWDFLT
  2
AcDbDictionaryWithDefault
  3
ObjectDBX Classes
 90
        0
 91
        4
280
     0
281
     0
  0
CLASS
  1
VISUALSTYLE
  2
AcDbVisualStyle
  3
ObjectDBX Classes
 90
     4095
 91
        4
280
     0
281
     0
  0
CLASS
  1
MATERIAL
  2
AcDbMaterial
  3
ObjectDBX Classes
 90
     1153
 91
        4
280
     0
281
     0
  0
CLASS
  1
SUN
  2
AcDbSun
  3
SCENEOE
 90
     1024
 91
        4
280
     0
281
     0
  0
ENDSEC
  0
SECTION
  2
TABLES
  0
TABLE
  2
VPORT
  5
8
330
0
100
AcDbSymbolTable
 70
     1
  0
VPORT
  5
29
330
8
100
AcDbSymbolTableRecord
100
AcDbViewportTableRecord
  2
*Active
 70
     0
 10
0.0
 20
0.0
 11
1.0
 21
1.0
 12
0.0
 22
0.0
 13
0.0
 23
0.0
 14
0.5
 24
0.5
 15
0.5
 25
0.5
 16
0.0
 26
0.0
 36
1.0
 17
105.0007777515277
 27
-148.5000416295416
 37
0.0
 40
297.0000832590831
 41
0.7070757462376333
 42
50.0
 43
0.0
 44
0.0
 50
0.0
 51
0.0
 71
     0
 72
   100
 73
     1
 74
     3
 75
     0
 76
     0
 77
     0
 78
     0
281
     0
 65
     1
110
0.0
120
0.0
130
0.0
111
1.0
121
0.0
131
0.0
112
0.0
122
1.0
132
0.0
 79
     0
146
0.0
 60
     3
 61
     5
292
     1
282
     1
141
0.0
142
0.0
 63
   250
361
3F
  0
ENDTAB
  0
TABLE
  2
LTYPE
  5
5
330
0
100
AcDbSymbolTable
 70
     1
  0
LTYPE
  5
14
330
5
100
AcDbSymbolTableRecord
100
AcDbLinetypeTableRecord
  2
ByBlock
 70
     0
  3

 72
    65
 73
     0
 40
0.0
  0
LTYPE
  5
15
330
5
100
AcDbSymbolTableRecord
100
AcDbLinetypeTableRecord
  2
ByLayer
 70
     0
  3

 72
    65
 73
     0
 40
0.0
  0
LTYPE
  5
16
330
5
100
AcDbSymbolTableRecord
100
AcDbLinetypeTableRecord
  2
Continuous
 70
     0
  3
Solid line
 72
    65
 73
     0
 40
0.0
  0
ENDTAB
  0
TABLE
  2
LAYER
  5
2
330
0
100
AcDbSymbolTable
 70
     2
  0
LAYER
  5
10
330
2
100
AcDbSymbolTableRecord
100
AcDbLayerTableRecord
  2
0
 70
     0
 62
     7
  6
Continuous
370
    -3
390
F
347
3E
  0
LAYER
  5
40
330
2
100
AcDbSymbolTableRecord
100
AcDbLayerTableRecord
  2
_U+30EC_U+30A4_U+30E4_U+30FC 1
 70
     0
 62
     7
  6
Continuous
370
    -3
390
F
347
3E
  0
ENDTAB
  0
TABLE
  2
STYLE
  5
3
330
0
100
AcDbSymbolTable
 70
     1
  0
STYLE
  5
11
330
3
100
AcDbSymbolTableRecord
100
AcDbTextStyleTableRecord
  2
Standard
 70
     0
 40
0.0
 41
1.0
 50
0.0
 71
     0
 42
0.2
  3
txt
  4

  0
ENDTAB
  0
TABLE
  2
VIEW
  5
6
330
0
100
AcDbSymbolTable
 70
     0
  0
ENDTAB
  0
TABLE
  2
UCS
  5
7
330
0
100
AcDbSymbolTable
 70
     0
  0
ENDTAB
  0
TABLE
  2
APPID
  5
9
330
0
100
AcDbSymbolTable
 70
     1
  0
APPID
  5
12
330
9
100
AcDbSymbolTableRecord
100
AcDbRegAppTableRecord
  2
ACAD
 70
     0
  0
ENDTAB
  0
TABLE
  2
DIMSTYLE
  5
A
330
0
100
AcDbSymbolTable
 70
     1
100
AcDbDimStyleTable
  0
DIMSTYLE
105
27
330
A
100
AcDbSymbolTableRecord
100
AcDbDimStyleTableRecord
  2
Standard
 70
     0
178
     0
340
11
  0
ENDTAB
  0
TABLE
  2
BLOCK_RECORD
  5
1
330
0
100
AcDbSymbolTable
 70
     6
  0
BLOCK_RECORD
  5
1F
330
1
100
AcDbSymbolTableRecord
100
AcDbBlockTableRecord
  2
*Model_Space
340
22
 70
     0
280
     1
281
     0
  0
BLOCK_RECORD
  5
1B
330
1
100
AcDbSymbolTableRecord
100
AcDbBlockTableRecord
  2
*Paper_Space
340
1E
 70
     0
280
     1
281
     0
  0
BLOCK_RECORD
  5
23
330
1
100
AcDbSymbolTableRecord
100
AcDbBlockTableRecord
  2
*Paper_Space0
340
26
 70
     0
280
     1
281
     0
  0
BLOCK_RECORD
  5
41
330
1
100
AcDbSymbolTableRecord
100
AcDbBlockTableRecord
  2
block 2
340
0
102
{BLKREFS
331
42
102
}
 70
     0
280
     1
281
     0
  0
BLOCK_RECORD
  5
47
330
1
100
AcDbSymbolTableRecord
100
AcDbBlockTableRecord
  2
block 3
340
0
102
{BLKREFS
331
48
102
}
 70
     0
280
     1
281
     0
  0
BLOCK_RECORD
  5
50
330
1
100
AcDbSymbolTableRecord
100
AcDbBlockTableRecord
  2
block 4
340
0
102
{BLKREFS
331
51
102
}
 70
     0
280
     1
281
     0
  0
BLOCK_RECORD
  5
59
330
1
100
AcDbSymbolTableRecord
100
AcDbBlockTableRecord
  2
block 5
340
0
102
{BLKREFS
331
5A
102
}
 70
     0
280
     1
281
     0
  0
BLOCK_RECORD
  5
62
330
1
100
AcDbSymbolTableRecord
100
AcDbBlockTableRecord
  2
block 6
340
0
102
{BLKREFS
331
63
102
}
 70
     0
280
     1
281
     0
  0
ENDTAB
  0
ENDSEC
  0
SECTION
  2
BLOCKS
  0
BLOCK
  5
20
330
1F
100
AcDbEntity
  8
0
100
AcDbBlockBegin
  2
*Model_Space
 70
     0
 10
0.0
 20
0.0
 30
0.0
  3
*Model_Space
  1

  0
ENDBLK
  5
21
330
1F
100
AcDbEntity
  8
0
100
AcDbBlockEnd
  0
BLOCK
  5
1C
330
1B
100
AcDbEntity
 67
     1
  8
0
100
AcDbBlockBegin
  2
*Paper_Space
 70
     0
 10
0.0
 20
0.0
 30
0.0
  3
*Paper_Space
  1

  0
ENDBLK
  5
1D
330
1B
100
AcDbEntity
 67
     1
  8
0
100
AcDbBlockEnd
  0
BLOCK
  5
24
330
23
100
AcDbEntity
  8
0
100
AcDbBlockBegin
  2
*Paper_Space0
 70
     0
 10
0.0
 20
0.0
 30
0.0
  3
*Paper_Space0
  1

  0
ENDBLK
  5
25
330
23
100
AcDbEntity
  8
0
100
AcDbBlockEnd
  0
BLOCK
  5
43
330
41
100
AcDbEntity
  8
0
100
AcDbBlockBegin
  2
block 2
 70
     0
 10
0.0
 20
0.0
 30
0.0
  3
block 2
  1

  0
SPLINE
  5
45
330
41
100
AcDbEntity
  8
_U+30EC_U+30A4_U+30E4_U+30FC 1
370
     0
100
AcDbSpline
210
0.0
220
0.0
230
1.0
 70
    11
 71
     3
 72
    26
 73
    22
 74
     0
 42
0.0000000001
 43
0.0000000001
 12
1.0
 22
0.0
 32
0.0
 13
1.0
 23
0.0
 33
0.0
 40
0.0
 40
0.0
 40
0.0
 40
0.0
 40
1.0
 40
1.0
 40
1.0
 40
2.0
 40
2.0
 40
2.0
 40
3.0
 40
3.0
 40
3.0
 40
4.0
 40
4.0
 40
4.0
 40
5.0
 40
5.0
 40
5.0
 40
6.0
 40
6.0
 40
6.0
 40
7.0
 40
7.0
 40
7.0
 40
7.0
 10
118.7996391847098
 20
-136.9558091562992
 30
0.0
 10
118.7996391847098
 20
-136.9558091562992
 30
0.0
 10
117.6951415721387
 20
-136.9558091562992
 30
0.0
 10
117.6951415721387
 20
-136.9558091562992
 30
0.0
 10
117.6951415721387
 20
-136.9558091562992
 30
0.0
 10
117.6951415721387
 20
-137.2858493037862
 30
0.0
 10
117.6951415721387
 20
-137.2858493037862
 30
0.0
 10
117.6951415721387
 20
-137.2858493037862
 30
0.0
 10
117.5473469758215
 20
-137.2858493037862
 30
0.0
 10
117.5473469758215
 20
-137.2858493037862
 30
0.0
 10
117.5325330652349
 20
-136.9537420990081
 30
0.0
 10
117.3695800487826
 20
-136.9072333099572
 30
0.0
 10
117.2552028786723
 20
-136.8776054887841
 30
0.0
 10
117.2552028786723
 20
-136.8776054887841
 30
0.0
 10
117.2552028786723
 20
-136.7315334402095
 30
0.0
 10
117.2552028786723
 20
-136.7315334402095
 30
0.0
 10
117.2552028786723
 20
-136.7315334402095
 30
0.0
 10
118.7996391847098
 20
-136.7315334402095
 30
0.0
 10
118.7996391847098
 20
-136.7315334402095
 30
0.0
 10
118.7996391847098
 20
-136.7315334402095
 30
0.0
 10
118.7996391847098
 20
-136.9558091562992
 30
0.0
 10
118.7996391847098
 20
-136.9558091562992
 30
0.0
  0
HATCH
  5
46
330
41
100
AcDbEntity
  8
_U+30EC_U+30A4_U+30E4_U+30FC 1
 62
   179
420
  2234388
100
AcDbHatch
 10
0.0
 20
0.0
 30
0.0
210
0.0
220
0.0
230
1.0
  2
SOLID
 70
     1
 71
     0
 91
        1
 92
        1
 93
        1
 72
     4
 94
        3
 73
     0
 74
     1
 95
       26
 96
       22
 40
0.0
 40
0.0
 40
0.0
 40
0.0
 40
1.0
 40
1.0
 40
1.0
 40
2.0
 40
2.0
 40
2.0
 40
3.0
 40
3.0
 40
3.0
 40
4.0
 40
4.0
 40
4.0
 40
5.0
 40
5.0
 40
5.0
 40
6.0
 40
6.0
 40
6.0
 40
7.0
 40
7.0
 40
7.0
 40
7.0
 10
118.7996391847098
 20
-136.9558091562992
 10
118.7996391847098
 20
-136.9558091562992
 10
117.6951415721387
 20
-136.9558091562992
 10
117.6951415721387
 20
-136.9558091562992
 10
117.6951415721387
 20
-136.9558091562992
 10
117.6951415721387
 20
-137.2858493037862
 10
117.6951415721387
 20
-137.2858493037862
 10
117.6951415721387
 20
-137.2858493037862
 10
117.5473469758215
 20
-137.2858493037862
 10
117.5473469758215
 20
-137.2858493037862
 10
117.5325330652349
 20
-136.9537420990081
 10
117.3695800487826
 20
-136.9072333099572
 10
117.2552028786723
 20
-136.8776054887841
 10
117.2552028786723
 20
-136.8776054887841
 10
117.2552028786723
 20
-136.7315334402095
 10
117.2552028786723
 20
-136.7315334402095
 10
117.2552028786723
 20
-136.7315334402095
 10
118.7996391847098
 20
-136.7315334402095
 10
118.7996391847098
 20
-136.7315334402095
 10
118.7996391847098
 20
-136.7315334402095
 10
118.7996391847098
 20
-136.9558091562992
 10
118.7996391847098
 20
-136.9558091562992
 97
        0
 97
        0
 75
     2
 76
     1
 98
        0
  0
ENDBLK
  5
44
330
41
100
AcDbEntity
  8
0
100
AcDbBlockEnd
  0
BLOCK
  5
49
330
47
100
AcDbEntity
  8
0
100
AcDbBlockBegin
  2
block 3
 70
     0
 10
0.0
 20
0.0
 30
0.0
  3
block 3
  1

  0
SPLINE
  5
4B
330
47
100
AcDbEntity
  8
_U+30EC_U+30A4_U+30E4_U+30FC 1
370
     0
100
AcDbSpline
210
0.0
220
0.0
230
1.0
 70
    11
 71
     3
 72
    26
 73
    22
 74
     0
 42
0.0000000001
 43
0.0000000001
 12
1.0
 22
0.0
 32
0.0
 13
1.0
 23
0.0
 33
0.0
 40
0.0
 40
0.0
 40
0.0
 40
0.0
 40
1.0
 40
1.0
 40
1.0
 40
2.0
 40
2.0
 40
2.0
 40
3.0
 40
3.0
 40
3.0
 40
4.0
 40
4.0
 40
4.0
 40
5.0
 40
5.0
 40
5.0
 40
6.0
 40
6.0
 40
6.0
 40
7.0
 40
7.0
 40
7.0
 40
7.0
 10
118.6828504477598
 20
-146.1125284465448
 30
0.0
 10
118.6828504477598
 20
-146.1125284465448
 30
0.0
 10
117.5786973447373
 20
-146.1125284465448
 30
0.0
 10
117.5786973447373
 20
-146.1125284465448
 30
0.0
 10
117.5786973447373
 20
-146.1125284465448
 30
0.0
 10
117.5786973447373
 20
-146.4425685940317
 30
0.0
 10
117.5786973447373
 20
-146.4425685940317
 30
0.0
 10
117.5786973447373
 20
-146.4425685940317
 30
0.0
 10
117.4305582388715
 20
-146.4425685940317
 30
0.0
 10
117.4305582388715
 20
-146.4425685940317
 30
0.0
 10
117.415744328285
 20
-146.1104613892536
 30
0.0
 10
117.2527913118326
 20
-146.0639526002028
 30
0.0
 10
117.1387586512709
 20
-146.0343247790296
 30
0.0
 10
117.1387586512709
 20
-146.0343247790296
 30
0.0
 10
117.1387586512709
 20
-145.888252730455
 30
0.0
 10
117.1387586512709
 20
-145.888252730455
 30
0.0
 10
117.1387586512709
 20
-145.888252730455
 30
0.0
 10
118.6828504477598
 20
-145.888252730455
 30
0.0
 10
118.6828504477598
 20
-145.888252730455
 30
0.0
 10
118.6828504477598
 20
-145.888252730455
 30
0.0
 10
118.6828504477598
 20
-146.1125284465448
 30
0.0
 10
118.6828504477598
 20
-146.1125284465448
 30
0.0
  0
HATCH
  5
4C
330
47
100
AcDbEntity
  8
_U+30EC_U+30A4_U+30E4_U+30FC 1
 62
   179
420
  2234388
100
AcDbHatch
 10
0.0
 20
0.0
 30
0.0
210
0.0
220
0.0
230
1.0
  2
SOLID
 70
     1
 71
     0
 91
        1
 92
        1
 93
        1
 72
     4
 94
        3
 73
     0
 74
     1
 95
       26
 96
       22
 40
0.0
 40
0.0
 40
0.0
 40
0.0
 40
1.0
 40
1.0
 40
1.0
 40
2.0
 40
2.0
 40
2.0
 40
3.0
 40
3.0
 40
3.0
 40
4.0
 40
4.0
 40
4.0
 40
5.0
 40
5.0
 40
5.0
 40
6.0
 40
6.0
 40
6.0
 40
7.0
 40
7.0
 40
7.0
 40
7.0
 10
118.6828504477598
 20
-146.1125284465448
 10
118.6828504477598
 20
-146.1125284465448
 10
117.5786973447373
 20
-146.1125284465448
 10
117.5786973447373
 20
-146.1125284465448
 10
117.5786973447373
 20
-146.1125284465448
 10
117.5786973447373
 20
-146.4425685940317
 10
117.5786973447373
 20
-146.4425685940317
 10
117.5786973447373
 20
-146.4425685940317
 10
117.4305582388715
 20
-146.4425685940317
 10
117.4305582388715
 20
-146.4425685940317
 10
117.415744328285
 20
-146.1104613892536
 10
117.2527913118326
 20
-146.0639526002028
 10
117.1387586512709
 20
-146.0343247790296
 10
117.1387586512709
 20
-146.0343247790296
 10
117.1387586512709
 20
-145.888252730455
 10
117.1387586512709
 20
-145.888252730455
 10
117.1387586512709
 20
-145.888252730455
 10
118.6828504477598
 20
-145.888252730455
 10
118.6828504477598
 20
-145.888252730455
 10
118.6828504477598
 20
-145.888252730455
 10
118.6828504477598
 20
-146.1125284465448
 10
118.6828504477598
 20
-146.1125284465448
 97
        0
 97
        0
 75
     2
 76
     1
 98
        0
  0
SPLINE
  5
4D
330
47
100
AcDbEntity
  8
_U+30EC_U+30A4_U+30E4_U+30FC 1
370
     0
100
AcDbSpline
210
0.0
220
0.0
230
1.0
 70
    11
 71
     3
 72
    29
 73
    25
 74
     0
 42
0.0000000001
 43
0.0000000001
 12
1.0
 22
0.0
 32
0.0
 13
1.0
 23
0.0
 33
0.0
 40
0.0
 40
0.0
 40
0.0
 40
0.0
 40
1.0
 40
1.0
 40
1.0
 40
2.0
 40
2.0
 40
2.0
 40
3.0
 40
3.0
 40
3.0
 40
4.0
 40
4.0
 40
4.0
 40
5.0
 40
5.0
 40
5.0
 40
6.0
 40
6.0
 40
6.0
 40
7.0
 40
7.0
 40
7.0
 40
8.0
 40
8.0
 40
8.0
 40
8.0
 10
118.505083520721
 20
-144.4893717086693
 30
0.0
 10
118.7145453262241
 20
-144.5972031973577
 30
0.0
 10
118.7338378609415
 20
-144.77066375504
 30
0.0
 10
118.7338378609415
 20
-144.8871079824414
 30
0.0
 10
118.7338378609415
 20
-145.0478216868283
 30
0.0
 10
118.6873290718907
 20
-145.1895873660464
 30
0.0
 10
118.505083520721
 20
-145.2848442562135
 30
0.0
 10
118.3107801353529
 20
-145.3883693755453
 30
0.0
 10
118.0737575659677
 20
-145.4074896554884
 30
0.0
 10
117.9108045495154
 20
-145.4074896554884
 30
0.0
 10
117.7667995582319
 20
-145.4074896554884
 30
0.0
 10
117.5153075878087
 20
-145.3906086876107
 30
0.0
 10
117.3161810687612
 20
-145.2848442562135
 30
0.0
 10
117.11326494468
 20
-145.1768405127509
 30
0.0
 10
117.0898382953803
 20
-145.016126808364
 30
0.0
 10
117.0898382953803
 20
-144.8871079824414
 30
0.0
 10
117.0898382953803
 20
-144.7284613353457
 30
0.0
 10
117.1342800271401
 20
-144.5846285988365
 30
0.0
 10
117.3161810687612
 20
-144.4893717086693
 30
0.0
 10
117.5087619063867
 20
-144.3899807039199
 30
0.0
 10
117.7371717370588
 20
-144.3667263093944
 30
0.0
 10
117.9108045495154
 20
-144.3667263093944
 30
0.0
 10
118.0820257951323
 20
-144.3667263093944
 30
0.0
 10
118.312847192644
 20
-144.3877413918545
 30
0.0
 10
118.505083520721
 20
-144.4893717086693
 30
0.0
  0
SPLINE
  5
4E
330
47
100
AcDbEntity
  8
_U+30EC_U+30A4_U+30E4_U+30FC 1
370
     0
100
AcDbSpline
210
0.0
220
0.0
230
1.0
 70
    11
 71
     3
 72
    17
 73
    13
 74
     0
 42
0.0000000001
 43
0.0000000001
 12
1.0
 22
0.0
 32
0.0
 13
1.0
 23
0.0
 33
0.0
 40
0.0
 40
0.0
 40
0.0
 40
0.0
 40
1.0
 40
1.0
 40
1.0
 40
2.0
 40
2.0
 40
2.0
 40
3.0
 40
3.0
 40
3.0
 40
4.0
 40
4.0
 40
4.0
 40
4.0
 10
117.2824191330058
 20
-144.8871079824414
 30
0.0
 10
117.2824191330058
 20
-145.1367051503478
 30
0.0
 10
117.5659504914419
 20
-145.1832139393987
 30
0.0
 10
117.9108045495154
 20
-145.1832139393987
 30
0.0
 10
118.230164900998
 20
-145.1832139393987
 30
0.0
 10
118.5391899660249
 20
-145.1472126915778
 30
0.0
 10
118.5391899660249
 20
-144.8871079824414
 30
0.0
 10
118.5391899660249
 20
-144.6395778718262
 30
0.0
 10
118.25772566488
 20
-144.5908297707099
 30
0.0
 10
117.9108045495154
 20
-144.5908297707099
 30
0.0
 10
117.5914441980327
 20
-144.5908297707099
 30
0.0
 10
117.2824191330058
 20
-144.628898075822
 30
0.0
 10
117.2824191330058
 20
-144.8871079824414
 30
0.0
  0
HATCH
  5
4F
330
47
100
AcDbEntity
  8
_U+30EC_U+30A4_U+30E4_U+30FC 1
 62
   179
420
  2234388
100
AcDbHatch
 10
0.0
 20
0.0
 30
0.0
210
0.0
220
0.0
230
1.0
  2
SOLID
 70
     1
 71
     0
 91
        2
 92
        1
 93
        1
 72
     4
 94
        3
 73
     0
 74
     1
 95
       29
 96
       25
 40
0.0
 40
0.0
 40
0.0
 40
0.0
 40
1.0
 40
1.0
 40
1.0
 40
2.0
 40
2.0
 40
2.0
 40
3.0
 40
3.0
 40
3.0
 40
4.0
 40
4.0
 40
4.0
 40
5.0
 40
5.0
 40
5.0
 40
6.0
 40
6.0
 40
6.0
 40
7.0
 40
7.0
 40
7.0
 40
8.0
 40
8.0
 40
8.0
 40
8.0
 10
118.505083520721
 20
-144.4893717086693
 10
118.7145453262241
 20
-144.5972031973577
 10
118.7338378609415
 20
-144.77066375504
 10
118.7338378609415
 20
-144.8871079824414
 10
118.7338378609415
 20
-145.0478216868283
 10
118.6873290718907
 20
-145.1895873660464
 10
118.505083520721
 20
-145.2848442562135
 10
118.3107801353529
 20
-145.3883693755453
 10
118.0737575659677
 20
-145.4074896554884
 10
117.9108045495154
 20
-145.4074896554884
 10
117.7667995582319
 20
-145.4074896554884
 10
117.5153075878087
 20
-145.3906086876107
 10
117.3161810687612
 20
-145.2848442562135
 10
117.11326494468
 20
-145.1768405127509
 10
117.0898382953803
 20
-145.016126808364
 10
117.0898382953803
 20
-144.8871079824414
 10
117.0898382953803
 20
-144.7284613353457
 10
117.1342800271401
 20
-144.5846285988365
 10
117.3161810687612
 20
-144.4893717086693
 10
117.5087619063867
 20
-144.3899807039199
 10
117.7371717370588
 20
-144.3667263093944
 10
117.9108045495154
 20
-144.3667263093944
 10
118.0820257951323
 20
-144.3667263093944
 10
118.312847192644
 20
-144.3877413918545
 10
118.505083520721
 20
-144.4893717086693
 97
        0
 97
        0
 92
        1
 93
        1
 72
     4
 94
        3
 73
     0
 74
     1
 95
       17
 96
       13
 40
0.0
 40
0.0
 40
0.0
 40
0.0
 40
1.0
 40
1.0
 40
1.0
 40
2.0
 40
2.0
 40
2.0
 40
3.0
 40
3.0
 40
3.0
 40
4.0
 40
4.0
 40
4.0
 40
4.0
 10
117.2824191330058
 20
-144.8871079824414
 10
117.2824191330058
 20
-145.1367051503478
 10
117.5659504914419
 20
-145.1832139393987
 10
117.9108045495154
 20
-145.1832139393987
 10
118.230164900998
 20
-145.1832139393987
 10
118.5391899660249
 20
-145.1472126915778
 10
118.5391899660249
 20
-144.8871079824414
 10
118.5391899660249
 20
-144.6395778718262
 10
118.25772566488
 20
-144.5908297707099
 10
117.9108045495154
 20
-144.5908297707099
 10
117.5914441980327
 20
-144.5908297707099
 10
117.2824191330058
 20
-144.628898075822
 10
117.2824191330058
 20
-144.8871079824414
 97
        0
 97
        0
 75
     2
 76
     1
 98
        0
  0
ENDBLK
  5
4A
330
47
100
AcDbEntity
  8
0
100
AcDbBlockEnd
  0
BLOCK
  5
52
330
50
100
AcDbEntity
  8
0
100
AcDbBlockBegin
  2
block 4
 70
     0
 10
0.0
 20
0.0
 30
0.0
  3
block 4
  1

  0
SPLINE
  5
54
330
50
100
AcDbEntity
  8
_U+30EC_U+30A4_U+30E4_U+30FC 1
370
     0
100
AcDbSpline
210
0.0
220
0.0
230
1.0
 70
    11
 71
     3
 72
    26
 73
    22
 74
     0
 42
0.0000000001
 43
0.0000000001
 12
1.0
 22
0.0
 32
0.0
 13
1.0
 23
0.0
 33
0.0
 40
0.0
 40
0.0
 40
0.0
 40
0.0
 40
1.0
 40
1.0
 40
1.0
 40
2.0
 40
2.0
 40
2.0
 40
3.0
 40
3.0
 40
3.0
 40
4.0
 40
4.0
 40
4.0
 40
5.0
 40
5.0
 40
5.0
 40
6.0
 40
6.0
 40
6.0
 40
7.0
 40
7.0
 40
7.0
 40
7.0
 10
118.7992946751613
 20
-156.1138128949993
 30
0.0
 10
118.7992946751613
 20
-156.1138128949993
 30
0.0
 10
117.6951415721387
 20
-156.1138128949993
 30
0.0
 10
117.6951415721387
 20
-156.1138128949993
 30
0.0
 10
117.6951415721387
 20
-156.1138128949993
 30
0.0
 10
117.6951415721387
 20
-156.4438530424863
 30
0.0
 10
117.6951415721387
 20
-156.4438530424863
 30
0.0
 10
117.6951415721387
 20
-156.4438530424863
 30
0.0
 10
117.547002466273
 20
-156.4438530424863
 30
0.0
 10
117.547002466273
 20
-156.4438530424863
 30
0.0
 10
117.5321885556864
 20
-156.1117458377082
 30
0.0
 10
117.3692355392341
 20
-156.0648925391088
 30
0.0
 10
117.2552028786723
 20
-156.0352647179356
 30
0.0
 10
117.2552028786723
 20
-156.0352647179356
 30
0.0
 10
117.2552028786723
 20
-155.8891926693611
 30
0.0
 10
117.2552028786723
 20
-155.8891926693611
 30
0.0
 10
117.2552028786723
 20
-155.8891926693611
 30
0.0
 10
118.7992946751613
 20
-155.8891926693611
 30
0.0
 10
118.7992946751613
 20
-155.8891926693611
 30
0.0
 10
118.7992946751613
 20
-155.8891926693611
 30
0.0
 10
118.7992946751613
 20
-156.1138128949993
 30
0.0
 10
118.7992946751613
 20
-156.1138128949993
 30
0.0
  0
HATCH
  5
55
330
50
100
AcDbEntity
  8
_U+30EC_U+30A4_U+30E4_U+30FC 1
 62
   179
420
  2234388
100
AcDbHatch
 10
0.0
 20
0.0
 30
0.0
210
0.0
220
0.0
230
1.0
  2
SOLID
 70
     1
 71
     0
 91
        1
 92
        1
 93
        1
 72
     4
 94
        3
 73
     0
 74
     1
 95
       26
 96
       22
 40
0.0
 40
0.0
 40
0.0
 40
0.0
 40
1.0
 40
1.0
 40
1.0
 40
2.0
 40
2.0
 40
2.0
 40
3.0
 40
3.0
 40
3.0
 40
4.0
 40
4.0
 40
4.0
 40
5.0
 40
5.0
 40
5.0
 40
6.0
 40
6.0
 40
6.0
 40
7.0
 40
7.0
 40
7.0
 40
7.0
 10
118.7992946751613
 20
-156.1138128949993
 10
118.7992946751613
 20
-156.1138128949993
 10
117.6951415721387
 20
-156.1138128949993
 10
117.6951415721387
 20
-156.1138128949993
 10
117.6951415721387
 20
-156.1138128949993
 10
117.6951415721387
 20
-156.4438530424863
 10
117.6951415721387
 20
-156.4438530424863
 10
117.6951415721387
 20
-156.4438530424863
 10
117.547002466273
 20
-156.4438530424863
 10
117.547002466273
 20
-156.4438530424863
 10
117.5321885556864
 20
-156.1117458377082
 10
117.3692355392341
 20
-156.0648925391088
 10
117.2552028786723
 20
-156.0352647179356
 10
117.2552028786723
 20
-156.0352647179356
 10
117.2552028786723
 20
-155.8891926693611
 10
117.2552028786723
 20
-155.8891926693611
 10
117.2552028786723
 20
-155.8891926693611
 10
118.7992946751613
 20
-155.8891926693611
 10
118.7992946751613
 20
-155.8891926693611
 10
118.7992946751613
 20
-155.8891926693611
 10
118.7992946751613
 20
-156.1138128949993
 10
118.7992946751613
 20
-156.1138128949993
 97
        0
 97
        0
 75
     2
 76
     1
 98
        0
  0
SPLINE
  5
56
330
50
100
AcDbEntity
  8
_U+30EC_U+30A4_U+30E4_U+30FC 1
370
     0
100
AcDbSpline
210
0.0
220
0.0
230
1.0
 70
    11
 71
     3
 72
    29
 73
    25
 74
     0
 42
0.0000000001
 43
0.0000000001
 12
1.0
 22
0.0
 32
0.0
 13
1.0
 23
0.0
 33
0.0
 40
0.0
 40
0.0
 40
0.0
 40
0.0
 40
1.0
 40
1.0
 40
1.0
 40
2.0
 40
2.0
 40
2.0
 40
3.0
 40
3.0
 40
3.0
 40
4.0
 40
4.0
 40
4.0
 40
5.0
 40
5.0
 40
5.0
 40
6.0
 40
6.0
 40
6.0
 40
7.0
 40
7.0
 40
7.0
 40
8.0
 40
8.0
 40
8.0
 40
8.0
 10
118.6215277481224
 20
-154.4904839023496
 30
0.0
 10
118.8309895536256
 20
-154.5983153910379
 30
0.0
 10
118.850282088343
 20
-154.771603693946
 30
0.0
 10
118.850282088343
 20
-154.8880479213474
 30
0.0
 10
118.850282088343
 20
-155.0489338805086
 30
0.0
 10
118.8037732992921
 20
-155.1905273049524
 30
0.0
 10
118.6215277481224
 20
-155.2859564498938
 30
0.0
 10
118.4268798532058
 20
-155.3896538239998
 30
0.0
 10
118.1902017933691
 20
-155.4086018491687
 30
0.0
 10
118.0272487769168
 20
-155.4086018491687
 30
0.0
 10
117.8832437856334
 20
-155.4086018491687
 30
0.0
 10
117.6317518152101
 20
-155.391720881291
 30
0.0
 10
117.4326252961627
 20
-155.2859564498938
 30
0.0
 10
117.2297091720815
 20
-155.1781249612055
 30
0.0
 10
117.2062825227818
 20
-155.0172390020443
 30
0.0
 10
117.2062825227818
 20
-154.8880479213474
 30
0.0
 10
117.2062825227818
 20
-154.7295735290259
 30
0.0
 10
117.2507242545415
 20
-154.5855685377425
 30
0.0
 10
117.4326252961627
 20
-154.4904839023496
 30
0.0
 10
117.6252061337882
 20
-154.3912651523744
 30
0.0
 10
117.8536159644602
 20
-154.3678385030747
 30
0.0
 10
118.0272487769168
 20
-154.3678385030747
 30
0.0
 10
118.1984700225337
 20
-154.3678385030747
 30
0.0
 10
118.4292914200455
 20
-154.3888535855347
 30
0.0
 10
118.6215277481224
 20
-154.4904839023496
 30
0.0
  0
SPLINE
  5
57
330
50
100
AcDbEntity
  8
_U+30EC_U+30A4_U+30E4_U+30FC 1
370
     0
100
AcDbSpline
210
0.0
220
0.0
230
1.0
 70
    11
 71
     3
 72
    17
 73
    13
 74
     0
 42
0.0000000001
 43
0.0000000001
 12
1.0
 22
0.0
 32
0.0
 13
1.0
 23
0.0
 33
0.0
 40
0.0
 40
0.0
 40
0.0
 40
0.0
 40
1.0
 40
1.0
 40
1.0
 40
2.0
 40
2.0
 40
2.0
 40
3.0
 40
3.0
 40
3.0
 40
4.0
 40
4.0
 40
4.0
 40
4.0
 10
117.3988633604072
 20
-154.8880479213474
 30
0.0
 10
117.3988633604072
 20
-155.1378173440281
 30
0.0
 10
117.6823947188433
 20
-155.1843261330789
 30
0.0
 10
118.0272487769168
 20
-155.1843261330789
 30
0.0
 10
118.3466091283995
 20
-155.1843261330789
 30
0.0
 10
118.6556341934264
 20
-155.1484971400323
 30
0.0
 10
118.6556341934264
 20
-154.8880479213474
 30
0.0
 10
118.6556341934264
 20
-154.6406900655065
 30
0.0
 10
118.3741698922815
 20
-154.591769709616
 30
0.0
 10
118.0272487769168
 20
-154.591769709616
 30
0.0
 10
117.7078884254341
 20
-154.591769709616
 30
0.0
 10
117.3988633604072
 20
-154.6300102695022
 30
0.0
 10
117.3988633604072
 20
-154.8880479213474
 30
0.0
  0
HATCH
  5
58
330
50
100
AcDbEntity
  8
_U+30EC_U+30A4_U+30E4_U+30FC 1
 62
   179
420
  2234388
100
AcDbHatch
 10
0.0
 20
0.0
 30
0.0
210
0.0
220
0.0
230
1.0
  2
SOLID
 70
     1
 71
     0
 91
        2
 92
        1
 93
        1
 72
     4
 94
        3
 73
     0
 74
     1
 95
       29
 96
       25
 40
0.0
 40
0.0
 40
0.0
 40
0.0
 40
1.0
 40
1.0
 40
1.0
 40
2.0
 40
2.0
 40
2.0
 40
3.0
 40
3.0
 40
3.0
 40
4.0
 40
4.0
 40
4.0
 40
5.0
 40
5.0
 40
5.0
 40
6.0
 40
6.0
 40
6.0
 40
7.0
 40
7.0
 40
7.0
 40
8.0
 40
8.0
 40
8.0
 40
8.0
 10
118.6215277481224
 20
-154.4904839023496
 10
118.8309895536256
 20
-154.5983153910379
 10
118.850282088343
 20
-154.771603693946
 10
118.850282088343
 20
-154.8880479213474
 10
118.850282088343
 20
-155.0489338805086
 10
118.8037732992921
 20
-155.1905273049524
 10
118.6215277481224
 20
-155.2859564498938
 10
118.4268798532058
 20
-155.3896538239998
 10
118.1902017933691
 20
-155.4086018491687
 10
118.0272487769168
 20
-155.4086018491687
 10
117.8832437856334
 20
-155.4086018491687
 10
117.6317518152101
 20
-155.391720881291
 10
117.4326252961627
 20
-155.2859564498938
 10
117.2297091720815
 20
-155.1781249612055
 10
117.2062825227818
 20
-155.0172390020443
 10
117.2062825227818
 20
-154.8880479213474
 10
117.2062825227818
 20
-154.7295735290259
 10
117.2507242545415
 20
-154.5855685377425
 10
117.4326252961627
 20
-154.4904839023496
 10
117.6252061337882
 20
-154.3912651523744
 10
117.8536159644602
 20
-154.3678385030747
 10
118.0272487769168
 20
-154.3678385030747
 10
118.1984700225337
 20
-154.3678385030747
 10
118.4292914200455
 20
-154.3888535855347
 10
118.6215277481224
 20
-154.4904839023496
 97
        0
 97
        0
 92
        1
 93
        1
 72
     4
 94
        3
 73
     0
 74
     1
 95
       17
 96
       13
 40
0.0
 40
0.0
 40
0.0
 40
0.0
 40
1.0
 40
1.0
 40
1.0
 40
2.0
 40
2.0
 40
2.0
 40
3.0
 40
3.0
 40
3.0
 40
4.0
 40
4.0
 40
4.0
 40
4.0
 10
117.3988633604072
 20
-154.8880479213474
 10
117.3988633604072
 20
-155.1378173440281
 10
117.6823947188433
 20
-155.1843261330789
 10
118.0272487769168
 20
-155.1843261330789
 10
118.3466091283995
 20
-155.1843261330789
 10
118.6556341934264
 20
-155.1484971400323
 10
118.6556341934264
 20
-154.8880479213474
 10
118.6556341934264
 20
-154.6406900655065
 10
118.3741698922815
 20
-154.591769709616
 10
118.0272487769168
 20
-154.591769709616
 10
117.7078884254341
 20
-154.591769709616
 10
117.3988633604072
 20
-154.6300102695022
 10
117.3988633604072
 20
-154.8880479213474
 97
        0
 97
        0
 75
     2
 76
     1
 98
        0
  0
ENDBLK
  5
53
330
50
100
AcDbEntity
  8
0
100
AcDbBlockEnd
  0
BLOCK
  5
5B
330
59
100
AcDbEntity
  8
0
100
AcDbBlockBegin
  2
block 5
 70
     0
 10
0.0
 20
0.0
 30
0.0
  3
block 5
  1

  0
SPLINE
  5
5D
330
59
100
AcDbEntity
  8
_U+30EC_U+30A4_U+30E4_U+30FC 1
370
     0
100
AcDbSpline
210
0.0
220
0.0
230
1.0
 70
    11
 71
     3
 72
    26
 73
    22
 74
     0
 42
0.0000000001
 43
0.0000000001
 12
1.0
 22
0.0
 32
0.0
 13
1.0
 23
0.0
 33
0.0
 40
0.0
 40
0.0
 40
0.0
 40
0.0
 40
1.0
 40
1.0
 40
1.0
 40
2.0
 40
2.0
 40
2.0
 40
3.0
 40
3.0
 40
3.0
 40
4.0
 40
4.0
 40
4.0
 40
5.0
 40
5.0
 40
5.0
 40
6.0
 40
6.0
 40
6.0
 40
7.0
 40
7.0
 40
7.0
 40
7.0
 10
94.04387204680154
 20
-163.1256157361283
 30
0.0
 10
94.04387204680154
 20
-163.1256157361283
 30
0.0
 10
94.04387204680154
 20
-162.0214626331058
 30
0.0
 10
94.04387204680154
 20
-162.0214626331058
 30
0.0
 10
94.04387204680154
 20
-162.0214626331058
 30
0.0
 10
93.7138318993146
 20
-162.0214626331058
 30
0.0
 10
93.7138318993146
 20
-162.0214626331058
 30
0.0
 10
93.7138318993146
 20
-162.0214626331058
 30
0.0
 10
93.7138318993146
 20
-161.87332352724
 30
0.0
 10
93.7138318993146
 20
-161.87332352724
 30
0.0
 10
94.04593910409268
 20
-161.8585096166534
 30
0.0
 10
94.09244789314356
 20
-161.6955566002011
 30
0.0
 10
94.12207571431671
 20
-161.5815239396393
 30
0.0
 10
94.12207571431671
 20
-161.5815239396393
 30
0.0
 10
94.2681477628913
 20
-161.5815239396393
 30
0.0
 10
94.2681477628913
 20
-161.5815239396393
 30
0.0
 10
94.2681477628913
 20
-161.5815239396393
 30
0.0
 10
94.2681477628913
 20
-163.1256157361283
 30
0.0
 10
94.2681477628913
 20
-163.1256157361283
 30
0.0
 10
94.2681477628913
 20
-163.1256157361283
 30
0.0
 10
94.04387204680154
 20
-163.1256157361283
 30
0.0
 10
94.04387204680154
 20
-163.1256157361283
 30
0.0
  0
HATCH
  5
5E
330
59
100
AcDbEntity
  8
_U+30EC_U+30A4_U+30E4_U+30FC 1
 62
   179
420
  2234388
100
AcDbHatch
 10
0.0
 20
0.0
 30
0.0
210
0.0
220
0.0
230
1.0
  2
SOLID
 70
     1
 71
     0
 91
        1
 92
        1
 93
        1
 72
     4
 94
        3
 73
     0
 74
     1
 95
       26
 96
       22
 40
0.0
 40
0.0
 40
0.0
 40
0.0
 40
1.0
 40
1.0
 40
1.0
 40
2.0
 40
2.0
 40
2.0
 40
3.0
 40
3.0
 40
3.0
 40
4.0
 40
4.0
 40
4.0
 40
5.0
 40
5.0
 40
5.0
 40
6.0
 40
6.0
 40
6.0
 40
7.0
 40
7.0
 40
7.0
 40
7.0
 10
94.04387204680154
 20
-163.1256157361283
 10
94.04387204680154
 20
-163.1256157361283
 10
94.04387204680154
 20
-162.0214626331058
 10
94.04387204680154
 20
-162.0214626331058
 10
94.04387204680154
 20
-162.0214626331058
 10
93.7138318993146
 20
-162.0214626331058
 10
93.7138318993146
 20
-162.0214626331058
 10
93.7138318993146
 20
-162.0214626331058
 10
93.7138318993146
 20
-161.87332352724
 10
93.7138318993146
 20
-161.87332352724
 10
94.04593910409268
 20
-161.8585096166534
 10
94.09244789314356
 20
-161.6955566002011
 10
94.12207571431671
 20
-161.5815239396393
 10
94.12207571431671
 20
-161.5815239396393
 10
94.2681477628913
 20
-161.5815239396393
 10
94.2681477628913
 20
-161.5815239396393
 10
94.2681477628913
 20
-161.5815239396393
 10
94.2681477628913
 20
-163.1256157361283
 10
94.2681477628913
 20
-163.1256157361283
 10
94.2681477628913
 20
-163.1256157361283
 10
94.04387204680154
 20
-163.1256157361283
 10
94.04387204680154
 20
-163.1256157361283
 97
        0
 97
        0
 75
     2
 76
     1
 98
        0
  0
SPLINE
  5
5F
330
59
100
AcDbEntity
  8
_U+30EC_U+30A4_U+30E4_U+30FC 1
370
     0
100
AcDbSpline
210
0.0
220
0.0
230
1.0
 70
    11
 71
     3
 72
    29
 73
    25
 74
     0
 42
0.0000000001
 43
0.0000000001
 12
1.0
 22
0.0
 32
0.0
 13
1.0
 23
0.0
 33
0.0
 40
0.0
 40
0.0
 40
0.0
 40
0.0
 40
1.0
 40
1.0
 40
1.0
 40
2.0
 40
2.0
 40
2.0
 40
3.0
 40
3.0
 40
3.0
 40
4.0
 40
4.0
 40
4.0
 40
5.0
 40
5.0
 40
5.0
 40
6.0
 40
6.0
 40
6.0
 40
7.0
 40
7.0
 40
7.0
 40
8.0
 40
8.0
 40
8.0
 40
8.0
 10
95.667028784677
 20
-162.9478488090894
 30
0.0
 10
95.55919729598868
 20
-163.1573106145926
 30
0.0
 10
95.38573673830635
 20
-163.17660314931
 30
0.0
 10
95.2692925109049
 20
-163.17660314931
 30
0.0
 10
95.108578806518
 20
-163.17660314931
 30
0.0
 10
94.96681312729997
 20
-163.1300943602592
 30
0.0
 10
94.87155623713281
 20
-162.9478488090894
 30
0.0
 10
94.76803111780106
 20
-162.7532009141728
 30
0.0
 10
94.74891083785792
 20
-162.5165228543362
 30
0.0
 10
94.74891083785792
 20
-162.3535698378838
 30
0.0
 10
94.74891083785792
 20
-162.2095648466004
 30
0.0
 10
94.76579180573565
 20
-161.9580728761772
 30
0.0
 10
94.87155623713281
 20
-161.7589463571297
 30
0.0
 10
94.9795599805954
 20
-161.5560302330485
 30
0.0
 10
95.14027368498229
 20
-161.5326035837488
 30
0.0
 10
95.2692925109049
 20
-161.5326035837488
 30
0.0
 10
95.42793915800065
 20
-161.5326035837488
 30
0.0
 10
95.57177189450984
 20
-161.5770453155085
 30
0.0
 10
95.667028784677
 20
-161.7589463571297
 30
0.0
 10
95.76641978942645
 20
-161.9515271947552
 30
0.0
 10
95.78967418395189
 20
-162.1799370254273
 30
0.0
 10
95.78967418395189
 20
-162.3535698378838
 30
0.0
 10
95.78967418395189
 20
-162.5247910835008
 30
0.0
 10
95.76865910149186
 20
-162.7556124810125
 30
0.0
 10
95.667028784677
 20
-162.9478488090894
 30
0.0
  0
SPLINE
  5
60
330
59
100
AcDbEntity
  8
_U+30EC_U+30A4_U+30E4_U+30FC 1
370
     0
100
AcDbSpline
210
0.0
220
0.0
230
1.0
 70
    11
 71
     3
 72
    17
 73
    13
 74
     0
 42
0.0000000001
 43
0.0000000001
 12
1.0
 22
0.0
 32
0.0
 13
1.0
 23
0.0
 33
0.0
 40
0.0
 40
0.0
 40
0.0
 40
0.0
 40
1.0
 40
1.0
 40
1.0
 40
2.0
 40
2.0
 40
2.0
 40
3.0
 40
3.0
 40
3.0
 40
4.0
 40
4.0
 40
4.0
 40
4.0
 10
95.2692925109049
 20
-161.7251844213743
 30
0.0
 10
95.01969534299856
 20
-161.7251844213743
 30
0.0
 10
94.97318655394768
 20
-162.0087157798103
 30
0.0
 10
94.97318655394768
 20
-162.3535698378838
 30
0.0
 10
94.97318655394768
 20
-162.6729301893665
 30
0.0
 10
95.00918780176855
 20
-162.9819552543934
 30
0.0
 10
95.2692925109049
 20
-162.9819552543934
 30
0.0
 10
95.5168226215201
 20
-162.9819552543934
 30
0.0
 10
95.5655707226364
 20
-162.7004909532485
 30
0.0
 10
95.5655707226364
 20
-162.3535698378838
 30
0.0
 10
95.5655707226364
 20
-162.0342094864012
 30
0.0
 10
95.52733016275012
 20
-161.7251844213743
 30
0.0
 10
95.2692925109049
 20
-161.7251844213743
 30
0.0
  0
HATCH
  5
61
330
59
100
AcDbEntity
  8
_U+30EC_U+30A4_U+30E4_U+30FC 1
 62
   179
420
  2234388
100
AcDbHatch
 10
0.0
 20
0.0
 30
0.0
210
0.0
220
0.0
230
1.0
  2
SOLID
 70
     1
 71
     0
 91
        2
 92
        1
 93
        1
 72
     4
 94
        3
 73
     0
 74
     1
 95
       29
 96
       25
 40
0.0
 40
0.0
 40
0.0
 40
0.0
 40
1.0
 40
1.0
 40
1.0
 40
2.0
 40
2.0
 40
2.0
 40
3.0
 40
3.0
 40
3.0
 40
4.0
 40
4.0
 40
4.0
 40
5.0
 40
5.0
 40
5.0
 40
6.0
 40
6.0
 40
6.0
 40
7.0
 40
7.0
 40
7.0
 40
8.0
 40
8.0
 40
8.0
 40
8.0
 10
95.667028784677
 20
-162.9478488090894
 10
95.55919729598868
 20
-163.1573106145926
 10
95.38573673830635
 20
-163.17660314931
 10
95.2692925109049
 20
-163.17660314931
 10
95.108578806518
 20
-163.17660314931
 10
94.96681312729997
 20
-163.1300943602592
 10
94.87155623713281
 20
-162.9478488090894
 10
94.76803111780106
 20
-162.7532009141728
 10
94.74891083785792
 20
-162.5165228543362
 10
94.74891083785792
 20
-162.3535698378838
 10
94.74891083785792
 20
-162.2095648466004
 10
94.76579180573565
 20
-161.9580728761772
 10
94.87155623713281
 20
-161.7589463571297
 10
94.9795599805954
 20
-161.5560302330485
 10
95.14027368498229
 20
-161.5326035837488
 10
95.2692925109049
 20
-161.5326035837488
 10
95.42793915800065
 20
-161.5326035837488
 10
95.57177189450984
 20
-161.5770453155085
 10
95.667028784677
 20
-161.7589463571297
 10
95.76641978942645
 20
-161.9515271947552
 10
95.78967418395189
 20
-162.1799370254273
 10
95.78967418395189
 20
-162.3535698378838
 10
95.78967418395189
 20
-162.5247910835008
 10
95.76865910149186
 20
-162.7556124810125
 10
95.667028784677
 20
-162.9478488090894
 97
        0
 97
        0
 92
        1
 93
        1
 72
     4
 94
        3
 73
     0
 74
     1
 95
       17
 96
       13
 40
0.0
 40
0.0
 40
0.0
 40
0.0
 40
1.0
 40
1.0
 40
1.0
 40
2.0
 40
2.0
 40
2.0
 40
3.0
 40
3.0
 40
3.0
 40
4.0
 40
4.0
 40
4.0
 40
4.0
 10
95.2692925109049
 20
-161.7251844213743
 10
95.01969534299856
 20
-161.7251844213743
 10
94.97318655394768
 20
-162.0087157798103
 10
94.97318655394768
 20
-162.3535698378838
 10
94.97318655394768
 20
-162.6729301893665
 10
95.00918780176855
 20
-162.9819552543934
 10
95.2692925109049
 20
-162.9819552543934
 10
95.5168226215201
 20
-162.9819552543934
 10
95.5655707226364
 20
-162.7004909532485
 10
95.5655707226364
 20
-162.3535698378838
 10
95.5655707226364
 20
-162.0342094864012
 10
95.52733016275012
 20
-161.7251844213743
 10
95.2692925109049
 20
-161.7251844213743
 97
        0
 97
        0
 75
     2
 76
     1
 98
        0
  0
ENDBLK
  5
5C
330
59
100
AcDbEntity
  8
0
100
AcDbBlockEnd
  0
BLOCK
  5
64
330
62
100
AcDbEntity
  8
0
100
AcDbBlockBegin
  2
block 6
 70
     0
 10
0.0
 20
0.0
 30
0.0
  3
block 6
  1

  0
SPLINE
  5
66
330
62
100
AcDbEntity
  8
_U+30EC_U+30A4_U+30E4_U+30FC 1
370
     0
100
AcDbSpline
210
0.0
220
0.0
230
1.0
 70
    11
 71
     3
 72
    44
 73
    40
 74
     0
 42
0.0000000001
 43
0.0000000001
 12
1.0
 22
0.0
 32
0.0
 13
1.0
 23
0.0
 33
0.0
 40
0.0
 40
0.0
 40
0.0
 40
0.0
 40
1.0
 40
1.0
 40
1.0
 40
2.0
 40
2.0
 40
2.0
 40
3.0
 40
3.0
 40
3.0
 40
4.0
 40
4.0
 40
4.0
 40
5.0
 40
5.0
 40
5.0
 40
6.0
 40
6.0
 40
6.0
 40
7.0
 40
7.0
 40
7.0
 40
8.0
 40
8.0
 40
8.0
 40
9.0
 40
9.0
 40
9.0
 40
10.0
 40
10.0
 40
10.0
 40
11.0
 40
11.0
 40
11.0
 40
12.0
 40
12.0
 40
12.0
 40
13.0
 40
13.0
 40
13.0
 40
13.0
 10
102.506232341995
 20
-133.8419596019562
 30
0.0
 10
102.2883300525529
 20
-134.0006062490519
 30
0.0
 10
102.1951402196769
 20
-134.0746758019848
 30
0.0
 10
102.1465643733349
 20
-134.218508538494
 30
0.0
 10
102.1465643733349
 20
-134.218508538494
 30
0.0
 10
102.9249836982271
 20
-134.218508538494
 30
0.0
 10
102.9249836982271
 20
-134.218508538494
 30
0.0
 10
102.9249836982271
 20
-134.218508538494
 30
0.0
 10
102.9249836982271
 20
-134.4236639746406
 30
0.0
 10
102.9249836982271
 20
-134.4236639746406
 30
0.0
 10
102.9249836982271
 20
-134.4236639746406
 30
0.0
 10
101.8969672054285
 20
-134.4236639746406
 30
0.0
 10
101.8969672054285
 20
-134.4236639746406
 30
0.0
 10
101.9286620838928
 20
-134.0660630632717
 30
0.0
 10
101.9941188981126
 20
-133.9878593957565
 30
0.0
 10
102.3792805733635
 20
-133.6895141267339
 30
0.0
 10
102.6352511679176
 20
-133.490732117235
 30
0.0
 10
102.7007079821373
 20
-133.4230359909498
 30
0.0
 10
102.7007079821373
 20
-133.2855766810883
 30
0.0
 10
102.7007079821373
 20
-133.1670653963957
 30
0.0
 10
102.6288777412699
 20
-133.035979513182
 30
0.0
 10
102.4321627890621
 20
-133.035979513182
 30
0.0
 10
102.1718858251515
 20
-133.035979513182
 30
0.0
 10
102.1634453412126
 20
-133.2664564011452
 30
0.0
 10
102.1591389718561
 20
-133.3829006285467
 30
0.0
 10
102.1591389718561
 20
-133.3829006285467
 30
0.0
 10
101.9350355105406
 20
-133.3829006285467
 30
0.0
 10
101.9350355105406
 20
-133.3829006285467
 30
0.0
 10
101.9434759944794
 20
-133.2559488599152
 30
0.0
 10
101.9539835357094
 20
-133.1438110018703
 30
0.0
 10
102.03442651529
 20
-133.0252997171777
 30
0.0
 10
102.1443250612695
 20
-132.8645860127908
 30
0.0
 10
102.3305324722472
 20
-132.8306518222611
 30
0.0
 10
102.4469766996487
 20
-132.8306518222611
 30
0.0
 10
102.724134631437
 20
-132.8306518222611
 30
0.0
 10
102.9313571248748
 20
-133.0147921759477
 30
0.0
 10
102.9313571248748
 20
-133.2876437383795
 30
0.0
 10
102.9313571248748
 20
-133.5160535690515
 30
0.0
 10
102.8150851522476
 20
-133.6156168285753
 30
0.0
 10
102.506232341995
 20
-133.8419596019562
 30
0.0
  0
HATCH
  5
67
330
62
100
AcDbEntity
  8
_U+30EC_U+30A4_U+30E4_U+30FC 1
 62
   179
420
  2234388
100
AcDbHatch
 10
0.0
 20
0.0
 30
0.0
210
0.0
220
0.0
230
1.0
  2
SOLID
 70
     1
 71
     0
 91
        1
 92
        1
 93
        1
 72
     4
 94
        3
 73
     0
 74
     1
 95
       44
 96
       40
 40
0.0
 40
0.0
 40
0.0
 40
0.0
 40
1.0
 40
1.0
 40
1.0
 40
2.0
 40
2.0
 40
2.0
 40
3.0
 40
3.0
 40
3.0
 40
4.0
 40
4.0
 40
4.0
 40
5.0
 40
5.0
 40
5.0
 40
6.0
 40
6.0
 40
6.0
 40
7.0
 40
7.0
 40
7.0
 40
8.0
 40
8.0
 40
8.0
 40
9.0
 40
9.0
 40
9.0
 40
10.0
 40
10.0
 40
10.0
 40
11.0
 40
11.0
 40
11.0
 40
12.0
 40
12.0
 40
12.0
 40
13.0
 40
13.0
 40
13.0
 40
13.0
 10
102.506232341995
 20
-133.8419596019562
 10
102.2883300525529
 20
-134.0006062490519
 10
102.1951402196769
 20
-134.0746758019848
 10
102.1465643733349
 20
-134.218508538494
 10
102.1465643733349
 20
-134.218508538494
 10
102.9249836982271
 20
-134.218508538494
 10
102.9249836982271
 20
-134.218508538494
 10
102.9249836982271
 20
-134.218508538494
 10
102.9249836982271
 20
-134.4236639746406
 10
102.9249836982271
 20
-134.4236639746406
 10
102.9249836982271
 20
-134.4236639746406
 10
101.8969672054285
 20
-134.4236639746406
 10
101.8969672054285
 20
-134.4236639746406
 10
101.9286620838928
 20
-134.0660630632717
 10
101.9941188981126
 20
-133.9878593957565
 10
102.3792805733635
 20
-133.6895141267339
 10
102.6352511679176
 20
-133.490732117235
 10
102.7007079821373
 20
-133.4230359909498
 10
102.7007079821373
 20
-133.2855766810883
 10
102.7007079821373
 20
-133.1670653963957
 10
102.6288777412699
 20
-133.035979513182
 10
102.4321627890621
 20
-133.035979513182
 10
102.1718858251515
 20
-133.035979513182
 10
102.1634453412126
 20
-133.2664564011452
 10
102.1591389718561
 20
-133.3829006285467
 10
102.1591389718561
 20
-133.3829006285467
 10
101.9350355105406
 20
-133.3829006285467
 10
101.9350355105406
 20
-133.3829006285467
 10
101.9434759944794
 20
-133.2559488599152
 10
101.9539835357094
 20
-133.1438110018703
 10
102.03442651529
 20
-133.0252997171777
 10
102.1443250612695
 20
-132.8645860127908
 10
102.3305324722472
 20
-132.8306518222611
 10
102.4469766996487
 20
-132.8306518222611
 10
102.724134631437
 20
-132.8306518222611
 10
102.9313571248748
 20
-133.0147921759477
 10
102.9313571248748
 20
-133.2876437383795
 10
102.9313571248748
 20
-133.5160535690515
 10
102.8150851522476
 20
-133.6156168285753
 10
102.506232341995
 20
-133.8419596019562
 97
        0
 97
        0
 75
     2
 76
     1
 98
        0
  0
SPLINE
  5
68
330
62
100
AcDbEntity
  8
_U+30EC_U+30A4_U+30E4_U+30FC 1
370
     0
100
AcDbSpline
210
0.0
220
0.0
230
1.0
 70
    11
 71
     3
 72
    53
 73
    49
 74
     0
 42
0.0000000001
 43
0.0000000001
 12
1.0
 22
0.0
 32
0.0
 13
1.0
 23
0.0
 33
0.0
 40
0.0
 40
0.0
 40
0.0
 40
0.0
 40
1.0
 40
1.0
 40
1.0
 40
2.0
 40
2.0
 40
2.0
 40
3.0
 40
3.0
 40
3.0
 40
4.0
 40
4.0
 40
4.0
 40
5.0
 40
5.0
 40
5.0
 40
6.0
 40
6.0
 40
6.0
 40
7.0
 40
7.0
 40
7.0
 40
8.0
 40
8.0
 40
8.0
 40
9.0
 40
9.0
 40
9.0
 40
10.0
 40
10.0
 40
10.0
 40
11.0
 40
11.0
 40
11.0
 40
12.0
 40
12.0
 40
12.0
 40
13.0
 40
13.0
 40
13.0
 40
14.0
 40
14.0
 40
14.0
 40
15.0
 40
15.0
 40
15.0
 40
16.0
 40
16.0
 40
16.0
 40
16.0
 10
103.5709391017114
 20
-134.474479133048
 30
0.0
 10
103.492563179422
 20
-134.474479133048
 30
0.0
 10
103.3911051173814
 20
-134.4574259103961
 30
0.0
 10
103.2894748005665
 20
-134.3940361534675
 30
0.0
 10
103.1160142428842
 20
-134.2839653527138
 30
0.0
 10
103.0948269056499
 20
-134.1528794695
 30
0.0
 10
103.075878880481
 20
-134.0450479808117
 30
0.0
 10
103.075878880481
 20
-134.0450479808117
 30
0.0
 10
103.2979152845054
 20
-134.0450479808117
 30
0.0
 10
103.2979152845054
 20
-134.0450479808117
 30
0.0
 10
103.3530368122694
 20
-134.2438299903106
 30
0.0
 10
103.4799885809008
 20
-134.2734578114837
 30
0.0
 10
103.5730061590026
 20
-134.2734578114837
 30
0.0
 10
103.7125325261552
 20
-134.2734578114837
 30
0.0
 10
103.8649780013775
 20
-134.1740668067343
 30
0.0
 10
103.8649780013775
 20
-133.9413506067056
 30
0.0
 10
103.8649780013775
 20
-133.6853800121516
 30
0.0
 10
103.6851440170475
 20
-133.6156168285753
 30
0.0
 10
103.5645656750637
 20
-133.6156168285753
 30
0.0
 10
103.5328707965994
 20
-133.6156168285753
 30
0.0
 10
103.3911051173814
 20
-133.6156168285753
 30
0.0
 10
103.3022216538619
 20
-133.7446356544979
 30
0.0
 10
103.3022216538619
 20
-133.7446356544979
 30
0.0
 10
103.1266940388885
 20
-133.7255153745547
 30
0.0
 10
103.1266940388885
 20
-133.7255153745547
 30
0.0
 10
103.1266940388885
 20
-133.7255153745547
 30
0.0
 10
103.2472723808722
 20
-132.8793999233774
 30
0.0
 10
103.2472723808722
 20
-132.8793999233774
 30
0.0
 10
103.2472723808722
 20
-132.8793999233774
 30
0.0
 10
104.0256917057644
 20
-132.8793999233774
 30
0.0
 10
104.0256917057644
 20
-132.8793999233774
 30
0.0
 10
104.0256917057644
 20
-132.8793999233774
 30
0.0
 10
104.0256917057644
 20
-133.074047818294
 30
0.0
 10
104.0256917057644
 20
-133.074047818294
 30
0.0
 10
104.0256917057644
 20
-133.074047818294
 30
0.0
 10
103.4100531425503
 20
-133.074047818294
 30
0.0
 10
103.4100531425503
 20
-133.074047818294
 30
0.0
 10
103.4100531425503
 20
-133.074047818294
 30
0.0
 10
103.3445963283305
 20
-133.4971055438827
 30
0.0
 10
103.3445963283305
 20
-133.4971055438827
 30
0.0
 10
103.405919027968
 20
-133.463171353353
 30
0.0
 10
103.4884290648397
 20
-133.4230359909498
 30
0.0
 10
103.606768094758
 20
-133.4230359909498
 30
0.0
 10
103.860671632021
 20
-133.4230359909498
 30
0.0
 10
104.0976942014061
 20
-133.6092434019276
 30
0.0
 10
104.0976942014061
 20
-133.9222303267625
 30
0.0
 10
104.0976942014061
 20
-134.2396958757283
 30
0.0
 10
103.8734184853164
 20
-134.474479133048
 30
0.0
 10
103.5709391017114
 20
-134.474479133048
 30
0.0
  0
HATCH
  5
69
330
62
100
AcDbEntity
  8
_U+30EC_U+30A4_U+30E4_U+30FC 1
 62
   179
420
  2234388
100
AcDbHatch
 10
0.0
 20
0.0
 30
0.0
210
0.0
220
0.0
230
1.0
  2
SOLID
 70
     1
 71
     0
 91
        1
 92
        1
 93
        1
 72
     4
 94
        3
 73
     0
 74
     1
 95
       53
 96
       49
 40
0.0
 40
0.0
 40
0.0
 40
0.0
 40
1.0
 40
1.0
 40
1.0
 40
2.0
 40
2.0
 40
2.0
 40
3.0
 40
3.0
 40
3.0
 40
4.0
 40
4.0
 40
4.0
 40
5.0
 40
5.0
 40
5.0
 40
6.0
 40
6.0
 40
6.0
 40
7.0
 40
7.0
 40
7.0
 40
8.0
 40
8.0
 40
8.0
 40
9.0
 40
9.0
 40
9.0
 40
10.0
 40
10.0
 40
10.0
 40
11.0
 40
11.0
 40
11.0
 40
12.0
 40
12.0
 40
12.0
 40
13.0
 40
13.0
 40
13.0
 40
14.0
 40
14.0
 40
14.0
 40
15.0
 40
15.0
 40
15.0
 40
16.0
 40
16.0
 40
16.0
 40
16.0
 10
103.5709391017114
 20
-134.474479133048
 10
103.492563179422
 20
-134.474479133048
 10
103.3911051173814
 20
-134.4574259103961
 10
103.2894748005665
 20
-134.3940361534675
 10
103.1160142428842
 20
-134.2839653527138
 10
103.0948269056499
 20
-134.1528794695
 10
103.075878880481
 20
-134.0450479808117
 10
103.075878880481
 20
-134.0450479808117
 10
103.2979152845054
 20
-134.0450479808117
 10
103.2979152845054
 20
-134.0450479808117
 10
103.3530368122694
 20
-134.2438299903106
 10
103.4799885809008
 20
-134.2734578114837
 10
103.5730061590026
 20
-134.2734578114837
 10
103.7125325261552
 20
-134.2734578114837
 10
103.8649780013775
 20
-134.1740668067343
 10
103.8649780013775
 20
-133.9413506067056
 10
103.8649780013775
 20
-133.6853800121516
 10
103.6851440170475
 20
-133.6156168285753
 10
103.5645656750637
 20
-133.6156168285753
 10
103.5328707965994
 20
-133.6156168285753
 10
103.3911051173814
 20
-133.6156168285753
 10
103.3022216538619
 20
-133.7446356544979
 10
103.3022216538619
 20
-133.7446356544979
 10
103.1266940388885
 20
-133.7255153745547
 10
103.1266940388885
 20
-133.7255153745547
 10
103.1266940388885
 20
-133.7255153745547
 10
103.2472723808722
 20
-132.8793999233774
 10
103.2472723808722
 20
-132.8793999233774
 10
103.2472723808722
 20
-132.8793999233774
 10
104.0256917057644
 20
-132.8793999233774
 10
104.0256917057644
 20
-132.8793999233774
 10
104.0256917057644
 20
-132.8793999233774
 10
104.0256917057644
 20
-133.074047818294
 10
104.0256917057644
 20
-133.074047818294
 10
104.0256917057644
 20
-133.074047818294
 10
103.4100531425503
 20
-133.074047818294
 10
103.4100531425503
 20
-133.074047818294
 10
103.4100531425503
 20
-133.074047818294
 10
103.3445963283305
 20
-133.4971055438827
 10
103.3445963283305
 20
-133.4971055438827
 10
103.405919027968
 20
-133.463171353353
 10
103.4884290648397
 20
-133.4230359909498
 10
103.606768094758
 20
-133.4230359909498
 10
103.860671632021
 20
-133.4230359909498
 10
104.0976942014061
 20
-133.6092434019276
 10
104.0976942014061
 20
-133.9222303267625
 10
104.0976942014061
 20
-134.2396958757283
 10
103.8734184853164
 20
-134.474479133048
 10
103.5709391017114
 20
-134.474479133048
 97
        0
 97
        0
 75
     2
 76
     1
 98
        0
  0
ENDBLK
  5
65
330
62
100
AcDbEntity
  8
0
100
AcDbBlockEnd
  0
ENDSEC
  0
SECTION
  2
ENTITIES
  0
INSERT
  5
42
330
1F
100
AcDbEntity
  8
_U+30EC_U+30A4_U+30E4_U+30FC 1
100
AcDbBlockReference
  2
block 2
 10
0.0
 20
0.0
 30
0.0
  0
INSERT
  5
48
330
1F
100
AcDbEntity
  8
_U+30EC_U+30A4_U+30E4_U+30FC 1
100
AcDbBlockReference
  2
block 3
 10
0.0
 20
0.0
 30
0.0
  0
INSERT
  5
51
330
1F
100
AcDbEntity
  8
_U+30EC_U+30A4_U+30E4_U+30FC 1
100
AcDbBlockReference
  2
block 4
 10
0.0
 20
0.0
 30
0.0
  0
INSERT
  5
5A
330
1F
100
AcDbEntity
  8
_U+30EC_U+30A4_U+30E4_U+30FC 1
100
AcDbBlockReference
  2
block 5
 10
0.0
 20
0.0
 30
0.0
  0
INSERT
  5
63
330
1F
100
AcDbEntity
  8
_U+30EC_U+30A4_U+30E4_U+30FC 1
100
AcDbBlockReference
  2
block 6
 10
0.0
 20
0.0
 30
0.0
  0
POLYLINE
  5
6A
330
1F
100
AcDbEntity
  8
_U+30EC_U+30A4_U+30E4_U+30FC 1
 62
   179
420
  2234388
370
    25
100
AcDb2dPolyline
 66
     1
 10
0.0
 20
0.0
 30
0.0
  0
VERTEX
  5
6B
330
6A
100
AcDbEntity
  8
_U+30EC_U+30A4_U+30E4_U+30FC 1
 62
   179
420
  2234388
370
    25
100
AcDbVertex
100
AcDb2dVertex
 10
90.40255145885824
 20
-139.4756381215981
 30
0.0
  0
VERTEX
  5
6C
330
6A
100
AcDbEntity
  8
_U+30EC_U+30A4_U+30E4_U+30FC 1
 62
   179
420
  2234388
370
    25
100
AcDbVertex
100
AcDb2dVertex
 10
115.402500505207
 20
-139.4756381215981
 30
0.0
  0
SEQEND
  5
6D
330
6A
100
AcDbEntity
  8
_U+30EC_U+30A4_U+30E4_U+30FC 1
 62
   179
420
  2234388
370
    25
  0
POLYLINE
  5
6E
330
1F
100
AcDbEntity
  8
_U+30EC_U+30A4_U+30E4_U+30FC 1
 62
   179
420
  2234388
370
    25
100
AcDb2dPolyline
 66
     1
 10
0.0
 20
0.0
 30
0.0
  0
VERTEX
  5
6F
330
6E
100
AcDbEntity
  8
_U+30EC_U+30A4_U+30E4_U+30FC 1
 62
   179
420
  2234388
370
    25
100
AcDbVertex
100
AcDb2dVertex
 10
91.40246350864354
 20
-140.4755986180386
 30
0.0
  0
VERTEX
  5
70
330
6E
100
AcDbEntity
  8
_U+30EC_U+30A4_U+30E4_U+30FC 1
 62
   179
420
  2234388
370
    25
100
AcDbVertex
100
AcDb2dVertex
 10
115.4026404622111
 20
-140.4755986180386
 30
0.0
  0
SEQEND
  5
71
330
6E
100
AcDbEntity
  8
_U+30EC_U+30A4_U+30E4_U+30FC 1
 62
   179
420
  2234388
370
    25
  0
POLYLINE
  5
72
330
1F
100
AcDbEntity
  8
_U+30EC_U+30A4_U+30E4_U+30FC 1
 62
   179
420
  2234388
370
    25
100
AcDb2dPolyline
 66
     1
 10
0.0
 20
0.0
 30
0.0
  0
VERTEX
  5
73
330
72
100
AcDbEntity
  8
_U+30EC_U+30A4_U+30E4_U+30FC 1
 62
   179
420
  2234388
370
    25
100
AcDbVertex
100
AcDb2dVertex
 10
115.402570483709
 20
-139.4756381215981
 30
0.0
  0
VERTEX
  5
74
330
72
100
AcDbEntity
  8
_U+30EC_U+30A4_U+30E4_U+30FC 1
 62
   179
420
  2234388
370
    25
100
AcDbVertex
100
AcDb2dVertex
 10
115.402570483709
 20
-140.4754263632644
 30
0.0
  0
SEQEND
  5
75
330
72
100
AcDbEntity
  8
_U+30EC_U+30A4_U+30E4_U+30FC 1
 62
   179
420
  2234388
370
    25
  0
POLYLINE
  5
76
330
1F
100
AcDbEntity
  8
_U+30EC_U+30A4_U+30E4_U+30FC 1
 62
   179
420
  2234388
370
    25
100
AcDb2dPolyline
 66
     1
 10
0.0
 20
0.0
 30
0.0
  0
VERTEX
  5
77
330
76
100
AcDbEntity
  8
_U+30EC_U+30A4_U+30E4_U+30FC 1
 62
   179
420
  2234388
370
    25
100
AcDbVertex
100
AcDb2dVertex
 10
96.44334068006533
 20
-150.4768830664932
 30
0.0
  0
VERTEX
  5
78
330
76
100
AcDbEntity
  8
_U+30EC_U+30A4_U+30E4_U+30FC 1
 62
   179
420
  2234388
370
    25
100
AcDbVertex
100
AcDb2dVertex
 10
99.43171878024326
 20
-150.4768830664932
 30
0.0
  0
SEQEND
  5
79
330
76
100
AcDbEntity
  8
_U+30EC_U+30A4_U+30E4_U+30FC 1
 62
   179
420
  2234388
370
    25
  0
POLYLINE
  5
7A
330
1F
100
AcDbEntity
  8
_U+30EC_U+30A4_U+30E4_U+30FC 1
 62
   179
420
  2234388
370
    25
100
AcDb2dPolyline
 66
     1
 10
0.0
 20
0.0
 30
0.0
  0
VERTEX
  5
7B
330
7A
100
AcDbEntity
  8
_U+30EC_U+30A4_U+30E4_U+30FC 1
 62
   179
420
  2234388
370
    25
100
AcDbVertex
100
AcDb2dVertex
 10
90.40255145885824
 20
-160.4766172219794
 30
0.0
  0
VERTEX
  5
7C
330
7A
100
AcDbEntity
  8
_U+30EC_U+30A4_U+30E4_U+30FC 1
 62
   179
420
  2234388
370
    25
100
AcDbVertex
100
AcDb2dVertex
 10
99.43189641797922
 20
-160.4766172219794
 30
0.0
  0
SEQEND
  5
7D
330
7A
100
AcDbEntity
  8
_U+30EC_U+30A4_U+30E4_U+30FC 1
 62
   179
420
  2234388
370
    25
  0
POLYLINE
  5
7E
330
1F
100
AcDbEntity
  8
_U+30EC_U+30A4_U+30E4_U+30FC 1
 62
   179
420
  2234388
370
    25
100
AcDb2dPolyline
 66
     1
 10
0.0
 20
0.0
 30
0.0
  0
VERTEX
  5
7F
330
7E
100
AcDbEntity
  8
_U+30EC_U+30A4_U+30E4_U+30FC 1
 62
   179
420
  2234388
370
    25
100
AcDbVertex
100
AcDb2dVertex
 10
91.40246350864354
 20
-159.4766567255388
 30
0.0
  0
VERTEX
  5
80
330
7E
100
AcDbEntity
  8
_U+30EC_U+30A4_U+30E4_U+30FC 1
 62
   179
420
  2234388
370
    25
100
AcDbVertex
100
AcDb2dVertex
 10
98.43191169821104
 20
-159.4766567255388
 30
0.0
  0
SEQEND
  5
81
330
7E
100
AcDbEntity
  8
_U+30EC_U+30A4_U+30E4_U+30FC 1
 62
   179
420
  2234388
370
    25
  0
POLYLINE
  5
82
330
1F
100
AcDbEntity
  8
_U+30EC_U+30A4_U+30E4_U+30FC 1
 62
   179
420
  2234388
370
    25
100
AcDb2dPolyline
 66
     1
 10
0.0
 20
0.0
 30
0.0
  0
VERTEX
  5
83
330
82
100
AcDbEntity
  8
_U+30EC_U+30A4_U+30E4_U+30FC 1
 62
   179
420
  2234388
370
    25
100
AcDbVertex
100
AcDb2dVertex
 10
98.43184441118984
 20
-151.4767789673934
 30
0.0
  0
VERTEX
  5
84
330
82
100
AcDbEntity
  8
_U+30EC_U+30A4_U+30E4_U+30FC 1
 62
   179
420
  2234388
370
    25
100
AcDbVertex
100
AcDb2dVertex
 10
98.43184441118984
 20
-159.4767213210792
 30
0.0
  0
SEQEND
  5
85
330
82
100
AcDbEntity
  8
_U+30EC_U+30A4_U+30E4_U+30FC 1
 62
   179
420
  2234388
370
    25
  0
POLYLINE
  5
86
330
1F
100
AcDbEntity
  8
_U+30EC_U+30A4_U+30E4_U+30FC 1
 62
   179
420
  2234388
370
    25
100
AcDb2dPolyline
 66
     1
 10
0.0
 20
0.0
 30
0.0
  0
VERTEX
  5
87
330
86
100
AcDbEntity
  8
_U+30EC_U+30A4_U+30E4_U+30FC 1
 62
   179
420
  2234388
370
    25
100
AcDbVertex
100
AcDb2dVertex
 10
97.44329041058249
 20
-151.4767789673934
 30
0.0
  0
VERTEX
  5
88
330
86
100
AcDbEntity
  8
_U+30EC_U+30A4_U+30E4_U+30FC 1
 62
   179
420
  2234388
370
    25
100
AcDbVertex
100
AcDb2dVertex
 10
98.43177174120694
 20
-151.4767789673934
 30
0.0
  0
SEQEND
  5
89
330
86
100
AcDbEntity
  8
_U+30EC_U+30A4_U+30E4_U+30FC 1
 62
   179
420
  2234388
370
    25
  0
POLYLINE
  5
8A
330
1F
100
AcDbEntity
  8
_U+30EC_U+30A4_U+30E4_U+30FC 1
 62
   179
420
  2234388
370
    25
100
AcDb2dPolyline
 66
     1
 10
0.0
 20
0.0
 30
0.0
  0
VERTEX
  5
8B
330
8A
100
AcDbEntity
  8
_U+30EC_U+30A4_U+30E4_U+30FC 1
 62
   179
420
  2234388
370
    25
100
AcDbVertex
100
AcDb2dVertex
 10
96.44334068006533
 20
-154.2766511319495
 30
0.0
  0
VERTEX
  5
8C
330
8A
100
AcDbEntity
  8
_U+30EC_U+30A4_U+30E4_U+30FC 1
 62
   179
420
  2234388
370
    25
100
AcDbVertex
100
AcDb2dVertex
 10
96.44334068006533
 20
-150.4768830664932
 30
0.0
  0
SEQEND
  5
8D
330
8A
100
AcDbEntity
  8
_U+30EC_U+30A4_U+30E4_U+30FC 1
 62
   179
420
  2234388
370
    25
  0
POLYLINE
  5
8E
330
1F
100
AcDbEntity
  8
_U+30EC_U+30A4_U+30E4_U+30FC 1
 62
   179
420
  2234388
370
    25
100
AcDb2dPolyline
 66
     1
 10
0.0
 20
0.0
 30
0.0
  0
VERTEX
  5
8F
330
8E
100
AcDbEntity
  8
_U+30EC_U+30A4_U+30E4_U+30FC 1
 62
   179
420
  2234388
370
    25
100
AcDbVertex
100
AcDb2dVertex
 10
96.44334068006533
 20
-154.2766511319495
 30
0.0
  0
VERTEX
  5
90
330
8E
100
AcDbEntity
  8
_U+30EC_U+30A4_U+30E4_U+30FC 1
 62
   179
420
  2234388
370
    25
100
AcDbVertex
100
AcDb2dVertex
 10
97.44311277284653
 20
-154.2766511319495
 30
0.0
  0
SEQEND
  5
91
330
8E
100
AcDbEntity
  8
_U+30EC_U+30A4_U+30E4_U+30FC 1
 62
   179
420
  2234388
370
    25
  0
POLYLINE
  5
92
330
1F
100
AcDbEntity
  8
_U+30EC_U+30A4_U+30E4_U+30FC 1
 62
   179
420
  2234388
370
    25
100
AcDb2dPolyline
 66
     1
 10
0.0
 20
0.0
 30
0.0
  0
VERTEX
  5
93
330
92
100
AcDbEntity
  8
_U+30EC_U+30A4_U+30E4_U+30FC 1
 62
   179
420
  2234388
370
    25
100
AcDbVertex
100
AcDb2dVertex
 10
97.44329041058249
 20
-154.2766511319495
 30
0.0
  0
VERTEX
  5
94
330
92
100
AcDbEntity
  8
_U+30EC_U+30A4_U+30E4_U+30FC 1
 62
   179
420
  2234388
370
    25
100
AcDbVertex
100
AcDb2dVertex
 10
97.44329041058249
 20
-151.4766713081595
 30
0.0
  0
SEQEND
  5
95
330
92
100
AcDbEntity
  8
_U+30EC_U+30A4_U+30E4_U+30FC 1
 62
   179
420
  2234388
370
    25
  0
POLYLINE
  5
96
330
1F
100
AcDbEntity
  8
_U+30EC_U+30A4_U+30E4_U+30FC 1
 62
   179
420
  2234388
370
    25
100
AcDb2dPolyline
 66
     1
 10
0.0
 20
0.0
 30
0.0
  0
VERTEX
  5
97
330
96
100
AcDbEntity
  8
_U+30EC_U+30A4_U+30E4_U+30FC 1
 62
   179
420
  2234388
370
    25
100
AcDbVertex
100
AcDb2dVertex
 10
89.40260172834108
 20
-159.4766567255388
 30
0.0
  0
VERTEX
  5
98
330
96
100
AcDbEntity
  8
_U+30EC_U+30A4_U+30E4_U+30FC 1
 62
   179
420
  2234388
370
    25
100
AcDbVertex
100
AcDb2dVertex
 10
90.40237382112228
 20
-159.4766567255388
 30
0.0
  0
SEQEND
  5
99
330
96
100
AcDbEntity
  8
_U+30EC_U+30A4_U+30E4_U+30FC 1
 62
   179
420
  2234388
370
    25
  0
POLYLINE
  5
9A
330
1F
100
AcDbEntity
  8
_U+30EC_U+30A4_U+30E4_U+30FC 1
 62
   179
420
  2234388
370
    25
100
AcDb2dPolyline
 66
     1
 10
0.0
 20
0.0
 30
0.0
  0
VERTEX
  5
9B
330
9A
100
AcDbEntity
  8
_U+30EC_U+30A4_U+30E4_U+30FC 1
 62
   179
420
  2234388
370
    25
100
AcDbVertex
100
AcDb2dVertex
 10
89.40260172834108
 20
-159.4766567255388
 30
0.0
  0
VERTEX
  5
9C
330
9A
100
AcDbEntity
  8
_U+30EC_U+30A4_U+30E4_U+30FC 1
 62
   179
420
  2234388
370
    25
100
AcDbVertex
100
AcDb2dVertex
 10
89.40260172834108
 20
-160.4764449672051
 30
0.0
  0
SEQEND
  5
9D
330
9A
100
AcDbEntity
  8
_U+30EC_U+30A4_U+30E4_U+30FC 1
 62
   179
420
  2234388
370
    25
  0
POLYLINE
  5
9E
330
1F
100
AcDbEntity
  8
_U+30EC_U+30A4_U+30E4_U+30FC 1
 62
   179
420
  2234388
370
    25
100
AcDb2dPolyline
 66
     1
 10
0.0
 20
0.0
 30
0.0
  0
VERTEX
  5
9F
330
9E
100
AcDbEntity
  8
_U+30EC_U+30A4_U+30E4_U+30FC 1
 62
   179
420
  2234388
370
    25
100
AcDbVertex
100
AcDb2dVertex
 10
89.40260172834108
 20
-160.4766172219794
 30
0.0
  0
VERTEX
  5
A0
330
9E
100
AcDbEntity
  8
_U+30EC_U+30A4_U+30E4_U+30FC 1
 62
   179
420
  2234388
370
    25
100
AcDbVertex
100
AcDb2dVertex
 10
90.40237382112228
 20
-160.4766172219794
 30
0.0
  0
SEQEND
  5
A1
330
9E
100
AcDbEntity
  8
_U+30EC_U+30A4_U+30E4_U+30FC 1
 62
   179
420
  2234388
370
    25
  0
POLYLINE
  5
A2
330
1F
100
AcDbEntity
  8
_U+30EC_U+30A4_U+30E4_U+30FC 1
 62
   179
420
  2234388
370
    25
100
AcDb2dPolyline
 66
     1
 10
0.0
 20
0.0
 30
0.0
  0
VERTEX
  5
A3
330
A2
100
AcDbEntity
  8
_U+30EC_U+30A4_U+30E4_U+30FC 1
 62
   179
420
  2234388
370
    25
100
AcDbVertex
100
AcDb2dVertex
 10
91.40246350864354
 20
-140.476955124386
 30
0.0
  0
VERTEX
  5
A4
330
A2
100
AcDbEntity
  8
_U+30EC_U+30A4_U+30E4_U+30FC 1
 62
   179
420
  2234388
370
    25
100
AcDbVertex
100
AcDb2dVertex
 10
91.40246350864354
 20
-159.477927104499
 30
0.0
  0
SEQEND
  5
A5
330
A2
100
AcDbEntity
  8
_U+30EC_U+30A4_U+30E4_U+30FC 1
 62
   179
420
  2234388
370
    25
  0
SPLINE
  5
A6
330
1F
100
AcDbEntity
  8
_U+30EC_U+30A4_U+30E4_U+30FC 1
 62
   179
420
  2234388
370
     9
100
AcDbSpline
210
0.0
220
0.0
230
1.0
 70
    11
 71
     3
 72
    17
 73
    13
 74
     0
 42
0.0000000001
 43
0.0000000001
 12
1.0
 22
0.0
 32
0.0
 13
1.0
 23
0.0
 33
0.0
 40
0.0
 40
0.0
 40
0.0
 40
0.0
 40
1.0
 40
1.0
 40
1.0
 40
2.0
 40
2.0
 40
2.0
 40
3.0
 40
3.0
 40
3.0
 40
4.0
 40
4.0
 40
4.0
 40
4.0
 10
119.7024049247728
 20
-139.4756381215981
 30
0.0
 10
119.7024049247728
 20
-139.4199137021242
 30
0.0
 10
119.6575971516177
 20
-139.375816479913
 30
0.0
 10
119.6025671342026
 20
-139.375816479913
 30
0.0
 10
119.5475317338257
 20
-139.375816479913
 30
0.0
 10
119.5027293436324
 20
-139.4199137021242
 30
0.0
 10
119.5027293436324
 20
-139.4756381215981
 30
0.0
 10
119.5027293436324
 20
-139.530673521975
 30
0.0
 10
119.5475317338257
 20
-139.57548129513
 30
0.0
 10
119.6025671342026
 20
-139.57548129513
 30
0.0
 10
119.6575971516177
 20
-139.57548129513
 30
0.0
 10
119.7024049247728
 20
-139.530673521975
 30
0.0
 10
119.7024049247728
 20
-139.4756381215981
 30
0.0
  0
SPLINE
  5
A7
330
1F
100
AcDbEntity
  8
_U+30EC_U+30A4_U+30E4_U+30FC 1
 62
   179
420
  2234388
370
     9
100
AcDbSpline
210
0.0
220
0.0
230
1.0
 70
    11
 71
     3
 72
    17
 73
    13
 74
     0
 42
0.0000000001
 43
0.0000000001
 12
1.0
 22
0.0
 32
0.0
 13
1.0
 23
0.0
 33
0.0
 40
0.0
 40
0.0
 40
0.0
 40
0.0
 40
1.0
 40
1.0
 40
1.0
 40
2.0
 40
2.0
 40
2.0
 40
3.0
 40
3.0
 40
3.0
 40
4.0
 40
4.0
 40
4.0
 40
4.0
 10
119.7024049247728
 20
-140.4755986180386
 30
0.0
 10
119.7024049247728
 20
-140.4205847495089
 30
0.0
 10
119.6575971516177
 20
-140.3757769763535
 30
0.0
 10
119.6025671342026
 20
-140.3757769763535
 30
0.0
 10
119.5475317338257
 20
-140.3757769763535
 30
0.0
 10
119.5027293436324
 20
-140.4205847495089
 30
0.0
 10
119.5027293436324
 20
-140.4755986180386
 30
0.0
 10
119.5027293436324
 20
-140.5306340184155
 30
0.0
 10
119.5475317338257
 20
-140.5754417915709
 30
0.0
 10
119.6025671342026
 20
-140.5754417915709
 30
0.0
 10
119.6575971516177
 20
-140.5754417915709
 30
0.0
 10
119.7024049247728
 20
-140.5306340184155
 30
0.0
 10
119.7024049247728
 20
-140.4755986180386
 30
0.0
  0
SPLINE
  5
A8
330
1F
100
AcDbEntity
  8
_U+30EC_U+30A4_U+30E4_U+30FC 1
 62
   179
420
  2234388
370
     9
100
AcDbSpline
210
0.0
220
0.0
230
1.0
 70
    11
 71
     3
 72
    17
 73
    13
 74
     0
 42
0.0000000001
 43
0.0000000001
 12
1.0
 22
0.0
 32
0.0
 13
1.0
 23
0.0
 33
0.0
 40
0.0
 40
0.0
 40
0.0
 40
0.0
 40
1.0
 40
1.0
 40
1.0
 40
2.0
 40
2.0
 40
2.0
 40
3.0
 40
3.0
 40
3.0
 40
4.0
 40
4.0
 40
4.0
 40
4.0
 10
115.5024782527813
 20
-135.7752395290445
 30
0.0
 10
115.5024782527813
 20
-135.7202256605144
 30
0.0
 10
115.4576704796263
 20
-135.6754178873594
 30
0.0
 10
115.4022851867392
 20
-135.6754178873594
 30
0.0
 10
115.347255169324
 20
-135.6754178873594
 30
0.0
 10
115.3024527791307
 20
-135.7202256605144
 30
0.0
 10
115.3024527791307
 20
-135.7752395290445
 30
0.0
 10
115.3024527791307
 20
-135.8302749294213
 30
0.0
 10
115.347255169324
 20
-135.8750827025764
 30
0.0
 10
115.4022851867392
 20
-135.8750827025764
 30
0.0
 10
115.4576704796263
 20
-135.8750827025764
 30
0.0
 10
115.5024782527813
 20
-135.8302749294213
 30
0.0
 10
115.5024782527813
 20
-135.7752395290445
 30
0.0
  0
SPLINE
  5
A9
330
1F
100
AcDbEntity
  8
_U+30EC_U+30A4_U+30E4_U+30FC 1
 62
   179
420
  2234388
370
     9
100
AcDbSpline
210
0.0
220
0.0
230
1.0
 70
    11
 71
     3
 72
    17
 73
    13
 74
     0
 42
0.0000000001
 43
0.0000000001
 12
1.0
 22
0.0
 32
0.0
 13
1.0
 23
0.0
 33
0.0
 40
0.0
 40
0.0
 40
0.0
 40
0.0
 40
1.0
 40
1.0
 40
1.0
 40
2.0
 40
2.0
 40
2.0
 40
3.0
 40
3.0
 40
3.0
 40
4.0
 40
4.0
 40
4.0
 40
4.0
 10
99.70258402980933
 20
-164.4766745262094
 30
0.0
 10
99.70258402980933
 20
-164.421294616284
 30
0.0
 10
99.65777894813515
 20
-164.376486843129
 30
0.0
 10
99.60239365524806
 20
-164.376486843129
 30
0.0
 10
99.54736094635204
 20
-164.376486843129
 30
0.0
 10
99.5025585561587
 20
-164.421294616284
 30
0.0
 10
99.5025585561587
 20
-164.4766745262094
 30
0.0
 10
99.5025585561587
 20
-164.5317099265863
 30
0.0
 10
99.54736094635204
 20
-164.5765176997413
 30
0.0
 10
99.60239365524806
 20
-164.5765176997413
 30
0.0
 10
99.65777894813515
 20
-164.5765176997413
 30
0.0
 10
99.70258402980933
 20
-164.5317099265863
 30
0.0
 10
99.70258402980933
 20
-164.4766745262094
 30
0.0
  0
SPLINE
  5
AA
330
1F
100
AcDbEntity
  8
_U+30EC_U+30A4_U+30E4_U+30FC 1
 62
   179
420
  2234388
370
     9
100
AcDbSpline
210
0.0
220
0.0
230
1.0
 70
    11
 71
     3
 72
    17
 73
    13
 74
     0
 42
0.0000000001
 43
0.0000000001
 12
1.0
 22
0.0
 32
0.0
 13
1.0
 23
0.0
 33
0.0
 40
0.0
 40
0.0
 40
0.0
 40
0.0
 40
1.0
 40
1.0
 40
1.0
 40
2.0
 40
2.0
 40
2.0
 40
3.0
 40
3.0
 40
3.0
 40
4.0
 40
4.0
 40
4.0
 40
4.0
 10
119.7024049247728
 20
-160.4766172219794
 30
0.0
 10
119.7024049247728
 20
-160.4216033534493
 30
0.0
 10
119.6575971516177
 20
-160.3767955802943
 30
0.0
 10
119.6025671342026
 20
-160.3767955802943
 30
0.0
 10
119.5475317338257
 20
-160.3767955802943
 30
0.0
 10
119.5027293436324
 20
-160.4216033534493
 30
0.0
 10
119.5027293436324
 20
-160.4766172219794
 30
0.0
 10
119.5027293436324
 20
-160.5316526223562
 30
0.0
 10
119.5475317338257
 20
-160.5764603955113
 30
0.0
 10
119.6025671342026
 20
-160.5764603955113
 30
0.0
 10
119.6575971516177
 20
-160.5764603955113
 30
0.0
 10
119.7024049247728
 20
-160.5316526223562
 30
0.0
 10
119.7024049247728
 20
-160.4766172219794
 30
0.0
  0
SPLINE
  5
AB
330
1F
100
AcDbEntity
  8
_U+30EC_U+30A4_U+30E4_U+30FC 1
 62
   179
420
  2234388
370
     9
100
AcDbSpline
210
0.0
220
0.0
230
1.0
 70
    11
 71
     3
 72
    17
 73
    13
 74
     0
 42
0.0000000001
 43
0.0000000001
 12
1.0
 22
0.0
 32
0.0
 13
1.0
 23
0.0
 33
0.0
 40
0.0
 40
0.0
 40
0.0
 40
0.0
 40
1.0
 40
1.0
 40
1.0
 40
2.0
 40
2.0
 40
2.0
 40
3.0
 40
3.0
 40
3.0
 40
4.0
 40
4.0
 40
4.0
 40
4.0
 10
119.7024049247728
 20
-150.4766892798721
 30
0.0
 10
119.7024049247728
 20
-150.4216754113421
 30
0.0
 10
119.6575971516177
 20
-150.376867638187
 30
0.0
 10
119.6025671342026
 20
-150.376867638187
 30
0.0
 10
119.5475317338257
 20
-150.376867638187
 30
0.0
 10
119.5027293436324
 20
-150.4216754113421
 30
0.0
 10
119.5027293436324
 20
-150.4766892798721
 30
0.0
 10
119.5027293436324
 20
-150.531724680249
 30
0.0
 10
119.5475317338257
 20
-150.576532453404
 30
0.0
 10
119.6025671342026
 20
-150.576532453404
 30
0.0
 10
119.6575971516177
 20
-150.576532453404
 30
0.0
 10
119.7024049247728
 20
-150.531724680249
 30
0.0
 10
119.7024049247728
 20
-150.4766892798721
 30
0.0
  0
SPLINE
  5
AC
330
1F
100
AcDbEntity
  8
_U+30EC_U+30A4_U+30E4_U+30FC 1
 62
   179
420
  2234388
370
     9
100
AcDbSpline
210
0.0
220
0.0
230
1.0
 70
    11
 71
     3
 72
    17
 73
    13
 74
     0
 42
0.0000000001
 43
0.0000000001
 12
1.0
 22
0.0
 32
0.0
 13
1.0
 23
0.0
 33
0.0
 40
0.0
 40
0.0
 40
0.0
 40
0.0
 40
1.0
 40
1.0
 40
1.0
 40
2.0
 40
2.0
 40
2.0
 40
3.0
 40
3.0
 40
3.0
 40
4.0
 40
4.0
 40
4.0
 40
4.0
 10
90.70244702084923
 20
-135.7752395290445
 30
0.0
 10
90.70244702084923
 20
-135.7202256605144
 30
0.0
 10
90.65764193917505
 20
-135.6754178873594
 30
0.0
 10
90.60260923027936
 20
-135.6754178873594
 30
0.0
 10
90.54757652138302
 20
-135.6754178873594
 30
0.0
 10
90.50277413118968
 20
-135.7202256605144
 30
0.0
 10
90.50277413118968
 20
-135.7752395290445
 30
0.0
 10
90.50277413118968
 20
-135.8302749294213
 30
0.0
 10
90.54757652138302
 20
-135.8750827025764
 30
0.0
 10
90.60260923027936
 20
-135.8750827025764
 30
0.0
 10
90.65764193917505
 20
-135.8750827025764
 30
0.0
 10
90.70244702084923
 20
-135.8302749294213
 30
0.0
 10
90.70244702084923
 20
-135.7752395290445
 30
0.0
  0
SPLINE
  5
AD
330
1F
100
AcDbEntity
  8
_U+30EC_U+30A4_U+30E4_U+30FC 1
 62
   179
420
  2234388
370
     9
100
AcDbSpline
210
0.0
220
0.0
230
1.0
 70
    11
 71
     3
 72
    17
 73
    13
 74
     0
 42
0.0000000001
 43
0.0000000001
 12
1.0
 22
0.0
 32
0.0
 13
1.0
 23
0.0
 33
0.0
 40
0.0
 40
0.0
 40
0.0
 40
0.0
 40
1.0
 40
1.0
 40
1.0
 40
2.0
 40
2.0
 40
2.0
 40
3.0
 40
3.0
 40
3.0
 40
4.0
 40
4.0
 40
4.0
 40
4.0
 10
89.70249998181293
 20
-164.4766745262094
 30
0.0
 10
89.70249998181293
 20
-164.421294616284
 30
0.0
 10
89.65769490013875
 20
-164.376486843129
 30
0.0
 10
89.60266219124273
 20
-164.376486843129
 30
0.0
 10
89.54762948234671
 20
-164.376486843129
 30
0.0
 10
89.50282709215338
 20
-164.421294616284
 30
0.0
 10
89.50282709215338
 20
-164.4766745262094
 30
0.0
 10
89.50282709215338
 20
-164.5317099265863
 30
0.0
 10
89.54762948234671
 20
-164.5765176997413
 30
0.0
 10
89.60266219124273
 20
-164.5765176997413
 30
0.0
 10
89.65769490013875
 20
-164.5765176997413
 30
0.0
 10
89.70249998181293
 20
-164.5317099265863
 30
0.0
 10
89.70249998181293
 20
-164.4766745262094
 30
0.0
  0
POLYLINE
  5
AE
330
1F
100
AcDbEntity
  8
_U+30EC_U+30A4_U+30E4_U+30FC 1
 62
   179
420
  2234388
370
     9
100
AcDb2dPolyline
 66
     1
 10
0.0
 20
0.0
 30
0.0
  0
VERTEX
  5
AF
330
AE
100
AcDbEntity
  8
_U+30EC_U+30A4_U+30E4_U+30FC 1
 62
   179
420
  2234388
370
     9
100
AcDbVertex
100
AcDb2dVertex
 10
119.6024971557005
 20
-139.6756259145169
 30
0.0
  0
VERTEX
  5
B0
330
AE
100
AcDbEntity
  8
_U+30EC_U+30A4_U+30E4_U+30FC 1
 62
   179
420
  2234388
370
     9
100
AcDbVertex
100
AcDb2dVertex
 10
119.6024971557005
 20
-134.4178288441625
 30
0.0
  0
SEQEND
  5
B1
330
AE
100
AcDbEntity
  8
_U+30EC_U+30A4_U+30E4_U+30FC 1
 62
   179
420
  2234388
370
     9
  0
POLYLINE
  5
B2
330
1F
100
AcDbEntity
  8
_U+30EC_U+30A4_U+30E4_U+30FC 1
 62
   179
420
  2234388
370
     9
100
AcDb2dPolyline
 66
     1
 10
0.0
 20
0.0
 30
0.0
  0
VERTEX
  5
B3
330
B2
100
AcDbEntity
  8
_U+30EC_U+30A4_U+30E4_U+30FC 1
 62
   179
420
  2234388
370
     9
100
AcDbVertex
100
AcDb2dVertex
 10
119.6024971557005
 20
-139.6756259145169
 30
0.0
  0
VERTEX
  5
B4
330
B2
100
AcDbEntity
  8
_U+30EC_U+30A4_U+30E4_U+30FC 1
 62
   179
420
  2234388
370
     9
100
AcDbVertex
100
AcDb2dVertex
 10
119.6024971557005
 20
-140.4757278091193
 30
0.0
  0
SEQEND
  5
B5
330
B2
100
AcDbEntity
  8
_U+30EC_U+30A4_U+30E4_U+30FC 1
 62
   179
420
  2234388
370
     9
  0
POLYLINE
  5
B6
330
1F
100
AcDbEntity
  8
_U+30EC_U+30A4_U+30E4_U+30FC 1
 62
   179
420
  2234388
370
     9
100
AcDb2dPolyline
 66
     1
 10
0.0
 20
0.0
 30
0.0
  0
VERTEX
  5
B7
330
B6
100
AcDbEntity
  8
_U+30EC_U+30A4_U+30E4_U+30FC 1
 62
   179
420
  2234388
370
     9
100
AcDbVertex
100
AcDb2dVertex
 10
118.1424549231282
 20
-139.4756381215981
 30
0.0
  0
VERTEX
  5
B8
330
B6
100
AcDbEntity
  8
_U+30EC_U+30A4_U+30E4_U+30FC 1
 62
   179
420
  2234388
370
     9
100
AcDbVertex
100
AcDb2dVertex
 10
120.6027268002258
 20
-139.4756381215981
 30
0.0
  0
SEQEND
  5
B9
330
B6
100
AcDbEntity
  8
_U+30EC_U+30A4_U+30E4_U+30FC 1
 62
   179
420
  2234388
370
     9
  0
POLYLINE
  5
BA
330
1F
100
AcDbEntity
  8
_U+30EC_U+30A4_U+30E4_U+30FC 1
 62
   179
420
  2234388
370
     9
100
AcDb2dPolyline
 66
     1
 10
0.0
 20
0.0
 30
0.0
  0
VERTEX
  5
BB
330
BA
100
AcDbEntity
  8
_U+30EC_U+30A4_U+30E4_U+30FC 1
 62
   179
420
  2234388
370
     9
100
AcDbVertex
100
AcDb2dVertex
 10
118.1424549231282
 20
-140.4755986180386
 30
0.0
  0
VERTEX
  5
BC
330
BA
100
AcDbEntity
  8
_U+30EC_U+30A4_U+30E4_U+30FC 1
 62
   179
420
  2234388
370
     9
100
AcDbVertex
100
AcDb2dVertex
 10
120.6027268002258
 20
-140.4755986180386
 30
0.0
  0
SEQEND
  5
BD
330
BA
100
AcDbEntity
  8
_U+30EC_U+30A4_U+30E4_U+30FC 1
 62
   179
420
  2234388
370
     9
  0
POLYLINE
  5
BE
330
1F
100
AcDbEntity
  8
_U+30EC_U+30A4_U+30E4_U+30FC 1
 62
   179
420
  2234388
370
     9
100
AcDb2dPolyline
 66
     1
 10
0.0
 20
0.0
 30
0.0
  0
VERTEX
  5
BF
330
BE
100
AcDbEntity
  8
_U+30EC_U+30A4_U+30E4_U+30FC 1
 62
   179
420
  2234388
370
     9
100
AcDbVertex
100
AcDb2dVertex
 10
119.6024971557005
 20
-150.4766892798721
 30
0.0
  0
VERTEX
  5
C0
330
BE
100
AcDbEntity
  8
_U+30EC_U+30A4_U+30E4_U+30FC 1
 62
   179
420
  2234388
370
     9
100
AcDbVertex
100
AcDb2dVertex
 10
119.6024971557005
 20
-140.4768689969988
 30
0.0
  0
SEQEND
  5
C1
330
BE
100
AcDbEntity
  8
_U+30EC_U+30A4_U+30E4_U+30FC 1
 62
   179
420
  2234388
370
     9
  0
POLYLINE
  5
C2
330
1F
100
AcDbEntity
  8
_U+30EC_U+30A4_U+30E4_U+30FC 1
 62
   179
420
  2234388
370
     9
100
AcDb2dPolyline
 66
     1
 10
0.0
 20
0.0
 30
0.0
  0
VERTEX
  5
C3
330
C2
100
AcDbEntity
  8
_U+30EC_U+30A4_U+30E4_U+30FC 1
 62
   179
420
  2234388
370
     9
100
AcDbVertex
100
AcDb2dVertex
 10
102.1423952695016
 20
-150.4766892798721
 30
0.0
  0
VERTEX
  5
C4
330
C2
100
AcDbEntity
  8
_U+30EC_U+30A4_U+30E4_U+30FC 1
 62
   179
420
  2234388
370
     9
100
AcDbVertex
100
AcDb2dVertex
 10
120.6025491624899
 20
-150.4766892798721
 30
0.0
  0
SEQEND
  5
C5
330
C2
100
AcDbEntity
  8
_U+30EC_U+30A4_U+30E4_U+30FC 1
 62
   179
420
  2234388
370
     9
  0
POLYLINE
  5
C6
330
1F
100
AcDbEntity
  8
_U+30EC_U+30A4_U+30E4_U+30FC 1
 62
   179
420
  2234388
370
     9
100
AcDb2dPolyline
 66
     1
 10
0.0
 20
0.0
 30
0.0
  0
VERTEX
  5
C7
330
C6
100
AcDbEntity
  8
_U+30EC_U+30A4_U+30E4_U+30FC 1
 62
   179
420
  2234388
370
     9
100
AcDbVertex
100
AcDb2dVertex
 10
119.6024971557005
 20
-150.4766892798721
 30
0.0
  0
VERTEX
  5
C8
330
C6
100
AcDbEntity
  8
_U+30EC_U+30A4_U+30E4_U+30FC 1
 62
   179
420
  2234388
370
     9
100
AcDbVertex
100
AcDb2dVertex
 10
119.6024971557005
 20
-160.4765310945922
 30
0.0
  0
SEQEND
  5
C9
330
C6
100
AcDbEntity
  8
_U+30EC_U+30A4_U+30E4_U+30FC 1
 62
   179
420
  2234388
370
     9
  0
POLYLINE
  5
CA
330
1F
100
AcDbEntity
  8
_U+30EC_U+30A4_U+30E4_U+30FC 1
 62
   179
420
  2234388
370
     9
100
AcDb2dPolyline
 66
     1
 10
0.0
 20
0.0
 30
0.0
  0
VERTEX
  5
CB
330
CA
100
AcDbEntity
  8
_U+30EC_U+30A4_U+30E4_U+30FC 1
 62
   179
420
  2234388
370
     9
100
AcDbVertex
100
AcDb2dVertex
 10
102.1423952695016
 20
-160.4766172219794
 30
0.0
  0
VERTEX
  5
CC
330
CA
100
AcDbEntity
  8
_U+30EC_U+30A4_U+30E4_U+30FC 1
 62
   179
420
  2234388
370
     9
100
AcDbVertex
100
AcDb2dVertex
 10
120.6025491624899
 20
-160.4766172219794
 30
0.0
  0
SEQEND
  5
CD
330
CA
100
AcDbEntity
  8
_U+30EC_U+30A4_U+30E4_U+30FC 1
 62
   179
420
  2234388
370
     9
  0
POLYLINE
  5
CE
330
1F
100
AcDbEntity
  8
_U+30EC_U+30A4_U+30E4_U+30FC 1
 62
   179
420
  2234388
370
     9
100
AcDb2dPolyline
 66
     1
 10
0.0
 20
0.0
 30
0.0
  0
VERTEX
  5
CF
330
CE
100
AcDbEntity
  8
_U+30EC_U+30A4_U+30E4_U+30FC 1
 62
   179
420
  2234388
370
     9
100
AcDbVertex
100
AcDb2dVertex
 10
89.60259221274069
 20
-164.4766745262094
 30
0.0
  0
VERTEX
  5
D0
330
CE
100
AcDbEntity
  8
_U+30EC_U+30A4_U+30E4_U+30FC 1
 62
   179
420
  2234388
370
     9
100
AcDbVertex
100
AcDb2dVertex
 10
99.60243133597993
 20
-164.4766745262094
 30
0.0
  0
SEQEND
  5
D1
330
CE
100
AcDbEntity
  8
_U+30EC_U+30A4_U+30E4_U+30FC 1
 62
   179
420
  2234388
370
     9
  0
POLYLINE
  5
D2
330
1F
100
AcDbEntity
  8
_U+30EC_U+30A4_U+30E4_U+30FC 1
 62
   179
420
  2234388
370
     9
100
AcDb2dPolyline
 66
     1
 10
0.0
 20
0.0
 30
0.0
  0
VERTEX
  5
D3
330
D2
100
AcDbEntity
  8
_U+30EC_U+30A4_U+30E4_U+30FC 1
 62
   179
420
  2234388
370
     9
100
AcDbVertex
100
AcDb2dVertex
 10
89.60259221274069
 20
-163.0166861232541
 30
0.0
  0
VERTEX
  5
D4
330
D2
100
AcDbEntity
  8
_U+30EC_U+30A4_U+30E4_U+30FC 1
 62
   179
420
  2234388
370
     9
100
AcDbVertex
100
AcDb2dVertex
 10
89.60259221274069
 20
-165.4766134908032
 30
0.0
  0
SEQEND
  5
D5
330
D2
100
AcDbEntity
  8
_U+30EC_U+30A4_U+30E4_U+30FC 1
 62
   179
420
  2234388
370
     9
  0
POLYLINE
  5
D6
330
1F
100
AcDbEntity
  8
_U+30EC_U+30A4_U+30E4_U+30FC 1
 62
   179
420
  2234388
370
     9
100
AcDb2dPolyline
 66
     1
 10
0.0
 20
0.0
 30
0.0
  0
VERTEX
  5
D7
330
D6
100
AcDbEntity
  8
_U+30EC_U+30A4_U+30E4_U+30FC 1
 62
   179
420
  2234388
370
     9
100
AcDbVertex
100
AcDb2dVertex
 10
99.60232636822687
 20
-163.0166861232541
 30
0.0
  0
VERTEX
  5
D8
330
D6
100
AcDbEntity
  8
_U+30EC_U+30A4_U+30E4_U+30FC 1
 62
   179
420
  2234388
370
     9
100
AcDbVertex
100
AcDb2dVertex
 10
99.60232636822687
 20
-165.4766134908032
 30
0.0
  0
SEQEND
  5
D9
330
D6
100
AcDbEntity
  8
_U+30EC_U+30A4_U+30E4_U+30FC 1
 62
   179
420
  2234388
370
     9
  0
POLYLINE
  5
DA
330
1F
100
AcDbEntity
  8
_U+30EC_U+30A4_U+30E4_U+30FC 1
 62
   179
420
  2234388
370
     9
100
AcDb2dPolyline
 66
     1
 10
0.0
 20
0.0
 30
0.0
  0
VERTEX
  5
DB
330
DA
100
AcDbEntity
  8
_U+30EC_U+30A4_U+30E4_U+30FC 1
 62
   179
420
  2234388
370
     9
100
AcDbVertex
100
AcDb2dVertex
 10
90.60254194325785
 20
-135.7752395290445
 30
0.0
  0
VERTEX
  5
DC
330
DA
100
AcDbEntity
  8
_U+30EC_U+30A4_U+30E4_U+30FC 1
 62
   179
420
  2234388
370
     9
100
AcDbVertex
100
AcDb2dVertex
 10
115.4021129319649
 20
-135.7752395290445
 30
0.0
  0
SEQEND
  5
DD
330
DA
100
AcDbEntity
  8
_U+30EC_U+30A4_U+30E4_U+30FC 1
 62
   179
420
  2234388
370
     9
  0
POLYLINE
  5
DE
330
1F
100
AcDbEntity
  8
_U+30EC_U+30A4_U+30E4_U+30FC 1
 62
   179
420
  2234388
370
     9
100
AcDb2dPolyline
 66
     1
 10
0.0
 20
0.0
 30
0.0
  0
VERTEX
  5
DF
330
DE
100
AcDbEntity
  8
_U+30EC_U+30A4_U+30E4_U+30FC 1
 62
   179
420
  2234388
370
     9
100
AcDbVertex
100
AcDb2dVertex
 10
90.60254194325785
 20
-137.2352494638469
 30
0.0
  0
VERTEX
  5
E0
330
DE
100
AcDbEntity
  8
_U+30EC_U+30A4_U+30E4_U+30FC 1
 62
   179
420
  2234388
370
     9
100
AcDbVertex
100
AcDb2dVertex
 10
90.60254194325785
 20
-134.7753436281443
 30
0.0
  0
SEQEND
  5
E1
330
DE
100
AcDbEntity
  8
_U+30EC_U+30A4_U+30E4_U+30FC 1
 62
   179
420
  2234388
370
     9
  0
POLYLINE
  5
E2
330
1F
100
AcDbEntity
  8
_U+30EC_U+30A4_U+30E4_U+30FC 1
 62
   179
420
  2234388
370
     9
100
AcDb2dPolyline
 66
     1
 10
0.0
 20
0.0
 30
0.0
  0
VERTEX
  5
E3
330
E2
100
AcDbEntity
  8
_U+30EC_U+30A4_U+30E4_U+30FC 1
 62
   179
420
  2234388
370
     9
100
AcDbVertex
100
AcDb2dVertex
 10
115.4022205911988
 20
-137.2352494638469
 30
0.0
  0
VERTEX
  5
E4
330
E2
100
AcDbEntity
  8
_U+30EC_U+30A4_U+30E4_U+30FC 1
 62
   179
420
  2234388
370
     9
100
AcDbVertex
100
AcDb2dVertex
 10
115.4022205911988
 20
-134.7753436281443
 30
0.0
  0
SEQEND
  5
E5
330
E2
100
AcDbEntity
  8
_U+30EC_U+30A4_U+30E4_U+30FC 1
 62
   179
420
  2234388
370
     9
  0
POLYLINE
  5
E6
330
1F
100
AcDbEntity
  8
_U+30EC_U+30A4_U+30E4_U+30FC 1
 62
   179
420
  2234388
370
    25
100
AcDb2dPolyline
 66
     1
 10
0.0
 20
0.0
 30
0.0
  0
VERTEX
  5
E7
330
E6
100
AcDbEntity
  8
_U+30EC_U+30A4_U+30E4_U+30FC 1
 62
   179
420
  2234388
370
    25
100
AcDbVertex
100
AcDb2dVertex
 10
90.40255145885824
 20
-139.4825498444154
 30
0.0
  0
VERTEX
  5
E8
330
E6
100
AcDbEntity
  8
_U+30EC_U+30A4_U+30E4_U+30FC 1
 62
   179
420
  2234388
370
    25
100
AcDbVertex
100
AcDb2dVertex
 10
90.40255145885824
 20
-159.4765921299985
 30
0.0
  0
SEQEND
  5
E9
330
E6
100
AcDbEntity
  8
_U+30EC_U+30A4_U+30E4_U+30FC 1
 62
   179
420
  2234388
370
    25
  0
POLYLINE
  5
EA
330
1F
100
AcDbEntity
  8
_U+30EC_U+30A4_U+30E4_U+30FC 1
 62
   179
420
  2234388
370
    25
100
AcDb2dPolyline
 66
     1
 10
0.0
 20
0.0
 30
0.0
  0
VERTEX
  5
EB
330
EA
100
AcDbEntity
  8
_U+30EC_U+30A4_U+30E4_U+30FC 1
 62
   179
420
  2234388
370
    25
100
AcDbVertex
100
AcDb2dVertex
 10
99.43179145022614
 20
-150.4768830664932
 30
0.0
  0
VERTEX
  5
EC
330
EA
100
AcDbEntity
  8
_U+30EC_U+30A4_U+30E4_U+30FC 1
 62
   179
420
  2234388
370
    25
100
AcDbVertex
100
AcDb2dVertex
 10
99.43179145022614
 20
-160.4767248812133
 30
0.0
  0
SEQEND
  5
ED
330
EA
100
AcDbEntity
  8
_U+30EC_U+30A4_U+30E4_U+30FC 1
 62
   179
420
  2234388
370
    25
  0
ENDSEC
  0
SECTION
  2
OBJECTS
  0
DICTIONARY
  5
C
330
0
100
AcDbDictionary
281
     1
  3
ACAD_GROUP
350
D
  3
ACAD_LAYOUT
350
1A
  3
ACAD_MATERIAL
350
3B
  3
ACAD_MLEADERSTYLE
350
EF
  3
ACAD_MLINESTYLE
350
17
  3
ACAD_PLOTSETTINGS
350
19
  3
ACAD_PLOTSTYLENAME
350
E
  3
ACAD_TABLESTYLE
350
EE
  3
ACAD_VISUALSTYLE
350
2A
  0
SUN
  5
3F
330
29
100
AcDbSun
 90
        1
290
     0
 63
     7
421
 16777215
 40
1.0
291
     1
 91
  2455826
 92
 54000000
292
     0
 70
     2
 71
   256
280
     1
  0
DICTIONARY
  5
D
102
{ACAD_REACTORS
330
C
102
}
330
C
100
AcDbDictionary
281
     1
  0
DICTIONARY
  5
1A
102
{ACAD_REACTORS
330
C
102
}
330
C
100
AcDbDictionary
281
     1
  3
Layout1
350
1E
  3
Layout2
350
26
  3
Model
350
22
  0
DICTIONARY
  5
3B
102
{ACAD_REACTORS
330
C
102
}
330
C
100
AcDbDictionary
281
     1
  3
ByBlock
350
3D
  3
ByLayer
350
3C
  3
Global
350
3E
  0
DICTIONARY
  5
EF
102
{ACAD_REACTORS
330
C
102
}
330
C
100
AcDbDictionary
281
     1
  0
DICTIONARY
  5
17
102
{ACAD_REACTORS
330
C
102
}
330
C
100
AcDbDictionary
281
     1
  3
Standard
350
18
  0
DICTIONARY
  5
19
102
{ACAD_REACTORS
330
C
102
}
330
C
100
AcDbDictionary
281
     1
  0
ACDBDICTIONARYWDFLT
  5
E
102
{ACAD_REACTORS
330
C
102
}
330
C
100
AcDbDictionary
281
     1
  3
Normal
350
F
100
AcDbDictionaryWithDefault
340
F
  0
DICTIONARY
  5
EE
102
{ACAD_REACTORS
330
C
102
}
330
C
100
AcDbDictionary
281
     1
  0
DICTIONARY
  5
2A
102
{ACAD_REACTORS
330
C
102
}
330
C
100
AcDbDictionary
281
     1
  3
2dWireframe
350
2F
  3
3D Hidden
350
31
  3
3dWireframe
350
30
  3
Basic
350
32
  3
Brighten
350
36
  3
ColorChange
350
3A
  3
Conceptual
350
34
  3
Dim
350
35
  3
Facepattern
350
39
  3
Flat
350
2B
  3
FlatWithEdges
350
2C
  3
Gouraud
350
2D
  3
GouraudWithEdges
350
2E
  3
Linepattern
350
38
  3
Realistic
350
33
  3
Thicken
350
37
  0
LAYOUT
  5
1E
102
{ACAD_REACTORS
330
1A
102
}
330
1A
100
AcDbPlotSettings
  1

  2
none_device
  4

  6

 40
0.0
 41
0.0
 42
0.0
 43
0.0
 44
0.0
 45
0.0
 46
0.0
 47
0.0
 48
0.0
 49
0.0
140
0.0
141
0.0
142
1.0
143
1.0
 70
   688
 72
     0
 73
     0
 74
     5
  7

 75
    16
 76
     0
 77
     2
 78
   300
147
1.0
148
0.0
149
0.0
100
AcDbLayout
  1
Layout1
 70
     1
 71
     1
 10
0.0
 20
0.0
 11
12.0
 21
9.0
 12
0.0
 22
0.0
 32
0.0
 14
1.000000000000000E+20
 24
1.000000000000000E+20
 34
1.000000000000000E+20
 15
-1.000000000000000E+20
 25
-1.000000000000000E+20
 35
-1.000000000000000E+20
146
0.0
 13
0.0
 23
0.0
 33
0.0
 16
1.0
 26
0.0
 36
0.0
 17
0.0
 27
1.0
 37
0.0
 76
     0
330
1B
  0
LAYOUT
  5
26
102
{ACAD_REACTORS
330
1A
102
}
330
1A
100
AcDbPlotSettings
  1

  2
none_device
  4

  6

 40
0.0
 41
0.0
 42
0.0
 43
0.0
 44
0.0
 45
0.0
 46
0.0
 47
0.0
 48
0.0
 49
0.0
140
0.0
141
0.0
142
1.0
143
1.0
 70
   688
 72
     0
 73
     0
 74
     5
  7

 75
    16
 76
     0
 77
     2
 78
   300
147
1.0
148
0.0
149
0.0
100
AcDbLayout
  1
Layout2
 70
     1
 71
     2
 10
0.0
 20
0.0
 11
0.0
 21
0.0
 12
0.0
 22
0.0
 32
0.0
 14
0.0
 24
0.0
 34
0.0
 15
0.0
 25
0.0
 35
0.0
146
0.0
 13
0.0
 23
0.0
 33
0.0
 16
1.0
 26
0.0
 36
0.0
 17
0.0
 27
1.0
 37
0.0
 76
     0
330
23
  0
LAYOUT
  5
22
102
{ACAD_REACTORS
330
1A
102
}
330
1A
100
AcDbPlotSettings
  1

  2
none_device
  4

  6

 40
0.0
 41
0.0
 42
0.0
 43
0.0
 44
0.0
 45
0.0
 46
0.0
 47
0.0
 48
0.0
 49
0.0
140
0.0
141
0.0
142
1.0
143
1.0
 70
  1712
 72
     0
 73
     0
 74
     0
  7

 75
     0
 76
     0
 77
     2
 78
   300
147
1.0
148
0.0
149
0.0
100
AcDbLayout
  1
Model
 70
     1
 71
     0
 10
0.0
 20
0.0
 11
12.0
 21
9.0
 12
0.0
 22
0.0
 32
0.0
 14
1.000000000000000E+20
 24
1.000000000000000E+20
 34
1.000000000000000E+20
 15
-1.000000000000000E+20
 25
-1.000000000000000E+20
 35
-1.000000000000000E+20
146
0.0
 13
0.0
 23
0.0
 33
0.0
 16
1.0
 26
0.0
 36
0.0
 17
0.0
 27
1.0
 37
0.0
 76
     0
330
1F
331
29
  0
MATERIAL
  5
3D
102
{ACAD_REACTORS
330
3B
102
}
330
3B
100
AcDbMaterial
  1
ByBlock
 72
     1
 94
      127
  0
MATERIAL
  5
3C
102
{ACAD_REACTORS
330
3B
102
}
330
3B
100
AcDbMaterial
  1
ByLayer
 72
     1
 94
      127
  0
MATERIAL
  5
3E
102
{ACAD_REACTORS
330
3B
102
}
330
3B
100
AcDbMaterial
  1
Global
 72
     1
 94
      127
  0
MLINESTYLE
  5
18
102
{ACAD_REACTORS
330
17
102
}
330
17
100
AcDbMlineStyle
  2
Standard
 70
     0
  3

 62
   256
 51
90.0
 52
90.0
 71
     2
 49
0.5
 62
   256
  6
BYLAYER
 49
-0.5
 62
   256
  6
BYLAYER
  0
ACDBPLACEHOLDER
  5
F
102
{ACAD_REACTORS
330
E
102
}
330
E
  0
VISUALSTYLE
  5
2F
102
{ACAD_REACTORS
330
2A
102
}
330
2A
100
AcDbVisualStyle
  2
2dWireframe
 70
     4
177
     2
291
     0
 71
     0
176
     1
 72
     2
176
     1
 73
     0
176
     1
 90
        0
176
     1
 40
-0.6
176
     1
 41
-30.0
176
     1
 62
     5
 63
     7
421
 16777215
176
     1
 74
     1
176
     1
 91
        4
176
     1
 64
     7
176
     1
 65
   257
176
     1
 75
     1
176
     1
175
     1
176
     1
 42
1.0
176
     1
 92
        0
176
     1
 66
   257
176
     1
 43
1.0
176
     1
 76
     1
176
     1
 77
     6
176
     1
 78
     2
176
     1
 67
     7
176
     1
 79
     5
176
     1
170
     0
176
     1
171
     0
176
     1
290
     0
176
     1
 93
        1
176
     1
 44
0.0
176
     1
173
     0
176
     1
  0
VISUALSTYLE
  5
31
102
{ACAD_REACTORS
330
2A
102
}
330
2A
100
AcDbVisualStyle
  2
3D Hidden
 70
     6
177
     2
291
     0
 71
     1
176
     1
 72
     2
176
     1
 73
     2
176
     1
 90
        0
176
     1
 40
-0.6
176
     1
 41
-30.0
176
     1
 62
     5
 63
     7
421
 16777215
176
     1
 74
     2
176
     1
 91
        2
176
     1
 64
     7
176
     1
 65
   257
176
     1
 75
     2
176
     1
175
     1
176
     1
 42
40.0
176
     1
 92
        0
176
     1
 66
   257
176
     1
 43
1.0
176
     1
 76
     1
176
     1
 77
     6
176
     1
 78
     2
176
     1
 67
     7
176
     1
 79
     3
176
     1
170
     0
176
     1
171
     0
176
     1
290
     0
176
     1
 93
        1
176
     1
 44
0.0
176
     1
173
     0
176
     1
  0
VISUALSTYLE
  5
30
102
{ACAD_REACTORS
330
2A
102
}
330
2A
100
AcDbVisualStyle
  2
3dWireframe
 70
     5
177
     2
291
     0
 71
     0
176
     1
 72
     2
176
     1
 73
     0
176
     1
 90
        0
176
     1
 40
-0.6
176
     1
 41
-30.0
176
     1
 62
     5
 63
     7
421
 16777215
176
     1
 74
     1
176
     1
 91
        4
176
     1
 64
     7
176
     1
 65
   257
176
     1
 75
     1
176
     1
175
     1
176
     1
 42
1.0
176
     1
 92
        0
176
     1
 66
   257
176
     1
 43
1.0
176
     1
 76
     1
176
     1
 77
     6
176
     1
 78
     2
176
     1
 67
     7
176
     1
 79
     5
176
     1
170
     0
176
     1
171
     0
176
     1
290
     0
176
     1
 93
        1
176
     1
 44
0.0
176
     1
173
     0
176
     1
  0
VISUALSTYLE
  5
32
102
{ACAD_REACTORS
330
2A
102
}
330
2A
100
AcDbVisualStyle
  2
Basic
 70
     7
177
     2
291
     1
 71
     1
176
     1
 72
     0
176
     1
 73
     1
176
     1
 90
        0
176
     1
 40
-0.6
176
     1
 41
-30.0
176
     1
 62
     5
 63
     7
421
 16777215
176
     1
 74
     0
176
     1
 91
        4
176
     1
 64
     7
176
     1
 65
   257
176
     1
 75
     1
176
     1
175
     1
176
     1
 42
1.0
176
     1
 92
        8
176
     1
 66
     7
176
     1
 43
1.0
176
     1
 76
     1
176
     1
 77
     6
176
     1
 78
     2
176
     1
 67
     7
176
     1
 79
     5
176
     1
170
     0
176
     1
171
     0
176
     1
290
     0
176
     1
 93
        1
176
     1
 44
0.0
176
     1
173
     0
176
     1
  0
VISUALSTYLE
  5
36
102
{ACAD_REACTORS
330
2A
102
}
330
2A
100
AcDbVisualStyle
  2
Brighten
 70
    12
177
     2
291
     1
 71
     2
176
     1
 72
     2
176
     1
 73
     0
176
     1
 90
        0
176
     1
 40
-0.6
176
     1
 41
-30.0
176
     1
 62
     5
 63
     7
421
 16777215
176
     1
 74
     1
176
     1
 91
        4
176
     1
 64
     7
176
     1
 65
   257
176
     1
 75
     1
176
     1
175
     1
176
     1
 42
1.0
176
     1
 92
        8
176
     1
 66
     7
176
     1
 43
1.0
176
     1
 76
     1
176
     1
 77
     6
176
     1
 78
     2
176
     1
 67
     7
176
     1
 79
     5
176
     1
170
     0
176
     1
171
     0
176
     1
290
     0
176
     1
 93
        1
176
     1
 44
50.0
176
     1
173
     0
176
     1
  0
VISUALSTYLE
  5
3A
102
{ACAD_REACTORS
330
2A
102
}
330
2A
100
AcDbVisualStyle
  2
ColorChange
 70
    16
177
     2
291
     1
 71
     2
176
     1
 72
     2
176
     1
 73
     3
176
     1
 90
        0
176
     1
 40
-0.6
176
     1
 41
-30.0
176
     1
 62
     5
 63
     8
421
  8421504
176
     1
 74
     1
176
     1
 91
        4
176
     1
 64
     7
176
     1
 65
   257
176
     1
 75
     1
176
     1
175
     1
176
     1
 42
1.0
176
     1
 92
        8
176
     1
 66
     8
424
  8421504
176
     1
 43
1.0
176
     1
 76
     1
176
     1
 77
     6
176
     1
 78
     2
176
     1
 67
     7
176
     1
 79
     5
176
     1
170
     0
176
     1
171
     0
176
     1
290
     0
176
     1
 93
        1
176
     1
 44
0.0
176
     1
173
     0
176
     1
  0
VISUALSTYLE
  5
34
102
{ACAD_REACTORS
330
2A
102
}
330
2A
100
AcDbVisualStyle
  2
Conceptual
 70
     9
177
     2
291
     0
 71
     3
176
     1
 72
     2
176
     1
 73
     0
176
     1
 90
        0
176
     1
 40
-0.6
176
     1
 41
-30.0
176
     1
 62
     5
 63
     7
421
 16777215
176
     1
 74
     2
176
     1
 91
        2
176
     1
 64
     7
176
     1
 65
   257
176
     1
 75
     1
176
     1
175
     1
176
     1
 42
40.0
176
     1
 92
        8
176
     1
 66
     7
176
     1
 43
1.0
176
     1
 76
     1
176
     1
 77
     6
176
     1
 78
     2
176
     1
 67
     7
176
     1
 79
     3
176
     1
170
     0
176
     1
171
     0
176
     1
290
     0
176
     1
 93
        1
176
     1
 44
0.0
176
     1
173
     0
176
     1
  0
VISUALSTYLE
  5
35
102
{ACAD_REACTORS
330
2A
102
}
330
2A
100
AcDbVisualStyle
  2
Dim
 70
    11
177
     2
291
     1
 71
     2
176
     1
 72
     2
176
     1
 73
     0
176
     1
 90
        0
176
     1
 40
-0.6
176
     1
 41
-30.0
176
     1
 62
     5
 63
     7
421
 16777215
176
     1
 74
     1
176
     1
 91
        4
176
     1
 64
     7
176
     1
 65
   257
176
     1
 75
     1
176
     1
175
     1
176
     1
 42
1.0
176
     1
 92
        8
176
     1
 66
     7
176
     1
 43
1.0
176
     1
 76
     1
176
     1
 77
     6
176
     1
 78
     2
176
     1
 67
     7
176
     1
 79
     5
176
     1
170
     0
176
     1
171
     0
176
     1
290
     0
176
     1
 93
        1
176
     1
 44
-50.0
176
     1
173
     0
176
     1
  0
VISUALSTYLE
  5
39
102
{ACAD_REACTORS
330
2A
102
}
330
2A
100
AcDbVisualStyle
  2
Facepattern
 70
    15
177
     2
291
     1
 71
     2
176
     1
 72
     2
176
     1
 73
     0
176
     1
 90
        0
176
     1
 40
-0.6
176
     1
 41
-30.0
176
     1
 62
     5
 63
     7
421
 16777215
176
     1
 74
     1
176
     1
 91
        4
176
     1
 64
     7
176
     1
 65
   257
176
     1
 75
     1
176
     1
175
     1
176
     1
 42
1.0
176
     1
 92
        8
176
     1
 66
     7
176
     1
 43
1.0
176
     1
 76
     1
176
     1
 77
     6
176
     1
 78
     2
176
     1
 67
     7
176
     1
 79
     5
176
     1
170
     0
176
     1
171
     0
176
     1
290
     0
176
     1
 93
        1
176
     1
 44
0.0
176
     1
173
     0
176
     1
  0
VISUALSTYLE
  5
2B
102
{ACAD_REACTORS
330
2A
102
}
330
2A
100
AcDbVisualStyle
  2
Flat
 70
     0
177
     2
291
     1
 71
     2
176
     1
 72
     1
176
     1
 73
     1
176
     1
 90
        2
176
     1
 40
-0.6
176
     1
 41
30.0
176
     1
 62
     5
 63
     7
421
 16777215
176
     1
 74
     0
176
     1
 91
        4
176
     1
 64
     7
176
     1
 65
   257
176
     1
 75
     1
176
     1
175
     1
176
     1
 42
1.0
176
     1
 92
        8
176
     1
 66
     7
176
     1
 43
1.0
176
     1
 76
     1
176
     1
 77
     6
176
     1
 78
     2
176
     1
 67
     7
176
     1
 79
     5
176
     1
170
     0
176
     1
171
     0
176
     1
290
     0
176
     1
 93
       13
176
     1
 44
0.0
176
     1
173
     0
176
     1
  0
VISUALSTYLE
  5
2C
102
{ACAD_REACTORS
330
2A
102
}
330
2A
100
AcDbVisualStyle
  2
FlatWithEdges
 70
     1
177
     2
291
     1
 71
     2
176
     1
 72
     1
176
     1
 73
     1
176
     1
 90
        2
176
     1
 40
-0.6
176
     1
 41
30.0
176
     1
 62
     5
 63
     7
421
 16777215
176
     1
 74
     1
176
     1
 91
        4
176
     1
 64
     7
176
     1
 65
   257
176
     1
 75
     1
176
     1
175
     1
176
     1
 42
1.0
176
     1
 92
        0
176
     1
 66
   257
176
     1
 43
1.0
176
     1
 76
     1
176
     1
 77
     6
176
     1
 78
     2
176
     1
 67
     7
176
     1
 79
     5
176
     1
170
     0
176
     1
171
     0
176
     1
290
     0
176
     1
 93
       13
176
     1
 44
0.0
176
     1
173
     0
176
     1
  0
VISUALSTYLE
  5
2D
102
{ACAD_REACTORS
330
2A
102
}
330
2A
100
AcDbVisualStyle
  2
Gouraud
 70
     2
177
     2
291
     1
 71
     2
176
     1
 72
     2
176
     1
 73
     1
176
     1
 90
        2
176
     1
 40
-0.6
176
     1
 41
30.0
176
     1
 62
     5
 63
     7
421
 16777215
176
     1
 74
     0
176
     1
 91
        4
176
     1
 64
     7
176
     1
 65
   257
176
     1
 75
     1
176
     1
175
     1
176
     1
 42
1.0
176
     1
 92
        0
176
     1
 66
     7
176
     1
 43
1.0
176
     1
 76
     1
176
     1
 77
     6
176
     1
 78
     2
176
     1
 67
     7
176
     1
 79
     5
176
     1
170
     0
176
     1
171
     0
176
     1
290
     0
176
     1
 93
       13
176
     1
 44
0.0
176
     1
173
     0
176
     1
  0
VISUALSTYLE
  5
2E
102
{ACAD_REACTORS
330
2A
102
}
330
2A
100
AcDbVisualStyle
  2
GouraudWithEdges
 70
     3
177
     2
291
     1
 71
     2
176
     1
 72
     2
176
     1
 73
     1
176
     1
 90
        2
176
     1
 40
-0.6
176
     1
 41
30.0
176
     1
 62
     5
 63
     7
421
 16777215
176
     1
 74
     1
176
     1
 91
        4
176
     1
 64
     7
176
     1
 65
   257
176
     1
 75
     1
176
     1
175
     1
176
     1
 42
1.0
176
     1
 92
        0
176
     1
 66
   257
176
     1
 43
1.0
176
     1
 76
     1
176
     1
 77
     6
176
     1
 78
     2
176
     1
 67
     7
176
     1
 79
     5
176
     1
170
     0
176
     1
171
     0
176
     1
290
     0
176
     1
 93
       13
176
     1
 44
0.0
176
     1
173
     0
176
     1
  0
VISUALSTYLE
  5
38
102
{ACAD_REACTORS
330
2A
102
}
330
2A
100
AcDbVisualStyle
  2
Linepattern
 70
    14
177
     2
291
     1
 71
     2
176
     1
 72
     2
176
     1
 73
     0
176
     1
 90
        0
176
     1
 40
-0.6
176
     1
 41
-30.0
176
     1
 62
     5
 63
     7
421
 16777215
176
     1
 74
     1
176
     1
 91
        4
176
     1
 64
     7
176
     1
 65
   257
176
     1
 75
     7
176
     1
175
     7
176
     1
 42
1.0
176
     1
 92
        8
176
     1
 66
     7
176
     1
 43
1.0
176
     1
 76
     1
176
     1
 77
     6
176
     1
 78
     2
176
     1
 67
     7
176
     1
 79
     5
176
     1
170
     0
176
     1
171
     0
176
     1
290
     0
176
     1
 93
        1
176
     1
 44
0.0
176
     1
173
     0
176
     1
  0
VISUALSTYLE
  5
33
102
{ACAD_REACTORS
330
2A
102
}
330
2A
100
AcDbVisualStyle
  2
Realistic
 70
     8
177
     2
291
     0
 71
     2
176
     1
 72
     2
176
     1
 73
     0
176
     1
 90
        0
176
     1
 40
-0.6
176
     1
 41
-30.0
176
     1
 62
     5
 63
     7
421
 16777215
176
     1
 74
     1
176
     1
 91
        0
176
     1
 64
     7
176
     1
 65
   257
176
     1
 75
     1
176
     1
175
     1
176
     1
 42
1.0
176
     1
 92
        8
176
     1
 66
     8
424
  7895160
176
     1
 43
1.0
176
     1
 76
     1
176
     1
 77
     6
176
     1
 78
     2
176
     1
 67
     7
176
     1
 79
     5
176
     1
170
     0
176
     1
171
     0
176
     1
290
     0
176
     1
 93
       13
176
     1
 44
0.0
176
     1
173
     0
176
     1
  0
VISUALSTYLE
  5
37
102
{ACAD_REACTORS
330
2A
102
}
330
2A
100
AcDbVisualStyle
  2
Thicken
 70
    13
177
     2
291
     1
 71
     2
176
     1
 72
     2
176
     1
 73
     0
176
     1
 90
        0
176
     1
 40
-0.6
176
     1
 41
-30.0
176
     1
 62
     5
 63
     7
421
 16777215
176
     1
 74
     1
176
     1
 91
        4
176
     1
 64
     7
176
     1
 65
   257
176
     1
 75
     1
176
     1
175
     1
176
     1
 42
1.0
176
     1
 92
       12
176
     1
 66
     7
176
     1
 43
1.0
176
     1
 76
     1
176
     1
 77
     6
176
     1
 78
     2
176
     1
 67
     7
176
     1
 79
     5
176
     1
170
     0
176
     1
171
     0
176
     1
290
     0
176
     1
 93
        1
176
     1
 44
0.0
176
     1
173
     0
176
     1
  0
ENDSEC
  0
EOF
