  0
SECTION
  2
HEADER
  9
$ACADVER
  1
AC1024
  9
$ACADMAINTVER
 70
     6
  9
$DWGCODEPAGE
  3
UNDEFINED
  9
$INSBASE
 10
0.0
 20
0.0
 30
0.0
  9
$EXTMIN
 10
1.000000000000000E+20
 20
1.000000000000000E+20
 30
1.000000000000000E+20
  9
$EXTMAX
 10
-1.000000000000000E+20
 20
-1.000000000000000E+20
 30
-1.000000000000000E+20
  9
$LIMMIN
 10
0.0
 20
0.0
  9
$LIMMAX
 10
12.0
 20
9.0
  9
$ORTHOMODE
 70
     0
  9
$REGENMODE
 70
     1
  9
$FILLMODE
 70
     1
  9
$QTEXTMODE
 70
     0
  9
$MIRRTEXT
 70
     1
  9
$LTSCALE
 40
1.0
  9
$ATTMODE
 70
     1
  9
$TEXTSIZE
 40
0.2
  9
$TRACEWID
 40
0.05
  9
$TEXTSTYLE
  7
Standard
  9
$CLAYER
  8
0
  9
$CELTYPE
  6
ByLayer
  9
$CECOLOR
 62
   256
  9
$CELTSCALE
 40
1.0
  9
$DISPSILH
 70
     0
  9
$DIMSCALE
 40
1.0
  9
$DIMASZ
 40
0.18
  9
$DIMEXO
 40
0.0625
  9
$DIMDLI
 40
0.38
  9
$DIMRND
 40
0.0
  9
$DIMDLE
 40
0.0
  9
$DIMEXE
 40
0.18
  9
$DIMTP
 40
0.0
  9
$DIMTM
 40
0.0
  9
$DIMTXT
 40
0.18
  9
$DIMCEN
 40
0.09
  9
$DIMTSZ
 40
0.0
  9
$DIMTOL
 70
     0
  9
$DIMLIM
 70
     0
  9
$DIMTIH
 70
     1
  9
$DIMTOH
 70
     1
  9
$DIMSE1
 70
     0
  9
$DIMSE2
 70
     0
  9
$DIMTAD
 70
     0
  9
$DIMZIN
 70
     0
  9
$DIMBLK
  1

  9
$DIMASO
 70
     1
  9
$DIMSHO
 70
     1
  9
$DIMPOST
  1

  9
$DIMAPOST
  1

  9
$DIMALT
 70
     0
  9
$DIMALTD
 70
     2
  9
$DIMALTF
 40
25.4
  9
$DIMLFAC
 40
1.0
  9
$DIMTOFL
 70
     0
  9
$DIMTVP
 40
0.0
  9
$DIMTIX
 70
     0
  9
$DIMSOXD
 70
     0
  9
$DIMSAH
 70
     0
  9
$DIMBLK1
  1

  9
$DIMBLK2
  1

  9
$DIMSTYLE
  2
Standard
  9
$DIMCLRD
 70
     0
  9
$DIMCLRE
 70
     0
  9
$DIMCLRT
 70
     0
  9
$DIMTFAC
 40
1.0
  9
$DIMGAP
 40
0.09
  9
$DIMJUST
 70
     0
  9
$DIMSD1
 70
     0
  9
$DIMSD2
 70
     0
  9
$DIMTOLJ
 70
     1
  9
$DIMTZIN
 70
     0
  9
$DIMALTZ
 70
     0
  9
$DIMALTTZ
 70
     0
  9
$DIMUPT
 70
     0
  9
$DIMDEC
 70
     4
  9
$DIMTDEC
 70
     4
  9
$DIMALTU
 70
     2
  9
$DIMALTTD
 70
     2
  9
$DIMTXSTY
  7
Standard
  9
$DIMAUNIT
 70
     0
  9
$DIMADEC
 70
     0
  9
$DIMALTRND
 40
0.0
  9
$DIMAZIN
 70
     0
  9
$DIMDSEP
 70
    46
  9
$DIMATFIT
 70
     3
  9
$DIMFRAC
 70
     0
  9
$DIMLDRBLK
  1

  9
$DIMLUNIT
 70
     2
  9
$DIMLWD
 70
    -2
  9
$DIMLWE
 70
    -2
  9
$DIMTMOVE
 70
     0
  9
$DIMFXL
 40
1.0
  9
$DIMFXLON
 70
     0
  9
$DIMJOGANG
 40
0.7853981633974483
  9
$DIMTFILL
 70
     0
  9
$DIMTFILLCLR
 70
     0
  9
$DIMARCSYM
 70
     0
  9
$DIMLTYPE
  6

  9
$DIMLTEX1
  6

  9
$DIMLTEX2
  6

  9
$DIMTXTDIRECTION
 70
     0
  9
$LUNITS
 70
     2
  9
$LUPREC
 70
     4
  9
$SKETCHINC
 40
0.1
  9
$FILLETRAD
 40
0.5
  9
$AUNITS
 70
     0
  9
$AUPREC
 70
     0
  9
$MENU
  1
.
  9
$ELEVATION
 40
0.0
  9
$PELEVATION
 40
0.0
  9
$THICKNESS
 40
0.0
  9
$LIMCHECK
 70
     0
  9
$CHAMFERA
 40
0.5
  9
$CHAMFERB
 40
0.5
  9
$CHAMFERC
 40
1.0
  9
$CHAMFERD
 40
0.0
  9
$SKPOLY
 70
     0
  9
$TDCREATE
 40
2458263.577013877
  9
$TDUCREATE
 40
2458263.202013889
  9
$TDUPDATE
 40
2458263.577013877
  9
$TDUUPDATE
 40
2458263.202013889
  9
$TDINDWG
 40
0.0000000116
  9
$TDUSRTIMER
 40
0.0000000116
  9
$USRTIMER
 70
     1
  9
$ANGBASE
 50
0.0
  9
$ANGDIR
 70
     0
  9
$PDMODE
 70
     0
  9
$PDSIZE
 40
0.0
  9
$PLINEWID
 40
0.0
  9
$SPLFRAME
 70
     0
  9
$SPLINETYPE
 70
     6
  9
$SPLINESEGS
 70
     8
  9
$HANDSEED
  5
BF
  9
$SURFTAB1
 70
     6
  9
$SURFTAB2
 70
     6
  9
$SURFTYPE
 70
     6
  9
$SURFU
 70
     6
  9
$SURFV
 70
     6
  9
$UCSBASE
  2

  9
$UCSNAME
  2

  9
$UCSORG
 10
0.0
 20
0.0
 30
0.0
  9
$UCSXDIR
 10
1.0
 20
0.0
 30
0.0
  9
$UCSYDIR
 10
0.0
 20
1.0
 30
0.0
  9
$UCSORTHOREF
  2

  9
$UCSORTHOVIEW
 70
     0
  9
$UCSORGTOP
 10
0.0
 20
0.0
 30
0.0
  9
$UCSORGBOTTOM
 10
0.0
 20
0.0
 30
0.0
  9
$UCSORGLEFT
 10
0.0
 20
0.0
 30
0.0
  9
$UCSORGRIGHT
 10
0.0
 20
0.0
 30
0.0
  9
$UCSORGFRONT
 10
0.0
 20
0.0
 30
0.0
  9
$UCSORGBACK
 10
0.0
 20
0.0
 30
0.0
  9
$PUCSBASE
  2

  9
$PUCSNAME
  2

  9
$PUCSORG
 10
0.0
 20
0.0
 30
0.0
  9
$PUCSXDIR
 10
1.0
 20
0.0
 30
0.0
  9
$PUCSYDIR
 10
0.0
 20
1.0
 30
0.0
  9
$PUCSORTHOREF
  2

  9
$PUCSORTHOVIEW
 70
     0
  9
$PUCSORGTOP
 10
0.0
 20
0.0
 30
0.0
  9
$PUCSORGBOTTOM
 10
0.0
 20
0.0
 30
0.0
  9
$PUCSORGLEFT
 10
0.0
 20
0.0
 30
0.0
  9
$PUCSORGRIGHT
 10
0.0
 20
0.0
 30
0.0
  9
$PUCSORGFRONT
 10
0.0
 20
0.0
 30
0.0
  9
$PUCSORGBACK
 10
0.0
 20
0.0
 30
0.0
  9
$USERI1
 70
     0
  9
$USERI2
 70
     0
  9
$USERI3
 70
     0
  9
$USERI4
 70
     0
  9
$USERI5
 70
     0
  9
$USERR1
 40
0.0
  9
$USERR2
 40
0.0
  9
$USERR3
 40
0.0
  9
$USERR4
 40
0.0
  9
$USERR5
 40
0.0
  9
$WORLDVIEW
 70
     1
  9
$SHADEDGE
 70
     3
  9
$SHADEDIF
 70
    70
  9
$TILEMODE
 70
     1
  9
$MAXACTVP
 70
    64
  9
$PINSBASE
 10
0.0
 20
0.0
 30
0.0
  9
$PLIMCHECK
 70
     0
  9
$PEXTMIN
 10
1.000000000000000E+20
 20
1.000000000000000E+20
 30
1.000000000000000E+20
  9
$PEXTMAX
 10
-1.000000000000000E+20
 20
-1.000000000000000E+20
 30
-1.000000000000000E+20
  9
$PLIMMIN
 10
0.0
 20
0.0
  9
$PLIMMAX
 10
12.0
 20
9.0
  9
$UNITMODE
 70
     0
  9
$VISRETAIN
 70
     1
  9
$PLINEGEN
 70
     0
  9
$PSLTSCALE
 70
     1
  9
$TREEDEPTH
 70
  3020
  9
$CMLSTYLE
  2
Standard
  9
$CMLJUST
 70
     0
  9
$CMLSCALE
 40
1.0
  9
$PROXYGRAPHICS
 70
     1
  9
$MEASUREMENT
 70
     0
  9
$CELWEIGHT
370
    -1
  9
$ENDCAPS
280
     0
  9
$JOINSTYLE
280
     0
  9
$LWDISPLAY
290
     1
  9
$INSUNITS
 70
     1
  9
$HYPERLINKBASE
  1

  9
$STYLESHEET
  1

  9
$XEDIT
290
     1
  9
$CEPSNTYPE
380
     0
  9
$PSTYLEMODE
290
     1
  9
$FINGERPRINTGUID
  2
{1A93B593-62B2-CB16-C338-90F821590F5A}
  9
$VERSIONGUID
  2
{FAEB1C32-E019-11D5-929B-00C0DF256EC4}
  9
$EXTNAMES
290
     1
  9
$PSVPSCALE
 40
0.0
  9
$OLESTARTUP
290
     0
  9
$SORTENTS
280
   127
  9
$INDEXCTL
280
     0
  9
$HIDETEXT
280
     1
  9
$XCLIPFRAME
280
     2
  9
$HALOGAP
280
     0
  9
$OBSCOLOR
 70
   257
  9
$OBSLTYPE
280
     0
  9
$INTERSECTIONDISPLAY
280
     0
  9
$INTERSECTIONCOLOR
 70
   257
  9
$DIMASSOC
280
     2
  9
$PROJECTNAME
  1

  9
$CAMERADISPLAY
290
     0
  9
$LENSLENGTH
 40
50.0
  9
$CAMERAHEIGHT
 40
0.0
  9
$STEPSPERSEC
 40
2.0
  9
$STEPSIZE
 40
6.0
  9
$3DDWFPREC
 40
2.0
  9
$PSOLWIDTH
 40
0.25
  9
$PSOLHEIGHT
 40
4.0
  9
$LOFTANG1
 40
1.570796326794897
  9
$LOFTANG2
 40
1.570796326794897
  9
$LOFTMAG1
 40
0.0
  9
$LOFTMAG2
 40
0.0
  9
$LOFTPARAM
 70
     7
  9
$LOFTNORMALS
280
     1
  9
$LATITUDE
 40
37.795
  9
$LONGITUDE
 40
-122.394
  9
$NORTHDIRECTION
 40
0.0
  9
$TIMEZONE
 70
 -8000
  9
$LIGHTGLYPHDISPLAY
280
     1
  9
$TILEMODELIGHTSYNCH
280
     1
  9
$CMATERIAL
347
3C
  9
$SOLIDHIST
280
     1
  9
$SHOWHIST
280
     1
  9
$DWFFRAME
280
     2
  9
$DGNFRAME
280
     2
  9
$REALWORLDSCALE
290
     1
  9
$INTERFERECOLOR
 62
   256
  9
$CSHADOW
280
     0
  9
$SHADOWPLANELOCATION
 40
0.0
  0
ENDSEC
  0
SECTION
  2
CLASSES
  0
CLASS
  1
ACDBDICTIONARYWDFLT
  2
AcDbDictionaryWithDefault
  3
ObjectDBX Classes
 90
        0
 91
        4
280
     0
281
     0
  0
CLASS
  1
VISUALSTYLE
  2
AcDbVisualStyle
  3
ObjectDBX Classes
 90
     4095
 91
        4
280
     0
281
     0
  0
CLASS
  1
MATERIAL
  2
AcDbMaterial
  3
ObjectDBX Classes
 90
     1153
 91
        4
280
     0
281
     0
  0
CLASS
  1
SUN
  2
AcDbSun
  3
SCENEOE
 90
     1024
 91
        4
280
     0
281
     0
  0
ENDSEC
  0
SECTION
  2
TABLES
  0
TABLE
  2
VPORT
  5
8
330
0
100
AcDbSymbolTable
 70
     1
  0
VPORT
  5
29
330
8
100
AcDbSymbolTableRecord
100
AcDbViewportTableRecord
  2
*Active
 70
     0
 10
0.0
 20
0.0
 11
1.0
 21
1.0
 12
0.0
 22
0.0
 13
0.0
 23
0.0
 14
0.5
 24
0.5
 15
0.5
 25
0.5
 16
0.0
 26
0.0
 36
1.0
 17
105.0007777515277
 27
-148.5000416295416
 37
0.0
 40
297.0000832590831
 41
0.7070757462376333
 42
50.0
 43
0.0
 44
0.0
 50
0.0
 51
0.0
 71
     0
 72
   100
 73
     1
 74
     3
 75
     0
 76
     0
 77
     0
 78
     0
281
     0
 65
     1
110
0.0
120
0.0
130
0.0
111
1.0
121
0.0
131
0.0
112
0.0
122
1.0
132
0.0
 79
     0
146
0.0
 60
     3
 61
     5
292
     1
282
     1
141
0.0
142
0.0
 63
   250
361
3F
  0
ENDTAB
  0
TABLE
  2
LTYPE
  5
5
330
0
100
AcDbSymbolTable
 70
     1
  0
LTYPE
  5
14
330
5
100
AcDbSymbolTableRecord
100
AcDbLinetypeTableRecord
  2
ByBlock
 70
     0
  3

 72
    65
 73
     0
 40
0.0
  0
LTYPE
  5
15
330
5
100
AcDbSymbolTableRecord
100
AcDbLinetypeTableRecord
  2
ByLayer
 70
     0
  3

 72
    65
 73
     0
 40
0.0
  0
LTYPE
  5
16
330
5
100
AcDbSymbolTableRecord
100
AcDbLinetypeTableRecord
  2
Continuous
 70
     0
  3
Solid line
 72
    65
 73
     0
 40
0.0
  0
ENDTAB
  0
TABLE
  2
LAYER
  5
2
330
0
100
AcDbSymbolTable
 70
     2
  0
LAYER
  5
10
330
2
100
AcDbSymbolTableRecord
100
AcDbLayerTableRecord
  2
0
 70
     0
 62
     7
  6
Continuous
370
    -3
390
F
347
3E
  0
LAYER
  5
40
330
2
100
AcDbSymbolTableRecord
100
AcDbLayerTableRecord
  2
_U+30EC_U+30A4_U+30E4_U+30FC 1
 70
     0
 62
     7
  6
Continuous
370
    -3
390
F
347
3E
  0
ENDTAB
  0
TABLE
  2
STYLE
  5
3
330
0
100
AcDbSymbolTable
 70
     1
  0
STYLE
  5
11
330
3
100
AcDbSymbolTableRecord
100
AcDbTextStyleTableRecord
  2
Standard
 70
     0
 40
0.0
 41
1.0
 50
0.0
 71
     0
 42
0.2
  3
txt
  4

  0
ENDTAB
  0
TABLE
  2
VIEW
  5
6
330
0
100
AcDbSymbolTable
 70
     0
  0
ENDTAB
  0
TABLE
  2
UCS
  5
7
330
0
100
AcDbSymbolTable
 70
     0
  0
ENDTAB
  0
TABLE
  2
APPID
  5
9
330
0
100
AcDbSymbolTable
 70
     1
  0
APPID
  5
12
330
9
100
AcDbSymbolTableRecord
100
AcDbRegAppTableRecord
  2
ACAD
 70
     0
  0
ENDTAB
  0
TABLE
  2
DIMSTYLE
  5
A
330
0
100
AcDbSymbolTable
 70
     1
100
AcDbDimStyleTable
  0
DIMSTYLE
105
27
330
A
100
AcDbSymbolTableRecord
100
AcDbDimStyleTableRecord
  2
Standard
 70
     0
178
     0
340
11
  0
ENDTAB
  0
TABLE
  2
BLOCK_RECORD
  5
1
330
0
100
AcDbSymbolTable
 70
     7
  0
BLOCK_RECORD
  5
1F
330
1
100
AcDbSymbolTableRecord
100
AcDbBlockTableRecord
  2
*Model_Space
340
22
 70
     0
280
     1
281
     0
  0
BLOCK_RECORD
  5
1B
330
1
100
AcDbSymbolTableRecord
100
AcDbBlockTableRecord
  2
*Paper_Space
340
1E
 70
     0
280
     1
281
     0
  0
BLOCK_RECORD
  5
23
330
1
100
AcDbSymbolTableRecord
100
AcDbBlockTableRecord
  2
*Paper_Space0
340
26
 70
     0
280
     1
281
     0
  0
BLOCK_RECORD
  5
59
330
1
100
AcDbSymbolTableRecord
100
AcDbBlockTableRecord
  2
block 2
340
0
102
{BLKREFS
331
5A
102
}
 70
     0
280
     1
281
     0
  0
BLOCK_RECORD
  5
6A
330
1
100
AcDbSymbolTableRecord
100
AcDbBlockTableRecord
  2
block 3
340
0
102
{BLKREFS
331
6B
102
}
 70
     0
280
     1
281
     0
  0
BLOCK_RECORD
  5
70
330
1
100
AcDbSymbolTableRecord
100
AcDbBlockTableRecord
  2
block 4
340
0
102
{BLKREFS
331
71
102
}
 70
     0
280
     1
281
     0
  0
BLOCK_RECORD
  5
89
330
1
100
AcDbSymbolTableRecord
100
AcDbBlockTableRecord
  2
block 5
340
0
102
{BLKREFS
331
8A
102
}
 70
     0
280
     1
281
     0
  0
BLOCK_RECORD
  5
91
330
1
100
AcDbSymbolTableRecord
100
AcDbBlockTableRecord
  2
block 6
340
0
102
{BLKREFS
331
92
102
}
 70
     0
280
     1
281
     0
  0
BLOCK_RECORD
  5
A5
330
1
100
AcDbSymbolTableRecord
100
AcDbBlockTableRecord
  2
block 7
340
0
102
{BLKREFS
331
A6
102
}
 70
     0
280
     1
281
     0
  0
ENDTAB
  0
ENDSEC
  0
SECTION
  2
BLOCKS
  0
BLOCK
  5
20
330
1F
100
AcDbEntity
  8
0
100
AcDbBlockBegin
  2
*Model_Space
 70
     0
 10
0.0
 20
0.0
 30
0.0
  3
*Model_Space
  1

  0
ENDBLK
  5
21
330
1F
100
AcDbEntity
  8
0
100
AcDbBlockEnd
  0
BLOCK
  5
1C
330
1B
100
AcDbEntity
 67
     1
  8
0
100
AcDbBlockBegin
  2
*Paper_Space
 70
     0
 10
0.0
 20
0.0
 30
0.0
  3
*Paper_Space
  1

  0
ENDBLK
  5
1D
330
1B
100
AcDbEntity
 67
     1
  8
0
100
AcDbBlockEnd
  0
BLOCK
  5
24
330
23
100
AcDbEntity
  8
0
100
AcDbBlockBegin
  2
*Paper_Space0
 70
     0
 10
0.0
 20
0.0
 30
0.0
  3
*Paper_Space0
  1

  0
ENDBLK
  5
25
330
23
100
AcDbEntity
  8
0
100
AcDbBlockEnd
  0
BLOCK
  5
5B
330
59
100
AcDbEntity
  8
0
100
AcDbBlockBegin
  2
block 2
 70
     0
 10
0.0
 20
0.0
 30
0.0
  3
block 2
  1

  0
SPLINE
  5
5D
330
59
100
AcDbEntity
  8
_U+30EC_U+30A4_U+30E4_U+30FC 1
370
     0
100
AcDbSpline
210
0.0
220
0.0
230
1.0
 70
    11
 71
     3
 72
    32
 73
    28
 74
     0
 42
0.0000000001
 43
0.0000000001
 12
1.0
 22
0.0
 32
0.0
 13
1.0
 23
0.0
 33
0.0
 40
0.0
 40
0.0
 40
0.0
 40
0.0
 40
1.0
 40
1.0
 40
1.0
 40
2.0
 40
2.0
 40
2.0
 40
3.0
 40
3.0
 40
3.0
 40
4.0
 40
4.0
 40
4.0
 40
5.0
 40
5.0
 40
5.0
 40
6.0
 40
6.0
 40
6.0
 40
7.0
 40
7.0
 40
7.0
 40
8.0
 40
8.0
 40
8.0
 40
9.0
 40
9.0
 40
9.0
 40
9.0
 10
122.4290472784205
 20
-148.9273437127682
 30
0.0
 10
122.4290472784205
 20
-149.4434190164586
 30
0.0
 10
121.8747314148438
 20
-149.4520317551717
 30
0.0
 10
121.6611354947583
 20
-149.4520317551717
 30
0.0
 10
121.4306586067951
 20
-149.4520317551717
 30
0.0
 10
120.7833251651167
 20
-149.4330837300028
 30
0.0
 10
120.7833251651167
 20
-148.8894476624304
 30
0.0
 10
120.7833251651167
 20
-148.7158148499738
 30
0.0
 10
120.8529160939187
 20
-148.470524051424
 30
0.0
 10
121.1850232986968
 20
-148.4322834915378
 30
0.0
 10
121.1850232986968
 20
-148.4322834915378
 30
0.0
 10
121.1850232986968
 20
-148.6460516663975
 30
0.0
 10
121.1850232986968
 20
-148.6460516663975
 30
0.0
 10
121.1281792231902
 20
-148.6565592076275
 30
0.0
 10
120.9800401173244
 20
-148.6882540860918
 30
0.0
 10
120.9800401173244
 20
-148.8915147197216
 30
0.0
 10
120.9800401173244
 20
-149.1833143073222
 30
0.0
 10
121.3080132075202
 20
-149.2236219244997
 30
0.0
 10
121.5129963888926
 20
-149.2360242682466
 30
0.0
 10
121.4347927213774
 20
-149.1430066901448
 30
0.0
 10
121.3755370790311
 20
-149.0754828186339
 30
0.0
 10
121.3755370790311
 20
-148.8935817770127
 30
0.0
 10
121.3755370790311
 20
-148.7137477926827
 30
0.0
 10
121.4833685677194
 20
-148.4112684090777
 30
0.0
 10
121.8895453254304
 20
-148.4112684090777
 30
0.0
 10
122.2092501864616
 20
-148.4112684090777
 30
0.0
 10
122.4290472784205
 20
-148.6100504185767
 30
0.0
 10
122.4290472784205
 20
-148.9273437127682
 30
0.0
  0
SPLINE
  5
5E
330
59
100
AcDbEntity
  8
_U+30EC_U+30A4_U+30E4_U+30FC 1
370
     0
100
AcDbSpline
210
0.0
220
0.0
230
1.0
 70
    11
 71
     3
 72
    17
 73
    13
 74
     0
 42
0.0000000001
 43
0.0000000001
 12
1.0
 22
0.0
 32
0.0
 13
1.0
 23
0.0
 33
0.0
 40
0.0
 40
0.0
 40
0.0
 40
0.0
 40
1.0
 40
1.0
 40
1.0
 40
2.0
 40
2.0
 40
2.0
 40
3.0
 40
3.0
 40
3.0
 40
4.0
 40
4.0
 40
4.0
 40
4.0
 10
121.5701849739477
 20
-148.9104627448905
 30
0.0
 10
121.5701849739477
 20
-149.172634511318
 30
0.0
 10
121.7817138367421
 20
-149.2108750712042
 30
0.0
 10
121.8981580641435
 20
-149.2108750712042
 30
0.0
 10
122.0738579338913
 20
-149.2108750712042
 30
0.0
 10
122.2364664407951
 20
-149.1154459262628
 30
0.0
 10
122.2364664407951
 20
-148.9314778273505
 30
0.0
 10
122.2364664407951
 20
-148.811071740141
 30
0.0
 10
122.1772107984488
 20
-148.6353718703932
 30
0.0
 10
121.8916123827215
 20
-148.6353718703932
 30
0.0
 10
121.6676811761803
 20
-148.6353718703932
 30
0.0
 10
121.5701849739477
 20
-148.7750704923201
 30
0.0
 10
121.5701849739477
 20
-148.9104627448905
 30
0.0
  0
HATCH
  5
5F
330
59
100
AcDbEntity
  8
_U+30EC_U+30A4_U+30E4_U+30FC 1
 62
   179
420
  2234388
100
AcDbHatch
 10
0.0
 20
0.0
 30
0.0
210
0.0
220
0.0
230
1.0
  2
SOLID
 70
     1
 71
     0
 91
        2
 92
        1
 93
        1
 72
     4
 94
        3
 73
     0
 74
     1
 95
       32
 96
       28
 40
0.0
 40
0.0
 40
0.0
 40
0.0
 40
1.0
 40
1.0
 40
1.0
 40
2.0
 40
2.0
 40
2.0
 40
3.0
 40
3.0
 40
3.0
 40
4.0
 40
4.0
 40
4.0
 40
5.0
 40
5.0
 40
5.0
 40
6.0
 40
6.0
 40
6.0
 40
7.0
 40
7.0
 40
7.0
 40
8.0
 40
8.0
 40
8.0
 40
9.0
 40
9.0
 40
9.0
 40
9.0
 10
122.4290472784205
 20
-148.9273437127682
 10
122.4290472784205
 20
-149.4434190164586
 10
121.8747314148438
 20
-149.4520317551717
 10
121.6611354947583
 20
-149.4520317551717
 10
121.4306586067951
 20
-149.4520317551717
 10
120.7833251651167
 20
-149.4330837300028
 10
120.7833251651167
 20
-148.8894476624304
 10
120.7833251651167
 20
-148.7158148499738
 10
120.8529160939187
 20
-148.470524051424
 10
121.1850232986968
 20
-148.4322834915378
 10
121.1850232986968
 20
-148.4322834915378
 10
121.1850232986968
 20
-148.6460516663975
 10
121.1850232986968
 20
-148.6460516663975
 10
121.1281792231902
 20
-148.6565592076275
 10
120.9800401173244
 20
-148.6882540860918
 10
120.9800401173244
 20
-148.8915147197216
 10
120.9800401173244
 20
-149.1833143073222
 10
121.3080132075202
 20
-149.2236219244997
 10
121.5129963888926
 20
-149.2360242682466
 10
121.4347927213774
 20
-149.1430066901448
 10
121.3755370790311
 20
-149.0754828186339
 10
121.3755370790311
 20
-148.8935817770127
 10
121.3755370790311
 20
-148.7137477926827
 10
121.4833685677194
 20
-148.4112684090777
 10
121.8895453254304
 20
-148.4112684090777
 10
122.2092501864616
 20
-148.4112684090777
 10
122.4290472784205
 20
-148.6100504185767
 10
122.4290472784205
 20
-148.9273437127682
 97
        0
 97
        0
 92
        1
 93
        1
 72
     4
 94
        3
 73
     0
 74
     1
 95
       17
 96
       13
 40
0.0
 40
0.0
 40
0.0
 40
0.0
 40
1.0
 40
1.0
 40
1.0
 40
2.0
 40
2.0
 40
2.0
 40
3.0
 40
3.0
 40
3.0
 40
4.0
 40
4.0
 40
4.0
 40
4.0
 10
121.5701849739477
 20
-148.9104627448905
 10
121.5701849739477
 20
-149.172634511318
 10
121.7817138367421
 20
-149.2108750712042
 10
121.8981580641435
 20
-149.2108750712042
 10
122.0738579338913
 20
-149.2108750712042
 10
122.2364664407951
 20
-149.1154459262628
 10
122.2364664407951
 20
-148.9314778273505
 10
122.2364664407951
 20
-148.811071740141
 10
122.1772107984488
 20
-148.6353718703932
 10
121.8916123827215
 20
-148.6353718703932
 10
121.6676811761803
 20
-148.6353718703932
 10
121.5701849739477
 20
-148.7750704923201
 10
121.5701849739477
 20
-148.9104627448905
 97
        0
 97
        0
 75
     2
 76
     1
 98
        0
  0
POLYLINE
  5
60
330
59
100
AcDbEntity
  8
_U+30EC_U+30A4_U+30E4_U+30FC 1
370
     0
100
AcDb2dPolyline
 66
     1
 10
0.0
 20
0.0
 30
0.0
  0
VERTEX
  5
61
330
60
100
AcDbEntity
  8
_U+30EC_U+30A4_U+30E4_U+30FC 1
370
     0
100
AcDbVertex
100
AcDb2dVertex
 10
122.3784043747874
 20
-148.1947441578298
 30
0.0
  0
VERTEX
  5
62
330
60
100
AcDbEntity
  8
_U+30EC_U+30A4_U+30E4_U+30FC 1
370
     0
100
AcDbVertex
100
AcDb2dVertex
 10
122.1265678948156
 20
-148.1947441578298
 30
0.0
  0
VERTEX
  5
63
330
60
100
AcDbEntity
  8
_U+30EC_U+30A4_U+30E4_U+30FC 1
370
     0
100
AcDbVertex
100
AcDb2dVertex
 10
122.1265678948156
 20
-147.9430799326323
 30
0.0
  0
VERTEX
  5
64
330
60
100
AcDbEntity
  8
_U+30EC_U+30A4_U+30E4_U+30FC 1
370
     0
100
AcDbVertex
100
AcDb2dVertex
 10
122.3784043747874
 20
-147.9430799326323
 30
0.0
  0
VERTEX
  5
65
330
60
100
AcDbEntity
  8
_U+30EC_U+30A4_U+30E4_U+30FC 1
370
     0
100
AcDbVertex
100
AcDb2dVertex
 10
122.3784043747874
 20
-148.1947441578298
 30
0.0
  0
SEQEND
  5
66
330
60
100
AcDbEntity
  8
_U+30EC_U+30A4_U+30E4_U+30FC 1
370
     0
  0
HATCH
  5
67
330
59
100
AcDbEntity
  8
_U+30EC_U+30A4_U+30E4_U+30FC 1
 62
   179
420
  2234388
100
AcDbHatch
 10
0.0
 20
0.0
 30
0.0
210
0.0
220
0.0
230
1.0
  2
SOLID
 70
     1
 71
     0
 91
        1
 92
        1
 93
        4
 72
     1
 10
122.3784043747874
 20
-148.1947441578298
 11
122.1265678948156
 21
-148.1947441578298
 72
     1
 10
122.1265678948156
 20
-148.1947441578298
 11
122.1265678948156
 21
-147.9430799326323
 72
     1
 10
122.1265678948156
 20
-147.9430799326323
 11
122.3784043747874
 21
-147.9430799326323
 72
     1
 10
122.3784043747874
 20
-147.9430799326323
 11
122.3784043747874
 21
-148.1947441578298
 97
        0
 75
     2
 76
     1
 98
        0
  0
SPLINE
  5
68
330
59
100
AcDbEntity
  8
_U+30EC_U+30A4_U+30E4_U+30FC 1
370
     0
100
AcDbSpline
210
0.0
220
0.0
230
1.0
 70
    11
 71
     3
 72
    53
 73
    49
 74
     0
 42
0.0000000001
 43
0.0000000001
 12
1.0
 22
0.0
 32
0.0
 13
1.0
 23
0.0
 33
0.0
 40
0.0
 40
0.0
 40
0.0
 40
0.0
 40
1.0
 40
1.0
 40
1.0
 40
2.0
 40
2.0
 40
2.0
 40
3.0
 40
3.0
 40
3.0
 40
4.0
 40
4.0
 40
4.0
 40
5.0
 40
5.0
 40
5.0
 40
6.0
 40
6.0
 40
6.0
 40
7.0
 40
7.0
 40
7.0
 40
8.0
 40
8.0
 40
8.0
 40
9.0
 40
9.0
 40
9.0
 40
10.0
 40
10.0
 40
10.0
 40
11.0
 40
11.0
 40
11.0
 40
12.0
 40
12.0
 40
12.0
 40
13.0
 40
13.0
 40
13.0
 40
14.0
 40
14.0
 40
14.0
 40
15.0
 40
15.0
 40
15.0
 40
16.0
 40
16.0
 40
16.0
 40
16.0
 10
122.4290472784205
 20
-147.2254665430548
 30
0.0
 10
122.4290472784205
 20
-147.3038424653442
 30
0.0
 10
122.4121663105428
 20
-147.4053005273848
 30
0.0
 10
122.3487765536142
 20
-147.5069308441997
 30
0.0
 10
122.2385334980862
 20
-147.680391401882
 30
0.0
 10
122.1076198696467
 20
-147.7015787391163
 30
0.0
 10
121.9997883809584
 20
-147.7205267642852
 30
0.0
 10
121.9997883809584
 20
-147.7205267642852
 30
0.0
 10
121.9997883809584
 20
-147.4984903602608
 30
0.0
 10
121.9997883809584
 20
-147.4984903602608
 30
0.0
 10
122.1985703904573
 20
-147.4433688324968
 30
0.0
 10
122.2281982116305
 20
-147.3164170638653
 30
0.0
 10
122.2281982116305
 20
-147.2233994857636
 30
0.0
 10
122.2281982116305
 20
-147.083873118611
 30
0.0
 10
122.1286349521067
 20
-146.9314276433887
 30
0.0
 10
121.8960910068524
 20
-146.9314276433887
 30
0.0
 10
121.6401204122983
 20
-146.9314276433887
 30
0.0
 10
121.5701849739477
 20
-147.1112616277187
 30
0.0
 10
121.5701849739477
 20
-147.2318399697025
 30
0.0
 10
121.5701849739477
 20
-147.2635348481668
 30
0.0
 10
121.5701849739477
 20
-147.4053005273848
 30
0.0
 10
121.6993760546446
 20
-147.4941839909042
 30
0.0
 10
121.6993760546446
 20
-147.4941839909042
 30
0.0
 10
121.6800835199272
 20
-147.6697116058777
 30
0.0
 10
121.6800835199272
 20
-147.6697116058777
 30
0.0
 10
121.6800835199272
 20
-147.6697116058777
 30
0.0
 10
120.8339680687498
 20
-147.549133263894
 30
0.0
 10
120.8339680687498
 20
-147.549133263894
 30
0.0
 10
120.8339680687498
 20
-147.549133263894
 30
0.0
 10
120.8339680687498
 20
-146.7707139390018
 30
0.0
 10
120.8339680687498
 20
-146.7707139390018
 30
0.0
 10
120.8339680687498
 20
-146.7707139390018
 30
0.0
 10
121.0286159636665
 20
-146.7707139390018
 30
0.0
 10
121.0286159636665
 20
-146.7707139390018
 30
0.0
 10
121.0286159636665
 20
-146.7707139390018
 30
0.0
 10
121.0286159636665
 20
-147.3863525022159
 30
0.0
 10
121.0286159636665
 20
-147.3863525022159
 30
0.0
 10
121.0286159636665
 20
-147.3863525022159
 30
0.0
 10
121.4516736892551
 20
-147.4518093164357
 30
0.0
 10
121.4516736892551
 20
-147.4518093164357
 30
0.0
 10
121.4179117534997
 20
-147.3904866167982
 30
0.0
 10
121.3776041363223
 20
-147.3079765799265
 30
0.0
 10
121.3776041363223
 20
-147.1896375500081
 30
0.0
 10
121.3776041363223
 20
-146.9357340127452
 30
0.0
 10
121.5639838020743
 20
-146.6987114433601
 30
0.0
 10
121.876798472135
 20
-146.6987114433601
 30
0.0
 10
122.194436275875
 20
-146.6987114433601
 30
0.0
 10
122.4290472784205
 20
-146.9229871594498
 30
0.0
 10
122.4290472784205
 20
-147.2254665430548
 30
0.0
  0
HATCH
  5
69
330
59
100
AcDbEntity
  8
_U+30EC_U+30A4_U+30E4_U+30FC 1
 62
   179
420
  2234388
100
AcDbHatch
 10
0.0
 20
0.0
 30
0.0
210
0.0
220
0.0
230
1.0
  2
SOLID
 70
     1
 71
     0
 91
        1
 92
        1
 93
        1
 72
     4
 94
        3
 73
     0
 74
     1
 95
       53
 96
       49
 40
0.0
 40
0.0
 40
0.0
 40
0.0
 40
1.0
 40
1.0
 40
1.0
 40
2.0
 40
2.0
 40
2.0
 40
3.0
 40
3.0
 40
3.0
 40
4.0
 40
4.0
 40
4.0
 40
5.0
 40
5.0
 40
5.0
 40
6.0
 40
6.0
 40
6.0
 40
7.0
 40
7.0
 40
7.0
 40
8.0
 40
8.0
 40
8.0
 40
9.0
 40
9.0
 40
9.0
 40
10.0
 40
10.0
 40
10.0
 40
11.0
 40
11.0
 40
11.0
 40
12.0
 40
12.0
 40
12.0
 40
13.0
 40
13.0
 40
13.0
 40
14.0
 40
14.0
 40
14.0
 40
15.0
 40
15.0
 40
15.0
 40
16.0
 40
16.0
 40
16.0
 40
16.0
 10
122.4290472784205
 20
-147.2254665430548
 10
122.4290472784205
 20
-147.3038424653442
 10
122.4121663105428
 20
-147.4053005273848
 10
122.3487765536142
 20
-147.5069308441997
 10
122.2385334980862
 20
-147.680391401882
 10
122.1076198696467
 20
-147.7015787391163
 10
121.9997883809584
 20
-147.7205267642852
 10
121.9997883809584
 20
-147.7205267642852
 10
121.9997883809584
 20
-147.4984903602608
 10
121.9997883809584
 20
-147.4984903602608
 10
122.1985703904573
 20
-147.4433688324968
 10
122.2281982116305
 20
-147.3164170638653
 10
122.2281982116305
 20
-147.2233994857636
 10
122.2281982116305
 20
-147.083873118611
 10
122.1286349521067
 20
-146.9314276433887
 10
121.8960910068524
 20
-146.9314276433887
 10
121.6401204122983
 20
-146.9314276433887
 10
121.5701849739477
 20
-147.1112616277187
 10
121.5701849739477
 20
-147.2318399697025
 10
121.5701849739477
 20
-147.2635348481668
 10
121.5701849739477
 20
-147.4053005273848
 10
121.6993760546446
 20
-147.4941839909042
 10
121.6993760546446
 20
-147.4941839909042
 10
121.6800835199272
 20
-147.6697116058777
 10
121.6800835199272
 20
-147.6697116058777
 10
121.6800835199272
 20
-147.6697116058777
 10
120.8339680687498
 20
-147.549133263894
 10
120.8339680687498
 20
-147.549133263894
 10
120.8339680687498
 20
-147.549133263894
 10
120.8339680687498
 20
-146.7707139390018
 10
120.8339680687498
 20
-146.7707139390018
 10
120.8339680687498
 20
-146.7707139390018
 10
121.0286159636665
 20
-146.7707139390018
 10
121.0286159636665
 20
-146.7707139390018
 10
121.0286159636665
 20
-146.7707139390018
 10
121.0286159636665
 20
-147.3863525022159
 10
121.0286159636665
 20
-147.3863525022159
 10
121.0286159636665
 20
-147.3863525022159
 10
121.4516736892551
 20
-147.4518093164357
 10
121.4516736892551
 20
-147.4518093164357
 10
121.4179117534997
 20
-147.3904866167982
 10
121.3776041363223
 20
-147.3079765799265
 10
121.3776041363223
 20
-147.1896375500081
 10
121.3776041363223
 20
-146.9357340127452
 10
121.5639838020743
 20
-146.6987114433601
 10
121.876798472135
 20
-146.6987114433601
 10
122.194436275875
 20
-146.6987114433601
 10
122.4290472784205
 20
-146.9229871594498
 10
122.4290472784205
 20
-147.2254665430548
 97
        0
 97
        0
 75
     2
 76
     1
 98
        0
  0
ENDBLK
  5
5C
330
59
100
AcDbEntity
  8
0
100
AcDbBlockEnd
  0
BLOCK
  5
6C
330
6A
100
AcDbEntity
  8
0
100
AcDbBlockBegin
  2
block 3
 70
     0
 10
0.0
 20
0.0
 30
0.0
  3
block 3
  1

  0
SPLINE
  5
6E
330
6A
100
AcDbEntity
  8
_U+30EC_U+30A4_U+30E4_U+30FC 1
370
     0
100
AcDbSpline
210
0.0
220
0.0
230
1.0
 70
    11
 71
     3
 72
    26
 73
    22
 74
     0
 42
0.0000000001
 43
0.0000000001
 12
1.0
 22
0.0
 32
0.0
 13
1.0
 23
0.0
 33
0.0
 40
0.0
 40
0.0
 40
0.0
 40
0.0
 40
1.0
 40
1.0
 40
1.0
 40
2.0
 40
2.0
 40
2.0
 40
3.0
 40
3.0
 40
3.0
 40
4.0
 40
4.0
 40
4.0
 40
5.0
 40
5.0
 40
5.0
 40
6.0
 40
6.0
 40
6.0
 40
7.0
 40
7.0
 40
7.0
 40
7.0
 10
122.3784043747874
 20
-140.9156019070454
 30
0.0
 10
122.3784043747874
 20
-140.9156019070454
 30
0.0
 10
121.2739067622163
 20
-140.9156019070454
 30
0.0
 10
121.2739067622163
 20
-140.9156019070454
 30
0.0
 10
121.2739067622163
 20
-140.9156019070454
 30
0.0
 10
121.2739067622163
 20
-141.2456420545323
 30
0.0
 10
121.2739067622163
 20
-141.2456420545323
 30
0.0
 10
121.2739067622163
 20
-141.2456420545323
 30
0.0
 10
121.1257676563505
 20
-141.2456420545323
 30
0.0
 10
121.1257676563505
 20
-141.2456420545323
 30
0.0
 10
121.1112982553125
 20
-140.9135348497543
 30
0.0
 10
120.9483452388601
 20
-140.8670260607034
 30
0.0
 10
120.8339680687498
 20
-140.8373982395302
 30
0.0
 10
120.8339680687498
 20
-140.8373982395302
 30
0.0
 10
120.8339680687498
 20
-140.6913261909556
 30
0.0
 10
120.8339680687498
 20
-140.6913261909556
 30
0.0
 10
120.8339680687498
 20
-140.6913261909556
 30
0.0
 10
122.3784043747874
 20
-140.6913261909556
 30
0.0
 10
122.3784043747874
 20
-140.6913261909556
 30
0.0
 10
122.3784043747874
 20
-140.6913261909556
 30
0.0
 10
122.3784043747874
 20
-140.9156019070454
 30
0.0
 10
122.3784043747874
 20
-140.9156019070454
 30
0.0
  0
HATCH
  5
6F
330
6A
100
AcDbEntity
  8
_U+30EC_U+30A4_U+30E4_U+30FC 1
 62
   179
420
  2234388
100
AcDbHatch
 10
0.0
 20
0.0
 30
0.0
210
0.0
220
0.0
230
1.0
  2
SOLID
 70
     1
 71
     0
 91
        1
 92
        1
 93
        1
 72
     4
 94
        3
 73
     0
 74
     1
 95
       26
 96
       22
 40
0.0
 40
0.0
 40
0.0
 40
0.0
 40
1.0
 40
1.0
 40
1.0
 40
2.0
 40
2.0
 40
2.0
 40
3.0
 40
3.0
 40
3.0
 40
4.0
 40
4.0
 40
4.0
 40
5.0
 40
5.0
 40
5.0
 40
6.0
 40
6.0
 40
6.0
 40
7.0
 40
7.0
 40
7.0
 40
7.0
 10
122.3784043747874
 20
-140.9156019070454
 10
122.3784043747874
 20
-140.9156019070454
 10
121.2739067622163
 20
-140.9156019070454
 10
121.2739067622163
 20
-140.9156019070454
 10
121.2739067622163
 20
-140.9156019070454
 10
121.2739067622163
 20
-141.2456420545323
 10
121.2739067622163
 20
-141.2456420545323
 10
121.2739067622163
 20
-141.2456420545323
 10
121.1257676563505
 20
-141.2456420545323
 10
121.1257676563505
 20
-141.2456420545323
 10
121.1112982553125
 20
-140.9135348497543
 10
120.9483452388601
 20
-140.8670260607034
 10
120.8339680687498
 20
-140.8373982395302
 10
120.8339680687498
 20
-140.8373982395302
 10
120.8339680687498
 20
-140.6913261909556
 10
120.8339680687498
 20
-140.6913261909556
 10
120.8339680687498
 20
-140.6913261909556
 10
122.3784043747874
 20
-140.6913261909556
 10
122.3784043747874
 20
-140.6913261909556
 10
122.3784043747874
 20
-140.6913261909556
 10
122.3784043747874
 20
-140.9156019070454
 10
122.3784043747874
 20
-140.9156019070454
 97
        0
 97
        0
 75
     2
 76
     1
 98
        0
  0
ENDBLK
  5
6D
330
6A
100
AcDbEntity
  8
0
100
AcDbBlockEnd
  0
BLOCK
  5
72
330
70
100
AcDbEntity
  8
0
100
AcDbBlockBegin
  2
block 4
 70
     0
 10
0.0
 20
0.0
 30
0.0
  3
block 4
  1

  0
SPLINE
  5
74
330
70
100
AcDbEntity
  8
_U+30EC_U+30A4_U+30E4_U+30FC 1
370
     0
100
AcDbSpline
210
0.0
220
0.0
230
1.0
 70
    11
 71
     3
 72
    62
 73
    58
 74
     0
 42
0.0000000001
 43
0.0000000001
 12
1.0
 22
0.0
 32
0.0
 13
1.0
 23
0.0
 33
0.0
 40
0.0
 40
0.0
 40
0.0
 40
0.0
 40
1.0
 40
1.0
 40
1.0
 40
2.0
 40
2.0
 40
2.0
 40
3.0
 40
3.0
 40
3.0
 40
4.0
 40
4.0
 40
4.0
 40
5.0
 40
5.0
 40
5.0
 40
6.0
 40
6.0
 40
6.0
 40
7.0
 40
7.0
 40
7.0
 40
8.0
 40
8.0
 40
8.0
 40
9.0
 40
9.0
 40
9.0
 40
10.0
 40
10.0
 40
10.0
 40
11.0
 40
11.0
 40
11.0
 40
12.0
 40
12.0
 40
12.0
 40
13.0
 40
13.0
 40
13.0
 40
14.0
 40
14.0
 40
14.0
 40
15.0
 40
15.0
 40
15.0
 40
16.0
 40
16.0
 40
16.0
 40
17.0
 40
17.0
 40
17.0
 40
18.0
 40
18.0
 40
18.0
 40
19.0
 40
19.0
 40
19.0
 40
19.0
 10
122.4290472784205
 20
-152.9002278263583
 30
0.0
 10
122.4290472784205
 20
-152.9953124617512
 30
0.0
 10
122.4080321959605
 20
-153.2133870059675
 30
0.0
 10
122.2216525302085
 20
-153.3380994625335
 30
0.0
 10
122.1096869269379
 20
-153.4121690154664
 30
0.0
 10
122.0101236674141
 20
-153.4163031300487
 30
0.0
 10
121.9257188280255
 20
-153.420437244631
 30
0.0
 10
121.9257188280255
 20
-153.420437244631
 30
0.0
 10
121.9257188280255
 20
-153.2006401526721
 30
0.0
 10
121.9257188280255
 20
-153.2006401526721
 30
0.0
 10
121.9997883809584
 20
-153.1985730953809
 30
0.0
 10
122.2343993835039
 20
-153.1878932993766
 30
0.0
 10
122.2343993835039
 20
-152.9043619409406
 30
0.0
 10
122.2343993835039
 20
-152.7669026310791
 30
0.0
 10
122.1648084547019
 20
-152.6146294106311
 30
0.0
 10
121.9360541144813
 20
-152.6146294106311
 30
0.0
 10
121.8199543966283
 20
-152.6146294106311
 30
0.0
 10
121.7710340407378
 20
-152.6528699705173
 30
0.0
 10
121.7393391622735
 20
-152.6845648489816
 30
0.0
 10
121.6652696093406
 20
-152.758289892366
 30
0.0
 10
121.6528672655937
 20
-152.8747341197674
 30
0.0
 10
121.6528672655937
 20
-152.9298556475314
 30
0.0
 10
121.6528672655937
 20
-152.9488036727003
 30
0.0
 10
121.6549343228849
 20
-152.9849771752954
 30
0.0
 10
121.6590684374672
 20
-153.0125379391774
 30
0.0
 10
121.6590684374672
 20
-153.0125379391774
 30
0.0
 10
121.4644205425506
 20
-153.0125379391774
 30
0.0
 10
121.4644205425506
 20
-153.0125379391774
 30
0.0
 10
121.470621714424
 20
-152.9742973792912
 30
0.0
 10
121.4730332812637
 20
-152.9319227048226
 30
0.0
 10
121.4730332812637
 20
-152.9257215329491
 30
0.0
 10
121.4730332812637
 20
-152.8602647187294
 30
0.0
 10
121.4516736892551
 20
-152.6611381996819
 30
0.0
 10
121.21465111987
 20
-152.6611381996819
 30
0.0
 10
121.0372287023796
 20
-152.6611381996819
 30
0.0
 10
120.9821071746156
 20
-152.79239633767
 30
0.0
 10
120.9821071746156
 20
-152.9022948836494
 30
0.0
 10
120.9821071746156
 20
-153.1668782169166
 30
0.0
 10
121.21465111987
 20
-153.1751464460812
 30
0.0
 10
121.2866536155117
 20
-153.1792805606635
 30
0.0
 10
121.2866536155117
 20
-153.1792805606635
 30
0.0
 10
121.2866536155117
 20
-153.3825411942933
 30
0.0
 10
121.2866536155117
 20
-153.3825411942933
 30
0.0
 10
121.1619411589456
 20
-153.3742729651287
 30
0.0
 10
120.7853922224078
 20
-153.3467122012467
 30
0.0
 10
120.7853922224078
 20
-152.8898925399025
 30
0.0
 10
120.7853922224078
 20
-152.6652723142643
 30
0.0
 10
120.912171736265
 20
-152.4241156302968
 30
0.0
 10
121.2084499479965
 20
-152.4241156302968
 30
0.0
 10
121.3944851042
 20
-152.4241156302968
 30
0.0
 10
121.477167395846
 20
-152.5192002656896
 30
0.0
 10
121.5384900954834
 20
-152.6191080347619
 30
0.0
 10
121.5660508593654
 20
-152.5574408255759
 30
0.0
 10
121.6463215841718
 20
-152.3755397839547
 30
0.0
 10
121.9236517707344
 20
-152.3755397839547
 30
0.0
 10
122.2619601473859
 20
-152.3755397839547
 30
0.0
 10
122.4290472784205
 20
-152.6232421493442
 30
0.0
 10
122.4290472784205
 20
-152.9002278263583
 30
0.0
  0
HATCH
  5
75
330
70
100
AcDbEntity
  8
_U+30EC_U+30A4_U+30E4_U+30FC 1
 62
   179
420
  2234388
100
AcDbHatch
 10
0.0
 20
0.0
 30
0.0
210
0.0
220
0.0
230
1.0
  2
SOLID
 70
     1
 71
     0
 91
        1
 92
        1
 93
        1
 72
     4
 94
        3
 73
     0
 74
     1
 95
       62
 96
       58
 40
0.0
 40
0.0
 40
0.0
 40
0.0
 40
1.0
 40
1.0
 40
1.0
 40
2.0
 40
2.0
 40
2.0
 40
3.0
 40
3.0
 40
3.0
 40
4.0
 40
4.0
 40
4.0
 40
5.0
 40
5.0
 40
5.0
 40
6.0
 40
6.0
 40
6.0
 40
7.0
 40
7.0
 40
7.0
 40
8.0
 40
8.0
 40
8.0
 40
9.0
 40
9.0
 40
9.0
 40
10.0
 40
10.0
 40
10.0
 40
11.0
 40
11.0
 40
11.0
 40
12.0
 40
12.0
 40
12.0
 40
13.0
 40
13.0
 40
13.0
 40
14.0
 40
14.0
 40
14.0
 40
15.0
 40
15.0
 40
15.0
 40
16.0
 40
16.0
 40
16.0
 40
17.0
 40
17.0
 40
17.0
 40
18.0
 40
18.0
 40
18.0
 40
19.0
 40
19.0
 40
19.0
 40
19.0
 10
122.4290472784205
 20
-152.9002278263583
 10
122.4290472784205
 20
-152.9953124617512
 10
122.4080321959605
 20
-153.2133870059675
 10
122.2216525302085
 20
-153.3380994625335
 10
122.1096869269379
 20
-153.4121690154664
 10
122.0101236674141
 20
-153.4163031300487
 10
121.9257188280255
 20
-153.420437244631
 10
121.9257188280255
 20
-153.420437244631
 10
121.9257188280255
 20
-153.2006401526721
 10
121.9257188280255
 20
-153.2006401526721
 10
121.9997883809584
 20
-153.1985730953809
 10
122.2343993835039
 20
-153.1878932993766
 10
122.2343993835039
 20
-152.9043619409406
 10
122.2343993835039
 20
-152.7669026310791
 10
122.1648084547019
 20
-152.6146294106311
 10
121.9360541144813
 20
-152.6146294106311
 10
121.8199543966283
 20
-152.6146294106311
 10
121.7710340407378
 20
-152.6528699705173
 10
121.7393391622735
 20
-152.6845648489816
 10
121.6652696093406
 20
-152.758289892366
 10
121.6528672655937
 20
-152.8747341197674
 10
121.6528672655937
 20
-152.9298556475314
 10
121.6528672655937
 20
-152.9488036727003
 10
121.6549343228849
 20
-152.9849771752954
 10
121.6590684374672
 20
-153.0125379391774
 10
121.6590684374672
 20
-153.0125379391774
 10
121.4644205425506
 20
-153.0125379391774
 10
121.4644205425506
 20
-153.0125379391774
 10
121.470621714424
 20
-152.9742973792912
 10
121.4730332812637
 20
-152.9319227048226
 10
121.4730332812637
 20
-152.9257215329491
 10
121.4730332812637
 20
-152.8602647187294
 10
121.4516736892551
 20
-152.6611381996819
 10
121.21465111987
 20
-152.6611381996819
 10
121.0372287023796
 20
-152.6611381996819
 10
120.9821071746156
 20
-152.79239633767
 10
120.9821071746156
 20
-152.9022948836494
 10
120.9821071746156
 20
-153.1668782169166
 10
121.21465111987
 20
-153.1751464460812
 10
121.2866536155117
 20
-153.1792805606635
 10
121.2866536155117
 20
-153.1792805606635
 10
121.2866536155117
 20
-153.3825411942933
 10
121.2866536155117
 20
-153.3825411942933
 10
121.1619411589456
 20
-153.3742729651287
 10
120.7853922224078
 20
-153.3467122012467
 10
120.7853922224078
 20
-152.8898925399025
 10
120.7853922224078
 20
-152.6652723142643
 10
120.912171736265
 20
-152.4241156302968
 10
121.2084499479965
 20
-152.4241156302968
 10
121.3944851042
 20
-152.4241156302968
 10
121.477167395846
 20
-152.5192002656896
 10
121.5384900954834
 20
-152.6191080347619
 10
121.5660508593654
 20
-152.5574408255759
 10
121.6463215841718
 20
-152.3755397839547
 10
121.9236517707344
 20
-152.3755397839547
 10
122.2619601473859
 20
-152.3755397839547
 10
122.4290472784205
 20
-152.6232421493442
 10
122.4290472784205
 20
-152.9002278263583
 97
        0
 97
        0
 75
     2
 76
     1
 98
        0
  0
ENDBLK
  5
73
330
70
100
AcDbEntity
  8
0
100
AcDbBlockEnd
  0
BLOCK
  5
8B
330
89
100
AcDbEntity
  8
0
100
AcDbBlockBegin
  2
block 5
 70
     0
 10
0.0
 20
0.0
 30
0.0
  3
block 5
  1

  0
SPLINE
  5
8D
330
89
100
AcDbEntity
  8
_U+30EC_U+30A4_U+30E4_U+30FC 1
370
     0
100
AcDbSpline
210
0.0
220
0.0
230
1.0
 70
    11
 71
     3
 72
    44
 73
    40
 74
     0
 42
0.0000000001
 43
0.0000000001
 12
1.0
 22
0.0
 32
0.0
 13
1.0
 23
0.0
 33
0.0
 40
0.0
 40
0.0
 40
0.0
 40
0.0
 40
1.0
 40
1.0
 40
1.0
 40
2.0
 40
2.0
 40
2.0
 40
3.0
 40
3.0
 40
3.0
 40
4.0
 40
4.0
 40
4.0
 40
5.0
 40
5.0
 40
5.0
 40
6.0
 40
6.0
 40
6.0
 40
7.0
 40
7.0
 40
7.0
 40
8.0
 40
8.0
 40
8.0
 40
9.0
 40
9.0
 40
9.0
 40
10.0
 40
10.0
 40
10.0
 40
11.0
 40
11.0
 40
11.0
 40
12.0
 40
12.0
 40
12.0
 40
13.0
 40
13.0
 40
13.0
 40
13.0
 10
104.2299858680397
 20
-139.9814642662199
 30
0.0
 10
104.0120835785977
 20
-140.1401109133157
 30
0.0
 10
103.9188937457217
 20
-140.2141804662485
 30
0.0
 10
103.8703178993796
 20
-140.3580132027577
 30
0.0
 10
103.8703178993796
 20
-140.3580132027577
 30
0.0
 10
104.6487372242719
 20
-140.3580132027577
 30
0.0
 10
104.6487372242719
 20
-140.3580132027577
 30
0.0
 10
104.6487372242719
 20
-140.3580132027577
 30
0.0
 10
104.6487372242719
 20
-140.5631686389044
 30
0.0
 10
104.6487372242719
 20
-140.5631686389044
 30
0.0
 10
104.6487372242719
 20
-140.5631686389044
 30
0.0
 10
103.6207207314733
 20
-140.5631686389044
 30
0.0
 10
103.6207207314733
 20
-140.5631686389044
 30
0.0
 10
103.6524156099376
 20
-140.2055677275354
 30
0.0
 10
103.7180446789316
 20
-140.1273640600203
 30
0.0
 10
104.1030340994083
 20
-139.8290187909976
 30
0.0
 10
104.3590046939623
 20
-139.6302367814987
 30
0.0
 10
104.4244615081821
 20
-139.5625406552135
 30
0.0
 10
104.4244615081821
 20
-139.4250813453521
 30
0.0
 10
104.4244615081821
 20
-139.3065700606595
 30
0.0
 10
104.3526312673146
 20
-139.1754841774457
 30
0.0
 10
104.1559163151069
 20
-139.1754841774457
 30
0.0
 10
103.8956393511962
 20
-139.1754841774457
 30
0.0
 10
103.8871988672574
 20
-139.4059610654089
 30
0.0
 10
103.8828924979008
 20
-139.5224052928104
 30
0.0
 10
103.8828924979008
 20
-139.5224052928104
 30
0.0
 10
103.6587890365853
 20
-139.5224052928104
 30
0.0
 10
103.6587890365853
 20
-139.5224052928104
 30
0.0
 10
103.6672295205242
 20
-139.3954535241789
 30
0.0
 10
103.6777370617542
 20
-139.283315666134
 30
0.0
 10
103.7581800413348
 20
-139.1648043814415
 30
0.0
 10
103.8680785873142
 20
-139.0040906770545
 30
0.0
 10
104.054285998292
 20
-138.9701564865248
 30
0.0
 10
104.1707302256934
 20
-138.9701564865248
 30
0.0
 10
104.4478881574818
 20
-138.9701564865248
 30
0.0
 10
104.6551106509196
 20
-139.1542968402114
 30
0.0
 10
104.6551106509196
 20
-139.4271484026432
 30
0.0
 10
104.6551106509196
 20
-139.6555582333153
 30
0.0
 10
104.5388386782924
 20
-139.755121492839
 30
0.0
 10
104.2299858680397
 20
-139.9814642662199
 30
0.0
  0
HATCH
  5
8E
330
89
100
AcDbEntity
  8
_U+30EC_U+30A4_U+30E4_U+30FC 1
 62
   179
420
  2234388
100
AcDbHatch
 10
0.0
 20
0.0
 30
0.0
210
0.0
220
0.0
230
1.0
  2
SOLID
 70
     1
 71
     0
 91
        1
 92
        1
 93
        1
 72
     4
 94
        3
 73
     0
 74
     1
 95
       44
 96
       40
 40
0.0
 40
0.0
 40
0.0
 40
0.0
 40
1.0
 40
1.0
 40
1.0
 40
2.0
 40
2.0
 40
2.0
 40
3.0
 40
3.0
 40
3.0
 40
4.0
 40
4.0
 40
4.0
 40
5.0
 40
5.0
 40
5.0
 40
6.0
 40
6.0
 40
6.0
 40
7.0
 40
7.0
 40
7.0
 40
8.0
 40
8.0
 40
8.0
 40
9.0
 40
9.0
 40
9.0
 40
10.0
 40
10.0
 40
10.0
 40
11.0
 40
11.0
 40
11.0
 40
12.0
 40
12.0
 40
12.0
 40
13.0
 40
13.0
 40
13.0
 40
13.0
 10
104.2299858680397
 20
-139.9814642662199
 10
104.0120835785977
 20
-140.1401109133157
 10
103.9188937457217
 20
-140.2141804662485
 10
103.8703178993796
 20
-140.3580132027577
 10
103.8703178993796
 20
-140.3580132027577
 10
104.6487372242719
 20
-140.3580132027577
 10
104.6487372242719
 20
-140.3580132027577
 10
104.6487372242719
 20
-140.3580132027577
 10
104.6487372242719
 20
-140.5631686389044
 10
104.6487372242719
 20
-140.5631686389044
 10
104.6487372242719
 20
-140.5631686389044
 10
103.6207207314733
 20
-140.5631686389044
 10
103.6207207314733
 20
-140.5631686389044
 10
103.6524156099376
 20
-140.2055677275354
 10
103.7180446789316
 20
-140.1273640600203
 10
104.1030340994083
 20
-139.8290187909976
 10
104.3590046939623
 20
-139.6302367814987
 10
104.4244615081821
 20
-139.5625406552135
 10
104.4244615081821
 20
-139.4250813453521
 10
104.4244615081821
 20
-139.3065700606595
 10
104.3526312673146
 20
-139.1754841774457
 10
104.1559163151069
 20
-139.1754841774457
 10
103.8956393511962
 20
-139.1754841774457
 10
103.8871988672574
 20
-139.4059610654089
 10
103.8828924979008
 20
-139.5224052928104
 10
103.8828924979008
 20
-139.5224052928104
 10
103.6587890365853
 20
-139.5224052928104
 10
103.6587890365853
 20
-139.5224052928104
 10
103.6672295205242
 20
-139.3954535241789
 10
103.6777370617542
 20
-139.283315666134
 10
103.7581800413348
 20
-139.1648043814415
 10
103.8680785873142
 20
-139.0040906770545
 10
104.054285998292
 20
-138.9701564865248
 10
104.1707302256934
 20
-138.9701564865248
 10
104.4478881574818
 20
-138.9701564865248
 10
104.6551106509196
 20
-139.1542968402114
 10
104.6551106509196
 20
-139.4271484026432
 10
104.6551106509196
 20
-139.6555582333153
 10
104.5388386782924
 20
-139.755121492839
 10
104.2299858680397
 20
-139.9814642662199
 97
        0
 97
        0
 75
     2
 76
     1
 98
        0
  0
SPLINE
  5
8F
330
89
100
AcDbEntity
  8
_U+30EC_U+30A4_U+30E4_U+30FC 1
370
     0
100
AcDbSpline
210
0.0
220
0.0
230
1.0
 70
    11
 71
     3
 72
    53
 73
    49
 74
     0
 42
0.0000000001
 43
0.0000000001
 12
1.0
 22
0.0
 32
0.0
 13
1.0
 23
0.0
 33
0.0
 40
0.0
 40
0.0
 40
0.0
 40
0.0
 40
1.0
 40
1.0
 40
1.0
 40
2.0
 40
2.0
 40
2.0
 40
3.0
 40
3.0
 40
3.0
 40
4.0
 40
4.0
 40
4.0
 40
5.0
 40
5.0
 40
5.0
 40
6.0
 40
6.0
 40
6.0
 40
7.0
 40
7.0
 40
7.0
 40
8.0
 40
8.0
 40
8.0
 40
9.0
 40
9.0
 40
9.0
 40
10.0
 40
10.0
 40
10.0
 40
11.0
 40
11.0
 40
11.0
 40
12.0
 40
12.0
 40
12.0
 40
13.0
 40
13.0
 40
13.0
 40
14.0
 40
14.0
 40
14.0
 40
15.0
 40
15.0
 40
15.0
 40
16.0
 40
16.0
 40
16.0
 40
16.0
 10
105.2946926277562
 20
-140.6139837973118
 30
0.0
 10
105.2163167054668
 20
-140.6139837973118
 30
0.0
 10
105.1148586434261
 20
-140.5969305746598
 30
0.0
 10
105.0132283266113
 20
-140.5335408177312
 30
0.0
 10
104.839767768929
 20
-140.4234700169775
 30
0.0
 10
104.8185804316947
 20
-140.2923841337637
 30
0.0
 10
104.7996324065258
 20
-140.1845526450754
 30
0.0
 10
104.7996324065258
 20
-140.1845526450754
 30
0.0
 10
105.0216688105501
 20
-140.1845526450754
 30
0.0
 10
105.0216688105501
 20
-140.1845526450754
 30
0.0
 10
105.0767903383141
 20
-140.3833346545743
 30
0.0
 10
105.2037421069456
 20
-140.4129624757475
 30
0.0
 10
105.2967596850473
 20
-140.4129624757475
 30
0.0
 10
105.4364583069742
 20
-140.4129624757475
 30
0.0
 10
105.5887315274223
 20
-140.313571470998
 30
0.0
 10
105.5887315274223
 20
-140.0808552709694
 30
0.0
 10
105.5887315274223
 20
-139.8248846764153
 30
0.0
 10
105.4088975430922
 20
-139.755121492839
 30
0.0
 10
105.2883192011085
 20
-139.755121492839
 30
0.0
 10
105.2566243226442
 20
-139.755121492839
 30
0.0
 10
105.1148586434261
 20
-139.755121492839
 30
0.0
 10
105.0259751799067
 20
-139.8841403187616
 30
0.0
 10
105.0259751799067
 20
-139.8841403187616
 30
0.0
 10
104.8504475649332
 20
-139.8650200388185
 30
0.0
 10
104.8504475649332
 20
-139.8650200388185
 30
0.0
 10
104.8504475649332
 20
-139.8650200388185
 30
0.0
 10
104.971025906917
 20
-139.0189045876411
 30
0.0
 10
104.971025906917
 20
-139.0189045876411
 30
0.0
 10
104.971025906917
 20
-139.0189045876411
 30
0.0
 10
105.7492729770349
 20
-139.0189045876411
 30
0.0
 10
105.7492729770349
 20
-139.0189045876411
 30
0.0
 10
105.7492729770349
 20
-139.0189045876411
 30
0.0
 10
105.7492729770349
 20
-139.2135524825577
 30
0.0
 10
105.7492729770349
 20
-139.2135524825577
 30
0.0
 10
105.7492729770349
 20
-139.2135524825577
 30
0.0
 10
105.133806668595
 20
-139.2135524825577
 30
0.0
 10
105.133806668595
 20
-139.2135524825577
 30
0.0
 10
105.133806668595
 20
-139.2135524825577
 30
0.0
 10
105.0683498543753
 20
-139.6366102081464
 30
0.0
 10
105.0683498543753
 20
-139.6366102081464
 30
0.0
 10
105.1296725540127
 20
-139.6026760176167
 30
0.0
 10
105.2121825908845
 20
-139.5625406552135
 30
0.0
 10
105.3305216208028
 20
-139.5625406552135
 30
0.0
 10
105.58459741284
 20
-139.5625406552135
 30
0.0
 10
105.8216199822252
 20
-139.7487480661913
 30
0.0
 10
105.8216199822252
 20
-140.0617349910262
 30
0.0
 10
105.8216199822252
 20
-140.379200539992
 30
0.0
 10
105.5969997565869
 20
-140.6139837973118
 30
0.0
 10
105.2946926277562
 20
-140.6139837973118
 30
0.0
  0
HATCH
  5
90
330
89
100
AcDbEntity
  8
_U+30EC_U+30A4_U+30E4_U+30FC 1
 62
   179
420
  2234388
100
AcDbHatch
 10
0.0
 20
0.0
 30
0.0
210
0.0
220
0.0
230
1.0
  2
SOLID
 70
     1
 71
     0
 91
        1
 92
        1
 93
        1
 72
     4
 94
        3
 73
     0
 74
     1
 95
       53
 96
       49
 40
0.0
 40
0.0
 40
0.0
 40
0.0
 40
1.0
 40
1.0
 40
1.0
 40
2.0
 40
2.0
 40
2.0
 40
3.0
 40
3.0
 40
3.0
 40
4.0
 40
4.0
 40
4.0
 40
5.0
 40
5.0
 40
5.0
 40
6.0
 40
6.0
 40
6.0
 40
7.0
 40
7.0
 40
7.0
 40
8.0
 40
8.0
 40
8.0
 40
9.0
 40
9.0
 40
9.0
 40
10.0
 40
10.0
 40
10.0
 40
11.0
 40
11.0
 40
11.0
 40
12.0
 40
12.0
 40
12.0
 40
13.0
 40
13.0
 40
13.0
 40
14.0
 40
14.0
 40
14.0
 40
15.0
 40
15.0
 40
15.0
 40
16.0
 40
16.0
 40
16.0
 40
16.0
 10
105.2946926277562
 20
-140.6139837973118
 10
105.2163167054668
 20
-140.6139837973118
 10
105.1148586434261
 20
-140.5969305746598
 10
105.0132283266113
 20
-140.5335408177312
 10
104.839767768929
 20
-140.4234700169775
 10
104.8185804316947
 20
-140.2923841337637
 10
104.7996324065258
 20
-140.1845526450754
 10
104.7996324065258
 20
-140.1845526450754
 10
105.0216688105501
 20
-140.1845526450754
 10
105.0216688105501
 20
-140.1845526450754
 10
105.0767903383141
 20
-140.3833346545743
 10
105.2037421069456
 20
-140.4129624757475
 10
105.2967596850473
 20
-140.4129624757475
 10
105.4364583069742
 20
-140.4129624757475
 10
105.5887315274223
 20
-140.313571470998
 10
105.5887315274223
 20
-140.0808552709694
 10
105.5887315274223
 20
-139.8248846764153
 10
105.4088975430922
 20
-139.755121492839
 10
105.2883192011085
 20
-139.755121492839
 10
105.2566243226442
 20
-139.755121492839
 10
105.1148586434261
 20
-139.755121492839
 10
105.0259751799067
 20
-139.8841403187616
 10
105.0259751799067
 20
-139.8841403187616
 10
104.8504475649332
 20
-139.8650200388185
 10
104.8504475649332
 20
-139.8650200388185
 10
104.8504475649332
 20
-139.8650200388185
 10
104.971025906917
 20
-139.0189045876411
 10
104.971025906917
 20
-139.0189045876411
 10
104.971025906917
 20
-139.0189045876411
 10
105.7492729770349
 20
-139.0189045876411
 10
105.7492729770349
 20
-139.0189045876411
 10
105.7492729770349
 20
-139.0189045876411
 10
105.7492729770349
 20
-139.2135524825577
 10
105.7492729770349
 20
-139.2135524825577
 10
105.7492729770349
 20
-139.2135524825577
 10
105.133806668595
 20
-139.2135524825577
 10
105.133806668595
 20
-139.2135524825577
 10
105.133806668595
 20
-139.2135524825577
 10
105.0683498543753
 20
-139.6366102081464
 10
105.0683498543753
 20
-139.6366102081464
 10
105.1296725540127
 20
-139.6026760176167
 10
105.2121825908845
 20
-139.5625406552135
 10
105.3305216208028
 20
-139.5625406552135
 10
105.58459741284
 20
-139.5625406552135
 10
105.8216199822252
 20
-139.7487480661913
 10
105.8216199822252
 20
-140.0617349910262
 10
105.8216199822252
 20
-140.379200539992
 10
105.5969997565869
 20
-140.6139837973118
 10
105.2946926277562
 20
-140.6139837973118
 97
        0
 97
        0
 75
     2
 76
     1
 98
        0
  0
ENDBLK
  5
8C
330
89
100
AcDbEntity
  8
0
100
AcDbBlockEnd
  0
BLOCK
  5
93
330
91
100
AcDbEntity
  8
0
100
AcDbBlockBegin
  2
block 6
 70
     0
 10
0.0
 20
0.0
 30
0.0
  3
block 6
  1

  0
SPLINE
  5
95
330
91
100
AcDbEntity
  8
_U+30EC_U+30A4_U+30E4_U+30FC 1
370
     0
100
AcDbSpline
210
0.0
220
0.0
230
1.0
 70
    11
 71
     3
 72
    53
 73
    49
 74
     0
 42
0.0000000001
 43
0.0000000001
 12
1.0
 22
0.0
 32
0.0
 13
1.0
 23
0.0
 33
0.0
 40
0.0
 40
0.0
 40
0.0
 40
0.0
 40
1.0
 40
1.0
 40
1.0
 40
2.0
 40
2.0
 40
2.0
 40
3.0
 40
3.0
 40
3.0
 40
4.0
 40
4.0
 40
4.0
 40
5.0
 40
5.0
 40
5.0
 40
6.0
 40
6.0
 40
6.0
 40
7.0
 40
7.0
 40
7.0
 40
8.0
 40
8.0
 40
8.0
 40
9.0
 40
9.0
 40
9.0
 40
10.0
 40
10.0
 40
10.0
 40
11.0
 40
11.0
 40
11.0
 40
12.0
 40
12.0
 40
12.0
 40
13.0
 40
13.0
 40
13.0
 40
14.0
 40
14.0
 40
14.0
 40
15.0
 40
15.0
 40
15.0
 40
16.0
 40
16.0
 40
16.0
 40
16.0
 10
89.90235050920845
 20
-140.6139837973118
 30
0.0
 10
89.82397458691901
 20
-140.6139837973118
 30
0.0
 10
89.7225165248784
 20
-140.5969305746598
 30
0.0
 10
89.62088620806354
 20
-140.5335408177312
 30
0.0
 10
89.4474256503812
 20
-140.4234700169775
 30
0.0
 10
89.42623831314691
 20
-140.2923841337637
 30
0.0
 10
89.40729028797804
 20
-140.1845526450754
 30
0.0
 10
89.40729028797804
 20
-140.1845526450754
 30
0.0
 10
89.6293266920024
 20
-140.1845526450754
 30
0.0
 10
89.6293266920024
 20
-140.1845526450754
 30
0.0
 10
89.6844482197664
 20
-140.3833346545743
 30
0.0
 10
89.81139998839785
 20
-140.4129624757475
 30
0.0
 10
89.90441756649959
 20
-140.4129624757475
 30
0.0
 10
90.04411618842647
 20
-140.4129624757475
 30
0.0
 10
90.19638940887452
 20
-140.313571470998
 30
0.0
 10
90.19638940887452
 20
-140.0808552709694
 30
0.0
 10
90.19638940887452
 20
-139.8248846764153
 30
0.0
 10
90.01655542454448
 20
-139.755121492839
 30
0.0
 10
89.89597708256073
 20
-139.755121492839
 30
0.0
 10
89.86428220409644
 20
-139.755121492839
 30
0.0
 10
89.7225165248784
 20
-139.755121492839
 30
0.0
 10
89.63363306135896
 20
-139.8841403187616
 30
0.0
 10
89.63363306135896
 20
-139.8841403187616
 30
0.0
 10
89.45810544638547
 20
-139.8650200388185
 30
0.0
 10
89.45810544638547
 20
-139.8650200388185
 30
0.0
 10
89.45810544638547
 20
-139.8650200388185
 30
0.0
 10
89.57868378836922
 20
-139.0189045876411
 30
0.0
 10
89.57868378836922
 20
-139.0189045876411
 30
0.0
 10
89.57868378836922
 20
-139.0189045876411
 30
0.0
 10
90.35710311326142
 20
-139.0189045876411
 30
0.0
 10
90.35710311326142
 20
-139.0189045876411
 30
0.0
 10
90.35710311326142
 20
-139.0189045876411
 30
0.0
 10
90.35710311326142
 20
-139.2135524825577
 30
0.0
 10
90.35710311326142
 20
-139.2135524825577
 30
0.0
 10
90.35710311326142
 20
-139.2135524825577
 30
0.0
 10
89.74146455004728
 20
-139.2135524825577
 30
0.0
 10
89.74146455004728
 20
-139.2135524825577
 30
0.0
 10
89.74146455004728
 20
-139.2135524825577
 30
0.0
 10
89.67600773582753
 20
-139.6366102081464
 30
0.0
 10
89.67600773582753
 20
-139.6366102081464
 30
0.0
 10
89.73733043546498
 20
-139.6026760176167
 30
0.0
 10
89.81984047233671
 20
-139.5625406552135
 30
0.0
 10
89.93817950225504
 20
-139.5625406552135
 30
0.0
 10
90.19208303951795
 20
-139.5625406552135
 30
0.0
 10
90.42910560890314
 20
-139.7487480661913
 30
0.0
 10
90.42910560890314
 20
-140.0617349910262
 30
0.0
 10
90.42910560890314
 20
-140.379200539992
 30
0.0
 10
90.20482989281338
 20
-140.6139837973118
 30
0.0
 10
89.90235050920845
 20
-140.6139837973118
 30
0.0
  0
HATCH
  5
96
330
91
100
AcDbEntity
  8
_U+30EC_U+30A4_U+30E4_U+30FC 1
 62
   179
420
  2234388
100
AcDbHatch
 10
0.0
 20
0.0
 30
0.0
210
0.0
220
0.0
230
1.0
  2
SOLID
 70
     1
 71
     0
 91
        1
 92
        1
 93
        1
 72
     4
 94
        3
 73
     0
 74
     1
 95
       53
 96
       49
 40
0.0
 40
0.0
 40
0.0
 40
0.0
 40
1.0
 40
1.0
 40
1.0
 40
2.0
 40
2.0
 40
2.0
 40
3.0
 40
3.0
 40
3.0
 40
4.0
 40
4.0
 40
4.0
 40
5.0
 40
5.0
 40
5.0
 40
6.0
 40
6.0
 40
6.0
 40
7.0
 40
7.0
 40
7.0
 40
8.0
 40
8.0
 40
8.0
 40
9.0
 40
9.0
 40
9.0
 40
10.0
 40
10.0
 40
10.0
 40
11.0
 40
11.0
 40
11.0
 40
12.0
 40
12.0
 40
12.0
 40
13.0
 40
13.0
 40
13.0
 40
14.0
 40
14.0
 40
14.0
 40
15.0
 40
15.0
 40
15.0
 40
16.0
 40
16.0
 40
16.0
 40
16.0
 10
89.90235050920845
 20
-140.6139837973118
 10
89.82397458691901
 20
-140.6139837973118
 10
89.7225165248784
 20
-140.5969305746598
 10
89.62088620806354
 20
-140.5335408177312
 10
89.4474256503812
 20
-140.4234700169775
 10
89.42623831314691
 20
-140.2923841337637
 10
89.40729028797804
 20
-140.1845526450754
 10
89.40729028797804
 20
-140.1845526450754
 10
89.6293266920024
 20
-140.1845526450754
 10
89.6293266920024
 20
-140.1845526450754
 10
89.6844482197664
 20
-140.3833346545743
 10
89.81139998839785
 20
-140.4129624757475
 10
89.90441756649959
 20
-140.4129624757475
 10
90.04411618842647
 20
-140.4129624757475
 10
90.19638940887452
 20
-140.313571470998
 10
90.19638940887452
 20
-140.0808552709694
 10
90.19638940887452
 20
-139.8248846764153
 10
90.01655542454448
 20
-139.755121492839
 10
89.89597708256073
 20
-139.755121492839
 10
89.86428220409644
 20
-139.755121492839
 10
89.7225165248784
 20
-139.755121492839
 10
89.63363306135896
 20
-139.8841403187616
 10
89.63363306135896
 20
-139.8841403187616
 10
89.45810544638547
 20
-139.8650200388185
 10
89.45810544638547
 20
-139.8650200388185
 10
89.45810544638547
 20
-139.8650200388185
 10
89.57868378836922
 20
-139.0189045876411
 10
89.57868378836922
 20
-139.0189045876411
 10
89.57868378836922
 20
-139.0189045876411
 10
90.35710311326142
 20
-139.0189045876411
 10
90.35710311326142
 20
-139.0189045876411
 10
90.35710311326142
 20
-139.0189045876411
 10
90.35710311326142
 20
-139.2135524825577
 10
90.35710311326142
 20
-139.2135524825577
 10
90.35710311326142
 20
-139.2135524825577
 10
89.74146455004728
 20
-139.2135524825577
 10
89.74146455004728
 20
-139.2135524825577
 10
89.74146455004728
 20
-139.2135524825577
 10
89.67600773582753
 20
-139.6366102081464
 10
89.67600773582753
 20
-139.6366102081464
 10
89.73733043546498
 20
-139.6026760176167
 10
89.81984047233671
 20
-139.5625406552135
 10
89.93817950225504
 20
-139.5625406552135
 10
90.19208303951795
 20
-139.5625406552135
 10
90.42910560890314
 20
-139.7487480661913
 10
90.42910560890314
 20
-140.0617349910262
 10
90.42910560890314
 20
-140.379200539992
 10
90.20482989281338
 20
-140.6139837973118
 10
89.90235050920845
 20
-140.6139837973118
 97
        0
 97
        0
 75
     2
 76
     1
 98
        0
  0
ENDBLK
  5
94
330
91
100
AcDbEntity
  8
0
100
AcDbBlockEnd
  0
BLOCK
  5
A7
330
A5
100
AcDbEntity
  8
0
100
AcDbBlockBegin
  2
block 7
 70
     0
 10
0.0
 20
0.0
 30
0.0
  3
block 7
  1

  0
SPLINE
  5
A9
330
A5
100
AcDbEntity
  8
_U+30EC_U+30A4_U+30E4_U+30FC 1
370
     0
100
AcDbSpline
210
0.0
220
0.0
230
1.0
 70
    11
 71
     3
 72
    26
 73
    22
 74
     0
 42
0.0000000001
 43
0.0000000001
 12
1.0
 22
0.0
 32
0.0
 13
1.0
 23
0.0
 33
0.0
 40
0.0
 40
0.0
 40
0.0
 40
0.0
 40
1.0
 40
1.0
 40
1.0
 40
2.0
 40
2.0
 40
2.0
 40
3.0
 40
3.0
 40
3.0
 40
4.0
 40
4.0
 40
4.0
 40
5.0
 40
5.0
 40
5.0
 40
6.0
 40
6.0
 40
6.0
 40
7.0
 40
7.0
 40
7.0
 40
7.0
 10
91.71205916761018
 20
-157.8418727904007
 30
0.0
 10
91.71205916761018
 20
-157.8418727904007
 30
0.0
 10
91.71205916761018
 20
-156.7377196873781
 30
0.0
 10
91.71205916761018
 20
-156.7377196873781
 30
0.0
 10
91.71205916761018
 20
-156.7377196873781
 30
0.0
 10
91.38201902012325
 20
-156.7377196873781
 30
0.0
 10
91.38201902012325
 20
-156.7377196873781
 30
0.0
 10
91.38201902012325
 20
-156.7377196873781
 30
0.0
 10
91.38201902012325
 20
-156.5895805815123
 30
0.0
 10
91.38201902012325
 20
-156.5895805815123
 30
0.0
 10
91.71412622490134
 20
-156.5747666709258
 30
0.0
 10
91.76063501395221
 20
-156.4118136544734
 30
0.0
 10
91.79026283512536
 20
-156.2977809939117
 30
0.0
 10
91.79026283512536
 20
-156.2977809939117
 30
0.0
 10
91.93633488369994
 20
-156.2977809939117
 30
0.0
 10
91.93633488369994
 20
-156.2977809939117
 30
0.0
 10
91.93633488369994
 20
-156.2977809939117
 30
0.0
 10
91.93633488369994
 20
-157.8418727904007
 30
0.0
 10
91.93633488369994
 20
-157.8418727904007
 30
0.0
 10
91.93633488369994
 20
-157.8418727904007
 30
0.0
 10
91.71205916761018
 20
-157.8418727904007
 30
0.0
 10
91.71205916761018
 20
-157.8418727904007
 30
0.0
  0
HATCH
  5
AA
330
A5
100
AcDbEntity
  8
_U+30EC_U+30A4_U+30E4_U+30FC 1
 62
   179
420
  2234388
100
AcDbHatch
 10
0.0
 20
0.0
 30
0.0
210
0.0
220
0.0
230
1.0
  2
SOLID
 70
     1
 71
     0
 91
        1
 92
        1
 93
        1
 72
     4
 94
        3
 73
     0
 74
     1
 95
       26
 96
       22
 40
0.0
 40
0.0
 40
0.0
 40
0.0
 40
1.0
 40
1.0
 40
1.0
 40
2.0
 40
2.0
 40
2.0
 40
3.0
 40
3.0
 40
3.0
 40
4.0
 40
4.0
 40
4.0
 40
5.0
 40
5.0
 40
5.0
 40
6.0
 40
6.0
 40
6.0
 40
7.0
 40
7.0
 40
7.0
 40
7.0
 10
91.71205916761018
 20
-157.8418727904007
 10
91.71205916761018
 20
-157.8418727904007
 10
91.71205916761018
 20
-156.7377196873781
 10
91.71205916761018
 20
-156.7377196873781
 10
91.71205916761018
 20
-156.7377196873781
 10
91.38201902012325
 20
-156.7377196873781
 10
91.38201902012325
 20
-156.7377196873781
 10
91.38201902012325
 20
-156.7377196873781
 10
91.38201902012325
 20
-156.5895805815123
 10
91.38201902012325
 20
-156.5895805815123
 10
91.71412622490134
 20
-156.5747666709258
 10
91.76063501395221
 20
-156.4118136544734
 10
91.79026283512536
 20
-156.2977809939117
 10
91.79026283512536
 20
-156.2977809939117
 10
91.93633488369994
 20
-156.2977809939117
 10
91.93633488369994
 20
-156.2977809939117
 10
91.93633488369994
 20
-156.2977809939117
 10
91.93633488369994
 20
-157.8418727904007
 10
91.93633488369994
 20
-157.8418727904007
 10
91.93633488369994
 20
-157.8418727904007
 10
91.71205916761018
 20
-157.8418727904007
 10
91.71205916761018
 20
-157.8418727904007
 97
        0
 97
        0
 75
     2
 76
     1
 98
        0
  0
SPLINE
  5
AB
330
A5
100
AcDbEntity
  8
_U+30EC_U+30A4_U+30E4_U+30FC 1
370
     0
100
AcDbSpline
210
0.0
220
0.0
230
1.0
 70
    11
 71
     3
 72
    29
 73
    25
 74
     0
 42
0.0000000001
 43
0.0000000001
 12
1.0
 22
0.0
 32
0.0
 13
1.0
 23
0.0
 33
0.0
 40
0.0
 40
0.0
 40
0.0
 40
0.0
 40
1.0
 40
1.0
 40
1.0
 40
2.0
 40
2.0
 40
2.0
 40
3.0
 40
3.0
 40
3.0
 40
4.0
 40
4.0
 40
4.0
 40
5.0
 40
5.0
 40
5.0
 40
6.0
 40
6.0
 40
6.0
 40
7.0
 40
7.0
 40
7.0
 40
8.0
 40
8.0
 40
8.0
 40
8.0
 10
93.33521590548564
 20
-157.6641058633618
 30
0.0
 10
93.22738441679732
 20
-157.873567668865
 30
0.0
 10
93.053923859115
 20
-157.8928602035824
 30
0.0
 10
92.93747963171356
 20
-157.8928602035824
 30
0.0
 10
92.77676592732665
 20
-157.8928602035824
 30
0.0
 10
92.63500024810861
 20
-157.8463514145315
 30
0.0
 10
92.53974335794146
 20
-157.6641058633618
 30
0.0
 10
92.4362182386097
 20
-157.4694579684451
 30
0.0
 10
92.41709795866656
 20
-157.2327799086085
 30
0.0
 10
92.41709795866656
 20
-157.0698268921562
 30
0.0
 10
92.41709795866656
 20
-156.9258219008727
 30
0.0
 10
92.43397892654428
 20
-156.6743299304495
 30
0.0
 10
92.53974335794146
 20
-156.475203411402
 30
0.0
 10
92.64774710140404
 20
-156.2722872873208
 30
0.0
 10
92.80846080579094
 20
-156.2488606380211
 30
0.0
 10
92.93747963171356
 20
-156.2488606380211
 30
0.0
 10
93.09612627880931
 20
-156.2488606380211
 30
0.0
 10
93.23995901531849
 20
-156.2933023697809
 30
0.0
 10
93.33521590548564
 20
-156.475203411402
 30
0.0
 10
93.4346069102351
 20
-156.6677842490275
 30
0.0
 10
93.45786130476054
 20
-156.8961940796996
 30
0.0
 10
93.45786130476054
 20
-157.0698268921562
 30
0.0
 10
93.45786130476054
 20
-157.2410481377731
 30
0.0
 10
93.43684622230052
 20
-157.4718695352848
 30
0.0
 10
93.33521590548564
 20
-157.6641058633618
 30
0.0
  0
SPLINE
  5
AC
330
A5
100
AcDbEntity
  8
_U+30EC_U+30A4_U+30E4_U+30FC 1
370
     0
100
AcDbSpline
210
0.0
220
0.0
230
1.0
 70
    11
 71
     3
 72
    17
 73
    13
 74
     0
 42
0.0000000001
 43
0.0000000001
 12
1.0
 22
0.0
 32
0.0
 13
1.0
 23
0.0
 33
0.0
 40
0.0
 40
0.0
 40
0.0
 40
0.0
 40
1.0
 40
1.0
 40
1.0
 40
2.0
 40
2.0
 40
2.0
 40
3.0
 40
3.0
 40
3.0
 40
4.0
 40
4.0
 40
4.0
 40
4.0
 10
92.93747963171356
 20
-156.4414414756466
 30
0.0
 10
92.6878824638072
 20
-156.4414414756466
 30
0.0
 10
92.64137367475632
 20
-156.7249728340826
 30
0.0
 10
92.64137367475632
 20
-157.0698268921562
 30
0.0
 10
92.64137367475632
 20
-157.3891872436388
 30
0.0
 10
92.67737492257719
 20
-157.6982123086657
 30
0.0
 10
92.93747963171356
 20
-157.6982123086657
 30
0.0
 10
93.18500974232875
 20
-157.6982123086657
 30
0.0
 10
93.23375784344503
 20
-157.4167480075208
 30
0.0
 10
93.23375784344503
 20
-157.0698268921562
 30
0.0
 10
93.23375784344503
 20
-156.7504665406735
 30
0.0
 10
93.19568953833303
 20
-156.4414414756466
 30
0.0
 10
92.93747963171356
 20
-156.4414414756466
 30
0.0
  0
HATCH
  5
AD
330
A5
100
AcDbEntity
  8
_U+30EC_U+30A4_U+30E4_U+30FC 1
 62
   179
420
  2234388
100
AcDbHatch
 10
0.0
 20
0.0
 30
0.0
210
0.0
220
0.0
230
1.0
  2
SOLID
 70
     1
 71
     0
 91
        2
 92
        1
 93
        1
 72
     4
 94
        3
 73
     0
 74
     1
 95
       29
 96
       25
 40
0.0
 40
0.0
 40
0.0
 40
0.0
 40
1.0
 40
1.0
 40
1.0
 40
2.0
 40
2.0
 40
2.0
 40
3.0
 40
3.0
 40
3.0
 40
4.0
 40
4.0
 40
4.0
 40
5.0
 40
5.0
 40
5.0
 40
6.0
 40
6.0
 40
6.0
 40
7.0
 40
7.0
 40
7.0
 40
8.0
 40
8.0
 40
8.0
 40
8.0
 10
93.33521590548564
 20
-157.6641058633618
 10
93.22738441679732
 20
-157.873567668865
 10
93.053923859115
 20
-157.8928602035824
 10
92.93747963171356
 20
-157.8928602035824
 10
92.77676592732665
 20
-157.8928602035824
 10
92.63500024810861
 20
-157.8463514145315
 10
92.53974335794146
 20
-157.6641058633618
 10
92.4362182386097
 20
-157.4694579684451
 10
92.41709795866656
 20
-157.2327799086085
 10
92.41709795866656
 20
-157.0698268921562
 10
92.41709795866656
 20
-156.9258219008727
 10
92.43397892654428
 20
-156.6743299304495
 10
92.53974335794146
 20
-156.475203411402
 10
92.64774710140404
 20
-156.2722872873208
 10
92.80846080579094
 20
-156.2488606380211
 10
92.93747963171356
 20
-156.2488606380211
 10
93.09612627880931
 20
-156.2488606380211
 10
93.23995901531849
 20
-156.2933023697809
 10
93.33521590548564
 20
-156.475203411402
 10
93.4346069102351
 20
-156.6677842490275
 10
93.45786130476054
 20
-156.8961940796996
 10
93.45786130476054
 20
-157.0698268921562
 10
93.45786130476054
 20
-157.2410481377731
 10
93.43684622230052
 20
-157.4718695352848
 10
93.33521590548564
 20
-157.6641058633618
 97
        0
 97
        0
 92
        1
 93
        1
 72
     4
 94
        3
 73
     0
 74
     1
 95
       17
 96
       13
 40
0.0
 40
0.0
 40
0.0
 40
0.0
 40
1.0
 40
1.0
 40
1.0
 40
2.0
 40
2.0
 40
2.0
 40
3.0
 40
3.0
 40
3.0
 40
4.0
 40
4.0
 40
4.0
 40
4.0
 10
92.93747963171356
 20
-156.4414414756466
 10
92.6878824638072
 20
-156.4414414756466
 10
92.64137367475632
 20
-156.7249728340826
 10
92.64137367475632
 20
-157.0698268921562
 10
92.64137367475632
 20
-157.3891872436388
 10
92.67737492257719
 20
-157.6982123086657
 10
92.93747963171356
 20
-157.6982123086657
 10
93.18500974232875
 20
-157.6982123086657
 10
93.23375784344503
 20
-157.4167480075208
 10
93.23375784344503
 20
-157.0698268921562
 10
93.23375784344503
 20
-156.7504665406735
 10
93.19568953833303
 20
-156.4414414756466
 10
92.93747963171356
 20
-156.4414414756466
 97
        0
 97
        0
 75
     2
 76
     1
 98
        0
  0
ENDBLK
  5
A8
330
A5
100
AcDbEntity
  8
0
100
AcDbBlockEnd
  0
ENDSEC
  0
SECTION
  2
ENTITIES
  0
SPLINE
  5
41
330
1F
100
AcDbEntity
  8
_U+30EC_U+30A4_U+30E4_U+30FC 1
 62
   179
420
  2234388
370
     9
100
AcDbSpline
210
0.0
220
0.0
230
1.0
 70
    11
 71
     3
 72
    17
 73
    13
 74
     0
 42
0.0000000001
 43
0.0000000001
 12
1.0
 22
0.0
 32
0.0
 13
1.0
 23
0.0
 33
0.0
 40
0.0
 40
0.0
 40
0.0
 40
0.0
 40
1.0
 40
1.0
 40
1.0
 40
2.0
 40
2.0
 40
2.0
 40
3.0
 40
3.0
 40
3.0
 40
4.0
 40
4.0
 40
4.0
 40
4.0
 10
120.0342591303511
 20
-154.4170603048202
 30
0.0
 10
120.0342591303511
 20
-154.4720957051971
 30
0.0
 10
120.0790615205445
 20
-154.5169034783521
 30
0.0
 10
120.1340915379596
 20
-154.5169034783521
 30
0.0
 10
120.1891269383365
 20
-154.5169034783521
 30
0.0
 10
120.2339293285299
 20
-154.4720957051971
 30
0.0
 10
120.2339293285299
 20
-154.4170603048202
 30
0.0
 10
120.2339293285299
 20
-154.3620464362901
 30
0.0
 10
120.1891269383365
 20
-154.3172386631351
 30
0.0
 10
120.1340915379596
 20
-154.3172386631351
 30
0.0
 10
120.0790615205445
 20
-154.3172386631351
 30
0.0
 10
120.0342591303511
 20
-154.3620464362901
 30
0.0
 10
120.0342591303511
 20
-154.4170603048202
 30
0.0
  0
SPLINE
  5
42
330
1F
100
AcDbEntity
  8
_U+30EC_U+30A4_U+30E4_U+30FC 1
 62
   179
420
  2234388
370
     9
100
AcDbSpline
210
0.0
220
0.0
230
1.0
 70
    11
 71
     3
 72
    17
 73
    13
 74
     0
 42
0.0000000001
 43
0.0000000001
 12
1.0
 22
0.0
 32
0.0
 13
1.0
 23
0.0
 33
0.0
 40
0.0
 40
0.0
 40
0.0
 40
0.0
 40
1.0
 40
1.0
 40
1.0
 40
2.0
 40
2.0
 40
2.0
 40
3.0
 40
3.0
 40
3.0
 40
4.0
 40
4.0
 40
4.0
 40
4.0
 10
120.0342591303511
 20
-144.7203222972621
 30
0.0
 10
120.0342591303511
 20
-144.775357697639
 30
0.0
 10
120.0790615205445
 20
-144.8201654707937
 30
0.0
 10
120.1340915379596
 20
-144.8201654707937
 30
0.0
 10
120.1891269383365
 20
-144.8201654707937
 30
0.0
 10
120.2339293285299
 20
-144.775357697639
 30
0.0
 10
120.2339293285299
 20
-144.7203222972621
 30
0.0
 10
120.2339293285299
 20
-144.6645978777882
 30
0.0
 10
120.1891269383365
 20
-144.6197901046328
 30
0.0
 10
120.1340915379596
 20
-144.6197901046328
 30
0.0
 10
120.0790615205445
 20
-144.6197901046328
 30
0.0
 10
120.0342591303511
 20
-144.6645978777882
 30
0.0
 10
120.0342591303511
 20
-144.7203222972621
 30
0.0
  0
POLYLINE
  5
43
330
1F
100
AcDbEntity
  8
_U+30EC_U+30A4_U+30E4_U+30FC 1
 62
   179
420
  2234388
370
     9
100
AcDb2dPolyline
 66
     1
 10
0.0
 20
0.0
 30
0.0
  0
VERTEX
  5
44
330
43
100
AcDbEntity
  8
_U+30EC_U+30A4_U+30E4_U+30FC 1
 62
   179
420
  2234388
370
     9
100
AcDbVertex
100
AcDb2dVertex
 10
120.1341668994234
 20
-140.1497356488276
 30
0.0
  0
VERTEX
  5
45
330
43
100
AcDbEntity
  8
_U+30EC_U+30A4_U+30E4_U+30FC 1
 62
   179
420
  2234388
370
     9
100
AcDbVertex
100
AcDb2dVertex
 10
120.1341668994234
 20
-154.4171464322073
 30
0.0
  0
SEQEND
  5
46
330
43
100
AcDbEntity
  8
_U+30EC_U+30A4_U+30E4_U+30FC 1
 62
   179
420
  2234388
370
     9
  0
POLYLINE
  5
47
330
1F
100
AcDbEntity
  8
_U+30EC_U+30A4_U+30E4_U+30FC 1
 62
   179
420
  2234388
370
     9
100
AcDb2dPolyline
 66
     1
 10
0.0
 20
0.0
 30
0.0
  0
VERTEX
  5
48
330
47
100
AcDbEntity
  8
_U+30EC_U+30A4_U+30E4_U+30FC 1
 62
   179
420
  2234388
370
     9
100
AcDbVertex
100
AcDb2dVertex
 10
118.5101542706383
 20
-144.7203222972621
 30
0.0
  0
VERTEX
  5
49
330
47
100
AcDbEntity
  8
_U+30EC_U+30A4_U+30E4_U+30FC 1
 62
   179
420
  2234388
370
     9
100
AcDbVertex
100
AcDb2dVertex
 10
121.1341112469788
 20
-144.7203222972621
 30
0.0
  0
SEQEND
  5
4A
330
47
100
AcDbEntity
  8
_U+30EC_U+30A4_U+30E4_U+30FC 1
 62
   179
420
  2234388
370
     9
  0
SPLINE
  5
4B
330
1F
100
AcDbEntity
  8
_U+30EC_U+30A4_U+30E4_U+30FC 1
 62
   179
420
  2234388
370
     9
100
AcDbSpline
210
0.0
220
0.0
230
1.0
 70
    11
 71
     3
 72
    17
 73
    13
 74
     0
 42
0.0000000001
 43
0.0000000001
 12
1.0
 22
0.0
 32
0.0
 13
1.0
 23
0.0
 33
0.0
 40
0.0
 40
0.0
 40
0.0
 40
0.0
 40
1.0
 40
1.0
 40
1.0
 40
2.0
 40
2.0
 40
2.0
 40
3.0
 40
3.0
 40
3.0
 40
4.0
 40
4.0
 40
4.0
 40
4.0
 10
120.0342591303511
 20
-143.92034959374
 30
0.0
 10
120.0342591303511
 20
-143.9753849941168
 30
0.0
 10
120.0790615205445
 20
-144.0201927672722
 30
0.0
 10
120.1340915379596
 20
-144.0201927672722
 30
0.0
 10
120.1891269383365
 20
-144.0201927672722
 30
0.0
 10
120.2339293285299
 20
-143.9753849941168
 30
0.0
 10
120.2339293285299
 20
-143.92034959374
 30
0.0
 10
120.2339293285299
 20
-143.8646251742661
 30
0.0
 10
120.1891269383365
 20
-143.819817401111
 30
0.0
 10
120.1340915379596
 20
-143.819817401111
 30
0.0
 10
120.0790615205445
 20
-143.819817401111
 30
0.0
 10
120.0342591303511
 20
-143.8646251742661
 30
0.0
 10
120.0342591303511
 20
-143.92034959374
 30
0.0
  0
POLYLINE
  5
4C
330
1F
100
AcDbEntity
  8
_U+30EC_U+30A4_U+30E4_U+30FC 1
 62
   179
420
  2234388
370
     9
100
AcDb2dPolyline
 66
     1
 10
0.0
 20
0.0
 30
0.0
  0
VERTEX
  5
4D
330
4C
100
AcDbEntity
  8
_U+30EC_U+30A4_U+30E4_U+30FC 1
 62
   179
420
  2234388
370
     9
100
AcDbVertex
100
AcDb2dVertex
 10
118.5101542706383
 20
-143.92034959374
 30
0.0
  0
VERTEX
  5
4E
330
4C
100
AcDbEntity
  8
_U+30EC_U+30A4_U+30E4_U+30FC 1
 62
   179
420
  2234388
370
     9
100
AcDbVertex
100
AcDb2dVertex
 10
121.1341112469788
 20
-143.92034959374
 30
0.0
  0
SEQEND
  5
4F
330
4C
100
AcDbEntity
  8
_U+30EC_U+30A4_U+30E4_U+30FC 1
 62
   179
420
  2234388
370
     9
  0
POLYLINE
  5
50
330
1F
100
AcDbEntity
  8
_U+30EC_U+30A4_U+30E4_U+30FC 1
 62
   179
420
  2234388
370
     9
100
AcDb2dPolyline
 66
     1
 10
0.0
 20
0.0
 30
0.0
  0
VERTEX
  5
51
330
50
100
AcDbEntity
  8
_U+30EC_U+30A4_U+30E4_U+30FC 1
 62
   179
420
  2234388
370
     9
100
AcDbVertex
100
AcDb2dVertex
 10
98.5094909421695
 20
-154.4170603048202
 30
0.0
  0
VERTEX
  5
52
330
50
100
AcDbEntity
  8
_U+30EC_U+30A4_U+30E4_U+30FC 1
 62
   179
420
  2234388
370
     9
100
AcDbVertex
100
AcDb2dVertex
 10
121.1338367159324
 20
-154.4170603048202
 30
0.0
  0
SEQEND
  5
53
330
50
100
AcDbEntity
  8
_U+30EC_U+30A4_U+30E4_U+30FC 1
 62
   179
420
  2234388
370
     9
  0
SPLINE
  5
54
330
1F
100
AcDbEntity
  8
_U+30EC_U+30A4_U+30E4_U+30FC 1
 62
   179
420
  2234388
370
     9
100
AcDbSpline
210
0.0
220
0.0
230
1.0
 70
    11
 71
     3
 72
    17
 73
    13
 74
     0
 42
0.0000000001
 43
0.0000000001
 12
1.0
 22
0.0
 32
0.0
 13
1.0
 23
0.0
 33
0.0
 40
0.0
 40
0.0
 40
0.0
 40
0.0
 40
1.0
 40
1.0
 40
1.0
 40
2.0
 40
2.0
 40
2.0
 40
3.0
 40
3.0
 40
3.0
 40
4.0
 40
4.0
 40
4.0
 40
4.0
 10
120.0342591303511
 20
-151.4170711562647
 30
0.0
 10
120.0342591303511
 20
-151.4721065566415
 30
0.0
 10
120.0790615205445
 20
-151.5169143297965
 30
0.0
 10
120.1340915379596
 20
-151.5169143297965
 30
0.0
 10
120.1891269383365
 20
-151.5169143297965
 30
0.0
 10
120.2339293285299
 20
-151.4721065566415
 30
0.0
 10
120.2339293285299
 20
-151.4170711562647
 30
0.0
 10
120.2339293285299
 20
-151.3620572877346
 30
0.0
 10
120.1891269383365
 20
-151.3172495145795
 30
0.0
 10
120.1340915379596
 20
-151.3172495145795
 30
0.0
 10
120.0790615205445
 20
-151.3172495145795
 30
0.0
 10
120.0342591303511
 20
-151.3620572877346
 30
0.0
 10
120.0342591303511
 20
-151.4170711562647
 30
0.0
  0
POLYLINE
  5
55
330
1F
100
AcDbEntity
  8
_U+30EC_U+30A4_U+30E4_U+30FC 1
 62
   179
420
  2234388
370
     9
100
AcDb2dPolyline
 66
     1
 10
0.0
 20
0.0
 30
0.0
  0
VERTEX
  5
56
330
55
100
AcDbEntity
  8
_U+30EC_U+30A4_U+30E4_U+30FC 1
 62
   179
420
  2234388
370
     9
100
AcDbVertex
100
AcDb2dVertex
 10
98.5094909421695
 20
-151.4170711562647
 30
0.0
  0
VERTEX
  5
57
330
55
100
AcDbEntity
  8
_U+30EC_U+30A4_U+30E4_U+30FC 1
 62
   179
420
  2234388
370
     9
100
AcDbVertex
100
AcDb2dVertex
 10
121.1338367159324
 20
-151.4170711562647
 30
0.0
  0
SEQEND
  5
58
330
55
100
AcDbEntity
  8
_U+30EC_U+30A4_U+30E4_U+30FC 1
 62
   179
420
  2234388
370
     9
  0
INSERT
  5
5A
330
1F
100
AcDbEntity
  8
_U+30EC_U+30A4_U+30E4_U+30FC 1
100
AcDbBlockReference
  2
block 2
 10
0.0
 20
0.0
 30
0.0
  0
INSERT
  5
6B
330
1F
100
AcDbEntity
  8
_U+30EC_U+30A4_U+30E4_U+30FC 1
100
AcDbBlockReference
  2
block 3
 10
0.0
 20
0.0
 30
0.0
  0
INSERT
  5
71
330
1F
100
AcDbEntity
  8
_U+30EC_U+30A4_U+30E4_U+30FC 1
100
AcDbBlockReference
  2
block 4
 10
0.0
 20
0.0
 30
0.0
  0
POLYLINE
  5
76
330
1F
100
AcDbEntity
  8
_U+30EC_U+30A4_U+30E4_U+30FC 1
 62
   179
420
  2234388
370
     9
100
AcDb2dPolyline
 66
     1
 10
0.0
 20
0.0
 30
0.0
  0
VERTEX
  5
77
330
76
100
AcDbEntity
  8
_U+30EC_U+30A4_U+30E4_U+30FC 1
 62
   179
420
  2234388
370
     9
100
AcDbVertex
100
AcDb2dVertex
 10
117.3601706317385
 20
-141.1401790689904
 30
0.0
  0
VERTEX
  5
78
330
76
100
AcDbEntity
  8
_U+30EC_U+30A4_U+30E4_U+30FC 1
 62
   179
420
  2234388
370
     9
100
AcDbVertex
100
AcDb2dVertex
 10
87.34160296057969
 20
-141.1401790689904
 30
0.0
  0
SEQEND
  5
79
330
76
100
AcDbEntity
  8
_U+30EC_U+30A4_U+30E4_U+30FC 1
 62
   179
420
  2234388
370
     9
  0
SPLINE
  5
7A
330
1F
100
AcDbEntity
  8
_U+30EC_U+30A4_U+30E4_U+30FC 1
 62
   179
420
  2234388
370
     9
100
AcDbSpline
210
0.0
220
0.0
230
1.0
 70
    11
 71
     3
 72
    17
 73
    13
 74
     0
 42
0.0000000001
 43
0.0000000001
 12
1.0
 22
0.0
 32
0.0
 13
1.0
 23
0.0
 33
0.0
 40
0.0
 40
0.0
 40
0.0
 40
0.0
 40
1.0
 40
1.0
 40
1.0
 40
2.0
 40
2.0
 40
2.0
 40
3.0
 40
3.0
 40
3.0
 40
4.0
 40
4.0
 40
4.0
 40
4.0
 10
92.36032655314283
 20
-141.0402712999182
 30
0.0
 10
92.30529115276596
 20
-141.0402712999182
 30
0.0
 10
92.26048876257263
 20
-141.0850790730729
 30
0.0
 10
92.26048876257263
 20
-141.1401144734498
 30
0.0
 10
92.26048876257263
 20
-141.1951498738267
 30
0.0
 10
92.30529115276596
 20
-141.2399576469817
 30
0.0
 10
92.36032655314283
 20
-141.2399576469817
 30
0.0
 10
92.41535926203885
 20
-141.2399576469817
 30
0.0
 10
92.46016165223219
 20
-141.1951498738267
 30
0.0
 10
92.46016165223219
 20
-141.1401144734498
 30
0.0
 10
92.46016165223219
 20
-141.0850790730729
 30
0.0
 10
92.41535926203885
 20
-141.0402712999182
 30
0.0
 10
92.36032655314283
 20
-141.0402712999182
 30
0.0
  0
POLYLINE
  5
7B
330
1F
100
AcDbEntity
  8
_U+30EC_U+30A4_U+30E4_U+30FC 1
 62
   179
420
  2234388
370
     9
100
AcDb2dPolyline
 66
     1
 10
0.0
 20
0.0
 30
0.0
  0
VERTEX
  5
7C
330
7B
100
AcDbEntity
  8
_U+30EC_U+30A4_U+30E4_U+30FC 1
 62
   179
420
  2234388
370
     9
100
AcDbVertex
100
AcDb2dVertex
 10
92.36032655314283
 20
-139.6799753475673
 30
0.0
  0
VERTEX
  5
7D
330
7B
100
AcDbEntity
  8
_U+30EC_U+30A4_U+30E4_U+30FC 1
 62
   179
420
  2234388
370
     9
100
AcDbVertex
100
AcDb2dVertex
 10
92.36032655314283
 20
-142.4203550194622
 30
0.0
  0
SEQEND
  5
7E
330
7B
100
AcDbEntity
  8
_U+30EC_U+30A4_U+30E4_U+30FC 1
 62
   179
420
  2234388
370
     9
  0
SPLINE
  5
7F
330
1F
100
AcDbEntity
  8
_U+30EC_U+30A4_U+30E4_U+30FC 1
 62
   179
420
  2234388
370
     9
100
AcDbSpline
210
0.0
220
0.0
230
1.0
 70
    11
 71
     3
 72
    17
 73
    13
 74
     0
 42
0.0000000001
 43
0.0000000001
 12
1.0
 22
0.0
 32
0.0
 13
1.0
 23
0.0
 33
0.0
 40
0.0
 40
0.0
 40
0.0
 40
0.0
 40
1.0
 40
1.0
 40
1.0
 40
2.0
 40
2.0
 40
2.0
 40
3.0
 40
3.0
 40
3.0
 40
4.0
 40
4.0
 40
4.0
 40
4.0
 10
87.36047831576568
 20
-141.0402712999182
 30
0.0
 10
87.30544291538881
 20
-141.0402712999182
 30
0.0
 10
87.26064052519548
 20
-141.0850790730729
 30
0.0
 10
87.26064052519548
 20
-141.1401144734498
 30
0.0
 10
87.26064052519548
 20
-141.1951498738267
 30
0.0
 10
87.30544291538881
 20
-141.2399576469817
 30
0.0
 10
87.36047831576568
 20
-141.2399576469817
 30
0.0
 10
87.4155110246617
 20
-141.2399576469817
 30
0.0
 10
87.46031341485504
 20
-141.1951498738267
 30
0.0
 10
87.46031341485504
 20
-141.1401144734498
 30
0.0
 10
87.46031341485504
 20
-141.0850790730729
 30
0.0
 10
87.4155110246617
 20
-141.0402712999182
 30
0.0
 10
87.36047831576568
 20
-141.0402712999182
 30
0.0
  0
POLYLINE
  5
80
330
1F
100
AcDbEntity
  8
_U+30EC_U+30A4_U+30E4_U+30FC 1
 62
   179
420
  2234388
370
     9
100
AcDb2dPolyline
 66
     1
 10
0.0
 20
0.0
 30
0.0
  0
VERTEX
  5
81
330
80
100
AcDbEntity
  8
_U+30EC_U+30A4_U+30E4_U+30FC 1
 62
   179
420
  2234388
370
     9
100
AcDbVertex
100
AcDb2dVertex
 10
87.36047831576568
 20
-139.6799753475673
 30
0.0
  0
VERTEX
  5
82
330
80
100
AcDbEntity
  8
_U+30EC_U+30A4_U+30E4_U+30FC 1
 62
   179
420
  2234388
370
     9
100
AcDbVertex
100
AcDb2dVertex
 10
87.36047831576568
 20
-142.4203550194622
 30
0.0
  0
SEQEND
  5
83
330
80
100
AcDbEntity
  8
_U+30EC_U+30A4_U+30E4_U+30FC 1
 62
   179
420
  2234388
370
     9
  0
SPLINE
  5
84
330
1F
100
AcDbEntity
  8
_U+30EC_U+30A4_U+30E4_U+30FC 1
 62
   179
420
  2234388
370
     9
100
AcDbSpline
210
0.0
220
0.0
230
1.0
 70
    11
 71
     3
 72
    17
 73
    13
 74
     0
 42
0.0000000001
 43
0.0000000001
 12
1.0
 22
0.0
 32
0.0
 13
1.0
 23
0.0
 33
0.0
 40
0.0
 40
0.0
 40
0.0
 40
0.0
 40
1.0
 40
1.0
 40
1.0
 40
2.0
 40
2.0
 40
2.0
 40
3.0
 40
3.0
 40
3.0
 40
4.0
 40
4.0
 40
4.0
 40
4.0
 10
117.3601706317385
 20
-141.0402712999182
 30
0.0
 10
117.3051352313617
 20
-141.0402712999182
 30
0.0
 10
117.2603328411683
 20
-141.0850790730729
 30
0.0
 10
117.2603328411683
 20
-141.1401144734498
 30
0.0
 10
117.2603328411683
 20
-141.1951498738267
 30
0.0
 10
117.3051352313617
 20
-141.2399576469817
 30
0.0
 10
117.3601706317385
 20
-141.2399576469817
 30
0.0
 10
117.4152006491537
 20
-141.2399576469817
 30
0.0
 10
117.460003039347
 20
-141.1951498738267
 30
0.0
 10
117.460003039347
 20
-141.1401144734498
 30
0.0
 10
117.460003039347
 20
-141.0850790730729
 30
0.0
 10
117.4152006491537
 20
-141.0402712999182
 30
0.0
 10
117.3601706317385
 20
-141.0402712999182
 30
0.0
  0
POLYLINE
  5
85
330
1F
100
AcDbEntity
  8
_U+30EC_U+30A4_U+30E4_U+30FC 1
 62
   179
420
  2234388
370
     9
100
AcDb2dPolyline
 66
     1
 10
0.0
 20
0.0
 30
0.0
  0
VERTEX
  5
86
330
85
100
AcDbEntity
  8
_U+30EC_U+30A4_U+30E4_U+30FC 1
 62
   179
420
  2234388
370
     9
100
AcDbVertex
100
AcDb2dVertex
 10
117.3601706317385
 20
-139.6799753475673
 30
0.0
  0
VERTEX
  5
87
330
85
100
AcDbEntity
  8
_U+30EC_U+30A4_U+30E4_U+30FC 1
 62
   179
420
  2234388
370
     9
100
AcDbVertex
100
AcDb2dVertex
 10
117.3601706317385
 20
-142.4203550194622
 30
0.0
  0
SEQEND
  5
88
330
85
100
AcDbEntity
  8
_U+30EC_U+30A4_U+30E4_U+30FC 1
 62
   179
420
  2234388
370
     9
  0
INSERT
  5
8A
330
1F
100
AcDbEntity
  8
_U+30EC_U+30A4_U+30E4_U+30FC 1
100
AcDbBlockReference
  2
block 5
 10
0.0
 20
0.0
 30
0.0
  0
INSERT
  5
92
330
1F
100
AcDbEntity
  8
_U+30EC_U+30A4_U+30E4_U+30FC 1
100
AcDbBlockReference
  2
block 6
 10
0.0
 20
0.0
 30
0.0
  0
SPLINE
  5
97
330
1F
100
AcDbEntity
  8
_U+30EC_U+30A4_U+30E4_U+30FC 1
 62
   179
420
  2234388
370
     9
100
AcDbSpline
210
0.0
220
0.0
230
1.0
 70
    11
 71
     3
 72
    17
 73
    13
 74
     0
 42
0.0000000001
 43
0.0000000001
 12
1.0
 22
0.0
 32
0.0
 13
1.0
 23
0.0
 33
0.0
 40
0.0
 40
0.0
 40
0.0
 40
0.0
 40
1.0
 40
1.0
 40
1.0
 40
2.0
 40
2.0
 40
2.0
 40
3.0
 40
3.0
 40
3.0
 40
4.0
 40
4.0
 40
4.0
 40
4.0
 10
87.4414407511499
 20
-158.4361086979127
 30
0.0
 10
87.4414407511499
 20
-158.3810948293826
 30
0.0
 10
87.39663566947571
 20
-158.3362870562276
 30
0.0
 10
87.34089779259756
 20
-158.3362870562276
 30
0.0
 10
87.28586508370154
 20
-158.3362870562276
 30
0.0
 10
87.24106269350821
 20
-158.3810948293826
 30
0.0
 10
87.24106269350821
 20
-158.4361086979127
 30
0.0
 10
87.24106269350821
 20
-158.4911440982895
 30
0.0
 10
87.28586508370154
 20
-158.5359518714446
 30
0.0
 10
87.34089779259756
 20
-158.5359518714446
 30
0.0
 10
87.39663566947571
 20
-158.5359518714446
 30
0.0
 10
87.4414407511499
 20
-158.4911440982895
 30
0.0
 10
87.4414407511499
 20
-158.4361086979127
 30
0.0
  0
POLYLINE
  5
98
330
1F
100
AcDbEntity
  8
_U+30EC_U+30A4_U+30E4_U+30FC 1
 62
   179
420
  2234388
370
     9
100
AcDb2dPolyline
 66
     1
 10
0.0
 20
0.0
 30
0.0
  0
VERTEX
  5
99
330
98
100
AcDbEntity
  8
_U+30EC_U+30A4_U+30E4_U+30FC 1
 62
   179
420
  2234388
370
     9
100
AcDbVertex
100
AcDb2dVertex
 10
87.34082781409552
 20
-158.4361086979127
 30
0.0
  0
VERTEX
  5
9A
330
98
100
AcDbEntity
  8
_U+30EC_U+30A4_U+30E4_U+30FC 1
 62
   179
420
  2234388
370
     9
100
AcDbVertex
100
AcDb2dVertex
 10
97.34066693733476
 20
-158.4361086979127
 30
0.0
  0
SEQEND
  5
9B
330
98
100
AcDbEntity
  8
_U+30EC_U+30A4_U+30E4_U+30FC 1
 62
   179
420
  2234388
370
     9
  0
POLYLINE
  5
9C
330
1F
100
AcDbEntity
  8
_U+30EC_U+30A4_U+30E4_U+30FC 1
 62
   179
420
  2234388
370
     9
100
AcDb2dPolyline
 66
     1
 10
0.0
 20
0.0
 30
0.0
  0
VERTEX
  5
9D
330
9C
100
AcDbEntity
  8
_U+30EC_U+30A4_U+30E4_U+30FC 1
 62
   179
420
  2234388
370
     9
100
AcDbVertex
100
AcDb2dVertex
 10
87.34082781409552
 20
-155.9756215023473
 30
0.0
  0
VERTEX
  5
9E
330
9C
100
AcDbEntity
  8
_U+30EC_U+30A4_U+30E4_U+30FC 1
 62
   179
420
  2234388
370
     9
100
AcDbVertex
100
AcDb2dVertex
 10
87.34082781409552
 20
-159.4360261306597
 30
0.0
  0
SEQEND
  5
9F
330
9C
100
AcDbEntity
  8
_U+30EC_U+30A4_U+30E4_U+30FC 1
 62
   179
420
  2234388
370
     9
  0
SPLINE
  5
A0
330
1F
100
AcDbEntity
  8
_U+30EC_U+30A4_U+30E4_U+30FC 1
 62
   179
420
  2234388
370
     9
100
AcDbSpline
210
0.0
220
0.0
230
1.0
 70
    11
 71
     3
 72
    17
 73
    13
 74
     0
 42
0.0000000001
 43
0.0000000001
 12
1.0
 22
0.0
 32
0.0
 13
1.0
 23
0.0
 33
0.0
 40
0.0
 40
0.0
 40
0.0
 40
0.0
 40
1.0
 40
1.0
 40
1.0
 40
2.0
 40
2.0
 40
2.0
 40
3.0
 40
3.0
 40
3.0
 40
4.0
 40
4.0
 40
4.0
 40
4.0
 10
97.44117221515523
 20
-158.4361086979127
 30
0.0
 10
97.44117221515523
 20
-158.3810948293826
 30
0.0
 10
97.39636713348105
 20
-158.3362870562276
 30
0.0
 10
97.3406292566029
 20
-158.3362870562276
 30
0.0
 10
97.28559654770687
 20
-158.3362870562276
 30
0.0
 10
97.24079415751353
 20
-158.3810948293826
 30
0.0
 10
97.24079415751353
 20
-158.4361086979127
 30
0.0
 10
97.24079415751353
 20
-158.4911440982895
 30
0.0
 10
97.28559654770687
 20
-158.5359518714446
 30
0.0
 10
97.3406292566029
 20
-158.5359518714446
 30
0.0
 10
97.39636713348105
 20
-158.5359518714446
 30
0.0
 10
97.44117221515523
 20
-158.4911440982895
 30
0.0
 10
97.44117221515523
 20
-158.4361086979127
 30
0.0
  0
POLYLINE
  5
A1
330
1F
100
AcDbEntity
  8
_U+30EC_U+30A4_U+30E4_U+30FC 1
 62
   179
420
  2234388
370
     9
100
AcDb2dPolyline
 66
     1
 10
0.0
 20
0.0
 30
0.0
  0
VERTEX
  5
A2
330
A1
100
AcDbEntity
  8
_U+30EC_U+30A4_U+30E4_U+30FC 1
 62
   179
420
  2234388
370
     9
100
AcDbVertex
100
AcDb2dVertex
 10
97.3405619695817
 20
-155.9756215023473
 30
0.0
  0
VERTEX
  5
A3
330
A1
100
AcDbEntity
  8
_U+30EC_U+30A4_U+30E4_U+30FC 1
 62
   179
420
  2234388
370
     9
100
AcDbVertex
100
AcDb2dVertex
 10
97.3405619695817
 20
-159.4360261306597
 30
0.0
  0
SEQEND
  5
A4
330
A1
100
AcDbEntity
  8
_U+30EC_U+30A4_U+30E4_U+30FC 1
 62
   179
420
  2234388
370
     9
  0
INSERT
  5
A6
330
1F
100
AcDbEntity
  8
_U+30EC_U+30A4_U+30E4_U+30FC 1
100
AcDbBlockReference
  2
block 7
 10
0.0
 20
0.0
 30
0.0
  0
POLYLINE
  5
AE
330
1F
100
AcDbEntity
  8
_U+30EC_U+30A4_U+30E4_U+30FC 1
 62
   179
420
  2234388
370
    25
100
AcDb2dPolyline
 66
     1
 10
0.0
 20
0.0
 30
0.0
  0
VERTEX
  5
AF
330
AE
100
AcDbEntity
  8
_U+30EC_U+30A4_U+30E4_U+30FC 1
 62
   179
420
  2234388
370
    25
100
AcDbVertex
100
AcDb2dVertex
 10
96.35941492426763
 20
-153.4172720631539
 30
0.0
  0
VERTEX
  5
B0
330
AE
100
AcDbEntity
  8
_U+30EC_U+30A4_U+30E4_U+30FC 1
 62
   179
420
  2234388
370
    25
100
AcDbVertex
100
AcDb2dVertex
 10
93.36044853843426
 20
-153.4172720631539
 30
0.0
  0
VERTEX
  5
B1
330
AE
100
AcDbEntity
  8
_U+30EC_U+30A4_U+30E4_U+30FC 1
 62
   179
420
  2234388
370
    25
100
AcDbVertex
100
AcDb2dVertex
 10
93.36044853843426
 20
-144.920267026487
 30
0.0
  0
VERTEX
  5
B2
330
AE
100
AcDbEntity
  8
_U+30EC_U+30A4_U+30E4_U+30FC 1
 62
   179
420
  2234388
370
    25
100
AcDbVertex
100
AcDb2dVertex
 10
117.3602729080107
 20
-144.920267026487
 30
0.0
  0
VERTEX
  5
B3
330
AE
100
AcDbEntity
  8
_U+30EC_U+30A4_U+30E4_U+30FC 1
 62
   179
420
  2234388
370
    25
100
AcDbVertex
100
AcDb2dVertex
 10
117.3602729080107
 20
-143.9205003166674
 30
0.0
  0
VERTEX
  5
B4
330
AE
100
AcDbEntity
  8
_U+30EC_U+30A4_U+30E4_U+30FC 1
 62
   179
420
  2234388
370
    25
100
AcDbVertex
100
AcDb2dVertex
 10
92.35997127767092
 20
-143.9205003166674
 30
0.0
  0
VERTEX
  5
B5
330
AE
100
AcDbEntity
  8
_U+30EC_U+30A4_U+30E4_U+30FC 1
 62
   179
420
  2234388
370
    25
100
AcDbVertex
100
AcDb2dVertex
 10
92.35997127767092
 20
-153.4172720631539
 30
0.0
  0
VERTEX
  5
B6
330
AE
100
AcDbEntity
  8
_U+30EC_U+30A4_U+30E4_U+30FC 1
 62
   179
420
  2234388
370
    25
100
AcDbVertex
100
AcDb2dVertex
 10
88.36335368596446
 20
-153.4172720631539
 30
0.0
  0
VERTEX
  5
B7
330
AE
100
AcDbEntity
  8
_U+30EC_U+30A4_U+30E4_U+30FC 1
 62
   179
420
  2234388
370
    25
100
AcDbVertex
100
AcDb2dVertex
 10
87.35934789380958
 20
-154.4170603048202
 30
0.0
  0
VERTEX
  5
B8
330
AE
100
AcDbEntity
  8
_U+30EC_U+30A4_U+30E4_U+30FC 1
 62
   179
420
  2234388
370
    25
100
AcDbVertex
100
AcDb2dVertex
 10
97.3595396010399
 20
-154.4170603048202
 30
0.0
  0
VERTEX
  5
B9
330
AE
100
AcDbEntity
  8
_U+30EC_U+30A4_U+30E4_U+30FC 1
 62
   179
420
  2234388
370
    25
100
AcDbVertex
100
AcDb2dVertex
 10
97.3595396010399
 20
-151.4170280925711
 30
0.0
  0
VERTEX
  5
BA
330
AE
100
AcDbEntity
  8
_U+30EC_U+30A4_U+30E4_U+30FC 1
 62
   179
420
  2234388
370
    25
100
AcDbVertex
100
AcDb2dVertex
 10
96.35941492426763
 20
-151.4170280925711
 30
0.0
  0
VERTEX
  5
BB
330
AE
100
AcDbEntity
  8
_U+30EC_U+30A4_U+30E4_U+30FC 1
 62
   179
420
  2234388
370
    25
100
AcDbVertex
100
AcDb2dVertex
 10
96.35941492426763
 20
-153.4172720631539
 30
0.0
  0
SEQEND
  5
BC
330
AE
100
AcDbEntity
  8
_U+30EC_U+30A4_U+30E4_U+30FC 1
 62
   179
420
  2234388
370
    25
  0
ENDSEC
  0
SECTION
  2
OBJECTS
  0
DICTIONARY
  5
C
330
0
100
AcDbDictionary
281
     1
  3
ACAD_GROUP
350
D
  3
ACAD_LAYOUT
350
1A
  3
ACAD_MATERIAL
350
3B
  3
ACAD_MLEADERSTYLE
350
BE
  3
ACAD_MLINESTYLE
350
17
  3
ACAD_PLOTSETTINGS
350
19
  3
ACAD_PLOTSTYLENAME
350
E
  3
ACAD_TABLESTYLE
350
BD
  3
ACAD_VISUALSTYLE
350
2A
  0
SUN
  5
3F
330
29
100
AcDbSun
 90
        1
290
     0
 63
     7
421
 16777215
 40
1.0
291
     1
 91
  2455826
 92
 54000000
292
     0
 70
     2
 71
   256
280
     1
  0
DICTIONARY
  5
D
102
{ACAD_REACTORS
330
C
102
}
330
C
100
AcDbDictionary
281
     1
  0
DICTIONARY
  5
1A
102
{ACAD_REACTORS
330
C
102
}
330
C
100
AcDbDictionary
281
     1
  3
Layout1
350
1E
  3
Layout2
350
26
  3
Model
350
22
  0
DICTIONARY
  5
3B
102
{ACAD_REACTORS
330
C
102
}
330
C
100
AcDbDictionary
281
     1
  3
ByBlock
350
3D
  3
ByLayer
350
3C
  3
Global
350
3E
  0
DICTIONARY
  5
BE
102
{ACAD_REACTORS
330
C
102
}
330
C
100
AcDbDictionary
281
     1
  0
DICTIONARY
  5
17
102
{ACAD_REACTORS
330
C
102
}
330
C
100
AcDbDictionary
281
     1
  3
Standard
350
18
  0
DICTIONARY
  5
19
102
{ACAD_REACTORS
330
C
102
}
330
C
100
AcDbDictionary
281
     1
  0
ACDBDICTIONARYWDFLT
  5
E
102
{ACAD_REACTORS
330
C
102
}
330
C
100
AcDbDictionary
281
     1
  3
Normal
350
F
100
AcDbDictionaryWithDefault
340
F
  0
DICTIONARY
  5
BD
102
{ACAD_REACTORS
330
C
102
}
330
C
100
AcDbDictionary
281
     1
  0
DICTIONARY
  5
2A
102
{ACAD_REACTORS
330
C
102
}
330
C
100
AcDbDictionary
281
     1
  3
2dWireframe
350
2F
  3
3D Hidden
350
31
  3
3dWireframe
350
30
  3
Basic
350
32
  3
Brighten
350
36
  3
ColorChange
350
3A
  3
Conceptual
350
34
  3
Dim
350
35
  3
Facepattern
350
39
  3
Flat
350
2B
  3
FlatWithEdges
350
2C
  3
Gouraud
350
2D
  3
GouraudWithEdges
350
2E
  3
Linepattern
350
38
  3
Realistic
350
33
  3
Thicken
350
37
  0
LAYOUT
  5
1E
102
{ACAD_REACTORS
330
1A
102
}
330
1A
100
AcDbPlotSettings
  1

  2
none_device
  4

  6

 40
0.0
 41
0.0
 42
0.0
 43
0.0
 44
0.0
 45
0.0
 46
0.0
 47
0.0
 48
0.0
 49
0.0
140
0.0
141
0.0
142
1.0
143
1.0
 70
   688
 72
     0
 73
     0
 74
     5
  7

 75
    16
 76
     0
 77
     2
 78
   300
147
1.0
148
0.0
149
0.0
100
AcDbLayout
  1
Layout1
 70
     1
 71
     1
 10
0.0
 20
0.0
 11
12.0
 21
9.0
 12
0.0
 22
0.0
 32
0.0
 14
1.000000000000000E+20
 24
1.000000000000000E+20
 34
1.000000000000000E+20
 15
-1.000000000000000E+20
 25
-1.000000000000000E+20
 35
-1.000000000000000E+20
146
0.0
 13
0.0
 23
0.0
 33
0.0
 16
1.0
 26
0.0
 36
0.0
 17
0.0
 27
1.0
 37
0.0
 76
     0
330
1B
  0
LAYOUT
  5
26
102
{ACAD_REACTORS
330
1A
102
}
330
1A
100
AcDbPlotSettings
  1

  2
none_device
  4

  6

 40
0.0
 41
0.0
 42
0.0
 43
0.0
 44
0.0
 45
0.0
 46
0.0
 47
0.0
 48
0.0
 49
0.0
140
0.0
141
0.0
142
1.0
143
1.0
 70
   688
 72
     0
 73
     0
 74
     5
  7

 75
    16
 76
     0
 77
     2
 78
   300
147
1.0
148
0.0
149
0.0
100
AcDbLayout
  1
Layout2
 70
     1
 71
     2
 10
0.0
 20
0.0
 11
0.0
 21
0.0
 12
0.0
 22
0.0
 32
0.0
 14
0.0
 24
0.0
 34
0.0
 15
0.0
 25
0.0
 35
0.0
146
0.0
 13
0.0
 23
0.0
 33
0.0
 16
1.0
 26
0.0
 36
0.0
 17
0.0
 27
1.0
 37
0.0
 76
     0
330
23
  0
LAYOUT
  5
22
102
{ACAD_REACTORS
330
1A
102
}
330
1A
100
AcDbPlotSettings
  1

  2
none_device
  4

  6

 40
0.0
 41
0.0
 42
0.0
 43
0.0
 44
0.0
 45
0.0
 46
0.0
 47
0.0
 48
0.0
 49
0.0
140
0.0
141
0.0
142
1.0
143
1.0
 70
  1712
 72
     0
 73
     0
 74
     0
  7

 75
     0
 76
     0
 77
     2
 78
   300
147
1.0
148
0.0
149
0.0
100
AcDbLayout
  1
Model
 70
     1
 71
     0
 10
0.0
 20
0.0
 11
12.0
 21
9.0
 12
0.0
 22
0.0
 32
0.0
 14
1.000000000000000E+20
 24
1.000000000000000E+20
 34
1.000000000000000E+20
 15
-1.000000000000000E+20
 25
-1.000000000000000E+20
 35
-1.000000000000000E+20
146
0.0
 13
0.0
 23
0.0
 33
0.0
 16
1.0
 26
0.0
 36
0.0
 17
0.0
 27
1.0
 37
0.0
 76
     0
330
1F
331
29
  0
MATERIAL
  5
3D
102
{ACAD_REACTORS
330
3B
102
}
330
3B
100
AcDbMaterial
  1
ByBlock
 72
     1
 94
      127
  0
MATERIAL
  5
3C
102
{ACAD_REACTORS
330
3B
102
}
330
3B
100
AcDbMaterial
  1
ByLayer
 72
     1
 94
      127
  0
MATERIAL
  5
3E
102
{ACAD_REACTORS
330
3B
102
}
330
3B
100
AcDbMaterial
  1
Global
 72
     1
 94
      127
  0
MLINESTYLE
  5
18
102
{ACAD_REACTORS
330
17
102
}
330
17
100
AcDbMlineStyle
  2
Standard
 70
     0
  3

 62
   256
 51
90.0
 52
90.0
 71
     2
 49
0.5
 62
   256
  6
BYLAYER
 49
-0.5
 62
   256
  6
BYLAYER
  0
ACDBPLACEHOLDER
  5
F
102
{ACAD_REACTORS
330
E
102
}
330
E
  0
VISUALSTYLE
  5
2F
102
{ACAD_REACTORS
330
2A
102
}
330
2A
100
AcDbVisualStyle
  2
2dWireframe
 70
     4
177
     2
291
     0
 71
     0
176
     1
 72
     2
176
     1
 73
     0
176
     1
 90
        0
176
     1
 40
-0.6
176
     1
 41
-30.0
176
     1
 62
     5
 63
     7
421
 16777215
176
     1
 74
     1
176
     1
 91
        4
176
     1
 64
     7
176
     1
 65
   257
176
     1
 75
     1
176
     1
175
     1
176
     1
 42
1.0
176
     1
 92
        0
176
     1
 66
   257
176
     1
 43
1.0
176
     1
 76
     1
176
     1
 77
     6
176
     1
 78
     2
176
     1
 67
     7
176
     1
 79
     5
176
     1
170
     0
176
     1
171
     0
176
     1
290
     0
176
     1
 93
        1
176
     1
 44
0.0
176
     1
173
     0
176
     1
  0
VISUALSTYLE
  5
31
102
{ACAD_REACTORS
330
2A
102
}
330
2A
100
AcDbVisualStyle
  2
3D Hidden
 70
     6
177
     2
291
     0
 71
     1
176
     1
 72
     2
176
     1
 73
     2
176
     1
 90
        0
176
     1
 40
-0.6
176
     1
 41
-30.0
176
     1
 62
     5
 63
     7
421
 16777215
176
     1
 74
     2
176
     1
 91
        2
176
     1
 64
     7
176
     1
 65
   257
176
     1
 75
     2
176
     1
175
     1
176
     1
 42
40.0
176
     1
 92
        0
176
     1
 66
   257
176
     1
 43
1.0
176
     1
 76
     1
176
     1
 77
     6
176
     1
 78
     2
176
     1
 67
     7
176
     1
 79
     3
176
     1
170
     0
176
     1
171
     0
176
     1
290
     0
176
     1
 93
        1
176
     1
 44
0.0
176
     1
173
     0
176
     1
  0
VISUALSTYLE
  5
30
102
{ACAD_REACTORS
330
2A
102
}
330
2A
100
AcDbVisualStyle
  2
3dWireframe
 70
     5
177
     2
291
     0
 71
     0
176
     1
 72
     2
176
     1
 73
     0
176
     1
 90
        0
176
     1
 40
-0.6
176
     1
 41
-30.0
176
     1
 62
     5
 63
     7
421
 16777215
176
     1
 74
     1
176
     1
 91
        4
176
     1
 64
     7
176
     1
 65
   257
176
     1
 75
     1
176
     1
175
     1
176
     1
 42
1.0
176
     1
 92
        0
176
     1
 66
   257
176
     1
 43
1.0
176
     1
 76
     1
176
     1
 77
     6
176
     1
 78
     2
176
     1
 67
     7
176
     1
 79
     5
176
     1
170
     0
176
     1
171
     0
176
     1
290
     0
176
     1
 93
        1
176
     1
 44
0.0
176
     1
173
     0
176
     1
  0
VISUALSTYLE
  5
32
102
{ACAD_REACTORS
330
2A
102
}
330
2A
100
AcDbVisualStyle
  2
Basic
 70
     7
177
     2
291
     1
 71
     1
176
     1
 72
     0
176
     1
 73
     1
176
     1
 90
        0
176
     1
 40
-0.6
176
     1
 41
-30.0
176
     1
 62
     5
 63
     7
421
 16777215
176
     1
 74
     0
176
     1
 91
        4
176
     1
 64
     7
176
     1
 65
   257
176
     1
 75
     1
176
     1
175
     1
176
     1
 42
1.0
176
     1
 92
        8
176
     1
 66
     7
176
     1
 43
1.0
176
     1
 76
     1
176
     1
 77
     6
176
     1
 78
     2
176
     1
 67
     7
176
     1
 79
     5
176
     1
170
     0
176
     1
171
     0
176
     1
290
     0
176
     1
 93
        1
176
     1
 44
0.0
176
     1
173
     0
176
     1
  0
VISUALSTYLE
  5
36
102
{ACAD_REACTORS
330
2A
102
}
330
2A
100
AcDbVisualStyle
  2
Brighten
 70
    12
177
     2
291
     1
 71
     2
176
     1
 72
     2
176
     1
 73
     0
176
     1
 90
        0
176
     1
 40
-0.6
176
     1
 41
-30.0
176
     1
 62
     5
 63
     7
421
 16777215
176
     1
 74
     1
176
     1
 91
        4
176
     1
 64
     7
176
     1
 65
   257
176
     1
 75
     1
176
     1
175
     1
176
     1
 42
1.0
176
     1
 92
        8
176
     1
 66
     7
176
     1
 43
1.0
176
     1
 76
     1
176
     1
 77
     6
176
     1
 78
     2
176
     1
 67
     7
176
     1
 79
     5
176
     1
170
     0
176
     1
171
     0
176
     1
290
     0
176
     1
 93
        1
176
     1
 44
50.0
176
     1
173
     0
176
     1
  0
VISUALSTYLE
  5
3A
102
{ACAD_REACTORS
330
2A
102
}
330
2A
100
AcDbVisualStyle
  2
ColorChange
 70
    16
177
     2
291
     1
 71
     2
176
     1
 72
     2
176
     1
 73
     3
176
     1
 90
        0
176
     1
 40
-0.6
176
     1
 41
-30.0
176
     1
 62
     5
 63
     8
421
  8421504
176
     1
 74
     1
176
     1
 91
        4
176
     1
 64
     7
176
     1
 65
   257
176
     1
 75
     1
176
     1
175
     1
176
     1
 42
1.0
176
     1
 92
        8
176
     1
 66
     8
424
  8421504
176
     1
 43
1.0
176
     1
 76
     1
176
     1
 77
     6
176
     1
 78
     2
176
     1
 67
     7
176
     1
 79
     5
176
     1
170
     0
176
     1
171
     0
176
     1
290
     0
176
     1
 93
        1
176
     1
 44
0.0
176
     1
173
     0
176
     1
  0
VISUALSTYLE
  5
34
102
{ACAD_REACTORS
330
2A
102
}
330
2A
100
AcDbVisualStyle
  2
Conceptual
 70
     9
177
     2
291
     0
 71
     3
176
     1
 72
     2
176
     1
 73
     0
176
     1
 90
        0
176
     1
 40
-0.6
176
     1
 41
-30.0
176
     1
 62
     5
 63
     7
421
 16777215
176
     1
 74
     2
176
     1
 91
        2
176
     1
 64
     7
176
     1
 65
   257
176
     1
 75
     1
176
     1
175
     1
176
     1
 42
40.0
176
     1
 92
        8
176
     1
 66
     7
176
     1
 43
1.0
176
     1
 76
     1
176
     1
 77
     6
176
     1
 78
     2
176
     1
 67
     7
176
     1
 79
     3
176
     1
170
     0
176
     1
171
     0
176
     1
290
     0
176
     1
 93
        1
176
     1
 44
0.0
176
     1
173
     0
176
     1
  0
VISUALSTYLE
  5
35
102
{ACAD_REACTORS
330
2A
102
}
330
2A
100
AcDbVisualStyle
  2
Dim
 70
    11
177
     2
291
     1
 71
     2
176
     1
 72
     2
176
     1
 73
     0
176
     1
 90
        0
176
     1
 40
-0.6
176
     1
 41
-30.0
176
     1
 62
     5
 63
     7
421
 16777215
176
     1
 74
     1
176
     1
 91
        4
176
     1
 64
     7
176
     1
 65
   257
176
     1
 75
     1
176
     1
175
     1
176
     1
 42
1.0
176
     1
 92
        8
176
     1
 66
     7
176
     1
 43
1.0
176
     1
 76
     1
176
     1
 77
     6
176
     1
 78
     2
176
     1
 67
     7
176
     1
 79
     5
176
     1
170
     0
176
     1
171
     0
176
     1
290
     0
176
     1
 93
        1
176
     1
 44
-50.0
176
     1
173
     0
176
     1
  0
VISUALSTYLE
  5
39
102
{ACAD_REACTORS
330
2A
102
}
330
2A
100
AcDbVisualStyle
  2
Facepattern
 70
    15
177
     2
291
     1
 71
     2
176
     1
 72
     2
176
     1
 73
     0
176
     1
 90
        0
176
     1
 40
-0.6
176
     1
 41
-30.0
176
     1
 62
     5
 63
     7
421
 16777215
176
     1
 74
     1
176
     1
 91
        4
176
     1
 64
     7
176
     1
 65
   257
176
     1
 75
     1
176
     1
175
     1
176
     1
 42
1.0
176
     1
 92
        8
176
     1
 66
     7
176
     1
 43
1.0
176
     1
 76
     1
176
     1
 77
     6
176
     1
 78
     2
176
     1
 67
     7
176
     1
 79
     5
176
     1
170
     0
176
     1
171
     0
176
     1
290
     0
176
     1
 93
        1
176
     1
 44
0.0
176
     1
173
     0
176
     1
  0
VISUALSTYLE
  5
2B
102
{ACAD_REACTORS
330
2A
102
}
330
2A
100
AcDbVisualStyle
  2
Flat
 70
     0
177
     2
291
     1
 71
     2
176
     1
 72
     1
176
     1
 73
     1
176
     1
 90
        2
176
     1
 40
-0.6
176
     1
 41
30.0
176
     1
 62
     5
 63
     7
421
 16777215
176
     1
 74
     0
176
     1
 91
        4
176
     1
 64
     7
176
     1
 65
   257
176
     1
 75
     1
176
     1
175
     1
176
     1
 42
1.0
176
     1
 92
        8
176
     1
 66
     7
176
     1
 43
1.0
176
     1
 76
     1
176
     1
 77
     6
176
     1
 78
     2
176
     1
 67
     7
176
     1
 79
     5
176
     1
170
     0
176
     1
171
     0
176
     1
290
     0
176
     1
 93
       13
176
     1
 44
0.0
176
     1
173
     0
176
     1
  0
VISUALSTYLE
  5
2C
102
{ACAD_REACTORS
330
2A
102
}
330
2A
100
AcDbVisualStyle
  2
FlatWithEdges
 70
     1
177
     2
291
     1
 71
     2
176
     1
 72
     1
176
     1
 73
     1
176
     1
 90
        2
176
     1
 40
-0.6
176
     1
 41
30.0
176
     1
 62
     5
 63
     7
421
 16777215
176
     1
 74
     1
176
     1
 91
        4
176
     1
 64
     7
176
     1
 65
   257
176
     1
 75
     1
176
     1
175
     1
176
     1
 42
1.0
176
     1
 92
        0
176
     1
 66
   257
176
     1
 43
1.0
176
     1
 76
     1
176
     1
 77
     6
176
     1
 78
     2
176
     1
 67
     7
176
     1
 79
     5
176
     1
170
     0
176
     1
171
     0
176
     1
290
     0
176
     1
 93
       13
176
     1
 44
0.0
176
     1
173
     0
176
     1
  0
VISUALSTYLE
  5
2D
102
{ACAD_REACTORS
330
2A
102
}
330
2A
100
AcDbVisualStyle
  2
Gouraud
 70
     2
177
     2
291
     1
 71
     2
176
     1
 72
     2
176
     1
 73
     1
176
     1
 90
        2
176
     1
 40
-0.6
176
     1
 41
30.0
176
     1
 62
     5
 63
     7
421
 16777215
176
     1
 74
     0
176
     1
 91
        4
176
     1
 64
     7
176
     1
 65
   257
176
     1
 75
     1
176
     1
175
     1
176
     1
 42
1.0
176
     1
 92
        0
176
     1
 66
     7
176
     1
 43
1.0
176
     1
 76
     1
176
     1
 77
     6
176
     1
 78
     2
176
     1
 67
     7
176
     1
 79
     5
176
     1
170
     0
176
     1
171
     0
176
     1
290
     0
176
     1
 93
       13
176
     1
 44
0.0
176
     1
173
     0
176
     1
  0
VISUALSTYLE
  5
2E
102
{ACAD_REACTORS
330
2A
102
}
330
2A
100
AcDbVisualStyle
  2
GouraudWithEdges
 70
     3
177
     2
291
     1
 71
     2
176
     1
 72
     2
176
     1
 73
     1
176
     1
 90
        2
176
     1
 40
-0.6
176
     1
 41
30.0
176
     1
 62
     5
 63
     7
421
 16777215
176
     1
 74
     1
176
     1
 91
        4
176
     1
 64
     7
176
     1
 65
   257
176
     1
 75
     1
176
     1
175
     1
176
     1
 42
1.0
176
     1
 92
        0
176
     1
 66
   257
176
     1
 43
1.0
176
     1
 76
     1
176
     1
 77
     6
176
     1
 78
     2
176
     1
 67
     7
176
     1
 79
     5
176
     1
170
     0
176
     1
171
     0
176
     1
290
     0
176
     1
 93
       13
176
     1
 44
0.0
176
     1
173
     0
176
     1
  0
VISUALSTYLE
  5
38
102
{ACAD_REACTORS
330
2A
102
}
330
2A
100
AcDbVisualStyle
  2
Linepattern
 70
    14
177
     2
291
     1
 71
     2
176
     1
 72
     2
176
     1
 73
     0
176
     1
 90
        0
176
     1
 40
-0.6
176
     1
 41
-30.0
176
     1
 62
     5
 63
     7
421
 16777215
176
     1
 74
     1
176
     1
 91
        4
176
     1
 64
     7
176
     1
 65
   257
176
     1
 75
     7
176
     1
175
     7
176
     1
 42
1.0
176
     1
 92
        8
176
     1
 66
     7
176
     1
 43
1.0
176
     1
 76
     1
176
     1
 77
     6
176
     1
 78
     2
176
     1
 67
     7
176
     1
 79
     5
176
     1
170
     0
176
     1
171
     0
176
     1
290
     0
176
     1
 93
        1
176
     1
 44
0.0
176
     1
173
     0
176
     1
  0
VISUALSTYLE
  5
33
102
{ACAD_REACTORS
330
2A
102
}
330
2A
100
AcDbVisualStyle
  2
Realistic
 70
     8
177
     2
291
     0
 71
     2
176
     1
 72
     2
176
     1
 73
     0
176
     1
 90
        0
176
     1
 40
-0.6
176
     1
 41
-30.0
176
     1
 62
     5
 63
     7
421
 16777215
176
     1
 74
     1
176
     1
 91
        0
176
     1
 64
     7
176
     1
 65
   257
176
     1
 75
     1
176
     1
175
     1
176
     1
 42
1.0
176
     1
 92
        8
176
     1
 66
     8
424
  7895160
176
     1
 43
1.0
176
     1
 76
     1
176
     1
 77
     6
176
     1
 78
     2
176
     1
 67
     7
176
     1
 79
     5
176
     1
170
     0
176
     1
171
     0
176
     1
290
     0
176
     1
 93
       13
176
     1
 44
0.0
176
     1
173
     0
176
     1
  0
VISUALSTYLE
  5
37
102
{ACAD_REACTORS
330
2A
102
}
330
2A
100
AcDbVisualStyle
  2
Thicken
 70
    13
177
     2
291
     1
 71
     2
176
     1
 72
     2
176
     1
 73
     0
176
     1
 90
        0
176
     1
 40
-0.6
176
     1
 41
-30.0
176
     1
 62
     5
 63
     7
421
 16777215
176
     1
 74
     1
176
     1
 91
        4
176
     1
 64
     7
176
     1
 65
   257
176
     1
 75
     1
176
     1
175
     1
176
     1
 42
1.0
176
     1
 92
       12
176
     1
 66
     7
176
     1
 43
1.0
176
     1
 76
     1
176
     1
 77
     6
176
     1
 78
     2
176
     1
 67
     7
176
     1
 79
     5
176
     1
170
     0
176
     1
171
     0
176
     1
290
     0
176
     1
 93
        1
176
     1
 44
0.0
176
     1
173
     0
176
     1
  0
ENDSEC
  0
EOF
