  0
SECTION
  2
HEADER
  9
$ACADVER
  1
AC1024
  9
$ACADMAINTVER
 70
     6
  9
$DWGCODEPAGE
  3
UNDEFINED
  9
$INSBASE
 10
0.0
 20
0.0
 30
0.0
  9
$EXTMIN
 10
1.000000000000000E+20
 20
1.000000000000000E+20
 30
1.000000000000000E+20
  9
$EXTMAX
 10
-1.000000000000000E+20
 20
-1.000000000000000E+20
 30
-1.000000000000000E+20
  9
$LIMMIN
 10
0.0
 20
0.0
  9
$LIMMAX
 10
12.0
 20
9.0
  9
$ORTHOMODE
 70
     0
  9
$REGENMODE
 70
     1
  9
$FILLMODE
 70
     1
  9
$QTEXTMODE
 70
     0
  9
$MIRRTEXT
 70
     1
  9
$LTSCALE
 40
1.0
  9
$ATTMODE
 70
     1
  9
$TEXTSIZE
 40
0.2
  9
$TRACEWID
 40
0.05
  9
$TEXTSTYLE
  7
Standard
  9
$CLAYER
  8
0
  9
$CELTYPE
  6
ByLayer
  9
$CECOLOR
 62
   256
  9
$CELTSCALE
 40
1.0
  9
$DISPSILH
 70
     0
  9
$DIMSCALE
 40
1.0
  9
$DIMASZ
 40
0.18
  9
$DIMEXO
 40
0.0625
  9
$DIMDLI
 40
0.38
  9
$DIMRND
 40
0.0
  9
$DIMDLE
 40
0.0
  9
$DIMEXE
 40
0.18
  9
$DIMTP
 40
0.0
  9
$DIMTM
 40
0.0
  9
$DIMTXT
 40
0.18
  9
$DIMCEN
 40
0.09
  9
$DIMTSZ
 40
0.0
  9
$DIMTOL
 70
     0
  9
$DIMLIM
 70
     0
  9
$DIMTIH
 70
     1
  9
$DIMTOH
 70
     1
  9
$DIMSE1
 70
     0
  9
$DIMSE2
 70
     0
  9
$DIMTAD
 70
     0
  9
$DIMZIN
 70
     0
  9
$DIMBLK
  1

  9
$DIMASO
 70
     1
  9
$DIMSHO
 70
     1
  9
$DIMPOST
  1

  9
$DIMAPOST
  1

  9
$DIMALT
 70
     0
  9
$DIMALTD
 70
     2
  9
$DIMALTF
 40
25.4
  9
$DIMLFAC
 40
1.0
  9
$DIMTOFL
 70
     0
  9
$DIMTVP
 40
0.0
  9
$DIMTIX
 70
     0
  9
$DIMSOXD
 70
     0
  9
$DIMSAH
 70
     0
  9
$DIMBLK1
  1

  9
$DIMBLK2
  1

  9
$DIMSTYLE
  2
Standard
  9
$DIMCLRD
 70
     0
  9
$DIMCLRE
 70
     0
  9
$DIMCLRT
 70
     0
  9
$DIMTFAC
 40
1.0
  9
$DIMGAP
 40
0.09
  9
$DIMJUST
 70
     0
  9
$DIMSD1
 70
     0
  9
$DIMSD2
 70
     0
  9
$DIMTOLJ
 70
     1
  9
$DIMTZIN
 70
     0
  9
$DIMALTZ
 70
     0
  9
$DIMALTTZ
 70
     0
  9
$DIMUPT
 70
     0
  9
$DIMDEC
 70
     4
  9
$DIMTDEC
 70
     4
  9
$DIMALTU
 70
     2
  9
$DIMALTTD
 70
     2
  9
$DIMTXSTY
  7
Standard
  9
$DIMAUNIT
 70
     0
  9
$DIMADEC
 70
     0
  9
$DIMALTRND
 40
0.0
  9
$DIMAZIN
 70
     0
  9
$DIMDSEP
 70
    46
  9
$DIMATFIT
 70
     3
  9
$DIMFRAC
 70
     0
  9
$DIMLDRBLK
  1

  9
$DIMLUNIT
 70
     2
  9
$DIMLWD
 70
    -2
  9
$DIMLWE
 70
    -2
  9
$DIMTMOVE
 70
     0
  9
$DIMFXL
 40
1.0
  9
$DIMFXLON
 70
     0
  9
$DIMJOGANG
 40
0.7853981633974483
  9
$DIMTFILL
 70
     0
  9
$DIMTFILLCLR
 70
     0
  9
$DIMARCSYM
 70
     0
  9
$DIMLTYPE
  6

  9
$DIMLTEX1
  6

  9
$DIMLTEX2
  6

  9
$DIMTXTDIRECTION
 70
     0
  9
$LUNITS
 70
     2
  9
$LUPREC
 70
     4
  9
$SKETCHINC
 40
0.1
  9
$FILLETRAD
 40
0.5
  9
$AUNITS
 70
     0
  9
$AUPREC
 70
     0
  9
$MENU
  1
.
  9
$ELEVATION
 40
0.0
  9
$PELEVATION
 40
0.0
  9
$THICKNESS
 40
0.0
  9
$LIMCHECK
 70
     0
  9
$CHAMFERA
 40
0.5
  9
$CHAMFERB
 40
0.5
  9
$CHAMFERC
 40
1.0
  9
$CHAMFERD
 40
0.0
  9
$SKPOLY
 70
     0
  9
$TDCREATE
 40
2458263.576956007
  9
$TDUCREATE
 40
2458263.201956018
  9
$TDUPDATE
 40
2458263.576956007
  9
$TDUUPDATE
 40
2458263.201956018
  9
$TDINDWG
 40
0.0000000116
  9
$TDUSRTIMER
 40
0.0000000116
  9
$USRTIMER
 70
     1
  9
$ANGBASE
 50
0.0
  9
$ANGDIR
 70
     0
  9
$PDMODE
 70
     0
  9
$PDSIZE
 40
0.0
  9
$PLINEWID
 40
0.0
  9
$SPLFRAME
 70
     0
  9
$SPLINETYPE
 70
     6
  9
$SPLINESEGS
 70
     8
  9
$HANDSEED
  5
D2
  9
$SURFTAB1
 70
     6
  9
$SURFTAB2
 70
     6
  9
$SURFTYPE
 70
     6
  9
$SURFU
 70
     6
  9
$SURFV
 70
     6
  9
$UCSBASE
  2

  9
$UCSNAME
  2

  9
$UCSORG
 10
0.0
 20
0.0
 30
0.0
  9
$UCSXDIR
 10
1.0
 20
0.0
 30
0.0
  9
$UCSYDIR
 10
0.0
 20
1.0
 30
0.0
  9
$UCSORTHOREF
  2

  9
$UCSORTHOVIEW
 70
     0
  9
$UCSORGTOP
 10
0.0
 20
0.0
 30
0.0
  9
$UCSORGBOTTOM
 10
0.0
 20
0.0
 30
0.0
  9
$UCSORGLEFT
 10
0.0
 20
0.0
 30
0.0
  9
$UCSORGRIGHT
 10
0.0
 20
0.0
 30
0.0
  9
$UCSORGFRONT
 10
0.0
 20
0.0
 30
0.0
  9
$UCSORGBACK
 10
0.0
 20
0.0
 30
0.0
  9
$PUCSBASE
  2

  9
$PUCSNAME
  2

  9
$PUCSORG
 10
0.0
 20
0.0
 30
0.0
  9
$PUCSXDIR
 10
1.0
 20
0.0
 30
0.0
  9
$PUCSYDIR
 10
0.0
 20
1.0
 30
0.0
  9
$PUCSORTHOREF
  2

  9
$PUCSORTHOVIEW
 70
     0
  9
$PUCSORGTOP
 10
0.0
 20
0.0
 30
0.0
  9
$PUCSORGBOTTOM
 10
0.0
 20
0.0
 30
0.0
  9
$PUCSORGLEFT
 10
0.0
 20
0.0
 30
0.0
  9
$PUCSORGRIGHT
 10
0.0
 20
0.0
 30
0.0
  9
$PUCSORGFRONT
 10
0.0
 20
0.0
 30
0.0
  9
$PUCSORGBACK
 10
0.0
 20
0.0
 30
0.0
  9
$USERI1
 70
     0
  9
$USERI2
 70
     0
  9
$USERI3
 70
     0
  9
$USERI4
 70
     0
  9
$USERI5
 70
     0
  9
$USERR1
 40
0.0
  9
$USERR2
 40
0.0
  9
$USERR3
 40
0.0
  9
$USERR4
 40
0.0
  9
$USERR5
 40
0.0
  9
$WORLDVIEW
 70
     1
  9
$SHADEDGE
 70
     3
  9
$SHADEDIF
 70
    70
  9
$TILEMODE
 70
     1
  9
$MAXACTVP
 70
    64
  9
$PINSBASE
 10
0.0
 20
0.0
 30
0.0
  9
$PLIMCHECK
 70
     0
  9
$PEXTMIN
 10
1.000000000000000E+20
 20
1.000000000000000E+20
 30
1.000000000000000E+20
  9
$PEXTMAX
 10
-1.000000000000000E+20
 20
-1.000000000000000E+20
 30
-1.000000000000000E+20
  9
$PLIMMIN
 10
0.0
 20
0.0
  9
$PLIMMAX
 10
12.0
 20
9.0
  9
$UNITMODE
 70
     0
  9
$VISRETAIN
 70
     1
  9
$PLINEGEN
 70
     0
  9
$PSLTSCALE
 70
     1
  9
$TREEDEPTH
 70
  3020
  9
$CMLSTYLE
  2
Standard
  9
$CMLJUST
 70
     0
  9
$CMLSCALE
 40
1.0
  9
$PROXYGRAPHICS
 70
     1
  9
$MEASUREMENT
 70
     0
  9
$CELWEIGHT
370
    -1
  9
$ENDCAPS
280
     0
  9
$JOINSTYLE
280
     0
  9
$LWDISPLAY
290
     1
  9
$INSUNITS
 70
     1
  9
$HYPERLINKBASE
  1

  9
$STYLESHEET
  1

  9
$XEDIT
290
     1
  9
$CEPSNTYPE
380
     0
  9
$PSTYLEMODE
290
     1
  9
$FINGERPRINTGUID
  2
{0203D0EE-7A27-B8E7-A13C-858B3D3906B0}
  9
$VERSIONGUID
  2
{FAEB1C32-E019-11D5-929B-00C0DF256EC4}
  9
$EXTNAMES
290
     1
  9
$PSVPSCALE
 40
0.0
  9
$OLESTARTUP
290
     0
  9
$SORTENTS
280
   127
  9
$INDEXCTL
280
     0
  9
$HIDETEXT
280
     1
  9
$XCLIPFRAME
280
     2
  9
$HALOGAP
280
     0
  9
$OBSCOLOR
 70
   257
  9
$OBSLTYPE
280
     0
  9
$INTERSECTIONDISPLAY
280
     0
  9
$INTERSECTIONCOLOR
 70
   257
  9
$DIMASSOC
280
     2
  9
$PROJECTNAME
  1

  9
$CAMERADISPLAY
290
     0
  9
$LENSLENGTH
 40
50.0
  9
$CAMERAHEIGHT
 40
0.0
  9
$STEPSPERSEC
 40
2.0
  9
$STEPSIZE
 40
6.0
  9
$3DDWFPREC
 40
2.0
  9
$PSOLWIDTH
 40
0.25
  9
$PSOLHEIGHT
 40
4.0
  9
$LOFTANG1
 40
1.570796326794897
  9
$LOFTANG2
 40
1.570796326794897
  9
$LOFTMAG1
 40
0.0
  9
$LOFTMAG2
 40
0.0
  9
$LOFTPARAM
 70
     7
  9
$LOFTNORMALS
280
     1
  9
$LATITUDE
 40
37.795
  9
$LONGITUDE
 40
-122.394
  9
$NORTHDIRECTION
 40
0.0
  9
$TIMEZONE
 70
 -8000
  9
$LIGHTGLYPHDISPLAY
280
     1
  9
$TILEMODELIGHTSYNCH
280
     1
  9
$CMATERIAL
347
3C
  9
$SOLIDHIST
280
     1
  9
$SHOWHIST
280
     1
  9
$DWFFRAME
280
     2
  9
$DGNFRAME
280
     2
  9
$REALWORLDSCALE
290
     1
  9
$INTERFERECOLOR
 62
   256
  9
$CSHADOW
280
     0
  9
$SHADOWPLANELOCATION
 40
0.0
  0
ENDSEC
  0
SECTION
  2
CLASSES
  0
CLASS
  1
ACDBDICTIONARYWDFLT
  2
AcDbDictionaryWithDefault
  3
ObjectDBX Classes
 90
        0
 91
        4
280
     0
281
     0
  0
CLASS
  1
VISUALSTYLE
  2
AcDbVisualStyle
  3
ObjectDBX Classes
 90
     4095
 91
        4
280
     0
281
     0
  0
CLASS
  1
MATERIAL
  2
AcDbMaterial
  3
ObjectDBX Classes
 90
     1153
 91
        4
280
     0
281
     0
  0
CLASS
  1
SUN
  2
AcDbSun
  3
SCENEOE
 90
     1024
 91
        4
280
     0
281
     0
  0
ENDSEC
  0
SECTION
  2
TABLES
  0
TABLE
  2
VPORT
  5
8
330
0
100
AcDbSymbolTable
 70
     1
  0
VPORT
  5
29
330
8
100
AcDbSymbolTableRecord
100
AcDbViewportTableRecord
  2
*Active
 70
     0
 10
0.0
 20
0.0
 11
1.0
 21
1.0
 12
0.0
 22
0.0
 13
0.0
 23
0.0
 14
0.5
 24
0.5
 15
0.5
 25
0.5
 16
0.0
 26
0.0
 36
1.0
 17
105.0007777515277
 27
-148.5000416295416
 37
0.0
 40
297.0000832590831
 41
0.7070757462376333
 42
50.0
 43
0.0
 44
0.0
 50
0.0
 51
0.0
 71
     0
 72
   100
 73
     1
 74
     3
 75
     0
 76
     0
 77
     0
 78
     0
281
     0
 65
     1
110
0.0
120
0.0
130
0.0
111
1.0
121
0.0
131
0.0
112
0.0
122
1.0
132
0.0
 79
     0
146
0.0
 60
     3
 61
     5
292
     1
282
     1
141
0.0
142
0.0
 63
   250
361
3F
  0
ENDTAB
  0
TABLE
  2
LTYPE
  5
5
330
0
100
AcDbSymbolTable
 70
     1
  0
LTYPE
  5
14
330
5
100
AcDbSymbolTableRecord
100
AcDbLinetypeTableRecord
  2
ByBlock
 70
     0
  3

 72
    65
 73
     0
 40
0.0
  0
LTYPE
  5
15
330
5
100
AcDbSymbolTableRecord
100
AcDbLinetypeTableRecord
  2
ByLayer
 70
     0
  3

 72
    65
 73
     0
 40
0.0
  0
LTYPE
  5
16
330
5
100
AcDbSymbolTableRecord
100
AcDbLinetypeTableRecord
  2
Continuous
 70
     0
  3
Solid line
 72
    65
 73
     0
 40
0.0
  0
ENDTAB
  0
TABLE
  2
LAYER
  5
2
330
0
100
AcDbSymbolTable
 70
     2
  0
LAYER
  5
10
330
2
100
AcDbSymbolTableRecord
100
AcDbLayerTableRecord
  2
0
 70
     0
 62
     7
  6
Continuous
370
    -3
390
F
347
3E
  0
LAYER
  5
40
330
2
100
AcDbSymbolTableRecord
100
AcDbLayerTableRecord
  2
_U+30EC_U+30A4_U+30E4_U+30FC 1
 70
     0
 62
     7
  6
Continuous
370
    -3
390
F
347
3E
  0
ENDTAB
  0
TABLE
  2
STYLE
  5
3
330
0
100
AcDbSymbolTable
 70
     1
  0
STYLE
  5
11
330
3
100
AcDbSymbolTableRecord
100
AcDbTextStyleTableRecord
  2
Standard
 70
     0
 40
0.0
 41
1.0
 50
0.0
 71
     0
 42
0.2
  3
txt
  4

  0
ENDTAB
  0
TABLE
  2
VIEW
  5
6
330
0
100
AcDbSymbolTable
 70
     0
  0
ENDTAB
  0
TABLE
  2
UCS
  5
7
330
0
100
AcDbSymbolTable
 70
     0
  0
ENDTAB
  0
TABLE
  2
APPID
  5
9
330
0
100
AcDbSymbolTable
 70
     1
  0
APPID
  5
12
330
9
100
AcDbSymbolTableRecord
100
AcDbRegAppTableRecord
  2
ACAD
 70
     0
  0
ENDTAB
  0
TABLE
  2
DIMSTYLE
  5
A
330
0
100
AcDbSymbolTable
 70
     1
100
AcDbDimStyleTable
  0
DIMSTYLE
105
27
330
A
100
AcDbSymbolTableRecord
100
AcDbDimStyleTableRecord
  2
Standard
 70
     0
178
     0
340
11
  0
ENDTAB
  0
TABLE
  2
BLOCK_RECORD
  5
1
330
0
100
AcDbSymbolTable
 70
     6
  0
BLOCK_RECORD
  5
1F
330
1
100
AcDbSymbolTableRecord
100
AcDbBlockTableRecord
  2
*Model_Space
340
22
 70
     0
280
     1
281
     0
  0
BLOCK_RECORD
  5
1B
330
1
100
AcDbSymbolTableRecord
100
AcDbBlockTableRecord
  2
*Paper_Space
340
1E
 70
     0
280
     1
281
     0
  0
BLOCK_RECORD
  5
23
330
1
100
AcDbSymbolTableRecord
100
AcDbBlockTableRecord
  2
*Paper_Space0
340
26
 70
     0
280
     1
281
     0
  0
BLOCK_RECORD
  5
66
330
1
100
AcDbSymbolTableRecord
100
AcDbBlockTableRecord
  2
block 2
340
0
102
{BLKREFS
331
67
102
}
 70
     0
280
     1
281
     0
  0
BLOCK_RECORD
  5
78
330
1
100
AcDbSymbolTableRecord
100
AcDbBlockTableRecord
  2
block 3
340
0
102
{BLKREFS
331
79
102
}
 70
     0
280
     1
281
     0
  0
BLOCK_RECORD
  5
8C
330
1
100
AcDbSymbolTableRecord
100
AcDbBlockTableRecord
  2
block 4
340
0
102
{BLKREFS
331
8D
102
}
 70
     0
280
     1
281
     0
  0
BLOCK_RECORD
  5
A9
330
1
100
AcDbSymbolTableRecord
100
AcDbBlockTableRecord
  2
block 5
340
0
102
{BLKREFS
331
AA
102
}
 70
     0
280
     1
281
     0
  0
BLOCK_RECORD
  5
C6
330
1
100
AcDbSymbolTableRecord
100
AcDbBlockTableRecord
  2
block 6
340
0
102
{BLKREFS
331
C7
102
}
 70
     0
280
     1
281
     0
  0
ENDTAB
  0
ENDSEC
  0
SECTION
  2
BLOCKS
  0
BLOCK
  5
20
330
1F
100
AcDbEntity
  8
0
100
AcDbBlockBegin
  2
*Model_Space
 70
     0
 10
0.0
 20
0.0
 30
0.0
  3
*Model_Space
  1

  0
ENDBLK
  5
21
330
1F
100
AcDbEntity
  8
0
100
AcDbBlockEnd
  0
BLOCK
  5
1C
330
1B
100
AcDbEntity
 67
     1
  8
0
100
AcDbBlockBegin
  2
*Paper_Space
 70
     0
 10
0.0
 20
0.0
 30
0.0
  3
*Paper_Space
  1

  0
ENDBLK
  5
1D
330
1B
100
AcDbEntity
 67
     1
  8
0
100
AcDbBlockEnd
  0
BLOCK
  5
24
330
23
100
AcDbEntity
  8
0
100
AcDbBlockBegin
  2
*Paper_Space0
 70
     0
 10
0.0
 20
0.0
 30
0.0
  3
*Paper_Space0
  1

  0
ENDBLK
  5
25
330
23
100
AcDbEntity
  8
0
100
AcDbBlockEnd
  0
BLOCK
  5
68
330
66
100
AcDbEntity
  8
0
100
AcDbBlockBegin
  2
block 2
 70
     0
 10
0.0
 20
0.0
 30
0.0
  3
block 2
  1

  0
SPLINE
  5
6A
330
66
100
AcDbEntity
  8
_U+30EC_U+30A4_U+30E4_U+30FC 1
370
     0
100
AcDbSpline
210
0.0
220
0.0
230
1.0
 70
    11
 71
     3
 72
    62
 73
    58
 74
     0
 42
0.0000000001
 43
0.0000000001
 12
1.0
 22
0.0
 32
0.0
 13
1.0
 23
0.0
 33
0.0
 40
0.0
 40
0.0
 40
0.0
 40
0.0
 40
1.0
 40
1.0
 40
1.0
 40
2.0
 40
2.0
 40
2.0
 40
3.0
 40
3.0
 40
3.0
 40
4.0
 40
4.0
 40
4.0
 40
5.0
 40
5.0
 40
5.0
 40
6.0
 40
6.0
 40
6.0
 40
7.0
 40
7.0
 40
7.0
 40
8.0
 40
8.0
 40
8.0
 40
9.0
 40
9.0
 40
9.0
 40
10.0
 40
10.0
 40
10.0
 40
11.0
 40
11.0
 40
11.0
 40
12.0
 40
12.0
 40
12.0
 40
13.0
 40
13.0
 40
13.0
 40
14.0
 40
14.0
 40
14.0
 40
15.0
 40
15.0
 40
15.0
 40
16.0
 40
16.0
 40
16.0
 40
17.0
 40
17.0
 40
17.0
 40
18.0
 40
18.0
 40
18.0
 40
19.0
 40
19.0
 40
19.0
 40
19.0
 10
91.38356931309161
 20
-158.569821466434
 30
0.0
 10
91.28193899627674
 20
-158.569821466434
 30
0.0
 10
91.04905054147385
 20
-158.5484618744254
 30
0.0
 10
90.91555309142042
 20
-158.3624267182219
 30
0.0
 10
90.83648815003394
 20
-158.2501166054028
 30
0.0
 10
90.83200952590312
 20
-158.1508978554276
 30
0.0
 10
90.82753090177229
 20
-158.0661485064904
 30
0.0
 10
90.82753090177229
 20
-158.0661485064904
 30
0.0
 10
91.06248641386632
 20
-158.0661485064904
 30
0.0
 10
91.06248641386632
 20
-158.0661485064904
 30
0.0
 10
91.06489798070601
 20
-158.1402180594233
 30
0.0
 10
91.07609454103306
 20
-158.3751735715173
 30
0.0
 10
91.37909068896079
 20
-158.3751735715173
 30
0.0
 10
91.52602401140669
 20
-158.3751735715173
 30
0.0
 10
91.68880477308474
 20
-158.3052381331667
 30
0.0
 10
91.68880477308474
 20
-158.0768283024947
 30
0.0
 10
91.68880477308474
 20
-157.9603840750932
 30
0.0
 10
91.6481526463588
 20
-157.9118082287512
 30
0.0
 10
91.61421845582909
 20
-157.8801133502869
 30
0.0
 10
91.5351535144426
 20
-157.8060437973541
 30
0.0
 10
91.41078556742508
 20
-157.7932969440586
 30
0.0
 10
91.35187443462732
 20
-157.7932969440586
 30
0.0
 10
91.33154837126433
 20
-157.7932969440586
 30
0.0
 10
91.2931355566038
 20
-157.7953640013498
 30
0.0
 10
91.26385224497918
 20
-157.7994981159321
 30
0.0
 10
91.26385224497918
 20
-157.7994981159321
 30
0.0
 10
91.26385224497918
 20
-157.6048502210155
 30
0.0
 10
91.26385224497918
 20
-157.6048502210155
 30
0.0
 10
91.30450437170512
 20
-157.6113959024374
 30
0.0
 10
91.3496351225619
 20
-157.6134629597286
 30
0.0
 10
91.3565253135324
 20
-157.6134629597286
 30
0.0
 10
91.42663300665724
 20
-157.6134629597286
 30
0.0
 10
91.63902314332289
 20
-157.5924478772686
 30
0.0
 10
91.63902314332289
 20
-157.3554253078834
 30
0.0
 10
91.63902314332289
 20
-157.1776583808445
 30
0.0
 10
91.49898001184748
 20
-157.1225368530805
 30
0.0
 10
91.3813300010262
 20
-157.1225368530805
 30
0.0
 10
91.09865991646144
 20
-157.1225368530805
 30
0.0
 10
91.0897026681998
 20
-157.3554253078834
 30
0.0
 10
91.08522404406898
 20
-157.4274278035251
 30
0.0
 10
91.08522404406898
 20
-157.4274278035251
 30
0.0
 10
90.86818302849824
 20
-157.4274278035251
 30
0.0
 10
90.86818302849824
 20
-157.4274278035251
 30
0.0
 10
90.87714027675989
 20
-157.3023708374105
 30
0.0
 10
90.90659584315877
 20
-156.9258219008727
 30
0.0
 10
91.39493812819293
 20
-156.9258219008727
 30
0.0
 10
91.63454451919206
 20
-156.9258219008727
 30
0.0
 10
91.89223766148875
 20
-157.0529459242784
 30
0.0
 10
91.89223766148875
 20
-157.3488796264614
 30
0.0
 10
91.89223766148875
 20
-157.5352592922134
 30
0.0
 10
91.79060734467387
 20
-157.6175970743109
 30
0.0
 10
91.68432614895393
 20
-157.6789197739483
 30
0.0
 10
91.74978296317367
 20
-157.7064805378303
 30
0.0
 10
91.94425860331603
 20
-157.7870957721852
 30
0.0
 10
91.94425860331603
 20
-158.0640814491993
 30
0.0
 10
91.94425860331603
 20
-158.4027343353993
 30
0.0
 10
91.6798475248231
 20
-158.569821466434
 30
0.0
 10
91.38356931309161
 20
-158.569821466434
 30
0.0
  0
HATCH
  5
6B
330
66
100
AcDbEntity
  8
_U+30EC_U+30A4_U+30E4_U+30FC 1
 62
   179
420
  2234388
100
AcDbHatch
 10
0.0
 20
0.0
 30
0.0
210
0.0
220
0.0
230
1.0
  2
SOLID
 70
     1
 71
     0
 91
        1
 92
        1
 93
        1
 72
     4
 94
        3
 73
     0
 74
     1
 95
       62
 96
       58
 40
0.0
 40
0.0
 40
0.0
 40
0.0
 40
1.0
 40
1.0
 40
1.0
 40
2.0
 40
2.0
 40
2.0
 40
3.0
 40
3.0
 40
3.0
 40
4.0
 40
4.0
 40
4.0
 40
5.0
 40
5.0
 40
5.0
 40
6.0
 40
6.0
 40
6.0
 40
7.0
 40
7.0
 40
7.0
 40
8.0
 40
8.0
 40
8.0
 40
9.0
 40
9.0
 40
9.0
 40
10.0
 40
10.0
 40
10.0
 40
11.0
 40
11.0
 40
11.0
 40
12.0
 40
12.0
 40
12.0
 40
13.0
 40
13.0
 40
13.0
 40
14.0
 40
14.0
 40
14.0
 40
15.0
 40
15.0
 40
15.0
 40
16.0
 40
16.0
 40
16.0
 40
17.0
 40
17.0
 40
17.0
 40
18.0
 40
18.0
 40
18.0
 40
19.0
 40
19.0
 40
19.0
 40
19.0
 10
91.38356931309161
 20
-158.569821466434
 10
91.28193899627674
 20
-158.569821466434
 10
91.04905054147385
 20
-158.5484618744254
 10
90.91555309142042
 20
-158.3624267182219
 10
90.83648815003394
 20
-158.2501166054028
 10
90.83200952590312
 20
-158.1508978554276
 10
90.82753090177229
 20
-158.0661485064904
 10
90.82753090177229
 20
-158.0661485064904
 10
91.06248641386632
 20
-158.0661485064904
 10
91.06248641386632
 20
-158.0661485064904
 10
91.06489798070601
 20
-158.1402180594233
 10
91.07609454103306
 20
-158.3751735715173
 10
91.37909068896079
 20
-158.3751735715173
 10
91.52602401140669
 20
-158.3751735715173
 10
91.68880477308474
 20
-158.3052381331667
 10
91.68880477308474
 20
-158.0768283024947
 10
91.68880477308474
 20
-157.9603840750932
 10
91.6481526463588
 20
-157.9118082287512
 10
91.61421845582909
 20
-157.8801133502869
 10
91.5351535144426
 20
-157.8060437973541
 10
91.41078556742508
 20
-157.7932969440586
 10
91.35187443462732
 20
-157.7932969440586
 10
91.33154837126433
 20
-157.7932969440586
 10
91.2931355566038
 20
-157.7953640013498
 10
91.26385224497918
 20
-157.7994981159321
 10
91.26385224497918
 20
-157.7994981159321
 10
91.26385224497918
 20
-157.6048502210155
 10
91.26385224497918
 20
-157.6048502210155
 10
91.30450437170512
 20
-157.6113959024374
 10
91.3496351225619
 20
-157.6134629597286
 10
91.3565253135324
 20
-157.6134629597286
 10
91.42663300665724
 20
-157.6134629597286
 10
91.63902314332289
 20
-157.5924478772686
 10
91.63902314332289
 20
-157.3554253078834
 10
91.63902314332289
 20
-157.1776583808445
 10
91.49898001184748
 20
-157.1225368530805
 10
91.3813300010262
 20
-157.1225368530805
 10
91.09865991646144
 20
-157.1225368530805
 10
91.0897026681998
 20
-157.3554253078834
 10
91.08522404406898
 20
-157.4274278035251
 10
91.08522404406898
 20
-157.4274278035251
 10
90.86818302849824
 20
-157.4274278035251
 10
90.86818302849824
 20
-157.4274278035251
 10
90.87714027675989
 20
-157.3023708374105
 10
90.90659584315877
 20
-156.9258219008727
 10
91.39493812819293
 20
-156.9258219008727
 10
91.63454451919206
 20
-156.9258219008727
 10
91.89223766148875
 20
-157.0529459242784
 10
91.89223766148875
 20
-157.3488796264614
 10
91.89223766148875
 20
-157.5352592922134
 10
91.79060734467387
 20
-157.6175970743109
 10
91.68432614895393
 20
-157.6789197739483
 10
91.74978296317367
 20
-157.7064805378303
 10
91.94425860331603
 20
-157.7870957721852
 10
91.94425860331603
 20
-158.0640814491993
 10
91.94425860331603
 20
-158.4027343353993
 10
91.6798475248231
 20
-158.569821466434
 10
91.38356931309161
 20
-158.569821466434
 97
        0
 97
        0
 75
     2
 76
     1
 98
        0
  0
ENDBLK
  5
69
330
66
100
AcDbEntity
  8
0
100
AcDbBlockEnd
  0
BLOCK
  5
7A
330
78
100
AcDbEntity
  8
0
100
AcDbBlockBegin
  2
block 3
 70
     0
 10
0.0
 20
0.0
 30
0.0
  3
block 3
  1

  0
SPLINE
  5
7C
330
78
100
AcDbEntity
  8
_U+30EC_U+30A4_U+30E4_U+30FC 1
370
     0
100
AcDbSpline
210
0.0
220
0.0
230
1.0
 70
    11
 71
     3
 72
    44
 73
    40
 74
     0
 42
0.0000000001
 43
0.0000000001
 12
1.0
 22
0.0
 32
0.0
 13
1.0
 23
0.0
 33
0.0
 40
0.0
 40
0.0
 40
0.0
 40
0.0
 40
1.0
 40
1.0
 40
1.0
 40
2.0
 40
2.0
 40
2.0
 40
3.0
 40
3.0
 40
3.0
 40
4.0
 40
4.0
 40
4.0
 40
5.0
 40
5.0
 40
5.0
 40
6.0
 40
6.0
 40
6.0
 40
7.0
 40
7.0
 40
7.0
 40
8.0
 40
8.0
 40
8.0
 40
9.0
 40
9.0
 40
9.0
 40
10.0
 40
10.0
 40
10.0
 40
11.0
 40
11.0
 40
11.0
 40
12.0
 40
12.0
 40
12.0
 40
13.0
 40
13.0
 40
13.0
 40
13.0
 10
101.9009290652366
 20
-138.4375447245052
 30
0.0
 10
101.6680406104337
 20
-138.596191371601
 30
0.0
 10
101.5686496056842
 20
-138.6702609245338
 30
0.0
 10
101.516628663857
 20
-138.814093661043
 30
0.0
 10
101.516628663857
 20
-138.814093661043
 30
0.0
 10
102.3486192235448
 20
-138.814093661043
 30
0.0
 10
102.3486192235448
 20
-138.814093661043
 30
0.0
 10
102.3486192235448
 20
-138.814093661043
 30
0.0
 10
102.3486192235448
 20
-139.0192490971896
 30
0.0
 10
102.3486192235448
 20
-139.0192490971896
 30
0.0
 10
102.3486192235448
 20
-139.0192490971896
 30
0.0
 10
101.2498060185244
 20
-139.0192490971896
 30
0.0
 10
101.2498060185244
 20
-139.0192490971896
 30
0.0
 10
101.2837402090541
 20
-138.6616481858207
 30
0.0
 10
101.3538479021789
 20
-138.5834445183055
 30
0.0
 10
101.765364557892
 20
-138.2850992492829
 30
0.0
 10
102.0389051394208
 20
-138.086317239784
 30
0.0
 10
102.1090128325457
 20
-138.0186211134988
 30
0.0
 10
102.1090128325457
 20
-137.8811618036374
 30
0.0
 10
102.1090128325457
 20
-137.7626505189448
 30
0.0
 10
102.0320149484503
 20
-137.6313923809568
 30
0.0
 10
101.8218641238501
 20
-137.6313923809568
 30
0.0
 10
101.5438449181904
 20
-137.6313923809568
 30
0.0
 10
101.5347154151545
 20
-137.8620415236942
 30
0.0
 10
101.5302367910237
 20
-137.9784857510957
 30
0.0
 10
101.5302367910237
 20
-137.9784857510957
 30
0.0
 10
101.2906304000246
 20
-137.9784857510957
 30
0.0
 10
101.2906304000246
 20
-137.9784857510957
 30
0.0
 10
101.2995876482862
 20
-137.8515339824642
 30
0.0
 10
101.3109564633875
 20
-137.7393961244193
 30
0.0
 10
101.3967393409703
 20
-137.6208848397267
 30
0.0
 10
101.5143893517916
 20
-137.4601711353398
 30
0.0
 10
101.7133436160647
 20
-137.4262369448101
 30
0.0
 10
101.8377115630822
 20
-137.4262369448101
 30
0.0
 10
102.1338175200395
 20
-137.4262369448101
 30
0.0
 10
102.355337159741
 20
-137.6103772984967
 30
0.0
 10
102.355337159741
 20
-137.8832288609285
 30
0.0
 10
102.355337159741
 20
-138.1116386916006
 30
0.0
 10
102.2311414674978
 20
-138.2112019511243
 30
0.0
 10
101.9009290652366
 20
-138.4375447245052
 30
0.0
  0
HATCH
  5
7D
330
78
100
AcDbEntity
  8
_U+30EC_U+30A4_U+30E4_U+30FC 1
 62
   179
420
  2234388
100
AcDbHatch
 10
0.0
 20
0.0
 30
0.0
210
0.0
220
0.0
230
1.0
  2
SOLID
 70
     1
 71
     0
 91
        1
 92
        1
 93
        1
 72
     4
 94
        3
 73
     0
 74
     1
 95
       44
 96
       40
 40
0.0
 40
0.0
 40
0.0
 40
0.0
 40
1.0
 40
1.0
 40
1.0
 40
2.0
 40
2.0
 40
2.0
 40
3.0
 40
3.0
 40
3.0
 40
4.0
 40
4.0
 40
4.0
 40
5.0
 40
5.0
 40
5.0
 40
6.0
 40
6.0
 40
6.0
 40
7.0
 40
7.0
 40
7.0
 40
8.0
 40
8.0
 40
8.0
 40
9.0
 40
9.0
 40
9.0
 40
10.0
 40
10.0
 40
10.0
 40
11.0
 40
11.0
 40
11.0
 40
12.0
 40
12.0
 40
12.0
 40
13.0
 40
13.0
 40
13.0
 40
13.0
 10
101.9009290652366
 20
-138.4375447245052
 10
101.6680406104337
 20
-138.596191371601
 10
101.5686496056842
 20
-138.6702609245338
 10
101.516628663857
 20
-138.814093661043
 10
101.516628663857
 20
-138.814093661043
 10
102.3486192235448
 20
-138.814093661043
 10
102.3486192235448
 20
-138.814093661043
 10
102.3486192235448
 20
-138.814093661043
 10
102.3486192235448
 20
-139.0192490971896
 10
102.3486192235448
 20
-139.0192490971896
 10
102.3486192235448
 20
-139.0192490971896
 10
101.2498060185244
 20
-139.0192490971896
 10
101.2498060185244
 20
-139.0192490971896
 10
101.2837402090541
 20
-138.6616481858207
 10
101.3538479021789
 20
-138.5834445183055
 10
101.765364557892
 20
-138.2850992492829
 10
102.0389051394208
 20
-138.086317239784
 10
102.1090128325457
 20
-138.0186211134988
 10
102.1090128325457
 20
-137.8811618036374
 10
102.1090128325457
 20
-137.7626505189448
 10
102.0320149484503
 20
-137.6313923809568
 10
101.8218641238501
 20
-137.6313923809568
 10
101.5438449181904
 20
-137.6313923809568
 10
101.5347154151545
 20
-137.8620415236942
 10
101.5302367910237
 20
-137.9784857510957
 10
101.5302367910237
 20
-137.9784857510957
 10
101.2906304000246
 20
-137.9784857510957
 10
101.2906304000246
 20
-137.9784857510957
 10
101.2995876482862
 20
-137.8515339824642
 10
101.3109564633875
 20
-137.7393961244193
 10
101.3967393409703
 20
-137.6208848397267
 10
101.5143893517916
 20
-137.4601711353398
 10
101.7133436160647
 20
-137.4262369448101
 10
101.8377115630822
 20
-137.4262369448101
 10
102.1338175200395
 20
-137.4262369448101
 10
102.355337159741
 20
-137.6103772984967
 10
102.355337159741
 20
-137.8832288609285
 10
102.355337159741
 20
-138.1116386916006
 10
102.2311414674978
 20
-138.2112019511243
 10
101.9009290652366
 20
-138.4375447245052
 97
        0
 97
        0
 75
     2
 76
     1
 98
        0
  0
SPLINE
  5
7E
330
78
100
AcDbEntity
  8
_U+30EC_U+30A4_U+30E4_U+30FC 1
370
     0
100
AcDbSpline
210
0.0
220
0.0
230
1.0
 70
    11
 71
     3
 72
    53
 73
    49
 74
     0
 42
0.0000000001
 43
0.0000000001
 12
1.0
 22
0.0
 32
0.0
 13
1.0
 23
0.0
 33
0.0
 40
0.0
 40
0.0
 40
0.0
 40
0.0
 40
1.0
 40
1.0
 40
1.0
 40
2.0
 40
2.0
 40
2.0
 40
3.0
 40
3.0
 40
3.0
 40
4.0
 40
4.0
 40
4.0
 40
5.0
 40
5.0
 40
5.0
 40
6.0
 40
6.0
 40
6.0
 40
7.0
 40
7.0
 40
7.0
 40
8.0
 40
8.0
 40
8.0
 40
9.0
 40
9.0
 40
9.0
 40
10.0
 40
10.0
 40
10.0
 40
11.0
 40
11.0
 40
11.0
 40
12.0
 40
12.0
 40
12.0
 40
13.0
 40
13.0
 40
13.0
 40
14.0
 40
14.0
 40
14.0
 40
15.0
 40
15.0
 40
15.0
 40
16.0
 40
16.0
 40
16.0
 40
16.0
 10
103.0390163587889
 20
-139.0700642555971
 30
0.0
 10
102.9553005384973
 20
-139.0700642555971
 30
0.0
 10
102.8467800307119
 20
-139.0531832877193
 30
0.0
 10
102.7382595229266
 20
-138.9896212760165
 30
0.0
 10
102.5529133858201
 20
-138.8795504752628
 30
0.0
 10
102.5301757556175
 20
-138.748464592049
 30
0.0
 10
102.5098496922545
 20
-138.6406331033607
 30
0.0
 10
102.5098496922545
 20
-138.6406331033607
 30
0.0
 10
102.7472167711882
 20
-138.6406331033607
 30
0.0
 10
102.7472167711882
 20
-138.6406331033607
 30
0.0
 10
102.806127903986
 20
-138.8394151128596
 30
0.0
 10
102.9416924113305
 20
-138.8690429340327
 30
0.0
 10
103.0412556708543
 20
-138.8690429340327
 30
0.0
 10
103.1904283053656
 20
-138.8690429340327
 30
0.0
 10
103.3532090670437
 20
-138.7696519292833
 30
0.0
 10
103.3532090670437
 20
-138.5369357292547
 30
0.0
 10
103.3532090670437
 20
-138.2809651347006
 30
0.0
 10
103.1609727389667
 20
-138.2112019511243
 30
0.0
 10
103.0321261678184
 20
-138.2112019511243
 30
0.0
 10
102.9981919772887
 20
-138.2112019511243
 30
0.0
 10
102.8467800307119
 20
-138.2112019511243
 30
0.0
 10
102.7518676500933
 20
-138.3402207770469
 30
0.0
 10
102.7518676500933
 20
-138.3402207770469
 30
0.0
 10
102.5641099461472
 20
-138.3211004971038
 30
0.0
 10
102.5641099461472
 20
-138.3211004971038
 30
0.0
 10
102.5641099461472
 20
-138.3211004971038
 30
0.0
 10
102.6931287720698
 20
-137.4749850459264
 30
0.0
 10
102.6931287720698
 20
-137.4749850459264
 30
0.0
 10
102.6931287720698
 20
-137.4749850459264
 30
0.0
 10
103.5251193317576
 20
-137.4749850459264
 30
0.0
 10
103.5251193317576
 20
-137.4749850459264
 30
0.0
 10
103.5251193317576
 20
-137.4749850459264
 30
0.0
 10
103.5251193317576
 20
-137.669632940843
 30
0.0
 10
103.5251193317576
 20
-137.669632940843
 30
0.0
 10
103.5251193317576
 20
-137.669632940843
 30
0.0
 10
102.8671060940749
 20
-137.669632940843
 30
0.0
 10
102.8671060940749
 20
-137.669632940843
 30
0.0
 10
102.8671060940749
 20
-137.669632940843
 30
0.0
 10
102.7969984009501
 20
-138.0926906664317
 30
0.0
 10
102.7969984009501
 20
-138.0926906664317
 30
0.0
 10
102.8626274699441
 20
-138.058756475902
 30
0.0
 10
102.9508219143665
 20
-138.0186211134988
 30
0.0
 10
103.0774291734494
 20
-138.0186211134988
 30
0.0
 10
103.3487304429128
 20
-138.0186211134988
 30
0.0
 10
103.6019449610787
 20
-138.2048285244766
 30
0.0
 10
103.6019449610787
 20
-138.5178154493115
 30
0.0
 10
103.6019449610787
 20
-138.8352809982773
 30
0.0
 10
103.3621663153053
 20
-139.0700642555971
 30
0.0
 10
103.0390163587889
 20
-139.0700642555971
 30
0.0
  0
HATCH
  5
7F
330
78
100
AcDbEntity
  8
_U+30EC_U+30A4_U+30E4_U+30FC 1
 62
   179
420
  2234388
100
AcDbHatch
 10
0.0
 20
0.0
 30
0.0
210
0.0
220
0.0
230
1.0
  2
SOLID
 70
     1
 71
     0
 91
        1
 92
        1
 93
        1
 72
     4
 94
        3
 73
     0
 74
     1
 95
       53
 96
       49
 40
0.0
 40
0.0
 40
0.0
 40
0.0
 40
1.0
 40
1.0
 40
1.0
 40
2.0
 40
2.0
 40
2.0
 40
3.0
 40
3.0
 40
3.0
 40
4.0
 40
4.0
 40
4.0
 40
5.0
 40
5.0
 40
5.0
 40
6.0
 40
6.0
 40
6.0
 40
7.0
 40
7.0
 40
7.0
 40
8.0
 40
8.0
 40
8.0
 40
9.0
 40
9.0
 40
9.0
 40
10.0
 40
10.0
 40
10.0
 40
11.0
 40
11.0
 40
11.0
 40
12.0
 40
12.0
 40
12.0
 40
13.0
 40
13.0
 40
13.0
 40
14.0
 40
14.0
 40
14.0
 40
15.0
 40
15.0
 40
15.0
 40
16.0
 40
16.0
 40
16.0
 40
16.0
 10
103.0390163587889
 20
-139.0700642555971
 10
102.9553005384973
 20
-139.0700642555971
 10
102.8467800307119
 20
-139.0531832877193
 10
102.7382595229266
 20
-138.9896212760165
 10
102.5529133858201
 20
-138.8795504752628
 10
102.5301757556175
 20
-138.748464592049
 10
102.5098496922545
 20
-138.6406331033607
 10
102.5098496922545
 20
-138.6406331033607
 10
102.7472167711882
 20
-138.6406331033607
 10
102.7472167711882
 20
-138.6406331033607
 10
102.806127903986
 20
-138.8394151128596
 10
102.9416924113305
 20
-138.8690429340327
 10
103.0412556708543
 20
-138.8690429340327
 10
103.1904283053656
 20
-138.8690429340327
 10
103.3532090670437
 20
-138.7696519292833
 10
103.3532090670437
 20
-138.5369357292547
 10
103.3532090670437
 20
-138.2809651347006
 10
103.1609727389667
 20
-138.2112019511243
 10
103.0321261678184
 20
-138.2112019511243
 10
102.9981919772887
 20
-138.2112019511243
 10
102.8467800307119
 20
-138.2112019511243
 10
102.7518676500933
 20
-138.3402207770469
 10
102.7518676500933
 20
-138.3402207770469
 10
102.5641099461472
 20
-138.3211004971038
 10
102.5641099461472
 20
-138.3211004971038
 10
102.5641099461472
 20
-138.3211004971038
 10
102.6931287720698
 20
-137.4749850459264
 10
102.6931287720698
 20
-137.4749850459264
 10
102.6931287720698
 20
-137.4749850459264
 10
103.5251193317576
 20
-137.4749850459264
 10
103.5251193317576
 20
-137.4749850459264
 10
103.5251193317576
 20
-137.4749850459264
 10
103.5251193317576
 20
-137.669632940843
 10
103.5251193317576
 20
-137.669632940843
 10
103.5251193317576
 20
-137.669632940843
 10
102.8671060940749
 20
-137.669632940843
 10
102.8671060940749
 20
-137.669632940843
 10
102.8671060940749
 20
-137.669632940843
 10
102.7969984009501
 20
-138.0926906664317
 10
102.7969984009501
 20
-138.0926906664317
 10
102.8626274699441
 20
-138.058756475902
 10
102.9508219143665
 20
-138.0186211134988
 10
103.0774291734494
 20
-138.0186211134988
 10
103.3487304429128
 20
-138.0186211134988
 10
103.6019449610787
 20
-138.2048285244766
 10
103.6019449610787
 20
-138.5178154493115
 10
103.6019449610787
 20
-138.8352809982773
 10
103.3621663153053
 20
-139.0700642555971
 10
103.0390163587889
 20
-139.0700642555971
 97
        0
 97
        0
 75
     2
 76
     1
 98
        0
  0
ENDBLK
  5
7B
330
78
100
AcDbEntity
  8
0
100
AcDbBlockEnd
  0
BLOCK
  5
8E
330
8C
100
AcDbEntity
  8
0
100
AcDbBlockBegin
  2
block 4
 70
     0
 10
0.0
 20
0.0
 30
0.0
  3
block 4
  1

  0
POLYLINE
  5
90
330
8C
100
AcDbEntity
  8
_U+30EC_U+30A4_U+30E4_U+30FC 1
370
     0
100
AcDb2dPolyline
 66
     1
 10
0.0
 20
0.0
 30
0.0
  0
VERTEX
  5
91
330
90
100
AcDbEntity
  8
_U+30EC_U+30A4_U+30E4_U+30FC 1
370
     0
100
AcDbVertex
100
AcDb2dVertex
 10
117.9931423316128
 20
-153.4679795623275
 30
0.0
  0
VERTEX
  5
92
330
90
100
AcDbEntity
  8
_U+30EC_U+30A4_U+30E4_U+30FC 1
370
     0
100
AcDbVertex
100
AcDb2dVertex
 10
118.339718937429
 20
-153.4679795623275
 30
0.0
  0
VERTEX
  5
93
330
90
100
AcDbEntity
  8
_U+30EC_U+30A4_U+30E4_U+30FC 1
370
     0
100
AcDbVertex
100
AcDb2dVertex
 10
118.339718937429
 20
-153.7008680171303
 30
0.0
  0
VERTEX
  5
94
330
90
100
AcDbEntity
  8
_U+30EC_U+30A4_U+30E4_U+30FC 1
370
     0
100
AcDbVertex
100
AcDb2dVertex
 10
117.9931423316128
 20
-153.7008680171303
 30
0.0
  0
VERTEX
  5
95
330
90
100
AcDbEntity
  8
_U+30EC_U+30A4_U+30E4_U+30FC 1
370
     0
100
AcDbVertex
100
AcDb2dVertex
 10
117.9931423316128
 20
-154.4016004388302
 30
0.0
  0
VERTEX
  5
96
330
90
100
AcDbEntity
  8
_U+30EC_U+30A4_U+30E4_U+30FC 1
370
     0
100
AcDbVertex
100
AcDb2dVertex
 10
117.7685221059745
 20
-154.4016004388302
 30
0.0
  0
VERTEX
  5
97
330
90
100
AcDbEntity
  8
_U+30EC_U+30A4_U+30E4_U+30FC 1
370
     0
100
AcDbVertex
100
AcDb2dVertex
 10
116.79562714094
 20
-153.6760633296365
 30
0.0
  0
VERTEX
  5
98
330
90
100
AcDbEntity
  8
_U+30EC_U+30A4_U+30E4_U+30FC 1
370
     0
100
AcDbVertex
100
AcDb2dVertex
 10
116.79562714094
 20
-153.4679795623275
 30
0.0
  0
VERTEX
  5
99
330
90
100
AcDbEntity
  8
_U+30EC_U+30A4_U+30E4_U+30FC 1
370
     0
100
AcDbVertex
100
AcDb2dVertex
 10
117.7940158125654
 20
-153.4679795623275
 30
0.0
  0
VERTEX
  5
9A
330
90
100
AcDbEntity
  8
_U+30EC_U+30A4_U+30E4_U+30FC 1
370
     0
100
AcDbVertex
100
AcDb2dVertex
 10
117.7940158125654
 20
-153.2461154130774
 30
0.0
  0
VERTEX
  5
9B
330
90
100
AcDbEntity
  8
_U+30EC_U+30A4_U+30E4_U+30FC 1
370
     0
100
AcDbVertex
100
AcDb2dVertex
 10
117.9931423316128
 20
-153.2461154130774
 30
0.0
  0
VERTEX
  5
9C
330
90
100
AcDbEntity
  8
_U+30EC_U+30A4_U+30E4_U+30FC 1
370
     0
100
AcDbVertex
100
AcDb2dVertex
 10
117.9931423316128
 20
-153.4679795623275
 30
0.0
  0
SEQEND
  5
9D
330
90
100
AcDbEntity
  8
_U+30EC_U+30A4_U+30E4_U+30FC 1
370
     0
  0
POLYLINE
  5
9E
330
8C
100
AcDbEntity
  8
_U+30EC_U+30A4_U+30E4_U+30FC 1
370
     0
100
AcDb2dPolyline
 66
     1
 10
0.0
 20
0.0
 30
0.0
  0
VERTEX
  5
9F
330
9E
100
AcDbEntity
  8
_U+30EC_U+30A4_U+30E4_U+30FC 1
370
     0
100
AcDbVertex
100
AcDb2dVertex
 10
117.1380696321738
 20
-153.7008680171303
 30
0.0
  0
VERTEX
  5
A0
330
9E
100
AcDbEntity
  8
_U+30EC_U+30A4_U+30E4_U+30FC 1
370
     0
100
AcDbVertex
100
AcDb2dVertex
 10
117.7940158125654
 20
-154.1890380473903
 30
0.0
  0
VERTEX
  5
A1
330
9E
100
AcDbEntity
  8
_U+30EC_U+30A4_U+30E4_U+30FC 1
370
     0
100
AcDbVertex
100
AcDb2dVertex
 10
117.7940158125654
 20
-153.7008680171303
 30
0.0
  0
VERTEX
  5
A2
330
9E
100
AcDbEntity
  8
_U+30EC_U+30A4_U+30E4_U+30FC 1
370
     0
100
AcDbVertex
100
AcDb2dVertex
 10
117.1380696321738
 20
-153.7008680171303
 30
0.0
  0
SEQEND
  5
A3
330
9E
100
AcDbEntity
  8
_U+30EC_U+30A4_U+30E4_U+30FC 1
370
     0
  0
HATCH
  5
A4
330
8C
100
AcDbEntity
  8
_U+30EC_U+30A4_U+30E4_U+30FC 1
 62
   179
420
  2234388
100
AcDbHatch
 10
0.0
 20
0.0
 30
0.0
210
0.0
220
0.0
230
1.0
  2
SOLID
 70
     1
 71
     0
 91
        2
 92
        1
 93
       11
 72
     1
 10
117.9931423316128
 20
-153.4679795623275
 11
118.339718937429
 21
-153.4679795623275
 72
     1
 10
118.339718937429
 20
-153.4679795623275
 11
118.339718937429
 21
-153.7008680171303
 72
     1
 10
118.339718937429
 20
-153.7008680171303
 11
117.9931423316128
 21
-153.7008680171303
 72
     1
 10
117.9931423316128
 20
-153.7008680171303
 11
117.9931423316128
 21
-154.4016004388302
 72
     1
 10
117.9931423316128
 20
-154.4016004388302
 11
117.7685221059745
 21
-154.4016004388302
 72
     1
 10
117.7685221059745
 20
-154.4016004388302
 11
116.79562714094
 21
-153.6760633296365
 72
     1
 10
116.79562714094
 20
-153.6760633296365
 11
116.79562714094
 21
-153.4679795623275
 72
     1
 10
116.79562714094
 20
-153.4679795623275
 11
117.7940158125654
 21
-153.4679795623275
 72
     1
 10
117.7940158125654
 20
-153.4679795623275
 11
117.7940158125654
 21
-153.2461154130774
 72
     1
 10
117.7940158125654
 20
-153.2461154130774
 11
117.9931423316128
 21
-153.2461154130774
 72
     1
 10
117.9931423316128
 20
-153.2461154130774
 11
117.9931423316128
 21
-153.4679795623275
 97
        0
 92
        1
 93
        3
 72
     1
 10
117.1380696321738
 20
-153.7008680171303
 11
117.7940158125654
 21
-154.1890380473903
 72
     1
 10
117.7940158125654
 20
-154.1890380473903
 11
117.7940158125654
 21
-153.7008680171303
 72
     1
 10
117.7940158125654
 20
-153.7008680171303
 11
117.1380696321738
 21
-153.7008680171303
 97
        0
 75
     2
 76
     1
 98
        0
  0
ENDBLK
  5
8F
330
8C
100
AcDbEntity
  8
0
100
AcDbBlockEnd
  0
BLOCK
  5
AB
330
A9
100
AcDbEntity
  8
0
100
AcDbBlockBegin
  2
block 5
 70
     0
 10
0.0
 20
0.0
 30
0.0
  3
block 5
  1

  0
SPLINE
  5
AD
330
A9
100
AcDbEntity
  8
_U+30EC_U+30A4_U+30E4_U+30FC 1
370
     0
100
AcDbSpline
210
0.0
220
0.0
230
1.0
 70
    11
 71
     3
 72
    32
 73
    28
 74
     0
 42
0.0000000001
 43
0.0000000001
 12
1.0
 22
0.0
 32
0.0
 13
1.0
 23
0.0
 33
0.0
 40
0.0
 40
0.0
 40
0.0
 40
0.0
 40
1.0
 40
1.0
 40
1.0
 40
2.0
 40
2.0
 40
2.0
 40
3.0
 40
3.0
 40
3.0
 40
4.0
 40
4.0
 40
4.0
 40
5.0
 40
5.0
 40
5.0
 40
6.0
 40
6.0
 40
6.0
 40
7.0
 40
7.0
 40
7.0
 40
8.0
 40
8.0
 40
8.0
 40
9.0
 40
9.0
 40
9.0
 40
9.0
 10
118.3907063506107
 20
-149.5391926709486
 30
0.0
 10
118.3907063506107
 20
-150.0910969676856
 30
0.0
 10
117.836390487034
 20
-150.1000542159472
 30
0.0
 10
117.6227945669485
 20
-150.1000542159472
 30
0.0
 10
117.3923176789853
 20
-150.1000542159472
 30
0.0
 10
116.7449842373068
 20
-150.0797281525842
 30
0.0
 10
116.7449842373068
 20
-149.4985405442226
 30
0.0
 10
116.7449842373068
 20
-149.3131944071162
 30
0.0
 10
116.8145751661089
 20
-149.0510226406886
 30
0.0
 10
117.1466823708869
 20
-149.0103705139627
 30
0.0
 10
117.1466823708869
 20
-149.0103705139627
 30
0.0
 10
117.1466823708869
 20
-149.2387803446348
 30
0.0
 10
117.1466823708869
 20
-149.2387803446348
 30
0.0
 10
117.0898382953803
 20
-149.2498046501875
 30
0.0
 10
116.9416991895146
 20
-149.2839110954915
 30
0.0
 10
116.9416991895146
 20
-149.5009521110623
 30
0.0
 10
116.9416991895146
 20
-149.8127332524774
 30
0.0
 10
117.2696722797104
 20
-149.855796946043
 30
0.0
 10
117.4746554610827
 20
-149.8692328184355
 30
0.0
 10
117.3964517935676
 20
-149.7700140684603
 30
0.0
 10
117.3371961512213
 20
-149.69766706327
 30
0.0
 10
117.3371961512213
 20
-149.5033636779019
 30
0.0
 10
117.3371961512213
 20
-149.311127349825
 30
0.0
 10
117.4450276399096
 20
-148.9876328837601
 30
0.0
 10
117.8512043976205
 20
-148.9876328837601
 30
0.0
 10
118.1709092586517
 20
-148.9876328837601
 30
0.0
 10
118.3907063506107
 20
-149.2001952751999
 30
0.0
 10
118.3907063506107
 20
-149.5391926709486
 30
0.0
  0
SPLINE
  5
AE
330
A9
100
AcDbEntity
  8
_U+30EC_U+30A4_U+30E4_U+30FC 1
370
     0
100
AcDbSpline
210
0.0
220
0.0
230
1.0
 70
    11
 71
     3
 72
    17
 73
    13
 74
     0
 42
0.0000000001
 43
0.0000000001
 12
1.0
 22
0.0
 32
0.0
 13
1.0
 23
0.0
 33
0.0
 40
0.0
 40
0.0
 40
0.0
 40
0.0
 40
1.0
 40
1.0
 40
1.0
 40
2.0
 40
2.0
 40
2.0
 40
3.0
 40
3.0
 40
3.0
 40
4.0
 40
4.0
 40
4.0
 40
4.0
 10
117.5318440461379
 20
-149.5212781744252
 30
0.0
 10
117.5318440461379
 20
-149.8017089469246
 30
0.0
 10
117.7433729089322
 20
-149.8423610736505
 30
0.0
 10
117.8598171363337
 20
-149.8423610736505
 30
0.0
 10
118.0355170060814
 20
-149.8423610736505
 30
0.0
 10
118.1981255129852
 20
-149.7403862472871
 30
0.0
 10
118.1981255129852
 20
-149.5440158046279
 30
0.0
 10
118.1981255129852
 20
-149.4151692334796
 30
0.0
 10
118.1388698706389
 20
-149.2274115295334
 30
0.0
 10
117.8532714549117
 20
-149.2274115295334
 30
0.0
 10
117.6293402483705
 20
-149.2274115295334
 30
0.0
 10
117.5318440461379
 20
-149.3765841640447
 30
0.0
 10
117.5318440461379
 20
-149.5212781744252
 30
0.0
  0
HATCH
  5
AF
330
A9
100
AcDbEntity
  8
_U+30EC_U+30A4_U+30E4_U+30FC 1
 62
   179
420
  2234388
100
AcDbHatch
 10
0.0
 20
0.0
 30
0.0
210
0.0
220
0.0
230
1.0
  2
SOLID
 70
     1
 71
     0
 91
        2
 92
        1
 93
        1
 72
     4
 94
        3
 73
     0
 74
     1
 95
       32
 96
       28
 40
0.0
 40
0.0
 40
0.0
 40
0.0
 40
1.0
 40
1.0
 40
1.0
 40
2.0
 40
2.0
 40
2.0
 40
3.0
 40
3.0
 40
3.0
 40
4.0
 40
4.0
 40
4.0
 40
5.0
 40
5.0
 40
5.0
 40
6.0
 40
6.0
 40
6.0
 40
7.0
 40
7.0
 40
7.0
 40
8.0
 40
8.0
 40
8.0
 40
9.0
 40
9.0
 40
9.0
 40
9.0
 10
118.3907063506107
 20
-149.5391926709486
 10
118.3907063506107
 20
-150.0910969676856
 10
117.836390487034
 20
-150.1000542159472
 10
117.6227945669485
 20
-150.1000542159472
 10
117.3923176789853
 20
-150.1000542159472
 10
116.7449842373068
 20
-150.0797281525842
 10
116.7449842373068
 20
-149.4985405442226
 10
116.7449842373068
 20
-149.3131944071162
 10
116.8145751661089
 20
-149.0510226406886
 10
117.1466823708869
 20
-149.0103705139627
 10
117.1466823708869
 20
-149.0103705139627
 10
117.1466823708869
 20
-149.2387803446348
 10
117.1466823708869
 20
-149.2387803446348
 10
117.0898382953803
 20
-149.2498046501875
 10
116.9416991895146
 20
-149.2839110954915
 10
116.9416991895146
 20
-149.5009521110623
 10
116.9416991895146
 20
-149.8127332524774
 10
117.2696722797104
 20
-149.855796946043
 10
117.4746554610827
 20
-149.8692328184355
 10
117.3964517935676
 20
-149.7700140684603
 10
117.3371961512213
 20
-149.69766706327
 10
117.3371961512213
 20
-149.5033636779019
 10
117.3371961512213
 20
-149.311127349825
 10
117.4450276399096
 20
-148.9876328837601
 10
117.8512043976205
 20
-148.9876328837601
 10
118.1709092586517
 20
-148.9876328837601
 10
118.3907063506107
 20
-149.2001952751999
 10
118.3907063506107
 20
-149.5391926709486
 97
        0
 97
        0
 92
        1
 93
        1
 72
     4
 94
        3
 73
     0
 74
     1
 95
       17
 96
       13
 40
0.0
 40
0.0
 40
0.0
 40
0.0
 40
1.0
 40
1.0
 40
1.0
 40
2.0
 40
2.0
 40
2.0
 40
3.0
 40
3.0
 40
3.0
 40
4.0
 40
4.0
 40
4.0
 40
4.0
 10
117.5318440461379
 20
-149.5212781744252
 10
117.5318440461379
 20
-149.8017089469246
 10
117.7433729089322
 20
-149.8423610736505
 10
117.8598171363337
 20
-149.8423610736505
 10
118.0355170060814
 20
-149.8423610736505
 10
118.1981255129852
 20
-149.7403862472871
 10
118.1981255129852
 20
-149.5440158046279
 10
118.1981255129852
 20
-149.4151692334796
 10
118.1388698706389
 20
-149.2274115295334
 10
117.8532714549117
 20
-149.2274115295334
 10
117.6293402483705
 20
-149.2274115295334
 10
117.5318440461379
 20
-149.3765841640447
 10
117.5318440461379
 20
-149.5212781744252
 97
        0
 97
        0
 75
     2
 76
     1
 98
        0
  0
POLYLINE
  5
B0
330
A9
100
AcDbEntity
  8
_U+30EC_U+30A4_U+30E4_U+30FC 1
370
     0
100
AcDb2dPolyline
 66
     1
 10
0.0
 20
0.0
 30
0.0
  0
VERTEX
  5
B1
330
B0
100
AcDbEntity
  8
_U+30EC_U+30A4_U+30E4_U+30FC 1
370
     0
100
AcDbVertex
100
AcDb2dVertex
 10
118.3400634469775
 20
-148.7562947219255
 30
0.0
  0
VERTEX
  5
B2
330
B0
100
AcDbEntity
  8
_U+30EC_U+30A4_U+30E4_U+30FC 1
370
     0
100
AcDbVertex
100
AcDb2dVertex
 10
118.0882269670057
 20
-148.7562947219255
 30
0.0
  0
VERTEX
  5
B3
330
B0
100
AcDbEntity
  8
_U+30EC_U+30A4_U+30E4_U+30FC 1
370
     0
100
AcDbVertex
100
AcDb2dVertex
 10
118.0882269670057
 20
-148.4872327645275
 30
0.0
  0
VERTEX
  5
B4
330
B0
100
AcDbEntity
  8
_U+30EC_U+30A4_U+30E4_U+30FC 1
370
     0
100
AcDbVertex
100
AcDb2dVertex
 10
118.3400634469775
 20
-148.4872327645275
 30
0.0
  0
VERTEX
  5
B5
330
B0
100
AcDbEntity
  8
_U+30EC_U+30A4_U+30E4_U+30FC 1
370
     0
100
AcDbVertex
100
AcDb2dVertex
 10
118.3400634469775
 20
-148.7562947219255
 30
0.0
  0
SEQEND
  5
B6
330
B0
100
AcDbEntity
  8
_U+30EC_U+30A4_U+30E4_U+30FC 1
370
     0
  0
HATCH
  5
B7
330
A9
100
AcDbEntity
  8
_U+30EC_U+30A4_U+30E4_U+30FC 1
 62
   179
420
  2234388
100
AcDbHatch
 10
0.0
 20
0.0
 30
0.0
210
0.0
220
0.0
230
1.0
  2
SOLID
 70
     1
 71
     0
 91
        1
 92
        1
 93
        4
 72
     1
 10
118.3400634469775
 20
-148.7562947219255
 11
118.0882269670057
 21
-148.7562947219255
 72
     1
 10
118.0882269670057
 20
-148.7562947219255
 11
118.0882269670057
 21
-148.4872327645275
 72
     1
 10
118.0882269670057
 20
-148.4872327645275
 11
118.3400634469775
 21
-148.4872327645275
 72
     1
 10
118.3400634469775
 20
-148.4872327645275
 11
118.3400634469775
 21
-148.7562947219255
 97
        0
 75
     2
 76
     1
 98
        0
  0
SPLINE
  5
B8
330
A9
100
AcDbEntity
  8
_U+30EC_U+30A4_U+30E4_U+30FC 1
370
     0
100
AcDbSpline
210
0.0
220
0.0
230
1.0
 70
    11
 71
     3
 72
    53
 73
    49
 74
     0
 42
0.0000000001
 43
0.0000000001
 12
1.0
 22
0.0
 32
0.0
 13
1.0
 23
0.0
 33
0.0
 40
0.0
 40
0.0
 40
0.0
 40
0.0
 40
1.0
 40
1.0
 40
1.0
 40
2.0
 40
2.0
 40
2.0
 40
3.0
 40
3.0
 40
3.0
 40
4.0
 40
4.0
 40
4.0
 40
5.0
 40
5.0
 40
5.0
 40
6.0
 40
6.0
 40
6.0
 40
7.0
 40
7.0
 40
7.0
 40
8.0
 40
8.0
 40
8.0
 40
9.0
 40
9.0
 40
9.0
 40
10.0
 40
10.0
 40
10.0
 40
11.0
 40
11.0
 40
11.0
 40
12.0
 40
12.0
 40
12.0
 40
13.0
 40
13.0
 40
13.0
 40
14.0
 40
14.0
 40
14.0
 40
15.0
 40
15.0
 40
15.0
 40
16.0
 40
16.0
 40
16.0
 40
16.0
 10
118.3907063506107
 20
-147.7205267642852
 30
0.0
 10
118.3907063506107
 20
-147.8042425845767
 30
0.0
 10
118.3738253827329
 20
-147.9127630923621
 30
0.0
 10
118.3104356258043
 20
-148.0212836001475
 30
0.0
 10
118.2001925702763
 20
-148.2066297372539
 30
0.0
 10
118.0692789418369
 20
-148.2293673674565
 30
0.0
 10
117.9614474531485
 20
-148.2496934308195
 30
0.0
 10
117.9614474531485
 20
-148.2496934308195
 30
0.0
 10
117.9614474531485
 20
-148.0123263518858
 30
0.0
 10
117.9614474531485
 20
-148.0123263518858
 30
0.0
 10
118.1602294626475
 20
-147.953415219088
 30
0.0
 10
118.1898572838206
 20
-147.8178507117435
 30
0.0
 10
118.1898572838206
 20
-147.7182874522197
 30
0.0
 10
118.1898572838206
 20
-147.5691148177084
 30
0.0
 10
118.0902940242969
 20
-147.4063340560304
 30
0.0
 10
117.8577500790425
 20
-147.4063340560304
 30
0.0
 10
117.6017794844884
 20
-147.4063340560304
 30
0.0
 10
117.5318440461379
 20
-147.5985703841073
 30
0.0
 10
117.5318440461379
 20
-147.7274169552556
 30
0.0
 10
117.5318440461379
 20
-147.7613511457854
 30
0.0
 10
117.5318440461379
 20
-147.9127630923621
 30
0.0
 10
117.6610351268347
 20
-148.0076754729807
 30
0.0
 10
117.6610351268347
 20
-148.0076754729807
 30
0.0
 10
117.6417425921174
 20
-148.1954331769269
 30
0.0
 10
117.6417425921174
 20
-148.1954331769269
 30
0.0
 10
117.6417425921174
 20
-148.1954331769269
 30
0.0
 10
116.79562714094
 20
-148.0664143510042
 30
0.0
 10
116.79562714094
 20
-148.0664143510042
 30
0.0
 10
116.79562714094
 20
-148.0664143510042
 30
0.0
 10
116.79562714094
 20
-147.2344237913164
 30
0.0
 10
116.79562714094
 20
-147.2344237913164
 30
0.0
 10
116.79562714094
 20
-147.2344237913164
 30
0.0
 10
116.9902750358566
 20
-147.2344237913164
 30
0.0
 10
116.9902750358566
 20
-147.2344237913164
 30
0.0
 10
116.9902750358566
 20
-147.2344237913164
 30
0.0
 10
116.9902750358566
 20
-147.8924370289991
 30
0.0
 10
116.9902750358566
 20
-147.8924370289991
 30
0.0
 10
116.9902750358566
 20
-147.8924370289991
 30
0.0
 10
117.4133327614453
 20
-147.962544722124
 30
0.0
 10
117.4133327614453
 20
-147.962544722124
 30
0.0
 10
117.3795708256898
 20
-147.89691565313
 30
0.0
 10
117.3392632085124
 20
-147.8087212087075
 30
0.0
 10
117.3392632085124
 20
-147.6821139496246
 30
0.0
 10
117.3392632085124
 20
-147.4108126801612
 30
0.0
 10
117.5256428742644
 20
-147.1575981619953
 30
0.0
 10
117.8384575443251
 20
-147.1575981619953
 30
0.0
 10
118.1560953480652
 20
-147.1575981619953
 30
0.0
 10
118.3907063506107
 20
-147.3973768077687
 30
0.0
 10
118.3907063506107
 20
-147.7205267642852
 30
0.0
  0
HATCH
  5
B9
330
A9
100
AcDbEntity
  8
_U+30EC_U+30A4_U+30E4_U+30FC 1
 62
   179
420
  2234388
100
AcDbHatch
 10
0.0
 20
0.0
 30
0.0
210
0.0
220
0.0
230
1.0
  2
SOLID
 70
     1
 71
     0
 91
        1
 92
        1
 93
        1
 72
     4
 94
        3
 73
     0
 74
     1
 95
       53
 96
       49
 40
0.0
 40
0.0
 40
0.0
 40
0.0
 40
1.0
 40
1.0
 40
1.0
 40
2.0
 40
2.0
 40
2.0
 40
3.0
 40
3.0
 40
3.0
 40
4.0
 40
4.0
 40
4.0
 40
5.0
 40
5.0
 40
5.0
 40
6.0
 40
6.0
 40
6.0
 40
7.0
 40
7.0
 40
7.0
 40
8.0
 40
8.0
 40
8.0
 40
9.0
 40
9.0
 40
9.0
 40
10.0
 40
10.0
 40
10.0
 40
11.0
 40
11.0
 40
11.0
 40
12.0
 40
12.0
 40
12.0
 40
13.0
 40
13.0
 40
13.0
 40
14.0
 40
14.0
 40
14.0
 40
15.0
 40
15.0
 40
15.0
 40
16.0
 40
16.0
 40
16.0
 40
16.0
 10
118.3907063506107
 20
-147.7205267642852
 10
118.3907063506107
 20
-147.8042425845767
 10
118.3738253827329
 20
-147.9127630923621
 10
118.3104356258043
 20
-148.0212836001475
 10
118.2001925702763
 20
-148.2066297372539
 10
118.0692789418369
 20
-148.2293673674565
 10
117.9614474531485
 20
-148.2496934308195
 10
117.9614474531485
 20
-148.2496934308195
 10
117.9614474531485
 20
-148.0123263518858
 10
117.9614474531485
 20
-148.0123263518858
 10
118.1602294626475
 20
-147.953415219088
 10
118.1898572838206
 20
-147.8178507117435
 10
118.1898572838206
 20
-147.7182874522197
 10
118.1898572838206
 20
-147.5691148177084
 10
118.0902940242969
 20
-147.4063340560304
 10
117.8577500790425
 20
-147.4063340560304
 10
117.6017794844884
 20
-147.4063340560304
 10
117.5318440461379
 20
-147.5985703841073
 10
117.5318440461379
 20
-147.7274169552556
 10
117.5318440461379
 20
-147.7613511457854
 10
117.5318440461379
 20
-147.9127630923621
 10
117.6610351268347
 20
-148.0076754729807
 10
117.6610351268347
 20
-148.0076754729807
 10
117.6417425921174
 20
-148.1954331769269
 10
117.6417425921174
 20
-148.1954331769269
 10
117.6417425921174
 20
-148.1954331769269
 10
116.79562714094
 20
-148.0664143510042
 10
116.79562714094
 20
-148.0664143510042
 10
116.79562714094
 20
-148.0664143510042
 10
116.79562714094
 20
-147.2344237913164
 10
116.79562714094
 20
-147.2344237913164
 10
116.79562714094
 20
-147.2344237913164
 10
116.9902750358566
 20
-147.2344237913164
 10
116.9902750358566
 20
-147.2344237913164
 10
116.9902750358566
 20
-147.2344237913164
 10
116.9902750358566
 20
-147.8924370289991
 10
116.9902750358566
 20
-147.8924370289991
 10
116.9902750358566
 20
-147.8924370289991
 10
117.4133327614453
 20
-147.962544722124
 10
117.4133327614453
 20
-147.962544722124
 10
117.3795708256898
 20
-147.89691565313
 10
117.3392632085124
 20
-147.8087212087075
 10
117.3392632085124
 20
-147.6821139496246
 10
117.3392632085124
 20
-147.4108126801612
 10
117.5256428742644
 20
-147.1575981619953
 10
117.8384575443251
 20
-147.1575981619953
 10
118.1560953480652
 20
-147.1575981619953
 10
118.3907063506107
 20
-147.3973768077687
 10
118.3907063506107
 20
-147.7205267642852
 97
        0
 97
        0
 75
     2
 76
     1
 98
        0
  0
ENDBLK
  5
AC
330
A9
100
AcDbEntity
  8
0
100
AcDbBlockEnd
  0
BLOCK
  5
C8
330
C6
100
AcDbEntity
  8
0
100
AcDbBlockBegin
  2
block 6
 70
     0
 10
0.0
 20
0.0
 30
0.0
  3
block 6
  1

  0
SPLINE
  5
CA
330
C6
100
AcDbEntity
  8
_U+30EC_U+30A4_U+30E4_U+30FC 1
370
     0
100
AcDbSpline
210
0.0
220
0.0
230
1.0
 70
    11
 71
     3
 72
    26
 73
    22
 74
     0
 42
0.0000000001
 43
0.0000000001
 12
1.0
 22
0.0
 32
0.0
 13
1.0
 23
0.0
 33
0.0
 40
0.0
 40
0.0
 40
0.0
 40
0.0
 40
1.0
 40
1.0
 40
1.0
 40
2.0
 40
2.0
 40
2.0
 40
3.0
 40
3.0
 40
3.0
 40
4.0
 40
4.0
 40
4.0
 40
5.0
 40
5.0
 40
5.0
 40
6.0
 40
6.0
 40
6.0
 40
7.0
 40
7.0
 40
7.0
 40
7.0
 10
118.339718937429
 20
-141.3303914034695
 30
0.0
 10
118.339718937429
 20
-141.3303914034695
 30
0.0
 10
117.2352213248579
 20
-141.3303914034695
 30
0.0
 10
117.2352213248579
 20
-141.3303914034695
 30
0.0
 10
117.2352213248579
 20
-141.3303914034695
 30
0.0
 10
117.2352213248579
 20
-141.6831691811591
 30
0.0
 10
117.2352213248579
 20
-141.6831691811591
 30
0.0
 10
117.2352213248579
 20
-141.6831691811591
 30
0.0
 10
117.0870822189921
 20
-141.6831691811591
 30
0.0
 10
117.0870822189921
 20
-141.6831691811591
 30
0.0
 10
117.0726128179541
 20
-141.3281520914041
 30
0.0
 10
116.9096598015018
 20
-141.2783704616422
 30
0.0
 10
116.7952826313915
 20
-141.2468478379522
 30
0.0
 10
116.7952826313915
 20
-141.2468478379522
 30
0.0
 10
116.7952826313915
 20
-141.0907850124704
 30
0.0
 10
116.7952826313915
 20
-141.0907850124704
 30
0.0
 10
116.7952826313915
 20
-141.0907850124704
 30
0.0
 10
118.339718937429
 20
-141.0907850124704
 30
0.0
 10
118.339718937429
 20
-141.0907850124704
 30
0.0
 10
118.339718937429
 20
-141.0907850124704
 30
0.0
 10
118.339718937429
 20
-141.3303914034695
 30
0.0
 10
118.339718937429
 20
-141.3303914034695
 30
0.0
  0
HATCH
  5
CB
330
C6
100
AcDbEntity
  8
_U+30EC_U+30A4_U+30E4_U+30FC 1
 62
   179
420
  2234388
100
AcDbHatch
 10
0.0
 20
0.0
 30
0.0
210
0.0
220
0.0
230
1.0
  2
SOLID
 70
     1
 71
     0
 91
        1
 92
        1
 93
        1
 72
     4
 94
        3
 73
     0
 74
     1
 95
       26
 96
       22
 40
0.0
 40
0.0
 40
0.0
 40
0.0
 40
1.0
 40
1.0
 40
1.0
 40
2.0
 40
2.0
 40
2.0
 40
3.0
 40
3.0
 40
3.0
 40
4.0
 40
4.0
 40
4.0
 40
5.0
 40
5.0
 40
5.0
 40
6.0
 40
6.0
 40
6.0
 40
7.0
 40
7.0
 40
7.0
 40
7.0
 10
118.339718937429
 20
-141.3303914034695
 10
118.339718937429
 20
-141.3303914034695
 10
117.2352213248579
 20
-141.3303914034695
 10
117.2352213248579
 20
-141.3303914034695
 10
117.2352213248579
 20
-141.3303914034695
 10
117.2352213248579
 20
-141.6831691811591
 10
117.2352213248579
 20
-141.6831691811591
 10
117.2352213248579
 20
-141.6831691811591
 10
117.0870822189921
 20
-141.6831691811591
 10
117.0870822189921
 20
-141.6831691811591
 10
117.0726128179541
 20
-141.3281520914041
 10
116.9096598015018
 20
-141.2783704616422
 10
116.7952826313915
 20
-141.2468478379522
 10
116.7952826313915
 20
-141.2468478379522
 10
116.7952826313915
 20
-141.0907850124704
 10
116.7952826313915
 20
-141.0907850124704
 10
116.7952826313915
 20
-141.0907850124704
 10
118.339718937429
 20
-141.0907850124704
 10
118.339718937429
 20
-141.0907850124704
 10
118.339718937429
 20
-141.0907850124704
 10
118.339718937429
 20
-141.3303914034695
 10
118.339718937429
 20
-141.3303914034695
 97
        0
 97
        0
 75
     2
 76
     1
 98
        0
  0
ENDBLK
  5
C9
330
C6
100
AcDbEntity
  8
0
100
AcDbBlockEnd
  0
ENDSEC
  0
SECTION
  2
ENTITIES
  0
POLYLINE
  5
41
330
1F
100
AcDbEntity
  8
_U+30EC_U+30A4_U+30E4_U+30FC 1
 62
   179
420
  2234388
370
     9
100
AcDb2dPolyline
 66
     1
 10
0.0
 20
0.0
 30
0.0
  0
VERTEX
  5
42
330
41
100
AcDbEntity
  8
_U+30EC_U+30A4_U+30E4_U+30FC 1
 62
   179
420
  2234388
370
     9
100
AcDbVertex
100
AcDb2dVertex
 10
118.9359949874237
 20
-144.3211433897552
 30
0.0
  0
VERTEX
  5
43
330
41
100
AcDbEntity
  8
_U+30EC_U+30A4_U+30E4_U+30FC 1
 62
   179
420
  2234388
370
     9
100
AcDbVertex
100
AcDb2dVertex
 10
118.9359949874237
 20
-140.5506586359235
 30
0.0
  0
SEQEND
  5
44
330
41
100
AcDbEntity
  8
_U+30EC_U+30A4_U+30E4_U+30FC 1
 62
   179
420
  2234388
370
     9
  0
POLYLINE
  5
45
330
1F
100
AcDbEntity
  8
_U+30EC_U+30A4_U+30E4_U+30FC 1
 62
   179
420
  2234388
370
    25
100
AcDb2dPolyline
 66
     1
 10
0.0
 20
0.0
 30
0.0
  0
VERTEX
  5
46
330
45
100
AcDbEntity
  8
_U+30EC_U+30A4_U+30E4_U+30FC 1
 62
   179
420
  2234388
370
    25
100
AcDbVertex
100
AcDb2dVertex
 10
114.9355985566068
 20
-144.3211433897552
 30
0.0
  0
VERTEX
  5
47
330
45
100
AcDbEntity
  8
_U+30EC_U+30A4_U+30E4_U+30FC 1
 62
   179
420
  2234388
370
    25
100
AcDbVertex
100
AcDb2dVertex
 10
114.9355985566068
 20
-145.32127614097
 30
0.0
  0
VERTEX
  5
48
330
45
100
AcDbEntity
  8
_U+30EC_U+30A4_U+30E4_U+30FC 1
 62
   179
420
  2234388
370
    25
100
AcDbVertex
100
AcDb2dVertex
 10
90.93577418703033
 20
-145.32127614097
 30
0.0
  0
VERTEX
  5
49
330
45
100
AcDbEntity
  8
_U+30EC_U+30A4_U+30E4_U+30FC 1
 62
   179
420
  2234388
370
    25
100
AcDbVertex
100
AcDb2dVertex
 10
90.93577418703033
 20
-154.8205240498365
 30
0.0
  0
VERTEX
  5
4A
330
45
100
AcDbEntity
  8
_U+30EC_U+30A4_U+30E4_U+30FC 1
 62
   179
420
  2234388
370
    25
100
AcDbVertex
100
AcDb2dVertex
 10
91.93589886380259
 20
-154.8205240498365
 30
0.0
  0
VERTEX
  5
4B
330
45
100
AcDbEntity
  8
_U+30EC_U+30A4_U+30E4_U+30FC 1
 62
   179
420
  2234388
370
    25
100
AcDbVertex
100
AcDb2dVertex
 10
91.93589886380259
 20
-151.8212023885312
 30
0.0
  0
VERTEX
  5
4C
330
45
100
AcDbEntity
  8
_U+30EC_U+30A4_U+30E4_U+30FC 1
 62
   179
420
  2234388
370
    25
100
AcDbVertex
100
AcDb2dVertex
 10
92.93602354057487
 20
-151.8212023885312
 30
0.0
  0
VERTEX
  5
4D
330
45
100
AcDbEntity
  8
_U+30EC_U+30A4_U+30E4_U+30FC 1
 62
   179
420
  2234388
370
    25
100
AcDbVertex
100
AcDb2dVertex
 10
92.93602354057487
 20
-155.8206568010513
 30
0.0
  0
VERTEX
  5
4E
330
45
100
AcDbEntity
  8
_U+30EC_U+30A4_U+30E4_U+30FC 1
 62
   179
420
  2234388
370
    25
100
AcDbVertex
100
AcDb2dVertex
 10
89.93600209424913
 20
-155.8206568010513
 30
0.0
  0
VERTEX
  5
4F
330
45
100
AcDbEntity
  8
_U+30EC_U+30A4_U+30E4_U+30FC 1
 62
   179
420
  2234388
370
    25
100
AcDbVertex
100
AcDb2dVertex
 10
89.93600209424913
 20
-144.3211433897552
 30
0.0
  0
VERTEX
  5
50
330
45
100
AcDbEntity
  8
_U+30EC_U+30A4_U+30E4_U+30FC 1
 62
   179
420
  2234388
370
    25
100
AcDbVertex
100
AcDb2dVertex
 10
114.9355985566068
 20
-144.3211433897552
 30
0.0
  0
SEQEND
  5
51
330
45
100
AcDbEntity
  8
_U+30EC_U+30A4_U+30E4_U+30FC 1
 62
   179
420
  2234388
370
    25
  0
SPLINE
  5
52
330
1F
100
AcDbEntity
  8
_U+30EC_U+30A4_U+30E4_U+30FC 1
 62
   179
420
  2234388
370
     9
100
AcDbSpline
210
0.0
220
0.0
230
1.0
 70
    11
 71
     3
 72
    17
 73
    13
 74
     0
 42
0.0000000001
 43
0.0000000001
 12
1.0
 22
0.0
 32
0.0
 13
1.0
 23
0.0
 33
0.0
 40
0.0
 40
0.0
 40
0.0
 40
0.0
 40
1.0
 40
1.0
 40
1.0
 40
2.0
 40
2.0
 40
2.0
 40
3.0
 40
3.0
 40
3.0
 40
4.0
 40
4.0
 40
4.0
 40
4.0
 10
89.93589712649639
 20
-140.421338364146
 30
0.0
 10
89.88050914212813
 20
-140.421338364146
 30
0.0
 10
89.8357067519348
 20
-140.3765521228377
 30
0.0
 10
89.8357067519348
 20
-140.3211506810655
 30
0.0
 10
89.8357067519348
 20
-140.2661368125355
 30
0.0
 10
89.88050914212813
 20
-140.2213290393804
 30
0.0
 10
89.93589712649639
 20
-140.2213290393804
 30
0.0
 10
89.99092983539208
 20
-140.2213290393804
 30
0.0
 10
90.03573222558542
 20
-140.2661368125355
 30
0.0
 10
90.03573222558542
 20
-140.3211506810655
 30
0.0
 10
90.03573222558542
 20
-140.3765521228377
 30
0.0
 10
89.99092983539208
 20
-140.421338364146
 30
0.0
 10
89.93589712649639
 20
-140.421338364146
 30
0.0
  0
SPLINE
  5
53
330
1F
100
AcDbEntity
  8
_U+30EC_U+30A4_U+30E4_U+30FC 1
 62
   179
420
  2234388
370
     9
100
AcDbSpline
210
0.0
220
0.0
230
1.0
 70
    11
 71
     3
 72
    17
 73
    13
 74
     0
 42
0.0000000001
 43
0.0000000001
 12
1.0
 22
0.0
 32
0.0
 13
1.0
 23
0.0
 33
0.0
 40
0.0
 40
0.0
 40
0.0
 40
0.0
 40
1.0
 40
1.0
 40
1.0
 40
2.0
 40
2.0
 40
2.0
 40
3.0
 40
3.0
 40
3.0
 40
4.0
 40
4.0
 40
4.0
 40
4.0
 10
114.8585522258562
 20
-140.421338364146
 30
0.0
 10
114.8035168254793
 20
-140.421338364146
 30
0.0
 10
114.758714435286
 20
-140.3765521228377
 30
0.0
 10
114.758714435286
 20
-140.3211506810655
 30
0.0
 10
114.758714435286
 20
-140.2661368125355
 30
0.0
 10
114.8035168254793
 20
-140.2213290393804
 30
0.0
 10
114.8585522258562
 20
-140.2213290393804
 30
0.0
 10
114.9135822432714
 20
-140.2213290393804
 30
0.0
 10
114.9583846334647
 20
-140.2661368125355
 30
0.0
 10
114.9583846334647
 20
-140.3211506810655
 30
0.0
 10
114.9583846334647
 20
-140.3765521228377
 30
0.0
 10
114.9135822432714
 20
-140.421338364146
 30
0.0
 10
114.8585522258562
 20
-140.421338364146
 30
0.0
  0
SPLINE
  5
54
330
1F
100
AcDbEntity
  8
_U+30EC_U+30A4_U+30E4_U+30FC 1
 62
   179
420
  2234388
370
     9
100
AcDbSpline
210
0.0
220
0.0
230
1.0
 70
    11
 71
     3
 72
    17
 73
    13
 74
     0
 42
0.0000000001
 43
0.0000000001
 12
1.0
 22
0.0
 32
0.0
 13
1.0
 23
0.0
 33
0.0
 40
0.0
 40
0.0
 40
0.0
 40
0.0
 40
1.0
 40
1.0
 40
1.0
 40
2.0
 40
2.0
 40
2.0
 40
3.0
 40
3.0
 40
3.0
 40
4.0
 40
4.0
 40
4.0
 40
4.0
 10
118.9359949874237
 20
-144.4214387320696
 30
0.0
 10
118.8802544190647
 20
-144.4214387320696
 30
0.0
 10
118.8354520288713
 20
-144.3766524907613
 30
0.0
 10
118.8354520288713
 20
-144.3212510489891
 30
0.0
 10
118.8354520288713
 20
-144.2662371804591
 30
0.0
 10
118.8802544190647
 20
-144.221429407304
 30
0.0
 10
118.9359949874237
 20
-144.221429407304
 30
0.0
 10
118.9910250048388
 20
-144.221429407304
 30
0.0
 10
119.0358273950322
 20
-144.2662371804591
 30
0.0
 10
119.0358273950322
 20
-144.3212510489891
 30
0.0
 10
119.0358273950322
 20
-144.3766524907613
 30
0.0
 10
118.9910250048388
 20
-144.4214387320696
 30
0.0
 10
118.9359949874237
 20
-144.4214387320696
 30
0.0
  0
SPLINE
  5
55
330
1F
100
AcDbEntity
  8
_U+30EC_U+30A4_U+30E4_U+30FC 1
 62
   179
420
  2234388
370
     9
100
AcDbSpline
210
0.0
220
0.0
230
1.0
 70
    11
 71
     3
 72
    17
 73
    13
 74
     0
 42
0.0000000001
 43
0.0000000001
 12
1.0
 22
0.0
 32
0.0
 13
1.0
 23
0.0
 33
0.0
 40
0.0
 40
0.0
 40
0.0
 40
0.0
 40
1.0
 40
1.0
 40
1.0
 40
2.0
 40
2.0
 40
2.0
 40
3.0
 40
3.0
 40
3.0
 40
4.0
 40
4.0
 40
4.0
 40
4.0
 10
118.9359949874237
 20
-145.421140846349
 30
0.0
 10
118.8802544190647
 20
-145.421140846349
 30
0.0
 10
118.8354520288713
 20
-145.3763546050408
 30
0.0
 10
118.8354520288713
 20
-145.3213192046639
 30
0.0
 10
118.8354520288713
 20
-145.266283804287
 30
0.0
 10
118.8802544190647
 20
-145.2214760311317
 30
0.0
 10
118.9359949874237
 20
-145.2214760311317
 30
0.0
 10
118.9910250048388
 20
-145.2214760311317
 30
0.0
 10
119.0358273950322
 20
-145.266283804287
 30
0.0
 10
119.0358273950322
 20
-145.3213192046639
 30
0.0
 10
119.0358273950322
 20
-145.3763546050408
 30
0.0
 10
118.9910250048388
 20
-145.421140846349
 30
0.0
 10
118.9359949874237
 20
-145.421140846349
 30
0.0
  0
SPLINE
  5
56
330
1F
100
AcDbEntity
  8
_U+30EC_U+30A4_U+30E4_U+30FC 1
 62
   179
420
  2234388
370
     9
100
AcDbSpline
210
0.0
220
0.0
230
1.0
 70
    11
 71
     3
 72
    17
 73
    13
 74
     0
 42
0.0000000001
 43
0.0000000001
 12
1.0
 22
0.0
 32
0.0
 13
1.0
 23
0.0
 33
0.0
 40
0.0
 40
0.0
 40
0.0
 40
0.0
 40
1.0
 40
1.0
 40
1.0
 40
2.0
 40
2.0
 40
2.0
 40
3.0
 40
3.0
 40
3.0
 40
4.0
 40
4.0
 40
4.0
 40
4.0
 10
118.9363825606658
 20
-155.9206506975107
 30
0.0
 10
118.8813471602889
 20
-155.9206506975107
 30
0.0
 10
118.8365447700956
 20
-155.8758644562025
 30
0.0
 10
118.8365447700956
 20
-155.8208290558256
 30
0.0
 10
118.8365447700956
 20
-155.7657936554488
 30
0.0
 10
118.8813471602889
 20
-155.7209858822937
 30
0.0
 10
118.9363825606658
 20
-155.7209858822937
 30
0.0
 10
118.9914125780809
 20
-155.7209858822937
 30
0.0
 10
119.0362149682743
 20
-155.7657936554488
 30
0.0
 10
119.0362149682743
 20
-155.8208290558256
 30
0.0
 10
119.0362149682743
 20
-155.8758644562025
 30
0.0
 10
118.9914125780809
 20
-155.9206506975107
 30
0.0
 10
118.9363825606658
 20
-155.9206506975107
 30
0.0
  0
SPLINE
  5
57
330
1F
100
AcDbEntity
  8
_U+30EC_U+30A4_U+30E4_U+30FC 1
 62
   179
420
  2234388
370
     9
100
AcDbSpline
210
0.0
220
0.0
230
1.0
 70
    11
 71
     3
 72
    17
 73
    13
 74
     0
 42
0.0000000001
 43
0.0000000001
 12
1.0
 22
0.0
 32
0.0
 13
1.0
 23
0.0
 33
0.0
 40
0.0
 40
0.0
 40
0.0
 40
0.0
 40
1.0
 40
1.0
 40
1.0
 40
2.0
 40
2.0
 40
2.0
 40
3.0
 40
3.0
 40
3.0
 40
4.0
 40
4.0
 40
4.0
 40
4.0
 10
118.9363825606658
 20
-151.9210455620631
 30
0.0
 10
118.8813471602889
 20
-151.9210455620631
 30
0.0
 10
118.8365447700956
 20
-151.8762593207549
 30
0.0
 10
118.8365447700956
 20
-151.821223920378
 30
0.0
 10
118.8365447700956
 20
-151.7661885200012
 30
0.0
 10
118.8813471602889
 20
-151.7213807468461
 30
0.0
 10
118.9363825606658
 20
-151.7213807468461
 30
0.0
 10
118.9914125780809
 20
-151.7213807468461
 30
0.0
 10
119.0362149682743
 20
-151.7661885200012
 30
0.0
 10
119.0362149682743
 20
-151.821223920378
 30
0.0
 10
119.0362149682743
 20
-151.8762593207549
 30
0.0
 10
118.9914125780809
 20
-151.9210455620631
 30
0.0
 10
118.9363825606658
 20
-151.9210455620631
 30
0.0
  0
SPLINE
  5
58
330
1F
100
AcDbEntity
  8
_U+30EC_U+30A4_U+30E4_U+30FC 1
 62
   179
420
  2234388
370
     9
100
AcDbSpline
210
0.0
220
0.0
230
1.0
 70
    11
 71
     3
 72
    17
 73
    13
 74
     0
 42
0.0000000001
 43
0.0000000001
 12
1.0
 22
0.0
 32
0.0
 13
1.0
 23
0.0
 33
0.0
 40
0.0
 40
0.0
 40
0.0
 40
0.0
 40
1.0
 40
1.0
 40
1.0
 40
2.0
 40
2.0
 40
2.0
 40
3.0
 40
3.0
 40
3.0
 40
4.0
 40
4.0
 40
4.0
 40
4.0
 10
92.93584859431975
 20
-159.9207295335875
 30
0.0
 10
92.88046060995183
 20
-159.9207295335875
 30
0.0
 10
92.83601080374955
 20
-159.8759432922793
 30
0.0
 10
92.83601080374955
 20
-159.8209078919024
 30
0.0
 10
92.83601080374955
 20
-159.765527981977
 30
0.0
 10
92.88046060995183
 20
-159.720720208822
 30
0.0
 10
92.93584859431975
 20
-159.720720208822
 30
0.0
 10
92.99088130321577
 20
-159.720720208822
 30
0.0
 10
93.03568369340911
 20
-159.765527981977
 30
0.0
 10
93.03568369340911
 20
-159.8209078919024
 30
0.0
 10
93.03568369340911
 20
-159.8759432922793
 30
0.0
 10
92.99088130321577
 20
-159.9207295335875
 30
0.0
 10
92.93584859431975
 20
-159.9207295335875
 30
0.0
  0
SPLINE
  5
59
330
1F
100
AcDbEntity
  8
_U+30EC_U+30A4_U+30E4_U+30FC 1
 62
   179
420
  2234388
370
     9
100
AcDbSpline
210
0.0
220
0.0
230
1.0
 70
    11
 71
     3
 72
    17
 73
    13
 74
     0
 42
0.0000000001
 43
0.0000000001
 12
1.0
 22
0.0
 32
0.0
 13
1.0
 23
0.0
 33
0.0
 40
0.0
 40
0.0
 40
0.0
 40
0.0
 40
1.0
 40
1.0
 40
1.0
 40
2.0
 40
2.0
 40
2.0
 40
3.0
 40
3.0
 40
3.0
 40
4.0
 40
4.0
 40
4.0
 40
4.0
 10
89.93589712649639
 20
-159.9207295335875
 30
0.0
 10
89.88050914212813
 20
-159.9207295335875
 30
0.0
 10
89.8357067519348
 20
-159.8759432922793
 30
0.0
 10
89.8357067519348
 20
-159.8209078919024
 30
0.0
 10
89.8357067519348
 20
-159.765527981977
 30
0.0
 10
89.88050914212813
 20
-159.720720208822
 30
0.0
 10
89.93589712649639
 20
-159.720720208822
 30
0.0
 10
89.99092983539208
 20
-159.720720208822
 30
0.0
 10
90.03573222558542
 20
-159.765527981977
 30
0.0
 10
90.03573222558542
 20
-159.8209078919024
 30
0.0
 10
90.03573222558542
 20
-159.8759432922793
 30
0.0
 10
89.99092983539208
 20
-159.9207295335875
 30
0.0
 10
89.93589712649639
 20
-159.9207295335875
 30
0.0
  0
POLYLINE
  5
5A
330
1F
100
AcDbEntity
  8
_U+30EC_U+30A4_U+30E4_U+30FC 1
 62
   179
420
  2234388
370
     9
100
AcDb2dPolyline
 66
     1
 10
0.0
 20
0.0
 30
0.0
  0
VERTEX
  5
5B
330
5A
100
AcDbEntity
  8
_U+30EC_U+30A4_U+30E4_U+30FC 1
 62
   179
420
  2234388
370
     9
100
AcDbVertex
100
AcDb2dVertex
 10
89.93589712649639
 20
-159.8208217645153
 30
0.0
  0
VERTEX
  5
5C
330
5A
100
AcDbEntity
  8
_U+30EC_U+30A4_U+30E4_U+30FC 1
 62
   179
420
  2234388
370
     9
100
AcDbVertex
100
AcDb2dVertex
 10
92.93591857282179
 20
-159.8208217645153
 30
0.0
  0
SEQEND
  5
5D
330
5A
100
AcDbEntity
  8
_U+30EC_U+30A4_U+30E4_U+30FC 1
 62
   179
420
  2234388
370
     9
  0
POLYLINE
  5
5E
330
1F
100
AcDbEntity
  8
_U+30EC_U+30A4_U+30E4_U+30FC 1
 62
   179
420
  2234388
370
     9
100
AcDb2dPolyline
 66
     1
 10
0.0
 20
0.0
 30
0.0
  0
VERTEX
  5
5F
330
5E
100
AcDbEntity
  8
_U+30EC_U+30A4_U+30E4_U+30FC 1
 62
   179
420
  2234388
370
     9
100
AcDbVertex
100
AcDb2dVertex
 10
89.93589712649639
 20
-158.3607472341728
 30
0.0
  0
VERTEX
  5
60
330
5E
100
AcDbEntity
  8
_U+30EC_U+30A4_U+30E4_U+30FC 1
 62
   179
420
  2234388
370
     9
100
AcDbVertex
100
AcDb2dVertex
 10
89.93589712649639
 20
-160.8206746017219
 30
0.0
  0
SEQEND
  5
61
330
5E
100
AcDbEntity
  8
_U+30EC_U+30A4_U+30E4_U+30FC 1
 62
   179
420
  2234388
370
     9
  0
POLYLINE
  5
62
330
1F
100
AcDbEntity
  8
_U+30EC_U+30A4_U+30E4_U+30FC 1
 62
   179
420
  2234388
370
     9
100
AcDb2dPolyline
 66
     1
 10
0.0
 20
0.0
 30
0.0
  0
VERTEX
  5
63
330
62
100
AcDbEntity
  8
_U+30EC_U+30A4_U+30E4_U+30FC 1
 62
   179
420
  2234388
370
     9
100
AcDbVertex
100
AcDb2dVertex
 10
92.93584859431975
 20
-158.3607472341728
 30
0.0
  0
VERTEX
  5
64
330
62
100
AcDbEntity
  8
_U+30EC_U+30A4_U+30E4_U+30FC 1
 62
   179
420
  2234388
370
     9
100
AcDbVertex
100
AcDb2dVertex
 10
92.93584859431975
 20
-160.8206746017219
 30
0.0
  0
SEQEND
  5
65
330
62
100
AcDbEntity
  8
_U+30EC_U+30A4_U+30E4_U+30FC 1
 62
   179
420
  2234388
370
     9
  0
INSERT
  5
67
330
1F
100
AcDbEntity
  8
_U+30EC_U+30A4_U+30E4_U+30FC 1
100
AcDbBlockReference
  2
block 2
 10
0.0
 20
0.0
 30
0.0
  0
POLYLINE
  5
6C
330
1F
100
AcDbEntity
  8
_U+30EC_U+30A4_U+30E4_U+30FC 1
 62
   179
420
  2234388
370
     9
100
AcDb2dPolyline
 66
     1
 10
0.0
 20
0.0
 30
0.0
  0
VERTEX
  5
6D
330
6C
100
AcDbEntity
  8
_U+30EC_U+30A4_U+30E4_U+30FC 1
 62
   179
420
  2234388
370
     9
100
AcDbVertex
100
AcDb2dVertex
 10
89.93589712649639
 20
-140.3210645536784
 30
0.0
  0
VERTEX
  5
6E
330
6C
100
AcDbEntity
  8
_U+30EC_U+30A4_U+30E4_U+30FC 1
 62
   179
420
  2234388
370
     9
100
AcDbVertex
100
AcDb2dVertex
 10
114.8585899065881
 20
-140.3210645536784
 30
0.0
  0
SEQEND
  5
6F
330
6C
100
AcDbEntity
  8
_U+30EC_U+30A4_U+30E4_U+30FC 1
 62
   179
420
  2234388
370
     9
  0
POLYLINE
  5
70
330
1F
100
AcDbEntity
  8
_U+30EC_U+30A4_U+30E4_U+30FC 1
 62
   179
420
  2234388
370
     9
100
AcDb2dPolyline
 66
     1
 10
0.0
 20
0.0
 30
0.0
  0
VERTEX
  5
71
330
70
100
AcDbEntity
  8
_U+30EC_U+30A4_U+30E4_U+30FC 1
 62
   179
420
  2234388
370
     9
100
AcDbVertex
100
AcDb2dVertex
 10
89.93589712649639
 20
-141.7810744884805
 30
0.0
  0
VERTEX
  5
72
330
70
100
AcDbEntity
  8
_U+30EC_U+30A4_U+30E4_U+30FC 1
 62
   179
420
  2234388
370
     9
100
AcDbVertex
100
AcDb2dVertex
 10
89.93589712649639
 20
-139.3211686527785
 30
0.0
  0
SEQEND
  5
73
330
70
100
AcDbEntity
  8
_U+30EC_U+30A4_U+30E4_U+30FC 1
 62
   179
420
  2234388
370
     9
  0
POLYLINE
  5
74
330
1F
100
AcDbEntity
  8
_U+30EC_U+30A4_U+30E4_U+30FC 1
 62
   179
420
  2234388
370
     9
100
AcDb2dPolyline
 66
     1
 10
0.0
 20
0.0
 30
0.0
  0
VERTEX
  5
75
330
74
100
AcDbEntity
  8
_U+30EC_U+30A4_U+30E4_U+30FC 1
 62
   179
420
  2234388
370
     9
100
AcDbVertex
100
AcDb2dVertex
 10
114.8585522258562
 20
-141.7810744884805
 30
0.0
  0
VERTEX
  5
76
330
74
100
AcDbEntity
  8
_U+30EC_U+30A4_U+30E4_U+30FC 1
 62
   179
420
  2234388
370
     9
100
AcDbVertex
100
AcDb2dVertex
 10
114.8585522258562
 20
-139.3211686527785
 30
0.0
  0
SEQEND
  5
77
330
74
100
AcDbEntity
  8
_U+30EC_U+30A4_U+30E4_U+30FC 1
 62
   179
420
  2234388
370
     9
  0
INSERT
  5
79
330
1F
100
AcDbEntity
  8
_U+30EC_U+30A4_U+30E4_U+30FC 1
100
AcDbBlockReference
  2
block 3
 10
0.0
 20
0.0
 30
0.0
  0
POLYLINE
  5
80
330
1F
100
AcDbEntity
  8
_U+30EC_U+30A4_U+30E4_U+30FC 1
 62
   179
420
  2234388
370
     9
100
AcDb2dPolyline
 66
     1
 10
0.0
 20
0.0
 30
0.0
  0
VERTEX
  5
81
330
80
100
AcDbEntity
  8
_U+30EC_U+30A4_U+30E4_U+30FC 1
 62
   179
420
  2234388
370
     9
100
AcDbVertex
100
AcDb2dVertex
 10
118.9363825606658
 20
-151.8210947292973
 30
0.0
  0
VERTEX
  5
82
330
80
100
AcDbEntity
  8
_U+30EC_U+30A4_U+30E4_U+30FC 1
 62
   179
420
  2234388
370
     9
100
AcDbVertex
100
AcDb2dVertex
 10
118.9363825606658
 20
-155.8205491418175
 30
0.0
  0
SEQEND
  5
83
330
80
100
AcDbEntity
  8
_U+30EC_U+30A4_U+30E4_U+30FC 1
 62
   179
420
  2234388
370
     9
  0
POLYLINE
  5
84
330
1F
100
AcDbEntity
  8
_U+30EC_U+30A4_U+30E4_U+30FC 1
 62
   179
420
  2234388
370
     9
100
AcDb2dPolyline
 66
     1
 10
0.0
 20
0.0
 30
0.0
  0
VERTEX
  5
85
330
84
100
AcDbEntity
  8
_U+30EC_U+30A4_U+30E4_U+30FC 1
 62
   179
420
  2234388
370
     9
100
AcDbVertex
100
AcDb2dVertex
 10
95.47560259233526
 20
-151.8210947292973
 30
0.0
  0
VERTEX
  5
86
330
84
100
AcDbEntity
  8
_U+30EC_U+30A4_U+30E4_U+30FC 1
 62
   179
420
  2234388
370
     9
100
AcDbVertex
100
AcDb2dVertex
 10
119.9354494854648
 20
-151.8210947292973
 30
0.0
  0
SEQEND
  5
87
330
84
100
AcDbEntity
  8
_U+30EC_U+30A4_U+30E4_U+30FC 1
 62
   179
420
  2234388
370
     9
  0
POLYLINE
  5
88
330
1F
100
AcDbEntity
  8
_U+30EC_U+30A4_U+30E4_U+30FC 1
 62
   179
420
  2234388
370
     9
100
AcDb2dPolyline
 66
     1
 10
0.0
 20
0.0
 30
0.0
  0
VERTEX
  5
89
330
88
100
AcDbEntity
  8
_U+30EC_U+30A4_U+30E4_U+30FC 1
 62
   179
420
  2234388
370
     9
100
AcDbVertex
100
AcDb2dVertex
 10
95.47560259233526
 20
-155.8206783328981
 30
0.0
  0
VERTEX
  5
8A
330
88
100
AcDbEntity
  8
_U+30EC_U+30A4_U+30E4_U+30FC 1
 62
   179
420
  2234388
370
     9
100
AcDbVertex
100
AcDb2dVertex
 10
119.9354494854648
 20
-155.8206783328981
 30
0.0
  0
SEQEND
  5
8B
330
88
100
AcDbEntity
  8
_U+30EC_U+30A4_U+30E4_U+30FC 1
 62
   179
420
  2234388
370
     9
  0
INSERT
  5
8D
330
1F
100
AcDbEntity
  8
_U+30EC_U+30A4_U+30E4_U+30FC 1
100
AcDbBlockReference
  2
block 4
 10
0.0
 20
0.0
 30
0.0
  0
POLYLINE
  5
A5
330
1F
100
AcDbEntity
  8
_U+30EC_U+30A4_U+30E4_U+30FC 1
 62
   179
420
  2234388
370
     9
100
AcDb2dPolyline
 66
     1
 10
0.0
 20
0.0
 30
0.0
  0
VERTEX
  5
A6
330
A5
100
AcDbEntity
  8
_U+30EC_U+30A4_U+30E4_U+30FC 1
 62
   179
420
  2234388
370
     9
100
AcDbVertex
100
AcDb2dVertex
 10
118.9363825606658
 20
-151.8210947292973
 30
0.0
  0
VERTEX
  5
A7
330
A5
100
AcDbEntity
  8
_U+30EC_U+30A4_U+30E4_U+30FC 1
 62
   179
420
  2234388
370
     9
100
AcDbVertex
100
AcDb2dVertex
 10
118.9363825606658
 20
-145.3211684817361
 30
0.0
  0
SEQEND
  5
A8
330
A5
100
AcDbEntity
  8
_U+30EC_U+30A4_U+30E4_U+30FC 1
 62
   179
420
  2234388
370
     9
  0
INSERT
  5
AA
330
1F
100
AcDbEntity
  8
_U+30EC_U+30A4_U+30E4_U+30FC 1
100
AcDbBlockReference
  2
block 5
 10
0.0
 20
0.0
 30
0.0
  0
POLYLINE
  5
BA
330
1F
100
AcDbEntity
  8
_U+30EC_U+30A4_U+30E4_U+30FC 1
 62
   179
420
  2234388
370
     9
100
AcDb2dPolyline
 66
     1
 10
0.0
 20
0.0
 30
0.0
  0
VERTEX
  5
BB
330
BA
100
AcDbEntity
  8
_U+30EC_U+30A4_U+30E4_U+30FC 1
 62
   179
420
  2234388
370
     9
100
AcDbVertex
100
AcDb2dVertex
 10
118.9359949874237
 20
-145.3212330772768
 30
0.0
  0
VERTEX
  5
BC
330
BA
100
AcDbEntity
  8
_U+30EC_U+30A4_U+30E4_U+30FC 1
 62
   179
420
  2234388
370
     9
100
AcDbVertex
100
AcDb2dVertex
 10
118.9359949874237
 20
-149.0917393629549
 30
0.0
  0
SEQEND
  5
BD
330
BA
100
AcDbEntity
  8
_U+30EC_U+30A4_U+30E4_U+30FC 1
 62
   179
420
  2234388
370
     9
  0
POLYLINE
  5
BE
330
1F
100
AcDbEntity
  8
_U+30EC_U+30A4_U+30E4_U+30FC 1
 62
   179
420
  2234388
370
     9
100
AcDb2dPolyline
 66
     1
 10
0.0
 20
0.0
 30
0.0
  0
VERTEX
  5
BF
330
BE
100
AcDbEntity
  8
_U+30EC_U+30A4_U+30E4_U+30FC 1
 62
   179
420
  2234388
370
     9
100
AcDbVertex
100
AcDb2dVertex
 10
117.4759527548514
 20
-145.3212330772768
 30
0.0
  0
VERTEX
  5
C0
330
BE
100
AcDbEntity
  8
_U+30EC_U+30A4_U+30E4_U+30FC 1
 62
   179
420
  2234388
370
     9
100
AcDbVertex
100
AcDb2dVertex
 10
119.9358693564771
 20
-145.3212330772768
 30
0.0
  0
SEQEND
  5
C1
330
BE
100
AcDbEntity
  8
_U+30EC_U+30A4_U+30E4_U+30FC 1
 62
   179
420
  2234388
370
     9
  0
POLYLINE
  5
C2
330
1F
100
AcDbEntity
  8
_U+30EC_U+30A4_U+30E4_U+30FC 1
 62
   179
420
  2234388
370
     9
100
AcDb2dPolyline
 66
     1
 10
0.0
 20
0.0
 30
0.0
  0
VERTEX
  5
C3
330
C2
100
AcDbEntity
  8
_U+30EC_U+30A4_U+30E4_U+30FC 1
 62
   179
420
  2234388
370
     9
100
AcDbVertex
100
AcDb2dVertex
 10
117.4759527548514
 20
-144.3211433897552
 30
0.0
  0
VERTEX
  5
C4
330
C2
100
AcDbEntity
  8
_U+30EC_U+30A4_U+30E4_U+30FC 1
 62
   179
420
  2234388
370
     9
100
AcDbVertex
100
AcDb2dVertex
 10
119.9358693564771
 20
-144.3211433897552
 30
0.0
  0
SEQEND
  5
C5
330
C2
100
AcDbEntity
  8
_U+30EC_U+30A4_U+30E4_U+30FC 1
 62
   179
420
  2234388
370
     9
  0
INSERT
  5
C7
330
1F
100
AcDbEntity
  8
_U+30EC_U+30A4_U+30E4_U+30FC 1
100
AcDbBlockReference
  2
block 6
 10
0.0
 20
0.0
 30
0.0
  0
POLYLINE
  5
CC
330
1F
100
AcDbEntity
  8
_U+30EC_U+30A4_U+30E4_U+30FC 1
 62
   179
420
  2234388
370
     9
100
AcDb2dPolyline
 66
     1
 10
0.0
 20
0.0
 30
0.0
  0
VERTEX
  5
CD
330
CC
100
AcDbEntity
  8
_U+30EC_U+30A4_U+30E4_U+30FC 1
 62
   179
420
  2234388
370
     9
100
AcDbVertex
100
AcDb2dVertex
 10
118.9359949874237
 20
-144.3211433897552
 30
0.0
  0
VERTEX
  5
CE
330
CC
100
AcDbEntity
  8
_U+30EC_U+30A4_U+30E4_U+30FC 1
 62
   179
420
  2234388
370
     9
100
AcDbVertex
100
AcDb2dVertex
 10
118.9359949874237
 20
-145.3209316314215
 30
0.0
  0
SEQEND
  5
CF
330
CC
100
AcDbEntity
  8
_U+30EC_U+30A4_U+30E4_U+30FC 1
 62
   179
420
  2234388
370
     9
  0
ENDSEC
  0
SECTION
  2
OBJECTS
  0
DICTIONARY
  5
C
330
0
100
AcDbDictionary
281
     1
  3
ACAD_GROUP
350
D
  3
ACAD_LAYOUT
350
1A
  3
ACAD_MATERIAL
350
3B
  3
ACAD_MLEADERSTYLE
350
D1
  3
ACAD_MLINESTYLE
350
17
  3
ACAD_PLOTSETTINGS
350
19
  3
ACAD_PLOTSTYLENAME
350
E
  3
ACAD_TABLESTYLE
350
D0
  3
ACAD_VISUALSTYLE
350
2A
  0
SUN
  5
3F
330
29
100
AcDbSun
 90
        1
290
     0
 63
     7
421
 16777215
 40
1.0
291
     1
 91
  2455826
 92
 54000000
292
     0
 70
     2
 71
   256
280
     1
  0
DICTIONARY
  5
D
102
{ACAD_REACTORS
330
C
102
}
330
C
100
AcDbDictionary
281
     1
  0
DICTIONARY
  5
1A
102
{ACAD_REACTORS
330
C
102
}
330
C
100
AcDbDictionary
281
     1
  3
Layout1
350
1E
  3
Layout2
350
26
  3
Model
350
22
  0
DICTIONARY
  5
3B
102
{ACAD_REACTORS
330
C
102
}
330
C
100
AcDbDictionary
281
     1
  3
ByBlock
350
3D
  3
ByLayer
350
3C
  3
Global
350
3E
  0
DICTIONARY
  5
D1
102
{ACAD_REACTORS
330
C
102
}
330
C
100
AcDbDictionary
281
     1
  0
DICTIONARY
  5
17
102
{ACAD_REACTORS
330
C
102
}
330
C
100
AcDbDictionary
281
     1
  3
Standard
350
18
  0
DICTIONARY
  5
19
102
{ACAD_REACTORS
330
C
102
}
330
C
100
AcDbDictionary
281
     1
  0
ACDBDICTIONARYWDFLT
  5
E
102
{ACAD_REACTORS
330
C
102
}
330
C
100
AcDbDictionary
281
     1
  3
Normal
350
F
100
AcDbDictionaryWithDefault
340
F
  0
DICTIONARY
  5
D0
102
{ACAD_REACTORS
330
C
102
}
330
C
100
AcDbDictionary
281
     1
  0
DICTIONARY
  5
2A
102
{ACAD_REACTORS
330
C
102
}
330
C
100
AcDbDictionary
281
     1
  3
2dWireframe
350
2F
  3
3D Hidden
350
31
  3
3dWireframe
350
30
  3
Basic
350
32
  3
Brighten
350
36
  3
ColorChange
350
3A
  3
Conceptual
350
34
  3
Dim
350
35
  3
Facepattern
350
39
  3
Flat
350
2B
  3
FlatWithEdges
350
2C
  3
Gouraud
350
2D
  3
GouraudWithEdges
350
2E
  3
Linepattern
350
38
  3
Realistic
350
33
  3
Thicken
350
37
  0
LAYOUT
  5
1E
102
{ACAD_REACTORS
330
1A
102
}
330
1A
100
AcDbPlotSettings
  1

  2
none_device
  4

  6

 40
0.0
 41
0.0
 42
0.0
 43
0.0
 44
0.0
 45
0.0
 46
0.0
 47
0.0
 48
0.0
 49
0.0
140
0.0
141
0.0
142
1.0
143
1.0
 70
   688
 72
     0
 73
     0
 74
     5
  7

 75
    16
 76
     0
 77
     2
 78
   300
147
1.0
148
0.0
149
0.0
100
AcDbLayout
  1
Layout1
 70
     1
 71
     1
 10
0.0
 20
0.0
 11
12.0
 21
9.0
 12
0.0
 22
0.0
 32
0.0
 14
1.000000000000000E+20
 24
1.000000000000000E+20
 34
1.000000000000000E+20
 15
-1.000000000000000E+20
 25
-1.000000000000000E+20
 35
-1.000000000000000E+20
146
0.0
 13
0.0
 23
0.0
 33
0.0
 16
1.0
 26
0.0
 36
0.0
 17
0.0
 27
1.0
 37
0.0
 76
     0
330
1B
  0
LAYOUT
  5
26
102
{ACAD_REACTORS
330
1A
102
}
330
1A
100
AcDbPlotSettings
  1

  2
none_device
  4

  6

 40
0.0
 41
0.0
 42
0.0
 43
0.0
 44
0.0
 45
0.0
 46
0.0
 47
0.0
 48
0.0
 49
0.0
140
0.0
141
0.0
142
1.0
143
1.0
 70
   688
 72
     0
 73
     0
 74
     5
  7

 75
    16
 76
     0
 77
     2
 78
   300
147
1.0
148
0.0
149
0.0
100
AcDbLayout
  1
Layout2
 70
     1
 71
     2
 10
0.0
 20
0.0
 11
0.0
 21
0.0
 12
0.0
 22
0.0
 32
0.0
 14
0.0
 24
0.0
 34
0.0
 15
0.0
 25
0.0
 35
0.0
146
0.0
 13
0.0
 23
0.0
 33
0.0
 16
1.0
 26
0.0
 36
0.0
 17
0.0
 27
1.0
 37
0.0
 76
     0
330
23
  0
LAYOUT
  5
22
102
{ACAD_REACTORS
330
1A
102
}
330
1A
100
AcDbPlotSettings
  1

  2
none_device
  4

  6

 40
0.0
 41
0.0
 42
0.0
 43
0.0
 44
0.0
 45
0.0
 46
0.0
 47
0.0
 48
0.0
 49
0.0
140
0.0
141
0.0
142
1.0
143
1.0
 70
  1712
 72
     0
 73
     0
 74
     0
  7

 75
     0
 76
     0
 77
     2
 78
   300
147
1.0
148
0.0
149
0.0
100
AcDbLayout
  1
Model
 70
     1
 71
     0
 10
0.0
 20
0.0
 11
12.0
 21
9.0
 12
0.0
 22
0.0
 32
0.0
 14
1.000000000000000E+20
 24
1.000000000000000E+20
 34
1.000000000000000E+20
 15
-1.000000000000000E+20
 25
-1.000000000000000E+20
 35
-1.000000000000000E+20
146
0.0
 13
0.0
 23
0.0
 33
0.0
 16
1.0
 26
0.0
 36
0.0
 17
0.0
 27
1.0
 37
0.0
 76
     0
330
1F
331
29
  0
MATERIAL
  5
3D
102
{ACAD_REACTORS
330
3B
102
}
330
3B
100
AcDbMaterial
  1
ByBlock
 72
     1
 94
      127
  0
MATERIAL
  5
3C
102
{ACAD_REACTORS
330
3B
102
}
330
3B
100
AcDbMaterial
  1
ByLayer
 72
     1
 94
      127
  0
MATERIAL
  5
3E
102
{ACAD_REACTORS
330
3B
102
}
330
3B
100
AcDbMaterial
  1
Global
 72
     1
 94
      127
  0
MLINESTYLE
  5
18
102
{ACAD_REACTORS
330
17
102
}
330
17
100
AcDbMlineStyle
  2
Standard
 70
     0
  3

 62
   256
 51
90.0
 52
90.0
 71
     2
 49
0.5
 62
   256
  6
BYLAYER
 49
-0.5
 62
   256
  6
BYLAYER
  0
ACDBPLACEHOLDER
  5
F
102
{ACAD_REACTORS
330
E
102
}
330
E
  0
VISUALSTYLE
  5
2F
102
{ACAD_REACTORS
330
2A
102
}
330
2A
100
AcDbVisualStyle
  2
2dWireframe
 70
     4
177
     2
291
     0
 71
     0
176
     1
 72
     2
176
     1
 73
     0
176
     1
 90
        0
176
     1
 40
-0.6
176
     1
 41
-30.0
176
     1
 62
     5
 63
     7
421
 16777215
176
     1
 74
     1
176
     1
 91
        4
176
     1
 64
     7
176
     1
 65
   257
176
     1
 75
     1
176
     1
175
     1
176
     1
 42
1.0
176
     1
 92
        0
176
     1
 66
   257
176
     1
 43
1.0
176
     1
 76
     1
176
     1
 77
     6
176
     1
 78
     2
176
     1
 67
     7
176
     1
 79
     5
176
     1
170
     0
176
     1
171
     0
176
     1
290
     0
176
     1
 93
        1
176
     1
 44
0.0
176
     1
173
     0
176
     1
  0
VISUALSTYLE
  5
31
102
{ACAD_REACTORS
330
2A
102
}
330
2A
100
AcDbVisualStyle
  2
3D Hidden
 70
     6
177
     2
291
     0
 71
     1
176
     1
 72
     2
176
     1
 73
     2
176
     1
 90
        0
176
     1
 40
-0.6
176
     1
 41
-30.0
176
     1
 62
     5
 63
     7
421
 16777215
176
     1
 74
     2
176
     1
 91
        2
176
     1
 64
     7
176
     1
 65
   257
176
     1
 75
     2
176
     1
175
     1
176
     1
 42
40.0
176
     1
 92
        0
176
     1
 66
   257
176
     1
 43
1.0
176
     1
 76
     1
176
     1
 77
     6
176
     1
 78
     2
176
     1
 67
     7
176
     1
 79
     3
176
     1
170
     0
176
     1
171
     0
176
     1
290
     0
176
     1
 93
        1
176
     1
 44
0.0
176
     1
173
     0
176
     1
  0
VISUALSTYLE
  5
30
102
{ACAD_REACTORS
330
2A
102
}
330
2A
100
AcDbVisualStyle
  2
3dWireframe
 70
     5
177
     2
291
     0
 71
     0
176
     1
 72
     2
176
     1
 73
     0
176
     1
 90
        0
176
     1
 40
-0.6
176
     1
 41
-30.0
176
     1
 62
     5
 63
     7
421
 16777215
176
     1
 74
     1
176
     1
 91
        4
176
     1
 64
     7
176
     1
 65
   257
176
     1
 75
     1
176
     1
175
     1
176
     1
 42
1.0
176
     1
 92
        0
176
     1
 66
   257
176
     1
 43
1.0
176
     1
 76
     1
176
     1
 77
     6
176
     1
 78
     2
176
     1
 67
     7
176
     1
 79
     5
176
     1
170
     0
176
     1
171
     0
176
     1
290
     0
176
     1
 93
        1
176
     1
 44
0.0
176
     1
173
     0
176
     1
  0
VISUALSTYLE
  5
32
102
{ACAD_REACTORS
330
2A
102
}
330
2A
100
AcDbVisualStyle
  2
Basic
 70
     7
177
     2
291
     1
 71
     1
176
     1
 72
     0
176
     1
 73
     1
176
     1
 90
        0
176
     1
 40
-0.6
176
     1
 41
-30.0
176
     1
 62
     5
 63
     7
421
 16777215
176
     1
 74
     0
176
     1
 91
        4
176
     1
 64
     7
176
     1
 65
   257
176
     1
 75
     1
176
     1
175
     1
176
     1
 42
1.0
176
     1
 92
        8
176
     1
 66
     7
176
     1
 43
1.0
176
     1
 76
     1
176
     1
 77
     6
176
     1
 78
     2
176
     1
 67
     7
176
     1
 79
     5
176
     1
170
     0
176
     1
171
     0
176
     1
290
     0
176
     1
 93
        1
176
     1
 44
0.0
176
     1
173
     0
176
     1
  0
VISUALSTYLE
  5
36
102
{ACAD_REACTORS
330
2A
102
}
330
2A
100
AcDbVisualStyle
  2
Brighten
 70
    12
177
     2
291
     1
 71
     2
176
     1
 72
     2
176
     1
 73
     0
176
     1
 90
        0
176
     1
 40
-0.6
176
     1
 41
-30.0
176
     1
 62
     5
 63
     7
421
 16777215
176
     1
 74
     1
176
     1
 91
        4
176
     1
 64
     7
176
     1
 65
   257
176
     1
 75
     1
176
     1
175
     1
176
     1
 42
1.0
176
     1
 92
        8
176
     1
 66
     7
176
     1
 43
1.0
176
     1
 76
     1
176
     1
 77
     6
176
     1
 78
     2
176
     1
 67
     7
176
     1
 79
     5
176
     1
170
     0
176
     1
171
     0
176
     1
290
     0
176
     1
 93
        1
176
     1
 44
50.0
176
     1
173
     0
176
     1
  0
VISUALSTYLE
  5
3A
102
{ACAD_REACTORS
330
2A
102
}
330
2A
100
AcDbVisualStyle
  2
ColorChange
 70
    16
177
     2
291
     1
 71
     2
176
     1
 72
     2
176
     1
 73
     3
176
     1
 90
        0
176
     1
 40
-0.6
176
     1
 41
-30.0
176
     1
 62
     5
 63
     8
421
  8421504
176
     1
 74
     1
176
     1
 91
        4
176
     1
 64
     7
176
     1
 65
   257
176
     1
 75
     1
176
     1
175
     1
176
     1
 42
1.0
176
     1
 92
        8
176
     1
 66
     8
424
  8421504
176
     1
 43
1.0
176
     1
 76
     1
176
     1
 77
     6
176
     1
 78
     2
176
     1
 67
     7
176
     1
 79
     5
176
     1
170
     0
176
     1
171
     0
176
     1
290
     0
176
     1
 93
        1
176
     1
 44
0.0
176
     1
173
     0
176
     1
  0
VISUALSTYLE
  5
34
102
{ACAD_REACTORS
330
2A
102
}
330
2A
100
AcDbVisualStyle
  2
Conceptual
 70
     9
177
     2
291
     0
 71
     3
176
     1
 72
     2
176
     1
 73
     0
176
     1
 90
        0
176
     1
 40
-0.6
176
     1
 41
-30.0
176
     1
 62
     5
 63
     7
421
 16777215
176
     1
 74
     2
176
     1
 91
        2
176
     1
 64
     7
176
     1
 65
   257
176
     1
 75
     1
176
     1
175
     1
176
     1
 42
40.0
176
     1
 92
        8
176
     1
 66
     7
176
     1
 43
1.0
176
     1
 76
     1
176
     1
 77
     6
176
     1
 78
     2
176
     1
 67
     7
176
     1
 79
     3
176
     1
170
     0
176
     1
171
     0
176
     1
290
     0
176
     1
 93
        1
176
     1
 44
0.0
176
     1
173
     0
176
     1
  0
VISUALSTYLE
  5
35
102
{ACAD_REACTORS
330
2A
102
}
330
2A
100
AcDbVisualStyle
  2
Dim
 70
    11
177
     2
291
     1
 71
     2
176
     1
 72
     2
176
     1
 73
     0
176
     1
 90
        0
176
     1
 40
-0.6
176
     1
 41
-30.0
176
     1
 62
     5
 63
     7
421
 16777215
176
     1
 74
     1
176
     1
 91
        4
176
     1
 64
     7
176
     1
 65
   257
176
     1
 75
     1
176
     1
175
     1
176
     1
 42
1.0
176
     1
 92
        8
176
     1
 66
     7
176
     1
 43
1.0
176
     1
 76
     1
176
     1
 77
     6
176
     1
 78
     2
176
     1
 67
     7
176
     1
 79
     5
176
     1
170
     0
176
     1
171
     0
176
     1
290
     0
176
     1
 93
        1
176
     1
 44
-50.0
176
     1
173
     0
176
     1
  0
VISUALSTYLE
  5
39
102
{ACAD_REACTORS
330
2A
102
}
330
2A
100
AcDbVisualStyle
  2
Facepattern
 70
    15
177
     2
291
     1
 71
     2
176
     1
 72
     2
176
     1
 73
     0
176
     1
 90
        0
176
     1
 40
-0.6
176
     1
 41
-30.0
176
     1
 62
     5
 63
     7
421
 16777215
176
     1
 74
     1
176
     1
 91
        4
176
     1
 64
     7
176
     1
 65
   257
176
     1
 75
     1
176
     1
175
     1
176
     1
 42
1.0
176
     1
 92
        8
176
     1
 66
     7
176
     1
 43
1.0
176
     1
 76
     1
176
     1
 77
     6
176
     1
 78
     2
176
     1
 67
     7
176
     1
 79
     5
176
     1
170
     0
176
     1
171
     0
176
     1
290
     0
176
     1
 93
        1
176
     1
 44
0.0
176
     1
173
     0
176
     1
  0
VISUALSTYLE
  5
2B
102
{ACAD_REACTORS
330
2A
102
}
330
2A
100
AcDbVisualStyle
  2
Flat
 70
     0
177
     2
291
     1
 71
     2
176
     1
 72
     1
176
     1
 73
     1
176
     1
 90
        2
176
     1
 40
-0.6
176
     1
 41
30.0
176
     1
 62
     5
 63
     7
421
 16777215
176
     1
 74
     0
176
     1
 91
        4
176
     1
 64
     7
176
     1
 65
   257
176
     1
 75
     1
176
     1
175
     1
176
     1
 42
1.0
176
     1
 92
        8
176
     1
 66
     7
176
     1
 43
1.0
176
     1
 76
     1
176
     1
 77
     6
176
     1
 78
     2
176
     1
 67
     7
176
     1
 79
     5
176
     1
170
     0
176
     1
171
     0
176
     1
290
     0
176
     1
 93
       13
176
     1
 44
0.0
176
     1
173
     0
176
     1
  0
VISUALSTYLE
  5
2C
102
{ACAD_REACTORS
330
2A
102
}
330
2A
100
AcDbVisualStyle
  2
FlatWithEdges
 70
     1
177
     2
291
     1
 71
     2
176
     1
 72
     1
176
     1
 73
     1
176
     1
 90
        2
176
     1
 40
-0.6
176
     1
 41
30.0
176
     1
 62
     5
 63
     7
421
 16777215
176
     1
 74
     1
176
     1
 91
        4
176
     1
 64
     7
176
     1
 65
   257
176
     1
 75
     1
176
     1
175
     1
176
     1
 42
1.0
176
     1
 92
        0
176
     1
 66
   257
176
     1
 43
1.0
176
     1
 76
     1
176
     1
 77
     6
176
     1
 78
     2
176
     1
 67
     7
176
     1
 79
     5
176
     1
170
     0
176
     1
171
     0
176
     1
290
     0
176
     1
 93
       13
176
     1
 44
0.0
176
     1
173
     0
176
     1
  0
VISUALSTYLE
  5
2D
102
{ACAD_REACTORS
330
2A
102
}
330
2A
100
AcDbVisualStyle
  2
Gouraud
 70
     2
177
     2
291
     1
 71
     2
176
     1
 72
     2
176
     1
 73
     1
176
     1
 90
        2
176
     1
 40
-0.6
176
     1
 41
30.0
176
     1
 62
     5
 63
     7
421
 16777215
176
     1
 74
     0
176
     1
 91
        4
176
     1
 64
     7
176
     1
 65
   257
176
     1
 75
     1
176
     1
175
     1
176
     1
 42
1.0
176
     1
 92
        0
176
     1
 66
     7
176
     1
 43
1.0
176
     1
 76
     1
176
     1
 77
     6
176
     1
 78
     2
176
     1
 67
     7
176
     1
 79
     5
176
     1
170
     0
176
     1
171
     0
176
     1
290
     0
176
     1
 93
       13
176
     1
 44
0.0
176
     1
173
     0
176
     1
  0
VISUALSTYLE
  5
2E
102
{ACAD_REACTORS
330
2A
102
}
330
2A
100
AcDbVisualStyle
  2
GouraudWithEdges
 70
     3
177
     2
291
     1
 71
     2
176
     1
 72
     2
176
     1
 73
     1
176
     1
 90
        2
176
     1
 40
-0.6
176
     1
 41
30.0
176
     1
 62
     5
 63
     7
421
 16777215
176
     1
 74
     1
176
     1
 91
        4
176
     1
 64
     7
176
     1
 65
   257
176
     1
 75
     1
176
     1
175
     1
176
     1
 42
1.0
176
     1
 92
        0
176
     1
 66
   257
176
     1
 43
1.0
176
     1
 76
     1
176
     1
 77
     6
176
     1
 78
     2
176
     1
 67
     7
176
     1
 79
     5
176
     1
170
     0
176
     1
171
     0
176
     1
290
     0
176
     1
 93
       13
176
     1
 44
0.0
176
     1
173
     0
176
     1
  0
VISUALSTYLE
  5
38
102
{ACAD_REACTORS
330
2A
102
}
330
2A
100
AcDbVisualStyle
  2
Linepattern
 70
    14
177
     2
291
     1
 71
     2
176
     1
 72
     2
176
     1
 73
     0
176
     1
 90
        0
176
     1
 40
-0.6
176
     1
 41
-30.0
176
     1
 62
     5
 63
     7
421
 16777215
176
     1
 74
     1
176
     1
 91
        4
176
     1
 64
     7
176
     1
 65
   257
176
     1
 75
     7
176
     1
175
     7
176
     1
 42
1.0
176
     1
 92
        8
176
     1
 66
     7
176
     1
 43
1.0
176
     1
 76
     1
176
     1
 77
     6
176
     1
 78
     2
176
     1
 67
     7
176
     1
 79
     5
176
     1
170
     0
176
     1
171
     0
176
     1
290
     0
176
     1
 93
        1
176
     1
 44
0.0
176
     1
173
     0
176
     1
  0
VISUALSTYLE
  5
33
102
{ACAD_REACTORS
330
2A
102
}
330
2A
100
AcDbVisualStyle
  2
Realistic
 70
     8
177
     2
291
     0
 71
     2
176
     1
 72
     2
176
     1
 73
     0
176
     1
 90
        0
176
     1
 40
-0.6
176
     1
 41
-30.0
176
     1
 62
     5
 63
     7
421
 16777215
176
     1
 74
     1
176
     1
 91
        0
176
     1
 64
     7
176
     1
 65
   257
176
     1
 75
     1
176
     1
175
     1
176
     1
 42
1.0
176
     1
 92
        8
176
     1
 66
     8
424
  7895160
176
     1
 43
1.0
176
     1
 76
     1
176
     1
 77
     6
176
     1
 78
     2
176
     1
 67
     7
176
     1
 79
     5
176
     1
170
     0
176
     1
171
     0
176
     1
290
     0
176
     1
 93
       13
176
     1
 44
0.0
176
     1
173
     0
176
     1
  0
VISUALSTYLE
  5
37
102
{ACAD_REACTORS
330
2A
102
}
330
2A
100
AcDbVisualStyle
  2
Thicken
 70
    13
177
     2
291
     1
 71
     2
176
     1
 72
     2
176
     1
 73
     0
176
     1
 90
        0
176
     1
 40
-0.6
176
     1
 41
-30.0
176
     1
 62
     5
 63
     7
421
 16777215
176
     1
 74
     1
176
     1
 91
        4
176
     1
 64
     7
176
     1
 65
   257
176
     1
 75
     1
176
     1
175
     1
176
     1
 42
1.0
176
     1
 92
       12
176
     1
 66
     7
176
     1
 43
1.0
176
     1
 76
     1
176
     1
 77
     6
176
     1
 78
     2
176
     1
 67
     7
176
     1
 79
     5
176
     1
170
     0
176
     1
171
     0
176
     1
290
     0
176
     1
 93
        1
176
     1
 44
0.0
176
     1
173
     0
176
     1
  0
ENDSEC
  0
EOF
