  0
SECTION
  2
HEADER
  9
$ACADVER
  1
AC1024
  9
$ACADMAINTVER
 70
     6
  9
$DWGCODEPAGE
  3
UNDEFINED
  9
$INSBASE
 10
0.0
 20
0.0
 30
0.0
  9
$EXTMIN
 10
1.000000000000000E+20
 20
1.000000000000000E+20
 30
1.000000000000000E+20
  9
$EXTMAX
 10
-1.000000000000000E+20
 20
-1.000000000000000E+20
 30
-1.000000000000000E+20
  9
$LIMMIN
 10
0.0
 20
0.0
  9
$LIMMAX
 10
12.0
 20
9.0
  9
$ORTHOMODE
 70
     0
  9
$REGENMODE
 70
     1
  9
$FILLMODE
 70
     1
  9
$QTEXTMODE
 70
     0
  9
$MIRRTEXT
 70
     1
  9
$LTSCALE
 40
1.0
  9
$ATTMODE
 70
     1
  9
$TEXTSIZE
 40
0.2
  9
$TRACEWID
 40
0.05
  9
$TEXTSTYLE
  7
Standard
  9
$CLAYER
  8
0
  9
$CELTYPE
  6
ByLayer
  9
$CECOLOR
 62
   256
  9
$CELTSCALE
 40
1.0
  9
$DISPSILH
 70
     0
  9
$DIMSCALE
 40
1.0
  9
$DIMASZ
 40
0.18
  9
$DIMEXO
 40
0.0625
  9
$DIMDLI
 40
0.38
  9
$DIMRND
 40
0.0
  9
$DIMDLE
 40
0.0
  9
$DIMEXE
 40
0.18
  9
$DIMTP
 40
0.0
  9
$DIMTM
 40
0.0
  9
$DIMTXT
 40
0.18
  9
$DIMCEN
 40
0.09
  9
$DIMTSZ
 40
0.0
  9
$DIMTOL
 70
     0
  9
$DIMLIM
 70
     0
  9
$DIMTIH
 70
     1
  9
$DIMTOH
 70
     1
  9
$DIMSE1
 70
     0
  9
$DIMSE2
 70
     0
  9
$DIMTAD
 70
     0
  9
$DIMZIN
 70
     0
  9
$DIMBLK
  1

  9
$DIMASO
 70
     1
  9
$DIMSHO
 70
     1
  9
$DIMPOST
  1

  9
$DIMAPOST
  1

  9
$DIMALT
 70
     0
  9
$DIMALTD
 70
     2
  9
$DIMALTF
 40
25.4
  9
$DIMLFAC
 40
1.0
  9
$DIMTOFL
 70
     0
  9
$DIMTVP
 40
0.0
  9
$DIMTIX
 70
     0
  9
$DIMSOXD
 70
     0
  9
$DIMSAH
 70
     0
  9
$DIMBLK1
  1

  9
$DIMBLK2
  1

  9
$DIMSTYLE
  2
Standard
  9
$DIMCLRD
 70
     0
  9
$DIMCLRE
 70
     0
  9
$DIMCLRT
 70
     0
  9
$DIMTFAC
 40
1.0
  9
$DIMGAP
 40
0.09
  9
$DIMJUST
 70
     0
  9
$DIMSD1
 70
     0
  9
$DIMSD2
 70
     0
  9
$DIMTOLJ
 70
     1
  9
$DIMTZIN
 70
     0
  9
$DIMALTZ
 70
     0
  9
$DIMALTTZ
 70
     0
  9
$DIMUPT
 70
     0
  9
$DIMDEC
 70
     4
  9
$DIMTDEC
 70
     4
  9
$DIMALTU
 70
     2
  9
$DIMALTTD
 70
     2
  9
$DIMTXSTY
  7
Standard
  9
$DIMAUNIT
 70
     0
  9
$DIMADEC
 70
     0
  9
$DIMALTRND
 40
0.0
  9
$DIMAZIN
 70
     0
  9
$DIMDSEP
 70
    46
  9
$DIMATFIT
 70
     3
  9
$DIMFRAC
 70
     0
  9
$DIMLDRBLK
  1

  9
$DIMLUNIT
 70
     2
  9
$DIMLWD
 70
    -2
  9
$DIMLWE
 70
    -2
  9
$DIMTMOVE
 70
     0
  9
$DIMFXL
 40
1.0
  9
$DIMFXLON
 70
     0
  9
$DIMJOGANG
 40
0.7853981633974483
  9
$DIMTFILL
 70
     0
  9
$DIMTFILLCLR
 70
     0
  9
$DIMARCSYM
 70
     0
  9
$DIMLTYPE
  6

  9
$DIMLTEX1
  6

  9
$DIMLTEX2
  6

  9
$DIMTXTDIRECTION
 70
     0
  9
$LUNITS
 70
     2
  9
$LUPREC
 70
     4
  9
$SKETCHINC
 40
0.1
  9
$FILLETRAD
 40
0.5
  9
$AUNITS
 70
     0
  9
$AUPREC
 70
     0
  9
$MENU
  1
.
  9
$ELEVATION
 40
0.0
  9
$PELEVATION
 40
0.0
  9
$THICKNESS
 40
0.0
  9
$LIMCHECK
 70
     0
  9
$CHAMFERA
 40
0.5
  9
$CHAMFERB
 40
0.5
  9
$CHAMFERC
 40
1.0
  9
$CHAMFERD
 40
0.0
  9
$SKPOLY
 70
     0
  9
$TDCREATE
 40
2457917.610983796
  9
$TDUCREATE
 40
2457917.235983796
  9
$TDUPDATE
 40
2457917.610983796
  9
$TDUUPDATE
 40
2457917.235983796
  9
$TDINDWG
 40
0.0000000116
  9
$TDUSRTIMER
 40
0.0000000116
  9
$USRTIMER
 70
     1
  9
$ANGBASE
 50
0.0
  9
$ANGDIR
 70
     0
  9
$PDMODE
 70
     0
  9
$PDSIZE
 40
0.0
  9
$PLINEWID
 40
0.0
  9
$SPLFRAME
 70
     0
  9
$SPLINETYPE
 70
     6
  9
$SPLINESEGS
 70
     8
  9
$HANDSEED
  5
F5
  9
$SURFTAB1
 70
     6
  9
$SURFTAB2
 70
     6
  9
$SURFTYPE
 70
     6
  9
$SURFU
 70
     6
  9
$SURFV
 70
     6
  9
$UCSBASE
  2

  9
$UCSNAME
  2

  9
$UCSORG
 10
0.0
 20
0.0
 30
0.0
  9
$UCSXDIR
 10
1.0
 20
0.0
 30
0.0
  9
$UCSYDIR
 10
0.0
 20
1.0
 30
0.0
  9
$UCSORTHOREF
  2

  9
$UCSORTHOVIEW
 70
     0
  9
$UCSORGTOP
 10
0.0
 20
0.0
 30
0.0
  9
$UCSORGBOTTOM
 10
0.0
 20
0.0
 30
0.0
  9
$UCSORGLEFT
 10
0.0
 20
0.0
 30
0.0
  9
$UCSORGRIGHT
 10
0.0
 20
0.0
 30
0.0
  9
$UCSORGFRONT
 10
0.0
 20
0.0
 30
0.0
  9
$UCSORGBACK
 10
0.0
 20
0.0
 30
0.0
  9
$PUCSBASE
  2

  9
$PUCSNAME
  2

  9
$PUCSORG
 10
0.0
 20
0.0
 30
0.0
  9
$PUCSXDIR
 10
1.0
 20
0.0
 30
0.0
  9
$PUCSYDIR
 10
0.0
 20
1.0
 30
0.0
  9
$PUCSORTHOREF
  2

  9
$PUCSORTHOVIEW
 70
     0
  9
$PUCSORGTOP
 10
0.0
 20
0.0
 30
0.0
  9
$PUCSORGBOTTOM
 10
0.0
 20
0.0
 30
0.0
  9
$PUCSORGLEFT
 10
0.0
 20
0.0
 30
0.0
  9
$PUCSORGRIGHT
 10
0.0
 20
0.0
 30
0.0
  9
$PUCSORGFRONT
 10
0.0
 20
0.0
 30
0.0
  9
$PUCSORGBACK
 10
0.0
 20
0.0
 30
0.0
  9
$USERI1
 70
     0
  9
$USERI2
 70
     0
  9
$USERI3
 70
     0
  9
$USERI4
 70
     0
  9
$USERI5
 70
     0
  9
$USERR1
 40
0.0
  9
$USERR2
 40
0.0
  9
$USERR3
 40
0.0
  9
$USERR4
 40
0.0
  9
$USERR5
 40
0.0
  9
$WORLDVIEW
 70
     1
  9
$SHADEDGE
 70
     3
  9
$SHADEDIF
 70
    70
  9
$TILEMODE
 70
     1
  9
$MAXACTVP
 70
    64
  9
$PINSBASE
 10
0.0
 20
0.0
 30
0.0
  9
$PLIMCHECK
 70
     0
  9
$PEXTMIN
 10
1.000000000000000E+20
 20
1.000000000000000E+20
 30
1.000000000000000E+20
  9
$PEXTMAX
 10
-1.000000000000000E+20
 20
-1.000000000000000E+20
 30
-1.000000000000000E+20
  9
$PLIMMIN
 10
0.0
 20
0.0
  9
$PLIMMAX
 10
12.0
 20
9.0
  9
$UNITMODE
 70
     0
  9
$VISRETAIN
 70
     1
  9
$PLINEGEN
 70
     0
  9
$PSLTSCALE
 70
     1
  9
$TREEDEPTH
 70
  3020
  9
$CMLSTYLE
  2
Standard
  9
$CMLJUST
 70
     0
  9
$CMLSCALE
 40
1.0
  9
$PROXYGRAPHICS
 70
     1
  9
$MEASUREMENT
 70
     0
  9
$CELWEIGHT
370
    -1
  9
$ENDCAPS
280
     0
  9
$JOINSTYLE
280
     0
  9
$LWDISPLAY
290
     1
  9
$INSUNITS
 70
     1
  9
$HYPERLINKBASE
  1

  9
$STYLESHEET
  1

  9
$XEDIT
290
     1
  9
$CEPSNTYPE
380
     0
  9
$PSTYLEMODE
290
     1
  9
$FINGERPRINTGUID
  2
{2B8D1811-245F-A79C-3C28-69D124B21547}
  9
$VERSIONGUID
  2
{FAEB1C32-E019-11D5-929B-00C0DF256EC4}
  9
$EXTNAMES
290
     1
  9
$PSVPSCALE
 40
0.0
  9
$OLESTARTUP
290
     0
  9
$SORTENTS
280
   127
  9
$INDEXCTL
280
     0
  9
$HIDETEXT
280
     1
  9
$XCLIPFRAME
280
     2
  9
$HALOGAP
280
     0
  9
$OBSCOLOR
 70
   257
  9
$OBSLTYPE
280
     0
  9
$INTERSECTIONDISPLAY
280
     0
  9
$INTERSECTIONCOLOR
 70
   257
  9
$DIMASSOC
280
     2
  9
$PROJECTNAME
  1

  9
$CAMERADISPLAY
290
     0
  9
$LENSLENGTH
 40
50.0
  9
$CAMERAHEIGHT
 40
0.0
  9
$STEPSPERSEC
 40
2.0
  9
$STEPSIZE
 40
6.0
  9
$3DDWFPREC
 40
2.0
  9
$PSOLWIDTH
 40
0.25
  9
$PSOLHEIGHT
 40
4.0
  9
$LOFTANG1
 40
1.570796326794897
  9
$LOFTANG2
 40
1.570796326794897
  9
$LOFTMAG1
 40
0.0
  9
$LOFTMAG2
 40
0.0
  9
$LOFTPARAM
 70
     7
  9
$LOFTNORMALS
280
     1
  9
$LATITUDE
 40
37.795
  9
$LONGITUDE
 40
-122.394
  9
$NORTHDIRECTION
 40
0.0
  9
$TIMEZONE
 70
 -8000
  9
$LIGHTGLYPHDISPLAY
280
     1
  9
$TILEMODELIGHTSYNCH
280
     1
  9
$CMATERIAL
347
3C
  9
$SOLIDHIST
280
     1
  9
$SHOWHIST
280
     1
  9
$DWFFRAME
280
     2
  9
$DGNFRAME
280
     2
  9
$REALWORLDSCALE
290
     1
  9
$INTERFERECOLOR
 62
   256
  9
$CSHADOW
280
     0
  9
$SHADOWPLANELOCATION
 40
0.0
  0
ENDSEC
  0
SECTION
  2
CLASSES
  0
CLASS
  1
ACDBDICTIONARYWDFLT
  2
AcDbDictionaryWithDefault
  3
ObjectDBX Classes
 90
        0
 91
        4
280
     0
281
     0
  0
CLASS
  1
VISUALSTYLE
  2
AcDbVisualStyle
  3
ObjectDBX Classes
 90
     4095
 91
        4
280
     0
281
     0
  0
CLASS
  1
MATERIAL
  2
AcDbMaterial
  3
ObjectDBX Classes
 90
     1153
 91
        4
280
     0
281
     0
  0
CLASS
  1
SUN
  2
AcDbSun
  3
SCENEOE
 90
     1024
 91
        4
280
     0
281
     0
  0
ENDSEC
  0
SECTION
  2
TABLES
  0
TABLE
  2
VPORT
  5
8
330
0
100
AcDbSymbolTable
 70
     1
  0
VPORT
  5
29
330
8
100
AcDbSymbolTableRecord
100
AcDbViewportTableRecord
  2
*Active
 70
     0
 10
0.0
 20
0.0
 11
1.0
 21
1.0
 12
0.0
 22
0.0
 13
0.0
 23
0.0
 14
0.5
 24
0.5
 15
0.5
 25
0.5
 16
0.0
 26
0.0
 36
1.0
 17
63.499999984125
 27
-89.00059456108309
 37
0.0
 40
178.0011891221662
 41
0.7134783795241226
 42
50.0
 43
0.0
 44
0.0
 50
0.0
 51
0.0
 71
     0
 72
   100
 73
     1
 74
     3
 75
     0
 76
     0
 77
     0
 78
     0
281
     0
 65
     1
110
0.0
120
0.0
130
0.0
111
1.0
121
0.0
131
0.0
112
0.0
122
1.0
132
0.0
 79
     0
146
0.0
 60
     3
 61
     5
292
     1
282
     1
141
0.0
142
0.0
 63
   250
361
3F
  0
ENDTAB
  0
TABLE
  2
LTYPE
  5
5
330
0
100
AcDbSymbolTable
 70
     1
  0
LTYPE
  5
14
330
5
100
AcDbSymbolTableRecord
100
AcDbLinetypeTableRecord
  2
ByBlock
 70
     0
  3

 72
    65
 73
     0
 40
0.0
  0
LTYPE
  5
15
330
5
100
AcDbSymbolTableRecord
100
AcDbLinetypeTableRecord
  2
ByLayer
 70
     0
  3

 72
    65
 73
     0
 40
0.0
  0
LTYPE
  5
16
330
5
100
AcDbSymbolTableRecord
100
AcDbLinetypeTableRecord
  2
Continuous
 70
     0
  3
Solid line
 72
    65
 73
     0
 40
0.0
  0
ENDTAB
  0
TABLE
  2
LAYER
  5
2
330
0
100
AcDbSymbolTable
 70
     2
  0
LAYER
  5
10
330
2
100
AcDbSymbolTableRecord
100
AcDbLayerTableRecord
  2
0
 70
     0
 62
     7
  6
Continuous
370
    -3
390
F
347
3E
  0
LAYER
  5
40
330
2
100
AcDbSymbolTableRecord
100
AcDbLayerTableRecord
  2
_U+30EC_U+30A4_U+30E4_U+30FC 1
 70
     0
 62
     7
  6
Continuous
370
    -3
390
F
347
3E
  0
ENDTAB
  0
TABLE
  2
STYLE
  5
3
330
0
100
AcDbSymbolTable
 70
     1
  0
STYLE
  5
11
330
3
100
AcDbSymbolTableRecord
100
AcDbTextStyleTableRecord
  2
Standard
 70
     0
 40
0.0
 41
1.0
 50
0.0
 71
     0
 42
0.2
  3
txt
  4

  0
ENDTAB
  0
TABLE
  2
VIEW
  5
6
330
0
100
AcDbSymbolTable
 70
     0
  0
ENDTAB
  0
TABLE
  2
UCS
  5
7
330
0
100
AcDbSymbolTable
 70
     0
  0
ENDTAB
  0
TABLE
  2
APPID
  5
9
330
0
100
AcDbSymbolTable
 70
     1
  0
APPID
  5
12
330
9
100
AcDbSymbolTableRecord
100
AcDbRegAppTableRecord
  2
ACAD
 70
     0
  0
ENDTAB
  0
TABLE
  2
DIMSTYLE
  5
A
330
0
100
AcDbSymbolTable
 70
     1
100
AcDbDimStyleTable
  0
DIMSTYLE
105
27
330
A
100
AcDbSymbolTableRecord
100
AcDbDimStyleTableRecord
  2
Standard
 70
     0
178
     0
340
11
  0
ENDTAB
  0
TABLE
  2
BLOCK_RECORD
  5
1
330
0
100
AcDbSymbolTable
 70
     6
  0
BLOCK_RECORD
  5
1F
330
1
100
AcDbSymbolTableRecord
100
AcDbBlockTableRecord
  2
*Model_Space
340
22
 70
     0
280
     1
281
     0
  0
BLOCK_RECORD
  5
1B
330
1
100
AcDbSymbolTableRecord
100
AcDbBlockTableRecord
  2
*Paper_Space
340
1E
 70
     0
280
     1
281
     0
  0
BLOCK_RECORD
  5
23
330
1
100
AcDbSymbolTableRecord
100
AcDbBlockTableRecord
  2
*Paper_Space0
340
26
 70
     0
280
     1
281
     0
  0
BLOCK_RECORD
  5
7A
330
1
100
AcDbSymbolTableRecord
100
AcDbBlockTableRecord
  2
block 2
340
0
102
{BLKREFS
331
7B
102
}
 70
     0
280
     1
281
     0
  0
BLOCK_RECORD
  5
8C
330
1
100
AcDbSymbolTableRecord
100
AcDbBlockTableRecord
  2
block 3
340
0
102
{BLKREFS
331
8D
102
}
 70
     0
280
     1
281
     0
  0
BLOCK_RECORD
  5
9F
330
1
100
AcDbSymbolTableRecord
100
AcDbBlockTableRecord
  2
block 4
340
0
102
{BLKREFS
331
A0
102
}
 70
     0
280
     1
281
     0
  0
BLOCK_RECORD
  5
B4
330
1
100
AcDbSymbolTableRecord
100
AcDbBlockTableRecord
  2
block 5
340
0
102
{BLKREFS
331
B5
102
}
 70
     0
280
     1
281
     0
  0
BLOCK_RECORD
  5
E1
330
1
100
AcDbSymbolTableRecord
100
AcDbBlockTableRecord
  2
block 6
340
0
102
{BLKREFS
331
E2
102
}
 70
     0
280
     1
281
     0
  0
ENDTAB
  0
ENDSEC
  0
SECTION
  2
BLOCKS
  0
BLOCK
  5
20
330
1F
100
AcDbEntity
  8
0
100
AcDbBlockBegin
  2
*Model_Space
 70
     0
 10
0.0
 20
0.0
 30
0.0
  3
*Model_Space
  1

  0
ENDBLK
  5
21
330
1F
100
AcDbEntity
  8
0
100
AcDbBlockEnd
  0
BLOCK
  5
1C
330
1B
100
AcDbEntity
 67
     1
  8
0
100
AcDbBlockBegin
  2
*Paper_Space
 70
     0
 10
0.0
 20
0.0
 30
0.0
  3
*Paper_Space
  1

  0
ENDBLK
  5
1D
330
1B
100
AcDbEntity
 67
     1
  8
0
100
AcDbBlockEnd
  0
BLOCK
  5
24
330
23
100
AcDbEntity
  8
0
100
AcDbBlockBegin
  2
*Paper_Space0
 70
     0
 10
0.0
 20
0.0
 30
0.0
  3
*Paper_Space0
  1

  0
ENDBLK
  5
25
330
23
100
AcDbEntity
  8
0
100
AcDbBlockEnd
  0
BLOCK
  5
7C
330
7A
100
AcDbEntity
  8
0
100
AcDbBlockBegin
  2
block 2
 70
     0
 10
0.0
 20
0.0
 30
0.0
  3
block 2
  1

  0
SPLINE
  5
7E
330
7A
100
AcDbEntity
  8
_U+30EC_U+30A4_U+30E4_U+30FC 1
370
     0
100
AcDbSpline
210
0.0
220
0.0
230
1.0
 70
    11
 71
     3
 72
    26
 73
    22
 74
     0
 42
0.0000000001
 43
0.0000000001
 12
1.0
 22
0.0
 32
0.0
 13
1.0
 23
0.0
 33
0.0
 40
0.0
 40
0.0
 40
0.0
 40
0.0
 40
1.0
 40
1.0
 40
1.0
 40
2.0
 40
2.0
 40
2.0
 40
3.0
 40
3.0
 40
3.0
 40
4.0
 40
4.0
 40
4.0
 40
5.0
 40
5.0
 40
5.0
 40
6.0
 40
6.0
 40
6.0
 40
7.0
 40
7.0
 40
7.0
 40
7.0
 10
77.61593422538769
 20
-79.40755613249186
 30
0.0
 10
77.61593422538769
 20
-79.40755613249186
 30
0.0
 10
76.51178112236511
 20
-79.40755613249186
 30
0.0
 10
76.51178112236511
 20
-79.40755613249186
 30
0.0
 10
76.51178112236511
 20
-79.40755613249186
 30
0.0
 10
76.51178112236511
 20
-79.76033391018144
 30
0.0
 10
76.51178112236511
 20
-79.76033391018144
 30
0.0
 10
76.51178112236511
 20
-79.76033391018144
 30
0.0
 10
76.36364201649937
 20
-79.76033391018144
 30
0.0
 10
76.36364201649937
 20
-79.76033391018144
 30
0.0
 10
76.3488281059128
 20
-79.40531682042645
 30
0.0
 10
76.18587508946048
 20
-79.3555351906646
 30
0.0
 10
76.07149791935018
 20
-79.32401256697456
 30
0.0
 10
76.07149791935018
 20
-79.32401256697456
 30
0.0
 10
76.07149791935018
 20
-79.16794974149273
 30
0.0
 10
76.07149791935018
 20
-79.16794974149273
 30
0.0
 10
76.07149791935018
 20
-79.16794974149273
 30
0.0
 10
77.61593422538769
 20
-79.16794974149273
 30
0.0
 10
77.61593422538769
 20
-79.16794974149273
 30
0.0
 10
77.61593422538769
 20
-79.16794974149273
 30
0.0
 10
77.61593422538769
 20
-79.40755613249186
 30
0.0
 10
77.61593422538769
 20
-79.40755613249186
 30
0.0
  0
HATCH
  5
7F
330
7A
100
AcDbEntity
  8
_U+30EC_U+30A4_U+30E4_U+30FC 1
 62
   179
420
  2234388
100
AcDbHatch
 10
0.0
 20
0.0
 30
0.0
210
0.0
220
0.0
230
1.0
  2
SOLID
 70
     1
 71
     0
 91
        1
 92
        1
 93
        1
 72
     4
 94
        3
 73
     0
 74
     1
 95
       26
 96
       22
 40
0.0
 40
0.0
 40
0.0
 40
0.0
 40
1.0
 40
1.0
 40
1.0
 40
2.0
 40
2.0
 40
2.0
 40
3.0
 40
3.0
 40
3.0
 40
4.0
 40
4.0
 40
4.0
 40
5.0
 40
5.0
 40
5.0
 40
6.0
 40
6.0
 40
6.0
 40
7.0
 40
7.0
 40
7.0
 40
7.0
 10
77.61593422538769
 20
-79.40755613249186
 10
77.61593422538769
 20
-79.40755613249186
 10
76.51178112236511
 20
-79.40755613249186
 10
76.51178112236511
 20
-79.40755613249186
 10
76.51178112236511
 20
-79.40755613249186
 10
76.51178112236511
 20
-79.76033391018144
 10
76.51178112236511
 20
-79.76033391018144
 10
76.51178112236511
 20
-79.76033391018144
 10
76.36364201649937
 20
-79.76033391018144
 10
76.36364201649937
 20
-79.76033391018144
 10
76.3488281059128
 20
-79.40531682042645
 10
76.18587508946048
 20
-79.3555351906646
 10
76.07149791935018
 20
-79.32401256697456
 10
76.07149791935018
 20
-79.32401256697456
 10
76.07149791935018
 20
-79.16794974149273
 10
76.07149791935018
 20
-79.16794974149273
 10
76.07149791935018
 20
-79.16794974149273
 10
77.61593422538769
 20
-79.16794974149273
 10
77.61593422538769
 20
-79.16794974149273
 10
77.61593422538769
 20
-79.16794974149273
 10
77.61593422538769
 20
-79.40755613249186
 10
77.61593422538769
 20
-79.40755613249186
 97
        0
 97
        0
 75
     2
 76
     1
 98
        0
  0
ENDBLK
  5
7D
330
7A
100
AcDbEntity
  8
0
100
AcDbBlockEnd
  0
BLOCK
  5
8E
330
8C
100
AcDbEntity
  8
0
100
AcDbBlockBegin
  2
block 3
 70
     0
 10
0.0
 20
0.0
 30
0.0
  3
block 3
  1

  0
SPLINE
  5
90
330
8C
100
AcDbEntity
  8
_U+30EC_U+30A4_U+30E4_U+30FC 1
370
     0
100
AcDbSpline
210
0.0
220
0.0
230
1.0
 70
    11
 71
     3
 72
    32
 73
    28
 74
     0
 42
0.0000000001
 43
0.0000000001
 12
1.0
 22
0.0
 32
0.0
 13
1.0
 23
0.0
 33
0.0
 40
0.0
 40
0.0
 40
0.0
 40
0.0
 40
1.0
 40
1.0
 40
1.0
 40
2.0
 40
2.0
 40
2.0
 40
3.0
 40
3.0
 40
3.0
 40
4.0
 40
4.0
 40
4.0
 40
5.0
 40
5.0
 40
5.0
 40
6.0
 40
6.0
 40
6.0
 40
7.0
 40
7.0
 40
7.0
 40
8.0
 40
8.0
 40
8.0
 40
9.0
 40
9.0
 40
9.0
 40
9.0
 10
57.21631807380356
 20
-100.5526909470841
 30
0.0
 10
56.6645860318408
 20
-100.5526909470841
 30
0.0
 10
56.65562878357915
 20
-99.99871959305588
 30
0.0
 10
56.65562878357915
 20
-99.78477916342186
 30
0.0
 10
56.65562878357915
 20
-99.55430227545865
 30
0.0
 10
56.67595484694213
 20
-98.90696883378021
 30
0.0
 10
57.25697020052951
 20
-98.90696883378021
 30
0.0
 10
57.44248859241021
 20
-98.90696883378021
 30
0.0
 10
57.70466035883773
 20
-98.97690427213078
 30
0.0
 10
57.74531248556367
 20
-99.30901147690886
 30
0.0
 10
57.74531248556367
 20
-99.30901147690886
 30
0.0
 10
57.51707490966587
 20
-99.30901147690886
 30
0.0
 10
57.51707490966587
 20
-99.30901147690886
 30
0.0
 10
57.50570609456455
 20
-99.25182289185372
 30
0.0
 10
57.47177190403484
 20
-99.10368378598797
 30
0.0
 10
57.2547308884641
 20
-99.10368378598797
 30
0.0
 10
56.94277749227472
 20
-99.10368378598797
 30
0.0
 10
56.89988605348336
 20
-99.43165687618375
 30
0.0
 10
56.88627792631663
 20
-99.63664005755612
 30
0.0
 10
56.98566893106609
 20
-99.55843639004095
 30
0.0
 10
57.05801593625633
 20
-99.49918074769465
 30
0.0
 10
57.25249157639868
 20
-99.49918074769465
 30
0.0
 10
57.44472790447563
 20
-99.49918074769465
 30
0.0
 10
57.76805011576632
 20
-99.6073567459315
 30
0.0
 10
57.76805011576632
 20
-100.0135335036424
 30
0.0
 10
57.76805011576632
 20
-100.3328938551251
 30
0.0
 10
57.55548772432641
 20
-100.5526909470841
 30
0.0
 10
57.21631807380356
 20
-100.5526909470841
 30
0.0
  0
SPLINE
  5
91
330
8C
100
AcDbEntity
  8
_U+30EC_U+30A4_U+30E4_U+30FC 1
370
     0
100
AcDbSpline
210
0.0
220
0.0
230
1.0
 70
    11
 71
     3
 72
    17
 73
    13
 74
     0
 42
0.0000000001
 43
0.0000000001
 12
1.0
 22
0.0
 32
0.0
 13
1.0
 23
0.0
 33
0.0
 40
0.0
 40
0.0
 40
0.0
 40
0.0
 40
1.0
 40
1.0
 40
1.0
 40
2.0
 40
2.0
 40
2.0
 40
3.0
 40
3.0
 40
3.0
 40
4.0
 40
4.0
 40
4.0
 40
4.0
 10
57.23440482510112
 20
-99.69382864261127
 30
0.0
 10
56.95397405260179
 20
-99.69382864261127
 30
0.0
 10
56.91332192587584
 20
-99.9053575054056
 30
0.0
 10
56.91332192587584
 20
-100.021801732807
 30
0.0
 10
56.91332192587584
 20
-100.1975016025548
 30
0.0
 10
57.01512449746497
 20
-100.3604546190071
 30
0.0
 10
57.21183944967274
 20
-100.3604546190071
 30
0.0
 10
57.34068602082108
 20
-100.3604546190071
 30
0.0
 10
57.52827146999294
 20
-100.3011989766608
 30
0.0
 10
57.52827146999294
 20
-100.0156005609336
 30
0.0
 10
57.52827146999294
 20
-99.79132484484384
 30
0.0
 10
57.37909883548161
 20
-99.69382864261127
 30
0.0
 10
57.23440482510112
 20
-99.69382864261127
 30
0.0
  0
HATCH
  5
92
330
8C
100
AcDbEntity
  8
_U+30EC_U+30A4_U+30E4_U+30FC 1
 62
   179
420
  2234388
100
AcDbHatch
 10
0.0
 20
0.0
 30
0.0
210
0.0
220
0.0
230
1.0
  2
SOLID
 70
     1
 71
     0
 91
        2
 92
        1
 93
        1
 72
     4
 94
        3
 73
     0
 74
     1
 95
       32
 96
       28
 40
0.0
 40
0.0
 40
0.0
 40
0.0
 40
1.0
 40
1.0
 40
1.0
 40
2.0
 40
2.0
 40
2.0
 40
3.0
 40
3.0
 40
3.0
 40
4.0
 40
4.0
 40
4.0
 40
5.0
 40
5.0
 40
5.0
 40
6.0
 40
6.0
 40
6.0
 40
7.0
 40
7.0
 40
7.0
 40
8.0
 40
8.0
 40
8.0
 40
9.0
 40
9.0
 40
9.0
 40
9.0
 10
57.21631807380356
 20
-100.5526909470841
 10
56.6645860318408
 20
-100.5526909470841
 10
56.65562878357915
 20
-99.99871959305588
 10
56.65562878357915
 20
-99.78477916342186
 10
56.65562878357915
 20
-99.55430227545865
 10
56.67595484694213
 20
-98.90696883378021
 10
57.25697020052951
 20
-98.90696883378021
 10
57.44248859241021
 20
-98.90696883378021
 10
57.70466035883773
 20
-98.97690427213078
 10
57.74531248556367
 20
-99.30901147690886
 10
57.74531248556367
 20
-99.30901147690886
 10
57.51707490966587
 20
-99.30901147690886
 10
57.51707490966587
 20
-99.30901147690886
 10
57.50570609456455
 20
-99.25182289185372
 10
57.47177190403484
 20
-99.10368378598797
 10
57.2547308884641
 20
-99.10368378598797
 10
56.94277749227472
 20
-99.10368378598797
 10
56.89988605348336
 20
-99.43165687618375
 10
56.88627792631663
 20
-99.63664005755612
 10
56.98566893106609
 20
-99.55843639004095
 10
57.05801593625633
 20
-99.49918074769465
 10
57.25249157639868
 20
-99.49918074769465
 10
57.44472790447563
 20
-99.49918074769465
 10
57.76805011576632
 20
-99.6073567459315
 10
57.76805011576632
 20
-100.0135335036424
 10
57.76805011576632
 20
-100.3328938551251
 10
57.55548772432641
 20
-100.5526909470841
 10
57.21631807380356
 20
-100.5526909470841
 97
        0
 97
        0
 92
        1
 93
        1
 72
     4
 94
        3
 73
     0
 74
     1
 95
       17
 96
       13
 40
0.0
 40
0.0
 40
0.0
 40
0.0
 40
1.0
 40
1.0
 40
1.0
 40
2.0
 40
2.0
 40
2.0
 40
3.0
 40
3.0
 40
3.0
 40
4.0
 40
4.0
 40
4.0
 40
4.0
 10
57.23440482510112
 20
-99.69382864261127
 10
56.95397405260179
 20
-99.69382864261127
 10
56.91332192587584
 20
-99.9053575054056
 10
56.91332192587584
 20
-100.021801732807
 10
56.91332192587584
 20
-100.1975016025548
 10
57.01512449746497
 20
-100.3604546190071
 10
57.21183944967274
 20
-100.3604546190071
 10
57.34068602082108
 20
-100.3604546190071
 10
57.52827146999294
 20
-100.3011989766608
 10
57.52827146999294
 20
-100.0156005609336
 10
57.52827146999294
 20
-99.79132484484384
 10
57.37909883548161
 20
-99.69382864261127
 10
57.23440482510112
 20
-99.69382864261127
 97
        0
 97
        0
 75
     2
 76
     1
 98
        0
  0
ENDBLK
  5
8F
330
8C
100
AcDbEntity
  8
0
100
AcDbBlockEnd
  0
BLOCK
  5
A1
330
9F
100
AcDbEntity
  8
0
100
AcDbBlockBegin
  2
block 4
 70
     0
 10
0.0
 20
0.0
 30
0.0
  3
block 4
  1

  0
SPLINE
  5
A3
330
9F
100
AcDbEntity
  8
_U+30EC_U+30A4_U+30E4_U+30FC 1
370
     0
100
AcDbSpline
210
0.0
220
0.0
230
1.0
 70
    11
 71
     3
 72
    44
 73
    40
 74
     0
 42
0.0000000001
 43
0.0000000001
 12
1.0
 22
0.0
 32
0.0
 13
1.0
 23
0.0
 33
0.0
 40
0.0
 40
0.0
 40
0.0
 40
0.0
 40
1.0
 40
1.0
 40
1.0
 40
2.0
 40
2.0
 40
2.0
 40
3.0
 40
3.0
 40
3.0
 40
4.0
 40
4.0
 40
4.0
 40
5.0
 40
5.0
 40
5.0
 40
6.0
 40
6.0
 40
6.0
 40
7.0
 40
7.0
 40
7.0
 40
8.0
 40
8.0
 40
8.0
 40
9.0
 40
9.0
 40
9.0
 40
10.0
 40
10.0
 40
10.0
 40
11.0
 40
11.0
 40
11.0
 40
12.0
 40
12.0
 40
12.0
 40
13.0
 40
13.0
 40
13.0
 40
13.0
 10
63.68224553529472
 20
-77.22009275413248
 30
0.0
 10
63.44935708049183
 20
-77.3789116560025
 30
0.0
 10
63.34979382096811
 20
-77.45298120893537
 30
0.0
 10
63.29777287914084
 20
-77.59664169067028
 30
0.0
 10
63.29777287914084
 20
-77.59664169067028
 30
0.0
 10
64.1301079483772
 20
-77.59664169067028
 30
0.0
 10
64.1301079483772
 20
-77.59664169067028
 30
0.0
 10
64.1301079483772
 20
-77.59664169067028
 30
0.0
 10
64.1301079483772
 20
-77.80196938159118
 30
0.0
 10
64.1301079483772
 20
-77.80196938159118
 30
0.0
 10
64.1301079483772
 20
-77.80196938159118
 30
0.0
 10
63.0311224885825
 20
-77.80196938159118
 30
0.0
 10
63.0311224885825
 20
-77.80196938159118
 30
0.0
 10
63.06522893388647
 20
-77.44436847022224
 30
0.0
 10
63.13516437223704
 20
-77.36616480270708
 30
0.0
 10
63.54650877317587
 20
-77.06781953368444
 30
0.0
 10
63.82004935470471
 20
-76.86903752418552
 30
0.0
 10
63.89032930260381
 20
-76.8011691431261
 30
0.0
 10
63.89032930260381
 20
-76.66370983326463
 30
0.0
 10
63.89032930260381
 20
-76.54519854857203
 30
0.0
 10
63.81350367328274
 20
-76.41428492013254
 30
0.0
 10
63.60300833913397
 20
-76.41428492013254
 30
0.0
 10
63.32498913347431
 20
-76.41428492013254
 30
0.0
 10
63.31603188521266
 20
-76.64476180809575
 30
0.0
 10
63.31155326108183
 20
-76.7612060354972
 30
0.0
 10
63.31155326108183
 20
-76.7612060354972
 30
0.0
 10
63.07177461530845
 20
-76.7612060354972
 30
0.0
 10
63.07177461530845
 20
-76.7612060354972
 30
0.0
 10
63.0807318635701
 20
-76.63408201209148
 30
0.0
 10
63.09210067867142
 20
-76.52211640882086
 30
0.0
 10
63.17822806580267
 20
-76.40360512412826
 30
0.0
 10
63.29570582184969
 20
-76.2427191649671
 30
0.0
 10
63.4944878313486
 20
-76.20895722921165
 30
0.0
 10
63.61885577836613
 20
-76.20895722921165
 30
0.0
 10
63.91513399009761
 20
-76.20895722921165
 30
0.0
 10
64.13665362979917
 20
-76.392925328124
 30
0.0
 10
64.13665362979917
 20
-76.66577689055578
 30
0.0
 10
64.13665362979917
 20
-76.89453123077637
 30
0.0
 10
64.01228568278165
 20
-76.99374998075156
 30
0.0
 10
63.68224553529472
 20
-77.22009275413248
 30
0.0
  0
HATCH
  5
A4
330
9F
100
AcDbEntity
  8
_U+30EC_U+30A4_U+30E4_U+30FC 1
 62
   179
420
  2234388
100
AcDbHatch
 10
0.0
 20
0.0
 30
0.0
210
0.0
220
0.0
230
1.0
  2
SOLID
 70
     1
 71
     0
 91
        1
 92
        1
 93
        1
 72
     4
 94
        3
 73
     0
 74
     1
 95
       44
 96
       40
 40
0.0
 40
0.0
 40
0.0
 40
0.0
 40
1.0
 40
1.0
 40
1.0
 40
2.0
 40
2.0
 40
2.0
 40
3.0
 40
3.0
 40
3.0
 40
4.0
 40
4.0
 40
4.0
 40
5.0
 40
5.0
 40
5.0
 40
6.0
 40
6.0
 40
6.0
 40
7.0
 40
7.0
 40
7.0
 40
8.0
 40
8.0
 40
8.0
 40
9.0
 40
9.0
 40
9.0
 40
10.0
 40
10.0
 40
10.0
 40
11.0
 40
11.0
 40
11.0
 40
12.0
 40
12.0
 40
12.0
 40
13.0
 40
13.0
 40
13.0
 40
13.0
 10
63.68224553529472
 20
-77.22009275413248
 10
63.44935708049183
 20
-77.3789116560025
 10
63.34979382096811
 20
-77.45298120893537
 10
63.29777287914084
 20
-77.59664169067028
 10
63.29777287914084
 20
-77.59664169067028
 10
64.1301079483772
 20
-77.59664169067028
 10
64.1301079483772
 20
-77.59664169067028
 10
64.1301079483772
 20
-77.59664169067028
 10
64.1301079483772
 20
-77.80196938159118
 10
64.1301079483772
 20
-77.80196938159118
 10
64.1301079483772
 20
-77.80196938159118
 10
63.0311224885825
 20
-77.80196938159118
 10
63.0311224885825
 20
-77.80196938159118
 10
63.06522893388647
 20
-77.44436847022224
 10
63.13516437223704
 20
-77.36616480270708
 10
63.54650877317587
 20
-77.06781953368444
 10
63.82004935470471
 20
-76.86903752418552
 10
63.89032930260381
 20
-76.8011691431261
 10
63.89032930260381
 20
-76.66370983326463
 10
63.89032930260381
 20
-76.54519854857203
 10
63.81350367328274
 20
-76.41428492013254
 10
63.60300833913397
 20
-76.41428492013254
 10
63.32498913347431
 20
-76.41428492013254
 10
63.31603188521266
 20
-76.64476180809575
 10
63.31155326108183
 20
-76.7612060354972
 10
63.31155326108183
 20
-76.7612060354972
 10
63.07177461530845
 20
-76.7612060354972
 10
63.07177461530845
 20
-76.7612060354972
 10
63.0807318635701
 20
-76.63408201209148
 10
63.09210067867142
 20
-76.52211640882086
 10
63.17822806580267
 20
-76.40360512412826
 10
63.29570582184969
 20
-76.2427191649671
 10
63.4944878313486
 20
-76.20895722921165
 10
63.61885577836613
 20
-76.20895722921165
 10
63.91513399009761
 20
-76.20895722921165
 10
64.13665362979917
 20
-76.392925328124
 10
64.13665362979917
 20
-76.66577689055578
 10
64.13665362979917
 20
-76.89453123077637
 10
64.01228568278165
 20
-76.99374998075156
 10
63.68224553529472
 20
-77.22009275413248
 97
        0
 97
        0
 75
     2
 76
     1
 98
        0
  0
SPLINE
  5
A5
330
9F
100
AcDbEntity
  8
_U+30EC_U+30A4_U+30E4_U+30FC 1
370
     0
100
AcDbSpline
210
0.0
220
0.0
230
1.0
 70
    11
 71
     3
 72
    29
 73
    25
 74
     0
 42
0.0000000001
 43
0.0000000001
 12
1.0
 22
0.0
 32
0.0
 13
1.0
 23
0.0
 33
0.0
 40
0.0
 40
0.0
 40
0.0
 40
0.0
 40
1.0
 40
1.0
 40
1.0
 40
2.0
 40
2.0
 40
2.0
 40
3.0
 40
3.0
 40
3.0
 40
4.0
 40
4.0
 40
4.0
 40
5.0
 40
5.0
 40
5.0
 40
6.0
 40
6.0
 40
6.0
 40
7.0
 40
7.0
 40
7.0
 40
8.0
 40
8.0
 40
8.0
 40
8.0
 10
65.26561142031555
 20
-77.62420245455229
 30
0.0
 10
65.15020072155967
 20
-77.83366426005547
 30
0.0
 10
64.96485458445324
 20
-77.85261228522435
 30
0.0
 10
64.84048663743572
 20
-77.85261228522435
 30
0.0
 10
64.66892088227027
 20
-77.85261228522435
 30
0.0
 10
64.51733668091929
 20
-77.80610349617348
 30
0.0
 10
64.41570636410441
 20
-77.62420245455229
 30
0.0
 10
64.30477428947937
 20
-77.42955455963568
 30
0.0
 10
64.2844482261164
 20
-77.19287649979901
 30
0.0
 10
64.2844482261164
 20
-77.02992348334669
 30
0.0
 10
64.2844482261164
 20
-76.88591849206324
 30
0.0
 10
64.30236272263969
 20
-76.63408201209148
 30
0.0
 10
64.41570636410441
 20
-76.43530000259257
 30
0.0
 10
64.53077255331175
 20
-76.23238387851136
 30
0.0
 10
64.70268281802572
 20
-76.20895722921165
 30
0.0
 10
64.84048663743572
 20
-76.20895722921165
 30
0.0
 10
65.01032984485853
 20
-76.20895722921165
 30
0.0
 10
65.16398110350067
 20
-76.25339896097138
 30
0.0
 10
65.26561142031555
 20
-76.43530000259257
 30
0.0
 10
65.37206487080977
 20
-76.62788084021804
 30
0.0
 10
65.39686955830356
 20
-76.8562906708901
 30
0.0
 10
65.39686955830356
 20
-77.02992348334669
 30
0.0
 10
65.39686955830356
 20
-77.20114472896361
 30
0.0
 10
65.37413192810091
 20
-77.43162161692682
 30
0.0
 10
65.26561142031555
 20
-77.62420245455229
 30
0.0
  0
SPLINE
  5
A6
330
9F
100
AcDbEntity
  8
_U+30EC_U+30A4_U+30E4_U+30FC 1
370
     0
100
AcDbSpline
210
0.0
220
0.0
230
1.0
 70
    11
 71
     3
 72
    17
 73
    13
 74
     0
 42
0.0000000001
 43
0.0000000001
 12
1.0
 22
0.0
 32
0.0
 13
1.0
 23
0.0
 33
0.0
 40
0.0
 40
0.0
 40
0.0
 40
0.0
 40
1.0
 40
1.0
 40
1.0
 40
2.0
 40
2.0
 40
2.0
 40
3.0
 40
3.0
 40
3.0
 40
4.0
 40
4.0
 40
4.0
 40
4.0
 10
64.84048663743572
 20
-76.40153806683712
 30
0.0
 10
64.57383624687738
 20
-76.40153806683712
 30
0.0
 10
64.52422687188978
 20
-76.68506942527318
 30
0.0
 10
64.52422687188978
 20
-77.02992348334669
 30
0.0
 10
64.52422687188978
 20
-77.34928383482935
 30
0.0
 10
64.56246743177606
 20
-77.65796439030774
 30
0.0
 10
64.84048663743572
 20
-77.65796439030774
 30
0.0
 10
65.1050699707029
 20
-77.65796439030774
 30
0.0
 10
65.15709091253018
 20
-77.37684459871134
 30
0.0
 10
65.15709091253018
 20
-77.02992348334669
 30
0.0
 10
65.15709091253018
 20
-76.71021862231551
 30
0.0
 10
65.11643878580422
 20
-76.40153806683712
 30
0.0
 10
64.84048663743572
 20
-76.40153806683712
 30
0.0
  0
HATCH
  5
A7
330
9F
100
AcDbEntity
  8
_U+30EC_U+30A4_U+30E4_U+30FC 1
 62
   179
420
  2234388
100
AcDbHatch
 10
0.0
 20
0.0
 30
0.0
210
0.0
220
0.0
230
1.0
  2
SOLID
 70
     1
 71
     0
 91
        2
 92
        1
 93
        1
 72
     4
 94
        3
 73
     0
 74
     1
 95
       29
 96
       25
 40
0.0
 40
0.0
 40
0.0
 40
0.0
 40
1.0
 40
1.0
 40
1.0
 40
2.0
 40
2.0
 40
2.0
 40
3.0
 40
3.0
 40
3.0
 40
4.0
 40
4.0
 40
4.0
 40
5.0
 40
5.0
 40
5.0
 40
6.0
 40
6.0
 40
6.0
 40
7.0
 40
7.0
 40
7.0
 40
8.0
 40
8.0
 40
8.0
 40
8.0
 10
65.26561142031555
 20
-77.62420245455229
 10
65.15020072155967
 20
-77.83366426005547
 10
64.96485458445324
 20
-77.85261228522435
 10
64.84048663743572
 20
-77.85261228522435
 10
64.66892088227027
 20
-77.85261228522435
 10
64.51733668091929
 20
-77.80610349617348
 10
64.41570636410441
 20
-77.62420245455229
 10
64.30477428947937
 20
-77.42955455963568
 10
64.2844482261164
 20
-77.19287649979901
 10
64.2844482261164
 20
-77.02992348334669
 10
64.2844482261164
 20
-76.88591849206324
 10
64.30236272263969
 20
-76.63408201209148
 10
64.41570636410441
 20
-76.43530000259257
 10
64.53077255331175
 20
-76.23238387851136
 10
64.70268281802572
 20
-76.20895722921165
 10
64.84048663743572
 20
-76.20895722921165
 10
65.01032984485853
 20
-76.20895722921165
 10
65.16398110350067
 20
-76.25339896097138
 10
65.26561142031555
 20
-76.43530000259257
 10
65.37206487080977
 20
-76.62788084021804
 10
65.39686955830356
 20
-76.8562906708901
 10
65.39686955830356
 20
-77.02992348334669
 10
65.39686955830356
 20
-77.20114472896361
 10
65.37413192810091
 20
-77.43162161692682
 10
65.26561142031555
 20
-77.62420245455229
 97
        0
 97
        0
 92
        1
 93
        1
 72
     4
 94
        3
 73
     0
 74
     1
 95
       17
 96
       13
 40
0.0
 40
0.0
 40
0.0
 40
0.0
 40
1.0
 40
1.0
 40
1.0
 40
2.0
 40
2.0
 40
2.0
 40
3.0
 40
3.0
 40
3.0
 40
4.0
 40
4.0
 40
4.0
 40
4.0
 10
64.84048663743572
 20
-76.40153806683712
 10
64.57383624687738
 20
-76.40153806683712
 10
64.52422687188978
 20
-76.68506942527318
 10
64.52422687188978
 20
-77.02992348334669
 10
64.52422687188978
 20
-77.34928383482935
 10
64.56246743177606
 20
-77.65796439030774
 10
64.84048663743572
 20
-77.65796439030774
 10
65.1050699707029
 20
-77.65796439030774
 10
65.15709091253018
 20
-77.37684459871134
 10
65.15709091253018
 20
-77.02992348334669
 10
65.15709091253018
 20
-76.71021862231551
 10
65.11643878580422
 20
-76.40153806683712
 10
64.84048663743572
 20
-76.40153806683712
 97
        0
 97
        0
 75
     2
 76
     1
 98
        0
  0
ENDBLK
  5
A2
330
9F
100
AcDbEntity
  8
0
100
AcDbBlockEnd
  0
BLOCK
  5
B6
330
B4
100
AcDbEntity
  8
0
100
AcDbBlockBegin
  2
block 5
 70
     0
 10
0.0
 20
0.0
 30
0.0
  3
block 5
  1

  0
SPLINE
  5
B8
330
B4
100
AcDbEntity
  8
_U+30EC_U+30A4_U+30E4_U+30FC 1
370
     0
100
AcDbSpline
210
0.0
220
0.0
230
1.0
 70
    11
 71
     3
 72
    26
 73
    22
 74
     0
 42
0.0000000001
 43
0.0000000001
 12
1.0
 22
0.0
 32
0.0
 13
1.0
 23
0.0
 33
0.0
 40
0.0
 40
0.0
 40
0.0
 40
0.0
 40
1.0
 40
1.0
 40
1.0
 40
2.0
 40
2.0
 40
2.0
 40
3.0
 40
3.0
 40
3.0
 40
4.0
 40
4.0
 40
4.0
 40
5.0
 40
5.0
 40
5.0
 40
6.0
 40
6.0
 40
6.0
 40
7.0
 40
7.0
 40
7.0
 40
7.0
 10
49.61574841424537
 20
-91.09280325413653
 30
0.0
 10
49.61574841424537
 20
-91.09280325413653
 30
0.0
 10
48.51142305644854
 20
-91.09280325413653
 30
0.0
 10
48.51142305644854
 20
-91.09280325413653
 30
0.0
 10
48.51142305644854
 20
-91.09280325413653
 30
0.0
 10
48.51142305644854
 20
-91.44523652227758
 30
0.0
 10
48.51142305644854
 20
-91.44523652227758
 30
0.0
 10
48.51142305644854
 20
-91.44523652227758
 30
0.0
 10
48.36345620535705
 20
-91.44523652227758
 30
0.0
 10
48.36345620535705
 20
-91.44523652227758
 30
0.0
 10
48.34864229477048
 20
-91.09039168729684
 30
0.0
 10
48.18568927831816
 20
-91.04078231230925
 30
0.0
 10
48.07148436298213
 20
-91.00908743384495
 30
0.0
 10
48.07148436298213
 20
-91.00908743384495
 30
0.0
 10
48.07148436298213
 20
-90.85302460836314
 30
0.0
 10
48.07148436298213
 20
-90.85302460836314
 30
0.0
 10
48.07148436298213
 20
-90.85302460836314
 30
0.0
 10
49.61574841424537
 20
-90.85302460836314
 30
0.0
 10
49.61574841424537
 20
-90.85302460836314
 30
0.0
 10
49.61574841424537
 20
-90.85302460836314
 30
0.0
 10
49.61574841424537
 20
-91.09280325413653
 30
0.0
 10
49.61574841424537
 20
-91.09280325413653
 30
0.0
  0
HATCH
  5
B9
330
B4
100
AcDbEntity
  8
_U+30EC_U+30A4_U+30E4_U+30FC 1
 62
   179
420
  2234388
100
AcDbHatch
 10
0.0
 20
0.0
 30
0.0
210
0.0
220
0.0
230
1.0
  2
SOLID
 70
     1
 71
     0
 91
        1
 92
        1
 93
        1
 72
     4
 94
        3
 73
     0
 74
     1
 95
       26
 96
       22
 40
0.0
 40
0.0
 40
0.0
 40
0.0
 40
1.0
 40
1.0
 40
1.0
 40
2.0
 40
2.0
 40
2.0
 40
3.0
 40
3.0
 40
3.0
 40
4.0
 40
4.0
 40
4.0
 40
5.0
 40
5.0
 40
5.0
 40
6.0
 40
6.0
 40
6.0
 40
7.0
 40
7.0
 40
7.0
 40
7.0
 10
49.61574841424537
 20
-91.09280325413653
 10
49.61574841424537
 20
-91.09280325413653
 10
48.51142305644854
 20
-91.09280325413653
 10
48.51142305644854
 20
-91.09280325413653
 10
48.51142305644854
 20
-91.09280325413653
 10
48.51142305644854
 20
-91.44523652227758
 10
48.51142305644854
 20
-91.44523652227758
 10
48.51142305644854
 20
-91.44523652227758
 10
48.36345620535705
 20
-91.44523652227758
 10
48.36345620535705
 20
-91.44523652227758
 10
48.34864229477048
 20
-91.09039168729684
 10
48.18568927831816
 20
-91.04078231230925
 10
48.07148436298213
 20
-91.00908743384495
 10
48.07148436298213
 20
-91.00908743384495
 10
48.07148436298213
 20
-90.85302460836314
 10
48.07148436298213
 20
-90.85302460836314
 10
48.07148436298213
 20
-90.85302460836314
 10
49.61574841424537
 20
-90.85302460836314
 10
49.61574841424537
 20
-90.85302460836314
 10
49.61574841424537
 20
-90.85302460836314
 10
49.61574841424537
 20
-91.09280325413653
 10
49.61574841424537
 20
-91.09280325413653
 97
        0
 97
        0
 75
     2
 76
     1
 98
        0
  0
POLYLINE
  5
BA
330
B4
100
AcDbEntity
  8
_U+30EC_U+30A4_U+30E4_U+30FC 1
370
     0
100
AcDb2dPolyline
 66
     1
 10
0.0
 20
0.0
 30
0.0
  0
VERTEX
  5
BB
330
BA
100
AcDbEntity
  8
_U+30EC_U+30A4_U+30E4_U+30FC 1
370
     0
100
AcDbVertex
100
AcDb2dVertex
 10
49.26882729888071
 20
-89.42778860611529
 30
0.0
  0
VERTEX
  5
BC
330
BA
100
AcDbEntity
  8
_U+30EC_U+30A4_U+30E4_U+30FC 1
370
     0
100
AcDbVertex
100
AcDb2dVertex
 10
49.61574841424537
 20
-89.42778860611529
 30
0.0
  0
VERTEX
  5
BD
330
BA
100
AcDbEntity
  8
_U+30EC_U+30A4_U+30E4_U+30FC 1
370
     0
100
AcDbVertex
100
AcDb2dVertex
 10
49.61574841424537
 20
-89.66067706091818
 30
0.0
  0
VERTEX
  5
BE
330
BA
100
AcDbEntity
  8
_U+30EC_U+30A4_U+30E4_U+30FC 1
370
     0
100
AcDbVertex
100
AcDb2dVertex
 10
49.26882729888071
 20
-89.66067706091818
 30
0.0
  0
VERTEX
  5
BF
330
BA
100
AcDbEntity
  8
_U+30EC_U+30A4_U+30E4_U+30FC 1
370
     0
100
AcDbVertex
100
AcDb2dVertex
 10
49.26882729888071
 20
-90.36175399216651
 30
0.0
  0
VERTEX
  5
C0
330
BA
100
AcDbEntity
  8
_U+30EC_U+30A4_U+30E4_U+30FC 1
370
     0
100
AcDbVertex
100
AcDb2dVertex
 10
49.04455158279094
 20
-90.36175399216651
 30
0.0
  0
VERTEX
  5
C1
330
BA
100
AcDbEntity
  8
_U+30EC_U+30A4_U+30E4_U+30FC 1
370
     0
100
AcDbVertex
100
AcDb2dVertex
 10
48.07148436298213
 20
-89.63587237342436
 30
0.0
  0
VERTEX
  5
C2
330
BA
100
AcDbEntity
  8
_U+30EC_U+30A4_U+30E4_U+30FC 1
370
     0
100
AcDbVertex
100
AcDb2dVertex
 10
48.07148436298213
 20
-89.42778860611529
 30
0.0
  0
VERTEX
  5
C3
330
BA
100
AcDbEntity
  8
_U+30EC_U+30A4_U+30E4_U+30FC 1
370
     0
100
AcDbVertex
100
AcDb2dVertex
 10
49.06987303460753
 20
-89.42778860611529
 30
0.0
  0
VERTEX
  5
C4
330
BA
100
AcDbEntity
  8
_U+30EC_U+30A4_U+30E4_U+30FC 1
370
     0
100
AcDbVertex
100
AcDb2dVertex
 10
49.06987303460753
 20
-89.20626896641372
 30
0.0
  0
VERTEX
  5
C5
330
BA
100
AcDbEntity
  8
_U+30EC_U+30A4_U+30E4_U+30FC 1
370
     0
100
AcDbVertex
100
AcDb2dVertex
 10
49.26882729888071
 20
-89.20626896641372
 30
0.0
  0
VERTEX
  5
C6
330
BA
100
AcDbEntity
  8
_U+30EC_U+30A4_U+30E4_U+30FC 1
370
     0
100
AcDbVertex
100
AcDb2dVertex
 10
49.26882729888071
 20
-89.42778860611529
 30
0.0
  0
SEQEND
  5
C7
330
BA
100
AcDbEntity
  8
_U+30EC_U+30A4_U+30E4_U+30FC 1
370
     0
  0
POLYLINE
  5
C8
330
B4
100
AcDbEntity
  8
_U+30EC_U+30A4_U+30E4_U+30FC 1
370
     0
100
AcDb2dPolyline
 66
     1
 10
0.0
 20
0.0
 30
0.0
  0
VERTEX
  5
C9
330
C8
100
AcDbEntity
  8
_U+30EC_U+30A4_U+30E4_U+30FC 1
370
     0
100
AcDbVertex
100
AcDb2dVertex
 10
48.41409910899023
 20
-89.66067706091818
 30
0.0
  0
VERTEX
  5
CA
330
C8
100
AcDbEntity
  8
_U+30EC_U+30A4_U+30E4_U+30FC 1
370
     0
100
AcDbVertex
100
AcDb2dVertex
 10
49.06987303460753
 20
-90.1491916007266
 30
0.0
  0
VERTEX
  5
CB
330
C8
100
AcDbEntity
  8
_U+30EC_U+30A4_U+30E4_U+30FC 1
370
     0
100
AcDbVertex
100
AcDb2dVertex
 10
49.06987303460753
 20
-89.66067706091818
 30
0.0
  0
VERTEX
  5
CC
330
C8
100
AcDbEntity
  8
_U+30EC_U+30A4_U+30E4_U+30FC 1
370
     0
100
AcDbVertex
100
AcDb2dVertex
 10
48.41409910899023
 20
-89.66067706091818
 30
0.0
  0
SEQEND
  5
CD
330
C8
100
AcDbEntity
  8
_U+30EC_U+30A4_U+30E4_U+30FC 1
370
     0
  0
HATCH
  5
CE
330
B4
100
AcDbEntity
  8
_U+30EC_U+30A4_U+30E4_U+30FC 1
 62
   179
420
  2234388
100
AcDbHatch
 10
0.0
 20
0.0
 30
0.0
210
0.0
220
0.0
230
1.0
  2
SOLID
 70
     1
 71
     0
 91
        2
 92
        1
 93
       11
 72
     1
 10
49.26882729888071
 20
-89.42778860611529
 11
49.61574841424537
 21
-89.42778860611529
 72
     1
 10
49.61574841424537
 20
-89.42778860611529
 11
49.61574841424537
 21
-89.66067706091818
 72
     1
 10
49.61574841424537
 20
-89.66067706091818
 11
49.26882729888071
 21
-89.66067706091818
 72
     1
 10
49.26882729888071
 20
-89.66067706091818
 11
49.26882729888071
 21
-90.36175399216651
 72
     1
 10
49.26882729888071
 20
-90.36175399216651
 11
49.04455158279094
 21
-90.36175399216651
 72
     1
 10
49.04455158279094
 20
-90.36175399216651
 11
48.07148436298213
 21
-89.63587237342436
 72
     1
 10
48.07148436298213
 20
-89.63587237342436
 11
48.07148436298213
 21
-89.42778860611529
 72
     1
 10
48.07148436298213
 20
-89.42778860611529
 11
49.06987303460753
 21
-89.42778860611529
 72
     1
 10
49.06987303460753
 20
-89.42778860611529
 11
49.06987303460753
 21
-89.20626896641372
 72
     1
 10
49.06987303460753
 20
-89.20626896641372
 11
49.26882729888071
 21
-89.20626896641372
 72
     1
 10
49.26882729888071
 20
-89.20626896641372
 11
49.26882729888071
 21
-89.42778860611529
 97
        0
 92
        1
 93
        3
 72
     1
 10
48.41409910899023
 20
-89.66067706091818
 11
49.06987303460753
 21
-90.1491916007266
 72
     1
 10
49.06987303460753
 20
-90.1491916007266
 11
49.06987303460753
 21
-89.66067706091818
 72
     1
 10
49.06987303460753
 20
-89.66067706091818
 11
48.41409910899023
 21
-89.66067706091818
 97
        0
 75
     2
 76
     1
 98
        0
  0
POLYLINE
  5
CF
330
B4
100
AcDbEntity
  8
_U+30EC_U+30A4_U+30E4_U+30FC 1
370
     0
100
AcDb2dPolyline
 66
     1
 10
0.0
 20
0.0
 30
0.0
  0
VERTEX
  5
D0
330
CF
100
AcDbEntity
  8
_U+30EC_U+30A4_U+30E4_U+30FC 1
370
     0
100
AcDbVertex
100
AcDb2dVertex
 10
49.61574841424537
 20
-88.99542912271643
 30
0.0
  0
VERTEX
  5
D1
330
CF
100
AcDbEntity
  8
_U+30EC_U+30A4_U+30E4_U+30FC 1
370
     0
100
AcDbVertex
100
AcDb2dVertex
 10
49.36408418904787
 20
-88.99542912271643
 30
0.0
  0
VERTEX
  5
D2
330
CF
100
AcDbEntity
  8
_U+30EC_U+30A4_U+30E4_U+30FC 1
370
     0
100
AcDbVertex
100
AcDb2dVertex
 10
49.36408418904787
 20
-88.72636716531841
 30
0.0
  0
VERTEX
  5
D3
330
CF
100
AcDbEntity
  8
_U+30EC_U+30A4_U+30E4_U+30FC 1
370
     0
100
AcDbVertex
100
AcDb2dVertex
 10
49.61574841424537
 20
-88.72636716531841
 30
0.0
  0
VERTEX
  5
D4
330
CF
100
AcDbEntity
  8
_U+30EC_U+30A4_U+30E4_U+30FC 1
370
     0
100
AcDbVertex
100
AcDb2dVertex
 10
49.61574841424537
 20
-88.99542912271643
 30
0.0
  0
SEQEND
  5
D5
330
CF
100
AcDbEntity
  8
_U+30EC_U+30A4_U+30E4_U+30FC 1
370
     0
  0
HATCH
  5
D6
330
B4
100
AcDbEntity
  8
_U+30EC_U+30A4_U+30E4_U+30FC 1
 62
   179
420
  2234388
100
AcDbHatch
 10
0.0
 20
0.0
 30
0.0
210
0.0
220
0.0
230
1.0
  2
SOLID
 70
     1
 71
     0
 91
        1
 92
        1
 93
        4
 72
     1
 10
49.61574841424537
 20
-88.99542912271643
 11
49.36408418904787
 21
-88.99542912271643
 72
     1
 10
49.36408418904787
 20
-88.99542912271643
 11
49.36408418904787
 21
-88.72636716531841
 72
     1
 10
49.36408418904787
 20
-88.72636716531841
 11
49.61574841424537
 21
-88.72636716531841
 72
     1
 10
49.61574841424537
 20
-88.72636716531841
 11
49.61574841424537
 21
-88.99542912271643
 97
        0
 75
     2
 76
     1
 98
        0
  0
SPLINE
  5
D7
330
B4
100
AcDbEntity
  8
_U+30EC_U+30A4_U+30E4_U+30FC 1
370
     0
100
AcDbSpline
210
0.0
220
0.0
230
1.0
 70
    11
 71
     3
 72
    26
 73
    22
 74
     0
 42
0.0000000001
 43
0.0000000001
 12
1.0
 22
0.0
 32
0.0
 13
1.0
 23
0.0
 33
0.0
 40
0.0
 40
0.0
 40
0.0
 40
0.0
 40
1.0
 40
1.0
 40
1.0
 40
2.0
 40
2.0
 40
2.0
 40
3.0
 40
3.0
 40
3.0
 40
4.0
 40
4.0
 40
4.0
 40
5.0
 40
5.0
 40
5.0
 40
6.0
 40
6.0
 40
6.0
 40
7.0
 40
7.0
 40
7.0
 40
7.0
 10
49.61574841424537
 20
-88.0339029727832
 30
0.0
 10
49.61574841424537
 20
-88.0339029727832
 30
0.0
 10
49.61574841424537
 20
-88.28711749094906
 30
0.0
 10
49.61574841424537
 20
-88.28711749094906
 30
0.0
 10
49.30689560399272
 20
-88.25990123661559
 30
0.0
 10
48.78858098823689
 20
-88.05422903614617
 30
0.0
 10
48.28301322577647
 20
-87.6201470050047
 30
0.0
 10
48.28301322577647
 20
-87.6201470050047
 30
0.0
 10
48.28301322577647
 20
-88.51552732162112
 30
0.0
 10
48.28301322577647
 20
-88.51552732162112
 30
0.0
 10
48.28301322577647
 20
-88.51552732162112
 30
0.0
 10
48.07148436298213
 20
-88.51552732162112
 30
0.0
 10
48.07148436298213
 20
-88.51552732162112
 30
0.0
 10
48.07148436298213
 20
-88.51552732162112
 30
0.0
 10
48.07148436298213
 20
-87.36693248683882
 30
0.0
 10
48.07148436298213
 20
-87.36693248683882
 30
0.0
 10
48.07148436298213
 20
-87.36693248683882
 30
0.0
 10
48.28301322577647
 20
-87.36693248683882
 30
0.0
 10
48.28301322577647
 20
-87.36693248683882
 30
0.0
 10
48.57274575608598
 20
-87.71282007355791
 30
0.0
 10
49.16512992477469
 20
-87.99772947018808
 30
0.0
 10
49.61574841424537
 20
-88.0339029727832
 30
0.0
  0
HATCH
  5
D8
330
B4
100
AcDbEntity
  8
_U+30EC_U+30A4_U+30E4_U+30FC 1
 62
   179
420
  2234388
100
AcDbHatch
 10
0.0
 20
0.0
 30
0.0
210
0.0
220
0.0
230
1.0
  2
SOLID
 70
     1
 71
     0
 91
        1
 92
        1
 93
        1
 72
     4
 94
        3
 73
     0
 74
     1
 95
       26
 96
       22
 40
0.0
 40
0.0
 40
0.0
 40
0.0
 40
1.0
 40
1.0
 40
1.0
 40
2.0
 40
2.0
 40
2.0
 40
3.0
 40
3.0
 40
3.0
 40
4.0
 40
4.0
 40
4.0
 40
5.0
 40
5.0
 40
5.0
 40
6.0
 40
6.0
 40
6.0
 40
7.0
 40
7.0
 40
7.0
 40
7.0
 10
49.61574841424537
 20
-88.0339029727832
 10
49.61574841424537
 20
-88.0339029727832
 10
49.61574841424537
 20
-88.28711749094906
 10
49.61574841424537
 20
-88.28711749094906
 10
49.30689560399272
 20
-88.25990123661559
 10
48.78858098823689
 20
-88.05422903614617
 10
48.28301322577647
 20
-87.6201470050047
 10
48.28301322577647
 20
-87.6201470050047
 10
48.28301322577647
 20
-88.51552732162112
 10
48.28301322577647
 20
-88.51552732162112
 10
48.28301322577647
 20
-88.51552732162112
 10
48.07148436298213
 20
-88.51552732162112
 10
48.07148436298213
 20
-88.51552732162112
 10
48.07148436298213
 20
-88.51552732162112
 10
48.07148436298213
 20
-87.36693248683882
 10
48.07148436298213
 20
-87.36693248683882
 10
48.07148436298213
 20
-87.36693248683882
 10
48.28301322577647
 20
-87.36693248683882
 10
48.28301322577647
 20
-87.36693248683882
 10
48.57274575608598
 20
-87.71282007355791
 10
49.16512992477469
 20
-87.99772947018808
 10
49.61574841424537
 20
-88.0339029727832
 97
        0
 97
        0
 75
     2
 76
     1
 98
        0
  0
ENDBLK
  5
B7
330
B4
100
AcDbEntity
  8
0
100
AcDbBlockEnd
  0
BLOCK
  5
E3
330
E1
100
AcDbEntity
  8
0
100
AcDbBlockBegin
  2
block 6
 70
     0
 10
0.0
 20
0.0
 30
0.0
  3
block 6
  1

  0
SPLINE
  5
E5
330
E1
100
AcDbEntity
  8
_U+30EC_U+30A4_U+30E4_U+30FC 1
370
     0
100
AcDbSpline
210
0.0
220
0.0
230
1.0
 70
    11
 71
     3
 72
    26
 73
    22
 74
     0
 42
0.0000000001
 43
0.0000000001
 12
1.0
 22
0.0
 32
0.0
 13
1.0
 23
0.0
 33
0.0
 40
0.0
 40
0.0
 40
0.0
 40
0.0
 40
1.0
 40
1.0
 40
1.0
 40
2.0
 40
2.0
 40
2.0
 40
3.0
 40
3.0
 40
3.0
 40
4.0
 40
4.0
 40
4.0
 40
5.0
 40
5.0
 40
5.0
 40
6.0
 40
6.0
 40
6.0
 40
7.0
 40
7.0
 40
7.0
 40
7.0
 10
77.61593422538769
 20
-91.09280325413653
 30
0.0
 10
77.61593422538769
 20
-91.09280325413653
 30
0.0
 10
76.5114366128166
 20
-91.09280325413653
 30
0.0
 10
76.5114366128166
 20
-91.09280325413653
 30
0.0
 10
76.5114366128166
 20
-91.09280325413653
 30
0.0
 10
76.5114366128166
 20
-91.44523652227758
 30
0.0
 10
76.5114366128166
 20
-91.44523652227758
 30
0.0
 10
76.5114366128166
 20
-91.44523652227758
 30
0.0
 10
76.36329750695084
 20
-91.44523652227758
 30
0.0
 10
76.36329750695084
 20
-91.44523652227758
 30
0.0
 10
76.3488281059128
 20
-91.09039168729684
 30
0.0
 10
76.18553057991195
 20
-91.04078231230925
 30
0.0
 10
76.07115340980165
 20
-91.00908743384495
 30
0.0
 10
76.07115340980165
 20
-91.00908743384495
 30
0.0
 10
76.07115340980165
 20
-90.85302460836314
 30
0.0
 10
76.07115340980165
 20
-90.85302460836314
 30
0.0
 10
76.07115340980165
 20
-90.85302460836314
 30
0.0
 10
77.61593422538769
 20
-90.85302460836314
 30
0.0
 10
77.61593422538769
 20
-90.85302460836314
 30
0.0
 10
77.61593422538769
 20
-90.85302460836314
 30
0.0
 10
77.61593422538769
 20
-91.09280325413653
 30
0.0
 10
77.61593422538769
 20
-91.09280325413653
 30
0.0
  0
HATCH
  5
E6
330
E1
100
AcDbEntity
  8
_U+30EC_U+30A4_U+30E4_U+30FC 1
 62
   179
420
  2234388
100
AcDbHatch
 10
0.0
 20
0.0
 30
0.0
210
0.0
220
0.0
230
1.0
  2
SOLID
 70
     1
 71
     0
 91
        1
 92
        1
 93
        1
 72
     4
 94
        3
 73
     0
 74
     1
 95
       26
 96
       22
 40
0.0
 40
0.0
 40
0.0
 40
0.0
 40
1.0
 40
1.0
 40
1.0
 40
2.0
 40
2.0
 40
2.0
 40
3.0
 40
3.0
 40
3.0
 40
4.0
 40
4.0
 40
4.0
 40
5.0
 40
5.0
 40
5.0
 40
6.0
 40
6.0
 40
6.0
 40
7.0
 40
7.0
 40
7.0
 40
7.0
 10
77.61593422538769
 20
-91.09280325413653
 10
77.61593422538769
 20
-91.09280325413653
 10
76.5114366128166
 20
-91.09280325413653
 10
76.5114366128166
 20
-91.09280325413653
 10
76.5114366128166
 20
-91.09280325413653
 10
76.5114366128166
 20
-91.44523652227758
 10
76.5114366128166
 20
-91.44523652227758
 10
76.5114366128166
 20
-91.44523652227758
 10
76.36329750695084
 20
-91.44523652227758
 10
76.36329750695084
 20
-91.44523652227758
 10
76.3488281059128
 20
-91.09039168729684
 10
76.18553057991195
 20
-91.04078231230925
 10
76.07115340980165
 20
-91.00908743384495
 10
76.07115340980165
 20
-91.00908743384495
 10
76.07115340980165
 20
-90.85302460836314
 10
76.07115340980165
 20
-90.85302460836314
 10
76.07115340980165
 20
-90.85302460836314
 10
77.61593422538769
 20
-90.85302460836314
 10
77.61593422538769
 20
-90.85302460836314
 10
77.61593422538769
 20
-90.85302460836314
 10
77.61593422538769
 20
-91.09280325413653
 10
77.61593422538769
 20
-91.09280325413653
 97
        0
 97
        0
 75
     2
 76
     1
 98
        0
  0
SPLINE
  5
E7
330
E1
100
AcDbEntity
  8
_U+30EC_U+30A4_U+30E4_U+30FC 1
370
     0
100
AcDbSpline
210
0.0
220
0.0
230
1.0
 70
    11
 71
     3
 72
    44
 73
    40
 74
     0
 42
0.0000000001
 43
0.0000000001
 12
1.0
 22
0.0
 32
0.0
 13
1.0
 23
0.0
 33
0.0
 40
0.0
 40
0.0
 40
0.0
 40
0.0
 40
1.0
 40
1.0
 40
1.0
 40
2.0
 40
2.0
 40
2.0
 40
3.0
 40
3.0
 40
3.0
 40
4.0
 40
4.0
 40
4.0
 40
5.0
 40
5.0
 40
5.0
 40
6.0
 40
6.0
 40
6.0
 40
7.0
 40
7.0
 40
7.0
 40
8.0
 40
8.0
 40
8.0
 40
9.0
 40
9.0
 40
9.0
 40
10.0
 40
10.0
 40
10.0
 40
11.0
 40
11.0
 40
11.0
 40
12.0
 40
12.0
 40
12.0
 40
13.0
 40
13.0
 40
13.0
 40
13.0
 10
77.03371308838047
 20
-89.68341469112082
 30
0.0
 10
77.19287649979901
 20
-89.9163031459237
 30
0.0
 10
77.26660154318336
 20
-90.01586640544743
 30
0.0
 10
77.4106065344668
 20
-90.0678873472747
 30
0.0
 10
77.4106065344668
 20
-90.0678873472747
 30
0.0
 10
77.4106065344668
 20
-89.23555227803834
 30
0.0
 10
77.4106065344668
 20
-89.23555227803834
 30
0.0
 10
77.4106065344668
 20
-89.23555227803834
 30
0.0
 10
77.61593422538769
 20
-89.23555227803834
 30
0.0
 10
77.61593422538769
 20
-89.23555227803834
 30
0.0
 10
77.61593422538769
 20
-89.23555227803834
 30
0.0
 10
77.61593422538769
 20
-90.33453773783303
 30
0.0
 10
77.61593422538769
 20
-90.33453773783303
 30
0.0
 10
77.25833331401876
 20
-90.30043129252907
 30
0.0
 10
77.17978513695506
 20
-90.23049585417849
 30
0.0
 10
76.88143986793241
 20
-89.81915145323966
 30
0.0
 10
76.68300236798203
 20
-89.54561087171082
 30
0.0
 10
76.61478947737409
 20
-89.47533092381173
 30
0.0
 10
76.47767467706115
 20
-89.47533092381173
 30
0.0
 10
76.35916339236854
 20
-89.47533092381173
 30
0.0
 10
76.22824976392906
 20
-89.5521565531328
 30
0.0
 10
76.22824976392906
 20
-89.76265188728156
 30
0.0
 10
76.22824976392906
 20
-90.04067109294122
 30
0.0
 10
76.45838214234374
 20
-90.04962834120288
 30
0.0
 10
76.57482636974518
 20
-90.0541069653337
 30
0.0
 10
76.57482636974518
 20
-90.0541069653337
 30
0.0
 10
76.57482636974518
 20
-90.29388561110709
 30
0.0
 10
76.57482636974518
 20
-90.29388561110709
 30
0.0
 10
76.448046855888
 20
-90.28492836284543
 30
0.0
 10
76.33573674306885
 20
-90.27355954774411
 30
0.0
 10
76.21722545837625
 20
-90.18743216061287
 30
0.0
 10
76.05668400876361
 20
-90.06995440456585
 30
0.0
 10
76.02292207300816
 20
-89.87117239506694
 30
0.0
 10
76.02292207300816
 20
-89.74680444804942
 30
0.0
 10
76.02292207300816
 20
-89.45052623631793
 30
0.0
 10
76.2068901719205
 20
-89.22900659661636
 30
0.0
 10
76.47974173435229
 20
-89.22900659661636
 30
0.0
 10
76.70849607457288
 20
-89.22900659661636
 30
0.0
 10
76.80771482454807
 20
-89.35337454363388
 30
0.0
 10
77.03371308838047
 20
-89.68341469112082
 30
0.0
  0
HATCH
  5
E8
330
E1
100
AcDbEntity
  8
_U+30EC_U+30A4_U+30E4_U+30FC 1
 62
   179
420
  2234388
100
AcDbHatch
 10
0.0
 20
0.0
 30
0.0
210
0.0
220
0.0
230
1.0
  2
SOLID
 70
     1
 71
     0
 91
        1
 92
        1
 93
        1
 72
     4
 94
        3
 73
     0
 74
     1
 95
       44
 96
       40
 40
0.0
 40
0.0
 40
0.0
 40
0.0
 40
1.0
 40
1.0
 40
1.0
 40
2.0
 40
2.0
 40
2.0
 40
3.0
 40
3.0
 40
3.0
 40
4.0
 40
4.0
 40
4.0
 40
5.0
 40
5.0
 40
5.0
 40
6.0
 40
6.0
 40
6.0
 40
7.0
 40
7.0
 40
7.0
 40
8.0
 40
8.0
 40
8.0
 40
9.0
 40
9.0
 40
9.0
 40
10.0
 40
10.0
 40
10.0
 40
11.0
 40
11.0
 40
11.0
 40
12.0
 40
12.0
 40
12.0
 40
13.0
 40
13.0
 40
13.0
 40
13.0
 10
77.03371308838047
 20
-89.68341469112082
 10
77.19287649979901
 20
-89.9163031459237
 10
77.26660154318336
 20
-90.01586640544743
 10
77.4106065344668
 20
-90.0678873472747
 10
77.4106065344668
 20
-90.0678873472747
 10
77.4106065344668
 20
-89.23555227803834
 10
77.4106065344668
 20
-89.23555227803834
 10
77.4106065344668
 20
-89.23555227803834
 10
77.61593422538769
 20
-89.23555227803834
 10
77.61593422538769
 20
-89.23555227803834
 10
77.61593422538769
 20
-89.23555227803834
 10
77.61593422538769
 20
-90.33453773783303
 10
77.61593422538769
 20
-90.33453773783303
 10
77.25833331401876
 20
-90.30043129252907
 10
77.17978513695506
 20
-90.23049585417849
 10
76.88143986793241
 20
-89.81915145323966
 10
76.68300236798203
 20
-89.54561087171082
 10
76.61478947737409
 20
-89.47533092381173
 10
76.47767467706115
 20
-89.47533092381173
 10
76.35916339236854
 20
-89.47533092381173
 10
76.22824976392906
 20
-89.5521565531328
 10
76.22824976392906
 20
-89.76265188728156
 10
76.22824976392906
 20
-90.04067109294122
 10
76.45838214234374
 20
-90.04962834120288
 10
76.57482636974518
 20
-90.0541069653337
 10
76.57482636974518
 20
-90.0541069653337
 10
76.57482636974518
 20
-90.29388561110709
 10
76.57482636974518
 20
-90.29388561110709
 10
76.448046855888
 20
-90.28492836284543
 10
76.33573674306885
 20
-90.27355954774411
 10
76.21722545837625
 20
-90.18743216061287
 10
76.05668400876361
 20
-90.06995440456585
 10
76.02292207300816
 20
-89.87117239506694
 10
76.02292207300816
 20
-89.74680444804942
 10
76.02292207300816
 20
-89.45052623631793
 10
76.2068901719205
 20
-89.22900659661636
 10
76.47974173435229
 20
-89.22900659661636
 10
76.70849607457288
 20
-89.22900659661636
 10
76.80771482454807
 20
-89.35337454363388
 10
77.03371308838047
 20
-89.68341469112082
 97
        0
 97
        0
 75
     2
 76
     1
 98
        0
  0
POLYLINE
  5
E9
330
E1
100
AcDbEntity
  8
_U+30EC_U+30A4_U+30E4_U+30FC 1
370
     0
100
AcDb2dPolyline
 66
     1
 10
0.0
 20
0.0
 30
0.0
  0
VERTEX
  5
EA
330
E9
100
AcDbEntity
  8
_U+30EC_U+30A4_U+30E4_U+30FC 1
370
     0
100
AcDbVertex
100
AcDb2dVertex
 10
77.61593422538769
 20
-88.99542912271643
 30
0.0
  0
VERTEX
  5
EB
330
E9
100
AcDbEntity
  8
_U+30EC_U+30A4_U+30E4_U+30FC 1
370
     0
100
AcDbVertex
100
AcDb2dVertex
 10
77.36375323586739
 20
-88.99542912271643
 30
0.0
  0
VERTEX
  5
EC
330
E9
100
AcDbEntity
  8
_U+30EC_U+30A4_U+30E4_U+30FC 1
370
     0
100
AcDbVertex
100
AcDb2dVertex
 10
77.36375323586739
 20
-88.72636716531841
 30
0.0
  0
VERTEX
  5
ED
330
E9
100
AcDbEntity
  8
_U+30EC_U+30A4_U+30E4_U+30FC 1
370
     0
100
AcDbVertex
100
AcDb2dVertex
 10
77.61593422538769
 20
-88.72636716531841
 30
0.0
  0
VERTEX
  5
EE
330
E9
100
AcDbEntity
  8
_U+30EC_U+30A4_U+30E4_U+30FC 1
370
     0
100
AcDbVertex
100
AcDb2dVertex
 10
77.61593422538769
 20
-88.99542912271643
 30
0.0
  0
SEQEND
  5
EF
330
E9
100
AcDbEntity
  8
_U+30EC_U+30A4_U+30E4_U+30FC 1
370
     0
  0
HATCH
  5
F0
330
E1
100
AcDbEntity
  8
_U+30EC_U+30A4_U+30E4_U+30FC 1
 62
   179
420
  2234388
100
AcDbHatch
 10
0.0
 20
0.0
 30
0.0
210
0.0
220
0.0
230
1.0
  2
SOLID
 70
     1
 71
     0
 91
        1
 92
        1
 93
        4
 72
     1
 10
77.61593422538769
 20
-88.99542912271643
 11
77.36375323586739
 21
-88.99542912271643
 72
     1
 10
77.36375323586739
 20
-88.99542912271643
 11
77.36375323586739
 21
-88.72636716531841
 72
     1
 10
77.36375323586739
 20
-88.72636716531841
 11
77.61593422538769
 21
-88.72636716531841
 72
     1
 10
77.61593422538769
 20
-88.72636716531841
 11
77.61593422538769
 21
-88.99542912271643
 97
        0
 75
     2
 76
     1
 98
        0
  0
SPLINE
  5
F1
330
E1
100
AcDbEntity
  8
_U+30EC_U+30A4_U+30E4_U+30FC 1
370
     0
100
AcDbSpline
210
0.0
220
0.0
230
1.0
 70
    11
 71
     3
 72
    26
 73
    22
 74
     0
 42
0.0000000001
 43
0.0000000001
 12
1.0
 22
0.0
 32
0.0
 13
1.0
 23
0.0
 33
0.0
 40
0.0
 40
0.0
 40
0.0
 40
0.0
 40
1.0
 40
1.0
 40
1.0
 40
2.0
 40
2.0
 40
2.0
 40
3.0
 40
3.0
 40
3.0
 40
4.0
 40
4.0
 40
4.0
 40
5.0
 40
5.0
 40
5.0
 40
6.0
 40
6.0
 40
6.0
 40
7.0
 40
7.0
 40
7.0
 40
7.0
 10
77.61593422538769
 20
-88.0339029727832
 30
0.0
 10
77.61593422538769
 20
-88.0339029727832
 30
0.0
 10
77.61593422538769
 20
-88.28711749094906
 30
0.0
 10
77.61593422538769
 20
-88.28711749094906
 30
0.0
 10
77.30656465081225
 20
-88.25990123661559
 30
0.0
 10
76.78842228983068
 20
-88.05422903614617
 30
0.0
 10
76.282682272596
 20
-87.6201470050047
 30
0.0
 10
76.282682272596
 20
-87.6201470050047
 30
0.0
 10
76.282682272596
 20
-88.51552732162112
 30
0.0
 10
76.282682272596
 20
-88.51552732162112
 30
0.0
 10
76.282682272596
 20
-88.51552732162112
 30
0.0
 10
76.07115340980165
 20
-88.51552732162112
 30
0.0
 10
76.07115340980165
 20
-88.51552732162112
 30
0.0
 10
76.07115340980165
 20
-88.51552732162112
 30
0.0
 10
76.07115340980165
 20
-87.36693248683882
 30
0.0
 10
76.07115340980165
 20
-87.36693248683882
 30
0.0
 10
76.07115340980165
 20
-87.36693248683882
 30
0.0
 10
76.282682272596
 20
-87.36693248683882
 30
0.0
 10
76.282682272596
 20
-87.36693248683882
 30
0.0
 10
76.57275931245404
 20
-87.71282007355791
 30
0.0
 10
77.165315735917
 20
-87.99772947018808
 30
0.0
 10
77.61593422538769
 20
-88.0339029727832
 30
0.0
  0
HATCH
  5
F2
330
E1
100
AcDbEntity
  8
_U+30EC_U+30A4_U+30E4_U+30FC 1
 62
   179
420
  2234388
100
AcDbHatch
 10
0.0
 20
0.0
 30
0.0
210
0.0
220
0.0
230
1.0
  2
SOLID
 70
     1
 71
     0
 91
        1
 92
        1
 93
        1
 72
     4
 94
        3
 73
     0
 74
     1
 95
       26
 96
       22
 40
0.0
 40
0.0
 40
0.0
 40
0.0
 40
1.0
 40
1.0
 40
1.0
 40
2.0
 40
2.0
 40
2.0
 40
3.0
 40
3.0
 40
3.0
 40
4.0
 40
4.0
 40
4.0
 40
5.0
 40
5.0
 40
5.0
 40
6.0
 40
6.0
 40
6.0
 40
7.0
 40
7.0
 40
7.0
 40
7.0
 10
77.61593422538769
 20
-88.0339029727832
 10
77.61593422538769
 20
-88.0339029727832
 10
77.61593422538769
 20
-88.28711749094906
 10
77.61593422538769
 20
-88.28711749094906
 10
77.30656465081225
 20
-88.25990123661559
 10
76.78842228983068
 20
-88.05422903614617
 10
76.282682272596
 20
-87.6201470050047
 10
76.282682272596
 20
-87.6201470050047
 10
76.282682272596
 20
-88.51552732162112
 10
76.282682272596
 20
-88.51552732162112
 10
76.282682272596
 20
-88.51552732162112
 10
76.07115340980165
 20
-88.51552732162112
 10
76.07115340980165
 20
-88.51552732162112
 10
76.07115340980165
 20
-88.51552732162112
 10
76.07115340980165
 20
-87.36693248683882
 10
76.07115340980165
 20
-87.36693248683882
 10
76.07115340980165
 20
-87.36693248683882
 10
76.282682272596
 20
-87.36693248683882
 10
76.282682272596
 20
-87.36693248683882
 10
76.57275931245404
 20
-87.71282007355791
 10
77.165315735917
 20
-87.99772947018808
 10
77.61593422538769
 20
-88.0339029727832
 97
        0
 97
        0
 75
     2
 76
     1
 98
        0
  0
ENDBLK
  5
E4
330
E1
100
AcDbEntity
  8
0
100
AcDbBlockEnd
  0
ENDSEC
  0
SECTION
  2
ENTITIES
  0
POLYLINE
  5
41
330
1F
100
AcDbEntity
  8
_U+30EC_U+30A4_U+30E4_U+30FC 1
 62
   179
420
  2234388
370
    25
100
AcDb2dPolyline
 66
     1
 10
0.0
 20
0.0
 30
0.0
  0
VERTEX
  5
42
330
41
100
AcDbEntity
  8
_U+30EC_U+30A4_U+30E4_U+30FC 1
 62
   179
420
  2234388
370
    25
100
AcDbVertex
100
AcDb2dVertex
 10
54.21203000582478
 20
-82.3984113682894
 30
0.0
  0
VERTEX
  5
43
330
41
100
AcDbEntity
  8
_U+30EC_U+30A4_U+30E4_U+30FC 1
 62
   179
420
  2234388
370
    25
100
AcDbVertex
100
AcDb2dVertex
 10
74.2121658844677
 20
-82.3984113682894
 30
0.0
  0
SEQEND
  5
44
330
41
100
AcDbEntity
  8
_U+30EC_U+30A4_U+30E4_U+30FC 1
 62
   179
420
  2234388
370
    25
  0
POLYLINE
  5
45
330
1F
100
AcDbEntity
  8
_U+30EC_U+30A4_U+30E4_U+30FC 1
 62
   179
420
  2234388
370
    25
100
AcDb2dPolyline
 66
     1
 10
0.0
 20
0.0
 30
0.0
  0
VERTEX
  5
46
330
45
100
AcDbEntity
  8
_U+30EC_U+30A4_U+30E4_U+30FC 1
 62
   179
420
  2234388
370
    25
100
AcDbVertex
100
AcDb2dVertex
 10
54.21203000582478
 20
-82.3984113682894
 30
0.0
  0
VERTEX
  5
47
330
45
100
AcDbEntity
  8
_U+30EC_U+30A4_U+30E4_U+30FC 1
 62
   179
420
  2234388
370
    25
100
AcDbVertex
100
AcDb2dVertex
 10
54.21203000582478
 20
-97.09830858683628
 30
0.0
  0
SEQEND
  5
48
330
45
100
AcDbEntity
  8
_U+30EC_U+30A4_U+30E4_U+30FC 1
 62
   179
420
  2234388
370
    25
  0
POLYLINE
  5
49
330
1F
100
AcDbEntity
  8
_U+30EC_U+30A4_U+30E4_U+30FC 1
 62
   179
420
  2234388
370
    25
100
AcDb2dPolyline
 66
     1
 10
0.0
 20
0.0
 30
0.0
  0
VERTEX
  5
4A
330
49
100
AcDbEntity
  8
_U+30EC_U+30A4_U+30E4_U+30FC 1
 62
   179
420
  2234388
370
    25
100
AcDbVertex
100
AcDb2dVertex
 10
74.2121658844677
 20
-82.3984113682894
 30
0.0
  0
VERTEX
  5
4B
330
49
100
AcDbEntity
  8
_U+30EC_U+30A4_U+30E4_U+30FC 1
 62
   179
420
  2234388
370
    25
100
AcDbVertex
100
AcDb2dVertex
 10
74.2121658844677
 20
-83.39818359026162
 30
0.0
  0
SEQEND
  5
4C
330
49
100
AcDbEntity
  8
_U+30EC_U+30A4_U+30E4_U+30FC 1
 62
   179
420
  2234388
370
    25
  0
POLYLINE
  5
4D
330
1F
100
AcDbEntity
  8
_U+30EC_U+30A4_U+30E4_U+30FC 1
 62
   179
420
  2234388
370
    25
100
AcDb2dPolyline
 66
     1
 10
0.0
 20
0.0
 30
0.0
  0
VERTEX
  5
4E
330
4D
100
AcDbEntity
  8
_U+30EC_U+30A4_U+30E4_U+30FC 1
 62
   179
420
  2234388
370
    25
100
AcDbVertex
100
AcDb2dVertex
 10
55.21211970253259
 20
-83.39818359026162
 30
0.0
  0
VERTEX
  5
4F
330
4D
100
AcDbEntity
  8
_U+30EC_U+30A4_U+30E4_U+30FC 1
 62
   179
420
  2234388
370
    25
100
AcDbVertex
100
AcDb2dVertex
 10
74.2121658844677
 20
-83.39818359026162
 30
0.0
  0
SEQEND
  5
50
330
4D
100
AcDbEntity
  8
_U+30EC_U+30A4_U+30E4_U+30FC 1
 62
   179
420
  2234388
370
    25
  0
POLYLINE
  5
51
330
1F
100
AcDbEntity
  8
_U+30EC_U+30A4_U+30E4_U+30FC 1
 62
   179
420
  2234388
370
    25
100
AcDb2dPolyline
 66
     1
 10
0.0
 20
0.0
 30
0.0
  0
VERTEX
  5
52
330
51
100
AcDbEntity
  8
_U+30EC_U+30A4_U+30E4_U+30FC 1
 62
   179
420
  2234388
370
    25
100
AcDbVertex
100
AcDb2dVertex
 10
60.21235651941036
 20
-96.09818358708662
 30
0.0
  0
VERTEX
  5
53
330
51
100
AcDbEntity
  8
_U+30EC_U+30A4_U+30E4_U+30FC 1
 62
   179
420
  2234388
370
    25
100
AcDbVertex
100
AcDb2dVertex
 10
60.21235651941036
 20
-97.09830858683628
 30
0.0
  0
SEQEND
  5
54
330
51
100
AcDbEntity
  8
_U+30EC_U+30A4_U+30E4_U+30FC 1
 62
   179
420
  2234388
370
    25
  0
POLYLINE
  5
55
330
1F
100
AcDbEntity
  8
_U+30EC_U+30A4_U+30E4_U+30FC 1
 62
   179
420
  2234388
370
    25
100
AcDb2dPolyline
 66
     1
 10
0.0
 20
0.0
 30
0.0
  0
VERTEX
  5
56
330
55
100
AcDbEntity
  8
_U+30EC_U+30A4_U+30E4_U+30FC 1
 62
   179
420
  2234388
370
    25
100
AcDbVertex
100
AcDb2dVertex
 10
55.21211970253259
 20
-96.09818358708662
 30
0.0
  0
VERTEX
  5
57
330
55
100
AcDbEntity
  8
_U+30EC_U+30A4_U+30E4_U+30FC 1
 62
   179
420
  2234388
370
    25
100
AcDbVertex
100
AcDb2dVertex
 10
60.21235651941036
 20
-96.09818358708662
 30
0.0
  0
SEQEND
  5
58
330
55
100
AcDbEntity
  8
_U+30EC_U+30A4_U+30E4_U+30FC 1
 62
   179
420
  2234388
370
    25
  0
POLYLINE
  5
59
330
1F
100
AcDbEntity
  8
_U+30EC_U+30A4_U+30E4_U+30FC 1
 62
   179
420
  2234388
370
    25
100
AcDb2dPolyline
 66
     1
 10
0.0
 20
0.0
 30
0.0
  0
VERTEX
  5
5A
330
59
100
AcDbEntity
  8
_U+30EC_U+30A4_U+30E4_U+30FC 1
 62
   179
420
  2234388
370
    25
100
AcDbVertex
100
AcDb2dVertex
 10
55.21211970253259
 20
-83.39818359026162
 30
0.0
  0
VERTEX
  5
5B
330
59
100
AcDbEntity
  8
_U+30EC_U+30A4_U+30E4_U+30FC 1
 62
   179
420
  2234388
370
    25
100
AcDbVertex
100
AcDb2dVertex
 10
55.21211970253259
 20
-96.09818358708662
 30
0.0
  0
SEQEND
  5
5C
330
59
100
AcDbEntity
  8
_U+30EC_U+30A4_U+30E4_U+30FC 1
 62
   179
420
  2234388
370
    25
  0
POLYLINE
  5
5D
330
1F
100
AcDbEntity
  8
_U+30EC_U+30A4_U+30E4_U+30FC 1
 62
   179
420
  2234388
370
    25
100
AcDb2dPolyline
 66
     1
 10
0.0
 20
0.0
 30
0.0
  0
VERTEX
  5
5E
330
5D
100
AcDbEntity
  8
_U+30EC_U+30A4_U+30E4_U+30FC 1
 62
   179
420
  2234388
370
    25
100
AcDbVertex
100
AcDb2dVertex
 10
54.21203000582478
 20
-97.09830858683628
 30
0.0
  0
VERTEX
  5
5F
330
5D
100
AcDbEntity
  8
_U+30EC_U+30A4_U+30E4_U+30FC 1
 62
   179
420
  2234388
370
    25
100
AcDbVertex
100
AcDb2dVertex
 10
60.21235651941036
 20
-97.09830858683628
 30
0.0
  0
SEQEND
  5
60
330
5D
100
AcDbEntity
  8
_U+30EC_U+30A4_U+30E4_U+30FC 1
 62
   179
420
  2234388
370
    25
  0
SPLINE
  5
61
330
1F
100
AcDbEntity
  8
_U+30EC_U+30A4_U+30E4_U+30FC 1
 62
   179
420
  2234388
370
     9
100
AcDbSpline
210
0.0
220
0.0
230
1.0
 70
    11
 71
     3
 72
    17
 73
    13
 74
     0
 42
0.0000000001
 43
0.0000000001
 12
1.0
 22
0.0
 32
0.0
 13
1.0
 23
0.0
 33
0.0
 40
0.0
 40
0.0
 40
0.0
 40
0.0
 40
1.0
 40
1.0
 40
1.0
 40
2.0
 40
2.0
 40
2.0
 40
3.0
 40
3.0
 40
3.0
 40
4.0
 40
4.0
 40
4.0
 40
4.0
 10
54.31193666994262
 20
-78.39798192484483
 30
0.0
 10
54.31193666994262
 20
-78.34284275819208
 30
0.0
 10
54.26713389330785
 20
-78.2980752582032
 30
0.0
 10
54.21203000582478
 20
-78.2980752582032
 30
0.0
 10
54.15689084056483
 20
-78.2980752582032
 30
0.0
 10
54.11212334170694
 20
-78.34284275819208
 30
0.0
 10
54.11212334170694
 20
-78.39798192484483
 30
0.0
 10
54.11212334170694
 20
-78.45343859149783
 30
0.0
 10
54.15689084056483
 20
-78.49820609148671
 30
0.0
 10
54.21203000582478
 20
-78.49820609148671
 30
0.0
 10
54.26713389330785
 20
-78.49820609148671
 30
0.0
 10
54.31193666994262
 20
-78.45343859149783
 30
0.0
 10
54.31193666994262
 20
-78.39798192484483
 30
0.0
  0
SPLINE
  5
62
330
1F
100
AcDbEntity
  8
_U+30EC_U+30A4_U+30E4_U+30FC 1
 62
   179
420
  2234388
370
     9
100
AcDbSpline
210
0.0
220
0.0
230
1.0
 70
    11
 71
     3
 72
    17
 73
    13
 74
     0
 42
0.0000000001
 43
0.0000000001
 12
1.0
 22
0.0
 32
0.0
 13
1.0
 23
0.0
 33
0.0
 40
0.0
 40
0.0
 40
0.0
 40
0.0
 40
1.0
 40
1.0
 40
1.0
 40
2.0
 40
2.0
 40
2.0
 40
3.0
 40
3.0
 40
3.0
 40
4.0
 40
4.0
 40
4.0
 40
4.0
 10
74.31207254858553
 20
-78.39798192484483
 30
0.0
 10
74.31207254858553
 20
-78.34284275819208
 30
0.0
 10
74.26730504972764
 20
-78.2980752582032
 30
0.0
 10
74.2121658844677
 20
-78.2980752582032
 30
0.0
 10
74.15706387034989
 20
-78.2980752582032
 30
0.0
 10
74.11226109258317
 20
-78.34284275819208
 30
0.0
 10
74.11226109258317
 20
-78.39798192484483
 30
0.0
 10
74.11226109258317
 20
-78.45343859149783
 30
0.0
 10
74.15706387034989
 20
-78.49820609148671
 30
0.0
 10
74.2121658844677
 20
-78.49820609148671
 30
0.0
 10
74.26730504972764
 20
-78.49820609148671
 30
0.0
 10
74.31207254858553
 20
-78.45343859149783
 30
0.0
 10
74.31207254858553
 20
-78.39798192484483
 30
0.0
  0
SPLINE
  5
63
330
1F
100
AcDbEntity
  8
_U+30EC_U+30A4_U+30E4_U+30FC 1
 62
   179
420
  2234388
370
     9
100
AcDbSpline
210
0.0
220
0.0
230
1.0
 70
    11
 71
     3
 72
    17
 73
    13
 74
     0
 42
0.0000000001
 43
0.0000000001
 12
1.0
 22
0.0
 32
0.0
 13
1.0
 23
0.0
 33
0.0
 40
0.0
 40
0.0
 40
0.0
 40
0.0
 40
1.0
 40
1.0
 40
1.0
 40
2.0
 40
2.0
 40
2.0
 40
3.0
 40
3.0
 40
3.0
 40
4.0
 40
4.0
 40
4.0
 40
4.0
 10
78.31218439097862
 20
-82.3984113682894
 30
0.0
 10
78.31218439097862
 20
-82.3429547016364
 30
0.0
 10
78.26741689212074
 20
-82.29815192387001
 30
0.0
 10
78.21227772686078
 20
-82.29815192387001
 30
0.0
 10
78.15682106160894
 20
-82.29815192387001
 30
0.0
 10
78.11201828497417
 20
-82.3429547016364
 30
0.0
 10
78.11201828497417
 20
-82.3984113682894
 30
0.0
 10
78.11201828497417
 20
-82.45355053494215
 30
0.0
 10
78.15682106160894
 20
-82.49831803493105
 30
0.0
 10
78.21227772686078
 20
-82.49831803493105
 30
0.0
 10
78.26741689212074
 20
-82.49831803493105
 30
0.0
 10
78.31218439097862
 20
-82.45355053494215
 30
0.0
 10
78.31218439097862
 20
-82.3984113682894
 30
0.0
  0
SPLINE
  5
64
330
1F
100
AcDbEntity
  8
_U+30EC_U+30A4_U+30E4_U+30FC 1
 62
   179
420
  2234388
370
     9
100
AcDbSpline
210
0.0
220
0.0
230
1.0
 70
    11
 71
     3
 72
    17
 73
    13
 74
     0
 42
0.0000000001
 43
0.0000000001
 12
1.0
 22
0.0
 32
0.0
 13
1.0
 23
0.0
 33
0.0
 40
0.0
 40
0.0
 40
0.0
 40
0.0
 40
1.0
 40
1.0
 40
1.0
 40
2.0
 40
2.0
 40
2.0
 40
3.0
 40
3.0
 40
3.0
 40
4.0
 40
4.0
 40
4.0
 40
4.0
 10
78.31218439097862
 20
-83.39818359026162
 30
0.0
 10
78.31218439097862
 20
-83.34304442360855
 30
0.0
 10
78.26741689212074
 20
-83.29827692361998
 30
0.0
 10
78.21227772686078
 20
-83.29827692361998
 30
0.0
 10
78.15682106160894
 20
-83.29827692361998
 30
0.0
 10
78.11201828497417
 20
-83.34304442360855
 30
0.0
 10
78.11201828497417
 20
-83.39818359026162
 30
0.0
 10
78.11201828497417
 20
-83.45328747913653
 30
0.0
 10
78.15682106160894
 20
-83.49809025690325
 30
0.0
 10
78.21227772686078
 20
-83.49809025690325
 30
0.0
 10
78.26741689212074
 20
-83.49809025690325
 30
0.0
 10
78.31218439097862
 20
-83.45328747913653
 30
0.0
 10
78.31218439097862
 20
-83.39818359026162
 30
0.0
  0
SPLINE
  5
65
330
1F
100
AcDbEntity
  8
_U+30EC_U+30A4_U+30E4_U+30FC 1
 62
   179
420
  2234388
370
     9
100
AcDbSpline
210
0.0
220
0.0
230
1.0
 70
    11
 71
     3
 72
    17
 73
    13
 74
     0
 42
0.0000000001
 43
0.0000000001
 12
1.0
 22
0.0
 32
0.0
 13
1.0
 23
0.0
 33
0.0
 40
0.0
 40
0.0
 40
0.0
 40
0.0
 40
1.0
 40
1.0
 40
1.0
 40
2.0
 40
2.0
 40
2.0
 40
3.0
 40
3.0
 40
3.0
 40
4.0
 40
4.0
 40
4.0
 40
4.0
 10
78.31218439097862
 20
-96.09818358708662
 30
0.0
 10
78.31218439097862
 20
-96.04304442043355
 30
0.0
 10
78.26741689212074
 20
-95.99827692044498
 30
0.0
 10
78.21227772686078
 20
-95.99827692044498
 30
0.0
 10
78.15682106160894
 20
-95.99827692044498
 30
0.0
 10
78.11201828497417
 20
-96.04304442043355
 30
0.0
 10
78.11201828497417
 20
-96.09818358708662
 30
0.0
 10
78.11201828497417
 20
-96.15328747596153
 30
0.0
 10
78.15682106160894
 20
-96.19809025372825
 30
0.0
 10
78.21227772686078
 20
-96.19809025372825
 30
0.0
 10
78.26741689212074
 20
-96.19809025372825
 30
0.0
 10
78.31218439097862
 20
-96.15328747596153
 30
0.0
 10
78.31218439097862
 20
-96.09818358708662
 30
0.0
  0
SPLINE
  5
66
330
1F
100
AcDbEntity
  8
_U+30EC_U+30A4_U+30E4_U+30FC 1
 62
   179
420
  2234388
370
     9
100
AcDbSpline
210
0.0
220
0.0
230
1.0
 70
    11
 71
     3
 72
    17
 73
    13
 74
     0
 42
0.0000000001
 43
0.0000000001
 12
1.0
 22
0.0
 32
0.0
 13
1.0
 23
0.0
 33
0.0
 40
0.0
 40
0.0
 40
0.0
 40
0.0
 40
1.0
 40
1.0
 40
1.0
 40
2.0
 40
2.0
 40
2.0
 40
3.0
 40
3.0
 40
3.0
 40
4.0
 40
4.0
 40
4.0
 40
4.0
 10
50.3121776053183
 20
-97.09830858683628
 30
0.0
 10
50.3121776053183
 20
-97.04281664240608
 30
0.0
 10
50.26737482868354
 20
-96.99840192019464
 30
0.0
 10
50.21227220966909
 20
-96.99840192019464
 30
0.0
 10
50.15713177594052
 20
-96.99840192019464
 30
0.0
 10
50.11236427708263
 20
-97.04281664240608
 30
0.0
 10
50.11236427708263
 20
-97.09830858683628
 30
0.0
 10
50.11236427708263
 20
-97.15341247571185
 30
0.0
 10
50.15713177594052
 20
-97.19821525347793
 30
0.0
 10
50.21227220966909
 20
-97.19821525347793
 30
0.0
 10
50.26737482868354
 20
-97.19821525347793
 30
0.0
 10
50.3121776053183
 20
-97.15341247571185
 30
0.0
 10
50.3121776053183
 20
-97.09830858683628
 30
0.0
  0
SPLINE
  5
67
330
1F
100
AcDbEntity
  8
_U+30EC_U+30A4_U+30E4_U+30FC 1
 62
   179
420
  2234388
370
     9
100
AcDbSpline
210
0.0
220
0.0
230
1.0
 70
    11
 71
     3
 72
    17
 73
    13
 74
     0
 42
0.0000000001
 43
0.0000000001
 12
1.0
 22
0.0
 32
0.0
 13
1.0
 23
0.0
 33
0.0
 40
0.0
 40
0.0
 40
0.0
 40
0.0
 40
1.0
 40
1.0
 40
1.0
 40
2.0
 40
2.0
 40
2.0
 40
3.0
 40
3.0
 40
3.0
 40
4.0
 40
4.0
 40
4.0
 40
4.0
 10
50.3121776053183
 20
-82.3984113682894
 30
0.0
 10
50.3121776053183
 20
-82.3429547016364
 30
0.0
 10
50.26737482868354
 20
-82.29815192387001
 30
0.0
 10
50.21227220966909
 20
-82.29815192387001
 30
0.0
 10
50.15713177594052
 20
-82.29815192387001
 30
0.0
 10
50.11236427708263
 20
-82.3429547016364
 30
0.0
 10
50.11236427708263
 20
-82.3984113682894
 30
0.0
 10
50.11236427708263
 20
-82.45355053494215
 30
0.0
 10
50.15713177594052
 20
-82.49831803493105
 30
0.0
 10
50.21227220966909
 20
-82.49831803493105
 30
0.0
 10
50.26737482868354
 20
-82.49831803493105
 30
0.0
 10
50.3121776053183
 20
-82.45355053494215
 30
0.0
 10
50.3121776053183
 20
-82.3984113682894
 30
0.0
  0
SPLINE
  5
68
330
1F
100
AcDbEntity
  8
_U+30EC_U+30A4_U+30E4_U+30FC 1
 62
   179
420
  2234388
370
     9
100
AcDbSpline
210
0.0
220
0.0
230
1.0
 70
    11
 71
     3
 72
    17
 73
    13
 74
     0
 42
0.0000000001
 43
0.0000000001
 12
1.0
 22
0.0
 32
0.0
 13
1.0
 23
0.0
 33
0.0
 40
0.0
 40
0.0
 40
0.0
 40
0.0
 40
1.0
 40
1.0
 40
1.0
 40
2.0
 40
2.0
 40
2.0
 40
3.0
 40
3.0
 40
3.0
 40
4.0
 40
4.0
 40
4.0
 40
4.0
 10
60.3122631835282
 20
-101.0983852525034
 30
0.0
 10
60.3122631835282
 20
-101.0429285858501
 30
0.0
 10
60.26746040689343
 20
-100.998125808084
 30
0.0
 10
60.21235651941036
 20
-100.998125808084
 30
0.0
 10
60.15654707638974
 20
-100.998125808084
 30
0.0
 10
60.11244985529252
 20
-101.0429285858501
 30
0.0
 10
60.11244985529252
 20
-101.0983852525034
 30
0.0
 10
60.11244985529252
 20
-101.1535244191558
 30
0.0
 10
60.15654707638974
 20
-101.198291919145
 30
0.0
 10
60.21235651941036
 20
-101.198291919145
 30
0.0
 10
60.26746040689343
 20
-101.198291919145
 30
0.0
 10
60.3122631835282
 20
-101.1535244191558
 30
0.0
 10
60.3122631835282
 20
-101.0983852525034
 30
0.0
  0
SPLINE
  5
69
330
1F
100
AcDbEntity
  8
_U+30EC_U+30A4_U+30E4_U+30FC 1
 62
   179
420
  2234388
370
     9
100
AcDbSpline
210
0.0
220
0.0
230
1.0
 70
    11
 71
     3
 72
    17
 73
    13
 74
     0
 42
0.0000000001
 43
0.0000000001
 12
1.0
 22
0.0
 32
0.0
 13
1.0
 23
0.0
 33
0.0
 40
0.0
 40
0.0
 40
0.0
 40
0.0
 40
1.0
 40
1.0
 40
1.0
 40
2.0
 40
2.0
 40
2.0
 40
3.0
 40
3.0
 40
3.0
 40
4.0
 40
4.0
 40
4.0
 40
4.0
 10
54.31193666994262
 20
-101.0983852525034
 30
0.0
 10
54.31193666994262
 20
-101.0429285858501
 30
0.0
 10
54.26713389330785
 20
-100.998125808084
 30
0.0
 10
54.21203000582478
 20
-100.998125808084
 30
0.0
 10
54.15689084056483
 20
-100.998125808084
 30
0.0
 10
54.11212334170694
 20
-101.0429285858501
 30
0.0
 10
54.11212334170694
 20
-101.0983852525034
 30
0.0
 10
54.11212334170694
 20
-101.1535244191558
 30
0.0
 10
54.15689084056483
 20
-101.198291919145
 30
0.0
 10
54.21203000582478
 20
-101.198291919145
 30
0.0
 10
54.26713389330785
 20
-101.198291919145
 30
0.0
 10
54.31193666994262
 20
-101.1535244191558
 30
0.0
 10
54.31193666994262
 20
-101.0983852525034
 30
0.0
  0
POLYLINE
  5
6A
330
1F
100
AcDbEntity
  8
_U+30EC_U+30A4_U+30E4_U+30FC 1
 62
   179
420
  2234388
370
     9
100
AcDb2dPolyline
 66
     1
 10
0.0
 20
0.0
 30
0.0
  0
VERTEX
  5
6B
330
6A
100
AcDbEntity
  8
_U+30EC_U+30A4_U+30E4_U+30FC 1
 62
   179
420
  2234388
370
     9
100
AcDbVertex
100
AcDb2dVertex
 10
78.21227772686078
 20
-82.3984113682894
 30
0.0
  0
VERTEX
  5
6C
330
6A
100
AcDbEntity
  8
_U+30EC_U+30A4_U+30E4_U+30FC 1
 62
   179
420
  2234388
370
     9
100
AcDbVertex
100
AcDb2dVertex
 10
78.21227772686078
 20
-78.62809886923198
 30
0.0
  0
SEQEND
  5
6D
330
6A
100
AcDbEntity
  8
_U+30EC_U+30A4_U+30E4_U+30FC 1
 62
   179
420
  2234388
370
     9
  0
POLYLINE
  5
6E
330
1F
100
AcDbEntity
  8
_U+30EC_U+30A4_U+30E4_U+30FC 1
 62
   179
420
  2234388
370
     9
100
AcDb2dPolyline
 66
     1
 10
0.0
 20
0.0
 30
0.0
  0
VERTEX
  5
6F
330
6E
100
AcDbEntity
  8
_U+30EC_U+30A4_U+30E4_U+30FC 1
 62
   179
420
  2234388
370
     9
100
AcDbVertex
100
AcDb2dVertex
 10
78.21227772686078
 20
-82.3984113682894
 30
0.0
  0
VERTEX
  5
70
330
6E
100
AcDbEntity
  8
_U+30EC_U+30A4_U+30E4_U+30FC 1
 62
   179
420
  2234388
370
     9
100
AcDbVertex
100
AcDb2dVertex
 10
78.21227772686078
 20
-83.39818359026162
 30
0.0
  0
SEQEND
  5
71
330
6E
100
AcDbEntity
  8
_U+30EC_U+30A4_U+30E4_U+30FC 1
 62
   179
420
  2234388
370
     9
  0
POLYLINE
  5
72
330
1F
100
AcDbEntity
  8
_U+30EC_U+30A4_U+30E4_U+30FC 1
 62
   179
420
  2234388
370
     9
100
AcDb2dPolyline
 66
     1
 10
0.0
 20
0.0
 30
0.0
  0
VERTEX
  5
73
330
72
100
AcDbEntity
  8
_U+30EC_U+30A4_U+30E4_U+30FC 1
 62
   179
420
  2234388
370
     9
100
AcDbVertex
100
AcDb2dVertex
 10
76.75223637522065
 20
-82.3984113682894
 30
0.0
  0
VERTEX
  5
74
330
72
100
AcDbEntity
  8
_U+30EC_U+30A4_U+30E4_U+30FC 1
 62
   179
420
  2234388
370
     9
100
AcDbVertex
100
AcDb2dVertex
 10
79.21204992357669
 20
-82.3984113682894
 30
0.0
  0
SEQEND
  5
75
330
72
100
AcDbEntity
  8
_U+30EC_U+30A4_U+30E4_U+30FC 1
 62
   179
420
  2234388
370
     9
  0
POLYLINE
  5
76
330
1F
100
AcDbEntity
  8
_U+30EC_U+30A4_U+30E4_U+30FC 1
 62
   179
420
  2234388
370
     9
100
AcDb2dPolyline
 66
     1
 10
0.0
 20
0.0
 30
0.0
  0
VERTEX
  5
77
330
76
100
AcDbEntity
  8
_U+30EC_U+30A4_U+30E4_U+30FC 1
 62
   179
420
  2234388
370
     9
100
AcDbVertex
100
AcDb2dVertex
 10
76.75223637522065
 20
-83.39818359026162
 30
0.0
  0
VERTEX
  5
78
330
76
100
AcDbEntity
  8
_U+30EC_U+30A4_U+30E4_U+30FC 1
 62
   179
420
  2234388
370
     9
100
AcDbVertex
100
AcDb2dVertex
 10
79.21204992357669
 20
-83.39818359026162
 30
0.0
  0
SEQEND
  5
79
330
76
100
AcDbEntity
  8
_U+30EC_U+30A4_U+30E4_U+30FC 1
 62
   179
420
  2234388
370
     9
  0
INSERT
  5
7B
330
1F
100
AcDbEntity
  8
_U+30EC_U+30A4_U+30E4_U+30FC 1
100
AcDbBlockReference
  2
block 2
 10
0.0
 20
0.0
 30
0.0
  0
POLYLINE
  5
80
330
1F
100
AcDbEntity
  8
_U+30EC_U+30A4_U+30E4_U+30FC 1
 62
   179
420
  2234388
370
     9
100
AcDb2dPolyline
 66
     1
 10
0.0
 20
0.0
 30
0.0
  0
VERTEX
  5
81
330
80
100
AcDbEntity
  8
_U+30EC_U+30A4_U+30E4_U+30FC 1
 62
   179
420
  2234388
370
     9
100
AcDbVertex
100
AcDb2dVertex
 10
54.21203000582478
 20
-101.0983852525034
 30
0.0
  0
VERTEX
  5
82
330
80
100
AcDbEntity
  8
_U+30EC_U+30A4_U+30E4_U+30FC 1
 62
   179
420
  2234388
370
     9
100
AcDbVertex
100
AcDb2dVertex
 10
60.21235651941036
 20
-101.0983852525034
 30
0.0
  0
SEQEND
  5
83
330
80
100
AcDbEntity
  8
_U+30EC_U+30A4_U+30E4_U+30FC 1
 62
   179
420
  2234388
370
     9
  0
POLYLINE
  5
84
330
1F
100
AcDbEntity
  8
_U+30EC_U+30A4_U+30E4_U+30FC 1
 62
   179
420
  2234388
370
     9
100
AcDb2dPolyline
 66
     1
 10
0.0
 20
0.0
 30
0.0
  0
VERTEX
  5
85
330
84
100
AcDbEntity
  8
_U+30EC_U+30A4_U+30E4_U+30FC 1
 62
   179
420
  2234388
370
     9
100
AcDbVertex
100
AcDb2dVertex
 10
54.21203000582478
 20
-99.63837914175723
 30
0.0
  0
VERTEX
  5
86
330
84
100
AcDbEntity
  8
_U+30EC_U+30A4_U+30E4_U+30FC 1
 62
   179
420
  2234388
370
     9
100
AcDbVertex
100
AcDb2dVertex
 10
54.21203000582478
 20
-102.0981574744753
 30
0.0
  0
SEQEND
  5
87
330
84
100
AcDbEntity
  8
_U+30EC_U+30A4_U+30E4_U+30FC 1
 62
   179
420
  2234388
370
     9
  0
POLYLINE
  5
88
330
1F
100
AcDbEntity
  8
_U+30EC_U+30A4_U+30E4_U+30FC 1
 62
   179
420
  2234388
370
     9
100
AcDb2dPolyline
 66
     1
 10
0.0
 20
0.0
 30
0.0
  0
VERTEX
  5
89
330
88
100
AcDbEntity
  8
_U+30EC_U+30A4_U+30E4_U+30FC 1
 62
   179
420
  2234388
370
     9
100
AcDbVertex
100
AcDb2dVertex
 10
60.21235651941036
 20
-99.63837914175723
 30
0.0
  0
VERTEX
  5
8A
330
88
100
AcDbEntity
  8
_U+30EC_U+30A4_U+30E4_U+30FC 1
 62
   179
420
  2234388
370
     9
100
AcDbVertex
100
AcDb2dVertex
 10
60.21235651941036
 20
-102.0981574744753
 30
0.0
  0
SEQEND
  5
8B
330
88
100
AcDbEntity
  8
_U+30EC_U+30A4_U+30E4_U+30FC 1
 62
   179
420
  2234388
370
     9
  0
INSERT
  5
8D
330
1F
100
AcDbEntity
  8
_U+30EC_U+30A4_U+30E4_U+30FC 1
100
AcDbBlockReference
  2
block 3
 10
0.0
 20
0.0
 30
0.0
  0
POLYLINE
  5
93
330
1F
100
AcDbEntity
  8
_U+30EC_U+30A4_U+30E4_U+30FC 1
 62
   179
420
  2234388
370
     9
100
AcDb2dPolyline
 66
     1
 10
0.0
 20
0.0
 30
0.0
  0
VERTEX
  5
94
330
93
100
AcDbEntity
  8
_U+30EC_U+30A4_U+30E4_U+30FC 1
 62
   179
420
  2234388
370
     9
100
AcDbVertex
100
AcDb2dVertex
 10
54.21203000582478
 20
-78.39798192484483
 30
0.0
  0
VERTEX
  5
95
330
93
100
AcDbEntity
  8
_U+30EC_U+30A4_U+30E4_U+30FC 1
 62
   179
420
  2234388
370
     9
100
AcDbVertex
100
AcDb2dVertex
 10
74.2121658844677
 20
-78.39798192484483
 30
0.0
  0
SEQEND
  5
96
330
93
100
AcDbEntity
  8
_U+30EC_U+30A4_U+30E4_U+30FC 1
 62
   179
420
  2234388
370
     9
  0
POLYLINE
  5
97
330
1F
100
AcDbEntity
  8
_U+30EC_U+30A4_U+30E4_U+30FC 1
 62
   179
420
  2234388
370
     9
100
AcDb2dPolyline
 66
     1
 10
0.0
 20
0.0
 30
0.0
  0
VERTEX
  5
98
330
97
100
AcDbEntity
  8
_U+30EC_U+30A4_U+30E4_U+30FC 1
 62
   179
420
  2234388
370
     9
100
AcDbVertex
100
AcDb2dVertex
 10
54.21203000582478
 20
-79.85798803559102
 30
0.0
  0
VERTEX
  5
99
330
97
100
AcDbEntity
  8
_U+30EC_U+30A4_U+30E4_U+30FC 1
 62
   179
420
  2234388
370
     9
100
AcDbVertex
100
AcDb2dVertex
 10
54.21203000582478
 20
-77.39820970287262
 30
0.0
  0
SEQEND
  5
9A
330
97
100
AcDbEntity
  8
_U+30EC_U+30A4_U+30E4_U+30FC 1
 62
   179
420
  2234388
370
     9
  0
POLYLINE
  5
9B
330
1F
100
AcDbEntity
  8
_U+30EC_U+30A4_U+30E4_U+30FC 1
 62
   179
420
  2234388
370
     9
100
AcDb2dPolyline
 66
     1
 10
0.0
 20
0.0
 30
0.0
  0
VERTEX
  5
9C
330
9B
100
AcDbEntity
  8
_U+30EC_U+30A4_U+30E4_U+30FC 1
 62
   179
420
  2234388
370
     9
100
AcDbVertex
100
AcDb2dVertex
 10
74.2121658844677
 20
-79.85798803559102
 30
0.0
  0
VERTEX
  5
9D
330
9B
100
AcDbEntity
  8
_U+30EC_U+30A4_U+30E4_U+30FC 1
 62
   179
420
  2234388
370
     9
100
AcDbVertex
100
AcDb2dVertex
 10
74.2121658844677
 20
-77.39820970287262
 30
0.0
  0
SEQEND
  5
9E
330
9B
100
AcDbEntity
  8
_U+30EC_U+30A4_U+30E4_U+30FC 1
 62
   179
420
  2234388
370
     9
  0
INSERT
  5
A0
330
1F
100
AcDbEntity
  8
_U+30EC_U+30A4_U+30E4_U+30FC 1
100
AcDbBlockReference
  2
block 4
 10
0.0
 20
0.0
 30
0.0
  0
POLYLINE
  5
A8
330
1F
100
AcDbEntity
  8
_U+30EC_U+30A4_U+30E4_U+30FC 1
 62
   179
420
  2234388
370
     9
100
AcDb2dPolyline
 66
     1
 10
0.0
 20
0.0
 30
0.0
  0
VERTEX
  5
A9
330
A8
100
AcDbEntity
  8
_U+30EC_U+30A4_U+30E4_U+30FC 1
 62
   179
420
  2234388
370
     9
100
AcDbVertex
100
AcDb2dVertex
 10
50.21227220966909
 20
-82.3984113682894
 30
0.0
  0
VERTEX
  5
AA
330
A8
100
AcDbEntity
  8
_U+30EC_U+30A4_U+30E4_U+30FC 1
 62
   179
420
  2234388
370
     9
100
AcDbVertex
100
AcDb2dVertex
 10
50.21227220966909
 20
-97.09830858683628
 30
0.0
  0
SEQEND
  5
AB
330
A8
100
AcDbEntity
  8
_U+30EC_U+30A4_U+30E4_U+30FC 1
 62
   179
420
  2234388
370
     9
  0
POLYLINE
  5
AC
330
1F
100
AcDbEntity
  8
_U+30EC_U+30A4_U+30E4_U+30FC 1
 62
   179
420
  2234388
370
     9
100
AcDb2dPolyline
 66
     1
 10
0.0
 20
0.0
 30
0.0
  0
VERTEX
  5
AD
330
AC
100
AcDbEntity
  8
_U+30EC_U+30A4_U+30E4_U+30FC 1
 62
   179
420
  2234388
370
     9
100
AcDbVertex
100
AcDb2dVertex
 10
51.6723122928406
 20
-82.3984113682894
 30
0.0
  0
VERTEX
  5
AE
330
AC
100
AcDbEntity
  8
_U+30EC_U+30A4_U+30E4_U+30FC 1
 62
   179
420
  2234388
370
     9
100
AcDbVertex
100
AcDb2dVertex
 10
49.21214720991912
 20
-82.3984113682894
 30
0.0
  0
SEQEND
  5
AF
330
AC
100
AcDbEntity
  8
_U+30EC_U+30A4_U+30E4_U+30FC 1
 62
   179
420
  2234388
370
     9
  0
POLYLINE
  5
B0
330
1F
100
AcDbEntity
  8
_U+30EC_U+30A4_U+30E4_U+30FC 1
 62
   179
420
  2234388
370
     9
100
AcDb2dPolyline
 66
     1
 10
0.0
 20
0.0
 30
0.0
  0
VERTEX
  5
B1
330
B0
100
AcDbEntity
  8
_U+30EC_U+30A4_U+30E4_U+30FC 1
 62
   179
420
  2234388
370
     9
100
AcDbVertex
100
AcDb2dVertex
 10
51.6723122928406
 20
-97.09830858683628
 30
0.0
  0
VERTEX
  5
B2
330
B0
100
AcDbEntity
  8
_U+30EC_U+30A4_U+30E4_U+30FC 1
 62
   179
420
  2234388
370
     9
100
AcDbVertex
100
AcDb2dVertex
 10
49.21214720991912
 20
-97.09830858683628
 30
0.0
  0
SEQEND
  5
B3
330
B0
100
AcDbEntity
  8
_U+30EC_U+30A4_U+30E4_U+30FC 1
 62
   179
420
  2234388
370
     9
  0
INSERT
  5
B5
330
1F
100
AcDbEntity
  8
_U+30EC_U+30A4_U+30E4_U+30FC 1
100
AcDbBlockReference
  2
block 5
 10
0.0
 20
0.0
 30
0.0
  0
POLYLINE
  5
D9
330
1F
100
AcDbEntity
  8
_U+30EC_U+30A4_U+30E4_U+30FC 1
 62
   179
420
  2234388
370
     9
100
AcDb2dPolyline
 66
     1
 10
0.0
 20
0.0
 30
0.0
  0
VERTEX
  5
DA
330
D9
100
AcDbEntity
  8
_U+30EC_U+30A4_U+30E4_U+30FC 1
 62
   179
420
  2234388
370
     9
100
AcDbVertex
100
AcDb2dVertex
 10
78.21227772686078
 20
-83.39818359026162
 30
0.0
  0
VERTEX
  5
DB
330
D9
100
AcDbEntity
  8
_U+30EC_U+30A4_U+30E4_U+30FC 1
 62
   179
420
  2234388
370
     9
100
AcDbVertex
100
AcDb2dVertex
 10
78.21227772686078
 20
-96.09818358708662
 30
0.0
  0
SEQEND
  5
DC
330
D9
100
AcDbEntity
  8
_U+30EC_U+30A4_U+30E4_U+30FC 1
 62
   179
420
  2234388
370
     9
  0
POLYLINE
  5
DD
330
1F
100
AcDbEntity
  8
_U+30EC_U+30A4_U+30E4_U+30FC 1
 62
   179
420
  2234388
370
     9
100
AcDb2dPolyline
 66
     1
 10
0.0
 20
0.0
 30
0.0
  0
VERTEX
  5
DE
330
DD
100
AcDbEntity
  8
_U+30EC_U+30A4_U+30E4_U+30FC 1
 62
   179
420
  2234388
370
     9
100
AcDbVertex
100
AcDb2dVertex
 10
62.75207423239454
 20
-96.09818358708662
 30
0.0
  0
VERTEX
  5
DF
330
DD
100
AcDbEntity
  8
_U+30EC_U+30A4_U+30E4_U+30FC 1
 62
   179
420
  2234388
370
     9
100
AcDbVertex
100
AcDb2dVertex
 10
79.21204992357669
 20
-96.09818358708662
 30
0.0
  0
SEQEND
  5
E0
330
DD
100
AcDbEntity
  8
_U+30EC_U+30A4_U+30E4_U+30FC 1
 62
   179
420
  2234388
370
     9
  0
INSERT
  5
E2
330
1F
100
AcDbEntity
  8
_U+30EC_U+30A4_U+30E4_U+30FC 1
100
AcDbBlockReference
  2
block 6
 10
0.0
 20
0.0
 30
0.0
  0
ENDSEC
  0
SECTION
  2
OBJECTS
  0
DICTIONARY
  5
C
330
0
100
AcDbDictionary
281
     1
  3
ACAD_GROUP
350
D
  3
ACAD_LAYOUT
350
1A
  3
ACAD_MATERIAL
350
3B
  3
ACAD_MLEADERSTYLE
350
F4
  3
ACAD_MLINESTYLE
350
17
  3
ACAD_PLOTSETTINGS
350
19
  3
ACAD_PLOTSTYLENAME
350
E
  3
ACAD_TABLESTYLE
350
F3
  3
ACAD_VISUALSTYLE
350
2A
  0
SUN
  5
3F
330
29
100
AcDbSun
 90
        1
290
     0
 63
     7
421
 16777215
 40
1.0
291
     1
 91
  2455826
 92
 54000000
292
     0
 70
     2
 71
   256
280
     1
  0
DICTIONARY
  5
D
102
{ACAD_REACTORS
330
C
102
}
330
C
100
AcDbDictionary
281
     1
  0
DICTIONARY
  5
1A
102
{ACAD_REACTORS
330
C
102
}
330
C
100
AcDbDictionary
281
     1
  3
Layout1
350
1E
  3
Layout2
350
26
  3
Model
350
22
  0
DICTIONARY
  5
3B
102
{ACAD_REACTORS
330
C
102
}
330
C
100
AcDbDictionary
281
     1
  3
ByBlock
350
3D
  3
ByLayer
350
3C
  3
Global
350
3E
  0
DICTIONARY
  5
F4
102
{ACAD_REACTORS
330
C
102
}
330
C
100
AcDbDictionary
281
     1
  0
DICTIONARY
  5
17
102
{ACAD_REACTORS
330
C
102
}
330
C
100
AcDbDictionary
281
     1
  3
Standard
350
18
  0
DICTIONARY
  5
19
102
{ACAD_REACTORS
330
C
102
}
330
C
100
AcDbDictionary
281
     1
  0
ACDBDICTIONARYWDFLT
  5
E
102
{ACAD_REACTORS
330
C
102
}
330
C
100
AcDbDictionary
281
     1
  3
Normal
350
F
100
AcDbDictionaryWithDefault
340
F
  0
DICTIONARY
  5
F3
102
{ACAD_REACTORS
330
C
102
}
330
C
100
AcDbDictionary
281
     1
  0
DICTIONARY
  5
2A
102
{ACAD_REACTORS
330
C
102
}
330
C
100
AcDbDictionary
281
     1
  3
2dWireframe
350
2F
  3
3D Hidden
350
31
  3
3dWireframe
350
30
  3
Basic
350
32
  3
Brighten
350
36
  3
ColorChange
350
3A
  3
Conceptual
350
34
  3
Dim
350
35
  3
Facepattern
350
39
  3
Flat
350
2B
  3
FlatWithEdges
350
2C
  3
Gouraud
350
2D
  3
GouraudWithEdges
350
2E
  3
Linepattern
350
38
  3
Realistic
350
33
  3
Thicken
350
37
  0
LAYOUT
  5
1E
102
{ACAD_REACTORS
330
1A
102
}
330
1A
100
AcDbPlotSettings
  1

  2
none_device
  4

  6

 40
0.0
 41
0.0
 42
0.0
 43
0.0
 44
0.0
 45
0.0
 46
0.0
 47
0.0
 48
0.0
 49
0.0
140
0.0
141
0.0
142
1.0
143
1.0
 70
   688
 72
     0
 73
     0
 74
     5
  7

 75
    16
 76
     0
 77
     2
 78
   300
147
1.0
148
0.0
149
0.0
100
AcDbLayout
  1
Layout1
 70
     1
 71
     1
 10
0.0
 20
0.0
 11
12.0
 21
9.0
 12
0.0
 22
0.0
 32
0.0
 14
1.000000000000000E+20
 24
1.000000000000000E+20
 34
1.000000000000000E+20
 15
-1.000000000000000E+20
 25
-1.000000000000000E+20
 35
-1.000000000000000E+20
146
0.0
 13
0.0
 23
0.0
 33
0.0
 16
1.0
 26
0.0
 36
0.0
 17
0.0
 27
1.0
 37
0.0
 76
     0
330
1B
  0
LAYOUT
  5
26
102
{ACAD_REACTORS
330
1A
102
}
330
1A
100
AcDbPlotSettings
  1

  2
none_device
  4

  6

 40
0.0
 41
0.0
 42
0.0
 43
0.0
 44
0.0
 45
0.0
 46
0.0
 47
0.0
 48
0.0
 49
0.0
140
0.0
141
0.0
142
1.0
143
1.0
 70
   688
 72
     0
 73
     0
 74
     5
  7

 75
    16
 76
     0
 77
     2
 78
   300
147
1.0
148
0.0
149
0.0
100
AcDbLayout
  1
Layout2
 70
     1
 71
     2
 10
0.0
 20
0.0
 11
0.0
 21
0.0
 12
0.0
 22
0.0
 32
0.0
 14
0.0
 24
0.0
 34
0.0
 15
0.0
 25
0.0
 35
0.0
146
0.0
 13
0.0
 23
0.0
 33
0.0
 16
1.0
 26
0.0
 36
0.0
 17
0.0
 27
1.0
 37
0.0
 76
     0
330
23
  0
LAYOUT
  5
22
102
{ACAD_REACTORS
330
1A
102
}
330
1A
100
AcDbPlotSettings
  1

  2
none_device
  4

  6

 40
0.0
 41
0.0
 42
0.0
 43
0.0
 44
0.0
 45
0.0
 46
0.0
 47
0.0
 48
0.0
 49
0.0
140
0.0
141
0.0
142
1.0
143
1.0
 70
  1712
 72
     0
 73
     0
 74
     0
  7

 75
     0
 76
     0
 77
     2
 78
   300
147
1.0
148
0.0
149
0.0
100
AcDbLayout
  1
Model
 70
     1
 71
     0
 10
0.0
 20
0.0
 11
12.0
 21
9.0
 12
0.0
 22
0.0
 32
0.0
 14
1.000000000000000E+20
 24
1.000000000000000E+20
 34
1.000000000000000E+20
 15
-1.000000000000000E+20
 25
-1.000000000000000E+20
 35
-1.000000000000000E+20
146
0.0
 13
0.0
 23
0.0
 33
0.0
 16
1.0
 26
0.0
 36
0.0
 17
0.0
 27
1.0
 37
0.0
 76
     0
330
1F
331
29
  0
MATERIAL
  5
3D
102
{ACAD_REACTORS
330
3B
102
}
330
3B
100
AcDbMaterial
  1
ByBlock
 72
     1
 94
      127
  0
MATERIAL
  5
3C
102
{ACAD_REACTORS
330
3B
102
}
330
3B
100
AcDbMaterial
  1
ByLayer
 72
     1
 94
      127
  0
MATERIAL
  5
3E
102
{ACAD_REACTORS
330
3B
102
}
330
3B
100
AcDbMaterial
  1
Global
 72
     1
 94
      127
  0
MLINESTYLE
  5
18
102
{ACAD_REACTORS
330
17
102
}
330
17
100
AcDbMlineStyle
  2
Standard
 70
     0
  3

 62
   256
 51
90.0
 52
90.0
 71
     2
 49
0.5
 62
   256
  6
BYLAYER
 49
-0.5
 62
   256
  6
BYLAYER
  0
ACDBPLACEHOLDER
  5
F
102
{ACAD_REACTORS
330
E
102
}
330
E
  0
VISUALSTYLE
  5
2F
102
{ACAD_REACTORS
330
2A
102
}
330
2A
100
AcDbVisualStyle
  2
2dWireframe
 70
     4
177
     2
291
     0
 71
     0
176
     1
 72
     2
176
     1
 73
     0
176
     1
 90
        0
176
     1
 40
-0.6
176
     1
 41
-30.0
176
     1
 62
     5
 63
     7
421
 16777215
176
     1
 74
     1
176
     1
 91
        4
176
     1
 64
     7
176
     1
 65
   257
176
     1
 75
     1
176
     1
175
     1
176
     1
 42
1.0
176
     1
 92
        0
176
     1
 66
   257
176
     1
 43
1.0
176
     1
 76
     1
176
     1
 77
     6
176
     1
 78
     2
176
     1
 67
     7
176
     1
 79
     5
176
     1
170
     0
176
     1
171
     0
176
     1
290
     0
176
     1
 93
        1
176
     1
 44
0.0
176
     1
173
     0
176
     1
  0
VISUALSTYLE
  5
31
102
{ACAD_REACTORS
330
2A
102
}
330
2A
100
AcDbVisualStyle
  2
3D Hidden
 70
     6
177
     2
291
     0
 71
     1
176
     1
 72
     2
176
     1
 73
     2
176
     1
 90
        0
176
     1
 40
-0.6
176
     1
 41
-30.0
176
     1
 62
     5
 63
     7
421
 16777215
176
     1
 74
     2
176
     1
 91
        2
176
     1
 64
     7
176
     1
 65
   257
176
     1
 75
     2
176
     1
175
     1
176
     1
 42
40.0
176
     1
 92
        0
176
     1
 66
   257
176
     1
 43
1.0
176
     1
 76
     1
176
     1
 77
     6
176
     1
 78
     2
176
     1
 67
     7
176
     1
 79
     3
176
     1
170
     0
176
     1
171
     0
176
     1
290
     0
176
     1
 93
        1
176
     1
 44
0.0
176
     1
173
     0
176
     1
  0
VISUALSTYLE
  5
30
102
{ACAD_REACTORS
330
2A
102
}
330
2A
100
AcDbVisualStyle
  2
3dWireframe
 70
     5
177
     2
291
     0
 71
     0
176
     1
 72
     2
176
     1
 73
     0
176
     1
 90
        0
176
     1
 40
-0.6
176
     1
 41
-30.0
176
     1
 62
     5
 63
     7
421
 16777215
176
     1
 74
     1
176
     1
 91
        4
176
     1
 64
     7
176
     1
 65
   257
176
     1
 75
     1
176
     1
175
     1
176
     1
 42
1.0
176
     1
 92
        0
176
     1
 66
   257
176
     1
 43
1.0
176
     1
 76
     1
176
     1
 77
     6
176
     1
 78
     2
176
     1
 67
     7
176
     1
 79
     5
176
     1
170
     0
176
     1
171
     0
176
     1
290
     0
176
     1
 93
        1
176
     1
 44
0.0
176
     1
173
     0
176
     1
  0
VISUALSTYLE
  5
32
102
{ACAD_REACTORS
330
2A
102
}
330
2A
100
AcDbVisualStyle
  2
Basic
 70
     7
177
     2
291
     1
 71
     1
176
     1
 72
     0
176
     1
 73
     1
176
     1
 90
        0
176
     1
 40
-0.6
176
     1
 41
-30.0
176
     1
 62
     5
 63
     7
421
 16777215
176
     1
 74
     0
176
     1
 91
        4
176
     1
 64
     7
176
     1
 65
   257
176
     1
 75
     1
176
     1
175
     1
176
     1
 42
1.0
176
     1
 92
        8
176
     1
 66
     7
176
     1
 43
1.0
176
     1
 76
     1
176
     1
 77
     6
176
     1
 78
     2
176
     1
 67
     7
176
     1
 79
     5
176
     1
170
     0
176
     1
171
     0
176
     1
290
     0
176
     1
 93
        1
176
     1
 44
0.0
176
     1
173
     0
176
     1
  0
VISUALSTYLE
  5
36
102
{ACAD_REACTORS
330
2A
102
}
330
2A
100
AcDbVisualStyle
  2
Brighten
 70
    12
177
     2
291
     1
 71
     2
176
     1
 72
     2
176
     1
 73
     0
176
     1
 90
        0
176
     1
 40
-0.6
176
     1
 41
-30.0
176
     1
 62
     5
 63
     7
421
 16777215
176
     1
 74
     1
176
     1
 91
        4
176
     1
 64
     7
176
     1
 65
   257
176
     1
 75
     1
176
     1
175
     1
176
     1
 42
1.0
176
     1
 92
        8
176
     1
 66
     7
176
     1
 43
1.0
176
     1
 76
     1
176
     1
 77
     6
176
     1
 78
     2
176
     1
 67
     7
176
     1
 79
     5
176
     1
170
     0
176
     1
171
     0
176
     1
290
     0
176
     1
 93
        1
176
     1
 44
50.0
176
     1
173
     0
176
     1
  0
VISUALSTYLE
  5
3A
102
{ACAD_REACTORS
330
2A
102
}
330
2A
100
AcDbVisualStyle
  2
ColorChange
 70
    16
177
     2
291
     1
 71
     2
176
     1
 72
     2
176
     1
 73
     3
176
     1
 90
        0
176
     1
 40
-0.6
176
     1
 41
-30.0
176
     1
 62
     5
 63
     8
421
  8421504
176
     1
 74
     1
176
     1
 91
        4
176
     1
 64
     7
176
     1
 65
   257
176
     1
 75
     1
176
     1
175
     1
176
     1
 42
1.0
176
     1
 92
        8
176
     1
 66
     8
424
  8421504
176
     1
 43
1.0
176
     1
 76
     1
176
     1
 77
     6
176
     1
 78
     2
176
     1
 67
     7
176
     1
 79
     5
176
     1
170
     0
176
     1
171
     0
176
     1
290
     0
176
     1
 93
        1
176
     1
 44
0.0
176
     1
173
     0
176
     1
  0
VISUALSTYLE
  5
34
102
{ACAD_REACTORS
330
2A
102
}
330
2A
100
AcDbVisualStyle
  2
Conceptual
 70
     9
177
     2
291
     0
 71
     3
176
     1
 72
     2
176
     1
 73
     0
176
     1
 90
        0
176
     1
 40
-0.6
176
     1
 41
-30.0
176
     1
 62
     5
 63
     7
421
 16777215
176
     1
 74
     2
176
     1
 91
        2
176
     1
 64
     7
176
     1
 65
   257
176
     1
 75
     1
176
     1
175
     1
176
     1
 42
40.0
176
     1
 92
        8
176
     1
 66
     7
176
     1
 43
1.0
176
     1
 76
     1
176
     1
 77
     6
176
     1
 78
     2
176
     1
 67
     7
176
     1
 79
     3
176
     1
170
     0
176
     1
171
     0
176
     1
290
     0
176
     1
 93
        1
176
     1
 44
0.0
176
     1
173
     0
176
     1
  0
VISUALSTYLE
  5
35
102
{ACAD_REACTORS
330
2A
102
}
330
2A
100
AcDbVisualStyle
  2
Dim
 70
    11
177
     2
291
     1
 71
     2
176
     1
 72
     2
176
     1
 73
     0
176
     1
 90
        0
176
     1
 40
-0.6
176
     1
 41
-30.0
176
     1
 62
     5
 63
     7
421
 16777215
176
     1
 74
     1
176
     1
 91
        4
176
     1
 64
     7
176
     1
 65
   257
176
     1
 75
     1
176
     1
175
     1
176
     1
 42
1.0
176
     1
 92
        8
176
     1
 66
     7
176
     1
 43
1.0
176
     1
 76
     1
176
     1
 77
     6
176
     1
 78
     2
176
     1
 67
     7
176
     1
 79
     5
176
     1
170
     0
176
     1
171
     0
176
     1
290
     0
176
     1
 93
        1
176
     1
 44
-50.0
176
     1
173
     0
176
     1
  0
VISUALSTYLE
  5
39
102
{ACAD_REACTORS
330
2A
102
}
330
2A
100
AcDbVisualStyle
  2
Facepattern
 70
    15
177
     2
291
     1
 71
     2
176
     1
 72
     2
176
     1
 73
     0
176
     1
 90
        0
176
     1
 40
-0.6
176
     1
 41
-30.0
176
     1
 62
     5
 63
     7
421
 16777215
176
     1
 74
     1
176
     1
 91
        4
176
     1
 64
     7
176
     1
 65
   257
176
     1
 75
     1
176
     1
175
     1
176
     1
 42
1.0
176
     1
 92
        8
176
     1
 66
     7
176
     1
 43
1.0
176
     1
 76
     1
176
     1
 77
     6
176
     1
 78
     2
176
     1
 67
     7
176
     1
 79
     5
176
     1
170
     0
176
     1
171
     0
176
     1
290
     0
176
     1
 93
        1
176
     1
 44
0.0
176
     1
173
     0
176
     1
  0
VISUALSTYLE
  5
2B
102
{ACAD_REACTORS
330
2A
102
}
330
2A
100
AcDbVisualStyle
  2
Flat
 70
     0
177
     2
291
     1
 71
     2
176
     1
 72
     1
176
     1
 73
     1
176
     1
 90
        2
176
     1
 40
-0.6
176
     1
 41
30.0
176
     1
 62
     5
 63
     7
421
 16777215
176
     1
 74
     0
176
     1
 91
        4
176
     1
 64
     7
176
     1
 65
   257
176
     1
 75
     1
176
     1
175
     1
176
     1
 42
1.0
176
     1
 92
        8
176
     1
 66
     7
176
     1
 43
1.0
176
     1
 76
     1
176
     1
 77
     6
176
     1
 78
     2
176
     1
 67
     7
176
     1
 79
     5
176
     1
170
     0
176
     1
171
     0
176
     1
290
     0
176
     1
 93
       13
176
     1
 44
0.0
176
     1
173
     0
176
     1
  0
VISUALSTYLE
  5
2C
102
{ACAD_REACTORS
330
2A
102
}
330
2A
100
AcDbVisualStyle
  2
FlatWithEdges
 70
     1
177
     2
291
     1
 71
     2
176
     1
 72
     1
176
     1
 73
     1
176
     1
 90
        2
176
     1
 40
-0.6
176
     1
 41
30.0
176
     1
 62
     5
 63
     7
421
 16777215
176
     1
 74
     1
176
     1
 91
        4
176
     1
 64
     7
176
     1
 65
   257
176
     1
 75
     1
176
     1
175
     1
176
     1
 42
1.0
176
     1
 92
        0
176
     1
 66
   257
176
     1
 43
1.0
176
     1
 76
     1
176
     1
 77
     6
176
     1
 78
     2
176
     1
 67
     7
176
     1
 79
     5
176
     1
170
     0
176
     1
171
     0
176
     1
290
     0
176
     1
 93
       13
176
     1
 44
0.0
176
     1
173
     0
176
     1
  0
VISUALSTYLE
  5
2D
102
{ACAD_REACTORS
330
2A
102
}
330
2A
100
AcDbVisualStyle
  2
Gouraud
 70
     2
177
     2
291
     1
 71
     2
176
     1
 72
     2
176
     1
 73
     1
176
     1
 90
        2
176
     1
 40
-0.6
176
     1
 41
30.0
176
     1
 62
     5
 63
     7
421
 16777215
176
     1
 74
     0
176
     1
 91
        4
176
     1
 64
     7
176
     1
 65
   257
176
     1
 75
     1
176
     1
175
     1
176
     1
 42
1.0
176
     1
 92
        0
176
     1
 66
     7
176
     1
 43
1.0
176
     1
 76
     1
176
     1
 77
     6
176
     1
 78
     2
176
     1
 67
     7
176
     1
 79
     5
176
     1
170
     0
176
     1
171
     0
176
     1
290
     0
176
     1
 93
       13
176
     1
 44
0.0
176
     1
173
     0
176
     1
  0
VISUALSTYLE
  5
2E
102
{ACAD_REACTORS
330
2A
102
}
330
2A
100
AcDbVisualStyle
  2
GouraudWithEdges
 70
     3
177
     2
291
     1
 71
     2
176
     1
 72
     2
176
     1
 73
     1
176
     1
 90
        2
176
     1
 40
-0.6
176
     1
 41
30.0
176
     1
 62
     5
 63
     7
421
 16777215
176
     1
 74
     1
176
     1
 91
        4
176
     1
 64
     7
176
     1
 65
   257
176
     1
 75
     1
176
     1
175
     1
176
     1
 42
1.0
176
     1
 92
        0
176
     1
 66
   257
176
     1
 43
1.0
176
     1
 76
     1
176
     1
 77
     6
176
     1
 78
     2
176
     1
 67
     7
176
     1
 79
     5
176
     1
170
     0
176
     1
171
     0
176
     1
290
     0
176
     1
 93
       13
176
     1
 44
0.0
176
     1
173
     0
176
     1
  0
VISUALSTYLE
  5
38
102
{ACAD_REACTORS
330
2A
102
}
330
2A
100
AcDbVisualStyle
  2
Linepattern
 70
    14
177
     2
291
     1
 71
     2
176
     1
 72
     2
176
     1
 73
     0
176
     1
 90
        0
176
     1
 40
-0.6
176
     1
 41
-30.0
176
     1
 62
     5
 63
     7
421
 16777215
176
     1
 74
     1
176
     1
 91
        4
176
     1
 64
     7
176
     1
 65
   257
176
     1
 75
     7
176
     1
175
     7
176
     1
 42
1.0
176
     1
 92
        8
176
     1
 66
     7
176
     1
 43
1.0
176
     1
 76
     1
176
     1
 77
     6
176
     1
 78
     2
176
     1
 67
     7
176
     1
 79
     5
176
     1
170
     0
176
     1
171
     0
176
     1
290
     0
176
     1
 93
        1
176
     1
 44
0.0
176
     1
173
     0
176
     1
  0
VISUALSTYLE
  5
33
102
{ACAD_REACTORS
330
2A
102
}
330
2A
100
AcDbVisualStyle
  2
Realistic
 70
     8
177
     2
291
     0
 71
     2
176
     1
 72
     2
176
     1
 73
     0
176
     1
 90
        0
176
     1
 40
-0.6
176
     1
 41
-30.0
176
     1
 62
     5
 63
     7
421
 16777215
176
     1
 74
     1
176
     1
 91
        0
176
     1
 64
     7
176
     1
 65
   257
176
     1
 75
     1
176
     1
175
     1
176
     1
 42
1.0
176
     1
 92
        8
176
     1
 66
     8
424
  7895160
176
     1
 43
1.0
176
     1
 76
     1
176
     1
 77
     6
176
     1
 78
     2
176
     1
 67
     7
176
     1
 79
     5
176
     1
170
     0
176
     1
171
     0
176
     1
290
     0
176
     1
 93
       13
176
     1
 44
0.0
176
     1
173
     0
176
     1
  0
VISUALSTYLE
  5
37
102
{ACAD_REACTORS
330
2A
102
}
330
2A
100
AcDbVisualStyle
  2
Thicken
 70
    13
177
     2
291
     1
 71
     2
176
     1
 72
     2
176
     1
 73
     0
176
     1
 90
        0
176
     1
 40
-0.6
176
     1
 41
-30.0
176
     1
 62
     5
 63
     7
421
 16777215
176
     1
 74
     1
176
     1
 91
        4
176
     1
 64
     7
176
     1
 65
   257
176
     1
 75
     1
176
     1
175
     1
176
     1
 42
1.0
176
     1
 92
       12
176
     1
 66
     7
176
     1
 43
1.0
176
     1
 76
     1
176
     1
 77
     6
176
     1
 78
     2
176
     1
 67
     7
176
     1
 79
     5
176
     1
170
     0
176
     1
171
     0
176
     1
290
     0
176
     1
 93
        1
176
     1
 44
0.0
176
     1
173
     0
176
     1
  0
ENDSEC
  0
EOF
