  0
SECTION
  2
HEADER
  9
$ACADVER
  1
AC1024
  9
$ACADMAINTVER
 70
     6
  9
$DWGCODEPAGE
  3
UNDEFINED
  9
$INSBASE
 10
0.0
 20
0.0
 30
0.0
  9
$EXTMIN
 10
1.000000000000000E+20
 20
1.000000000000000E+20
 30
1.000000000000000E+20
  9
$EXTMAX
 10
-1.000000000000000E+20
 20
-1.000000000000000E+20
 30
-1.000000000000000E+20
  9
$LIMMIN
 10
0.0
 20
0.0
  9
$LIMMAX
 10
12.0
 20
9.0
  9
$ORTHOMODE
 70
     0
  9
$REGENMODE
 70
     1
  9
$FILLMODE
 70
     1
  9
$QTEXTMODE
 70
     0
  9
$MIRRTEXT
 70
     1
  9
$LTSCALE
 40
1.0
  9
$ATTMODE
 70
     1
  9
$TEXTSIZE
 40
0.2
  9
$TRACEWID
 40
0.05
  9
$TEXTSTYLE
  7
Standard
  9
$CLAYER
  8
0
  9
$CELTYPE
  6
ByLayer
  9
$CECOLOR
 62
   256
  9
$CELTSCALE
 40
1.0
  9
$DISPSILH
 70
     0
  9
$DIMSCALE
 40
1.0
  9
$DIMASZ
 40
0.18
  9
$DIMEXO
 40
0.0625
  9
$DIMDLI
 40
0.38
  9
$DIMRND
 40
0.0
  9
$DIMDLE
 40
0.0
  9
$DIMEXE
 40
0.18
  9
$DIMTP
 40
0.0
  9
$DIMTM
 40
0.0
  9
$DIMTXT
 40
0.18
  9
$DIMCEN
 40
0.09
  9
$DIMTSZ
 40
0.0
  9
$DIMTOL
 70
     0
  9
$DIMLIM
 70
     0
  9
$DIMTIH
 70
     1
  9
$DIMTOH
 70
     1
  9
$DIMSE1
 70
     0
  9
$DIMSE2
 70
     0
  9
$DIMTAD
 70
     0
  9
$DIMZIN
 70
     0
  9
$DIMBLK
  1

  9
$DIMASO
 70
     1
  9
$DIMSHO
 70
     1
  9
$DIMPOST
  1

  9
$DIMAPOST
  1

  9
$DIMALT
 70
     0
  9
$DIMALTD
 70
     2
  9
$DIMALTF
 40
25.4
  9
$DIMLFAC
 40
1.0
  9
$DIMTOFL
 70
     0
  9
$DIMTVP
 40
0.0
  9
$DIMTIX
 70
     0
  9
$DIMSOXD
 70
     0
  9
$DIMSAH
 70
     0
  9
$DIMBLK1
  1

  9
$DIMBLK2
  1

  9
$DIMSTYLE
  2
Standard
  9
$DIMCLRD
 70
     0
  9
$DIMCLRE
 70
     0
  9
$DIMCLRT
 70
     0
  9
$DIMTFAC
 40
1.0
  9
$DIMGAP
 40
0.09
  9
$DIMJUST
 70
     0
  9
$DIMSD1
 70
     0
  9
$DIMSD2
 70
     0
  9
$DIMTOLJ
 70
     1
  9
$DIMTZIN
 70
     0
  9
$DIMALTZ
 70
     0
  9
$DIMALTTZ
 70
     0
  9
$DIMUPT
 70
     0
  9
$DIMDEC
 70
     4
  9
$DIMTDEC
 70
     4
  9
$DIMALTU
 70
     2
  9
$DIMALTTD
 70
     2
  9
$DIMTXSTY
  7
Standard
  9
$DIMAUNIT
 70
     0
  9
$DIMADEC
 70
     0
  9
$DIMALTRND
 40
0.0
  9
$DIMAZIN
 70
     0
  9
$DIMDSEP
 70
    46
  9
$DIMATFIT
 70
     3
  9
$DIMFRAC
 70
     0
  9
$DIMLDRBLK
  1

  9
$DIMLUNIT
 70
     2
  9
$DIMLWD
 70
    -2
  9
$DIMLWE
 70
    -2
  9
$DIMTMOVE
 70
     0
  9
$DIMFXL
 40
1.0
  9
$DIMFXLON
 70
     0
  9
$DIMJOGANG
 40
0.7853981633974483
  9
$DIMTFILL
 70
     0
  9
$DIMTFILLCLR
 70
     0
  9
$DIMARCSYM
 70
     0
  9
$DIMLTYPE
  6

  9
$DIMLTEX1
  6

  9
$DIMLTEX2
  6

  9
$DIMTXTDIRECTION
 70
     0
  9
$LUNITS
 70
     2
  9
$LUPREC
 70
     4
  9
$SKETCHINC
 40
0.1
  9
$FILLETRAD
 40
0.5
  9
$AUNITS
 70
     0
  9
$AUPREC
 70
     0
  9
$MENU
  1
.
  9
$ELEVATION
 40
0.0
  9
$PELEVATION
 40
0.0
  9
$THICKNESS
 40
0.0
  9
$LIMCHECK
 70
     0
  9
$CHAMFERA
 40
0.5
  9
$CHAMFERB
 40
0.5
  9
$CHAMFERC
 40
1.0
  9
$CHAMFERD
 40
0.0
  9
$SKPOLY
 70
     0
  9
$TDCREATE
 40
2457917.610960637
  9
$TDUCREATE
 40
2457917.235960648
  9
$TDUPDATE
 40
2457917.610960637
  9
$TDUUPDATE
 40
2457917.235960648
  9
$TDINDWG
 40
0.0000000116
  9
$TDUSRTIMER
 40
0.0000000116
  9
$USRTIMER
 70
     1
  9
$ANGBASE
 50
0.0
  9
$ANGDIR
 70
     0
  9
$PDMODE
 70
     0
  9
$PDSIZE
 40
0.0
  9
$PLINEWID
 40
0.0
  9
$SPLFRAME
 70
     0
  9
$SPLINETYPE
 70
     6
  9
$SPLINESEGS
 70
     8
  9
$HANDSEED
  5
E5
  9
$SURFTAB1
 70
     6
  9
$SURFTAB2
 70
     6
  9
$SURFTYPE
 70
     6
  9
$SURFU
 70
     6
  9
$SURFV
 70
     6
  9
$UCSBASE
  2

  9
$UCSNAME
  2

  9
$UCSORG
 10
0.0
 20
0.0
 30
0.0
  9
$UCSXDIR
 10
1.0
 20
0.0
 30
0.0
  9
$UCSYDIR
 10
0.0
 20
1.0
 30
0.0
  9
$UCSORTHOREF
  2

  9
$UCSORTHOVIEW
 70
     0
  9
$UCSORGTOP
 10
0.0
 20
0.0
 30
0.0
  9
$UCSORGBOTTOM
 10
0.0
 20
0.0
 30
0.0
  9
$UCSORGLEFT
 10
0.0
 20
0.0
 30
0.0
  9
$UCSORGRIGHT
 10
0.0
 20
0.0
 30
0.0
  9
$UCSORGFRONT
 10
0.0
 20
0.0
 30
0.0
  9
$UCSORGBACK
 10
0.0
 20
0.0
 30
0.0
  9
$PUCSBASE
  2

  9
$PUCSNAME
  2

  9
$PUCSORG
 10
0.0
 20
0.0
 30
0.0
  9
$PUCSXDIR
 10
1.0
 20
0.0
 30
0.0
  9
$PUCSYDIR
 10
0.0
 20
1.0
 30
0.0
  9
$PUCSORTHOREF
  2

  9
$PUCSORTHOVIEW
 70
     0
  9
$PUCSORGTOP
 10
0.0
 20
0.0
 30
0.0
  9
$PUCSORGBOTTOM
 10
0.0
 20
0.0
 30
0.0
  9
$PUCSORGLEFT
 10
0.0
 20
0.0
 30
0.0
  9
$PUCSORGRIGHT
 10
0.0
 20
0.0
 30
0.0
  9
$PUCSORGFRONT
 10
0.0
 20
0.0
 30
0.0
  9
$PUCSORGBACK
 10
0.0
 20
0.0
 30
0.0
  9
$USERI1
 70
     0
  9
$USERI2
 70
     0
  9
$USERI3
 70
     0
  9
$USERI4
 70
     0
  9
$USERI5
 70
     0
  9
$USERR1
 40
0.0
  9
$USERR2
 40
0.0
  9
$USERR3
 40
0.0
  9
$USERR4
 40
0.0
  9
$USERR5
 40
0.0
  9
$WORLDVIEW
 70
     1
  9
$SHADEDGE
 70
     3
  9
$SHADEDIF
 70
    70
  9
$TILEMODE
 70
     1
  9
$MAXACTVP
 70
    64
  9
$PINSBASE
 10
0.0
 20
0.0
 30
0.0
  9
$PLIMCHECK
 70
     0
  9
$PEXTMIN
 10
1.000000000000000E+20
 20
1.000000000000000E+20
 30
1.000000000000000E+20
  9
$PEXTMAX
 10
-1.000000000000000E+20
 20
-1.000000000000000E+20
 30
-1.000000000000000E+20
  9
$PLIMMIN
 10
0.0
 20
0.0
  9
$PLIMMAX
 10
12.0
 20
9.0
  9
$UNITMODE
 70
     0
  9
$VISRETAIN
 70
     1
  9
$PLINEGEN
 70
     0
  9
$PSLTSCALE
 70
     1
  9
$TREEDEPTH
 70
  3020
  9
$CMLSTYLE
  2
Standard
  9
$CMLJUST
 70
     0
  9
$CMLSCALE
 40
1.0
  9
$PROXYGRAPHICS
 70
     1
  9
$MEASUREMENT
 70
     0
  9
$CELWEIGHT
370
    -1
  9
$ENDCAPS
280
     0
  9
$JOINSTYLE
280
     0
  9
$LWDISPLAY
290
     1
  9
$INSUNITS
 70
     1
  9
$HYPERLINKBASE
  1

  9
$STYLESHEET
  1

  9
$XEDIT
290
     1
  9
$CEPSNTYPE
380
     0
  9
$PSTYLEMODE
290
     1
  9
$FINGERPRINTGUID
  2
{E1899CFD-F7A0-3210-7AF7-9BACEDF4EC9A}
  9
$VERSIONGUID
  2
{FAEB1C32-E019-11D5-929B-00C0DF256EC4}
  9
$EXTNAMES
290
     1
  9
$PSVPSCALE
 40
0.0
  9
$OLESTARTUP
290
     0
  9
$SORTENTS
280
   127
  9
$INDEXCTL
280
     0
  9
$HIDETEXT
280
     1
  9
$XCLIPFRAME
280
     2
  9
$HALOGAP
280
     0
  9
$OBSCOLOR
 70
   257
  9
$OBSLTYPE
280
     0
  9
$INTERSECTIONDISPLAY
280
     0
  9
$INTERSECTIONCOLOR
 70
   257
  9
$DIMASSOC
280
     2
  9
$PROJECTNAME
  1

  9
$CAMERADISPLAY
290
     0
  9
$LENSLENGTH
 40
50.0
  9
$CAMERAHEIGHT
 40
0.0
  9
$STEPSPERSEC
 40
2.0
  9
$STEPSIZE
 40
6.0
  9
$3DDWFPREC
 40
2.0
  9
$PSOLWIDTH
 40
0.25
  9
$PSOLHEIGHT
 40
4.0
  9
$LOFTANG1
 40
1.570796326794897
  9
$LOFTANG2
 40
1.570796326794897
  9
$LOFTMAG1
 40
0.0
  9
$LOFTMAG2
 40
0.0
  9
$LOFTPARAM
 70
     7
  9
$LOFTNORMALS
280
     1
  9
$LATITUDE
 40
37.795
  9
$LONGITUDE
 40
-122.394
  9
$NORTHDIRECTION
 40
0.0
  9
$TIMEZONE
 70
 -8000
  9
$LIGHTGLYPHDISPLAY
280
     1
  9
$TILEMODELIGHTSYNCH
280
     1
  9
$CMATERIAL
347
3C
  9
$SOLIDHIST
280
     1
  9
$SHOWHIST
280
     1
  9
$DWFFRAME
280
     2
  9
$DGNFRAME
280
     2
  9
$REALWORLDSCALE
290
     1
  9
$INTERFERECOLOR
 62
   256
  9
$CSHADOW
280
     0
  9
$SHADOWPLANELOCATION
 40
0.0
  0
ENDSEC
  0
SECTION
  2
CLASSES
  0
CLASS
  1
ACDBDICTIONARYWDFLT
  2
AcDbDictionaryWithDefault
  3
ObjectDBX Classes
 90
        0
 91
        4
280
     0
281
     0
  0
CLASS
  1
VISUALSTYLE
  2
AcDbVisualStyle
  3
ObjectDBX Classes
 90
     4095
 91
        4
280
     0
281
     0
  0
CLASS
  1
MATERIAL
  2
AcDbMaterial
  3
ObjectDBX Classes
 90
     1153
 91
        4
280
     0
281
     0
  0
CLASS
  1
SUN
  2
AcDbSun
  3
SCENEOE
 90
     1024
 91
        4
280
     0
281
     0
  0
ENDSEC
  0
SECTION
  2
TABLES
  0
TABLE
  2
VPORT
  5
8
330
0
100
AcDbSymbolTable
 70
     1
  0
VPORT
  5
29
330
8
100
AcDbSymbolTableRecord
100
AcDbViewportTableRecord
  2
*Active
 70
     0
 10
0.0
 20
0.0
 11
1.0
 21
1.0
 12
0.0
 22
0.0
 13
0.0
 23
0.0
 14
0.5
 24
0.5
 15
0.5
 25
0.5
 16
0.0
 26
0.0
 36
1.0
 17
63.499999984125
 27
-89.00059456108309
 37
0.0
 40
178.0011891221662
 41
0.7134783795241226
 42
50.0
 43
0.0
 44
0.0
 50
0.0
 51
0.0
 71
     0
 72
   100
 73
     1
 74
     3
 75
     0
 76
     0
 77
     0
 78
     0
281
     0
 65
     1
110
0.0
120
0.0
130
0.0
111
1.0
121
0.0
131
0.0
112
0.0
122
1.0
132
0.0
 79
     0
146
0.0
 60
     3
 61
     5
292
     1
282
     1
141
0.0
142
0.0
 63
   250
361
3F
  0
ENDTAB
  0
TABLE
  2
LTYPE
  5
5
330
0
100
AcDbSymbolTable
 70
     1
  0
LTYPE
  5
14
330
5
100
AcDbSymbolTableRecord
100
AcDbLinetypeTableRecord
  2
ByBlock
 70
     0
  3

 72
    65
 73
     0
 40
0.0
  0
LTYPE
  5
15
330
5
100
AcDbSymbolTableRecord
100
AcDbLinetypeTableRecord
  2
ByLayer
 70
     0
  3

 72
    65
 73
     0
 40
0.0
  0
LTYPE
  5
16
330
5
100
AcDbSymbolTableRecord
100
AcDbLinetypeTableRecord
  2
Continuous
 70
     0
  3
Solid line
 72
    65
 73
     0
 40
0.0
  0
ENDTAB
  0
TABLE
  2
LAYER
  5
2
330
0
100
AcDbSymbolTable
 70
     2
  0
LAYER
  5
10
330
2
100
AcDbSymbolTableRecord
100
AcDbLayerTableRecord
  2
0
 70
     0
 62
     7
  6
Continuous
370
    -3
390
F
347
3E
  0
LAYER
  5
40
330
2
100
AcDbSymbolTableRecord
100
AcDbLayerTableRecord
  2
_U+30EC_U+30A4_U+30E4_U+30FC 1
 70
     0
 62
     7
  6
Continuous
370
    -3
390
F
347
3E
  0
ENDTAB
  0
TABLE
  2
STYLE
  5
3
330
0
100
AcDbSymbolTable
 70
     1
  0
STYLE
  5
11
330
3
100
AcDbSymbolTableRecord
100
AcDbTextStyleTableRecord
  2
Standard
 70
     0
 40
0.0
 41
1.0
 50
0.0
 71
     0
 42
0.2
  3
txt
  4

  0
ENDTAB
  0
TABLE
  2
VIEW
  5
6
330
0
100
AcDbSymbolTable
 70
     0
  0
ENDTAB
  0
TABLE
  2
UCS
  5
7
330
0
100
AcDbSymbolTable
 70
     0
  0
ENDTAB
  0
TABLE
  2
APPID
  5
9
330
0
100
AcDbSymbolTable
 70
     1
  0
APPID
  5
12
330
9
100
AcDbSymbolTableRecord
100
AcDbRegAppTableRecord
  2
ACAD
 70
     0
  0
ENDTAB
  0
TABLE
  2
DIMSTYLE
  5
A
330
0
100
AcDbSymbolTable
 70
     1
100
AcDbDimStyleTable
  0
DIMSTYLE
105
27
330
A
100
AcDbSymbolTableRecord
100
AcDbDimStyleTableRecord
  2
Standard
 70
     0
178
     0
340
11
  0
ENDTAB
  0
TABLE
  2
BLOCK_RECORD
  5
1
330
0
100
AcDbSymbolTable
 70
     6
  0
BLOCK_RECORD
  5
1F
330
1
100
AcDbSymbolTableRecord
100
AcDbBlockTableRecord
  2
*Model_Space
340
22
 70
     0
280
     1
281
     0
  0
BLOCK_RECORD
  5
1B
330
1
100
AcDbSymbolTableRecord
100
AcDbBlockTableRecord
  2
*Paper_Space
340
1E
 70
     0
280
     1
281
     0
  0
BLOCK_RECORD
  5
23
330
1
100
AcDbSymbolTableRecord
100
AcDbBlockTableRecord
  2
*Paper_Space0
340
26
 70
     0
280
     1
281
     0
  0
BLOCK_RECORD
  5
7A
330
1
100
AcDbSymbolTableRecord
100
AcDbBlockTableRecord
  2
block 2
340
0
102
{BLKREFS
331
7B
102
}
 70
     0
280
     1
281
     0
  0
BLOCK_RECORD
  5
8F
330
1
100
AcDbSymbolTableRecord
100
AcDbBlockTableRecord
  2
block 3
340
0
102
{BLKREFS
331
90
102
}
 70
     0
280
     1
281
     0
  0
BLOCK_RECORD
  5
A2
330
1
100
AcDbSymbolTableRecord
100
AcDbBlockTableRecord
  2
block 4
340
0
102
{BLKREFS
331
A3
102
}
 70
     0
280
     1
281
     0
  0
BLOCK_RECORD
  5
B7
330
1
100
AcDbSymbolTableRecord
100
AcDbBlockTableRecord
  2
block 5
340
0
102
{BLKREFS
331
B8
102
}
 70
     0
280
     1
281
     0
  0
BLOCK_RECORD
  5
D1
330
1
100
AcDbSymbolTableRecord
100
AcDbBlockTableRecord
  2
block 6
340
0
102
{BLKREFS
331
D2
102
}
 70
     0
280
     1
281
     0
  0
ENDTAB
  0
ENDSEC
  0
SECTION
  2
BLOCKS
  0
BLOCK
  5
20
330
1F
100
AcDbEntity
  8
0
100
AcDbBlockBegin
  2
*Model_Space
 70
     0
 10
0.0
 20
0.0
 30
0.0
  3
*Model_Space
  1

  0
ENDBLK
  5
21
330
1F
100
AcDbEntity
  8
0
100
AcDbBlockEnd
  0
BLOCK
  5
1C
330
1B
100
AcDbEntity
 67
     1
  8
0
100
AcDbBlockBegin
  2
*Paper_Space
 70
     0
 10
0.0
 20
0.0
 30
0.0
  3
*Paper_Space
  1

  0
ENDBLK
  5
1D
330
1B
100
AcDbEntity
 67
     1
  8
0
100
AcDbBlockEnd
  0
BLOCK
  5
24
330
23
100
AcDbEntity
  8
0
100
AcDbBlockBegin
  2
*Paper_Space0
 70
     0
 10
0.0
 20
0.0
 30
0.0
  3
*Paper_Space0
  1

  0
ENDBLK
  5
25
330
23
100
AcDbEntity
  8
0
100
AcDbBlockEnd
  0
BLOCK
  5
7C
330
7A
100
AcDbEntity
  8
0
100
AcDbBlockBegin
  2
block 2
 70
     0
 10
0.0
 20
0.0
 30
0.0
  3
block 2
  1

  0
SPLINE
  5
7E
330
7A
100
AcDbEntity
  8
_U+30EC_U+30A4_U+30E4_U+30FC 1
370
     0
100
AcDbSpline
210
0.0
220
0.0
230
1.0
 70
    11
 71
     3
 72
    26
 73
    22
 74
     0
 42
0.0000000001
 43
0.0000000001
 12
1.0
 22
0.0
 32
0.0
 13
1.0
 23
0.0
 33
0.0
 40
0.0
 40
0.0
 40
0.0
 40
0.0
 40
1.0
 40
1.0
 40
1.0
 40
2.0
 40
2.0
 40
2.0
 40
3.0
 40
3.0
 40
3.0
 40
4.0
 40
4.0
 40
4.0
 40
5.0
 40
5.0
 40
5.0
 40
6.0
 40
6.0
 40
6.0
 40
7.0
 40
7.0
 40
7.0
 40
7.0
 10
77.83917641283188
 20
-80.86724308959222
 30
0.0
 10
77.83917641283188
 20
-80.86724308959222
 30
0.0
 10
76.7350233098093
 20
-80.86724308959222
 30
0.0
 10
76.7350233098093
 20
-80.86724308959222
 30
0.0
 10
76.7350233098093
 20
-80.86724308959222
 30
0.0
 10
76.7350233098093
 20
-81.2200208672818
 30
0.0
 10
76.7350233098093
 20
-81.2200208672818
 30
0.0
 10
76.7350233098093
 20
-81.2200208672818
 30
0.0
 10
76.58688420394355
 20
-81.2200208672818
 30
0.0
 10
76.58688420394355
 20
-81.2200208672818
 30
0.0
 10
76.57207029335699
 20
-80.86500377752681
 30
0.0
 10
76.40911727690467
 20
-80.81522214776494
 30
0.0
 10
76.29474010679438
 20
-80.78369952407492
 30
0.0
 10
76.29474010679438
 20
-80.78369952407492
 30
0.0
 10
76.29474010679438
 20
-80.6276366985931
 30
0.0
 10
76.29474010679438
 20
-80.6276366985931
 30
0.0
 10
76.29474010679438
 20
-80.6276366985931
 30
0.0
 10
77.83917641283188
 20
-80.6276366985931
 30
0.0
 10
77.83917641283188
 20
-80.6276366985931
 30
0.0
 10
77.83917641283188
 20
-80.6276366985931
 30
0.0
 10
77.83917641283188
 20
-80.86724308959222
 30
0.0
 10
77.83917641283188
 20
-80.86724308959222
 30
0.0
  0
HATCH
  5
7F
330
7A
100
AcDbEntity
  8
_U+30EC_U+30A4_U+30E4_U+30FC 1
 62
   179
420
  2234388
100
AcDbHatch
 10
0.0
 20
0.0
 30
0.0
210
0.0
220
0.0
230
1.0
  2
SOLID
 70
     1
 71
     0
 91
        1
 92
        1
 93
        1
 72
     4
 94
        3
 73
     0
 74
     1
 95
       26
 96
       22
 40
0.0
 40
0.0
 40
0.0
 40
0.0
 40
1.0
 40
1.0
 40
1.0
 40
2.0
 40
2.0
 40
2.0
 40
3.0
 40
3.0
 40
3.0
 40
4.0
 40
4.0
 40
4.0
 40
5.0
 40
5.0
 40
5.0
 40
6.0
 40
6.0
 40
6.0
 40
7.0
 40
7.0
 40
7.0
 40
7.0
 10
77.83917641283188
 20
-80.86724308959222
 10
77.83917641283188
 20
-80.86724308959222
 10
76.7350233098093
 20
-80.86724308959222
 10
76.7350233098093
 20
-80.86724308959222
 10
76.7350233098093
 20
-80.86724308959222
 10
76.7350233098093
 20
-81.2200208672818
 10
76.7350233098093
 20
-81.2200208672818
 10
76.7350233098093
 20
-81.2200208672818
 10
76.58688420394355
 20
-81.2200208672818
 10
76.58688420394355
 20
-81.2200208672818
 10
76.57207029335699
 20
-80.86500377752681
 10
76.40911727690467
 20
-80.81522214776494
 10
76.29474010679438
 20
-80.78369952407492
 10
76.29474010679438
 20
-80.78369952407492
 10
76.29474010679438
 20
-80.6276366985931
 10
76.29474010679438
 20
-80.6276366985931
 10
76.29474010679438
 20
-80.6276366985931
 10
77.83917641283188
 20
-80.6276366985931
 10
77.83917641283188
 20
-80.6276366985931
 10
77.83917641283188
 20
-80.6276366985931
 10
77.83917641283188
 20
-80.86724308959222
 10
77.83917641283188
 20
-80.86724308959222
 97
        0
 97
        0
 75
     2
 76
     1
 98
        0
  0
ENDBLK
  5
7D
330
7A
100
AcDbEntity
  8
0
100
AcDbBlockEnd
  0
BLOCK
  5
91
330
8F
100
AcDbEntity
  8
0
100
AcDbBlockBegin
  2
block 3
 70
     0
 10
0.0
 20
0.0
 30
0.0
  3
block 3
  1

  0
SPLINE
  5
93
330
8F
100
AcDbEntity
  8
_U+30EC_U+30A4_U+30E4_U+30FC 1
370
     0
100
AcDbSpline
210
0.0
220
0.0
230
1.0
 70
    11
 71
     3
 72
    32
 73
    28
 74
     0
 42
0.0000000001
 43
0.0000000001
 12
1.0
 22
0.0
 32
0.0
 13
1.0
 23
0.0
 33
0.0
 40
0.0
 40
0.0
 40
0.0
 40
0.0
 40
1.0
 40
1.0
 40
1.0
 40
2.0
 40
2.0
 40
2.0
 40
3.0
 40
3.0
 40
3.0
 40
4.0
 40
4.0
 40
4.0
 40
5.0
 40
5.0
 40
5.0
 40
6.0
 40
6.0
 40
6.0
 40
7.0
 40
7.0
 40
7.0
 40
8.0
 40
8.0
 40
8.0
 40
9.0
 40
9.0
 40
9.0
 40
9.0
 10
57.43938800647349
 20
-99.01273326517737
 30
0.0
 10
56.88765596451073
 20
-99.01273326517737
 30
0.0
 10
56.87869871624908
 20
-98.4587619111492
 30
0.0
 10
56.87869871624908
 20
-98.24482148151519
 30
0.0
 10
56.87869871624908
 20
-98.01434459355197
 30
0.0
 10
56.89902477961205
 20
-97.36701115187353
 30
0.0
 10
57.48004013319944
 20
-97.36701115187353
 30
0.0
 10
57.66538627030588
 20
-97.36701115187353
 30
0.0
 10
57.92773029150765
 20
-97.4369465902241
 30
0.0
 10
57.9683824182336
 20
-97.76905379500218
 30
0.0
 10
57.9683824182336
 20
-97.76905379500218
 30
0.0
 10
57.7401448423358
 20
-97.76905379500218
 30
0.0
 10
57.7401448423358
 20
-97.76905379500218
 30
0.0
 10
57.72877602723447
 20
-97.71186520994704
 30
0.0
 10
57.69484183670476
 20
-97.5637261040813
 30
0.0
 10
57.47780082113402
 20
-97.5637261040813
 30
0.0
 10
57.16584742494465
 20
-97.5637261040813
 30
0.0
 10
57.12278373137903
 20
-97.89169919427708
 30
0.0
 10
57.10934785898655
 20
-98.09668237564945
 30
0.0
 10
57.20873886373601
 20
-98.01847870813427
 30
0.0
 10
57.28108586892626
 20
-97.95922306578798
 30
0.0
 10
57.47556150906861
 20
-97.95922306578798
 30
0.0
 10
57.66779783714556
 20
-97.95922306578798
 30
0.0
 10
57.99094779366199
 20
-98.06739906402483
 30
0.0
 10
57.99094779366199
 20
-98.47357582173578
 30
0.0
 10
57.99094779366199
 20
-98.79293617321844
 30
0.0
 10
57.77855765699633
 20
-99.01273326517737
 30
0.0
 10
57.43938800647349
 20
-99.01273326517737
 30
0.0
  0
SPLINE
  5
94
330
8F
100
AcDbEntity
  8
_U+30EC_U+30A4_U+30E4_U+30FC 1
370
     0
100
AcDbSpline
210
0.0
220
0.0
230
1.0
 70
    11
 71
     3
 72
    17
 73
    13
 74
     0
 42
0.0000000001
 43
0.0000000001
 12
1.0
 22
0.0
 32
0.0
 13
1.0
 23
0.0
 33
0.0
 40
0.0
 40
0.0
 40
0.0
 40
0.0
 40
1.0
 40
1.0
 40
1.0
 40
2.0
 40
2.0
 40
2.0
 40
3.0
 40
3.0
 40
3.0
 40
4.0
 40
4.0
 40
4.0
 40
4.0
 10
57.45747475777105
 20
-98.1538709607046
 30
0.0
 10
57.17704398527172
 20
-98.1538709607046
 30
0.0
 10
57.13639185854576
 20
-98.36539982349893
 30
0.0
 10
57.13639185854576
 20
-98.48184405090038
 30
0.0
 10
57.13639185854576
 20
-98.65754392064812
 30
0.0
 10
57.2381944301349
 20
-98.82049693710043
 30
0.0
 10
57.43490938234267
 20
-98.82049693710043
 30
0.0
 10
57.56375595349101
 20
-98.82049693710043
 30
0.0
 10
57.75134140266286
 20
-98.76124129475414
 30
0.0
 10
57.75134140266286
 20
-98.47564287902692
 30
0.0
 10
57.75134140266286
 20
-98.25136716293716
 30
0.0
 10
57.60216876815154
 20
-98.1538709607046
 30
0.0
 10
57.45747475777105
 20
-98.1538709607046
 30
0.0
  0
HATCH
  5
95
330
8F
100
AcDbEntity
  8
_U+30EC_U+30A4_U+30E4_U+30FC 1
 62
   179
420
  2234388
100
AcDbHatch
 10
0.0
 20
0.0
 30
0.0
210
0.0
220
0.0
230
1.0
  2
SOLID
 70
     1
 71
     0
 91
        2
 92
        1
 93
        1
 72
     4
 94
        3
 73
     0
 74
     1
 95
       32
 96
       28
 40
0.0
 40
0.0
 40
0.0
 40
0.0
 40
1.0
 40
1.0
 40
1.0
 40
2.0
 40
2.0
 40
2.0
 40
3.0
 40
3.0
 40
3.0
 40
4.0
 40
4.0
 40
4.0
 40
5.0
 40
5.0
 40
5.0
 40
6.0
 40
6.0
 40
6.0
 40
7.0
 40
7.0
 40
7.0
 40
8.0
 40
8.0
 40
8.0
 40
9.0
 40
9.0
 40
9.0
 40
9.0
 10
57.43938800647349
 20
-99.01273326517737
 10
56.88765596451073
 20
-99.01273326517737
 10
56.87869871624908
 20
-98.4587619111492
 10
56.87869871624908
 20
-98.24482148151519
 10
56.87869871624908
 20
-98.01434459355197
 10
56.89902477961205
 20
-97.36701115187353
 10
57.48004013319944
 20
-97.36701115187353
 10
57.66538627030588
 20
-97.36701115187353
 10
57.92773029150765
 20
-97.4369465902241
 10
57.9683824182336
 20
-97.76905379500218
 10
57.9683824182336
 20
-97.76905379500218
 10
57.7401448423358
 20
-97.76905379500218
 10
57.7401448423358
 20
-97.76905379500218
 10
57.72877602723447
 20
-97.71186520994704
 10
57.69484183670476
 20
-97.5637261040813
 10
57.47780082113402
 20
-97.5637261040813
 10
57.16584742494465
 20
-97.5637261040813
 10
57.12278373137903
 20
-97.89169919427708
 10
57.10934785898655
 20
-98.09668237564945
 10
57.20873886373601
 20
-98.01847870813427
 10
57.28108586892626
 20
-97.95922306578798
 10
57.47556150906861
 20
-97.95922306578798
 10
57.66779783714556
 20
-97.95922306578798
 10
57.99094779366199
 20
-98.06739906402483
 10
57.99094779366199
 20
-98.47357582173578
 10
57.99094779366199
 20
-98.79293617321844
 10
57.77855765699633
 20
-99.01273326517737
 10
57.43938800647349
 20
-99.01273326517737
 97
        0
 97
        0
 92
        1
 93
        1
 72
     4
 94
        3
 73
     0
 74
     1
 95
       17
 96
       13
 40
0.0
 40
0.0
 40
0.0
 40
0.0
 40
1.0
 40
1.0
 40
1.0
 40
2.0
 40
2.0
 40
2.0
 40
3.0
 40
3.0
 40
3.0
 40
4.0
 40
4.0
 40
4.0
 40
4.0
 10
57.45747475777105
 20
-98.1538709607046
 10
57.17704398527172
 20
-98.1538709607046
 10
57.13639185854576
 20
-98.36539982349893
 10
57.13639185854576
 20
-98.48184405090038
 10
57.13639185854576
 20
-98.65754392064812
 10
57.2381944301349
 20
-98.82049693710043
 10
57.43490938234267
 20
-98.82049693710043
 10
57.56375595349101
 20
-98.82049693710043
 10
57.75134140266286
 20
-98.76124129475414
 10
57.75134140266286
 20
-98.47564287902692
 10
57.75134140266286
 20
-98.25136716293716
 10
57.60216876815154
 20
-98.1538709607046
 10
57.45747475777105
 20
-98.1538709607046
 97
        0
 97
        0
 75
     2
 76
     1
 98
        0
  0
ENDBLK
  5
92
330
8F
100
AcDbEntity
  8
0
100
AcDbBlockEnd
  0
BLOCK
  5
A4
330
A2
100
AcDbEntity
  8
0
100
AcDbBlockBegin
  2
block 4
 70
     0
 10
0.0
 20
0.0
 30
0.0
  3
block 4
  1

  0
SPLINE
  5
A6
330
A2
100
AcDbEntity
  8
_U+30EC_U+30A4_U+30E4_U+30FC 1
370
     0
100
AcDbSpline
210
0.0
220
0.0
230
1.0
 70
    11
 71
     3
 72
    44
 73
    40
 74
     0
 42
0.0000000001
 43
0.0000000001
 12
1.0
 22
0.0
 32
0.0
 13
1.0
 23
0.0
 33
0.0
 40
0.0
 40
0.0
 40
0.0
 40
0.0
 40
1.0
 40
1.0
 40
1.0
 40
2.0
 40
2.0
 40
2.0
 40
3.0
 40
3.0
 40
3.0
 40
4.0
 40
4.0
 40
4.0
 40
5.0
 40
5.0
 40
5.0
 40
6.0
 40
6.0
 40
6.0
 40
7.0
 40
7.0
 40
7.0
 40
8.0
 40
8.0
 40
8.0
 40
9.0
 40
9.0
 40
9.0
 40
10.0
 40
10.0
 40
10.0
 40
11.0
 40
11.0
 40
11.0
 40
12.0
 40
12.0
 40
12.0
 40
13.0
 40
13.0
 40
13.0
 40
13.0
 10
63.90514321319039
 20
-78.68012422078137
 30
0.0
 10
63.67242701316176
 20
-78.83894312265137
 30
0.0
 10
63.57286375363804
 20
-78.91301267558426
 30
0.0
 10
63.52084281181077
 20
-79.05667315731917
 30
0.0
 10
63.52084281181077
 20
-79.05667315731917
 30
0.0
 10
64.35300562627286
 20
-79.05667315731917
 30
0.0
 10
64.35300562627286
 20
-79.05667315731917
 30
0.0
 10
64.35300562627286
 20
-79.05667315731917
 30
0.0
 10
64.35300562627286
 20
-79.26200084824006
 30
0.0
 10
64.35300562627286
 20
-79.26200084824006
 30
0.0
 10
64.35300562627286
 20
-79.26200084824006
 30
0.0
 10
63.25419242125243
 20
-79.26200084824006
 30
0.0
 10
63.25419242125243
 20
-79.26200084824006
 30
0.0
 10
63.2882988665564
 20
-78.90439993687113
 30
0.0
 10
63.35823430490697
 20
-78.82619626935596
 30
0.0
 10
63.7695787058458
 20
-78.52785100033331
 30
0.0
 10
64.04294703260038
 20
-78.3290689908344
 30
0.0
 10
64.11322698049948
 20
-78.26120060977497
 30
0.0
 10
64.11322698049948
 20
-78.12374129991352
 30
0.0
 10
64.11322698049948
 20
-78.00523001522092
 30
0.0
 10
64.0364013511784
 20
-77.87431638678143
 30
0.0
 10
63.8260782718039
 20
-77.87431638678143
 30
0.0
 10
63.54805906614424
 20
-77.87431638678143
 30
0.0
 10
63.53910181788259
 20
-78.10479327474464
 30
0.0
 10
63.53462319375176
 20
-78.22123750214608
 30
0.0
 10
63.53462319375176
 20
-78.22123750214608
 30
0.0
 10
63.29484454797838
 20
-78.22123750214608
 30
0.0
 10
63.29484454797838
 20
-78.22123750214608
 30
0.0
 10
63.30380179624002
 20
-78.09411347874037
 30
0.0
 10
63.31517061134135
 20
-77.98214787546975
 30
0.0
 10
63.40129799847259
 20
-77.86363659077715
 30
0.0
 10
63.51877575451962
 20
-77.70275063161598
 30
0.0
 10
63.71755776401853
 20
-77.66898869586053
 30
0.0
 10
63.84192571103605
 20
-77.66898869586053
 30
0.0
 10
64.13803166799327
 20
-77.66898869586053
 30
0.0
 10
64.35955130769484
 20
-77.85295679477288
 30
0.0
 10
64.35955130769484
 20
-78.12580835720466
 30
0.0
 10
64.35955130769484
 20
-78.35456269742525
 30
0.0
 10
64.23518336067731
 20
-78.45378144740044
 30
0.0
 10
63.90514321319039
 20
-78.68012422078137
 30
0.0
  0
HATCH
  5
A7
330
A2
100
AcDbEntity
  8
_U+30EC_U+30A4_U+30E4_U+30FC 1
 62
   179
420
  2234388
100
AcDbHatch
 10
0.0
 20
0.0
 30
0.0
210
0.0
220
0.0
230
1.0
  2
SOLID
 70
     1
 71
     0
 91
        1
 92
        1
 93
        1
 72
     4
 94
        3
 73
     0
 74
     1
 95
       44
 96
       40
 40
0.0
 40
0.0
 40
0.0
 40
0.0
 40
1.0
 40
1.0
 40
1.0
 40
2.0
 40
2.0
 40
2.0
 40
3.0
 40
3.0
 40
3.0
 40
4.0
 40
4.0
 40
4.0
 40
5.0
 40
5.0
 40
5.0
 40
6.0
 40
6.0
 40
6.0
 40
7.0
 40
7.0
 40
7.0
 40
8.0
 40
8.0
 40
8.0
 40
9.0
 40
9.0
 40
9.0
 40
10.0
 40
10.0
 40
10.0
 40
11.0
 40
11.0
 40
11.0
 40
12.0
 40
12.0
 40
12.0
 40
13.0
 40
13.0
 40
13.0
 40
13.0
 10
63.90514321319039
 20
-78.68012422078137
 10
63.67242701316176
 20
-78.83894312265137
 10
63.57286375363804
 20
-78.91301267558426
 10
63.52084281181077
 20
-79.05667315731917
 10
63.52084281181077
 20
-79.05667315731917
 10
64.35300562627286
 20
-79.05667315731917
 10
64.35300562627286
 20
-79.05667315731917
 10
64.35300562627286
 20
-79.05667315731917
 10
64.35300562627286
 20
-79.26200084824006
 10
64.35300562627286
 20
-79.26200084824006
 10
64.35300562627286
 20
-79.26200084824006
 10
63.25419242125243
 20
-79.26200084824006
 10
63.25419242125243
 20
-79.26200084824006
 10
63.2882988665564
 20
-78.90439993687113
 10
63.35823430490697
 20
-78.82619626935596
 10
63.7695787058458
 20
-78.52785100033331
 10
64.04294703260038
 20
-78.3290689908344
 10
64.11322698049948
 20
-78.26120060977497
 10
64.11322698049948
 20
-78.12374129991352
 10
64.11322698049948
 20
-78.00523001522092
 10
64.0364013511784
 20
-77.87431638678143
 10
63.8260782718039
 20
-77.87431638678143
 10
63.54805906614424
 20
-77.87431638678143
 10
63.53910181788259
 20
-78.10479327474464
 10
63.53462319375176
 20
-78.22123750214608
 10
63.53462319375176
 20
-78.22123750214608
 10
63.29484454797838
 20
-78.22123750214608
 10
63.29484454797838
 20
-78.22123750214608
 10
63.30380179624002
 20
-78.09411347874037
 10
63.31517061134135
 20
-77.98214787546975
 10
63.40129799847259
 20
-77.86363659077715
 10
63.51877575451962
 20
-77.70275063161598
 10
63.71755776401853
 20
-77.66898869586053
 10
63.84192571103605
 20
-77.66898869586053
 10
64.13803166799327
 20
-77.66898869586053
 10
64.35955130769484
 20
-77.85295679477288
 10
64.35955130769484
 20
-78.12580835720466
 10
64.35955130769484
 20
-78.35456269742525
 10
64.23518336067731
 20
-78.45378144740044
 10
63.90514321319039
 20
-78.68012422078137
 97
        0
 97
        0
 75
     2
 76
     1
 98
        0
  0
SPLINE
  5
A8
330
A2
100
AcDbEntity
  8
_U+30EC_U+30A4_U+30E4_U+30FC 1
370
     0
100
AcDbSpline
210
0.0
220
0.0
230
1.0
 70
    11
 71
     3
 72
    29
 73
    25
 74
     0
 42
0.0000000001
 43
0.0000000001
 12
1.0
 22
0.0
 32
0.0
 13
1.0
 23
0.0
 33
0.0
 40
0.0
 40
0.0
 40
0.0
 40
0.0
 40
1.0
 40
1.0
 40
1.0
 40
2.0
 40
2.0
 40
2.0
 40
3.0
 40
3.0
 40
3.0
 40
4.0
 40
4.0
 40
4.0
 40
5.0
 40
5.0
 40
5.0
 40
6.0
 40
6.0
 40
6.0
 40
7.0
 40
7.0
 40
7.0
 40
8.0
 40
8.0
 40
8.0
 40
8.0
 10
65.48850909821121
 20
-79.08423392120116
 30
0.0
 10
65.37309839945534
 20
-79.29369572670436
 30
0.0
 10
65.1877522623489
 20
-79.31264375187322
 30
0.0
 10
65.06338431533138
 20
-79.31264375187322
 30
0.0
 10
64.89181856016593
 20
-79.31264375187322
 30
0.0
 10
64.74023435881494
 20
-79.26613496282236
 30
0.0
 10
64.63860404200007
 20
-79.08423392120116
 30
0.0
 10
64.52767196737503
 20
-78.88958602628455
 30
0.0
 10
64.50734590401206
 20
-78.65290796644788
 30
0.0
 10
64.50734590401206
 20
-78.48995494999556
 30
0.0
 10
64.50734590401206
 20
-78.34594995871213
 30
0.0
 10
64.52526040053536
 20
-78.09411347874037
 30
0.0
 10
64.63860404200007
 20
-77.89533146924146
 30
0.0
 10
64.75367023120742
 20
-77.69241534516023
 30
0.0
 10
64.92558049592138
 20
-77.66898869586053
 30
0.0
 10
65.06338431533138
 20
-77.66898869586053
 30
0.0
 10
65.23322752275419
 20
-77.66898869586053
 30
0.0
 10
65.38687878139633
 20
-77.71343042762025
 30
0.0
 10
65.48850909821121
 20
-77.89533146924146
 30
0.0
 10
65.59496254870542
 20
-78.08791230686691
 30
0.0
 10
65.61976723619922
 20
-78.31632213753898
 30
0.0
 10
65.61976723619922
 20
-78.48995494999556
 30
0.0
 10
65.61976723619922
 20
-78.66117619561248
 30
0.0
 10
65.59702960599658
 20
-78.8916530835757
 30
0.0
 10
65.48850909821121
 20
-79.08423392120116
 30
0.0
  0
SPLINE
  5
A9
330
A2
100
AcDbEntity
  8
_U+30EC_U+30A4_U+30E4_U+30FC 1
370
     0
100
AcDbSpline
210
0.0
220
0.0
230
1.0
 70
    11
 71
     3
 72
    17
 73
    13
 74
     0
 42
0.0000000001
 43
0.0000000001
 12
1.0
 22
0.0
 32
0.0
 13
1.0
 23
0.0
 33
0.0
 40
0.0
 40
0.0
 40
0.0
 40
0.0
 40
1.0
 40
1.0
 40
1.0
 40
2.0
 40
2.0
 40
2.0
 40
3.0
 40
3.0
 40
3.0
 40
4.0
 40
4.0
 40
4.0
 40
4.0
 10
65.06338431533138
 20
-77.861569533486
 30
0.0
 10
64.79673392477304
 20
-77.861569533486
 30
0.0
 10
64.74712454978544
 20
-78.14510089192206
 30
0.0
 10
64.74712454978544
 20
-78.48995494999556
 30
0.0
 10
64.74712454978544
 20
-78.80931530147824
 30
0.0
 10
64.78536510967172
 20
-79.11799585695661
 30
0.0
 10
65.06338431533138
 20
-79.11799585695661
 30
0.0
 10
65.32796764859857
 20
-79.11799585695661
 30
0.0
 10
65.37998859042584
 20
-78.83687606536023
 30
0.0
 10
65.37998859042584
 20
-78.48995494999556
 30
0.0
 10
65.37998859042584
 20
-78.17025008896438
 30
0.0
 10
65.3393364636999
 20
-77.861569533486
 30
0.0
 10
65.06338431533138
 20
-77.861569533486
 30
0.0
  0
HATCH
  5
AA
330
A2
100
AcDbEntity
  8
_U+30EC_U+30A4_U+30E4_U+30FC 1
 62
   179
420
  2234388
100
AcDbHatch
 10
0.0
 20
0.0
 30
0.0
210
0.0
220
0.0
230
1.0
  2
SOLID
 70
     1
 71
     0
 91
        2
 92
        1
 93
        1
 72
     4
 94
        3
 73
     0
 74
     1
 95
       29
 96
       25
 40
0.0
 40
0.0
 40
0.0
 40
0.0
 40
1.0
 40
1.0
 40
1.0
 40
2.0
 40
2.0
 40
2.0
 40
3.0
 40
3.0
 40
3.0
 40
4.0
 40
4.0
 40
4.0
 40
5.0
 40
5.0
 40
5.0
 40
6.0
 40
6.0
 40
6.0
 40
7.0
 40
7.0
 40
7.0
 40
8.0
 40
8.0
 40
8.0
 40
8.0
 10
65.48850909821121
 20
-79.08423392120116
 10
65.37309839945534
 20
-79.29369572670436
 10
65.1877522623489
 20
-79.31264375187322
 10
65.06338431533138
 20
-79.31264375187322
 10
64.89181856016593
 20
-79.31264375187322
 10
64.74023435881494
 20
-79.26613496282236
 10
64.63860404200007
 20
-79.08423392120116
 10
64.52767196737503
 20
-78.88958602628455
 10
64.50734590401206
 20
-78.65290796644788
 10
64.50734590401206
 20
-78.48995494999556
 10
64.50734590401206
 20
-78.34594995871213
 10
64.52526040053536
 20
-78.09411347874037
 10
64.63860404200007
 20
-77.89533146924146
 10
64.75367023120742
 20
-77.69241534516023
 10
64.92558049592138
 20
-77.66898869586053
 10
65.06338431533138
 20
-77.66898869586053
 10
65.23322752275419
 20
-77.66898869586053
 10
65.38687878139633
 20
-77.71343042762025
 10
65.48850909821121
 20
-77.89533146924146
 10
65.59496254870542
 20
-78.08791230686691
 10
65.61976723619922
 20
-78.31632213753898
 10
65.61976723619922
 20
-78.48995494999556
 10
65.61976723619922
 20
-78.66117619561248
 10
65.59702960599658
 20
-78.8916530835757
 10
65.48850909821121
 20
-79.08423392120116
 97
        0
 97
        0
 92
        1
 93
        1
 72
     4
 94
        3
 73
     0
 74
     1
 95
       17
 96
       13
 40
0.0
 40
0.0
 40
0.0
 40
0.0
 40
1.0
 40
1.0
 40
1.0
 40
2.0
 40
2.0
 40
2.0
 40
3.0
 40
3.0
 40
3.0
 40
4.0
 40
4.0
 40
4.0
 40
4.0
 10
65.06338431533138
 20
-77.861569533486
 10
64.79673392477304
 20
-77.861569533486
 10
64.74712454978544
 20
-78.14510089192206
 10
64.74712454978544
 20
-78.48995494999556
 10
64.74712454978544
 20
-78.80931530147824
 10
64.78536510967172
 20
-79.11799585695661
 10
65.06338431533138
 20
-79.11799585695661
 10
65.32796764859857
 20
-79.11799585695661
 10
65.37998859042584
 20
-78.83687606536023
 10
65.37998859042584
 20
-78.48995494999556
 10
65.37998859042584
 20
-78.17025008896438
 10
65.3393364636999
 20
-77.861569533486
 10
65.06338431533138
 20
-77.861569533486
 97
        0
 97
        0
 75
     2
 76
     1
 98
        0
  0
ENDBLK
  5
A5
330
A2
100
AcDbEntity
  8
0
100
AcDbBlockEnd
  0
BLOCK
  5
B9
330
B7
100
AcDbEntity
  8
0
100
AcDbBlockBegin
  2
block 5
 70
     0
 10
0.0
 20
0.0
 30
0.0
  3
block 5
  1

  0
SPLINE
  5
BB
330
B7
100
AcDbEntity
  8
_U+30EC_U+30A4_U+30E4_U+30FC 1
370
     0
100
AcDbSpline
210
0.0
220
0.0
230
1.0
 70
    11
 71
     3
 72
    26
 73
    22
 74
     0
 42
0.0000000001
 43
0.0000000001
 12
1.0
 22
0.0
 32
0.0
 13
1.0
 23
0.0
 33
0.0
 40
0.0
 40
0.0
 40
0.0
 40
0.0
 40
1.0
 40
1.0
 40
1.0
 40
2.0
 40
2.0
 40
2.0
 40
3.0
 40
3.0
 40
3.0
 40
4.0
 40
4.0
 40
4.0
 40
5.0
 40
5.0
 40
5.0
 40
6.0
 40
6.0
 40
6.0
 40
7.0
 40
7.0
 40
7.0
 40
7.0
 10
49.83899060168956
 20
-91.05284014650763
 30
0.0
 10
49.83899060168956
 20
-91.05284014650763
 30
0.0
 10
48.73466524389273
 20
-91.05284014650763
 30
0.0
 10
48.73466524389273
 20
-91.05284014650763
 30
0.0
 10
48.73466524389273
 20
-91.05284014650763
 30
0.0
 10
48.73466524389273
 20
-91.40527341464869
 30
0.0
 10
48.73466524389273
 20
-91.40527341464869
 30
0.0
 10
48.73466524389273
 20
-91.40527341464869
 30
0.0
 10
48.58669839280125
 20
-91.40527341464869
 30
0.0
 10
48.58669839280125
 20
-91.40527341464869
 30
0.0
 10
48.57188448221467
 20
-91.05042857966795
 30
0.0
 10
48.40893146576235
 20
-91.00081920468035
 30
0.0
 10
48.29472655042632
 20
-90.96912432621606
 30
0.0
 10
48.29472655042632
 20
-90.96912432621606
 30
0.0
 10
48.29472655042632
 20
-90.81306150073424
 30
0.0
 10
48.29472655042632
 20
-90.81306150073424
 30
0.0
 10
48.29472655042632
 20
-90.81306150073424
 30
0.0
 10
49.83899060168956
 20
-90.81306150073424
 30
0.0
 10
49.83899060168956
 20
-90.81306150073424
 30
0.0
 10
49.83899060168956
 20
-90.81306150073424
 30
0.0
 10
49.83899060168956
 20
-91.05284014650763
 30
0.0
 10
49.83899060168956
 20
-91.05284014650763
 30
0.0
  0
HATCH
  5
BC
330
B7
100
AcDbEntity
  8
_U+30EC_U+30A4_U+30E4_U+30FC 1
 62
   179
420
  2234388
100
AcDbHatch
 10
0.0
 20
0.0
 30
0.0
210
0.0
220
0.0
230
1.0
  2
SOLID
 70
     1
 71
     0
 91
        1
 92
        1
 93
        1
 72
     4
 94
        3
 73
     0
 74
     1
 95
       26
 96
       22
 40
0.0
 40
0.0
 40
0.0
 40
0.0
 40
1.0
 40
1.0
 40
1.0
 40
2.0
 40
2.0
 40
2.0
 40
3.0
 40
3.0
 40
3.0
 40
4.0
 40
4.0
 40
4.0
 40
5.0
 40
5.0
 40
5.0
 40
6.0
 40
6.0
 40
6.0
 40
7.0
 40
7.0
 40
7.0
 40
7.0
 10
49.83899060168956
 20
-91.05284014650763
 10
49.83899060168956
 20
-91.05284014650763
 10
48.73466524389273
 20
-91.05284014650763
 10
48.73466524389273
 20
-91.05284014650763
 10
48.73466524389273
 20
-91.05284014650763
 10
48.73466524389273
 20
-91.40527341464869
 10
48.73466524389273
 20
-91.40527341464869
 10
48.73466524389273
 20
-91.40527341464869
 10
48.58669839280125
 20
-91.40527341464869
 10
48.58669839280125
 20
-91.40527341464869
 10
48.57188448221467
 20
-91.05042857966795
 10
48.40893146576235
 20
-91.00081920468035
 10
48.29472655042632
 20
-90.96912432621606
 10
48.29472655042632
 20
-90.96912432621606
 10
48.29472655042632
 20
-90.81306150073424
 10
48.29472655042632
 20
-90.81306150073424
 10
48.29472655042632
 20
-90.81306150073424
 10
49.83899060168956
 20
-90.81306150073424
 10
49.83899060168956
 20
-90.81306150073424
 10
49.83899060168956
 20
-90.81306150073424
 10
49.83899060168956
 20
-91.05284014650763
 10
49.83899060168956
 20
-91.05284014650763
 97
        0
 97
        0
 75
     2
 76
     1
 98
        0
  0
SPLINE
  5
BD
330
B7
100
AcDbEntity
  8
_U+30EC_U+30A4_U+30E4_U+30FC 1
370
     0
100
AcDbSpline
210
0.0
220
0.0
230
1.0
 70
    11
 71
     3
 72
    26
 73
    22
 74
     0
 42
0.0000000001
 43
0.0000000001
 12
1.0
 22
0.0
 32
0.0
 13
1.0
 23
0.0
 33
0.0
 40
0.0
 40
0.0
 40
0.0
 40
0.0
 40
1.0
 40
1.0
 40
1.0
 40
2.0
 40
2.0
 40
2.0
 40
3.0
 40
3.0
 40
3.0
 40
4.0
 40
4.0
 40
4.0
 40
5.0
 40
5.0
 40
5.0
 40
6.0
 40
6.0
 40
6.0
 40
7.0
 40
7.0
 40
7.0
 40
7.0
 10
49.83899060168956
 20
-89.79503578484291
 30
0.0
 10
49.83899060168956
 20
-89.79503578484291
 30
0.0
 10
48.73466524389273
 20
-89.79503578484291
 30
0.0
 10
48.73466524389273
 20
-89.79503578484291
 30
0.0
 10
48.73466524389273
 20
-89.79503578484291
 30
0.0
 10
48.73466524389273
 20
-90.14746905298396
 30
0.0
 10
48.73466524389273
 20
-90.14746905298396
 30
0.0
 10
48.73466524389273
 20
-90.14746905298396
 30
0.0
 10
48.58669839280125
 20
-90.14746905298396
 30
0.0
 10
48.58669839280125
 20
-90.14746905298396
 30
0.0
 10
48.57188448221467
 20
-89.79262421800324
 30
0.0
 10
48.40893146576235
 20
-89.74301484301564
 30
0.0
 10
48.29472655042632
 20
-89.71131996455134
 30
0.0
 10
48.29472655042632
 20
-89.71131996455134
 30
0.0
 10
48.29472655042632
 20
-89.55525713906952
 30
0.0
 10
48.29472655042632
 20
-89.55525713906952
 30
0.0
 10
48.29472655042632
 20
-89.55525713906952
 30
0.0
 10
49.83899060168956
 20
-89.55525713906952
 30
0.0
 10
49.83899060168956
 20
-89.55525713906952
 30
0.0
 10
49.83899060168956
 20
-89.55525713906952
 30
0.0
 10
49.83899060168956
 20
-89.79503578484291
 30
0.0
 10
49.83899060168956
 20
-89.79503578484291
 30
0.0
  0
HATCH
  5
BE
330
B7
100
AcDbEntity
  8
_U+30EC_U+30A4_U+30E4_U+30FC 1
 62
   179
420
  2234388
100
AcDbHatch
 10
0.0
 20
0.0
 30
0.0
210
0.0
220
0.0
230
1.0
  2
SOLID
 70
     1
 71
     0
 91
        1
 92
        1
 93
        1
 72
     4
 94
        3
 73
     0
 74
     1
 95
       26
 96
       22
 40
0.0
 40
0.0
 40
0.0
 40
0.0
 40
1.0
 40
1.0
 40
1.0
 40
2.0
 40
2.0
 40
2.0
 40
3.0
 40
3.0
 40
3.0
 40
4.0
 40
4.0
 40
4.0
 40
5.0
 40
5.0
 40
5.0
 40
6.0
 40
6.0
 40
6.0
 40
7.0
 40
7.0
 40
7.0
 40
7.0
 10
49.83899060168956
 20
-89.79503578484291
 10
49.83899060168956
 20
-89.79503578484291
 10
48.73466524389273
 20
-89.79503578484291
 10
48.73466524389273
 20
-89.79503578484291
 10
48.73466524389273
 20
-89.79503578484291
 10
48.73466524389273
 20
-90.14746905298396
 10
48.73466524389273
 20
-90.14746905298396
 10
48.73466524389273
 20
-90.14746905298396
 10
48.58669839280125
 20
-90.14746905298396
 10
48.58669839280125
 20
-90.14746905298396
 10
48.57188448221467
 20
-89.79262421800324
 10
48.40893146576235
 20
-89.74301484301564
 10
48.29472655042632
 20
-89.71131996455134
 10
48.29472655042632
 20
-89.71131996455134
 10
48.29472655042632
 20
-89.55525713906952
 10
48.29472655042632
 20
-89.55525713906952
 10
48.29472655042632
 20
-89.55525713906952
 10
49.83899060168956
 20
-89.55525713906952
 10
49.83899060168956
 20
-89.55525713906952
 10
49.83899060168956
 20
-89.55525713906952
 10
49.83899060168956
 20
-89.79503578484291
 10
49.83899060168956
 20
-89.79503578484291
 97
        0
 97
        0
 75
     2
 76
     1
 98
        0
  0
POLYLINE
  5
BF
330
B7
100
AcDbEntity
  8
_U+30EC_U+30A4_U+30E4_U+30FC 1
370
     0
100
AcDb2dPolyline
 66
     1
 10
0.0
 20
0.0
 30
0.0
  0
VERTEX
  5
C0
330
BF
100
AcDbEntity
  8
_U+30EC_U+30A4_U+30E4_U+30FC 1
370
     0
100
AcDbVertex
100
AcDb2dVertex
 10
49.83899060168956
 20
-88.95546601508752
 30
0.0
  0
VERTEX
  5
C1
330
BF
100
AcDbEntity
  8
_U+30EC_U+30A4_U+30E4_U+30FC 1
370
     0
100
AcDbVertex
100
AcDb2dVertex
 10
49.58732637649206
 20
-88.95546601508752
 30
0.0
  0
VERTEX
  5
C2
330
BF
100
AcDbEntity
  8
_U+30EC_U+30A4_U+30E4_U+30FC 1
370
     0
100
AcDbVertex
100
AcDb2dVertex
 10
49.58732637649206
 20
-88.68640405768951
 30
0.0
  0
VERTEX
  5
C3
330
BF
100
AcDbEntity
  8
_U+30EC_U+30A4_U+30E4_U+30FC 1
370
     0
100
AcDbVertex
100
AcDb2dVertex
 10
49.83899060168956
 20
-88.68640405768951
 30
0.0
  0
VERTEX
  5
C4
330
BF
100
AcDbEntity
  8
_U+30EC_U+30A4_U+30E4_U+30FC 1
370
     0
100
AcDbVertex
100
AcDb2dVertex
 10
49.83899060168956
 20
-88.95546601508752
 30
0.0
  0
SEQEND
  5
C5
330
BF
100
AcDbEntity
  8
_U+30EC_U+30A4_U+30E4_U+30FC 1
370
     0
  0
HATCH
  5
C6
330
B7
100
AcDbEntity
  8
_U+30EC_U+30A4_U+30E4_U+30FC 1
 62
   179
420
  2234388
100
AcDbHatch
 10
0.0
 20
0.0
 30
0.0
210
0.0
220
0.0
230
1.0
  2
SOLID
 70
     1
 71
     0
 91
        1
 92
        1
 93
        4
 72
     1
 10
49.83899060168956
 20
-88.95546601508752
 11
49.58732637649206
 21
-88.95546601508752
 72
     1
 10
49.58732637649206
 20
-88.95546601508752
 11
49.58732637649206
 21
-88.68640405768951
 72
     1
 10
49.58732637649206
 20
-88.68640405768951
 11
49.83899060168956
 21
-88.68640405768951
 72
     1
 10
49.83899060168956
 20
-88.68640405768951
 11
49.83899060168956
 21
-88.95546601508752
 97
        0
 75
     2
 76
     1
 98
        0
  0
SPLINE
  5
C7
330
B7
100
AcDbEntity
  8
_U+30EC_U+30A4_U+30E4_U+30FC 1
370
     0
100
AcDbSpline
210
0.0
220
0.0
230
1.0
 70
    11
 71
     3
 72
    26
 73
    22
 74
     0
 42
0.0000000001
 43
0.0000000001
 12
1.0
 22
0.0
 32
0.0
 13
1.0
 23
0.0
 33
0.0
 40
0.0
 40
0.0
 40
0.0
 40
0.0
 40
1.0
 40
1.0
 40
1.0
 40
2.0
 40
2.0
 40
2.0
 40
3.0
 40
3.0
 40
3.0
 40
4.0
 40
4.0
 40
4.0
 40
5.0
 40
5.0
 40
5.0
 40
6.0
 40
6.0
 40
6.0
 40
7.0
 40
7.0
 40
7.0
 40
7.0
 10
49.83899060168956
 20
-87.9939398651543
 30
0.0
 10
49.83899060168956
 20
-87.9939398651543
 30
0.0
 10
49.83899060168956
 20
-88.24715438332017
 30
0.0
 10
49.83899060168956
 20
-88.24715438332017
 30
0.0
 10
49.53013779143691
 20
-88.21993812898668
 30
0.0
 10
49.01182317568107
 20
-88.01426592851728
 30
0.0
 10
48.50625541322066
 20
-87.58018389737579
 30
0.0
 10
48.50625541322066
 20
-87.58018389737579
 30
0.0
 10
48.50625541322066
 20
-88.47556421399223
 30
0.0
 10
48.50625541322066
 20
-88.47556421399223
 30
0.0
 10
48.50625541322066
 20
-88.47556421399223
 30
0.0
 10
48.29472655042632
 20
-88.47556421399223
 30
0.0
 10
48.29472655042632
 20
-88.47556421399223
 30
0.0
 10
48.29472655042632
 20
-88.47556421399223
 30
0.0
 10
48.29472655042632
 20
-87.32696937920993
 30
0.0
 10
48.29472655042632
 20
-87.32696937920993
 30
0.0
 10
48.29472655042632
 20
-87.32696937920993
 30
0.0
 10
48.50625541322066
 20
-87.32696937920993
 30
0.0
 10
48.50625541322066
 20
-87.32696937920993
 30
0.0
 10
48.79598794353017
 20
-87.67285696592901
 30
0.0
 10
49.38837211221888
 20
-87.95776636255917
 30
0.0
 10
49.83899060168956
 20
-87.9939398651543
 30
0.0
  0
HATCH
  5
C8
330
B7
100
AcDbEntity
  8
_U+30EC_U+30A4_U+30E4_U+30FC 1
 62
   179
420
  2234388
100
AcDbHatch
 10
0.0
 20
0.0
 30
0.0
210
0.0
220
0.0
230
1.0
  2
SOLID
 70
     1
 71
     0
 91
        1
 92
        1
 93
        1
 72
     4
 94
        3
 73
     0
 74
     1
 95
       26
 96
       22
 40
0.0
 40
0.0
 40
0.0
 40
0.0
 40
1.0
 40
1.0
 40
1.0
 40
2.0
 40
2.0
 40
2.0
 40
3.0
 40
3.0
 40
3.0
 40
4.0
 40
4.0
 40
4.0
 40
5.0
 40
5.0
 40
5.0
 40
6.0
 40
6.0
 40
6.0
 40
7.0
 40
7.0
 40
7.0
 40
7.0
 10
49.83899060168956
 20
-87.9939398651543
 10
49.83899060168956
 20
-87.9939398651543
 10
49.83899060168956
 20
-88.24715438332017
 10
49.83899060168956
 20
-88.24715438332017
 10
49.53013779143691
 20
-88.21993812898668
 10
49.01182317568107
 20
-88.01426592851728
 10
48.50625541322066
 20
-87.58018389737579
 10
48.50625541322066
 20
-87.58018389737579
 10
48.50625541322066
 20
-88.47556421399223
 10
48.50625541322066
 20
-88.47556421399223
 10
48.50625541322066
 20
-88.47556421399223
 10
48.29472655042632
 20
-88.47556421399223
 10
48.29472655042632
 20
-88.47556421399223
 10
48.29472655042632
 20
-88.47556421399223
 10
48.29472655042632
 20
-87.32696937920993
 10
48.29472655042632
 20
-87.32696937920993
 10
48.29472655042632
 20
-87.32696937920993
 10
48.50625541322066
 20
-87.32696937920993
 10
48.50625541322066
 20
-87.32696937920993
 10
48.79598794353017
 20
-87.67285696592901
 10
49.38837211221888
 20
-87.95776636255917
 10
49.83899060168956
 20
-87.9939398651543
 97
        0
 97
        0
 75
     2
 76
     1
 98
        0
  0
ENDBLK
  5
BA
330
B7
100
AcDbEntity
  8
0
100
AcDbBlockEnd
  0
BLOCK
  5
D3
330
D1
100
AcDbEntity
  8
0
100
AcDbBlockBegin
  2
block 6
 70
     0
 10
0.0
 20
0.0
 30
0.0
  3
block 6
  1

  0
SPLINE
  5
D5
330
D1
100
AcDbEntity
  8
_U+30EC_U+30A4_U+30E4_U+30FC 1
370
     0
100
AcDbSpline
210
0.0
220
0.0
230
1.0
 70
    11
 71
     3
 72
    32
 73
    28
 74
     0
 42
0.0000000001
 43
0.0000000001
 12
1.0
 22
0.0
 32
0.0
 13
1.0
 23
0.0
 33
0.0
 40
0.0
 40
0.0
 40
0.0
 40
0.0
 40
1.0
 40
1.0
 40
1.0
 40
2.0
 40
2.0
 40
2.0
 40
3.0
 40
3.0
 40
3.0
 40
4.0
 40
4.0
 40
4.0
 40
5.0
 40
5.0
 40
5.0
 40
6.0
 40
6.0
 40
6.0
 40
7.0
 40
7.0
 40
7.0
 40
8.0
 40
8.0
 40
8.0
 40
9.0
 40
9.0
 40
9.0
 40
9.0
 10
77.88947480691652
 20
-90.52815210410408
 30
0.0
 10
77.88947480691652
 20
-90.71349824121052
 30
0.0
 10
77.81988387811448
 20
-90.97567000763803
 30
0.0
 10
77.4877766733364
 20
-91.01632213436397
 30
0.0
 10
77.4877766733364
 20
-91.01632213436397
 30
0.0
 10
77.4877766733364
 20
-90.78825681324044
 30
0.0
 10
77.4877766733364
 20
-90.78825681324044
 30
0.0
 10
77.54703231568269
 20
-90.77688799813912
 30
0.0
 10
77.69482691199991
 20
-90.74278155283514
 30
0.0
 10
77.69482691199991
 20
-90.5257405372644
 30
0.0
 10
77.69482691199991
 20
-90.21395939584929
 30
0.0
 10
77.3651312740615
 20
-90.17330726912334
 30
0.0
 10
77.15980358314062
 20
-90.15952688718234
 30
0.0
 10
77.24007430794693
 20
-90.25667857986639
 30
0.0
 10
77.29726289300207
 20
-90.32902558505664
 30
0.0
 10
77.29726289300207
 20
-90.52367347997325
 30
0.0
 10
77.29726289300207
 20
-90.7159098080502
 30
0.0
 10
77.19149846160491
 20
-91.03905976456663
 30
0.0
 10
76.78532170389396
 20
-91.03905976456663
 30
0.0
 10
76.46596135241128
 20
-91.03905976456663
 30
0.0
 10
76.24581975090382
 20
-90.82649737312671
 30
0.0
 10
76.24581975090382
 20
-90.48749997737814
 30
0.0
 10
76.24581975090382
 20
-89.93800724748078
 30
0.0
 10
76.80013561448052
 20
-89.92663843237946
 30
0.0
 10
77.01373153456602
 20
-89.92663843237946
 30
0.0
 10
77.24420842252923
 20
-89.92663843237946
 30
0.0
 10
77.88947480691652
 20
-89.94696449574244
 30
0.0
 10
77.88947480691652
 20
-90.52815210410408
 30
0.0
  0
SPLINE
  5
D6
330
D1
100
AcDbEntity
  8
_U+30EC_U+30A4_U+30E4_U+30FC 1
370
     0
100
AcDbSpline
210
0.0
220
0.0
230
1.0
 70
    11
 71
     3
 72
    17
 73
    13
 74
     0
 42
0.0000000001
 43
0.0000000001
 12
1.0
 22
0.0
 32
0.0
 13
1.0
 23
0.0
 33
0.0
 40
0.0
 40
0.0
 40
0.0
 40
0.0
 40
1.0
 40
1.0
 40
1.0
 40
2.0
 40
2.0
 40
2.0
 40
3.0
 40
3.0
 40
3.0
 40
4.0
 40
4.0
 40
4.0
 40
4.0
 10
76.43840058852929
 20
-90.48508841053845
 30
0.0
 10
76.43840058852929
 20
-90.61186792439565
 30
0.0
 10
76.49558917358443
 20
-90.79928111879325
 30
0.0
 10
76.78118758931166
 20
-90.79928111879325
 30
0.0
 10
77.00753036269256
 20
-90.79928111879325
 30
0.0
 10
77.10261499808546
 20
-90.65010848428192
 30
0.0
 10
77.10261499808546
 20
-90.50541447390142
 30
0.0
 10
77.10261499808546
 20
-90.2249837014021
 30
0.0
 10
76.89315319258228
 20
-90.18433157467615
 30
0.0
 10
76.77670896518083
 20
-90.18433157467615
 30
0.0
 10
76.60135360498161
 20
-90.18433157467615
 30
0.0
 10
76.43840058852929
 20
-90.28630640103954
 30
0.0
 10
76.43840058852929
 20
-90.48508841053845
 30
0.0
  0
HATCH
  5
D7
330
D1
100
AcDbEntity
  8
_U+30EC_U+30A4_U+30E4_U+30FC 1
 62
   179
420
  2234388
100
AcDbHatch
 10
0.0
 20
0.0
 30
0.0
210
0.0
220
0.0
230
1.0
  2
SOLID
 70
     1
 71
     0
 91
        2
 92
        1
 93
        1
 72
     4
 94
        3
 73
     0
 74
     1
 95
       32
 96
       28
 40
0.0
 40
0.0
 40
0.0
 40
0.0
 40
1.0
 40
1.0
 40
1.0
 40
2.0
 40
2.0
 40
2.0
 40
3.0
 40
3.0
 40
3.0
 40
4.0
 40
4.0
 40
4.0
 40
5.0
 40
5.0
 40
5.0
 40
6.0
 40
6.0
 40
6.0
 40
7.0
 40
7.0
 40
7.0
 40
8.0
 40
8.0
 40
8.0
 40
9.0
 40
9.0
 40
9.0
 40
9.0
 10
77.88947480691652
 20
-90.52815210410408
 10
77.88947480691652
 20
-90.71349824121052
 10
77.81988387811448
 20
-90.97567000763803
 10
77.4877766733364
 20
-91.01632213436397
 10
77.4877766733364
 20
-91.01632213436397
 10
77.4877766733364
 20
-90.78825681324044
 10
77.4877766733364
 20
-90.78825681324044
 10
77.54703231568269
 20
-90.77688799813912
 10
77.69482691199991
 20
-90.74278155283514
 10
77.69482691199991
 20
-90.5257405372644
 10
77.69482691199991
 20
-90.21395939584929
 10
77.3651312740615
 20
-90.17330726912334
 10
77.15980358314062
 20
-90.15952688718234
 10
77.24007430794693
 20
-90.25667857986639
 10
77.29726289300207
 20
-90.32902558505664
 10
77.29726289300207
 20
-90.52367347997325
 10
77.29726289300207
 20
-90.7159098080502
 10
77.19149846160491
 20
-91.03905976456663
 10
76.78532170389396
 20
-91.03905976456663
 10
76.46596135241128
 20
-91.03905976456663
 10
76.24581975090382
 20
-90.82649737312671
 10
76.24581975090382
 20
-90.48749997737814
 10
76.24581975090382
 20
-89.93800724748078
 10
76.80013561448052
 20
-89.92663843237946
 10
77.01373153456602
 20
-89.92663843237946
 10
77.24420842252923
 20
-89.92663843237946
 10
77.88947480691652
 20
-89.94696449574244
 10
77.88947480691652
 20
-90.52815210410408
 97
        0
 97
        0
 92
        1
 93
        1
 72
     4
 94
        3
 73
     0
 74
     1
 95
       17
 96
       13
 40
0.0
 40
0.0
 40
0.0
 40
0.0
 40
1.0
 40
1.0
 40
1.0
 40
2.0
 40
2.0
 40
2.0
 40
3.0
 40
3.0
 40
3.0
 40
4.0
 40
4.0
 40
4.0
 40
4.0
 10
76.43840058852929
 20
-90.48508841053845
 10
76.43840058852929
 20
-90.61186792439565
 10
76.49558917358443
 20
-90.79928111879325
 10
76.78118758931166
 20
-90.79928111879325
 10
77.00753036269256
 20
-90.79928111879325
 10
77.10261499808546
 20
-90.65010848428192
 10
77.10261499808546
 20
-90.50541447390142
 10
77.10261499808546
 20
-90.2249837014021
 10
76.89315319258228
 20
-90.18433157467615
 10
76.77670896518083
 20
-90.18433157467615
 10
76.60135360498161
 20
-90.18433157467615
 10
76.43840058852929
 20
-90.28630640103954
 10
76.43840058852929
 20
-90.48508841053845
 97
        0
 97
        0
 75
     2
 76
     1
 98
        0
  0
POLYLINE
  5
D8
330
D1
100
AcDbEntity
  8
_U+30EC_U+30A4_U+30E4_U+30FC 1
370
     0
100
AcDb2dPolyline
 66
     1
 10
0.0
 20
0.0
 30
0.0
  0
VERTEX
  5
D9
330
D8
100
AcDbEntity
  8
_U+30EC_U+30A4_U+30E4_U+30FC 1
370
     0
100
AcDbVertex
100
AcDb2dVertex
 10
77.83883190328335
 20
-89.69547252531919
 30
0.0
  0
VERTEX
  5
DA
330
D8
100
AcDbEntity
  8
_U+30EC_U+30A4_U+30E4_U+30FC 1
370
     0
100
AcDbVertex
100
AcDb2dVertex
 10
77.58699542331159
 20
-89.69547252531919
 30
0.0
  0
VERTEX
  5
DB
330
D8
100
AcDbEntity
  8
_U+30EC_U+30A4_U+30E4_U+30FC 1
370
     0
100
AcDbVertex
100
AcDb2dVertex
 10
77.58699542331159
 20
-89.42641056792118
 30
0.0
  0
VERTEX
  5
DC
330
D8
100
AcDbEntity
  8
_U+30EC_U+30A4_U+30E4_U+30FC 1
370
     0
100
AcDbVertex
100
AcDb2dVertex
 10
77.83883190328335
 20
-89.42641056792118
 30
0.0
  0
VERTEX
  5
DD
330
D8
100
AcDbEntity
  8
_U+30EC_U+30A4_U+30E4_U+30FC 1
370
     0
100
AcDbVertex
100
AcDb2dVertex
 10
77.83883190328335
 20
-89.69547252531919
 30
0.0
  0
SEQEND
  5
DE
330
D8
100
AcDbEntity
  8
_U+30EC_U+30A4_U+30E4_U+30FC 1
370
     0
  0
HATCH
  5
DF
330
D1
100
AcDbEntity
  8
_U+30EC_U+30A4_U+30E4_U+30FC 1
 62
   179
420
  2234388
100
AcDbHatch
 10
0.0
 20
0.0
 30
0.0
210
0.0
220
0.0
230
1.0
  2
SOLID
 70
     1
 71
     0
 91
        1
 92
        1
 93
        4
 72
     1
 10
77.83883190328335
 20
-89.69547252531919
 11
77.58699542331159
 21
-89.69547252531919
 72
     1
 10
77.58699542331159
 20
-89.69547252531919
 11
77.58699542331159
 21
-89.42641056792118
 72
     1
 10
77.58699542331159
 20
-89.42641056792118
 11
77.83883190328335
 21
-89.42641056792118
 72
     1
 10
77.83883190328335
 20
-89.42641056792118
 11
77.83883190328335
 21
-89.69547252531919
 97
        0
 75
     2
 76
     1
 98
        0
  0
SPLINE
  5
E0
330
D1
100
AcDbEntity
  8
_U+30EC_U+30A4_U+30E4_U+30FC 1
370
     0
100
AcDbSpline
210
0.0
220
0.0
230
1.0
 70
    11
 71
     3
 72
    26
 73
    22
 74
     0
 42
0.0000000001
 43
0.0000000001
 12
1.0
 22
0.0
 32
0.0
 13
1.0
 23
0.0
 33
0.0
 40
0.0
 40
0.0
 40
0.0
 40
0.0
 40
1.0
 40
1.0
 40
1.0
 40
2.0
 40
2.0
 40
2.0
 40
3.0
 40
3.0
 40
3.0
 40
4.0
 40
4.0
 40
4.0
 40
5.0
 40
5.0
 40
5.0
 40
6.0
 40
6.0
 40
6.0
 40
7.0
 40
7.0
 40
7.0
 40
7.0
 10
77.83883190328335
 20
-88.73394637538597
 30
0.0
 10
77.83883190328335
 20
-88.73394637538597
 30
0.0
 10
77.83883190328335
 20
-88.98716089355183
 30
0.0
 10
77.83883190328335
 20
-88.98716089355183
 30
0.0
 10
77.52980683825643
 20
-88.95994463921835
 30
0.0
 10
77.01166447727486
 20
-88.75427243874894
 30
0.0
 10
76.50592446004019
 20
-88.32019040760746
 30
0.0
 10
76.50592446004019
 20
-88.32019040760746
 30
0.0
 10
76.50592446004019
 20
-89.2155707242239
 30
0.0
 10
76.50592446004019
 20
-89.2155707242239
 30
0.0
 10
76.50592446004019
 20
-89.2155707242239
 30
0.0
 10
76.29439559724585
 20
-89.2155707242239
 30
0.0
 10
76.29439559724585
 20
-89.2155707242239
 30
0.0
 10
76.29439559724585
 20
-89.2155707242239
 30
0.0
 10
76.29439559724585
 20
-88.0669758894416
 30
0.0
 10
76.29439559724585
 20
-88.0669758894416
 30
0.0
 10
76.29439559724585
 20
-88.0669758894416
 30
0.0
 10
76.50592446004019
 20
-88.0669758894416
 30
0.0
 10
76.50592446004019
 20
-88.0669758894416
 30
0.0
 10
76.79600149989822
 20
-88.41286347616068
 30
0.0
 10
77.38821341381268
 20
-88.69777287279084
 30
0.0
 10
77.83883190328335
 20
-88.73394637538597
 30
0.0
  0
HATCH
  5
E1
330
D1
100
AcDbEntity
  8
_U+30EC_U+30A4_U+30E4_U+30FC 1
 62
   179
420
  2234388
100
AcDbHatch
 10
0.0
 20
0.0
 30
0.0
210
0.0
220
0.0
230
1.0
  2
SOLID
 70
     1
 71
     0
 91
        1
 92
        1
 93
        1
 72
     4
 94
        3
 73
     0
 74
     1
 95
       26
 96
       22
 40
0.0
 40
0.0
 40
0.0
 40
0.0
 40
1.0
 40
1.0
 40
1.0
 40
2.0
 40
2.0
 40
2.0
 40
3.0
 40
3.0
 40
3.0
 40
4.0
 40
4.0
 40
4.0
 40
5.0
 40
5.0
 40
5.0
 40
6.0
 40
6.0
 40
6.0
 40
7.0
 40
7.0
 40
7.0
 40
7.0
 10
77.83883190328335
 20
-88.73394637538597
 10
77.83883190328335
 20
-88.73394637538597
 10
77.83883190328335
 20
-88.98716089355183
 10
77.83883190328335
 20
-88.98716089355183
 10
77.52980683825643
 20
-88.95994463921835
 10
77.01166447727486
 20
-88.75427243874894
 10
76.50592446004019
 20
-88.32019040760746
 10
76.50592446004019
 20
-88.32019040760746
 10
76.50592446004019
 20
-89.2155707242239
 10
76.50592446004019
 20
-89.2155707242239
 10
76.50592446004019
 20
-89.2155707242239
 10
76.29439559724585
 20
-89.2155707242239
 10
76.29439559724585
 20
-89.2155707242239
 10
76.29439559724585
 20
-89.2155707242239
 10
76.29439559724585
 20
-88.0669758894416
 10
76.29439559724585
 20
-88.0669758894416
 10
76.29439559724585
 20
-88.0669758894416
 10
76.50592446004019
 20
-88.0669758894416
 10
76.50592446004019
 20
-88.0669758894416
 10
76.79600149989822
 20
-88.41286347616068
 10
77.38821341381268
 20
-88.69777287279084
 10
77.83883190328335
 20
-88.73394637538597
 97
        0
 97
        0
 75
     2
 76
     1
 98
        0
  0
ENDBLK
  5
D4
330
D1
100
AcDbEntity
  8
0
100
AcDbBlockEnd
  0
ENDSEC
  0
SECTION
  2
ENTITIES
  0
POLYLINE
  5
41
330
1F
100
AcDbEntity
  8
_U+30EC_U+30A4_U+30E4_U+30FC 1
 62
   179
420
  2234388
370
    25
100
AcDb2dPolyline
 66
     1
 10
0.0
 20
0.0
 30
0.0
  0
VERTEX
  5
42
330
41
100
AcDbEntity
  8
_U+30EC_U+30A4_U+30E4_U+30FC 1
 62
   179
420
  2234388
370
    25
100
AcDbVertex
100
AcDb2dVertex
 10
54.43526777790728
 20
-83.85809997903534
 30
0.0
  0
VERTEX
  5
43
330
41
100
AcDbEntity
  8
_U+30EC_U+30A4_U+30E4_U+30FC 1
 62
   179
420
  2234388
370
    25
100
AcDbVertex
100
AcDb2dVertex
 10
74.43540553694656
 20
-83.85809997903534
 30
0.0
  0
SEQEND
  5
44
330
41
100
AcDbEntity
  8
_U+30EC_U+30A4_U+30E4_U+30FC 1
 62
   179
420
  2234388
370
    25
  0
POLYLINE
  5
45
330
1F
100
AcDbEntity
  8
_U+30EC_U+30A4_U+30E4_U+30FC 1
 62
   179
420
  2234388
370
    25
100
AcDb2dPolyline
 66
     1
 10
0.0
 20
0.0
 30
0.0
  0
VERTEX
  5
46
330
45
100
AcDbEntity
  8
_U+30EC_U+30A4_U+30E4_U+30FC 1
 62
   179
420
  2234388
370
    25
100
AcDbVertex
100
AcDb2dVertex
 10
54.43526777790728
 20
-83.85809997903534
 30
0.0
  0
VERTEX
  5
47
330
45
100
AcDbEntity
  8
_U+30EC_U+30A4_U+30E4_U+30FC 1
 62
   179
420
  2234388
370
    25
100
AcDbVertex
100
AcDb2dVertex
 10
54.43526777790728
 20
-95.55832775388812
 30
0.0
  0
SEQEND
  5
48
330
45
100
AcDbEntity
  8
_U+30EC_U+30A4_U+30E4_U+30FC 1
 62
   179
420
  2234388
370
    25
  0
POLYLINE
  5
49
330
1F
100
AcDbEntity
  8
_U+30EC_U+30A4_U+30E4_U+30FC 1
 62
   179
420
  2234388
370
    25
100
AcDb2dPolyline
 66
     1
 10
0.0
 20
0.0
 30
0.0
  0
VERTEX
  5
4A
330
49
100
AcDbEntity
  8
_U+30EC_U+30A4_U+30E4_U+30FC 1
 62
   179
420
  2234388
370
    25
100
AcDbVertex
100
AcDb2dVertex
 10
74.43540553694656
 20
-83.85809997903534
 30
0.0
  0
VERTEX
  5
4B
330
49
100
AcDbEntity
  8
_U+30EC_U+30A4_U+30E4_U+30FC 1
 62
   179
420
  2234388
370
    25
100
AcDbVertex
100
AcDb2dVertex
 10
74.43540553694656
 20
-84.8578722010079
 30
0.0
  0
SEQEND
  5
4C
330
49
100
AcDbEntity
  8
_U+30EC_U+30A4_U+30E4_U+30FC 1
 62
   179
420
  2234388
370
    25
  0
POLYLINE
  5
4D
330
1F
100
AcDbEntity
  8
_U+30EC_U+30A4_U+30E4_U+30FC 1
 62
   179
420
  2234388
370
    25
100
AcDb2dPolyline
 66
     1
 10
0.0
 20
0.0
 30
0.0
  0
VERTEX
  5
4E
330
4D
100
AcDbEntity
  8
_U+30EC_U+30A4_U+30E4_U+30FC 1
 62
   179
420
  2234388
370
    25
100
AcDbVertex
100
AcDb2dVertex
 10
55.43571025238387
 20
-84.8578722010079
 30
0.0
  0
VERTEX
  5
4F
330
4D
100
AcDbEntity
  8
_U+30EC_U+30A4_U+30E4_U+30FC 1
 62
   179
420
  2234388
370
    25
100
AcDbVertex
100
AcDb2dVertex
 10
74.43540553694656
 20
-84.8578722010079
 30
0.0
  0
SEQEND
  5
50
330
4D
100
AcDbEntity
  8
_U+30EC_U+30A4_U+30E4_U+30FC 1
 62
   179
420
  2234388
370
    25
  0
POLYLINE
  5
51
330
1F
100
AcDbEntity
  8
_U+30EC_U+30A4_U+30E4_U+30FC 1
 62
   179
420
  2234388
370
    25
100
AcDb2dPolyline
 66
     1
 10
0.0
 20
0.0
 30
0.0
  0
VERTEX
  5
52
330
51
100
AcDbEntity
  8
_U+30EC_U+30A4_U+30E4_U+30FC 1
 62
   179
420
  2234388
370
    25
100
AcDbVertex
100
AcDb2dVertex
 10
60.43559429149287
 20
-94.55788525413823
 30
0.0
  0
VERTEX
  5
53
330
51
100
AcDbEntity
  8
_U+30EC_U+30A4_U+30E4_U+30FC 1
 62
   179
420
  2234388
370
    25
100
AcDbVertex
100
AcDb2dVertex
 10
60.43559429149287
 20
-95.55832775388812
 30
0.0
  0
SEQEND
  5
54
330
51
100
AcDbEntity
  8
_U+30EC_U+30A4_U+30E4_U+30FC 1
 62
   179
420
  2234388
370
    25
  0
POLYLINE
  5
55
330
1F
100
AcDbEntity
  8
_U+30EC_U+30A4_U+30E4_U+30FC 1
 62
   179
420
  2234388
370
    25
100
AcDb2dPolyline
 66
     1
 10
0.0
 20
0.0
 30
0.0
  0
VERTEX
  5
56
330
55
100
AcDbEntity
  8
_U+30EC_U+30A4_U+30E4_U+30FC 1
 62
   179
420
  2234388
370
    25
100
AcDbVertex
100
AcDb2dVertex
 10
55.43571025238387
 20
-94.55788525413823
 30
0.0
  0
VERTEX
  5
57
330
55
100
AcDbEntity
  8
_U+30EC_U+30A4_U+30E4_U+30FC 1
 62
   179
420
  2234388
370
    25
100
AcDbVertex
100
AcDb2dVertex
 10
60.43559429149287
 20
-94.55788525413823
 30
0.0
  0
SEQEND
  5
58
330
55
100
AcDbEntity
  8
_U+30EC_U+30A4_U+30E4_U+30FC 1
 62
   179
420
  2234388
370
    25
  0
POLYLINE
  5
59
330
1F
100
AcDbEntity
  8
_U+30EC_U+30A4_U+30E4_U+30FC 1
 62
   179
420
  2234388
370
    25
100
AcDb2dPolyline
 66
     1
 10
0.0
 20
0.0
 30
0.0
  0
VERTEX
  5
5A
330
59
100
AcDbEntity
  8
_U+30EC_U+30A4_U+30E4_U+30FC 1
 62
   179
420
  2234388
370
    25
100
AcDbVertex
100
AcDb2dVertex
 10
55.43571025238387
 20
-84.8578722010079
 30
0.0
  0
VERTEX
  5
5B
330
59
100
AcDbEntity
  8
_U+30EC_U+30A4_U+30E4_U+30FC 1
 62
   179
420
  2234388
370
    25
100
AcDbVertex
100
AcDb2dVertex
 10
55.43571025238387
 20
-94.55788525413823
 30
0.0
  0
SEQEND
  5
5C
330
59
100
AcDbEntity
  8
_U+30EC_U+30A4_U+30E4_U+30FC 1
 62
   179
420
  2234388
370
    25
  0
POLYLINE
  5
5D
330
1F
100
AcDbEntity
  8
_U+30EC_U+30A4_U+30E4_U+30FC 1
 62
   179
420
  2234388
370
    25
100
AcDb2dPolyline
 66
     1
 10
0.0
 20
0.0
 30
0.0
  0
VERTEX
  5
5E
330
5D
100
AcDbEntity
  8
_U+30EC_U+30A4_U+30E4_U+30FC 1
 62
   179
420
  2234388
370
    25
100
AcDbVertex
100
AcDb2dVertex
 10
54.43526777790728
 20
-95.55832775388812
 30
0.0
  0
VERTEX
  5
5F
330
5D
100
AcDbEntity
  8
_U+30EC_U+30A4_U+30E4_U+30FC 1
 62
   179
420
  2234388
370
    25
100
AcDbVertex
100
AcDb2dVertex
 10
60.43559429149287
 20
-95.55832775388812
 30
0.0
  0
SEQEND
  5
60
330
5D
100
AcDbEntity
  8
_U+30EC_U+30A4_U+30E4_U+30FC 1
 62
   179
420
  2234388
370
    25
  0
SPLINE
  5
61
330
1F
100
AcDbEntity
  8
_U+30EC_U+30A4_U+30E4_U+30FC 1
 62
   179
420
  2234388
370
     9
100
AcDbSpline
210
0.0
220
0.0
230
1.0
 70
    11
 71
     3
 72
    17
 73
    13
 74
     0
 42
0.0000000001
 43
0.0000000001
 12
1.0
 22
0.0
 32
0.0
 13
1.0
 23
0.0
 33
0.0
 40
0.0
 40
0.0
 40
0.0
 40
0.0
 40
1.0
 40
1.0
 40
1.0
 40
2.0
 40
2.0
 40
2.0
 40
3.0
 40
3.0
 40
3.0
 40
4.0
 40
4.0
 40
4.0
 40
4.0
 10
54.53517444202512
 20
-79.8576705355911
 30
0.0
 10
54.53517444202512
 20
-79.80253136893835
 30
0.0
 10
54.49037166539036
 20
-79.75776386894947
 30
0.0
 10
54.43526777790728
 20
-79.75776386894947
 30
0.0
 10
54.38012861264734
 20
-79.75776386894947
 30
0.0
 10
54.33536111378945
 20
-79.80253136893835
 30
0.0
 10
54.33536111378945
 20
-79.8576705355911
 30
0.0
 10
54.33536111378945
 20
-79.91347998002153
 30
0.0
 10
54.38012861264734
 20
-79.95824748001043
 30
0.0
 10
54.43526777790728
 20
-79.95824748001043
 30
0.0
 10
54.49037166539036
 20
-79.95824748001043
 30
0.0
 10
54.53517444202512
 20
-79.91347998002153
 30
0.0
 10
54.53517444202512
 20
-79.8576705355911
 30
0.0
  0
SPLINE
  5
62
330
1F
100
AcDbEntity
  8
_U+30EC_U+30A4_U+30E4_U+30FC 1
 62
   179
420
  2234388
370
     9
100
AcDbSpline
210
0.0
220
0.0
230
1.0
 70
    11
 71
     3
 72
    17
 73
    13
 74
     0
 42
0.0000000001
 43
0.0000000001
 12
1.0
 22
0.0
 32
0.0
 13
1.0
 23
0.0
 33
0.0
 40
0.0
 40
0.0
 40
0.0
 40
0.0
 40
1.0
 40
1.0
 40
1.0
 40
2.0
 40
2.0
 40
2.0
 40
3.0
 40
3.0
 40
3.0
 40
4.0
 40
4.0
 40
4.0
 40
4.0
 10
74.53534559844492
 20
-79.8576705355911
 30
0.0
 10
74.53534559844492
 20
-79.80253136893835
 30
0.0
 10
74.49054282181015
 20
-79.75776386894947
 30
0.0
 10
74.43540553694656
 20
-79.75776386894947
 30
0.0
 10
74.38029976906714
 20
-79.75776386894947
 30
0.0
 10
74.33549699243237
 20
-79.80253136893835
 30
0.0
 10
74.33549699243237
 20
-79.8576705355911
 30
0.0
 10
74.33549699243237
 20
-79.91347998002153
 30
0.0
 10
74.38029976906714
 20
-79.95824748001043
 30
0.0
 10
74.43540553694656
 20
-79.95824748001043
 30
0.0
 10
74.49054282181015
 20
-79.95824748001043
 30
0.0
 10
74.53534559844492
 20
-79.91347998002153
 30
0.0
 10
74.53534559844492
 20
-79.8576705355911
 30
0.0
  0
SPLINE
  5
63
330
1F
100
AcDbEntity
  8
_U+30EC_U+30A4_U+30E4_U+30FC 1
 62
   179
420
  2234388
370
     9
100
AcDbSpline
210
0.0
220
0.0
230
1.0
 70
    11
 71
     3
 72
    17
 73
    13
 74
     0
 42
0.0000000001
 43
0.0000000001
 12
1.0
 22
0.0
 32
0.0
 13
1.0
 23
0.0
 33
0.0
 40
0.0
 40
0.0
 40
0.0
 40
0.0
 40
1.0
 40
1.0
 40
1.0
 40
2.0
 40
2.0
 40
2.0
 40
3.0
 40
3.0
 40
3.0
 40
4.0
 40
4.0
 40
4.0
 40
4.0
 10
78.53577494082991
 20
-83.85809997903534
 30
0.0
 10
78.53577494082991
 20
-83.80299609016043
 30
0.0
 10
78.49097216419514
 20
-83.75819331239371
 30
0.0
 10
78.43586827671207
 20
-83.75819331239371
 30
0.0
 10
78.38005883369144
 20
-83.75819331239371
 30
0.0
 10
78.33525605705668
 20
-83.80299609016043
 30
0.0
 10
78.33525605705668
 20
-83.85809997903534
 30
0.0
 10
78.33525605705668
 20
-83.91323914568842
 30
0.0
 10
78.38005883369144
 20
-83.9580066456773
 30
0.0
 10
78.43586827671207
 20
-83.9580066456773
 30
0.0
 10
78.49097216419514
 20
-83.9580066456773
 30
0.0
 10
78.53577494082991
 20
-83.91323914568842
 30
0.0
 10
78.53577494082991
 20
-83.85809997903534
 30
0.0
  0
SPLINE
  5
64
330
1F
100
AcDbEntity
  8
_U+30EC_U+30A4_U+30E4_U+30FC 1
 62
   179
420
  2234388
370
     9
100
AcDbSpline
210
0.0
220
0.0
230
1.0
 70
    11
 71
     3
 72
    17
 73
    13
 74
     0
 42
0.0000000001
 43
0.0000000001
 12
1.0
 22
0.0
 32
0.0
 13
1.0
 23
0.0
 33
0.0
 40
0.0
 40
0.0
 40
0.0
 40
0.0
 40
1.0
 40
1.0
 40
1.0
 40
2.0
 40
2.0
 40
2.0
 40
3.0
 40
3.0
 40
3.0
 40
4.0
 40
4.0
 40
4.0
 40
4.0
 10
78.53577494082991
 20
-84.8578722010079
 30
0.0
 10
78.53577494082991
 20
-84.80273303435482
 30
0.0
 10
78.49097216419514
 20
-84.75796553436594
 30
0.0
 10
78.43586827671207
 20
-84.75796553436594
 30
0.0
 10
78.38005883369144
 20
-84.75796553436594
 30
0.0
 10
78.33525605705668
 20
-84.80273303435482
 30
0.0
 10
78.33525605705668
 20
-84.8578722010079
 30
0.0
 10
78.33525605705668
 20
-84.9129760898828
 30
0.0
 10
78.38005883369144
 20
-84.95777886764952
 30
0.0
 10
78.43586827671207
 20
-84.95777886764952
 30
0.0
 10
78.49097216419514
 20
-84.95777886764952
 30
0.0
 10
78.53577494082991
 20
-84.9129760898828
 30
0.0
 10
78.53577494082991
 20
-84.8578722010079
 30
0.0
  0
SPLINE
  5
65
330
1F
100
AcDbEntity
  8
_U+30EC_U+30A4_U+30E4_U+30FC 1
 62
   179
420
  2234388
370
     9
100
AcDbSpline
210
0.0
220
0.0
230
1.0
 70
    11
 71
     3
 72
    17
 73
    13
 74
     0
 42
0.0000000001
 43
0.0000000001
 12
1.0
 22
0.0
 32
0.0
 13
1.0
 23
0.0
 33
0.0
 40
0.0
 40
0.0
 40
0.0
 40
0.0
 40
1.0
 40
1.0
 40
1.0
 40
2.0
 40
2.0
 40
2.0
 40
3.0
 40
3.0
 40
3.0
 40
4.0
 40
4.0
 40
4.0
 40
4.0
 10
78.53577494082991
 20
-94.55788525413823
 30
0.0
 10
78.53577494082991
 20
-94.50274608748515
 30
0.0
 10
78.49097216419514
 20
-94.45797858749658
 30
0.0
 10
78.43586827671207
 20
-94.45797858749658
 30
0.0
 10
78.38005883369144
 20
-94.45797858749658
 30
0.0
 10
78.33525605705668
 20
-94.50274608748515
 30
0.0
 10
78.33525605705668
 20
-94.55788525413823
 30
0.0
 10
78.33525605705668
 20
-94.61298914301314
 30
0.0
 10
78.38005883369144
 20
-94.65779192077986
 30
0.0
 10
78.43586827671207
 20
-94.65779192077986
 30
0.0
 10
78.49097216419514
 20
-94.65779192077986
 30
0.0
 10
78.53577494082991
 20
-94.61298914301314
 30
0.0
 10
78.53577494082991
 20
-94.55788525413823
 30
0.0
  0
SPLINE
  5
66
330
1F
100
AcDbEntity
  8
_U+30EC_U+30A4_U+30E4_U+30FC 1
 62
   179
420
  2234388
370
     9
100
AcDbSpline
210
0.0
220
0.0
230
1.0
 70
    11
 71
     3
 72
    17
 73
    13
 74
     0
 42
0.0000000001
 43
0.0000000001
 12
1.0
 22
0.0
 32
0.0
 13
1.0
 23
0.0
 33
0.0
 40
0.0
 40
0.0
 40
0.0
 40
0.0
 40
1.0
 40
1.0
 40
1.0
 40
2.0
 40
2.0
 40
2.0
 40
3.0
 40
3.0
 40
3.0
 40
4.0
 40
4.0
 40
4.0
 40
4.0
 10
50.53541665403282
 20
-95.55832775388812
 30
0.0
 10
50.53541665403282
 20
-95.50251830945768
 30
0.0
 10
50.4906138762661
 20
-95.45775080946913
 30
0.0
 10
50.43550871328298
 20
-95.45775080946913
 30
0.0
 10
50.38036954802303
 20
-95.45775080946913
 30
0.0
 10
50.33560204916514
 20
-95.50251830945768
 30
0.0
 10
50.33560204916514
 20
-95.55832775388812
 30
0.0
 10
50.33560204916514
 20
-95.6134669205412
 30
0.0
 10
50.38036954802303
 20
-95.65823442052977
 30
0.0
 10
50.43550871328298
 20
-95.65823442052977
 30
0.0
 10
50.4906138762661
 20
-95.65823442052977
 30
0.0
 10
50.53541665403282
 20
-95.6134669205412
 30
0.0
 10
50.53541665403282
 20
-95.55832775388812
 30
0.0
  0
SPLINE
  5
67
330
1F
100
AcDbEntity
  8
_U+30EC_U+30A4_U+30E4_U+30FC 1
 62
   179
420
  2234388
370
     9
100
AcDbSpline
210
0.0
220
0.0
230
1.0
 70
    11
 71
     3
 72
    17
 73
    13
 74
     0
 42
0.0000000001
 43
0.0000000001
 12
1.0
 22
0.0
 32
0.0
 13
1.0
 23
0.0
 33
0.0
 40
0.0
 40
0.0
 40
0.0
 40
0.0
 40
1.0
 40
1.0
 40
1.0
 40
2.0
 40
2.0
 40
2.0
 40
3.0
 40
3.0
 40
3.0
 40
4.0
 40
4.0
 40
4.0
 40
4.0
 10
50.53541665403282
 20
-83.85809997903534
 30
0.0
 10
50.53541665403282
 20
-83.80299609016043
 30
0.0
 10
50.4906138762661
 20
-83.75819331239371
 30
0.0
 10
50.43550871328298
 20
-83.75819331239371
 30
0.0
 10
50.38036954802303
 20
-83.75819331239371
 30
0.0
 10
50.33560204916514
 20
-83.80299609016043
 30
0.0
 10
50.33560204916514
 20
-83.85809997903534
 30
0.0
 10
50.33560204916514
 20
-83.91323914568842
 30
0.0
 10
50.38036954802303
 20
-83.9580066456773
 30
0.0
 10
50.43550871328298
 20
-83.9580066456773
 30
0.0
 10
50.4906138762661
 20
-83.9580066456773
 30
0.0
 10
50.53541665403282
 20
-83.91323914568842
 30
0.0
 10
50.53541665403282
 20
-83.85809997903534
 30
0.0
  0
SPLINE
  5
68
330
1F
100
AcDbEntity
  8
_U+30EC_U+30A4_U+30E4_U+30FC 1
 62
   179
420
  2234388
370
     9
100
AcDbSpline
210
0.0
220
0.0
230
1.0
 70
    11
 71
     3
 72
    17
 73
    13
 74
     0
 42
0.0000000001
 43
0.0000000001
 12
1.0
 22
0.0
 32
0.0
 13
1.0
 23
0.0
 33
0.0
 40
0.0
 40
0.0
 40
0.0
 40
0.0
 40
1.0
 40
1.0
 40
1.0
 40
2.0
 40
2.0
 40
2.0
 40
3.0
 40
3.0
 40
3.0
 40
4.0
 40
4.0
 40
4.0
 40
4.0
 10
60.53550095561071
 20
-99.55808691955501
 30
0.0
 10
60.53550095561071
 20
-99.5029830306801
 30
0.0
 10
60.49069817897594
 20
-99.45818025291338
 30
0.0
 10
60.43559429149287
 20
-99.45818025291338
 30
0.0
 10
60.37978484847224
 20
-99.45818025291338
 30
0.0
 10
60.33568762737504
 20
-99.5029830306801
 30
0.0
 10
60.33568762737504
 20
-99.55808691955501
 30
0.0
 10
60.33568762737504
 20
-99.61322608620809
 30
0.0
 10
60.37978484847224
 20
-99.65799358619665
 30
0.0
 10
60.43559429149287
 20
-99.65799358619665
 30
0.0
 10
60.49069817897594
 20
-99.65799358619665
 30
0.0
 10
60.53550095561071
 20
-99.61322608620809
 30
0.0
 10
60.53550095561071
 20
-99.55808691955501
 30
0.0
  0
SPLINE
  5
69
330
1F
100
AcDbEntity
  8
_U+30EC_U+30A4_U+30E4_U+30FC 1
 62
   179
420
  2234388
370
     9
100
AcDbSpline
210
0.0
220
0.0
230
1.0
 70
    11
 71
     3
 72
    17
 73
    13
 74
     0
 42
0.0000000001
 43
0.0000000001
 12
1.0
 22
0.0
 32
0.0
 13
1.0
 23
0.0
 33
0.0
 40
0.0
 40
0.0
 40
0.0
 40
0.0
 40
1.0
 40
1.0
 40
1.0
 40
2.0
 40
2.0
 40
2.0
 40
3.0
 40
3.0
 40
3.0
 40
4.0
 40
4.0
 40
4.0
 40
4.0
 10
54.53517444202512
 20
-99.55808691955501
 30
0.0
 10
54.53517444202512
 20
-99.5029830306801
 30
0.0
 10
54.49037166539036
 20
-99.45818025291338
 30
0.0
 10
54.43526777790728
 20
-99.45818025291338
 30
0.0
 10
54.38012861264734
 20
-99.45818025291338
 30
0.0
 10
54.33536111378945
 20
-99.5029830306801
 30
0.0
 10
54.33536111378945
 20
-99.55808691955501
 30
0.0
 10
54.33536111378945
 20
-99.61322608620809
 30
0.0
 10
54.38012861264734
 20
-99.65799358619665
 30
0.0
 10
54.43526777790728
 20
-99.65799358619665
 30
0.0
 10
54.49037166539036
 20
-99.65799358619665
 30
0.0
 10
54.53517444202512
 20
-99.61322608620809
 30
0.0
 10
54.53517444202512
 20
-99.55808691955501
 30
0.0
  0
POLYLINE
  5
6A
330
1F
100
AcDbEntity
  8
_U+30EC_U+30A4_U+30E4_U+30FC 1
 62
   179
420
  2234388
370
     9
100
AcDb2dPolyline
 66
     1
 10
0.0
 20
0.0
 30
0.0
  0
VERTEX
  5
6B
330
6A
100
AcDbEntity
  8
_U+30EC_U+30A4_U+30E4_U+30FC 1
 62
   179
420
  2234388
370
     9
100
AcDbVertex
100
AcDb2dVertex
 10
78.43586827671207
 20
-83.85809997903534
 30
0.0
  0
VERTEX
  5
6C
330
6A
100
AcDbEntity
  8
_U+30EC_U+30A4_U+30E4_U+30FC 1
 62
   179
420
  2234388
370
     9
100
AcDbVertex
100
AcDb2dVertex
 10
78.43586827671207
 20
-80.08778747997792
 30
0.0
  0
SEQEND
  5
6D
330
6A
100
AcDbEntity
  8
_U+30EC_U+30A4_U+30E4_U+30FC 1
 62
   179
420
  2234388
370
     9
  0
POLYLINE
  5
6E
330
1F
100
AcDbEntity
  8
_U+30EC_U+30A4_U+30E4_U+30FC 1
 62
   179
420
  2234388
370
     9
100
AcDb2dPolyline
 66
     1
 10
0.0
 20
0.0
 30
0.0
  0
VERTEX
  5
6F
330
6E
100
AcDbEntity
  8
_U+30EC_U+30A4_U+30E4_U+30FC 1
 62
   179
420
  2234388
370
     9
100
AcDbVertex
100
AcDb2dVertex
 10
78.43586827671207
 20
-83.85809997903534
 30
0.0
  0
VERTEX
  5
70
330
6E
100
AcDbEntity
  8
_U+30EC_U+30A4_U+30E4_U+30FC 1
 62
   179
420
  2234388
370
     9
100
AcDbVertex
100
AcDb2dVertex
 10
78.43586827671207
 20
-84.8578722010079
 30
0.0
  0
SEQEND
  5
71
330
6E
100
AcDbEntity
  8
_U+30EC_U+30A4_U+30E4_U+30FC 1
 62
   179
420
  2234388
370
     9
  0
POLYLINE
  5
72
330
1F
100
AcDbEntity
  8
_U+30EC_U+30A4_U+30E4_U+30FC 1
 62
   179
420
  2234388
370
     9
100
AcDb2dPolyline
 66
     1
 10
0.0
 20
0.0
 30
0.0
  0
VERTEX
  5
73
330
72
100
AcDbEntity
  8
_U+30EC_U+30A4_U+30E4_U+30FC 1
 62
   179
420
  2234388
370
     9
100
AcDbVertex
100
AcDb2dVertex
 10
76.97582692507194
 20
-83.85809997903534
 30
0.0
  0
VERTEX
  5
74
330
72
100
AcDbEntity
  8
_U+30EC_U+30A4_U+30E4_U+30FC 1
 62
   179
420
  2234388
370
     9
100
AcDbVertex
100
AcDb2dVertex
 10
79.43564047342798
 20
-83.85809997903534
 30
0.0
  0
SEQEND
  5
75
330
72
100
AcDbEntity
  8
_U+30EC_U+30A4_U+30E4_U+30FC 1
 62
   179
420
  2234388
370
     9
  0
POLYLINE
  5
76
330
1F
100
AcDbEntity
  8
_U+30EC_U+30A4_U+30E4_U+30FC 1
 62
   179
420
  2234388
370
     9
100
AcDb2dPolyline
 66
     1
 10
0.0
 20
0.0
 30
0.0
  0
VERTEX
  5
77
330
76
100
AcDbEntity
  8
_U+30EC_U+30A4_U+30E4_U+30FC 1
 62
   179
420
  2234388
370
     9
100
AcDbVertex
100
AcDb2dVertex
 10
76.97582692507194
 20
-84.8578722010079
 30
0.0
  0
VERTEX
  5
78
330
76
100
AcDbEntity
  8
_U+30EC_U+30A4_U+30E4_U+30FC 1
 62
   179
420
  2234388
370
     9
100
AcDbVertex
100
AcDb2dVertex
 10
79.43564047342798
 20
-84.8578722010079
 30
0.0
  0
SEQEND
  5
79
330
76
100
AcDbEntity
  8
_U+30EC_U+30A4_U+30E4_U+30FC 1
 62
   179
420
  2234388
370
     9
  0
INSERT
  5
7B
330
1F
100
AcDbEntity
  8
_U+30EC_U+30A4_U+30E4_U+30FC 1
100
AcDbBlockReference
  2
block 2
 10
0.0
 20
0.0
 30
0.0
  0
POLYLINE
  5
80
330
1F
100
AcDbEntity
  8
_U+30EC_U+30A4_U+30E4_U+30FC 1
 62
   179
420
  2234388
370
     9
100
AcDb2dPolyline
 66
     1
 10
0.0
 20
0.0
 30
0.0
  0
VERTEX
  5
81
330
80
100
AcDbEntity
  8
_U+30EC_U+30A4_U+30E4_U+30FC 1
 62
   179
420
  2234388
370
     9
100
AcDbVertex
100
AcDb2dVertex
 10
54.43526777790728
 20
-99.55808691955501
 30
0.0
  0
VERTEX
  5
82
330
80
100
AcDbEntity
  8
_U+30EC_U+30A4_U+30E4_U+30FC 1
 62
   179
420
  2234388
370
     9
100
AcDbVertex
100
AcDb2dVertex
 10
60.43559429149287
 20
-99.55808691955501
 30
0.0
  0
SEQEND
  5
83
330
80
100
AcDbEntity
  8
_U+30EC_U+30A4_U+30E4_U+30FC 1
 62
   179
420
  2234388
370
     9
  0
POLYLINE
  5
84
330
1F
100
AcDbEntity
  8
_U+30EC_U+30A4_U+30E4_U+30FC 1
 62
   179
420
  2234388
370
     9
100
AcDb2dPolyline
 66
     1
 10
0.0
 20
0.0
 30
0.0
  0
VERTEX
  5
85
330
84
100
AcDbEntity
  8
_U+30EC_U+30A4_U+30E4_U+30FC 1
 62
   179
420
  2234388
370
     9
100
AcDbVertex
100
AcDb2dVertex
 10
60.55892539945754
 20
-99.55808691955501
 30
0.0
  0
VERTEX
  5
E2
330
84
100
AcDbEntity
  8
0
100
AcDbVertex
100
AcDb2dVertex
 10
60.55892539945754
 20
-99.55808691955501
 30
0.0
  0
SEQEND
  5
86
330
84
100
AcDbEntity
  8
_U+30EC_U+30A4_U+30E4_U+30FC 1
 62
   179
420
  2234388
370
     9
  0
POLYLINE
  5
87
330
1F
100
AcDbEntity
  8
_U+30EC_U+30A4_U+30E4_U+30FC 1
 62
   179
420
  2234388
370
     9
100
AcDb2dPolyline
 66
     1
 10
0.0
 20
0.0
 30
0.0
  0
VERTEX
  5
88
330
87
100
AcDbEntity
  8
_U+30EC_U+30A4_U+30E4_U+30FC 1
 62
   179
420
  2234388
370
     9
100
AcDbVertex
100
AcDb2dVertex
 10
54.43526777790728
 20
-98.0980455310313
 30
0.0
  0
VERTEX
  5
89
330
87
100
AcDbEntity
  8
_U+30EC_U+30A4_U+30E4_U+30FC 1
 62
   179
420
  2234388
370
     9
100
AcDbVertex
100
AcDb2dVertex
 10
54.43526777790728
 20
-100.5578591415269
 30
0.0
  0
SEQEND
  5
8A
330
87
100
AcDbEntity
  8
_U+30EC_U+30A4_U+30E4_U+30FC 1
 62
   179
420
  2234388
370
     9
  0
POLYLINE
  5
8B
330
1F
100
AcDbEntity
  8
_U+30EC_U+30A4_U+30E4_U+30FC 1
 62
   179
420
  2234388
370
     9
100
AcDb2dPolyline
 66
     1
 10
0.0
 20
0.0
 30
0.0
  0
VERTEX
  5
8C
330
8B
100
AcDbEntity
  8
_U+30EC_U+30A4_U+30E4_U+30FC 1
 62
   179
420
  2234388
370
     9
100
AcDbVertex
100
AcDb2dVertex
 10
60.43559429149287
 20
-98.0980455310313
 30
0.0
  0
VERTEX
  5
8D
330
8B
100
AcDbEntity
  8
_U+30EC_U+30A4_U+30E4_U+30FC 1
 62
   179
420
  2234388
370
     9
100
AcDbVertex
100
AcDb2dVertex
 10
60.43559429149287
 20
-100.5578591415269
 30
0.0
  0
SEQEND
  5
8E
330
8B
100
AcDbEntity
  8
_U+30EC_U+30A4_U+30E4_U+30FC 1
 62
   179
420
  2234388
370
     9
  0
INSERT
  5
90
330
1F
100
AcDbEntity
  8
_U+30EC_U+30A4_U+30E4_U+30FC 1
100
AcDbBlockReference
  2
block 3
 10
0.0
 20
0.0
 30
0.0
  0
POLYLINE
  5
96
330
1F
100
AcDbEntity
  8
_U+30EC_U+30A4_U+30E4_U+30FC 1
 62
   179
420
  2234388
370
     9
100
AcDb2dPolyline
 66
     1
 10
0.0
 20
0.0
 30
0.0
  0
VERTEX
  5
97
330
96
100
AcDbEntity
  8
_U+30EC_U+30A4_U+30E4_U+30FC 1
 62
   179
420
  2234388
370
     9
100
AcDbVertex
100
AcDb2dVertex
 10
54.43526777790728
 20
-79.8576705355911
 30
0.0
  0
VERTEX
  5
98
330
96
100
AcDbEntity
  8
_U+30EC_U+30A4_U+30E4_U+30FC 1
 62
   179
420
  2234388
370
     9
100
AcDbVertex
100
AcDb2dVertex
 10
74.43540553694656
 20
-79.8576705355911
 30
0.0
  0
SEQEND
  5
99
330
96
100
AcDbEntity
  8
_U+30EC_U+30A4_U+30E4_U+30FC 1
 62
   179
420
  2234388
370
     9
  0
POLYLINE
  5
9A
330
1F
100
AcDbEntity
  8
_U+30EC_U+30A4_U+30E4_U+30FC 1
 62
   179
420
  2234388
370
     9
100
AcDb2dPolyline
 66
     1
 10
0.0
 20
0.0
 30
0.0
  0
VERTEX
  5
9B
330
9A
100
AcDbEntity
  8
_U+30EC_U+30A4_U+30E4_U+30FC 1
 62
   179
420
  2234388
370
     9
100
AcDbVertex
100
AcDb2dVertex
 10
54.43526777790728
 20
-81.31767664633729
 30
0.0
  0
VERTEX
  5
9C
330
9A
100
AcDbEntity
  8
_U+30EC_U+30A4_U+30E4_U+30FC 1
 62
   179
420
  2234388
370
     9
100
AcDbVertex
100
AcDb2dVertex
 10
54.43526777790728
 20
-78.85789831361888
 30
0.0
  0
SEQEND
  5
9D
330
9A
100
AcDbEntity
  8
_U+30EC_U+30A4_U+30E4_U+30FC 1
 62
   179
420
  2234388
370
     9
  0
POLYLINE
  5
9E
330
1F
100
AcDbEntity
  8
_U+30EC_U+30A4_U+30E4_U+30FC 1
 62
   179
420
  2234388
370
     9
100
AcDb2dPolyline
 66
     1
 10
0.0
 20
0.0
 30
0.0
  0
VERTEX
  5
9F
330
9E
100
AcDbEntity
  8
_U+30EC_U+30A4_U+30E4_U+30FC 1
 62
   179
420
  2234388
370
     9
100
AcDbVertex
100
AcDb2dVertex
 10
74.43540553694656
 20
-81.31767664633729
 30
0.0
  0
VERTEX
  5
A0
330
9E
100
AcDbEntity
  8
_U+30EC_U+30A4_U+30E4_U+30FC 1
 62
   179
420
  2234388
370
     9
100
AcDbVertex
100
AcDb2dVertex
 10
74.43540553694656
 20
-78.85789831361888
 30
0.0
  0
SEQEND
  5
A1
330
9E
100
AcDbEntity
  8
_U+30EC_U+30A4_U+30E4_U+30FC 1
 62
   179
420
  2234388
370
     9
  0
INSERT
  5
A3
330
1F
100
AcDbEntity
  8
_U+30EC_U+30A4_U+30E4_U+30FC 1
100
AcDbBlockReference
  2
block 4
 10
0.0
 20
0.0
 30
0.0
  0
POLYLINE
  5
AB
330
1F
100
AcDbEntity
  8
_U+30EC_U+30A4_U+30E4_U+30FC 1
 62
   179
420
  2234388
370
     9
100
AcDb2dPolyline
 66
     1
 10
0.0
 20
0.0
 30
0.0
  0
VERTEX
  5
AC
330
AB
100
AcDbEntity
  8
_U+30EC_U+30A4_U+30E4_U+30FC 1
 62
   179
420
  2234388
370
     9
100
AcDbVertex
100
AcDb2dVertex
 10
50.43550871328298
 20
-83.85809997903534
 30
0.0
  0
VERTEX
  5
AD
330
AB
100
AcDbEntity
  8
_U+30EC_U+30A4_U+30E4_U+30FC 1
 62
   179
420
  2234388
370
     9
100
AcDbVertex
100
AcDb2dVertex
 10
50.43550871328298
 20
-95.55832775388812
 30
0.0
  0
SEQEND
  5
AE
330
AB
100
AcDbEntity
  8
_U+30EC_U+30A4_U+30E4_U+30FC 1
 62
   179
420
  2234388
370
     9
  0
POLYLINE
  5
AF
330
1F
100
AcDbEntity
  8
_U+30EC_U+30A4_U+30E4_U+30FC 1
 62
   179
420
  2234388
370
     9
100
AcDb2dPolyline
 66
     1
 10
0.0
 20
0.0
 30
0.0
  0
VERTEX
  5
B0
330
AF
100
AcDbEntity
  8
_U+30EC_U+30A4_U+30E4_U+30FC 1
 62
   179
420
  2234388
370
     9
100
AcDbVertex
100
AcDb2dVertex
 10
51.89555006492311
 20
-83.85809997903534
 30
0.0
  0
VERTEX
  5
B1
330
AF
100
AcDbEntity
  8
_U+30EC_U+30A4_U+30E4_U+30FC 1
 62
   179
420
  2234388
370
     9
100
AcDbVertex
100
AcDb2dVertex
 10
49.43573651656707
 20
-83.85809997903534
 30
0.0
  0
SEQEND
  5
B2
330
AF
100
AcDbEntity
  8
_U+30EC_U+30A4_U+30E4_U+30FC 1
 62
   179
420
  2234388
370
     9
  0
POLYLINE
  5
B3
330
1F
100
AcDbEntity
  8
_U+30EC_U+30A4_U+30E4_U+30FC 1
 62
   179
420
  2234388
370
     9
100
AcDb2dPolyline
 66
     1
 10
0.0
 20
0.0
 30
0.0
  0
VERTEX
  5
B4
330
B3
100
AcDbEntity
  8
_U+30EC_U+30A4_U+30E4_U+30FC 1
 62
   179
420
  2234388
370
     9
100
AcDbVertex
100
AcDb2dVertex
 10
51.89555006492311
 20
-95.55832775388812
 30
0.0
  0
VERTEX
  5
B5
330
B3
100
AcDbEntity
  8
_U+30EC_U+30A4_U+30E4_U+30FC 1
 62
   179
420
  2234388
370
     9
100
AcDbVertex
100
AcDb2dVertex
 10
49.43573651656707
 20
-95.55832775388812
 30
0.0
  0
SEQEND
  5
B6
330
B3
100
AcDbEntity
  8
_U+30EC_U+30A4_U+30E4_U+30FC 1
 62
   179
420
  2234388
370
     9
  0
INSERT
  5
B8
330
1F
100
AcDbEntity
  8
_U+30EC_U+30A4_U+30E4_U+30FC 1
100
AcDbBlockReference
  2
block 5
 10
0.0
 20
0.0
 30
0.0
  0
POLYLINE
  5
C9
330
1F
100
AcDbEntity
  8
_U+30EC_U+30A4_U+30E4_U+30FC 1
 62
   179
420
  2234388
370
     9
100
AcDb2dPolyline
 66
     1
 10
0.0
 20
0.0
 30
0.0
  0
VERTEX
  5
CA
330
C9
100
AcDbEntity
  8
_U+30EC_U+30A4_U+30E4_U+30FC 1
 62
   179
420
  2234388
370
     9
100
AcDbVertex
100
AcDb2dVertex
 10
78.43586827671207
 20
-84.8578722010079
 30
0.0
  0
VERTEX
  5
CB
330
C9
100
AcDbEntity
  8
_U+30EC_U+30A4_U+30E4_U+30FC 1
 62
   179
420
  2234388
370
     9
100
AcDbVertex
100
AcDb2dVertex
 10
78.43586827671207
 20
-94.55788525413823
 30
0.0
  0
SEQEND
  5
CC
330
C9
100
AcDbEntity
  8
_U+30EC_U+30A4_U+30E4_U+30FC 1
 62
   179
420
  2234388
370
     9
  0
POLYLINE
  5
CD
330
1F
100
AcDbEntity
  8
_U+30EC_U+30A4_U+30E4_U+30FC 1
 62
   179
420
  2234388
370
     9
100
AcDb2dPolyline
 66
     1
 10
0.0
 20
0.0
 30
0.0
  0
VERTEX
  5
CE
330
CD
100
AcDbEntity
  8
_U+30EC_U+30A4_U+30E4_U+30FC 1
 62
   179
420
  2234388
370
     9
100
AcDbVertex
100
AcDb2dVertex
 10
62.97531200447705
 20
-94.55788525413823
 30
0.0
  0
VERTEX
  5
CF
330
CD
100
AcDbEntity
  8
_U+30EC_U+30A4_U+30E4_U+30FC 1
 62
   179
420
  2234388
370
     9
100
AcDbVertex
100
AcDb2dVertex
 10
79.43564047342798
 20
-94.55788525413823
 30
0.0
  0
SEQEND
  5
D0
330
CD
100
AcDbEntity
  8
_U+30EC_U+30A4_U+30E4_U+30FC 1
 62
   179
420
  2234388
370
     9
  0
INSERT
  5
D2
330
1F
100
AcDbEntity
  8
_U+30EC_U+30A4_U+30E4_U+30FC 1
100
AcDbBlockReference
  2
block 6
 10
0.0
 20
0.0
 30
0.0
  0
ENDSEC
  0
SECTION
  2
OBJECTS
  0
DICTIONARY
  5
C
330
0
100
AcDbDictionary
281
     1
  3
ACAD_GROUP
350
D
  3
ACAD_LAYOUT
350
1A
  3
ACAD_MATERIAL
350
3B
  3
ACAD_MLEADERSTYLE
350
E4
  3
ACAD_MLINESTYLE
350
17
  3
ACAD_PLOTSETTINGS
350
19
  3
ACAD_PLOTSTYLENAME
350
E
  3
ACAD_TABLESTYLE
350
E3
  3
ACAD_VISUALSTYLE
350
2A
  0
SUN
  5
3F
330
29
100
AcDbSun
 90
        1
290
     0
 63
     7
421
 16777215
 40
1.0
291
     1
 91
  2455826
 92
 54000000
292
     0
 70
     2
 71
   256
280
     1
  0
DICTIONARY
  5
D
102
{ACAD_REACTORS
330
C
102
}
330
C
100
AcDbDictionary
281
     1
  0
DICTIONARY
  5
1A
102
{ACAD_REACTORS
330
C
102
}
330
C
100
AcDbDictionary
281
     1
  3
Layout1
350
1E
  3
Layout2
350
26
  3
Model
350
22
  0
DICTIONARY
  5
3B
102
{ACAD_REACTORS
330
C
102
}
330
C
100
AcDbDictionary
281
     1
  3
ByBlock
350
3D
  3
ByLayer
350
3C
  3
Global
350
3E
  0
DICTIONARY
  5
E4
102
{ACAD_REACTORS
330
C
102
}
330
C
100
AcDbDictionary
281
     1
  0
DICTIONARY
  5
17
102
{ACAD_REACTORS
330
C
102
}
330
C
100
AcDbDictionary
281
     1
  3
Standard
350
18
  0
DICTIONARY
  5
19
102
{ACAD_REACTORS
330
C
102
}
330
C
100
AcDbDictionary
281
     1
  0
ACDBDICTIONARYWDFLT
  5
E
102
{ACAD_REACTORS
330
C
102
}
330
C
100
AcDbDictionary
281
     1
  3
Normal
350
F
100
AcDbDictionaryWithDefault
340
F
  0
DICTIONARY
  5
E3
102
{ACAD_REACTORS
330
C
102
}
330
C
100
AcDbDictionary
281
     1
  0
DICTIONARY
  5
2A
102
{ACAD_REACTORS
330
C
102
}
330
C
100
AcDbDictionary
281
     1
  3
2dWireframe
350
2F
  3
3D Hidden
350
31
  3
3dWireframe
350
30
  3
Basic
350
32
  3
Brighten
350
36
  3
ColorChange
350
3A
  3
Conceptual
350
34
  3
Dim
350
35
  3
Facepattern
350
39
  3
Flat
350
2B
  3
FlatWithEdges
350
2C
  3
Gouraud
350
2D
  3
GouraudWithEdges
350
2E
  3
Linepattern
350
38
  3
Realistic
350
33
  3
Thicken
350
37
  0
LAYOUT
  5
1E
102
{ACAD_REACTORS
330
1A
102
}
330
1A
100
AcDbPlotSettings
  1

  2
none_device
  4

  6

 40
0.0
 41
0.0
 42
0.0
 43
0.0
 44
0.0
 45
0.0
 46
0.0
 47
0.0
 48
0.0
 49
0.0
140
0.0
141
0.0
142
1.0
143
1.0
 70
   688
 72
     0
 73
     0
 74
     5
  7

 75
    16
 76
     0
 77
     2
 78
   300
147
1.0
148
0.0
149
0.0
100
AcDbLayout
  1
Layout1
 70
     1
 71
     1
 10
0.0
 20
0.0
 11
12.0
 21
9.0
 12
0.0
 22
0.0
 32
0.0
 14
1.000000000000000E+20
 24
1.000000000000000E+20
 34
1.000000000000000E+20
 15
-1.000000000000000E+20
 25
-1.000000000000000E+20
 35
-1.000000000000000E+20
146
0.0
 13
0.0
 23
0.0
 33
0.0
 16
1.0
 26
0.0
 36
0.0
 17
0.0
 27
1.0
 37
0.0
 76
     0
330
1B
  0
LAYOUT
  5
26
102
{ACAD_REACTORS
330
1A
102
}
330
1A
100
AcDbPlotSettings
  1

  2
none_device
  4

  6

 40
0.0
 41
0.0
 42
0.0
 43
0.0
 44
0.0
 45
0.0
 46
0.0
 47
0.0
 48
0.0
 49
0.0
140
0.0
141
0.0
142
1.0
143
1.0
 70
   688
 72
     0
 73
     0
 74
     5
  7

 75
    16
 76
     0
 77
     2
 78
   300
147
1.0
148
0.0
149
0.0
100
AcDbLayout
  1
Layout2
 70
     1
 71
     2
 10
0.0
 20
0.0
 11
0.0
 21
0.0
 12
0.0
 22
0.0
 32
0.0
 14
0.0
 24
0.0
 34
0.0
 15
0.0
 25
0.0
 35
0.0
146
0.0
 13
0.0
 23
0.0
 33
0.0
 16
1.0
 26
0.0
 36
0.0
 17
0.0
 27
1.0
 37
0.0
 76
     0
330
23
  0
LAYOUT
  5
22
102
{ACAD_REACTORS
330
1A
102
}
330
1A
100
AcDbPlotSettings
  1

  2
none_device
  4

  6

 40
0.0
 41
0.0
 42
0.0
 43
0.0
 44
0.0
 45
0.0
 46
0.0
 47
0.0
 48
0.0
 49
0.0
140
0.0
141
0.0
142
1.0
143
1.0
 70
  1712
 72
     0
 73
     0
 74
     0
  7

 75
     0
 76
     0
 77
     2
 78
   300
147
1.0
148
0.0
149
0.0
100
AcDbLayout
  1
Model
 70
     1
 71
     0
 10
0.0
 20
0.0
 11
12.0
 21
9.0
 12
0.0
 22
0.0
 32
0.0
 14
1.000000000000000E+20
 24
1.000000000000000E+20
 34
1.000000000000000E+20
 15
-1.000000000000000E+20
 25
-1.000000000000000E+20
 35
-1.000000000000000E+20
146
0.0
 13
0.0
 23
0.0
 33
0.0
 16
1.0
 26
0.0
 36
0.0
 17
0.0
 27
1.0
 37
0.0
 76
     0
330
1F
331
29
  0
MATERIAL
  5
3D
102
{ACAD_REACTORS
330
3B
102
}
330
3B
100
AcDbMaterial
  1
ByBlock
 72
     1
 94
      127
  0
MATERIAL
  5
3C
102
{ACAD_REACTORS
330
3B
102
}
330
3B
100
AcDbMaterial
  1
ByLayer
 72
     1
 94
      127
  0
MATERIAL
  5
3E
102
{ACAD_REACTORS
330
3B
102
}
330
3B
100
AcDbMaterial
  1
Global
 72
     1
 94
      127
  0
MLINESTYLE
  5
18
102
{ACAD_REACTORS
330
17
102
}
330
17
100
AcDbMlineStyle
  2
Standard
 70
     0
  3

 62
   256
 51
90.0
 52
90.0
 71
     2
 49
0.5
 62
   256
  6
BYLAYER
 49
-0.5
 62
   256
  6
BYLAYER
  0
ACDBPLACEHOLDER
  5
F
102
{ACAD_REACTORS
330
E
102
}
330
E
  0
VISUALSTYLE
  5
2F
102
{ACAD_REACTORS
330
2A
102
}
330
2A
100
AcDbVisualStyle
  2
2dWireframe
 70
     4
177
     2
291
     0
 71
     0
176
     1
 72
     2
176
     1
 73
     0
176
     1
 90
        0
176
     1
 40
-0.6
176
     1
 41
-30.0
176
     1
 62
     5
 63
     7
421
 16777215
176
     1
 74
     1
176
     1
 91
        4
176
     1
 64
     7
176
     1
 65
   257
176
     1
 75
     1
176
     1
175
     1
176
     1
 42
1.0
176
     1
 92
        0
176
     1
 66
   257
176
     1
 43
1.0
176
     1
 76
     1
176
     1
 77
     6
176
     1
 78
     2
176
     1
 67
     7
176
     1
 79
     5
176
     1
170
     0
176
     1
171
     0
176
     1
290
     0
176
     1
 93
        1
176
     1
 44
0.0
176
     1
173
     0
176
     1
  0
VISUALSTYLE
  5
31
102
{ACAD_REACTORS
330
2A
102
}
330
2A
100
AcDbVisualStyle
  2
3D Hidden
 70
     6
177
     2
291
     0
 71
     1
176
     1
 72
     2
176
     1
 73
     2
176
     1
 90
        0
176
     1
 40
-0.6
176
     1
 41
-30.0
176
     1
 62
     5
 63
     7
421
 16777215
176
     1
 74
     2
176
     1
 91
        2
176
     1
 64
     7
176
     1
 65
   257
176
     1
 75
     2
176
     1
175
     1
176
     1
 42
40.0
176
     1
 92
        0
176
     1
 66
   257
176
     1
 43
1.0
176
     1
 76
     1
176
     1
 77
     6
176
     1
 78
     2
176
     1
 67
     7
176
     1
 79
     3
176
     1
170
     0
176
     1
171
     0
176
     1
290
     0
176
     1
 93
        1
176
     1
 44
0.0
176
     1
173
     0
176
     1
  0
VISUALSTYLE
  5
30
102
{ACAD_REACTORS
330
2A
102
}
330
2A
100
AcDbVisualStyle
  2
3dWireframe
 70
     5
177
     2
291
     0
 71
     0
176
     1
 72
     2
176
     1
 73
     0
176
     1
 90
        0
176
     1
 40
-0.6
176
     1
 41
-30.0
176
     1
 62
     5
 63
     7
421
 16777215
176
     1
 74
     1
176
     1
 91
        4
176
     1
 64
     7
176
     1
 65
   257
176
     1
 75
     1
176
     1
175
     1
176
     1
 42
1.0
176
     1
 92
        0
176
     1
 66
   257
176
     1
 43
1.0
176
     1
 76
     1
176
     1
 77
     6
176
     1
 78
     2
176
     1
 67
     7
176
     1
 79
     5
176
     1
170
     0
176
     1
171
     0
176
     1
290
     0
176
     1
 93
        1
176
     1
 44
0.0
176
     1
173
     0
176
     1
  0
VISUALSTYLE
  5
32
102
{ACAD_REACTORS
330
2A
102
}
330
2A
100
AcDbVisualStyle
  2
Basic
 70
     7
177
     2
291
     1
 71
     1
176
     1
 72
     0
176
     1
 73
     1
176
     1
 90
        0
176
     1
 40
-0.6
176
     1
 41
-30.0
176
     1
 62
     5
 63
     7
421
 16777215
176
     1
 74
     0
176
     1
 91
        4
176
     1
 64
     7
176
     1
 65
   257
176
     1
 75
     1
176
     1
175
     1
176
     1
 42
1.0
176
     1
 92
        8
176
     1
 66
     7
176
     1
 43
1.0
176
     1
 76
     1
176
     1
 77
     6
176
     1
 78
     2
176
     1
 67
     7
176
     1
 79
     5
176
     1
170
     0
176
     1
171
     0
176
     1
290
     0
176
     1
 93
        1
176
     1
 44
0.0
176
     1
173
     0
176
     1
  0
VISUALSTYLE
  5
36
102
{ACAD_REACTORS
330
2A
102
}
330
2A
100
AcDbVisualStyle
  2
Brighten
 70
    12
177
     2
291
     1
 71
     2
176
     1
 72
     2
176
     1
 73
     0
176
     1
 90
        0
176
     1
 40
-0.6
176
     1
 41
-30.0
176
     1
 62
     5
 63
     7
421
 16777215
176
     1
 74
     1
176
     1
 91
        4
176
     1
 64
     7
176
     1
 65
   257
176
     1
 75
     1
176
     1
175
     1
176
     1
 42
1.0
176
     1
 92
        8
176
     1
 66
     7
176
     1
 43
1.0
176
     1
 76
     1
176
     1
 77
     6
176
     1
 78
     2
176
     1
 67
     7
176
     1
 79
     5
176
     1
170
     0
176
     1
171
     0
176
     1
290
     0
176
     1
 93
        1
176
     1
 44
50.0
176
     1
173
     0
176
     1
  0
VISUALSTYLE
  5
3A
102
{ACAD_REACTORS
330
2A
102
}
330
2A
100
AcDbVisualStyle
  2
ColorChange
 70
    16
177
     2
291
     1
 71
     2
176
     1
 72
     2
176
     1
 73
     3
176
     1
 90
        0
176
     1
 40
-0.6
176
     1
 41
-30.0
176
     1
 62
     5
 63
     8
421
  8421504
176
     1
 74
     1
176
     1
 91
        4
176
     1
 64
     7
176
     1
 65
   257
176
     1
 75
     1
176
     1
175
     1
176
     1
 42
1.0
176
     1
 92
        8
176
     1
 66
     8
424
  8421504
176
     1
 43
1.0
176
     1
 76
     1
176
     1
 77
     6
176
     1
 78
     2
176
     1
 67
     7
176
     1
 79
     5
176
     1
170
     0
176
     1
171
     0
176
     1
290
     0
176
     1
 93
        1
176
     1
 44
0.0
176
     1
173
     0
176
     1
  0
VISUALSTYLE
  5
34
102
{ACAD_REACTORS
330
2A
102
}
330
2A
100
AcDbVisualStyle
  2
Conceptual
 70
     9
177
     2
291
     0
 71
     3
176
     1
 72
     2
176
     1
 73
     0
176
     1
 90
        0
176
     1
 40
-0.6
176
     1
 41
-30.0
176
     1
 62
     5
 63
     7
421
 16777215
176
     1
 74
     2
176
     1
 91
        2
176
     1
 64
     7
176
     1
 65
   257
176
     1
 75
     1
176
     1
175
     1
176
     1
 42
40.0
176
     1
 92
        8
176
     1
 66
     7
176
     1
 43
1.0
176
     1
 76
     1
176
     1
 77
     6
176
     1
 78
     2
176
     1
 67
     7
176
     1
 79
     3
176
     1
170
     0
176
     1
171
     0
176
     1
290
     0
176
     1
 93
        1
176
     1
 44
0.0
176
     1
173
     0
176
     1
  0
VISUALSTYLE
  5
35
102
{ACAD_REACTORS
330
2A
102
}
330
2A
100
AcDbVisualStyle
  2
Dim
 70
    11
177
     2
291
     1
 71
     2
176
     1
 72
     2
176
     1
 73
     0
176
     1
 90
        0
176
     1
 40
-0.6
176
     1
 41
-30.0
176
     1
 62
     5
 63
     7
421
 16777215
176
     1
 74
     1
176
     1
 91
        4
176
     1
 64
     7
176
     1
 65
   257
176
     1
 75
     1
176
     1
175
     1
176
     1
 42
1.0
176
     1
 92
        8
176
     1
 66
     7
176
     1
 43
1.0
176
     1
 76
     1
176
     1
 77
     6
176
     1
 78
     2
176
     1
 67
     7
176
     1
 79
     5
176
     1
170
     0
176
     1
171
     0
176
     1
290
     0
176
     1
 93
        1
176
     1
 44
-50.0
176
     1
173
     0
176
     1
  0
VISUALSTYLE
  5
39
102
{ACAD_REACTORS
330
2A
102
}
330
2A
100
AcDbVisualStyle
  2
Facepattern
 70
    15
177
     2
291
     1
 71
     2
176
     1
 72
     2
176
     1
 73
     0
176
     1
 90
        0
176
     1
 40
-0.6
176
     1
 41
-30.0
176
     1
 62
     5
 63
     7
421
 16777215
176
     1
 74
     1
176
     1
 91
        4
176
     1
 64
     7
176
     1
 65
   257
176
     1
 75
     1
176
     1
175
     1
176
     1
 42
1.0
176
     1
 92
        8
176
     1
 66
     7
176
     1
 43
1.0
176
     1
 76
     1
176
     1
 77
     6
176
     1
 78
     2
176
     1
 67
     7
176
     1
 79
     5
176
     1
170
     0
176
     1
171
     0
176
     1
290
     0
176
     1
 93
        1
176
     1
 44
0.0
176
     1
173
     0
176
     1
  0
VISUALSTYLE
  5
2B
102
{ACAD_REACTORS
330
2A
102
}
330
2A
100
AcDbVisualStyle
  2
Flat
 70
     0
177
     2
291
     1
 71
     2
176
     1
 72
     1
176
     1
 73
     1
176
     1
 90
        2
176
     1
 40
-0.6
176
     1
 41
30.0
176
     1
 62
     5
 63
     7
421
 16777215
176
     1
 74
     0
176
     1
 91
        4
176
     1
 64
     7
176
     1
 65
   257
176
     1
 75
     1
176
     1
175
     1
176
     1
 42
1.0
176
     1
 92
        8
176
     1
 66
     7
176
     1
 43
1.0
176
     1
 76
     1
176
     1
 77
     6
176
     1
 78
     2
176
     1
 67
     7
176
     1
 79
     5
176
     1
170
     0
176
     1
171
     0
176
     1
290
     0
176
     1
 93
       13
176
     1
 44
0.0
176
     1
173
     0
176
     1
  0
VISUALSTYLE
  5
2C
102
{ACAD_REACTORS
330
2A
102
}
330
2A
100
AcDbVisualStyle
  2
FlatWithEdges
 70
     1
177
     2
291
     1
 71
     2
176
     1
 72
     1
176
     1
 73
     1
176
     1
 90
        2
176
     1
 40
-0.6
176
     1
 41
30.0
176
     1
 62
     5
 63
     7
421
 16777215
176
     1
 74
     1
176
     1
 91
        4
176
     1
 64
     7
176
     1
 65
   257
176
     1
 75
     1
176
     1
175
     1
176
     1
 42
1.0
176
     1
 92
        0
176
     1
 66
   257
176
     1
 43
1.0
176
     1
 76
     1
176
     1
 77
     6
176
     1
 78
     2
176
     1
 67
     7
176
     1
 79
     5
176
     1
170
     0
176
     1
171
     0
176
     1
290
     0
176
     1
 93
       13
176
     1
 44
0.0
176
     1
173
     0
176
     1
  0
VISUALSTYLE
  5
2D
102
{ACAD_REACTORS
330
2A
102
}
330
2A
100
AcDbVisualStyle
  2
Gouraud
 70
     2
177
     2
291
     1
 71
     2
176
     1
 72
     2
176
     1
 73
     1
176
     1
 90
        2
176
     1
 40
-0.6
176
     1
 41
30.0
176
     1
 62
     5
 63
     7
421
 16777215
176
     1
 74
     0
176
     1
 91
        4
176
     1
 64
     7
176
     1
 65
   257
176
     1
 75
     1
176
     1
175
     1
176
     1
 42
1.0
176
     1
 92
        0
176
     1
 66
     7
176
     1
 43
1.0
176
     1
 76
     1
176
     1
 77
     6
176
     1
 78
     2
176
     1
 67
     7
176
     1
 79
     5
176
     1
170
     0
176
     1
171
     0
176
     1
290
     0
176
     1
 93
       13
176
     1
 44
0.0
176
     1
173
     0
176
     1
  0
VISUALSTYLE
  5
2E
102
{ACAD_REACTORS
330
2A
102
}
330
2A
100
AcDbVisualStyle
  2
GouraudWithEdges
 70
     3
177
     2
291
     1
 71
     2
176
     1
 72
     2
176
     1
 73
     1
176
     1
 90
        2
176
     1
 40
-0.6
176
     1
 41
30.0
176
     1
 62
     5
 63
     7
421
 16777215
176
     1
 74
     1
176
     1
 91
        4
176
     1
 64
     7
176
     1
 65
   257
176
     1
 75
     1
176
     1
175
     1
176
     1
 42
1.0
176
     1
 92
        0
176
     1
 66
   257
176
     1
 43
1.0
176
     1
 76
     1
176
     1
 77
     6
176
     1
 78
     2
176
     1
 67
     7
176
     1
 79
     5
176
     1
170
     0
176
     1
171
     0
176
     1
290
     0
176
     1
 93
       13
176
     1
 44
0.0
176
     1
173
     0
176
     1
  0
VISUALSTYLE
  5
38
102
{ACAD_REACTORS
330
2A
102
}
330
2A
100
AcDbVisualStyle
  2
Linepattern
 70
    14
177
     2
291
     1
 71
     2
176
     1
 72
     2
176
     1
 73
     0
176
     1
 90
        0
176
     1
 40
-0.6
176
     1
 41
-30.0
176
     1
 62
     5
 63
     7
421
 16777215
176
     1
 74
     1
176
     1
 91
        4
176
     1
 64
     7
176
     1
 65
   257
176
     1
 75
     7
176
     1
175
     7
176
     1
 42
1.0
176
     1
 92
        8
176
     1
 66
     7
176
     1
 43
1.0
176
     1
 76
     1
176
     1
 77
     6
176
     1
 78
     2
176
     1
 67
     7
176
     1
 79
     5
176
     1
170
     0
176
     1
171
     0
176
     1
290
     0
176
     1
 93
        1
176
     1
 44
0.0
176
     1
173
     0
176
     1
  0
VISUALSTYLE
  5
33
102
{ACAD_REACTORS
330
2A
102
}
330
2A
100
AcDbVisualStyle
  2
Realistic
 70
     8
177
     2
291
     0
 71
     2
176
     1
 72
     2
176
     1
 73
     0
176
     1
 90
        0
176
     1
 40
-0.6
176
     1
 41
-30.0
176
     1
 62
     5
 63
     7
421
 16777215
176
     1
 74
     1
176
     1
 91
        0
176
     1
 64
     7
176
     1
 65
   257
176
     1
 75
     1
176
     1
175
     1
176
     1
 42
1.0
176
     1
 92
        8
176
     1
 66
     8
424
  7895160
176
     1
 43
1.0
176
     1
 76
     1
176
     1
 77
     6
176
     1
 78
     2
176
     1
 67
     7
176
     1
 79
     5
176
     1
170
     0
176
     1
171
     0
176
     1
290
     0
176
     1
 93
       13
176
     1
 44
0.0
176
     1
173
     0
176
     1
  0
VISUALSTYLE
  5
37
102
{ACAD_REACTORS
330
2A
102
}
330
2A
100
AcDbVisualStyle
  2
Thicken
 70
    13
177
     2
291
     1
 71
     2
176
     1
 72
     2
176
     1
 73
     0
176
     1
 90
        0
176
     1
 40
-0.6
176
     1
 41
-30.0
176
     1
 62
     5
 63
     7
421
 16777215
176
     1
 74
     1
176
     1
 91
        4
176
     1
 64
     7
176
     1
 65
   257
176
     1
 75
     1
176
     1
175
     1
176
     1
 42
1.0
176
     1
 92
       12
176
     1
 66
     7
176
     1
 43
1.0
176
     1
 76
     1
176
     1
 77
     6
176
     1
 78
     2
176
     1
 67
     7
176
     1
 79
     5
176
     1
170
     0
176
     1
171
     0
176
     1
290
     0
176
     1
 93
        1
176
     1
 44
0.0
176
     1
173
     0
176
     1
  0
ENDSEC
  0
EOF
