  0
SECTION
  2
HEADER
  9
$ACADVER
  1
AC1024
  9
$ACADMAINTVER
 70
     6
  9
$DWGCODEPAGE
  3
UNDEFINED
  9
$INSBASE
 10
0.0
 20
0.0
 30
0.0
  9
$EXTMIN
 10
1.000000000000000E+20
 20
1.000000000000000E+20
 30
1.000000000000000E+20
  9
$EXTMAX
 10
-1.000000000000000E+20
 20
-1.000000000000000E+20
 30
-1.000000000000000E+20
  9
$LIMMIN
 10
0.0
 20
0.0
  9
$LIMMAX
 10
12.0
 20
9.0
  9
$ORTHOMODE
 70
     0
  9
$REGENMODE
 70
     1
  9
$FILLMODE
 70
     1
  9
$QTEXTMODE
 70
     0
  9
$MIRRTEXT
 70
     1
  9
$LTSCALE
 40
1.0
  9
$ATTMODE
 70
     1
  9
$TEXTSIZE
 40
0.2
  9
$TRACEWID
 40
0.05
  9
$TEXTSTYLE
  7
Standard
  9
$CLAYER
  8
0
  9
$CELTYPE
  6
ByLayer
  9
$CECOLOR
 62
   256
  9
$CELTSCALE
 40
1.0
  9
$DISPSILH
 70
     0
  9
$DIMSCALE
 40
1.0
  9
$DIMASZ
 40
0.18
  9
$DIMEXO
 40
0.0625
  9
$DIMDLI
 40
0.38
  9
$DIMRND
 40
0.0
  9
$DIMDLE
 40
0.0
  9
$DIMEXE
 40
0.18
  9
$DIMTP
 40
0.0
  9
$DIMTM
 40
0.0
  9
$DIMTXT
 40
0.18
  9
$DIMCEN
 40
0.09
  9
$DIMTSZ
 40
0.0
  9
$DIMTOL
 70
     0
  9
$DIMLIM
 70
     0
  9
$DIMTIH
 70
     1
  9
$DIMTOH
 70
     1
  9
$DIMSE1
 70
     0
  9
$DIMSE2
 70
     0
  9
$DIMTAD
 70
     0
  9
$DIMZIN
 70
     0
  9
$DIMBLK
  1

  9
$DIMASO
 70
     1
  9
$DIMSHO
 70
     1
  9
$DIMPOST
  1

  9
$DIMAPOST
  1

  9
$DIMALT
 70
     0
  9
$DIMALTD
 70
     2
  9
$DIMALTF
 40
25.4
  9
$DIMLFAC
 40
1.0
  9
$DIMTOFL
 70
     0
  9
$DIMTVP
 40
0.0
  9
$DIMTIX
 70
     0
  9
$DIMSOXD
 70
     0
  9
$DIMSAH
 70
     0
  9
$DIMBLK1
  1

  9
$DIMBLK2
  1

  9
$DIMSTYLE
  2
Standard
  9
$DIMCLRD
 70
     0
  9
$DIMCLRE
 70
     0
  9
$DIMCLRT
 70
     0
  9
$DIMTFAC
 40
1.0
  9
$DIMGAP
 40
0.09
  9
$DIMJUST
 70
     0
  9
$DIMSD1
 70
     0
  9
$DIMSD2
 70
     0
  9
$DIMTOLJ
 70
     1
  9
$DIMTZIN
 70
     0
  9
$DIMALTZ
 70
     0
  9
$DIMALTTZ
 70
     0
  9
$DIMUPT
 70
     0
  9
$DIMDEC
 70
     4
  9
$DIMTDEC
 70
     4
  9
$DIMALTU
 70
     2
  9
$DIMALTTD
 70
     2
  9
$DIMTXSTY
  7
Standard
  9
$DIMAUNIT
 70
     0
  9
$DIMADEC
 70
     0
  9
$DIMALTRND
 40
0.0
  9
$DIMAZIN
 70
     0
  9
$DIMDSEP
 70
    46
  9
$DIMATFIT
 70
     3
  9
$DIMFRAC
 70
     0
  9
$DIMLDRBLK
  1

  9
$DIMLUNIT
 70
     2
  9
$DIMLWD
 70
    -2
  9
$DIMLWE
 70
    -2
  9
$DIMTMOVE
 70
     0
  9
$DIMFXL
 40
1.0
  9
$DIMFXLON
 70
     0
  9
$DIMJOGANG
 40
0.7853981633974483
  9
$DIMTFILL
 70
     0
  9
$DIMTFILLCLR
 70
     0
  9
$DIMARCSYM
 70
     0
  9
$DIMLTYPE
  6

  9
$DIMLTEX1
  6

  9
$DIMLTEX2
  6

  9
$DIMTXTDIRECTION
 70
     0
  9
$LUNITS
 70
     2
  9
$LUPREC
 70
     4
  9
$SKETCHINC
 40
0.1
  9
$FILLETRAD
 40
0.5
  9
$AUNITS
 70
     0
  9
$AUPREC
 70
     0
  9
$MENU
  1
.
  9
$ELEVATION
 40
0.0
  9
$PELEVATION
 40
0.0
  9
$THICKNESS
 40
0.0
  9
$LIMCHECK
 70
     0
  9
$CHAMFERA
 40
0.5
  9
$CHAMFERB
 40
0.5
  9
$CHAMFERC
 40
1.0
  9
$CHAMFERD
 40
0.0
  9
$SKPOLY
 70
     0
  9
$TDCREATE
 40
2457917.610949062
  9
$TDUCREATE
 40
2457917.235949074
  9
$TDUPDATE
 40
2457917.610949062
  9
$TDUUPDATE
 40
2457917.235949074
  9
$TDINDWG
 40
0.0000000116
  9
$TDUSRTIMER
 40
0.0000000116
  9
$USRTIMER
 70
     1
  9
$ANGBASE
 50
0.0
  9
$ANGDIR
 70
     0
  9
$PDMODE
 70
     0
  9
$PDSIZE
 40
0.0
  9
$PLINEWID
 40
0.0
  9
$SPLFRAME
 70
     0
  9
$SPLINETYPE
 70
     6
  9
$SPLINESEGS
 70
     8
  9
$HANDSEED
  5
E5
  9
$SURFTAB1
 70
     6
  9
$SURFTAB2
 70
     6
  9
$SURFTYPE
 70
     6
  9
$SURFU
 70
     6
  9
$SURFV
 70
     6
  9
$UCSBASE
  2

  9
$UCSNAME
  2

  9
$UCSORG
 10
0.0
 20
0.0
 30
0.0
  9
$UCSXDIR
 10
1.0
 20
0.0
 30
0.0
  9
$UCSYDIR
 10
0.0
 20
1.0
 30
0.0
  9
$UCSORTHOREF
  2

  9
$UCSORTHOVIEW
 70
     0
  9
$UCSORGTOP
 10
0.0
 20
0.0
 30
0.0
  9
$UCSORGBOTTOM
 10
0.0
 20
0.0
 30
0.0
  9
$UCSORGLEFT
 10
0.0
 20
0.0
 30
0.0
  9
$UCSORGRIGHT
 10
0.0
 20
0.0
 30
0.0
  9
$UCSORGFRONT
 10
0.0
 20
0.0
 30
0.0
  9
$UCSORGBACK
 10
0.0
 20
0.0
 30
0.0
  9
$PUCSBASE
  2

  9
$PUCSNAME
  2

  9
$PUCSORG
 10
0.0
 20
0.0
 30
0.0
  9
$PUCSXDIR
 10
1.0
 20
0.0
 30
0.0
  9
$PUCSYDIR
 10
0.0
 20
1.0
 30
0.0
  9
$PUCSORTHOREF
  2

  9
$PUCSORTHOVIEW
 70
     0
  9
$PUCSORGTOP
 10
0.0
 20
0.0
 30
0.0
  9
$PUCSORGBOTTOM
 10
0.0
 20
0.0
 30
0.0
  9
$PUCSORGLEFT
 10
0.0
 20
0.0
 30
0.0
  9
$PUCSORGRIGHT
 10
0.0
 20
0.0
 30
0.0
  9
$PUCSORGFRONT
 10
0.0
 20
0.0
 30
0.0
  9
$PUCSORGBACK
 10
0.0
 20
0.0
 30
0.0
  9
$USERI1
 70
     0
  9
$USERI2
 70
     0
  9
$USERI3
 70
     0
  9
$USERI4
 70
     0
  9
$USERI5
 70
     0
  9
$USERR1
 40
0.0
  9
$USERR2
 40
0.0
  9
$USERR3
 40
0.0
  9
$USERR4
 40
0.0
  9
$USERR5
 40
0.0
  9
$WORLDVIEW
 70
     1
  9
$SHADEDGE
 70
     3
  9
$SHADEDIF
 70
    70
  9
$TILEMODE
 70
     1
  9
$MAXACTVP
 70
    64
  9
$PINSBASE
 10
0.0
 20
0.0
 30
0.0
  9
$PLIMCHECK
 70
     0
  9
$PEXTMIN
 10
1.000000000000000E+20
 20
1.000000000000000E+20
 30
1.000000000000000E+20
  9
$PEXTMAX
 10
-1.000000000000000E+20
 20
-1.000000000000000E+20
 30
-1.000000000000000E+20
  9
$PLIMMIN
 10
0.0
 20
0.0
  9
$PLIMMAX
 10
12.0
 20
9.0
  9
$UNITMODE
 70
     0
  9
$VISRETAIN
 70
     1
  9
$PLINEGEN
 70
     0
  9
$PSLTSCALE
 70
     1
  9
$TREEDEPTH
 70
  3020
  9
$CMLSTYLE
  2
Standard
  9
$CMLJUST
 70
     0
  9
$CMLSCALE
 40
1.0
  9
$PROXYGRAPHICS
 70
     1
  9
$MEASUREMENT
 70
     0
  9
$CELWEIGHT
370
    -1
  9
$ENDCAPS
280
     0
  9
$JOINSTYLE
280
     0
  9
$LWDISPLAY
290
     1
  9
$INSUNITS
 70
     1
  9
$HYPERLINKBASE
  1

  9
$STYLESHEET
  1

  9
$XEDIT
290
     1
  9
$CEPSNTYPE
380
     0
  9
$PSTYLEMODE
290
     1
  9
$FINGERPRINTGUID
  2
{CC9A04C3-45AF-AB54-F690-85E6F8386827}
  9
$VERSIONGUID
  2
{FAEB1C32-E019-11D5-929B-00C0DF256EC4}
  9
$EXTNAMES
290
     1
  9
$PSVPSCALE
 40
0.0
  9
$OLESTARTUP
290
     0
  9
$SORTENTS
280
   127
  9
$INDEXCTL
280
     0
  9
$HIDETEXT
280
     1
  9
$XCLIPFRAME
280
     2
  9
$HALOGAP
280
     0
  9
$OBSCOLOR
 70
   257
  9
$OBSLTYPE
280
     0
  9
$INTERSECTIONDISPLAY
280
     0
  9
$INTERSECTIONCOLOR
 70
   257
  9
$DIMASSOC
280
     2
  9
$PROJECTNAME
  1

  9
$CAMERADISPLAY
290
     0
  9
$LENSLENGTH
 40
50.0
  9
$CAMERAHEIGHT
 40
0.0
  9
$STEPSPERSEC
 40
2.0
  9
$STEPSIZE
 40
6.0
  9
$3DDWFPREC
 40
2.0
  9
$PSOLWIDTH
 40
0.25
  9
$PSOLHEIGHT
 40
4.0
  9
$LOFTANG1
 40
1.570796326794897
  9
$LOFTANG2
 40
1.570796326794897
  9
$LOFTMAG1
 40
0.0
  9
$LOFTMAG2
 40
0.0
  9
$LOFTPARAM
 70
     7
  9
$LOFTNORMALS
280
     1
  9
$LATITUDE
 40
37.795
  9
$LONGITUDE
 40
-122.394
  9
$NORTHDIRECTION
 40
0.0
  9
$TIMEZONE
 70
 -8000
  9
$LIGHTGLYPHDISPLAY
280
     1
  9
$TILEMODELIGHTSYNCH
280
     1
  9
$CMATERIAL
347
3C
  9
$SOLIDHIST
280
     1
  9
$SHOWHIST
280
     1
  9
$DWFFRAME
280
     2
  9
$DGNFRAME
280
     2
  9
$REALWORLDSCALE
290
     1
  9
$INTERFERECOLOR
 62
   256
  9
$CSHADOW
280
     0
  9
$SHADOWPLANELOCATION
 40
0.0
  0
ENDSEC
  0
SECTION
  2
CLASSES
  0
CLASS
  1
ACDBDICTIONARYWDFLT
  2
AcDbDictionaryWithDefault
  3
ObjectDBX Classes
 90
        0
 91
        4
280
     0
281
     0
  0
CLASS
  1
VISUALSTYLE
  2
AcDbVisualStyle
  3
ObjectDBX Classes
 90
     4095
 91
        4
280
     0
281
     0
  0
CLASS
  1
MATERIAL
  2
AcDbMaterial
  3
ObjectDBX Classes
 90
     1153
 91
        4
280
     0
281
     0
  0
CLASS
  1
SUN
  2
AcDbSun
  3
SCENEOE
 90
     1024
 91
        4
280
     0
281
     0
  0
ENDSEC
  0
SECTION
  2
TABLES
  0
TABLE
  2
VPORT
  5
8
330
0
100
AcDbSymbolTable
 70
     1
  0
VPORT
  5
29
330
8
100
AcDbSymbolTableRecord
100
AcDbViewportTableRecord
  2
*Active
 70
     0
 10
0.0
 20
0.0
 11
1.0
 21
1.0
 12
0.0
 22
0.0
 13
0.0
 23
0.0
 14
0.5
 24
0.5
 15
0.5
 25
0.5
 16
0.0
 26
0.0
 36
1.0
 17
63.499999984125
 27
-89.00059456108309
 37
0.0
 40
178.0011891221662
 41
0.7134783795241226
 42
50.0
 43
0.0
 44
0.0
 50
0.0
 51
0.0
 71
     0
 72
   100
 73
     1
 74
     3
 75
     0
 76
     0
 77
     0
 78
     0
281
     0
 65
     1
110
0.0
120
0.0
130
0.0
111
1.0
121
0.0
131
0.0
112
0.0
122
1.0
132
0.0
 79
     0
146
0.0
 60
     3
 61
     5
292
     1
282
     1
141
0.0
142
0.0
 63
   250
361
3F
  0
ENDTAB
  0
TABLE
  2
LTYPE
  5
5
330
0
100
AcDbSymbolTable
 70
     1
  0
LTYPE
  5
14
330
5
100
AcDbSymbolTableRecord
100
AcDbLinetypeTableRecord
  2
ByBlock
 70
     0
  3

 72
    65
 73
     0
 40
0.0
  0
LTYPE
  5
15
330
5
100
AcDbSymbolTableRecord
100
AcDbLinetypeTableRecord
  2
ByLayer
 70
     0
  3

 72
    65
 73
     0
 40
0.0
  0
LTYPE
  5
16
330
5
100
AcDbSymbolTableRecord
100
AcDbLinetypeTableRecord
  2
Continuous
 70
     0
  3
Solid line
 72
    65
 73
     0
 40
0.0
  0
ENDTAB
  0
TABLE
  2
LAYER
  5
2
330
0
100
AcDbSymbolTable
 70
     2
  0
LAYER
  5
10
330
2
100
AcDbSymbolTableRecord
100
AcDbLayerTableRecord
  2
0
 70
     0
 62
     7
  6
Continuous
370
    -3
390
F
347
3E
  0
LAYER
  5
40
330
2
100
AcDbSymbolTableRecord
100
AcDbLayerTableRecord
  2
_U+30EC_U+30A4_U+30E4_U+30FC 1
 70
     0
 62
     7
  6
Continuous
370
    -3
390
F
347
3E
  0
ENDTAB
  0
TABLE
  2
STYLE
  5
3
330
0
100
AcDbSymbolTable
 70
     1
  0
STYLE
  5
11
330
3
100
AcDbSymbolTableRecord
100
AcDbTextStyleTableRecord
  2
Standard
 70
     0
 40
0.0
 41
1.0
 50
0.0
 71
     0
 42
0.2
  3
txt
  4

  0
ENDTAB
  0
TABLE
  2
VIEW
  5
6
330
0
100
AcDbSymbolTable
 70
     0
  0
ENDTAB
  0
TABLE
  2
UCS
  5
7
330
0
100
AcDbSymbolTable
 70
     0
  0
ENDTAB
  0
TABLE
  2
APPID
  5
9
330
0
100
AcDbSymbolTable
 70
     1
  0
APPID
  5
12
330
9
100
AcDbSymbolTableRecord
100
AcDbRegAppTableRecord
  2
ACAD
 70
     0
  0
ENDTAB
  0
TABLE
  2
DIMSTYLE
  5
A
330
0
100
AcDbSymbolTable
 70
     1
100
AcDbDimStyleTable
  0
DIMSTYLE
105
27
330
A
100
AcDbSymbolTableRecord
100
AcDbDimStyleTableRecord
  2
Standard
 70
     0
178
     0
340
11
  0
ENDTAB
  0
TABLE
  2
BLOCK_RECORD
  5
1
330
0
100
AcDbSymbolTable
 70
     6
  0
BLOCK_RECORD
  5
1F
330
1
100
AcDbSymbolTableRecord
100
AcDbBlockTableRecord
  2
*Model_Space
340
22
 70
     0
280
     1
281
     0
  0
BLOCK_RECORD
  5
1B
330
1
100
AcDbSymbolTableRecord
100
AcDbBlockTableRecord
  2
*Paper_Space
340
1E
 70
     0
280
     1
281
     0
  0
BLOCK_RECORD
  5
23
330
1
100
AcDbSymbolTableRecord
100
AcDbBlockTableRecord
  2
*Paper_Space0
340
26
 70
     0
280
     1
281
     0
  0
BLOCK_RECORD
  5
76
330
1
100
AcDbSymbolTableRecord
100
AcDbBlockTableRecord
  2
block 2
340
0
102
{BLKREFS
331
77
102
}
 70
     0
280
     1
281
     0
  0
BLOCK_RECORD
  5
98
330
1
100
AcDbSymbolTableRecord
100
AcDbBlockTableRecord
  2
block 3
340
0
102
{BLKREFS
331
99
102
}
 70
     0
280
     1
281
     0
  0
BLOCK_RECORD
  5
AA
330
1
100
AcDbSymbolTableRecord
100
AcDbBlockTableRecord
  2
block 4
340
0
102
{BLKREFS
331
AB
102
}
 70
     0
280
     1
281
     0
  0
BLOCK_RECORD
  5
C7
330
1
100
AcDbSymbolTableRecord
100
AcDbBlockTableRecord
  2
block 5
340
0
102
{BLKREFS
331
C8
102
}
 70
     0
280
     1
281
     0
  0
BLOCK_RECORD
  5
DA
330
1
100
AcDbSymbolTableRecord
100
AcDbBlockTableRecord
  2
block 6
340
0
102
{BLKREFS
331
DB
102
}
 70
     0
280
     1
281
     0
  0
ENDTAB
  0
ENDSEC
  0
SECTION
  2
BLOCKS
  0
BLOCK
  5
20
330
1F
100
AcDbEntity
  8
0
100
AcDbBlockBegin
  2
*Model_Space
 70
     0
 10
0.0
 20
0.0
 30
0.0
  3
*Model_Space
  1

  0
ENDBLK
  5
21
330
1F
100
AcDbEntity
  8
0
100
AcDbBlockEnd
  0
BLOCK
  5
1C
330
1B
100
AcDbEntity
 67
     1
  8
0
100
AcDbBlockBegin
  2
*Paper_Space
 70
     0
 10
0.0
 20
0.0
 30
0.0
  3
*Paper_Space
  1

  0
ENDBLK
  5
1D
330
1B
100
AcDbEntity
 67
     1
  8
0
100
AcDbBlockEnd
  0
BLOCK
  5
24
330
23
100
AcDbEntity
  8
0
100
AcDbBlockBegin
  2
*Paper_Space0
 70
     0
 10
0.0
 20
0.0
 30
0.0
  3
*Paper_Space0
  1

  0
ENDBLK
  5
25
330
23
100
AcDbEntity
  8
0
100
AcDbBlockEnd
  0
BLOCK
  5
78
330
76
100
AcDbEntity
  8
0
100
AcDbBlockBegin
  2
block 2
 70
     0
 10
0.0
 20
0.0
 30
0.0
  3
block 2
  1

  0
SPLINE
  5
7A
330
76
100
AcDbEntity
  8
_U+30EC_U+30A4_U+30E4_U+30FC 1
370
     0
100
AcDbSpline
210
0.0
220
0.0
230
1.0
 70
    11
 71
     3
 72
    29
 73
    25
 74
     0
 42
0.0000000001
 43
0.0000000001
 12
1.0
 22
0.0
 32
0.0
 13
1.0
 23
0.0
 33
0.0
 40
0.0
 40
0.0
 40
0.0
 40
0.0
 40
1.0
 40
1.0
 40
1.0
 40
2.0
 40
2.0
 40
2.0
 40
3.0
 40
3.0
 40
3.0
 40
4.0
 40
4.0
 40
4.0
 40
5.0
 40
5.0
 40
5.0
 40
6.0
 40
6.0
 40
6.0
 40
7.0
 40
7.0
 40
7.0
 40
8.0
 40
8.0
 40
8.0
 40
8.0
 10
49.64520398064425
 20
-90.54847816746705
 30
0.0
 10
49.64520398064425
 20
-90.83338756409721
 30
0.0
 10
49.50774467078279
 20
-91.10451657878637
 30
0.0
 10
49.15875649812698
 20
-91.10451657878637
 30
0.0
 10
48.90278590357292
 20
-91.10451657878637
 30
0.0
 10
48.80752901340576
 20
-90.95293237743539
 30
0.0
 10
48.74620631376831
 20
-90.83993324551919
 30
0.0
 10
48.68695067142202
 20
-90.97325844079836
 30
0.0
 10
48.57274575608598
 20
-91.05490720379878
 30
0.0
 10
48.41203205169908
 20
-91.05490720379878
 30
0.0
 10
48.13694117720188
 20
-91.05490720379878
 30
0.0
 10
48.00154892463156
 20
-90.84234481235886
 30
0.0
 10
48.00154892463156
 20
-90.54847816746705
 30
0.0
 10
48.00154892463156
 20
-90.24530976476507
 30
0.0
 10
48.14538166114074
 20
-90.04204913113533
 30
0.0
 10
48.41203205169908
 20
-90.04204913113533
 30
0.0
 10
48.57274575608598
 20
-90.04204913113533
 30
0.0
 10
48.68695067142202
 20
-90.12542044187838
 30
0.0
 10
48.74620631376831
 20
-90.25909014670607
 30
0.0
 10
48.79702147217575
 20
-90.16400551131316
 30
0.0
 10
48.89227836234291
 20
-89.99450681343887
 30
0.0
 10
49.15462238354468
 20
-89.99450681343887
 30
0.0
 10
49.52910426279134
 20
-89.99450681343887
 30
0.0
 10
49.64520398064425
 20
-90.29285208246151
 30
0.0
 10
49.64520398064425
 20
-90.54847816746705
 30
0.0
  0
SPLINE
  5
7B
330
76
100
AcDbEntity
  8
_U+30EC_U+30A4_U+30E4_U+30FC 1
370
     0
100
AcDbSpline
210
0.0
220
0.0
230
1.0
 70
    11
 71
     3
 72
    17
 73
    13
 74
     0
 42
0.0000000001
 43
0.0000000001
 12
1.0
 22
0.0
 32
0.0
 13
1.0
 23
0.0
 33
0.0
 40
0.0
 40
0.0
 40
0.0
 40
0.0
 40
1.0
 40
1.0
 40
1.0
 40
2.0
 40
2.0
 40
2.0
 40
3.0
 40
3.0
 40
3.0
 40
4.0
 40
4.0
 40
4.0
 40
4.0
 10
48.19412976225703
 20
-90.54847816746705
 30
0.0
 10
48.19412976225703
 20
-90.72452254676332
 30
0.0
 10
48.28921439764992
 20
-90.81512855802539
 30
0.0
 10
48.42460665022024
 20
-90.81512855802539
 30
0.0
 10
48.5474243042694
 20
-90.81512855802539
 30
0.0
 10
48.66593558896199
 20
-90.73830292870431
 30
0.0
 10
48.66593558896199
 20
-90.54847816746705
 30
0.0
 10
48.66593558896199
 20
-90.35830889668127
 30
0.0
 10
48.5474243042694
 20
-90.28148326736019
 30
0.0
 10
48.42460665022024
 20
-90.28148326736019
 30
0.0
 10
48.28921439764992
 20
-90.28148326736019
 30
0.0
 10
48.19412976225703
 20
-90.37415633591341
 30
0.0
 10
48.19412976225703
 20
-90.54847816746705
 30
0.0
  0
SPLINE
  5
7C
330
76
100
AcDbEntity
  8
_U+30EC_U+30A4_U+30E4_U+30FC 1
370
     0
100
AcDbSpline
210
0.0
220
0.0
230
1.0
 70
    11
 71
     3
 72
    17
 73
    13
 74
     0
 42
0.0000000001
 43
0.0000000001
 12
1.0
 22
0.0
 32
0.0
 13
1.0
 23
0.0
 33
0.0
 40
0.0
 40
0.0
 40
0.0
 40
0.0
 40
1.0
 40
1.0
 40
1.0
 40
2.0
 40
2.0
 40
2.0
 40
3.0
 40
3.0
 40
3.0
 40
4.0
 40
4.0
 40
4.0
 40
4.0
 10
48.85421005723089
 20
-90.54847816746705
 30
0.0
 10
48.85421005723089
 20
-90.7021294261092
 30
0.0
 10
48.94085420868493
 20
-90.86473793301299
 30
0.0
 10
49.14394258754041
 20
-90.86473793301299
 30
0.0
 10
49.34909802368703
 20
-90.86473793301299
 30
0.0
 10
49.4507283405019
 20
-90.72934568044266
 30
0.0
 10
49.4507283405019
 20
-90.54847816746705
 30
0.0
 10
49.4507283405019
 20
-90.34935164841961
 30
0.0
 10
49.32808294122701
 20
-90.23187389237259
 30
0.0
 10
49.15031601418812
 20
-90.23187389237259
 30
0.0
 10
48.9281073553895
 20
-90.23187389237259
 30
0.0
 10
48.85421005723089
 20
-90.4058512143777
 30
0.0
 10
48.85421005723089
 20
-90.54847816746705
 30
0.0
  0
HATCH
  5
7D
330
76
100
AcDbEntity
  8
_U+30EC_U+30A4_U+30E4_U+30FC 1
 62
   179
420
  2234388
100
AcDbHatch
 10
0.0
 20
0.0
 30
0.0
210
0.0
220
0.0
230
1.0
  2
SOLID
 70
     1
 71
     0
 91
        3
 92
        1
 93
        1
 72
     4
 94
        3
 73
     0
 74
     1
 95
       29
 96
       25
 40
0.0
 40
0.0
 40
0.0
 40
0.0
 40
1.0
 40
1.0
 40
1.0
 40
2.0
 40
2.0
 40
2.0
 40
3.0
 40
3.0
 40
3.0
 40
4.0
 40
4.0
 40
4.0
 40
5.0
 40
5.0
 40
5.0
 40
6.0
 40
6.0
 40
6.0
 40
7.0
 40
7.0
 40
7.0
 40
8.0
 40
8.0
 40
8.0
 40
8.0
 10
49.64520398064425
 20
-90.54847816746705
 10
49.64520398064425
 20
-90.83338756409721
 10
49.50774467078279
 20
-91.10451657878637
 10
49.15875649812698
 20
-91.10451657878637
 10
48.90278590357292
 20
-91.10451657878637
 10
48.80752901340576
 20
-90.95293237743539
 10
48.74620631376831
 20
-90.83993324551919
 10
48.68695067142202
 20
-90.97325844079836
 10
48.57274575608598
 20
-91.05490720379878
 10
48.41203205169908
 20
-91.05490720379878
 10
48.13694117720188
 20
-91.05490720379878
 10
48.00154892463156
 20
-90.84234481235886
 10
48.00154892463156
 20
-90.54847816746705
 10
48.00154892463156
 20
-90.24530976476507
 10
48.14538166114074
 20
-90.04204913113533
 10
48.41203205169908
 20
-90.04204913113533
 10
48.57274575608598
 20
-90.04204913113533
 10
48.68695067142202
 20
-90.12542044187838
 10
48.74620631376831
 20
-90.25909014670607
 10
48.79702147217575
 20
-90.16400551131316
 10
48.89227836234291
 20
-89.99450681343887
 10
49.15462238354468
 20
-89.99450681343887
 10
49.52910426279134
 20
-89.99450681343887
 10
49.64520398064425
 20
-90.29285208246151
 10
49.64520398064425
 20
-90.54847816746705
 97
        0
 97
        0
 92
        1
 93
        1
 72
     4
 94
        3
 73
     0
 74
     1
 95
       17
 96
       13
 40
0.0
 40
0.0
 40
0.0
 40
0.0
 40
1.0
 40
1.0
 40
1.0
 40
2.0
 40
2.0
 40
2.0
 40
3.0
 40
3.0
 40
3.0
 40
4.0
 40
4.0
 40
4.0
 40
4.0
 10
48.19412976225703
 20
-90.54847816746705
 10
48.19412976225703
 20
-90.72452254676332
 10
48.28921439764992
 20
-90.81512855802539
 10
48.42460665022024
 20
-90.81512855802539
 10
48.5474243042694
 20
-90.81512855802539
 10
48.66593558896199
 20
-90.73830292870431
 10
48.66593558896199
 20
-90.54847816746705
 10
48.66593558896199
 20
-90.35830889668127
 10
48.5474243042694
 20
-90.28148326736019
 10
48.42460665022024
 20
-90.28148326736019
 10
48.28921439764992
 20
-90.28148326736019
 10
48.19412976225703
 20
-90.37415633591341
 10
48.19412976225703
 20
-90.54847816746705
 97
        0
 97
        0
 92
        1
 93
        1
 72
     4
 94
        3
 73
     0
 74
     1
 95
       17
 96
       13
 40
0.0
 40
0.0
 40
0.0
 40
0.0
 40
1.0
 40
1.0
 40
1.0
 40
2.0
 40
2.0
 40
2.0
 40
3.0
 40
3.0
 40
3.0
 40
4.0
 40
4.0
 40
4.0
 40
4.0
 10
48.85421005723089
 20
-90.54847816746705
 10
48.85421005723089
 20
-90.7021294261092
 10
48.94085420868493
 20
-90.86473793301299
 10
49.14394258754041
 20
-90.86473793301299
 10
49.34909802368703
 20
-90.86473793301299
 10
49.4507283405019
 20
-90.72934568044266
 10
49.4507283405019
 20
-90.54847816746705
 10
49.4507283405019
 20
-90.34935164841961
 10
49.32808294122701
 20
-90.23187389237259
 10
49.15031601418812
 20
-90.23187389237259
 10
48.9281073553895
 20
-90.23187389237259
 10
48.85421005723089
 20
-90.4058512143777
 10
48.85421005723089
 20
-90.54847816746705
 97
        0
 97
        0
 75
     2
 76
     1
 98
        0
  0
POLYLINE
  5
7E
330
76
100
AcDbEntity
  8
_U+30EC_U+30A4_U+30E4_U+30FC 1
370
     0
100
AcDb2dPolyline
 66
     1
 10
0.0
 20
0.0
 30
0.0
  0
VERTEX
  5
7F
330
7E
100
AcDbEntity
  8
_U+30EC_U+30A4_U+30E4_U+30FC 1
370
     0
100
AcDbVertex
100
AcDb2dVertex
 10
49.59456107701109
 20
-89.76092933953893
 30
0.0
  0
VERTEX
  5
80
330
7E
100
AcDbEntity
  8
_U+30EC_U+30A4_U+30E4_U+30FC 1
370
     0
100
AcDbVertex
100
AcDb2dVertex
 10
49.34289685181358
 20
-89.76092933953893
 30
0.0
  0
VERTEX
  5
81
330
7E
100
AcDbEntity
  8
_U+30EC_U+30A4_U+30E4_U+30FC 1
370
     0
100
AcDbVertex
100
AcDb2dVertex
 10
49.34289685181358
 20
-89.49186738214092
 30
0.0
  0
VERTEX
  5
82
330
7E
100
AcDbEntity
  8
_U+30EC_U+30A4_U+30E4_U+30FC 1
370
     0
100
AcDbVertex
100
AcDb2dVertex
 10
49.59456107701109
 20
-89.49186738214092
 30
0.0
  0
VERTEX
  5
83
330
7E
100
AcDbEntity
  8
_U+30EC_U+30A4_U+30E4_U+30FC 1
370
     0
100
AcDbVertex
100
AcDb2dVertex
 10
49.59456107701109
 20
-89.76092933953893
 30
0.0
  0
SEQEND
  5
84
330
7E
100
AcDbEntity
  8
_U+30EC_U+30A4_U+30E4_U+30FC 1
370
     0
  0
HATCH
  5
85
330
76
100
AcDbEntity
  8
_U+30EC_U+30A4_U+30E4_U+30FC 1
 62
   179
420
  2234388
100
AcDbHatch
 10
0.0
 20
0.0
 30
0.0
210
0.0
220
0.0
230
1.0
  2
SOLID
 70
     1
 71
     0
 91
        1
 92
        1
 93
        4
 72
     1
 10
49.59456107701109
 20
-89.76092933953893
 11
49.34289685181358
 21
-89.76092933953893
 72
     1
 10
49.34289685181358
 20
-89.76092933953893
 11
49.34289685181358
 21
-89.49186738214092
 72
     1
 10
49.34289685181358
 20
-89.49186738214092
 11
49.59456107701109
 21
-89.49186738214092
 72
     1
 10
49.59456107701109
 20
-89.49186738214092
 11
49.59456107701109
 21
-89.76092933953893
 97
        0
 75
     2
 76
     1
 98
        0
  0
SPLINE
  5
86
330
76
100
AcDbEntity
  8
_U+30EC_U+30A4_U+30E4_U+30FC 1
370
     0
100
AcDbSpline
210
0.0
220
0.0
230
1.0
 70
    11
 71
     3
 72
    44
 73
    40
 74
     0
 42
0.0000000001
 43
0.0000000001
 12
1.0
 22
0.0
 32
0.0
 13
1.0
 23
0.0
 33
0.0
 40
0.0
 40
0.0
 40
0.0
 40
0.0
 40
1.0
 40
1.0
 40
1.0
 40
2.0
 40
2.0
 40
2.0
 40
3.0
 40
3.0
 40
3.0
 40
4.0
 40
4.0
 40
4.0
 40
5.0
 40
5.0
 40
5.0
 40
6.0
 40
6.0
 40
6.0
 40
7.0
 40
7.0
 40
7.0
 40
8.0
 40
8.0
 40
8.0
 40
9.0
 40
9.0
 40
9.0
 40
10.0
 40
10.0
 40
10.0
 40
11.0
 40
11.0
 40
11.0
 40
12.0
 40
12.0
 40
12.0
 40
13.0
 40
13.0
 40
13.0
 40
13.0
 10
49.01285670432665
 20
-88.60509980423762
 30
0.0
 10
49.1715033514224
 20
-88.8379882590405
 30
0.0
 10
49.24557290435528
 20
-88.93755151856423
 30
0.0
 10
49.38940564086445
 20
-88.9895724603915
 30
0.0
 10
49.38940564086445
 20
-88.9895724603915
 30
0.0
 10
49.38940564086445
 20
-88.15723739115514
 30
0.0
 10
49.38940564086445
 20
-88.15723739115514
 30
0.0
 10
49.38940564086445
 20
-88.15723739115514
 30
0.0
 10
49.59456107701109
 20
-88.15723739115514
 30
0.0
 10
49.59456107701109
 20
-88.15723739115514
 30
0.0
 10
49.59456107701109
 20
-88.15723739115514
 30
0.0
 10
49.59456107701109
 20
-89.25622285094984
 30
0.0
 10
49.59456107701109
 20
-89.25622285094984
 30
0.0
 10
49.23696016564215
 20
-89.22211640564586
 30
0.0
 10
49.15875649812698
 20
-89.1521809672953
 30
0.0
 10
48.86041122910434
 20
-88.74083656635646
 30
0.0
 10
48.66162921960543
 20
-88.46729598482763
 30
0.0
 10
48.59393309332027
 20
-88.39701603692853
 30
0.0
 10
48.4564737834588
 20
-88.39701603692853
 30
0.0
 10
48.3379624987662
 20
-88.39701603692853
 30
0.0
 10
48.20687661555245
 20
-88.4738416662496
 30
0.0
 10
48.20687661555245
 20
-88.68433700039836
 30
0.0
 10
48.20687661555245
 20
-88.96235620605803
 30
0.0
 10
48.43735350351567
 20
-88.97131345431967
 30
0.0
 10
48.55379773091711
 20
-88.9757920784505
 30
0.0
 10
48.55379773091711
 20
-88.9757920784505
 30
0.0
 10
48.55379773091711
 20
-89.2155707242239
 30
0.0
 10
48.55379773091711
 20
-89.2155707242239
 30
0.0
 10
48.42684596228565
 20
-89.20661347596224
 30
0.0
 10
48.31470810424077
 20
-89.19524466086092
 30
0.0
 10
48.19619681954818
 20
-89.10911727372967
 30
0.0
 10
48.03548311516127
 20
-88.99163951768264
 30
0.0
 10
48.00154892463156
 20
-88.79285750818373
 30
0.0
 10
48.00154892463156
 20
-88.66848956116621
 30
0.0
 10
48.00154892463156
 20
-88.37221134943474
 30
0.0
 10
48.18568927831816
 20
-88.15069170973317
 30
0.0
 10
48.45854084074995
 20
-88.15069170973317
 30
0.0
 10
48.68695067142202
 20
-88.15069170973317
 30
0.0
 10
48.78651393094574
 20
-88.27505965675068
 30
0.0
 10
49.01285670432665
 20
-88.60509980423762
 30
0.0
  0
HATCH
  5
87
330
76
100
AcDbEntity
  8
_U+30EC_U+30A4_U+30E4_U+30FC 1
 62
   179
420
  2234388
100
AcDbHatch
 10
0.0
 20
0.0
 30
0.0
210
0.0
220
0.0
230
1.0
  2
SOLID
 70
     1
 71
     0
 91
        1
 92
        1
 93
        1
 72
     4
 94
        3
 73
     0
 74
     1
 95
       44
 96
       40
 40
0.0
 40
0.0
 40
0.0
 40
0.0
 40
1.0
 40
1.0
 40
1.0
 40
2.0
 40
2.0
 40
2.0
 40
3.0
 40
3.0
 40
3.0
 40
4.0
 40
4.0
 40
4.0
 40
5.0
 40
5.0
 40
5.0
 40
6.0
 40
6.0
 40
6.0
 40
7.0
 40
7.0
 40
7.0
 40
8.0
 40
8.0
 40
8.0
 40
9.0
 40
9.0
 40
9.0
 40
10.0
 40
10.0
 40
10.0
 40
11.0
 40
11.0
 40
11.0
 40
12.0
 40
12.0
 40
12.0
 40
13.0
 40
13.0
 40
13.0
 40
13.0
 10
49.01285670432665
 20
-88.60509980423762
 10
49.1715033514224
 20
-88.8379882590405
 10
49.24557290435528
 20
-88.93755151856423
 10
49.38940564086445
 20
-88.9895724603915
 10
49.38940564086445
 20
-88.9895724603915
 10
49.38940564086445
 20
-88.15723739115514
 10
49.38940564086445
 20
-88.15723739115514
 10
49.38940564086445
 20
-88.15723739115514
 10
49.59456107701109
 20
-88.15723739115514
 10
49.59456107701109
 20
-88.15723739115514
 10
49.59456107701109
 20
-88.15723739115514
 10
49.59456107701109
 20
-89.25622285094984
 10
49.59456107701109
 20
-89.25622285094984
 10
49.23696016564215
 20
-89.22211640564586
 10
49.15875649812698
 20
-89.1521809672953
 10
48.86041122910434
 20
-88.74083656635646
 10
48.66162921960543
 20
-88.46729598482763
 10
48.59393309332027
 20
-88.39701603692853
 10
48.4564737834588
 20
-88.39701603692853
 10
48.3379624987662
 20
-88.39701603692853
 10
48.20687661555245
 20
-88.4738416662496
 10
48.20687661555245
 20
-88.68433700039836
 10
48.20687661555245
 20
-88.96235620605803
 10
48.43735350351567
 20
-88.97131345431967
 10
48.55379773091711
 20
-88.9757920784505
 10
48.55379773091711
 20
-88.9757920784505
 10
48.55379773091711
 20
-89.2155707242239
 10
48.55379773091711
 20
-89.2155707242239
 10
48.42684596228565
 20
-89.20661347596224
 10
48.31470810424077
 20
-89.19524466086092
 10
48.19619681954818
 20
-89.10911727372967
 10
48.03548311516127
 20
-88.99163951768264
 10
48.00154892463156
 20
-88.79285750818373
 10
48.00154892463156
 20
-88.66848956116621
 10
48.00154892463156
 20
-88.37221134943474
 10
48.18568927831816
 20
-88.15069170973317
 10
48.45854084074995
 20
-88.15069170973317
 10
48.68695067142202
 20
-88.15069170973317
 10
48.78651393094574
 20
-88.27505965675068
 10
49.01285670432665
 20
-88.60509980423762
 97
        0
 97
        0
 75
     2
 76
     1
 98
        0
  0
ENDBLK
  5
79
330
76
100
AcDbEntity
  8
0
100
AcDbBlockEnd
  0
BLOCK
  5
9A
330
98
100
AcDbEntity
  8
0
100
AcDbBlockBegin
  2
block 3
 70
     0
 10
0.0
 20
0.0
 30
0.0
  3
block 3
  1

  0
SPLINE
  5
9C
330
98
100
AcDbEntity
  8
_U+30EC_U+30A4_U+30E4_U+30FC 1
370
     0
100
AcDbSpline
210
0.0
220
0.0
230
1.0
 70
    11
 71
     3
 72
    26
 73
    22
 74
     0
 42
0.0000000001
 43
0.0000000001
 12
1.0
 22
0.0
 32
0.0
 13
1.0
 23
0.0
 33
0.0
 40
0.0
 40
0.0
 40
0.0
 40
0.0
 40
1.0
 40
1.0
 40
1.0
 40
2.0
 40
2.0
 40
2.0
 40
3.0
 40
3.0
 40
3.0
 40
4.0
 40
4.0
 40
4.0
 40
5.0
 40
5.0
 40
5.0
 40
6.0
 40
6.0
 40
6.0
 40
7.0
 40
7.0
 40
7.0
 40
7.0
 10
77.59491914292767
 20
-82.68315291986741
 30
0.0
 10
77.59491914292767
 20
-82.68315291986741
 30
0.0
 10
76.4907660399051
 20
-82.68315291986741
 30
0.0
 10
76.4907660399051
 20
-82.68315291986741
 30
0.0
 10
76.4907660399051
 20
-82.68315291986741
 30
0.0
 10
76.4907660399051
 20
-83.03593069755699
 30
0.0
 10
76.4907660399051
 20
-83.03593069755699
 30
0.0
 10
76.4907660399051
 20
-83.03593069755699
 30
0.0
 10
76.34262693403934
 20
-83.03593069755699
 30
0.0
 10
76.34262693403934
 20
-83.03593069755699
 30
0.0
 10
76.32781302345278
 20
-82.680913607802
 30
0.0
 10
76.16486000700046
 20
-82.63113197804013
 30
0.0
 10
76.05048283689015
 20
-82.59960935435011
 30
0.0
 10
76.05048283689015
 20
-82.59960935435011
 30
0.0
 10
76.05048283689015
 20
-82.44354652886828
 30
0.0
 10
76.05048283689015
 20
-82.44354652886828
 30
0.0
 10
76.05048283689015
 20
-82.44354652886828
 30
0.0
 10
77.59491914292767
 20
-82.44354652886828
 30
0.0
 10
77.59491914292767
 20
-82.44354652886828
 30
0.0
 10
77.59491914292767
 20
-82.44354652886828
 30
0.0
 10
77.59491914292767
 20
-82.68315291986741
 30
0.0
 10
77.59491914292767
 20
-82.68315291986741
 30
0.0
  0
HATCH
  5
9D
330
98
100
AcDbEntity
  8
_U+30EC_U+30A4_U+30E4_U+30FC 1
 62
   179
420
  2234388
100
AcDbHatch
 10
0.0
 20
0.0
 30
0.0
210
0.0
220
0.0
230
1.0
  2
SOLID
 70
     1
 71
     0
 91
        1
 92
        1
 93
        1
 72
     4
 94
        3
 73
     0
 74
     1
 95
       26
 96
       22
 40
0.0
 40
0.0
 40
0.0
 40
0.0
 40
1.0
 40
1.0
 40
1.0
 40
2.0
 40
2.0
 40
2.0
 40
3.0
 40
3.0
 40
3.0
 40
4.0
 40
4.0
 40
4.0
 40
5.0
 40
5.0
 40
5.0
 40
6.0
 40
6.0
 40
6.0
 40
7.0
 40
7.0
 40
7.0
 40
7.0
 10
77.59491914292767
 20
-82.68315291986741
 10
77.59491914292767
 20
-82.68315291986741
 10
76.4907660399051
 20
-82.68315291986741
 10
76.4907660399051
 20
-82.68315291986741
 10
76.4907660399051
 20
-82.68315291986741
 10
76.4907660399051
 20
-83.03593069755699
 10
76.4907660399051
 20
-83.03593069755699
 10
76.4907660399051
 20
-83.03593069755699
 10
76.34262693403934
 20
-83.03593069755699
 10
76.34262693403934
 20
-83.03593069755699
 10
76.32781302345278
 20
-82.680913607802
 10
76.16486000700046
 20
-82.63113197804013
 10
76.05048283689015
 20
-82.59960935435011
 10
76.05048283689015
 20
-82.59960935435011
 10
76.05048283689015
 20
-82.44354652886828
 10
76.05048283689015
 20
-82.44354652886828
 10
76.05048283689015
 20
-82.44354652886828
 10
77.59491914292767
 20
-82.44354652886828
 10
77.59491914292767
 20
-82.44354652886828
 10
77.59491914292767
 20
-82.44354652886828
 10
77.59491914292767
 20
-82.68315291986741
 10
77.59491914292767
 20
-82.68315291986741
 97
        0
 97
        0
 75
     2
 76
     1
 98
        0
  0
ENDBLK
  5
9B
330
98
100
AcDbEntity
  8
0
100
AcDbBlockEnd
  0
BLOCK
  5
AC
330
AA
100
AcDbEntity
  8
0
100
AcDbBlockBegin
  2
block 4
 70
     0
 10
0.0
 20
0.0
 30
0.0
  3
block 4
  1

  0
SPLINE
  5
AE
330
AA
100
AcDbEntity
  8
_U+30EC_U+30A4_U+30E4_U+30FC 1
370
     0
100
AcDbSpline
210
0.0
220
0.0
230
1.0
 70
    11
 71
     3
 72
    32
 73
    28
 74
     0
 42
0.0000000001
 43
0.0000000001
 12
1.0
 22
0.0
 32
0.0
 13
1.0
 23
0.0
 33
0.0
 40
0.0
 40
0.0
 40
0.0
 40
0.0
 40
1.0
 40
1.0
 40
1.0
 40
2.0
 40
2.0
 40
2.0
 40
3.0
 40
3.0
 40
3.0
 40
4.0
 40
4.0
 40
4.0
 40
5.0
 40
5.0
 40
5.0
 40
6.0
 40
6.0
 40
6.0
 40
7.0
 40
7.0
 40
7.0
 40
8.0
 40
8.0
 40
8.0
 40
9.0
 40
9.0
 40
9.0
 40
9.0
 10
77.64556204656084
 20
-90.54399954333623
 30
0.0
 10
77.64556204656084
 20
-91.09555933052472
 30
0.0
 10
77.09159069253266
 20
-91.10451657878637
 30
0.0
 10
76.87765026289864
 20
-91.10451657878637
 30
0.0
 10
76.64717337493543
 20
-91.10451657878637
 30
0.0
 10
75.999839933257
 20
-91.0841905154234
 30
0.0
 10
75.999839933257
 20
-90.50300290706176
 30
0.0
 10
75.999839933257
 20
-90.3176567699553
 30
0.0
 10
76.06977537160756
 20
-90.0554850035278
 30
0.0
 10
76.40188257638565
 20
-90.01483287680185
 30
0.0
 10
76.40188257638565
 20
-90.01483287680185
 30
0.0
 10
76.40188257638565
 20
-90.24324270747391
 30
0.0
 10
76.40188257638565
 20
-90.24324270747391
 30
0.0
 10
76.3446939913305
 20
-90.25461152257525
 30
0.0
 10
76.19655488546475
 20
-90.28837345833068
 30
0.0
 10
76.19655488546475
 20
-90.50541447390142
 30
0.0
 10
76.19655488546475
 20
-90.81754012486506
 30
0.0
 10
76.52452797566053
 20
-90.86025930888216
 30
0.0
 10
76.7295111570329
 20
-90.87403969082317
 30
0.0
 10
76.65130748951773
 20
-90.77447643129945
 30
0.0
 10
76.59205184717143
 20
-90.7021294261092
 30
0.0
 10
76.59205184717143
 20
-90.50748153119258
 30
0.0
 10
76.59205184717143
 20
-90.31558971266416
 30
0.0
 10
76.70022784540828
 20
-89.9920952465992
 30
0.0
 10
77.10640460311923
 20
-89.9920952465992
 30
0.0
 10
77.4257649546019
 20
-89.9920952465992
 30
0.0
 10
77.64556204656084
 20
-90.20465763803912
 30
0.0
 10
77.64556204656084
 20
-90.54399954333623
 30
0.0
  0
SPLINE
  5
AF
330
AA
100
AcDbEntity
  8
_U+30EC_U+30A4_U+30E4_U+30FC 1
370
     0
100
AcDbSpline
210
0.0
220
0.0
230
1.0
 70
    11
 71
     3
 72
    17
 73
    13
 74
     0
 42
0.0000000001
 43
0.0000000001
 12
1.0
 22
0.0
 32
0.0
 13
1.0
 23
0.0
 33
0.0
 40
0.0
 40
0.0
 40
0.0
 40
0.0
 40
1.0
 40
1.0
 40
1.0
 40
2.0
 40
2.0
 40
2.0
 40
3.0
 40
3.0
 40
3.0
 40
4.0
 40
4.0
 40
4.0
 40
4.0
 10
76.78669974208805
 20
-90.5257405372644
 30
0.0
 10
76.78669974208805
 20
-90.80617130976374
 30
0.0
 10
76.99822860488239
 20
-90.84682343648969
 30
0.0
 10
77.11467283228383
 20
-90.84682343648969
 30
0.0
 10
77.29037270203158
 20
-90.84682343648969
 30
0.0
 10
77.4533257184839
 20
-90.74519311967482
 30
0.0
 10
77.4533257184839
 20
-90.54847816746705
 30
0.0
 10
77.4533257184839
 20
-90.41963159631871
 30
0.0
 10
77.3940700761376
 20
-90.23187389237259
 30
0.0
 10
77.10847166041039
 20
-90.23187389237259
 30
0.0
 10
76.88419594432062
 20
-90.23187389237259
 30
0.0
 10
76.78669974208805
 20
-90.3810465268839
 30
0.0
 10
76.78669974208805
 20
-90.5257405372644
 30
0.0
  0
HATCH
  5
B0
330
AA
100
AcDbEntity
  8
_U+30EC_U+30A4_U+30E4_U+30FC 1
 62
   179
420
  2234388
100
AcDbHatch
 10
0.0
 20
0.0
 30
0.0
210
0.0
220
0.0
230
1.0
  2
SOLID
 70
     1
 71
     0
 91
        2
 92
        1
 93
        1
 72
     4
 94
        3
 73
     0
 74
     1
 95
       32
 96
       28
 40
0.0
 40
0.0
 40
0.0
 40
0.0
 40
1.0
 40
1.0
 40
1.0
 40
2.0
 40
2.0
 40
2.0
 40
3.0
 40
3.0
 40
3.0
 40
4.0
 40
4.0
 40
4.0
 40
5.0
 40
5.0
 40
5.0
 40
6.0
 40
6.0
 40
6.0
 40
7.0
 40
7.0
 40
7.0
 40
8.0
 40
8.0
 40
8.0
 40
9.0
 40
9.0
 40
9.0
 40
9.0
 10
77.64556204656084
 20
-90.54399954333623
 10
77.64556204656084
 20
-91.09555933052472
 10
77.09159069253266
 20
-91.10451657878637
 10
76.87765026289864
 20
-91.10451657878637
 10
76.64717337493543
 20
-91.10451657878637
 10
75.999839933257
 20
-91.0841905154234
 10
75.999839933257
 20
-90.50300290706176
 10
75.999839933257
 20
-90.3176567699553
 10
76.06977537160756
 20
-90.0554850035278
 10
76.40188257638565
 20
-90.01483287680185
 10
76.40188257638565
 20
-90.01483287680185
 10
76.40188257638565
 20
-90.24324270747391
 10
76.40188257638565
 20
-90.24324270747391
 10
76.3446939913305
 20
-90.25461152257525
 10
76.19655488546475
 20
-90.28837345833068
 10
76.19655488546475
 20
-90.50541447390142
 10
76.19655488546475
 20
-90.81754012486506
 10
76.52452797566053
 20
-90.86025930888216
 10
76.7295111570329
 20
-90.87403969082317
 10
76.65130748951773
 20
-90.77447643129945
 10
76.59205184717143
 20
-90.7021294261092
 10
76.59205184717143
 20
-90.50748153119258
 10
76.59205184717143
 20
-90.31558971266416
 10
76.70022784540828
 20
-89.9920952465992
 10
77.10640460311923
 20
-89.9920952465992
 10
77.4257649546019
 20
-89.9920952465992
 10
77.64556204656084
 20
-90.20465763803912
 10
77.64556204656084
 20
-90.54399954333623
 97
        0
 97
        0
 92
        1
 93
        1
 72
     4
 94
        3
 73
     0
 74
     1
 95
       17
 96
       13
 40
0.0
 40
0.0
 40
0.0
 40
0.0
 40
1.0
 40
1.0
 40
1.0
 40
2.0
 40
2.0
 40
2.0
 40
3.0
 40
3.0
 40
3.0
 40
4.0
 40
4.0
 40
4.0
 40
4.0
 10
76.78669974208805
 20
-90.5257405372644
 10
76.78669974208805
 20
-90.80617130976374
 10
76.99822860488239
 20
-90.84682343648969
 10
77.11467283228383
 20
-90.84682343648969
 10
77.29037270203158
 20
-90.84682343648969
 10
77.4533257184839
 20
-90.74519311967482
 10
77.4533257184839
 20
-90.54847816746705
 10
77.4533257184839
 20
-90.41963159631871
 10
77.3940700761376
 20
-90.23187389237259
 10
77.10847166041039
 20
-90.23187389237259
 10
76.88419594432062
 20
-90.23187389237259
 10
76.78669974208805
 20
-90.3810465268839
 10
76.78669974208805
 20
-90.5257405372644
 97
        0
 97
        0
 75
     2
 76
     1
 98
        0
  0
POLYLINE
  5
B1
330
AA
100
AcDbEntity
  8
_U+30EC_U+30A4_U+30E4_U+30FC 1
370
     0
100
AcDb2dPolyline
 66
     1
 10
0.0
 20
0.0
 30
0.0
  0
VERTEX
  5
B2
330
B1
100
AcDbEntity
  8
_U+30EC_U+30A4_U+30E4_U+30FC 1
370
     0
100
AcDbVertex
100
AcDb2dVertex
 10
77.59491914292767
 20
-89.76092933953893
 30
0.0
  0
VERTEX
  5
B3
330
B1
100
AcDbEntity
  8
_U+30EC_U+30A4_U+30E4_U+30FC 1
370
     0
100
AcDbVertex
100
AcDb2dVertex
 10
77.3430826629559
 20
-89.76092933953893
 30
0.0
  0
VERTEX
  5
B4
330
B1
100
AcDbEntity
  8
_U+30EC_U+30A4_U+30E4_U+30FC 1
370
     0
100
AcDbVertex
100
AcDb2dVertex
 10
77.3430826629559
 20
-89.49186738214092
 30
0.0
  0
VERTEX
  5
B5
330
B1
100
AcDbEntity
  8
_U+30EC_U+30A4_U+30E4_U+30FC 1
370
     0
100
AcDbVertex
100
AcDb2dVertex
 10
77.59491914292767
 20
-89.49186738214092
 30
0.0
  0
VERTEX
  5
B6
330
B1
100
AcDbEntity
  8
_U+30EC_U+30A4_U+30E4_U+30FC 1
370
     0
100
AcDbVertex
100
AcDb2dVertex
 10
77.59491914292767
 20
-89.76092933953893
 30
0.0
  0
SEQEND
  5
B7
330
B1
100
AcDbEntity
  8
_U+30EC_U+30A4_U+30E4_U+30FC 1
370
     0
  0
HATCH
  5
B8
330
AA
100
AcDbEntity
  8
_U+30EC_U+30A4_U+30E4_U+30FC 1
 62
   179
420
  2234388
100
AcDbHatch
 10
0.0
 20
0.0
 30
0.0
210
0.0
220
0.0
230
1.0
  2
SOLID
 70
     1
 71
     0
 91
        1
 92
        1
 93
        4
 72
     1
 10
77.59491914292767
 20
-89.76092933953893
 11
77.3430826629559
 21
-89.76092933953893
 72
     1
 10
77.3430826629559
 20
-89.76092933953893
 11
77.3430826629559
 21
-89.49186738214092
 72
     1
 10
77.3430826629559
 20
-89.49186738214092
 11
77.59491914292767
 21
-89.49186738214092
 72
     1
 10
77.59491914292767
 20
-89.49186738214092
 11
77.59491914292767
 21
-89.76092933953893
 97
        0
 75
     2
 76
     1
 98
        0
  0
SPLINE
  5
B9
330
AA
100
AcDbEntity
  8
_U+30EC_U+30A4_U+30E4_U+30FC 1
370
     0
100
AcDbSpline
210
0.0
220
0.0
230
1.0
 70
    11
 71
     3
 72
    44
 73
    40
 74
     0
 42
0.0000000001
 43
0.0000000001
 12
1.0
 22
0.0
 32
0.0
 13
1.0
 23
0.0
 33
0.0
 40
0.0
 40
0.0
 40
0.0
 40
0.0
 40
1.0
 40
1.0
 40
1.0
 40
2.0
 40
2.0
 40
2.0
 40
3.0
 40
3.0
 40
3.0
 40
4.0
 40
4.0
 40
4.0
 40
5.0
 40
5.0
 40
5.0
 40
6.0
 40
6.0
 40
6.0
 40
7.0
 40
7.0
 40
7.0
 40
8.0
 40
8.0
 40
8.0
 40
9.0
 40
9.0
 40
9.0
 40
10.0
 40
10.0
 40
10.0
 40
11.0
 40
11.0
 40
11.0
 40
12.0
 40
12.0
 40
12.0
 40
13.0
 40
13.0
 40
13.0
 40
13.0
 10
77.01304251546897
 20
-88.60509980423762
 30
0.0
 10
77.17186141733899
 20
-88.8379882590405
 30
0.0
 10
77.24593097027186
 20
-88.93755151856423
 30
0.0
 10
77.38959145200677
 20
-88.9895724603915
 30
0.0
 10
77.38959145200677
 20
-88.9895724603915
 30
0.0
 10
77.38959145200677
 20
-88.15723739115514
 30
0.0
 10
77.38959145200677
 20
-88.15723739115514
 30
0.0
 10
77.38959145200677
 20
-88.15723739115514
 30
0.0
 10
77.59491914292767
 20
-88.15723739115514
 30
0.0
 10
77.59491914292767
 20
-88.15723739115514
 30
0.0
 10
77.59491914292767
 20
-88.15723739115514
 30
0.0
 10
77.59491914292767
 20
-89.25622285094984
 30
0.0
 10
77.59491914292767
 20
-89.25622285094984
 30
0.0
 10
77.23731823155873
 20
-89.22211640564586
 30
0.0
 10
77.15911456404356
 20
-89.1521809672953
 30
0.0
 10
76.86076929502092
 20
-88.74083656635646
 30
0.0
 10
76.661987285522
 20
-88.46729598482763
 30
0.0
 10
76.59411890446259
 20
-88.39701603692853
 30
0.0
 10
76.45665959460112
 20
-88.39701603692853
 30
0.0
 10
76.33814830990852
 20
-88.39701603692853
 30
0.0
 10
76.20723468146903
 20
-88.4738416662496
 30
0.0
 10
76.20723468146903
 20
-88.68433700039836
 30
0.0
 10
76.20723468146903
 20
-88.96235620605803
 30
0.0
 10
76.43771156943224
 20
-88.97131345431967
 30
0.0
 10
76.55415579683368
 20
-88.9757920784505
 30
0.0
 10
76.55415579683368
 20
-88.9757920784505
 30
0.0
 10
76.55415579683368
 20
-89.2155707242239
 30
0.0
 10
76.55415579683368
 20
-89.2155707242239
 30
0.0
 10
76.42703177342797
 20
-89.20661347596224
 30
0.0
 10
76.31506617015735
 20
-89.19524466086092
 30
0.0
 10
76.19655488546475
 20
-89.10911727372967
 30
0.0
 10
76.03566892630359
 20
-88.99163951768264
 30
0.0
 10
76.00190699054814
 20
-88.79285750818373
 30
0.0
 10
76.00190699054814
 20
-88.66848956116621
 30
0.0
 10
76.00190699054814
 20
-88.37221134943474
 30
0.0
 10
76.18587508946048
 20
-88.15069170973317
 30
0.0
 10
76.45872665189226
 20
-88.15069170973317
 30
0.0
 10
76.68748099211285
 20
-88.15069170973317
 30
0.0
 10
76.78669974208805
 20
-88.27505965675068
 30
0.0
 10
77.01304251546897
 20
-88.60509980423762
 30
0.0
  0
HATCH
  5
BA
330
AA
100
AcDbEntity
  8
_U+30EC_U+30A4_U+30E4_U+30FC 1
 62
   179
420
  2234388
100
AcDbHatch
 10
0.0
 20
0.0
 30
0.0
210
0.0
220
0.0
230
1.0
  2
SOLID
 70
     1
 71
     0
 91
        1
 92
        1
 93
        1
 72
     4
 94
        3
 73
     0
 74
     1
 95
       44
 96
       40
 40
0.0
 40
0.0
 40
0.0
 40
0.0
 40
1.0
 40
1.0
 40
1.0
 40
2.0
 40
2.0
 40
2.0
 40
3.0
 40
3.0
 40
3.0
 40
4.0
 40
4.0
 40
4.0
 40
5.0
 40
5.0
 40
5.0
 40
6.0
 40
6.0
 40
6.0
 40
7.0
 40
7.0
 40
7.0
 40
8.0
 40
8.0
 40
8.0
 40
9.0
 40
9.0
 40
9.0
 40
10.0
 40
10.0
 40
10.0
 40
11.0
 40
11.0
 40
11.0
 40
12.0
 40
12.0
 40
12.0
 40
13.0
 40
13.0
 40
13.0
 40
13.0
 10
77.01304251546897
 20
-88.60509980423762
 10
77.17186141733899
 20
-88.8379882590405
 10
77.24593097027186
 20
-88.93755151856423
 10
77.38959145200677
 20
-88.9895724603915
 10
77.38959145200677
 20
-88.9895724603915
 10
77.38959145200677
 20
-88.15723739115514
 10
77.38959145200677
 20
-88.15723739115514
 10
77.38959145200677
 20
-88.15723739115514
 10
77.59491914292767
 20
-88.15723739115514
 10
77.59491914292767
 20
-88.15723739115514
 10
77.59491914292767
 20
-88.15723739115514
 10
77.59491914292767
 20
-89.25622285094984
 10
77.59491914292767
 20
-89.25622285094984
 10
77.23731823155873
 20
-89.22211640564586
 10
77.15911456404356
 20
-89.1521809672953
 10
76.86076929502092
 20
-88.74083656635646
 10
76.661987285522
 20
-88.46729598482763
 10
76.59411890446259
 20
-88.39701603692853
 10
76.45665959460112
 20
-88.39701603692853
 10
76.33814830990852
 20
-88.39701603692853
 10
76.20723468146903
 20
-88.4738416662496
 10
76.20723468146903
 20
-88.68433700039836
 10
76.20723468146903
 20
-88.96235620605803
 10
76.43771156943224
 20
-88.97131345431967
 10
76.55415579683368
 20
-88.9757920784505
 10
76.55415579683368
 20
-88.9757920784505
 10
76.55415579683368
 20
-89.2155707242239
 10
76.55415579683368
 20
-89.2155707242239
 10
76.42703177342797
 20
-89.20661347596224
 10
76.31506617015735
 20
-89.19524466086092
 10
76.19655488546475
 20
-89.10911727372967
 10
76.03566892630359
 20
-88.99163951768264
 10
76.00190699054814
 20
-88.79285750818373
 10
76.00190699054814
 20
-88.66848956116621
 10
76.00190699054814
 20
-88.37221134943474
 10
76.18587508946048
 20
-88.15069170973317
 10
76.45872665189226
 20
-88.15069170973317
 10
76.68748099211285
 20
-88.15069170973317
 10
76.78669974208805
 20
-88.27505965675068
 10
77.01304251546897
 20
-88.60509980423762
 97
        0
 97
        0
 75
     2
 76
     1
 98
        0
  0
ENDBLK
  5
AD
330
AA
100
AcDbEntity
  8
0
100
AcDbBlockEnd
  0
BLOCK
  5
C9
330
C7
100
AcDbEntity
  8
0
100
AcDbBlockBegin
  2
block 5
 70
     0
 10
0.0
 20
0.0
 30
0.0
  3
block 5
  1

  0
SPLINE
  5
CB
330
C7
100
AcDbEntity
  8
_U+30EC_U+30A4_U+30E4_U+30FC 1
370
     0
100
AcDbSpline
210
0.0
220
0.0
230
1.0
 70
    11
 71
     3
 72
    32
 73
    28
 74
     0
 42
0.0000000001
 43
0.0000000001
 12
1.0
 22
0.0
 32
0.0
 13
1.0
 23
0.0
 33
0.0
 40
0.0
 40
0.0
 40
0.0
 40
0.0
 40
1.0
 40
1.0
 40
1.0
 40
2.0
 40
2.0
 40
2.0
 40
3.0
 40
3.0
 40
3.0
 40
4.0
 40
4.0
 40
4.0
 40
5.0
 40
5.0
 40
5.0
 40
6.0
 40
6.0
 40
6.0
 40
7.0
 40
7.0
 40
7.0
 40
8.0
 40
8.0
 40
8.0
 40
9.0
 40
9.0
 40
9.0
 40
9.0
 10
57.19513073656928
 20
-97.32842608243872
 30
0.0
 10
56.64357094938077
 20
-97.32842608243872
 30
0.0
 10
56.63444144634487
 20
-96.77445472841056
 30
0.0
 10
56.63444144634487
 20
-96.56051429877654
 30
0.0
 10
56.63444144634487
 20
-96.33003741081333
 30
0.0
 10
56.65476750970784
 20
-95.68270396913488
 30
0.0
 10
57.23578286329522
 20
-95.68270396913488
 30
0.0
 10
57.42112900040166
 20
-95.68270396913488
 30
0.0
 10
57.68347302160344
 20
-95.75263940748546
 30
0.0
 10
57.72412514832939
 20
-96.08474661226354
 30
0.0
 10
57.72412514832939
 20
-96.08474661226354
 30
0.0
 10
57.49588757243158
 20
-96.08474661226354
 30
0.0
 10
57.49588757243158
 20
-96.08474661226354
 30
0.0
 10
57.48451875733026
 20
-96.02755802720839
 30
0.0
 10
57.45058456680055
 20
-95.87941892134265
 30
0.0
 10
57.23354355122981
 20
-95.87941892134265
 30
0.0
 10
56.92159015504044
 20
-95.87941892134265
 30
0.0
 10
56.87852646147481
 20
-96.20739201153843
 30
0.0
 10
56.86509058908234
 20
-96.4123751929108
 30
0.0
 10
56.9644815938318
 20
-96.33417152539563
 30
0.0
 10
57.03682859902204
 20
-96.27491588304933
 30
0.0
 10
57.2313042391644
 20
-96.27491588304933
 30
0.0
 10
57.42354056724134
 20
-96.27491588304933
 30
0.0
 10
57.74669052375778
 20
-96.38309188128618
 30
0.0
 10
57.74669052375778
 20
-96.78926863899713
 30
0.0
 10
57.74669052375778
 20
-97.10862899047979
 30
0.0
 10
57.53430038709212
 20
-97.32842608243872
 30
0.0
 10
57.19513073656928
 20
-97.32842608243872
 30
0.0
  0
SPLINE
  5
CC
330
C7
100
AcDbEntity
  8
_U+30EC_U+30A4_U+30E4_U+30FC 1
370
     0
100
AcDbSpline
210
0.0
220
0.0
230
1.0
 70
    11
 71
     3
 72
    17
 73
    13
 74
     0
 42
0.0000000001
 43
0.0000000001
 12
1.0
 22
0.0
 32
0.0
 13
1.0
 23
0.0
 33
0.0
 40
0.0
 40
0.0
 40
0.0
 40
0.0
 40
1.0
 40
1.0
 40
1.0
 40
2.0
 40
2.0
 40
2.0
 40
3.0
 40
3.0
 40
3.0
 40
4.0
 40
4.0
 40
4.0
 40
4.0
 10
57.21321748786684
 20
-96.46956377796594
 30
0.0
 10
56.93295897014176
 20
-96.46956377796594
 30
0.0
 10
56.89213458864155
 20
-96.68109264076028
 30
0.0
 10
56.89213458864155
 20
-96.79753686816173
 30
0.0
 10
56.89213458864155
 20
-96.97323673790947
 30
0.0
 10
56.99393716023069
 20
-97.1361897543618
 30
0.0
 10
57.19065211243845
 20
-97.1361897543618
 30
0.0
 10
57.31949868358679
 20
-97.1361897543618
 30
0.0
 10
57.50708413275865
 20
-97.0769341120155
 30
0.0
 10
57.50708413275865
 20
-96.79133569628829
 30
0.0
 10
57.50708413275865
 20
-96.56705998019852
 30
0.0
 10
57.35791149824733
 20
-96.46956377796594
 30
0.0
 10
57.21321748786684
 20
-96.46956377796594
 30
0.0
  0
HATCH
  5
CD
330
C7
100
AcDbEntity
  8
_U+30EC_U+30A4_U+30E4_U+30FC 1
 62
   179
420
  2234388
100
AcDbHatch
 10
0.0
 20
0.0
 30
0.0
210
0.0
220
0.0
230
1.0
  2
SOLID
 70
     1
 71
     0
 91
        2
 92
        1
 93
        1
 72
     4
 94
        3
 73
     0
 74
     1
 95
       32
 96
       28
 40
0.0
 40
0.0
 40
0.0
 40
0.0
 40
1.0
 40
1.0
 40
1.0
 40
2.0
 40
2.0
 40
2.0
 40
3.0
 40
3.0
 40
3.0
 40
4.0
 40
4.0
 40
4.0
 40
5.0
 40
5.0
 40
5.0
 40
6.0
 40
6.0
 40
6.0
 40
7.0
 40
7.0
 40
7.0
 40
8.0
 40
8.0
 40
8.0
 40
9.0
 40
9.0
 40
9.0
 40
9.0
 10
57.19513073656928
 20
-97.32842608243872
 10
56.64357094938077
 20
-97.32842608243872
 10
56.63444144634487
 20
-96.77445472841056
 10
56.63444144634487
 20
-96.56051429877654
 10
56.63444144634487
 20
-96.33003741081333
 10
56.65476750970784
 20
-95.68270396913488
 10
57.23578286329522
 20
-95.68270396913488
 10
57.42112900040166
 20
-95.68270396913488
 10
57.68347302160344
 20
-95.75263940748546
 10
57.72412514832939
 20
-96.08474661226354
 10
57.72412514832939
 20
-96.08474661226354
 10
57.49588757243158
 20
-96.08474661226354
 10
57.49588757243158
 20
-96.08474661226354
 10
57.48451875733026
 20
-96.02755802720839
 10
57.45058456680055
 20
-95.87941892134265
 10
57.23354355122981
 20
-95.87941892134265
 10
56.92159015504044
 20
-95.87941892134265
 10
56.87852646147481
 20
-96.20739201153843
 10
56.86509058908234
 20
-96.4123751929108
 10
56.9644815938318
 20
-96.33417152539563
 10
57.03682859902204
 20
-96.27491588304933
 10
57.2313042391644
 20
-96.27491588304933
 10
57.42354056724134
 20
-96.27491588304933
 10
57.74669052375778
 20
-96.38309188128618
 10
57.74669052375778
 20
-96.78926863899713
 10
57.74669052375778
 20
-97.10862899047979
 10
57.53430038709212
 20
-97.32842608243872
 10
57.19513073656928
 20
-97.32842608243872
 97
        0
 97
        0
 92
        1
 93
        1
 72
     4
 94
        3
 73
     0
 74
     1
 95
       17
 96
       13
 40
0.0
 40
0.0
 40
0.0
 40
0.0
 40
1.0
 40
1.0
 40
1.0
 40
2.0
 40
2.0
 40
2.0
 40
3.0
 40
3.0
 40
3.0
 40
4.0
 40
4.0
 40
4.0
 40
4.0
 10
57.21321748786684
 20
-96.46956377796594
 10
56.93295897014176
 20
-96.46956377796594
 10
56.89213458864155
 20
-96.68109264076028
 10
56.89213458864155
 20
-96.79753686816173
 10
56.89213458864155
 20
-96.97323673790947
 10
56.99393716023069
 20
-97.1361897543618
 10
57.19065211243845
 20
-97.1361897543618
 10
57.31949868358679
 20
-97.1361897543618
 10
57.50708413275865
 20
-97.0769341120155
 10
57.50708413275865
 20
-96.79133569628829
 10
57.50708413275865
 20
-96.56705998019852
 10
57.35791149824733
 20
-96.46956377796594
 10
57.21321748786684
 20
-96.46956377796594
 97
        0
 97
        0
 75
     2
 76
     1
 98
        0
  0
ENDBLK
  5
CA
330
C7
100
AcDbEntity
  8
0
100
AcDbBlockEnd
  0
BLOCK
  5
DC
330
DA
100
AcDbEntity
  8
0
100
AcDbBlockBegin
  2
block 6
 70
     0
 10
0.0
 20
0.0
 30
0.0
  3
block 6
  1

  0
SPLINE
  5
DE
330
DA
100
AcDbEntity
  8
_U+30EC_U+30A4_U+30E4_U+30FC 1
370
     0
100
AcDbSpline
210
0.0
220
0.0
230
1.0
 70
    11
 71
     3
 72
    44
 73
    40
 74
     0
 42
0.0000000001
 43
0.0000000001
 12
1.0
 22
0.0
 32
0.0
 13
1.0
 23
0.0
 33
0.0
 40
0.0
 40
0.0
 40
0.0
 40
0.0
 40
1.0
 40
1.0
 40
1.0
 40
2.0
 40
2.0
 40
2.0
 40
3.0
 40
3.0
 40
3.0
 40
4.0
 40
4.0
 40
4.0
 40
5.0
 40
5.0
 40
5.0
 40
6.0
 40
6.0
 40
6.0
 40
7.0
 40
7.0
 40
7.0
 40
8.0
 40
8.0
 40
8.0
 40
9.0
 40
9.0
 40
9.0
 40
10.0
 40
10.0
 40
10.0
 40
11.0
 40
11.0
 40
11.0
 40
12.0
 40
12.0
 40
12.0
 40
13.0
 40
13.0
 40
13.0
 40
13.0
 10
63.66123045283469
 20
-80.49568954150803
 30
0.0
 10
63.4283419980318
 20
-80.65450844337805
 30
0.0
 10
63.32877873850808
 20
-80.72857799631092
 30
0.0
 10
63.27675779668081
 20
-80.87223847804583
 30
0.0
 10
63.27675779668081
 20
-80.87223847804583
 30
0.0
 10
64.10909286591718
 20
-80.87223847804583
 30
0.0
 10
64.10909286591718
 20
-80.87223847804583
 30
0.0
 10
64.10909286591718
 20
-80.87223847804583
 30
0.0
 10
64.10909286591718
 20
-81.07756616896673
 30
0.0
 10
64.10909286591718
 20
-81.07756616896673
 30
0.0
 10
64.10909286591718
 20
-81.07756616896673
 30
0.0
 10
63.01010740612248
 20
-81.07756616896673
 30
0.0
 10
63.01010740612248
 20
-81.07756616896673
 30
0.0
 10
63.04421385142645
 20
-80.71996525759779
 30
0.0
 10
63.11414928977702
 20
-80.64176159008262
 30
0.0
 10
63.52549369071586
 20
-80.34341632105998
 30
0.0
 10
63.79903427224469
 20
-80.14463431156106
 30
0.0
 10
63.86931422014379
 20
-80.07676593050165
 30
0.0
 10
63.86931422014379
 20
-79.93930662064018
 30
0.0
 10
63.86931422014379
 20
-79.82079533594758
 30
0.0
 10
63.79248859082271
 20
-79.68988170750809
 30
0.0
 10
63.58199325667395
 20
-79.68988170750809
 30
0.0
 10
63.30397405101429
 20
-79.68988170750809
 30
0.0
 10
63.29501680275263
 20
-79.9203585954713
 30
0.0
 10
63.29053817862182
 20
-80.03680282287274
 30
0.0
 10
63.29053817862182
 20
-80.03680282287274
 30
0.0
 10
63.05075953284842
 20
-80.03680282287274
 30
0.0
 10
63.05075953284842
 20
-80.03680282287274
 30
0.0
 10
63.05971678111008
 20
-79.90967879946703
 30
0.0
 10
63.0710855962114
 20
-79.79771319619641
 30
0.0
 10
63.15721298334265
 20
-79.67920191150381
 30
0.0
 10
63.27469073938966
 20
-79.51831595234265
 30
0.0
 10
63.47347274888858
 20
-79.4845540165872
 30
0.0
 10
63.5978406959061
 20
-79.4845540165872
 30
0.0
 10
63.89411890763758
 20
-79.4845540165872
 30
0.0
 10
64.11563854733915
 20
-79.66852211549954
 30
0.0
 10
64.11563854733915
 20
-79.94137367793132
 30
0.0
 10
64.11563854733915
 20
-80.17012801815191
 30
0.0
 10
63.99127060032163
 20
-80.26934676812711
 30
0.0
 10
63.66123045283469
 20
-80.49568954150803
 30
0.0
  0
HATCH
  5
DF
330
DA
100
AcDbEntity
  8
_U+30EC_U+30A4_U+30E4_U+30FC 1
 62
   179
420
  2234388
100
AcDbHatch
 10
0.0
 20
0.0
 30
0.0
210
0.0
220
0.0
230
1.0
  2
SOLID
 70
     1
 71
     0
 91
        1
 92
        1
 93
        1
 72
     4
 94
        3
 73
     0
 74
     1
 95
       44
 96
       40
 40
0.0
 40
0.0
 40
0.0
 40
0.0
 40
1.0
 40
1.0
 40
1.0
 40
2.0
 40
2.0
 40
2.0
 40
3.0
 40
3.0
 40
3.0
 40
4.0
 40
4.0
 40
4.0
 40
5.0
 40
5.0
 40
5.0
 40
6.0
 40
6.0
 40
6.0
 40
7.0
 40
7.0
 40
7.0
 40
8.0
 40
8.0
 40
8.0
 40
9.0
 40
9.0
 40
9.0
 40
10.0
 40
10.0
 40
10.0
 40
11.0
 40
11.0
 40
11.0
 40
12.0
 40
12.0
 40
12.0
 40
13.0
 40
13.0
 40
13.0
 40
13.0
 10
63.66123045283469
 20
-80.49568954150803
 10
63.4283419980318
 20
-80.65450844337805
 10
63.32877873850808
 20
-80.72857799631092
 10
63.27675779668081
 20
-80.87223847804583
 10
63.27675779668081
 20
-80.87223847804583
 10
64.10909286591718
 20
-80.87223847804583
 10
64.10909286591718
 20
-80.87223847804583
 10
64.10909286591718
 20
-80.87223847804583
 10
64.10909286591718
 20
-81.07756616896673
 10
64.10909286591718
 20
-81.07756616896673
 10
64.10909286591718
 20
-81.07756616896673
 10
63.01010740612248
 20
-81.07756616896673
 10
63.01010740612248
 20
-81.07756616896673
 10
63.04421385142645
 20
-80.71996525759779
 10
63.11414928977702
 20
-80.64176159008262
 10
63.52549369071586
 20
-80.34341632105998
 10
63.79903427224469
 20
-80.14463431156106
 10
63.86931422014379
 20
-80.07676593050165
 10
63.86931422014379
 20
-79.93930662064018
 10
63.86931422014379
 20
-79.82079533594758
 10
63.79248859082271
 20
-79.68988170750809
 10
63.58199325667395
 20
-79.68988170750809
 10
63.30397405101429
 20
-79.68988170750809
 10
63.29501680275263
 20
-79.9203585954713
 10
63.29053817862182
 20
-80.03680282287274
 10
63.29053817862182
 20
-80.03680282287274
 10
63.05075953284842
 20
-80.03680282287274
 10
63.05075953284842
 20
-80.03680282287274
 10
63.05971678111008
 20
-79.90967879946703
 10
63.0710855962114
 20
-79.79771319619641
 10
63.15721298334265
 20
-79.67920191150381
 10
63.27469073938966
 20
-79.51831595234265
 10
63.47347274888858
 20
-79.4845540165872
 10
63.5978406959061
 20
-79.4845540165872
 10
63.89411890763758
 20
-79.4845540165872
 10
64.11563854733915
 20
-79.66852211549954
 10
64.11563854733915
 20
-79.94137367793132
 10
64.11563854733915
 20
-80.17012801815191
 10
63.99127060032163
 20
-80.26934676812711
 10
63.66123045283469
 20
-80.49568954150803
 97
        0
 97
        0
 75
     2
 76
     1
 98
        0
  0
SPLINE
  5
E0
330
DA
100
AcDbEntity
  8
_U+30EC_U+30A4_U+30E4_U+30FC 1
370
     0
100
AcDbSpline
210
0.0
220
0.0
230
1.0
 70
    11
 71
     3
 72
    29
 73
    25
 74
     0
 42
0.0000000001
 43
0.0000000001
 12
1.0
 22
0.0
 32
0.0
 13
1.0
 23
0.0
 33
0.0
 40
0.0
 40
0.0
 40
0.0
 40
0.0
 40
1.0
 40
1.0
 40
1.0
 40
2.0
 40
2.0
 40
2.0
 40
3.0
 40
3.0
 40
3.0
 40
4.0
 40
4.0
 40
4.0
 40
5.0
 40
5.0
 40
5.0
 40
6.0
 40
6.0
 40
6.0
 40
7.0
 40
7.0
 40
7.0
 40
8.0
 40
8.0
 40
8.0
 40
8.0
 10
65.24459633785553
 20
-80.89979924192784
 30
0.0
 10
65.12918563909965
 20
-81.10926104743102
 30
0.0
 10
64.94383950199321
 20
-81.1282090725999
 30
0.0
 10
64.81947155497569
 20
-81.1282090725999
 30
0.0
 10
64.64790579981025
 20
-81.1282090725999
 30
0.0
 10
64.49632159845926
 20
-81.08170028354903
 30
0.0
 10
64.39469128164438
 20
-80.89979924192784
 30
0.0
 10
64.28375920701934
 20
-80.70515134701121
 30
0.0
 10
64.26343314365637
 20
-80.46847328717455
 30
0.0
 10
64.26343314365637
 20
-80.30552027072224
 30
0.0
 10
64.26343314365637
 20
-80.16151527943879
 30
0.0
 10
64.28134764017966
 20
-79.90967879946703
 30
0.0
 10
64.39469128164438
 20
-79.71089678996812
 30
0.0
 10
64.50975747085172
 20
-79.50798066588689
 30
0.0
 10
64.6816677355657
 20
-79.4845540165872
 30
0.0
 10
64.81947155497569
 20
-79.4845540165872
 30
0.0
 10
64.98931476239851
 20
-79.4845540165872
 30
0.0
 10
65.14296602104065
 20
-79.52899574834692
 30
0.0
 10
65.24459633785553
 20
-79.71089678996812
 30
0.0
 10
65.35104978834974
 20
-79.90347762759357
 30
0.0
 10
65.37585447584354
 20
-80.13188745826564
 30
0.0
 10
65.37585447584354
 20
-80.30552027072224
 30
0.0
 10
65.37585447584354
 20
-80.47674151633915
 30
0.0
 10
65.35311684564088
 20
-80.70721840430237
 30
0.0
 10
65.24459633785553
 20
-80.89979924192784
 30
0.0
  0
SPLINE
  5
E1
330
DA
100
AcDbEntity
  8
_U+30EC_U+30A4_U+30E4_U+30FC 1
370
     0
100
AcDbSpline
210
0.0
220
0.0
230
1.0
 70
    11
 71
     3
 72
    17
 73
    13
 74
     0
 42
0.0000000001
 43
0.0000000001
 12
1.0
 22
0.0
 32
0.0
 13
1.0
 23
0.0
 33
0.0
 40
0.0
 40
0.0
 40
0.0
 40
0.0
 40
1.0
 40
1.0
 40
1.0
 40
2.0
 40
2.0
 40
2.0
 40
3.0
 40
3.0
 40
3.0
 40
4.0
 40
4.0
 40
4.0
 40
4.0
 10
64.81947155497569
 20
-79.67713485421267
 30
0.0
 10
64.55282116441735
 20
-79.67713485421267
 30
0.0
 10
64.50321178942976
 20
-79.96066621264873
 30
0.0
 10
64.50321178942976
 20
-80.30552027072224
 30
0.0
 10
64.50321178942976
 20
-80.6248806222049
 30
0.0
 10
64.54145234931603
 20
-80.93356117768327
 30
0.0
 10
64.81947155497569
 20
-80.93356117768327
 30
0.0
 10
65.08405488824287
 20
-80.93356117768327
 30
0.0
 10
65.13607583007015
 20
-80.65244138608689
 30
0.0
 10
65.13607583007015
 20
-80.30552027072224
 30
0.0
 10
65.13607583007015
 20
-79.98581540969106
 30
0.0
 10
65.0954237033442
 20
-79.67713485421267
 30
0.0
 10
64.81947155497569
 20
-79.67713485421267
 30
0.0
  0
HATCH
  5
E2
330
DA
100
AcDbEntity
  8
_U+30EC_U+30A4_U+30E4_U+30FC 1
 62
   179
420
  2234388
100
AcDbHatch
 10
0.0
 20
0.0
 30
0.0
210
0.0
220
0.0
230
1.0
  2
SOLID
 70
     1
 71
     0
 91
        2
 92
        1
 93
        1
 72
     4
 94
        3
 73
     0
 74
     1
 95
       29
 96
       25
 40
0.0
 40
0.0
 40
0.0
 40
0.0
 40
1.0
 40
1.0
 40
1.0
 40
2.0
 40
2.0
 40
2.0
 40
3.0
 40
3.0
 40
3.0
 40
4.0
 40
4.0
 40
4.0
 40
5.0
 40
5.0
 40
5.0
 40
6.0
 40
6.0
 40
6.0
 40
7.0
 40
7.0
 40
7.0
 40
8.0
 40
8.0
 40
8.0
 40
8.0
 10
65.24459633785553
 20
-80.89979924192784
 10
65.12918563909965
 20
-81.10926104743102
 10
64.94383950199321
 20
-81.1282090725999
 10
64.81947155497569
 20
-81.1282090725999
 10
64.64790579981025
 20
-81.1282090725999
 10
64.49632159845926
 20
-81.08170028354903
 10
64.39469128164438
 20
-80.89979924192784
 10
64.28375920701934
 20
-80.70515134701121
 10
64.26343314365637
 20
-80.46847328717455
 10
64.26343314365637
 20
-80.30552027072224
 10
64.26343314365637
 20
-80.16151527943879
 10
64.28134764017966
 20
-79.90967879946703
 10
64.39469128164438
 20
-79.71089678996812
 10
64.50975747085172
 20
-79.50798066588689
 10
64.6816677355657
 20
-79.4845540165872
 10
64.81947155497569
 20
-79.4845540165872
 10
64.98931476239851
 20
-79.4845540165872
 10
65.14296602104065
 20
-79.52899574834692
 10
65.24459633785553
 20
-79.71089678996812
 10
65.35104978834974
 20
-79.90347762759357
 10
65.37585447584354
 20
-80.13188745826564
 10
65.37585447584354
 20
-80.30552027072224
 10
65.37585447584354
 20
-80.47674151633915
 10
65.35311684564088
 20
-80.70721840430237
 10
65.24459633785553
 20
-80.89979924192784
 97
        0
 97
        0
 92
        1
 93
        1
 72
     4
 94
        3
 73
     0
 74
     1
 95
       17
 96
       13
 40
0.0
 40
0.0
 40
0.0
 40
0.0
 40
1.0
 40
1.0
 40
1.0
 40
2.0
 40
2.0
 40
2.0
 40
3.0
 40
3.0
 40
3.0
 40
4.0
 40
4.0
 40
4.0
 40
4.0
 10
64.81947155497569
 20
-79.67713485421267
 10
64.55282116441735
 20
-79.67713485421267
 10
64.50321178942976
 20
-79.96066621264873
 10
64.50321178942976
 20
-80.30552027072224
 10
64.50321178942976
 20
-80.6248806222049
 10
64.54145234931603
 20
-80.93356117768327
 10
64.81947155497569
 20
-80.93356117768327
 10
65.08405488824287
 20
-80.93356117768327
 10
65.13607583007015
 20
-80.65244138608689
 10
65.13607583007015
 20
-80.30552027072224
 10
65.13607583007015
 20
-79.98581540969106
 10
65.0954237033442
 20
-79.67713485421267
 10
64.81947155497569
 20
-79.67713485421267
 97
        0
 97
        0
 75
     2
 76
     1
 98
        0
  0
ENDBLK
  5
DD
330
DA
100
AcDbEntity
  8
0
100
AcDbBlockEnd
  0
ENDSEC
  0
SECTION
  2
ENTITIES
  0
POLYLINE
  5
41
330
1F
100
AcDbEntity
  8
_U+30EC_U+30A4_U+30E4_U+30FC 1
 62
   179
420
  2234388
370
    25
100
AcDb2dPolyline
 66
     1
 10
0.0
 20
0.0
 30
0.0
  0
VERTEX
  5
42
330
41
100
AcDbEntity
  8
_U+30EC_U+30A4_U+30E4_U+30FC 1
 62
   179
420
  2234388
370
    25
100
AcDbVertex
100
AcDb2dVertex
 10
54.19100445080563
 20
-85.6740235896925
 30
0.0
  0
VERTEX
  5
43
330
41
100
AcDbEntity
  8
_U+30EC_U+30A4_U+30E4_U+30FC 1
 62
   179
420
  2234388
370
    25
100
AcDbVertex
100
AcDb2dVertex
 10
74.19117560722542
 20
-85.6740235896925
 30
0.0
  0
SEQEND
  5
44
330
41
100
AcDbEntity
  8
_U+30EC_U+30A4_U+30E4_U+30FC 1
 62
   179
420
  2234388
370
    25
  0
POLYLINE
  5
45
330
1F
100
AcDbEntity
  8
_U+30EC_U+30A4_U+30E4_U+30FC 1
 62
   179
420
  2234388
370
    25
100
AcDb2dPolyline
 66
     1
 10
0.0
 20
0.0
 30
0.0
  0
VERTEX
  5
46
330
45
100
AcDbEntity
  8
_U+30EC_U+30A4_U+30E4_U+30FC 1
 62
   179
420
  2234388
370
    25
100
AcDbVertex
100
AcDb2dVertex
 10
54.19100445080563
 20
-85.6740235896925
 30
0.0
  0
VERTEX
  5
47
330
45
100
AcDbEntity
  8
_U+30EC_U+30A4_U+30E4_U+30FC 1
 62
   179
420
  2234388
370
    25
100
AcDbVertex
100
AcDb2dVertex
 10
54.19100445080563
 20
-93.87402553208689
 30
0.0
  0
SEQEND
  5
48
330
45
100
AcDbEntity
  8
_U+30EC_U+30A4_U+30E4_U+30FC 1
 62
   179
420
  2234388
370
    25
  0
POLYLINE
  5
49
330
1F
100
AcDbEntity
  8
_U+30EC_U+30A4_U+30E4_U+30FC 1
 62
   179
420
  2234388
370
    25
100
AcDb2dPolyline
 66
     1
 10
0.0
 20
0.0
 30
0.0
  0
VERTEX
  5
4A
330
49
100
AcDbEntity
  8
_U+30EC_U+30A4_U+30E4_U+30FC 1
 62
   179
420
  2234388
370
    25
100
AcDbVertex
100
AcDb2dVertex
 10
74.19117560722542
 20
-85.6740235896925
 30
0.0
  0
VERTEX
  5
4B
330
49
100
AcDbEntity
  8
_U+30EC_U+30A4_U+30E4_U+30FC 1
 62
   179
420
  2234388
370
    25
100
AcDbVertex
100
AcDb2dVertex
 10
74.19117560722542
 20
-86.67379581166503
 30
0.0
  0
SEQEND
  5
4C
330
49
100
AcDbEntity
  8
_U+30EC_U+30A4_U+30E4_U+30FC 1
 62
   179
420
  2234388
370
    25
  0
POLYLINE
  5
4D
330
1F
100
AcDbEntity
  8
_U+30EC_U+30A4_U+30E4_U+30FC 1
 62
   179
420
  2234388
370
    25
100
AcDb2dPolyline
 66
     1
 10
0.0
 20
0.0
 30
0.0
  0
VERTEX
  5
4E
330
4D
100
AcDbEntity
  8
_U+30EC_U+30A4_U+30E4_U+30FC 1
 62
   179
420
  2234388
370
    25
100
AcDbVertex
100
AcDb2dVertex
 10
55.19112942529031
 20
-86.67379581166503
 30
0.0
  0
VERTEX
  5
4F
330
4D
100
AcDbEntity
  8
_U+30EC_U+30A4_U+30E4_U+30FC 1
 62
   179
420
  2234388
370
    25
100
AcDbVertex
100
AcDb2dVertex
 10
74.19117560722542
 20
-86.67379581166503
 30
0.0
  0
SEQEND
  5
50
330
4D
100
AcDbEntity
  8
_U+30EC_U+30A4_U+30E4_U+30FC 1
 62
   179
420
  2234388
370
    25
  0
POLYLINE
  5
51
330
1F
100
AcDbEntity
  8
_U+30EC_U+30A4_U+30E4_U+30FC 1
 62
   179
420
  2234388
370
    25
100
AcDb2dPolyline
 66
     1
 10
0.0
 20
0.0
 30
0.0
  0
VERTEX
  5
52
330
51
100
AcDbEntity
  8
_U+30EC_U+30A4_U+30E4_U+30FC 1
 62
   179
420
  2234388
370
    25
100
AcDbVertex
100
AcDb2dVertex
 10
60.19115457550683
 20
-92.874253310115
 30
0.0
  0
VERTEX
  5
53
330
51
100
AcDbEntity
  8
_U+30EC_U+30A4_U+30E4_U+30FC 1
 62
   179
420
  2234388
370
    25
100
AcDbVertex
100
AcDb2dVertex
 10
60.19115457550683
 20
-93.87402553208689
 30
0.0
  0
SEQEND
  5
54
330
51
100
AcDbEntity
  8
_U+30EC_U+30A4_U+30E4_U+30FC 1
 62
   179
420
  2234388
370
    25
  0
POLYLINE
  5
55
330
1F
100
AcDbEntity
  8
_U+30EC_U+30A4_U+30E4_U+30FC 1
 62
   179
420
  2234388
370
    25
100
AcDb2dPolyline
 66
     1
 10
0.0
 20
0.0
 30
0.0
  0
VERTEX
  5
56
330
55
100
AcDbEntity
  8
_U+30EC_U+30A4_U+30E4_U+30FC 1
 62
   179
420
  2234388
370
    25
100
AcDbVertex
100
AcDb2dVertex
 10
55.19112942529031
 20
-92.874253310115
 30
0.0
  0
VERTEX
  5
57
330
55
100
AcDbEntity
  8
_U+30EC_U+30A4_U+30E4_U+30FC 1
 62
   179
420
  2234388
370
    25
100
AcDbVertex
100
AcDb2dVertex
 10
60.19115457550683
 20
-92.874253310115
 30
0.0
  0
SEQEND
  5
58
330
55
100
AcDbEntity
  8
_U+30EC_U+30A4_U+30E4_U+30FC 1
 62
   179
420
  2234388
370
    25
  0
POLYLINE
  5
59
330
1F
100
AcDbEntity
  8
_U+30EC_U+30A4_U+30E4_U+30FC 1
 62
   179
420
  2234388
370
    25
100
AcDb2dPolyline
 66
     1
 10
0.0
 20
0.0
 30
0.0
  0
VERTEX
  5
5A
330
59
100
AcDbEntity
  8
_U+30EC_U+30A4_U+30E4_U+30FC 1
 62
   179
420
  2234388
370
    25
100
AcDbVertex
100
AcDb2dVertex
 10
55.19112942529031
 20
-86.67379581166503
 30
0.0
  0
VERTEX
  5
5B
330
59
100
AcDbEntity
  8
_U+30EC_U+30A4_U+30E4_U+30FC 1
 62
   179
420
  2234388
370
    25
100
AcDbVertex
100
AcDb2dVertex
 10
55.19112942529031
 20
-92.874253310115
 30
0.0
  0
SEQEND
  5
5C
330
59
100
AcDbEntity
  8
_U+30EC_U+30A4_U+30E4_U+30FC 1
 62
   179
420
  2234388
370
    25
  0
POLYLINE
  5
5D
330
1F
100
AcDbEntity
  8
_U+30EC_U+30A4_U+30E4_U+30FC 1
 62
   179
420
  2234388
370
    25
100
AcDb2dPolyline
 66
     1
 10
0.0
 20
0.0
 30
0.0
  0
VERTEX
  5
5E
330
5D
100
AcDbEntity
  8
_U+30EC_U+30A4_U+30E4_U+30FC 1
 62
   179
420
  2234388
370
    25
100
AcDbVertex
100
AcDb2dVertex
 10
54.19100445080563
 20
-93.87402553208689
 30
0.0
  0
VERTEX
  5
5F
330
5D
100
AcDbEntity
  8
_U+30EC_U+30A4_U+30E4_U+30FC 1
 62
   179
420
  2234388
370
    25
100
AcDbVertex
100
AcDb2dVertex
 10
60.19115457550683
 20
-93.87402553208689
 30
0.0
  0
SEQEND
  5
60
330
5D
100
AcDbEntity
  8
_U+30EC_U+30A4_U+30E4_U+30FC 1
 62
   179
420
  2234388
370
    25
  0
SPLINE
  5
61
330
1F
100
AcDbEntity
  8
_U+30EC_U+30A4_U+30E4_U+30FC 1
 62
   179
420
  2234388
370
     9
100
AcDbSpline
210
0.0
220
0.0
230
1.0
 70
    11
 71
     3
 72
    17
 73
    13
 74
     0
 42
0.0000000001
 43
0.0000000001
 12
1.0
 22
0.0
 32
0.0
 13
1.0
 23
0.0
 33
0.0
 40
0.0
 40
0.0
 40
0.0
 40
0.0
 40
1.0
 40
1.0
 40
1.0
 40
2.0
 40
2.0
 40
2.0
 40
3.0
 40
3.0
 40
3.0
 40
4.0
 40
4.0
 40
4.0
 40
4.0
 10
54.29091111492347
 20
-81.67355886847041
 30
0.0
 10
54.29091111492347
 20
-81.61845497959548
 30
0.0
 10
54.24614361606558
 20
-81.57365220182876
 30
0.0
 10
54.19100445080563
 20
-81.57365220182876
 30
0.0
 10
54.13590056332256
 20
-81.57365220182876
 30
0.0
 10
54.0910977866878
 20
-81.61845497959548
 30
0.0
 10
54.0910977866878
 20
-81.67355886847041
 30
0.0
 10
54.0910977866878
 20
-81.72936831290085
 30
0.0
 10
54.13590056332256
 20
-81.77417109066756
 30
0.0
 10
54.19100445080563
 20
-81.77417109066756
 30
0.0
 10
54.24614361606558
 20
-81.77417109066756
 30
0.0
 10
54.29091111492347
 20
-81.72936831290085
 30
0.0
 10
54.29091111492347
 20
-81.67355886847041
 30
0.0
  0
SPLINE
  5
62
330
1F
100
AcDbEntity
  8
_U+30EC_U+30A4_U+30E4_U+30FC 1
 62
   179
420
  2234388
370
     9
100
AcDbSpline
210
0.0
220
0.0
230
1.0
 70
    11
 71
     3
 72
    17
 73
    13
 74
     0
 42
0.0000000001
 43
0.0000000001
 12
1.0
 22
0.0
 32
0.0
 13
1.0
 23
0.0
 33
0.0
 40
0.0
 40
0.0
 40
0.0
 40
0.0
 40
1.0
 40
1.0
 40
1.0
 40
2.0
 40
2.0
 40
2.0
 40
3.0
 40
3.0
 40
3.0
 40
4.0
 40
4.0
 40
4.0
 40
4.0
 10
74.29108227134326
 20
-81.67355886847041
 30
0.0
 10
74.29108227134326
 20
-81.61845497959548
 30
0.0
 10
74.24627949470849
 20
-81.57365220182876
 30
0.0
 10
74.19117560722542
 20
-81.57365220182876
 30
0.0
 10
74.13603644196547
 20
-81.57365220182876
 30
0.0
 10
74.0912689431076
 20
-81.61845497959548
 30
0.0
 10
74.0912689431076
 20
-81.67355886847041
 30
0.0
 10
74.0912689431076
 20
-81.72936831290085
 30
0.0
 10
74.13603644196547
 20
-81.77417109066756
 30
0.0
 10
74.19117560722542
 20
-81.77417109066756
 30
0.0
 10
74.24627949470849
 20
-81.77417109066756
 30
0.0
 10
74.29108227134326
 20
-81.72936831290085
 30
0.0
 10
74.29108227134326
 20
-81.67355886847041
 30
0.0
  0
SPLINE
  5
63
330
1F
100
AcDbEntity
  8
_U+30EC_U+30A4_U+30E4_U+30FC 1
 62
   179
420
  2234388
370
     9
100
AcDbSpline
210
0.0
220
0.0
230
1.0
 70
    11
 71
     3
 72
    17
 73
    13
 74
     0
 42
0.0000000001
 43
0.0000000001
 12
1.0
 22
0.0
 32
0.0
 13
1.0
 23
0.0
 33
0.0
 40
0.0
 40
0.0
 40
0.0
 40
0.0
 40
1.0
 40
1.0
 40
1.0
 40
2.0
 40
2.0
 40
2.0
 40
3.0
 40
3.0
 40
3.0
 40
4.0
 40
4.0
 40
4.0
 40
4.0
 10
78.29115883595946
 20
-85.6740235896925
 30
0.0
 10
78.29115883595946
 20
-85.61888442303973
 30
0.0
 10
78.24639133710158
 20
-85.57411692305085
 30
0.0
 10
78.19125217184164
 20
-85.57411692305085
 30
0.0
 10
78.13579550658979
 20
-85.57411692305085
 30
0.0
 10
78.0910280077319
 20
-85.61888442303973
 30
0.0
 10
78.0910280077319
 20
-85.6740235896925
 30
0.0
 10
78.0910280077319
 20
-85.72912747856773
 30
0.0
 10
78.13579550658979
 20
-85.77393025633445
 30
0.0
 10
78.19125217184164
 20
-85.77393025633445
 30
0.0
 10
78.24639133710158
 20
-85.77393025633445
 30
0.0
 10
78.29115883595946
 20
-85.72912747856773
 30
0.0
 10
78.29115883595946
 20
-85.6740235896925
 30
0.0
  0
SPLINE
  5
64
330
1F
100
AcDbEntity
  8
_U+30EC_U+30A4_U+30E4_U+30FC 1
 62
   179
420
  2234388
370
     9
100
AcDbSpline
210
0.0
220
0.0
230
1.0
 70
    11
 71
     3
 72
    17
 73
    13
 74
     0
 42
0.0000000001
 43
0.0000000001
 12
1.0
 22
0.0
 32
0.0
 13
1.0
 23
0.0
 33
0.0
 40
0.0
 40
0.0
 40
0.0
 40
0.0
 40
1.0
 40
1.0
 40
1.0
 40
2.0
 40
2.0
 40
2.0
 40
3.0
 40
3.0
 40
3.0
 40
4.0
 40
4.0
 40
4.0
 40
4.0
 10
78.29115883595946
 20
-86.67379581166503
 30
0.0
 10
78.29115883595946
 20
-86.61865664501195
 30
0.0
 10
78.24639133710158
 20
-86.57388914502307
 30
0.0
 10
78.19125217184164
 20
-86.57388914502307
 30
0.0
 10
78.13579550658979
 20
-86.57388914502307
 30
0.0
 10
78.0910280077319
 20
-86.61865664501195
 30
0.0
 10
78.0910280077319
 20
-86.67379581166503
 30
0.0
 10
78.0910280077319
 20
-86.72889970053996
 30
0.0
 10
78.13579550658979
 20
-86.77370247830667
 30
0.0
 10
78.19125217184164
 20
-86.77370247830667
 30
0.0
 10
78.24639133710158
 20
-86.77370247830667
 30
0.0
 10
78.29115883595946
 20
-86.72889970053996
 30
0.0
 10
78.29115883595946
 20
-86.67379581166503
 30
0.0
  0
SPLINE
  5
65
330
1F
100
AcDbEntity
  8
_U+30EC_U+30A4_U+30E4_U+30FC 1
 62
   179
420
  2234388
370
     9
100
AcDbSpline
210
0.0
220
0.0
230
1.0
 70
    11
 71
     3
 72
    17
 73
    13
 74
     0
 42
0.0000000001
 43
0.0000000001
 12
1.0
 22
0.0
 32
0.0
 13
1.0
 23
0.0
 33
0.0
 40
0.0
 40
0.0
 40
0.0
 40
0.0
 40
1.0
 40
1.0
 40
1.0
 40
2.0
 40
2.0
 40
2.0
 40
3.0
 40
3.0
 40
3.0
 40
4.0
 40
4.0
 40
4.0
 40
4.0
 10
78.29115883595946
 20
-92.874253310115
 30
0.0
 10
78.29115883595946
 20
-92.81844386568456
 30
0.0
 10
78.24639133710158
 20
-92.77367636569535
 30
0.0
 10
78.19125217184164
 20
-92.77367636569535
 30
0.0
 10
78.13579550658979
 20
-92.77367636569535
 30
0.0
 10
78.0910280077319
 20
-92.81844386568456
 30
0.0
 10
78.0910280077319
 20
-92.874253310115
 30
0.0
 10
78.0910280077319
 20
-92.92939247676743
 30
0.0
 10
78.13579550658979
 20
-92.97415997675664
 30
0.0
 10
78.19125217184164
 20
-92.97415997675664
 30
0.0
 10
78.24639133710158
 20
-92.97415997675664
 30
0.0
 10
78.29115883595946
 20
-92.92939247676743
 30
0.0
 10
78.29115883595946
 20
-92.874253310115
 30
0.0
  0
SPLINE
  5
66
330
1F
100
AcDbEntity
  8
_U+30EC_U+30A4_U+30E4_U+30FC 1
 62
   179
420
  2234388
370
     9
100
AcDbSpline
210
0.0
220
0.0
230
1.0
 70
    11
 71
     3
 72
    17
 73
    13
 74
     0
 42
0.0000000001
 43
0.0000000001
 12
1.0
 22
0.0
 32
0.0
 13
1.0
 23
0.0
 33
0.0
 40
0.0
 40
0.0
 40
0.0
 40
0.0
 40
1.0
 40
1.0
 40
1.0
 40
2.0
 40
2.0
 40
2.0
 40
3.0
 40
3.0
 40
3.0
 40
4.0
 40
4.0
 40
4.0
 40
4.0
 10
50.29115205029915
 20
-93.87402553208689
 30
0.0
 10
50.29115205029915
 20
-93.81892164321198
 30
0.0
 10
50.24638455144127
 20
-93.77411886544526
 30
0.0
 10
50.19124538618132
 20
-93.77411886544526
 30
0.0
 10
50.13614149869824
 20
-93.77411886544526
 30
0.0
 10
50.09133872206348
 20
-93.81892164321198
 30
0.0
 10
50.09133872206348
 20
-93.87402553208689
 30
0.0
 10
50.09133872206348
 20
-93.92916469873997
 30
0.0
 10
50.13614149869824
 20
-93.97393219872853
 30
0.0
 10
50.19124538618132
 20
-93.97393219872853
 30
0.0
 10
50.24638455144127
 20
-93.97393219872853
 30
0.0
 10
50.29115205029915
 20
-93.92916469873997
 30
0.0
 10
50.29115205029915
 20
-93.87402553208689
 30
0.0
  0
SPLINE
  5
67
330
1F
100
AcDbEntity
  8
_U+30EC_U+30A4_U+30E4_U+30FC 1
 62
   179
420
  2234388
370
     9
100
AcDbSpline
210
0.0
220
0.0
230
1.0
 70
    11
 71
     3
 72
    17
 73
    13
 74
     0
 42
0.0000000001
 43
0.0000000001
 12
1.0
 22
0.0
 32
0.0
 13
1.0
 23
0.0
 33
0.0
 40
0.0
 40
0.0
 40
0.0
 40
0.0
 40
1.0
 40
1.0
 40
1.0
 40
2.0
 40
2.0
 40
2.0
 40
3.0
 40
3.0
 40
3.0
 40
4.0
 40
4.0
 40
4.0
 40
4.0
 10
50.29115205029915
 20
-85.6740235896925
 30
0.0
 10
50.29115205029915
 20
-85.61888442303973
 30
0.0
 10
50.24638455144127
 20
-85.57411692305085
 30
0.0
 10
50.19124538618132
 20
-85.57411692305085
 30
0.0
 10
50.13614149869824
 20
-85.57411692305085
 30
0.0
 10
50.09133872206348
 20
-85.61888442303973
 30
0.0
 10
50.09133872206348
 20
-85.6740235896925
 30
0.0
 10
50.09133872206348
 20
-85.72912747856773
 30
0.0
 10
50.13614149869824
 20
-85.77393025633445
 30
0.0
 10
50.19124538618132
 20
-85.77393025633445
 30
0.0
 10
50.24638455144127
 20
-85.77393025633445
 30
0.0
 10
50.29115205029915
 20
-85.72912747856773
 30
0.0
 10
50.29115205029915
 20
-85.6740235896925
 30
0.0
  0
SPLINE
  5
68
330
1F
100
AcDbEntity
  8
_U+30EC_U+30A4_U+30E4_U+30FC 1
 62
   179
420
  2234388
370
     9
100
AcDbSpline
210
0.0
220
0.0
230
1.0
 70
    11
 71
     3
 72
    17
 73
    13
 74
     0
 42
0.0000000001
 43
0.0000000001
 12
1.0
 22
0.0
 32
0.0
 13
1.0
 23
0.0
 33
0.0
 40
0.0
 40
0.0
 40
0.0
 40
0.0
 40
1.0
 40
1.0
 40
1.0
 40
2.0
 40
2.0
 40
2.0
 40
3.0
 40
3.0
 40
3.0
 40
4.0
 40
4.0
 40
4.0
 40
4.0
 10
60.29141401739344
 20
-97.87378469775378
 30
0.0
 10
60.29141401739344
 20
-97.81868080887887
 30
0.0
 10
60.24661124075867
 20
-97.77387803111215
 30
0.0
 10
60.19115457550683
 20
-97.77387803111215
 30
0.0
 10
60.13569791025498
 20
-97.77387803111215
 30
0.0
 10
60.09124791138899
 20
-97.81868080887887
 30
0.0
 10
60.09124791138899
 20
-97.87378469775378
 30
0.0
 10
60.09124791138899
 20
-97.92892386440685
 30
0.0
 10
60.13569791025498
 20
-97.97369136439542
 30
0.0
 10
60.19115457550683
 20
-97.97369136439542
 30
0.0
 10
60.24661124075867
 20
-97.97369136439542
 30
0.0
 10
60.29141401739344
 20
-97.92892386440685
 30
0.0
 10
60.29141401739344
 20
-97.87378469775378
 30
0.0
  0
SPLINE
  5
69
330
1F
100
AcDbEntity
  8
_U+30EC_U+30A4_U+30E4_U+30FC 1
 62
   179
420
  2234388
370
     9
100
AcDbSpline
210
0.0
220
0.0
230
1.0
 70
    11
 71
     3
 72
    17
 73
    13
 74
     0
 42
0.0000000001
 43
0.0000000001
 12
1.0
 22
0.0
 32
0.0
 13
1.0
 23
0.0
 33
0.0
 40
0.0
 40
0.0
 40
0.0
 40
0.0
 40
1.0
 40
1.0
 40
1.0
 40
2.0
 40
2.0
 40
2.0
 40
3.0
 40
3.0
 40
3.0
 40
4.0
 40
4.0
 40
4.0
 40
4.0
 10
54.29091111492347
 20
-97.87378469775378
 30
0.0
 10
54.29091111492347
 20
-97.81868080887887
 30
0.0
 10
54.24614361606558
 20
-97.77387803111215
 30
0.0
 10
54.19100445080563
 20
-97.77387803111215
 30
0.0
 10
54.13590056332256
 20
-97.77387803111215
 30
0.0
 10
54.0910977866878
 20
-97.81868080887887
 30
0.0
 10
54.0910977866878
 20
-97.87378469775378
 30
0.0
 10
54.0910977866878
 20
-97.92892386440685
 30
0.0
 10
54.13590056332256
 20
-97.97369136439542
 30
0.0
 10
54.19100445080563
 20
-97.97369136439542
 30
0.0
 10
54.24614361606558
 20
-97.97369136439542
 30
0.0
 10
54.29091111492347
 20
-97.92892386440685
 30
0.0
 10
54.29091111492347
 20
-97.87378469775378
 30
0.0
  0
POLYLINE
  5
6A
330
1F
100
AcDbEntity
  8
_U+30EC_U+30A4_U+30E4_U+30FC 1
 62
   179
420
  2234388
370
     9
100
AcDb2dPolyline
 66
     1
 10
0.0
 20
0.0
 30
0.0
  0
VERTEX
  5
6B
330
6A
100
AcDbEntity
  8
_U+30EC_U+30A4_U+30E4_U+30FC 1
 62
   179
420
  2234388
370
     9
100
AcDbVertex
100
AcDb2dVertex
 10
50.19124538618132
 20
-85.6740235896925
 30
0.0
  0
VERTEX
  5
6C
330
6A
100
AcDbEntity
  8
_U+30EC_U+30A4_U+30E4_U+30FC 1
 62
   179
420
  2234388
370
     9
100
AcDbVertex
100
AcDb2dVertex
 10
50.19124538618132
 20
-93.87402553208689
 30
0.0
  0
SEQEND
  5
6D
330
6A
100
AcDbEntity
  8
_U+30EC_U+30A4_U+30E4_U+30FC 1
 62
   179
420
  2234388
370
     9
  0
POLYLINE
  5
6E
330
1F
100
AcDbEntity
  8
_U+30EC_U+30A4_U+30E4_U+30FC 1
 62
   179
420
  2234388
370
     9
100
AcDb2dPolyline
 66
     1
 10
0.0
 20
0.0
 30
0.0
  0
VERTEX
  5
6F
330
6E
100
AcDbEntity
  8
_U+30EC_U+30A4_U+30E4_U+30FC 1
 62
   179
420
  2234388
370
     9
100
AcDbVertex
100
AcDb2dVertex
 10
51.65128673782145
 20
-85.6740235896925
 30
0.0
  0
VERTEX
  5
70
330
6E
100
AcDbEntity
  8
_U+30EC_U+30A4_U+30E4_U+30FC 1
 62
   179
420
  2234388
370
     9
100
AcDbVertex
100
AcDb2dVertex
 10
49.19115568947351
 20
-85.6740235896925
 30
0.0
  0
SEQEND
  5
71
330
6E
100
AcDbEntity
  8
_U+30EC_U+30A4_U+30E4_U+30FC 1
 62
   179
420
  2234388
370
     9
  0
POLYLINE
  5
72
330
1F
100
AcDbEntity
  8
_U+30EC_U+30A4_U+30E4_U+30FC 1
 62
   179
420
  2234388
370
     9
100
AcDb2dPolyline
 66
     1
 10
0.0
 20
0.0
 30
0.0
  0
VERTEX
  5
73
330
72
100
AcDbEntity
  8
_U+30EC_U+30A4_U+30E4_U+30FC 1
 62
   179
420
  2234388
370
     9
100
AcDbVertex
100
AcDb2dVertex
 10
51.65128673782145
 20
-93.87402553208689
 30
0.0
  0
VERTEX
  5
74
330
72
100
AcDbEntity
  8
_U+30EC_U+30A4_U+30E4_U+30FC 1
 62
   179
420
  2234388
370
     9
100
AcDbVertex
100
AcDb2dVertex
 10
49.19115568947351
 20
-93.87402553208689
 30
0.0
  0
SEQEND
  5
75
330
72
100
AcDbEntity
  8
_U+30EC_U+30A4_U+30E4_U+30FC 1
 62
   179
420
  2234388
370
     9
  0
INSERT
  5
77
330
1F
100
AcDbEntity
  8
_U+30EC_U+30A4_U+30E4_U+30FC 1
100
AcDbBlockReference
  2
block 2
 10
0.0
 20
0.0
 30
0.0
  0
POLYLINE
  5
88
330
1F
100
AcDbEntity
  8
_U+30EC_U+30A4_U+30E4_U+30FC 1
 62
   179
420
  2234388
370
     9
100
AcDb2dPolyline
 66
     1
 10
0.0
 20
0.0
 30
0.0
  0
VERTEX
  5
89
330
88
100
AcDbEntity
  8
_U+30EC_U+30A4_U+30E4_U+30FC 1
 62
   179
420
  2234388
370
     9
100
AcDbVertex
100
AcDb2dVertex
 10
78.19125217184164
 20
-85.6740235896925
 30
0.0
  0
VERTEX
  5
8A
330
88
100
AcDbEntity
  8
_U+30EC_U+30A4_U+30E4_U+30FC 1
 62
   179
420
  2234388
370
     9
100
AcDbVertex
100
AcDb2dVertex
 10
78.19125217184164
 20
-81.90371109063507
 30
0.0
  0
SEQEND
  5
8B
330
88
100
AcDbEntity
  8
_U+30EC_U+30A4_U+30E4_U+30FC 1
 62
   179
420
  2234388
370
     9
  0
POLYLINE
  5
8C
330
1F
100
AcDbEntity
  8
_U+30EC_U+30A4_U+30E4_U+30FC 1
 62
   179
420
  2234388
370
     9
100
AcDb2dPolyline
 66
     1
 10
0.0
 20
0.0
 30
0.0
  0
VERTEX
  5
8D
330
8C
100
AcDbEntity
  8
_U+30EC_U+30A4_U+30E4_U+30FC 1
 62
   179
420
  2234388
370
     9
100
AcDbVertex
100
AcDb2dVertex
 10
78.19125217184164
 20
-85.6740235896925
 30
0.0
  0
VERTEX
  5
8E
330
8C
100
AcDbEntity
  8
_U+30EC_U+30A4_U+30E4_U+30FC 1
 62
   179
420
  2234388
370
     9
100
AcDbVertex
100
AcDb2dVertex
 10
78.19125217184164
 20
-86.67379581166503
 30
0.0
  0
SEQEND
  5
8F
330
8C
100
AcDbEntity
  8
_U+30EC_U+30A4_U+30E4_U+30FC 1
 62
   179
420
  2234388
370
     9
  0
POLYLINE
  5
90
330
1F
100
AcDbEntity
  8
_U+30EC_U+30A4_U+30E4_U+30FC 1
 62
   179
420
  2234388
370
     9
100
AcDb2dPolyline
 66
     1
 10
0.0
 20
0.0
 30
0.0
  0
VERTEX
  5
91
330
90
100
AcDbEntity
  8
_U+30EC_U+30A4_U+30E4_U+30FC 1
 62
   179
420
  2234388
370
     9
100
AcDbVertex
100
AcDb2dVertex
 10
76.73124609797839
 20
-85.6740235896925
 30
0.0
  0
VERTEX
  5
92
330
90
100
AcDbEntity
  8
_U+30EC_U+30A4_U+30E4_U+30FC 1
 62
   179
420
  2234388
370
     9
100
AcDbVertex
100
AcDb2dVertex
 10
79.19102436855754
 20
-85.6740235896925
 30
0.0
  0
SEQEND
  5
93
330
90
100
AcDbEntity
  8
_U+30EC_U+30A4_U+30E4_U+30FC 1
 62
   179
420
  2234388
370
     9
  0
POLYLINE
  5
94
330
1F
100
AcDbEntity
  8
_U+30EC_U+30A4_U+30E4_U+30FC 1
 62
   179
420
  2234388
370
     9
100
AcDb2dPolyline
 66
     1
 10
0.0
 20
0.0
 30
0.0
  0
VERTEX
  5
95
330
94
100
AcDbEntity
  8
_U+30EC_U+30A4_U+30E4_U+30FC 1
 62
   179
420
  2234388
370
     9
100
AcDbVertex
100
AcDb2dVertex
 10
76.73124609797839
 20
-86.67379581166503
 30
0.0
  0
VERTEX
  5
96
330
94
100
AcDbEntity
  8
_U+30EC_U+30A4_U+30E4_U+30FC 1
 62
   179
420
  2234388
370
     9
100
AcDbVertex
100
AcDb2dVertex
 10
79.19102436855754
 20
-86.67379581166503
 30
0.0
  0
SEQEND
  5
97
330
94
100
AcDbEntity
  8
_U+30EC_U+30A4_U+30E4_U+30FC 1
 62
   179
420
  2234388
370
     9
  0
INSERT
  5
99
330
1F
100
AcDbEntity
  8
_U+30EC_U+30A4_U+30E4_U+30FC 1
100
AcDbBlockReference
  2
block 3
 10
0.0
 20
0.0
 30
0.0
  0
POLYLINE
  5
9E
330
1F
100
AcDbEntity
  8
_U+30EC_U+30A4_U+30E4_U+30FC 1
 62
   179
420
  2234388
370
     9
100
AcDb2dPolyline
 66
     1
 10
0.0
 20
0.0
 30
0.0
  0
VERTEX
  5
9F
330
9E
100
AcDbEntity
  8
_U+30EC_U+30A4_U+30E4_U+30FC 1
 62
   179
420
  2234388
370
     9
100
AcDbVertex
100
AcDb2dVertex
 10
78.19125217184164
 20
-86.67379581166503
 30
0.0
  0
VERTEX
  5
A0
330
9E
100
AcDbEntity
  8
_U+30EC_U+30A4_U+30E4_U+30FC 1
 62
   179
420
  2234388
370
     9
100
AcDbVertex
100
AcDb2dVertex
 10
78.19125217184164
 20
-92.874253310115
 30
0.0
  0
SEQEND
  5
A1
330
9E
100
AcDbEntity
  8
_U+30EC_U+30A4_U+30E4_U+30FC 1
 62
   179
420
  2234388
370
     9
  0
POLYLINE
  5
A2
330
1F
100
AcDbEntity
  8
_U+30EC_U+30A4_U+30E4_U+30FC 1
 62
   179
420
  2234388
370
     9
100
AcDb2dPolyline
 66
     1
 10
0.0
 20
0.0
 30
0.0
  0
VERTEX
  5
A3
330
A2
100
AcDbEntity
  8
_U+30EC_U+30A4_U+30E4_U+30FC 1
 62
   179
420
  2234388
370
     9
100
AcDbVertex
100
AcDb2dVertex
 10
76.73124609797839
 20
-86.67379581166503
 30
0.0
  0
VERTEX
  5
A4
330
A2
100
AcDbEntity
  8
_U+30EC_U+30A4_U+30E4_U+30FC 1
 62
   179
420
  2234388
370
     9
100
AcDbVertex
100
AcDb2dVertex
 10
79.19102436855754
 20
-86.67379581166503
 30
0.0
  0
SEQEND
  5
A5
330
A2
100
AcDbEntity
  8
_U+30EC_U+30A4_U+30E4_U+30FC 1
 62
   179
420
  2234388
370
     9
  0
POLYLINE
  5
A6
330
1F
100
AcDbEntity
  8
_U+30EC_U+30A4_U+30E4_U+30FC 1
 62
   179
420
  2234388
370
     9
100
AcDb2dPolyline
 66
     1
 10
0.0
 20
0.0
 30
0.0
  0
VERTEX
  5
A7
330
A6
100
AcDbEntity
  8
_U+30EC_U+30A4_U+30E4_U+30FC 1
 62
   179
420
  2234388
370
     9
100
AcDbVertex
100
AcDb2dVertex
 10
62.73122506625978
 20
-92.874253310115
 30
0.0
  0
VERTEX
  5
A8
330
A6
100
AcDbEntity
  8
_U+30EC_U+30A4_U+30E4_U+30FC 1
 62
   179
420
  2234388
370
     9
100
AcDbVertex
100
AcDb2dVertex
 10
79.19102436855754
 20
-92.874253310115
 30
0.0
  0
SEQEND
  5
A9
330
A6
100
AcDbEntity
  8
_U+30EC_U+30A4_U+30E4_U+30FC 1
 62
   179
420
  2234388
370
     9
  0
INSERT
  5
AB
330
1F
100
AcDbEntity
  8
_U+30EC_U+30A4_U+30E4_U+30FC 1
100
AcDbBlockReference
  2
block 4
 10
0.0
 20
0.0
 30
0.0
  0
POLYLINE
  5
BB
330
1F
100
AcDbEntity
  8
_U+30EC_U+30A4_U+30E4_U+30FC 1
 62
   179
420
  2234388
370
     9
100
AcDb2dPolyline
 66
     1
 10
0.0
 20
0.0
 30
0.0
  0
VERTEX
  5
BC
330
BB
100
AcDbEntity
  8
_U+30EC_U+30A4_U+30E4_U+30FC 1
 62
   179
420
  2234388
370
     9
100
AcDbVertex
100
AcDb2dVertex
 10
54.19100445080563
 20
-97.87378469775378
 30
0.0
  0
VERTEX
  5
BD
330
BB
100
AcDbEntity
  8
_U+30EC_U+30A4_U+30E4_U+30FC 1
 62
   179
420
  2234388
370
     9
100
AcDbVertex
100
AcDb2dVertex
 10
60.19115457550683
 20
-97.87378469775378
 30
0.0
  0
SEQEND
  5
BE
330
BB
100
AcDbEntity
  8
_U+30EC_U+30A4_U+30E4_U+30FC 1
 62
   179
420
  2234388
370
     9
  0
POLYLINE
  5
BF
330
1F
100
AcDbEntity
  8
_U+30EC_U+30A4_U+30E4_U+30FC 1
 62
   179
420
  2234388
370
     9
100
AcDb2dPolyline
 66
     1
 10
0.0
 20
0.0
 30
0.0
  0
VERTEX
  5
C0
330
BF
100
AcDbEntity
  8
_U+30EC_U+30A4_U+30E4_U+30FC 1
 62
   179
420
  2234388
370
     9
100
AcDbVertex
100
AcDb2dVertex
 10
54.19100445080563
 20
-96.41374330923007
 30
0.0
  0
VERTEX
  5
C1
330
BF
100
AcDbEntity
  8
_U+30EC_U+30A4_U+30E4_U+30FC 1
 62
   179
420
  2234388
370
     9
100
AcDbVertex
100
AcDb2dVertex
 10
54.19100445080563
 20
-98.87422719750369
 30
0.0
  0
SEQEND
  5
C2
330
BF
100
AcDbEntity
  8
_U+30EC_U+30A4_U+30E4_U+30FC 1
 62
   179
420
  2234388
370
     9
  0
POLYLINE
  5
C3
330
1F
100
AcDbEntity
  8
_U+30EC_U+30A4_U+30E4_U+30FC 1
 62
   179
420
  2234388
370
     9
100
AcDb2dPolyline
 66
     1
 10
0.0
 20
0.0
 30
0.0
  0
VERTEX
  5
C4
330
C3
100
AcDbEntity
  8
_U+30EC_U+30A4_U+30E4_U+30FC 1
 62
   179
420
  2234388
370
     9
100
AcDbVertex
100
AcDb2dVertex
 10
60.19115457550683
 20
-96.41374330923007
 30
0.0
  0
VERTEX
  5
C5
330
C3
100
AcDbEntity
  8
_U+30EC_U+30A4_U+30E4_U+30FC 1
 62
   179
420
  2234388
370
     9
100
AcDbVertex
100
AcDb2dVertex
 10
60.19115457550683
 20
-98.87422719750369
 30
0.0
  0
SEQEND
  5
C6
330
C3
100
AcDbEntity
  8
_U+30EC_U+30A4_U+30E4_U+30FC 1
 62
   179
420
  2234388
370
     9
  0
INSERT
  5
C8
330
1F
100
AcDbEntity
  8
_U+30EC_U+30A4_U+30E4_U+30FC 1
100
AcDbBlockReference
  2
block 5
 10
0.0
 20
0.0
 30
0.0
  0
POLYLINE
  5
CE
330
1F
100
AcDbEntity
  8
_U+30EC_U+30A4_U+30E4_U+30FC 1
 62
   179
420
  2234388
370
     9
100
AcDb2dPolyline
 66
     1
 10
0.0
 20
0.0
 30
0.0
  0
VERTEX
  5
CF
330
CE
100
AcDbEntity
  8
_U+30EC_U+30A4_U+30E4_U+30FC 1
 62
   179
420
  2234388
370
     9
100
AcDbVertex
100
AcDb2dVertex
 10
54.19100445080563
 20
-81.67355886847041
 30
0.0
  0
VERTEX
  5
D0
330
CE
100
AcDbEntity
  8
_U+30EC_U+30A4_U+30E4_U+30FC 1
 62
   179
420
  2234388
370
     9
100
AcDbVertex
100
AcDb2dVertex
 10
74.19117560722542
 20
-81.67355886847041
 30
0.0
  0
SEQEND
  5
D1
330
CE
100
AcDbEntity
  8
_U+30EC_U+30A4_U+30E4_U+30FC 1
 62
   179
420
  2234388
370
     9
  0
POLYLINE
  5
D2
330
1F
100
AcDbEntity
  8
_U+30EC_U+30A4_U+30E4_U+30FC 1
 62
   179
420
  2234388
370
     9
100
AcDb2dPolyline
 66
     1
 10
0.0
 20
0.0
 30
0.0
  0
VERTEX
  5
D3
330
D2
100
AcDbEntity
  8
_U+30EC_U+30A4_U+30E4_U+30FC 1
 62
   179
420
  2234388
370
     9
100
AcDbVertex
100
AcDb2dVertex
 10
54.19100445080563
 20
-83.13360025699443
 30
0.0
  0
VERTEX
  5
D4
330
D2
100
AcDbEntity
  8
_U+30EC_U+30A4_U+30E4_U+30FC 1
 62
   179
420
  2234388
370
     9
100
AcDbVertex
100
AcDb2dVertex
 10
54.19100445080563
 20
-80.67378664649819
 30
0.0
  0
SEQEND
  5
D5
330
D2
100
AcDbEntity
  8
_U+30EC_U+30A4_U+30E4_U+30FC 1
 62
   179
420
  2234388
370
     9
  0
POLYLINE
  5
D6
330
1F
100
AcDbEntity
  8
_U+30EC_U+30A4_U+30E4_U+30FC 1
 62
   179
420
  2234388
370
     9
100
AcDb2dPolyline
 66
     1
 10
0.0
 20
0.0
 30
0.0
  0
VERTEX
  5
D7
330
D6
100
AcDbEntity
  8
_U+30EC_U+30A4_U+30E4_U+30FC 1
 62
   179
420
  2234388
370
     9
100
AcDbVertex
100
AcDb2dVertex
 10
74.19117560722542
 20
-83.13360025699443
 30
0.0
  0
VERTEX
  5
D8
330
D6
100
AcDbEntity
  8
_U+30EC_U+30A4_U+30E4_U+30FC 1
 62
   179
420
  2234388
370
     9
100
AcDbVertex
100
AcDb2dVertex
 10
74.19117560722542
 20
-80.67378664649819
 30
0.0
  0
SEQEND
  5
D9
330
D6
100
AcDbEntity
  8
_U+30EC_U+30A4_U+30E4_U+30FC 1
 62
   179
420
  2234388
370
     9
  0
INSERT
  5
DB
330
1F
100
AcDbEntity
  8
_U+30EC_U+30A4_U+30E4_U+30FC 1
100
AcDbBlockReference
  2
block 6
 10
0.0
 20
0.0
 30
0.0
  0
ENDSEC
  0
SECTION
  2
OBJECTS
  0
DICTIONARY
  5
C
330
0
100
AcDbDictionary
281
     1
  3
ACAD_GROUP
350
D
  3
ACAD_LAYOUT
350
1A
  3
ACAD_MATERIAL
350
3B
  3
ACAD_MLEADERSTYLE
350
E4
  3
ACAD_MLINESTYLE
350
17
  3
ACAD_PLOTSETTINGS
350
19
  3
ACAD_PLOTSTYLENAME
350
E
  3
ACAD_TABLESTYLE
350
E3
  3
ACAD_VISUALSTYLE
350
2A
  0
SUN
  5
3F
330
29
100
AcDbSun
 90
        1
290
     0
 63
     7
421
 16777215
 40
1.0
291
     1
 91
  2455826
 92
 54000000
292
     0
 70
     2
 71
   256
280
     1
  0
DICTIONARY
  5
D
102
{ACAD_REACTORS
330
C
102
}
330
C
100
AcDbDictionary
281
     1
  0
DICTIONARY
  5
1A
102
{ACAD_REACTORS
330
C
102
}
330
C
100
AcDbDictionary
281
     1
  3
Layout1
350
1E
  3
Layout2
350
26
  3
Model
350
22
  0
DICTIONARY
  5
3B
102
{ACAD_REACTORS
330
C
102
}
330
C
100
AcDbDictionary
281
     1
  3
ByBlock
350
3D
  3
ByLayer
350
3C
  3
Global
350
3E
  0
DICTIONARY
  5
E4
102
{ACAD_REACTORS
330
C
102
}
330
C
100
AcDbDictionary
281
     1
  0
DICTIONARY
  5
17
102
{ACAD_REACTORS
330
C
102
}
330
C
100
AcDbDictionary
281
     1
  3
Standard
350
18
  0
DICTIONARY
  5
19
102
{ACAD_REACTORS
330
C
102
}
330
C
100
AcDbDictionary
281
     1
  0
ACDBDICTIONARYWDFLT
  5
E
102
{ACAD_REACTORS
330
C
102
}
330
C
100
AcDbDictionary
281
     1
  3
Normal
350
F
100
AcDbDictionaryWithDefault
340
F
  0
DICTIONARY
  5
E3
102
{ACAD_REACTORS
330
C
102
}
330
C
100
AcDbDictionary
281
     1
  0
DICTIONARY
  5
2A
102
{ACAD_REACTORS
330
C
102
}
330
C
100
AcDbDictionary
281
     1
  3
2dWireframe
350
2F
  3
3D Hidden
350
31
  3
3dWireframe
350
30
  3
Basic
350
32
  3
Brighten
350
36
  3
ColorChange
350
3A
  3
Conceptual
350
34
  3
Dim
350
35
  3
Facepattern
350
39
  3
Flat
350
2B
  3
FlatWithEdges
350
2C
  3
Gouraud
350
2D
  3
GouraudWithEdges
350
2E
  3
Linepattern
350
38
  3
Realistic
350
33
  3
Thicken
350
37
  0
LAYOUT
  5
1E
102
{ACAD_REACTORS
330
1A
102
}
330
1A
100
AcDbPlotSettings
  1

  2
none_device
  4

  6

 40
0.0
 41
0.0
 42
0.0
 43
0.0
 44
0.0
 45
0.0
 46
0.0
 47
0.0
 48
0.0
 49
0.0
140
0.0
141
0.0
142
1.0
143
1.0
 70
   688
 72
     0
 73
     0
 74
     5
  7

 75
    16
 76
     0
 77
     2
 78
   300
147
1.0
148
0.0
149
0.0
100
AcDbLayout
  1
Layout1
 70
     1
 71
     1
 10
0.0
 20
0.0
 11
12.0
 21
9.0
 12
0.0
 22
0.0
 32
0.0
 14
1.000000000000000E+20
 24
1.000000000000000E+20
 34
1.000000000000000E+20
 15
-1.000000000000000E+20
 25
-1.000000000000000E+20
 35
-1.000000000000000E+20
146
0.0
 13
0.0
 23
0.0
 33
0.0
 16
1.0
 26
0.0
 36
0.0
 17
0.0
 27
1.0
 37
0.0
 76
     0
330
1B
  0
LAYOUT
  5
26
102
{ACAD_REACTORS
330
1A
102
}
330
1A
100
AcDbPlotSettings
  1

  2
none_device
  4

  6

 40
0.0
 41
0.0
 42
0.0
 43
0.0
 44
0.0
 45
0.0
 46
0.0
 47
0.0
 48
0.0
 49
0.0
140
0.0
141
0.0
142
1.0
143
1.0
 70
   688
 72
     0
 73
     0
 74
     5
  7

 75
    16
 76
     0
 77
     2
 78
   300
147
1.0
148
0.0
149
0.0
100
AcDbLayout
  1
Layout2
 70
     1
 71
     2
 10
0.0
 20
0.0
 11
0.0
 21
0.0
 12
0.0
 22
0.0
 32
0.0
 14
0.0
 24
0.0
 34
0.0
 15
0.0
 25
0.0
 35
0.0
146
0.0
 13
0.0
 23
0.0
 33
0.0
 16
1.0
 26
0.0
 36
0.0
 17
0.0
 27
1.0
 37
0.0
 76
     0
330
23
  0
LAYOUT
  5
22
102
{ACAD_REACTORS
330
1A
102
}
330
1A
100
AcDbPlotSettings
  1

  2
none_device
  4

  6

 40
0.0
 41
0.0
 42
0.0
 43
0.0
 44
0.0
 45
0.0
 46
0.0
 47
0.0
 48
0.0
 49
0.0
140
0.0
141
0.0
142
1.0
143
1.0
 70
  1712
 72
     0
 73
     0
 74
     0
  7

 75
     0
 76
     0
 77
     2
 78
   300
147
1.0
148
0.0
149
0.0
100
AcDbLayout
  1
Model
 70
     1
 71
     0
 10
0.0
 20
0.0
 11
12.0
 21
9.0
 12
0.0
 22
0.0
 32
0.0
 14
1.000000000000000E+20
 24
1.000000000000000E+20
 34
1.000000000000000E+20
 15
-1.000000000000000E+20
 25
-1.000000000000000E+20
 35
-1.000000000000000E+20
146
0.0
 13
0.0
 23
0.0
 33
0.0
 16
1.0
 26
0.0
 36
0.0
 17
0.0
 27
1.0
 37
0.0
 76
     0
330
1F
331
29
  0
MATERIAL
  5
3D
102
{ACAD_REACTORS
330
3B
102
}
330
3B
100
AcDbMaterial
  1
ByBlock
 72
     1
 94
      127
  0
MATERIAL
  5
3C
102
{ACAD_REACTORS
330
3B
102
}
330
3B
100
AcDbMaterial
  1
ByLayer
 72
     1
 94
      127
  0
MATERIAL
  5
3E
102
{ACAD_REACTORS
330
3B
102
}
330
3B
100
AcDbMaterial
  1
Global
 72
     1
 94
      127
  0
MLINESTYLE
  5
18
102
{ACAD_REACTORS
330
17
102
}
330
17
100
AcDbMlineStyle
  2
Standard
 70
     0
  3

 62
   256
 51
90.0
 52
90.0
 71
     2
 49
0.5
 62
   256
  6
BYLAYER
 49
-0.5
 62
   256
  6
BYLAYER
  0
ACDBPLACEHOLDER
  5
F
102
{ACAD_REACTORS
330
E
102
}
330
E
  0
VISUALSTYLE
  5
2F
102
{ACAD_REACTORS
330
2A
102
}
330
2A
100
AcDbVisualStyle
  2
2dWireframe
 70
     4
177
     2
291
     0
 71
     0
176
     1
 72
     2
176
     1
 73
     0
176
     1
 90
        0
176
     1
 40
-0.6
176
     1
 41
-30.0
176
     1
 62
     5
 63
     7
421
 16777215
176
     1
 74
     1
176
     1
 91
        4
176
     1
 64
     7
176
     1
 65
   257
176
     1
 75
     1
176
     1
175
     1
176
     1
 42
1.0
176
     1
 92
        0
176
     1
 66
   257
176
     1
 43
1.0
176
     1
 76
     1
176
     1
 77
     6
176
     1
 78
     2
176
     1
 67
     7
176
     1
 79
     5
176
     1
170
     0
176
     1
171
     0
176
     1
290
     0
176
     1
 93
        1
176
     1
 44
0.0
176
     1
173
     0
176
     1
  0
VISUALSTYLE
  5
31
102
{ACAD_REACTORS
330
2A
102
}
330
2A
100
AcDbVisualStyle
  2
3D Hidden
 70
     6
177
     2
291
     0
 71
     1
176
     1
 72
     2
176
     1
 73
     2
176
     1
 90
        0
176
     1
 40
-0.6
176
     1
 41
-30.0
176
     1
 62
     5
 63
     7
421
 16777215
176
     1
 74
     2
176
     1
 91
        2
176
     1
 64
     7
176
     1
 65
   257
176
     1
 75
     2
176
     1
175
     1
176
     1
 42
40.0
176
     1
 92
        0
176
     1
 66
   257
176
     1
 43
1.0
176
     1
 76
     1
176
     1
 77
     6
176
     1
 78
     2
176
     1
 67
     7
176
     1
 79
     3
176
     1
170
     0
176
     1
171
     0
176
     1
290
     0
176
     1
 93
        1
176
     1
 44
0.0
176
     1
173
     0
176
     1
  0
VISUALSTYLE
  5
30
102
{ACAD_REACTORS
330
2A
102
}
330
2A
100
AcDbVisualStyle
  2
3dWireframe
 70
     5
177
     2
291
     0
 71
     0
176
     1
 72
     2
176
     1
 73
     0
176
     1
 90
        0
176
     1
 40
-0.6
176
     1
 41
-30.0
176
     1
 62
     5
 63
     7
421
 16777215
176
     1
 74
     1
176
     1
 91
        4
176
     1
 64
     7
176
     1
 65
   257
176
     1
 75
     1
176
     1
175
     1
176
     1
 42
1.0
176
     1
 92
        0
176
     1
 66
   257
176
     1
 43
1.0
176
     1
 76
     1
176
     1
 77
     6
176
     1
 78
     2
176
     1
 67
     7
176
     1
 79
     5
176
     1
170
     0
176
     1
171
     0
176
     1
290
     0
176
     1
 93
        1
176
     1
 44
0.0
176
     1
173
     0
176
     1
  0
VISUALSTYLE
  5
32
102
{ACAD_REACTORS
330
2A
102
}
330
2A
100
AcDbVisualStyle
  2
Basic
 70
     7
177
     2
291
     1
 71
     1
176
     1
 72
     0
176
     1
 73
     1
176
     1
 90
        0
176
     1
 40
-0.6
176
     1
 41
-30.0
176
     1
 62
     5
 63
     7
421
 16777215
176
     1
 74
     0
176
     1
 91
        4
176
     1
 64
     7
176
     1
 65
   257
176
     1
 75
     1
176
     1
175
     1
176
     1
 42
1.0
176
     1
 92
        8
176
     1
 66
     7
176
     1
 43
1.0
176
     1
 76
     1
176
     1
 77
     6
176
     1
 78
     2
176
     1
 67
     7
176
     1
 79
     5
176
     1
170
     0
176
     1
171
     0
176
     1
290
     0
176
     1
 93
        1
176
     1
 44
0.0
176
     1
173
     0
176
     1
  0
VISUALSTYLE
  5
36
102
{ACAD_REACTORS
330
2A
102
}
330
2A
100
AcDbVisualStyle
  2
Brighten
 70
    12
177
     2
291
     1
 71
     2
176
     1
 72
     2
176
     1
 73
     0
176
     1
 90
        0
176
     1
 40
-0.6
176
     1
 41
-30.0
176
     1
 62
     5
 63
     7
421
 16777215
176
     1
 74
     1
176
     1
 91
        4
176
     1
 64
     7
176
     1
 65
   257
176
     1
 75
     1
176
     1
175
     1
176
     1
 42
1.0
176
     1
 92
        8
176
     1
 66
     7
176
     1
 43
1.0
176
     1
 76
     1
176
     1
 77
     6
176
     1
 78
     2
176
     1
 67
     7
176
     1
 79
     5
176
     1
170
     0
176
     1
171
     0
176
     1
290
     0
176
     1
 93
        1
176
     1
 44
50.0
176
     1
173
     0
176
     1
  0
VISUALSTYLE
  5
3A
102
{ACAD_REACTORS
330
2A
102
}
330
2A
100
AcDbVisualStyle
  2
ColorChange
 70
    16
177
     2
291
     1
 71
     2
176
     1
 72
     2
176
     1
 73
     3
176
     1
 90
        0
176
     1
 40
-0.6
176
     1
 41
-30.0
176
     1
 62
     5
 63
     8
421
  8421504
176
     1
 74
     1
176
     1
 91
        4
176
     1
 64
     7
176
     1
 65
   257
176
     1
 75
     1
176
     1
175
     1
176
     1
 42
1.0
176
     1
 92
        8
176
     1
 66
     8
424
  8421504
176
     1
 43
1.0
176
     1
 76
     1
176
     1
 77
     6
176
     1
 78
     2
176
     1
 67
     7
176
     1
 79
     5
176
     1
170
     0
176
     1
171
     0
176
     1
290
     0
176
     1
 93
        1
176
     1
 44
0.0
176
     1
173
     0
176
     1
  0
VISUALSTYLE
  5
34
102
{ACAD_REACTORS
330
2A
102
}
330
2A
100
AcDbVisualStyle
  2
Conceptual
 70
     9
177
     2
291
     0
 71
     3
176
     1
 72
     2
176
     1
 73
     0
176
     1
 90
        0
176
     1
 40
-0.6
176
     1
 41
-30.0
176
     1
 62
     5
 63
     7
421
 16777215
176
     1
 74
     2
176
     1
 91
        2
176
     1
 64
     7
176
     1
 65
   257
176
     1
 75
     1
176
     1
175
     1
176
     1
 42
40.0
176
     1
 92
        8
176
     1
 66
     7
176
     1
 43
1.0
176
     1
 76
     1
176
     1
 77
     6
176
     1
 78
     2
176
     1
 67
     7
176
     1
 79
     3
176
     1
170
     0
176
     1
171
     0
176
     1
290
     0
176
     1
 93
        1
176
     1
 44
0.0
176
     1
173
     0
176
     1
  0
VISUALSTYLE
  5
35
102
{ACAD_REACTORS
330
2A
102
}
330
2A
100
AcDbVisualStyle
  2
Dim
 70
    11
177
     2
291
     1
 71
     2
176
     1
 72
     2
176
     1
 73
     0
176
     1
 90
        0
176
     1
 40
-0.6
176
     1
 41
-30.0
176
     1
 62
     5
 63
     7
421
 16777215
176
     1
 74
     1
176
     1
 91
        4
176
     1
 64
     7
176
     1
 65
   257
176
     1
 75
     1
176
     1
175
     1
176
     1
 42
1.0
176
     1
 92
        8
176
     1
 66
     7
176
     1
 43
1.0
176
     1
 76
     1
176
     1
 77
     6
176
     1
 78
     2
176
     1
 67
     7
176
     1
 79
     5
176
     1
170
     0
176
     1
171
     0
176
     1
290
     0
176
     1
 93
        1
176
     1
 44
-50.0
176
     1
173
     0
176
     1
  0
VISUALSTYLE
  5
39
102
{ACAD_REACTORS
330
2A
102
}
330
2A
100
AcDbVisualStyle
  2
Facepattern
 70
    15
177
     2
291
     1
 71
     2
176
     1
 72
     2
176
     1
 73
     0
176
     1
 90
        0
176
     1
 40
-0.6
176
     1
 41
-30.0
176
     1
 62
     5
 63
     7
421
 16777215
176
     1
 74
     1
176
     1
 91
        4
176
     1
 64
     7
176
     1
 65
   257
176
     1
 75
     1
176
     1
175
     1
176
     1
 42
1.0
176
     1
 92
        8
176
     1
 66
     7
176
     1
 43
1.0
176
     1
 76
     1
176
     1
 77
     6
176
     1
 78
     2
176
     1
 67
     7
176
     1
 79
     5
176
     1
170
     0
176
     1
171
     0
176
     1
290
     0
176
     1
 93
        1
176
     1
 44
0.0
176
     1
173
     0
176
     1
  0
VISUALSTYLE
  5
2B
102
{ACAD_REACTORS
330
2A
102
}
330
2A
100
AcDbVisualStyle
  2
Flat
 70
     0
177
     2
291
     1
 71
     2
176
     1
 72
     1
176
     1
 73
     1
176
     1
 90
        2
176
     1
 40
-0.6
176
     1
 41
30.0
176
     1
 62
     5
 63
     7
421
 16777215
176
     1
 74
     0
176
     1
 91
        4
176
     1
 64
     7
176
     1
 65
   257
176
     1
 75
     1
176
     1
175
     1
176
     1
 42
1.0
176
     1
 92
        8
176
     1
 66
     7
176
     1
 43
1.0
176
     1
 76
     1
176
     1
 77
     6
176
     1
 78
     2
176
     1
 67
     7
176
     1
 79
     5
176
     1
170
     0
176
     1
171
     0
176
     1
290
     0
176
     1
 93
       13
176
     1
 44
0.0
176
     1
173
     0
176
     1
  0
VISUALSTYLE
  5
2C
102
{ACAD_REACTORS
330
2A
102
}
330
2A
100
AcDbVisualStyle
  2
FlatWithEdges
 70
     1
177
     2
291
     1
 71
     2
176
     1
 72
     1
176
     1
 73
     1
176
     1
 90
        2
176
     1
 40
-0.6
176
     1
 41
30.0
176
     1
 62
     5
 63
     7
421
 16777215
176
     1
 74
     1
176
     1
 91
        4
176
     1
 64
     7
176
     1
 65
   257
176
     1
 75
     1
176
     1
175
     1
176
     1
 42
1.0
176
     1
 92
        0
176
     1
 66
   257
176
     1
 43
1.0
176
     1
 76
     1
176
     1
 77
     6
176
     1
 78
     2
176
     1
 67
     7
176
     1
 79
     5
176
     1
170
     0
176
     1
171
     0
176
     1
290
     0
176
     1
 93
       13
176
     1
 44
0.0
176
     1
173
     0
176
     1
  0
VISUALSTYLE
  5
2D
102
{ACAD_REACTORS
330
2A
102
}
330
2A
100
AcDbVisualStyle
  2
Gouraud
 70
     2
177
     2
291
     1
 71
     2
176
     1
 72
     2
176
     1
 73
     1
176
     1
 90
        2
176
     1
 40
-0.6
176
     1
 41
30.0
176
     1
 62
     5
 63
     7
421
 16777215
176
     1
 74
     0
176
     1
 91
        4
176
     1
 64
     7
176
     1
 65
   257
176
     1
 75
     1
176
     1
175
     1
176
     1
 42
1.0
176
     1
 92
        0
176
     1
 66
     7
176
     1
 43
1.0
176
     1
 76
     1
176
     1
 77
     6
176
     1
 78
     2
176
     1
 67
     7
176
     1
 79
     5
176
     1
170
     0
176
     1
171
     0
176
     1
290
     0
176
     1
 93
       13
176
     1
 44
0.0
176
     1
173
     0
176
     1
  0
VISUALSTYLE
  5
2E
102
{ACAD_REACTORS
330
2A
102
}
330
2A
100
AcDbVisualStyle
  2
GouraudWithEdges
 70
     3
177
     2
291
     1
 71
     2
176
     1
 72
     2
176
     1
 73
     1
176
     1
 90
        2
176
     1
 40
-0.6
176
     1
 41
30.0
176
     1
 62
     5
 63
     7
421
 16777215
176
     1
 74
     1
176
     1
 91
        4
176
     1
 64
     7
176
     1
 65
   257
176
     1
 75
     1
176
     1
175
     1
176
     1
 42
1.0
176
     1
 92
        0
176
     1
 66
   257
176
     1
 43
1.0
176
     1
 76
     1
176
     1
 77
     6
176
     1
 78
     2
176
     1
 67
     7
176
     1
 79
     5
176
     1
170
     0
176
     1
171
     0
176
     1
290
     0
176
     1
 93
       13
176
     1
 44
0.0
176
     1
173
     0
176
     1
  0
VISUALSTYLE
  5
38
102
{ACAD_REACTORS
330
2A
102
}
330
2A
100
AcDbVisualStyle
  2
Linepattern
 70
    14
177
     2
291
     1
 71
     2
176
     1
 72
     2
176
     1
 73
     0
176
     1
 90
        0
176
     1
 40
-0.6
176
     1
 41
-30.0
176
     1
 62
     5
 63
     7
421
 16777215
176
     1
 74
     1
176
     1
 91
        4
176
     1
 64
     7
176
     1
 65
   257
176
     1
 75
     7
176
     1
175
     7
176
     1
 42
1.0
176
     1
 92
        8
176
     1
 66
     7
176
     1
 43
1.0
176
     1
 76
     1
176
     1
 77
     6
176
     1
 78
     2
176
     1
 67
     7
176
     1
 79
     5
176
     1
170
     0
176
     1
171
     0
176
     1
290
     0
176
     1
 93
        1
176
     1
 44
0.0
176
     1
173
     0
176
     1
  0
VISUALSTYLE
  5
33
102
{ACAD_REACTORS
330
2A
102
}
330
2A
100
AcDbVisualStyle
  2
Realistic
 70
     8
177
     2
291
     0
 71
     2
176
     1
 72
     2
176
     1
 73
     0
176
     1
 90
        0
176
     1
 40
-0.6
176
     1
 41
-30.0
176
     1
 62
     5
 63
     7
421
 16777215
176
     1
 74
     1
176
     1
 91
        0
176
     1
 64
     7
176
     1
 65
   257
176
     1
 75
     1
176
     1
175
     1
176
     1
 42
1.0
176
     1
 92
        8
176
     1
 66
     8
424
  7895160
176
     1
 43
1.0
176
     1
 76
     1
176
     1
 77
     6
176
     1
 78
     2
176
     1
 67
     7
176
     1
 79
     5
176
     1
170
     0
176
     1
171
     0
176
     1
290
     0
176
     1
 93
       13
176
     1
 44
0.0
176
     1
173
     0
176
     1
  0
VISUALSTYLE
  5
37
102
{ACAD_REACTORS
330
2A
102
}
330
2A
100
AcDbVisualStyle
  2
Thicken
 70
    13
177
     2
291
     1
 71
     2
176
     1
 72
     2
176
     1
 73
     0
176
     1
 90
        0
176
     1
 40
-0.6
176
     1
 41
-30.0
176
     1
 62
     5
 63
     7
421
 16777215
176
     1
 74
     1
176
     1
 91
        4
176
     1
 64
     7
176
     1
 65
   257
176
     1
 75
     1
176
     1
175
     1
176
     1
 42
1.0
176
     1
 92
       12
176
     1
 66
     7
176
     1
 43
1.0
176
     1
 76
     1
176
     1
 77
     6
176
     1
 78
     2
176
     1
 67
     7
176
     1
 79
     5
176
     1
170
     0
176
     1
171
     0
176
     1
290
     0
176
     1
 93
        1
176
     1
 44
0.0
176
     1
173
     0
176
     1
  0
ENDSEC
  0
EOF
