  0
SECTION
  2
HEADER
  9
$ACADVER
  1
AC1024
  9
$ACADMAINTVER
 70
     6
  9
$DWGCODEPAGE
  3
UNDEFINED
  9
$INSBASE
 10
0.0
 20
0.0
 30
0.0
  9
$EXTMIN
 10
1.000000000000000E+20
 20
1.000000000000000E+20
 30
1.000000000000000E+20
  9
$EXTMAX
 10
-1.000000000000000E+20
 20
-1.000000000000000E+20
 30
-1.000000000000000E+20
  9
$LIMMIN
 10
0.0
 20
0.0
  9
$LIMMAX
 10
12.0
 20
9.0
  9
$ORTHOMODE
 70
     0
  9
$REGENMODE
 70
     1
  9
$FILLMODE
 70
     1
  9
$QTEXTMODE
 70
     0
  9
$MIRRTEXT
 70
     1
  9
$LTSCALE
 40
1.0
  9
$ATTMODE
 70
     1
  9
$TEXTSIZE
 40
0.2
  9
$TRACEWID
 40
0.05
  9
$TEXTSTYLE
  7
Standard
  9
$CLAYER
  8
0
  9
$CELTYPE
  6
ByLayer
  9
$CECOLOR
 62
   256
  9
$CELTSCALE
 40
1.0
  9
$DISPSILH
 70
     0
  9
$DIMSCALE
 40
1.0
  9
$DIMASZ
 40
0.18
  9
$DIMEXO
 40
0.0625
  9
$DIMDLI
 40
0.38
  9
$DIMRND
 40
0.0
  9
$DIMDLE
 40
0.0
  9
$DIMEXE
 40
0.18
  9
$DIMTP
 40
0.0
  9
$DIMTM
 40
0.0
  9
$DIMTXT
 40
0.18
  9
$DIMCEN
 40
0.09
  9
$DIMTSZ
 40
0.0
  9
$DIMTOL
 70
     0
  9
$DIMLIM
 70
     0
  9
$DIMTIH
 70
     1
  9
$DIMTOH
 70
     1
  9
$DIMSE1
 70
     0
  9
$DIMSE2
 70
     0
  9
$DIMTAD
 70
     0
  9
$DIMZIN
 70
     0
  9
$DIMBLK
  1

  9
$DIMASO
 70
     1
  9
$DIMSHO
 70
     1
  9
$DIMPOST
  1

  9
$DIMAPOST
  1

  9
$DIMALT
 70
     0
  9
$DIMALTD
 70
     2
  9
$DIMALTF
 40
25.4
  9
$DIMLFAC
 40
1.0
  9
$DIMTOFL
 70
     0
  9
$DIMTVP
 40
0.0
  9
$DIMTIX
 70
     0
  9
$DIMSOXD
 70
     0
  9
$DIMSAH
 70
     0
  9
$DIMBLK1
  1

  9
$DIMBLK2
  1

  9
$DIMSTYLE
  2
Standard
  9
$DIMCLRD
 70
     0
  9
$DIMCLRE
 70
     0
  9
$DIMCLRT
 70
     0
  9
$DIMTFAC
 40
1.0
  9
$DIMGAP
 40
0.09
  9
$DIMJUST
 70
     0
  9
$DIMSD1
 70
     0
  9
$DIMSD2
 70
     0
  9
$DIMTOLJ
 70
     1
  9
$DIMTZIN
 70
     0
  9
$DIMALTZ
 70
     0
  9
$DIMALTTZ
 70
     0
  9
$DIMUPT
 70
     0
  9
$DIMDEC
 70
     4
  9
$DIMTDEC
 70
     4
  9
$DIMALTU
 70
     2
  9
$DIMALTTD
 70
     2
  9
$DIMTXSTY
  7
Standard
  9
$DIMAUNIT
 70
     0
  9
$DIMADEC
 70
     0
  9
$DIMALTRND
 40
0.0
  9
$DIMAZIN
 70
     0
  9
$DIMDSEP
 70
    46
  9
$DIMATFIT
 70
     3
  9
$DIMFRAC
 70
     0
  9
$DIMLDRBLK
  1

  9
$DIMLUNIT
 70
     2
  9
$DIMLWD
 70
    -2
  9
$DIMLWE
 70
    -2
  9
$DIMTMOVE
 70
     0
  9
$DIMFXL
 40
1.0
  9
$DIMFXLON
 70
     0
  9
$DIMJOGANG
 40
0.7853981633974483
  9
$DIMTFILL
 70
     0
  9
$DIMTFILLCLR
 70
     0
  9
$DIMARCSYM
 70
     0
  9
$DIMLTYPE
  6

  9
$DIMLTEX1
  6

  9
$DIMLTEX2
  6

  9
$DIMTXTDIRECTION
 70
     0
  9
$LUNITS
 70
     2
  9
$LUPREC
 70
     4
  9
$SKETCHINC
 40
0.1
  9
$FILLETRAD
 40
0.5
  9
$AUNITS
 70
     0
  9
$AUPREC
 70
     0
  9
$MENU
  1
.
  9
$ELEVATION
 40
0.0
  9
$PELEVATION
 40
0.0
  9
$THICKNESS
 40
0.0
  9
$LIMCHECK
 70
     0
  9
$CHAMFERA
 40
0.5
  9
$CHAMFERB
 40
0.5
  9
$CHAMFERC
 40
1.0
  9
$CHAMFERD
 40
0.0
  9
$SKPOLY
 70
     0
  9
$TDCREATE
 40
2458263.576643519
  9
$TDUCREATE
 40
2458263.201643519
  9
$TDUPDATE
 40
2458263.576643519
  9
$TDUUPDATE
 40
2458263.201643519
  9
$TDINDWG
 40
0.0000000116
  9
$TDUSRTIMER
 40
0.0000000116
  9
$USRTIMER
 70
     1
  9
$ANGBASE
 50
0.0
  9
$ANGDIR
 70
     0
  9
$PDMODE
 70
     0
  9
$PDSIZE
 40
0.0
  9
$PLINEWID
 40
0.0
  9
$SPLFRAME
 70
     0
  9
$SPLINETYPE
 70
     6
  9
$SPLINESEGS
 70
     8
  9
$HANDSEED
  5
117
  9
$SURFTAB1
 70
     6
  9
$SURFTAB2
 70
     6
  9
$SURFTYPE
 70
     6
  9
$SURFU
 70
     6
  9
$SURFV
 70
     6
  9
$UCSBASE
  2

  9
$UCSNAME
  2

  9
$UCSORG
 10
0.0
 20
0.0
 30
0.0
  9
$UCSXDIR
 10
1.0
 20
0.0
 30
0.0
  9
$UCSYDIR
 10
0.0
 20
1.0
 30
0.0
  9
$UCSORTHOREF
  2

  9
$UCSORTHOVIEW
 70
     0
  9
$UCSORGTOP
 10
0.0
 20
0.0
 30
0.0
  9
$UCSORGBOTTOM
 10
0.0
 20
0.0
 30
0.0
  9
$UCSORGLEFT
 10
0.0
 20
0.0
 30
0.0
  9
$UCSORGRIGHT
 10
0.0
 20
0.0
 30
0.0
  9
$UCSORGFRONT
 10
0.0
 20
0.0
 30
0.0
  9
$UCSORGBACK
 10
0.0
 20
0.0
 30
0.0
  9
$PUCSBASE
  2

  9
$PUCSNAME
  2

  9
$PUCSORG
 10
0.0
 20
0.0
 30
0.0
  9
$PUCSXDIR
 10
1.0
 20
0.0
 30
0.0
  9
$PUCSYDIR
 10
0.0
 20
1.0
 30
0.0
  9
$PUCSORTHOREF
  2

  9
$PUCSORTHOVIEW
 70
     0
  9
$PUCSORGTOP
 10
0.0
 20
0.0
 30
0.0
  9
$PUCSORGBOTTOM
 10
0.0
 20
0.0
 30
0.0
  9
$PUCSORGLEFT
 10
0.0
 20
0.0
 30
0.0
  9
$PUCSORGRIGHT
 10
0.0
 20
0.0
 30
0.0
  9
$PUCSORGFRONT
 10
0.0
 20
0.0
 30
0.0
  9
$PUCSORGBACK
 10
0.0
 20
0.0
 30
0.0
  9
$USERI1
 70
     0
  9
$USERI2
 70
     0
  9
$USERI3
 70
     0
  9
$USERI4
 70
     0
  9
$USERI5
 70
     0
  9
$USERR1
 40
0.0
  9
$USERR2
 40
0.0
  9
$USERR3
 40
0.0
  9
$USERR4
 40
0.0
  9
$USERR5
 40
0.0
  9
$WORLDVIEW
 70
     1
  9
$SHADEDGE
 70
     3
  9
$SHADEDIF
 70
    70
  9
$TILEMODE
 70
     1
  9
$MAXACTVP
 70
    64
  9
$PINSBASE
 10
0.0
 20
0.0
 30
0.0
  9
$PLIMCHECK
 70
     0
  9
$PEXTMIN
 10
1.000000000000000E+20
 20
1.000000000000000E+20
 30
1.000000000000000E+20
  9
$PEXTMAX
 10
-1.000000000000000E+20
 20
-1.000000000000000E+20
 30
-1.000000000000000E+20
  9
$PLIMMIN
 10
0.0
 20
0.0
  9
$PLIMMAX
 10
12.0
 20
9.0
  9
$UNITMODE
 70
     0
  9
$VISRETAIN
 70
     1
  9
$PLINEGEN
 70
     0
  9
$PSLTSCALE
 70
     1
  9
$TREEDEPTH
 70
  3020
  9
$CMLSTYLE
  2
Standard
  9
$CMLJUST
 70
     0
  9
$CMLSCALE
 40
1.0
  9
$PROXYGRAPHICS
 70
     1
  9
$MEASUREMENT
 70
     0
  9
$CELWEIGHT
370
    -1
  9
$ENDCAPS
280
     0
  9
$JOINSTYLE
280
     0
  9
$LWDISPLAY
290
     1
  9
$INSUNITS
 70
     1
  9
$HYPERLINKBASE
  1

  9
$STYLESHEET
  1

  9
$XEDIT
290
     1
  9
$CEPSNTYPE
380
     0
  9
$PSTYLEMODE
290
     1
  9
$FINGERPRINTGUID
  2
{85091C5E-B5ED-ABA3-D2B1-77DE2E47FBB4}
  9
$VERSIONGUID
  2
{FAEB1C32-E019-11D5-929B-00C0DF256EC4}
  9
$EXTNAMES
290
     1
  9
$PSVPSCALE
 40
0.0
  9
$OLESTARTUP
290
     0
  9
$SORTENTS
280
   127
  9
$INDEXCTL
280
     0
  9
$HIDETEXT
280
     1
  9
$XCLIPFRAME
280
     2
  9
$HALOGAP
280
     0
  9
$OBSCOLOR
 70
   257
  9
$OBSLTYPE
280
     0
  9
$INTERSECTIONDISPLAY
280
     0
  9
$INTERSECTIONCOLOR
 70
   257
  9
$DIMASSOC
280
     2
  9
$PROJECTNAME
  1

  9
$CAMERADISPLAY
290
     0
  9
$LENSLENGTH
 40
50.0
  9
$CAMERAHEIGHT
 40
0.0
  9
$STEPSPERSEC
 40
2.0
  9
$STEPSIZE
 40
6.0
  9
$3DDWFPREC
 40
2.0
  9
$PSOLWIDTH
 40
0.25
  9
$PSOLHEIGHT
 40
4.0
  9
$LOFTANG1
 40
1.570796326794897
  9
$LOFTANG2
 40
1.570796326794897
  9
$LOFTMAG1
 40
0.0
  9
$LOFTMAG2
 40
0.0
  9
$LOFTPARAM
 70
     7
  9
$LOFTNORMALS
280
     1
  9
$LATITUDE
 40
37.795
  9
$LONGITUDE
 40
-122.394
  9
$NORTHDIRECTION
 40
0.0
  9
$TIMEZONE
 70
 -8000
  9
$LIGHTGLYPHDISPLAY
280
     1
  9
$TILEMODELIGHTSYNCH
280
     1
  9
$CMATERIAL
347
3C
  9
$SOLIDHIST
280
     1
  9
$SHOWHIST
280
     1
  9
$DWFFRAME
280
     2
  9
$DGNFRAME
280
     2
  9
$REALWORLDSCALE
290
     1
  9
$INTERFERECOLOR
 62
   256
  9
$CSHADOW
280
     0
  9
$SHADOWPLANELOCATION
 40
0.0
  0
ENDSEC
  0
SECTION
  2
CLASSES
  0
CLASS
  1
ACDBDICTIONARYWDFLT
  2
AcDbDictionaryWithDefault
  3
ObjectDBX Classes
 90
        0
 91
        4
280
     0
281
     0
  0
CLASS
  1
VISUALSTYLE
  2
AcDbVisualStyle
  3
ObjectDBX Classes
 90
     4095
 91
        4
280
     0
281
     0
  0
CLASS
  1
MATERIAL
  2
AcDbMaterial
  3
ObjectDBX Classes
 90
     1153
 91
        4
280
     0
281
     0
  0
CLASS
  1
SUN
  2
AcDbSun
  3
SCENEOE
 90
     1024
 91
        4
280
     0
281
     0
  0
ENDSEC
  0
SECTION
  2
TABLES
  0
TABLE
  2
VPORT
  5
8
330
0
100
AcDbSymbolTable
 70
     1
  0
VPORT
  5
29
330
8
100
AcDbSymbolTableRecord
100
AcDbViewportTableRecord
  2
*Active
 70
     0
 10
0.0
 20
0.0
 11
1.0
 21
1.0
 12
0.0
 22
0.0
 13
0.0
 23
0.0
 14
0.5
 24
0.5
 15
0.5
 25
0.5
 16
0.0
 26
0.0
 36
1.0
 17
105.0007777515277
 27
-148.5000416295416
 37
0.0
 40
297.0000832590831
 41
0.7070757462376333
 42
50.0
 43
0.0
 44
0.0
 50
0.0
 51
0.0
 71
     0
 72
   100
 73
     1
 74
     3
 75
     0
 76
     0
 77
     0
 78
     0
281
     0
 65
     1
110
0.0
120
0.0
130
0.0
111
1.0
121
0.0
131
0.0
112
0.0
122
1.0
132
0.0
 79
     0
146
0.0
 60
     3
 61
     5
292
     1
282
     1
141
0.0
142
0.0
 63
   250
361
3F
  0
ENDTAB
  0
TABLE
  2
LTYPE
  5
5
330
0
100
AcDbSymbolTable
 70
     2
  0
LTYPE
  5
14
330
5
100
AcDbSymbolTableRecord
100
AcDbLinetypeTableRecord
  2
ByBlock
 70
     0
  3

 72
    65
 73
     0
 40
0.0
  0
LTYPE
  5
15
330
5
100
AcDbSymbolTableRecord
100
AcDbLinetypeTableRecord
  2
ByLayer
 70
     0
  3

 72
    65
 73
     0
 40
0.0
  0
LTYPE
  5
16
330
5
100
AcDbSymbolTableRecord
100
AcDbLinetypeTableRecord
  2
Continuous
 70
     0
  3
Solid line
 72
    65
 73
     0
 40
0.0
  0
LTYPE
  5
113
330
5
100
AcDbSymbolTableRecord
100
AcDbLinetypeTableRecord
  2
AI-Linetype-1
 70
     0
  3
Adobe Illustrator Linetype No. 1
 72
    65
 73
     2
 40
1.411111110758333
 49
0.7055555553791667
 74
     0
 49
-0.7055555553791667
 74
     0
  0
ENDTAB
  0
TABLE
  2
LAYER
  5
2
330
0
100
AcDbSymbolTable
 70
     2
  0
LAYER
  5
10
330
2
100
AcDbSymbolTableRecord
100
AcDbLayerTableRecord
  2
0
 70
     0
 62
     7
  6
Continuous
370
    -3
390
F
347
3E
  0
LAYER
  5
40
330
2
100
AcDbSymbolTableRecord
100
AcDbLayerTableRecord
  2
_U+30EC_U+30A4_U+30E4_U+30FC 1
 70
     0
 62
     7
  6
Continuous
370
    -3
390
F
347
3E
  0
ENDTAB
  0
TABLE
  2
STYLE
  5
3
330
0
100
AcDbSymbolTable
 70
     1
  0
STYLE
  5
11
330
3
100
AcDbSymbolTableRecord
100
AcDbTextStyleTableRecord
  2
Standard
 70
     0
 40
0.0
 41
1.0
 50
0.0
 71
     0
 42
0.2
  3
txt
  4

  0
ENDTAB
  0
TABLE
  2
VIEW
  5
6
330
0
100
AcDbSymbolTable
 70
     0
  0
ENDTAB
  0
TABLE
  2
UCS
  5
7
330
0
100
AcDbSymbolTable
 70
     0
  0
ENDTAB
  0
TABLE
  2
APPID
  5
9
330
0
100
AcDbSymbolTable
 70
     1
  0
APPID
  5
12
330
9
100
AcDbSymbolTableRecord
100
AcDbRegAppTableRecord
  2
ACAD
 70
     0
  0
ENDTAB
  0
TABLE
  2
DIMSTYLE
  5
A
330
0
100
AcDbSymbolTable
 70
     1
100
AcDbDimStyleTable
  0
DIMSTYLE
105
27
330
A
100
AcDbSymbolTableRecord
100
AcDbDimStyleTableRecord
  2
Standard
 70
     0
178
     0
340
11
  0
ENDTAB
  0
TABLE
  2
BLOCK_RECORD
  5
1
330
0
100
AcDbSymbolTable
 70
     9
  0
BLOCK_RECORD
  5
1F
330
1
100
AcDbSymbolTableRecord
100
AcDbBlockTableRecord
  2
*Model_Space
340
22
 70
     0
280
     1
281
     0
  0
BLOCK_RECORD
  5
1B
330
1
100
AcDbSymbolTableRecord
100
AcDbBlockTableRecord
  2
*Paper_Space
340
1E
 70
     0
280
     1
281
     0
  0
BLOCK_RECORD
  5
23
330
1
100
AcDbSymbolTableRecord
100
AcDbBlockTableRecord
  2
*Paper_Space0
340
26
 70
     0
280
     1
281
     0
  0
BLOCK_RECORD
  5
54
330
1
100
AcDbSymbolTableRecord
100
AcDbBlockTableRecord
  2
block 2
340
0
102
{BLKREFS
331
55
102
}
 70
     0
280
     1
281
     0
  0
BLOCK_RECORD
  5
5A
330
1
100
AcDbSymbolTableRecord
100
AcDbBlockTableRecord
  2
block 3
340
0
102
{BLKREFS
331
5B
102
}
 70
     0
280
     1
281
     0
  0
BLOCK_RECORD
  5
61
330
1
100
AcDbSymbolTableRecord
100
AcDbBlockTableRecord
  2
block 4
340
0
102
{BLKREFS
331
62
102
}
 70
     0
280
     1
281
     0
  0
BLOCK_RECORD
  5
69
330
1
100
AcDbSymbolTableRecord
100
AcDbBlockTableRecord
  2
block 5
340
0
102
{BLKREFS
331
6A
102
}
 70
     0
280
     1
281
     0
  0
BLOCK_RECORD
  5
71
330
1
100
AcDbSymbolTableRecord
100
AcDbBlockTableRecord
  2
block 6
340
0
102
{BLKREFS
331
72
102
}
 70
     0
280
     1
281
     0
  0
BLOCK_RECORD
  5
A5
330
1
100
AcDbSymbolTableRecord
100
AcDbBlockTableRecord
  2
block 7
340
0
102
{BLKREFS
331
A6
102
}
 70
     0
280
     1
281
     0
  0
BLOCK_RECORD
  5
C1
330
1
100
AcDbSymbolTableRecord
100
AcDbBlockTableRecord
  2
block 8
340
0
102
{BLKREFS
331
C2
102
}
 70
     0
280
     1
281
     0
  0
BLOCK_RECORD
  5
F2
330
1
100
AcDbSymbolTableRecord
100
AcDbBlockTableRecord
  2
block 9
340
0
102
{BLKREFS
331
F3
102
}
 70
     0
280
     1
281
     0
  0
ENDTAB
  0
ENDSEC
  0
SECTION
  2
BLOCKS
  0
BLOCK
  5
20
330
1F
100
AcDbEntity
  8
0
100
AcDbBlockBegin
  2
*Model_Space
 70
     0
 10
0.0
 20
0.0
 30
0.0
  3
*Model_Space
  1

  0
ENDBLK
  5
21
330
1F
100
AcDbEntity
  8
0
100
AcDbBlockEnd
  0
BLOCK
  5
1C
330
1B
100
AcDbEntity
 67
     1
  8
0
100
AcDbBlockBegin
  2
*Paper_Space
 70
     0
 10
0.0
 20
0.0
 30
0.0
  3
*Paper_Space
  1

  0
ENDBLK
  5
1D
330
1B
100
AcDbEntity
 67
     1
  8
0
100
AcDbBlockEnd
  0
BLOCK
  5
24
330
23
100
AcDbEntity
  8
0
100
AcDbBlockBegin
  2
*Paper_Space0
 70
     0
 10
0.0
 20
0.0
 30
0.0
  3
*Paper_Space0
  1

  0
ENDBLK
  5
25
330
23
100
AcDbEntity
  8
0
100
AcDbBlockEnd
  0
BLOCK
  5
56
330
54
100
AcDbEntity
  8
0
100
AcDbBlockBegin
  2
block 2
 70
     0
 10
0.0
 20
0.0
 30
0.0
  3
block 2
  1

  0
SPLINE
  5
58
330
54
100
AcDbEntity
  8
_U+30EC_U+30A4_U+30E4_U+30FC 1
370
     0
100
AcDbSpline
210
0.0
220
0.0
230
1.0
 70
    11
 71
     3
 72
    26
 73
    22
 74
     0
 42
0.0000000001
 43
0.0000000001
 12
1.0
 22
0.0
 32
0.0
 13
1.0
 23
0.0
 33
0.0
 40
0.0
 40
0.0
 40
0.0
 40
0.0
 40
1.0
 40
1.0
 40
1.0
 40
2.0
 40
2.0
 40
2.0
 40
3.0
 40
3.0
 40
3.0
 40
4.0
 40
4.0
 40
4.0
 40
5.0
 40
5.0
 40
5.0
 40
6.0
 40
6.0
 40
6.0
 40
7.0
 40
7.0
 40
7.0
 40
7.0
 10
122.1482719963727
 20
-142.8967040658383
 30
0.0
 10
122.1482719963727
 20
-142.8967040658383
 30
0.0
 10
121.0441188933501
 20
-142.8967040658383
 30
0.0
 10
121.0441188933501
 20
-142.8967040658383
 30
0.0
 10
121.0441188933501
 20
-142.8967040658383
 30
0.0
 10
121.0441188933501
 20
-143.2267442133253
 30
0.0
 10
121.0441188933501
 20
-143.2267442133253
 30
0.0
 10
121.0441188933501
 20
-143.2267442133253
 30
0.0
 10
120.8959797874844
 20
-143.2267442133253
 30
0.0
 10
120.8959797874844
 20
-143.2267442133253
 30
0.0
 10
120.8811658768978
 20
-142.8946370085472
 30
0.0
 10
120.7182128604454
 20
-142.8481282194963
 30
0.0
 10
120.6041801998837
 20
-142.8185003983232
 30
0.0
 10
120.6041801998837
 20
-142.8185003983232
 30
0.0
 10
120.6041801998837
 20
-142.6724283497486
 30
0.0
 10
120.6041801998837
 20
-142.6724283497486
 30
0.0
 10
120.6041801998837
 20
-142.6724283497486
 30
0.0
 10
122.1482719963727
 20
-142.6724283497486
 30
0.0
 10
122.1482719963727
 20
-142.6724283497486
 30
0.0
 10
122.1482719963727
 20
-142.6724283497486
 30
0.0
 10
122.1482719963727
 20
-142.8967040658383
 30
0.0
 10
122.1482719963727
 20
-142.8967040658383
 30
0.0
  0
HATCH
  5
59
330
54
100
AcDbEntity
  8
_U+30EC_U+30A4_U+30E4_U+30FC 1
 62
   179
420
  2234388
100
AcDbHatch
 10
0.0
 20
0.0
 30
0.0
210
0.0
220
0.0
230
1.0
  2
SOLID
 70
     1
 71
     0
 91
        1
 92
        1
 93
        1
 72
     4
 94
        3
 73
     0
 74
     1
 95
       26
 96
       22
 40
0.0
 40
0.0
 40
0.0
 40
0.0
 40
1.0
 40
1.0
 40
1.0
 40
2.0
 40
2.0
 40
2.0
 40
3.0
 40
3.0
 40
3.0
 40
4.0
 40
4.0
 40
4.0
 40
5.0
 40
5.0
 40
5.0
 40
6.0
 40
6.0
 40
6.0
 40
7.0
 40
7.0
 40
7.0
 40
7.0
 10
122.1482719963727
 20
-142.8967040658383
 10
122.1482719963727
 20
-142.8967040658383
 10
121.0441188933501
 20
-142.8967040658383
 10
121.0441188933501
 20
-142.8967040658383
 10
121.0441188933501
 20
-142.8967040658383
 10
121.0441188933501
 20
-143.2267442133253
 10
121.0441188933501
 20
-143.2267442133253
 10
121.0441188933501
 20
-143.2267442133253
 10
120.8959797874844
 20
-143.2267442133253
 10
120.8959797874844
 20
-143.2267442133253
 10
120.8811658768978
 20
-142.8946370085472
 10
120.7182128604454
 20
-142.8481282194963
 10
120.6041801998837
 20
-142.8185003983232
 10
120.6041801998837
 20
-142.8185003983232
 10
120.6041801998837
 20
-142.6724283497486
 10
120.6041801998837
 20
-142.6724283497486
 10
120.6041801998837
 20
-142.6724283497486
 10
122.1482719963727
 20
-142.6724283497486
 10
122.1482719963727
 20
-142.6724283497486
 10
122.1482719963727
 20
-142.6724283497486
 10
122.1482719963727
 20
-142.8967040658383
 10
122.1482719963727
 20
-142.8967040658383
 97
        0
 97
        0
 75
     2
 76
     1
 98
        0
  0
ENDBLK
  5
57
330
54
100
AcDbEntity
  8
0
100
AcDbBlockEnd
  0
BLOCK
  5
5C
330
5A
100
AcDbEntity
  8
0
100
AcDbBlockBegin
  2
block 3
 70
     0
 10
0.0
 20
0.0
 30
0.0
  3
block 3
  1

  0
SPLINE
  5
5E
330
5A
100
AcDbEntity
  8
_U+30EC_U+30A4_U+30E4_U+30FC 1
370
     0
100
AcDbSpline
210
0.0
220
0.0
230
1.0
 70
    11
 71
     3
 72
    32
 73
    28
 74
     0
 42
0.0000000001
 43
0.0000000001
 12
1.0
 22
0.0
 32
0.0
 13
1.0
 23
0.0
 33
0.0
 40
0.0
 40
0.0
 40
0.0
 40
0.0
 40
1.0
 40
1.0
 40
1.0
 40
2.0
 40
2.0
 40
2.0
 40
3.0
 40
3.0
 40
3.0
 40
4.0
 40
4.0
 40
4.0
 40
5.0
 40
5.0
 40
5.0
 40
6.0
 40
6.0
 40
6.0
 40
7.0
 40
7.0
 40
7.0
 40
8.0
 40
8.0
 40
8.0
 40
9.0
 40
9.0
 40
9.0
 40
9.0
 10
91.02045624894627
 20
-156.563742365373
 30
0.0
 10
90.84716794603821
 20
-156.563742365373
 30
0.0
 10
90.6015326379399
 20
-156.4938069270224
 30
0.0
 10
90.56363658760215
 20
-156.1616997222443
 30
0.0
 10
90.56363658760215
 20
-156.1616997222443
 30
0.0
 10
90.77723250768764
 20
-156.1616997222443
 30
0.0
 10
90.77723250768764
 20
-156.1616997222443
 30
0.0
 10
90.78791230369191
 20
-156.2209553645906
 30
0.0
 10
90.81960718215622
 20
-156.3690944704563
 30
0.0
 10
91.02252330623743
 20
-156.3690944704563
 30
0.0
 10
91.31466740338662
 20
-156.3690944704563
 30
0.0
 10
91.35256345372436
 20
-156.0390543229694
 30
0.0
 10
91.36531030701978
 20
-155.8337266320485
 30
0.0
 10
91.27435978620919
 20
-155.9139973568548
 30
0.0
 10
91.20683591469829
 20
-155.97118594191
 30
0.0
 10
91.0249348730771
 20
-155.97118594191
 30
0.0
 10
90.84510088874707
 20
-155.97118594191
 30
0.0
 10
90.54262150514212
 20
-155.8654215105128
 30
0.0
 10
90.54262150514212
 20
-155.4592447528019
 30
0.0
 10
90.54262150514212
 20
-155.1398844013192
 30
0.0
 10
90.74140351464104
 20
-154.9197427998117
 30
0.0
 10
91.05869680883255
 20
-154.9197427998117
 30
0.0
 10
91.57270505523182
 20
-154.9197427998117
 30
0.0
 10
91.5833848512361
 20
-155.4740586633884
 30
0.0
 10
91.5833848512361
 20
-155.6876545834739
 30
0.0
 10
91.5833848512361
 20
-155.9184759809857
 30
0.0
 10
91.56409231651871
 20
-156.563742365373
 30
0.0
 10
91.02045624894627
 20
-156.563742365373
 30
0.0
  0
SPLINE
  5
5F
330
5A
100
AcDbEntity
  8
_U+30EC_U+30A4_U+30E4_U+30FC 1
370
     0
100
AcDbSpline
210
0.0
220
0.0
230
1.0
 70
    11
 71
     3
 72
    17
 73
    13
 74
     0
 42
0.0000000001
 43
0.0000000001
 12
1.0
 22
0.0
 32
0.0
 13
1.0
 23
0.0
 33
0.0
 40
0.0
 40
0.0
 40
0.0
 40
0.0
 40
1.0
 40
1.0
 40
1.0
 40
2.0
 40
2.0
 40
2.0
 40
3.0
 40
3.0
 40
3.0
 40
4.0
 40
4.0
 40
4.0
 40
4.0
 10
91.06076386612371
 20
-155.1123236374372
 30
0.0
 10
90.9422525814311
 20
-155.1123236374372
 30
0.0
 10
90.76655271168336
 20
-155.1695122224924
 30
0.0
 10
90.76655271168336
 20
-155.4551106382196
 30
0.0
 10
90.76655271168336
 20
-155.6814534116005
 30
0.0
 10
90.90642358838451
 20
-155.7765380469934
 30
0.0
 10
91.04181584095483
 20
-155.7765380469934
 30
0.0
 10
91.30398760738234
 20
-155.7765380469934
 30
0.0
 10
91.34222816726862
 20
-155.5670762414902
 30
0.0
 10
91.34222816726862
 20
-155.4509765236373
 30
0.0
 10
91.34222816726862
 20
-155.2752766538895
 30
0.0
 10
91.2467990223272
 20
-155.1123236374372
 30
0.0
 10
91.06076386612371
 20
-155.1123236374372
 30
0.0
  0
HATCH
  5
60
330
5A
100
AcDbEntity
  8
_U+30EC_U+30A4_U+30E4_U+30FC 1
 62
   179
420
  2234388
100
AcDbHatch
 10
0.0
 20
0.0
 30
0.0
210
0.0
220
0.0
230
1.0
  2
SOLID
 70
     1
 71
     0
 91
        2
 92
        1
 93
        1
 72
     4
 94
        3
 73
     0
 74
     1
 95
       32
 96
       28
 40
0.0
 40
0.0
 40
0.0
 40
0.0
 40
1.0
 40
1.0
 40
1.0
 40
2.0
 40
2.0
 40
2.0
 40
3.0
 40
3.0
 40
3.0
 40
4.0
 40
4.0
 40
4.0
 40
5.0
 40
5.0
 40
5.0
 40
6.0
 40
6.0
 40
6.0
 40
7.0
 40
7.0
 40
7.0
 40
8.0
 40
8.0
 40
8.0
 40
9.0
 40
9.0
 40
9.0
 40
9.0
 10
91.02045624894627
 20
-156.563742365373
 10
90.84716794603821
 20
-156.563742365373
 10
90.6015326379399
 20
-156.4938069270224
 10
90.56363658760215
 20
-156.1616997222443
 10
90.56363658760215
 20
-156.1616997222443
 10
90.77723250768764
 20
-156.1616997222443
 10
90.77723250768764
 20
-156.1616997222443
 10
90.78791230369191
 20
-156.2209553645906
 10
90.81960718215622
 20
-156.3690944704563
 10
91.02252330623743
 20
-156.3690944704563
 10
91.31466740338662
 20
-156.3690944704563
 10
91.35256345372436
 20
-156.0390543229694
 10
91.36531030701978
 20
-155.8337266320485
 10
91.27435978620919
 20
-155.9139973568548
 10
91.20683591469829
 20
-155.97118594191
 10
91.0249348730771
 20
-155.97118594191
 10
90.84510088874707
 20
-155.97118594191
 10
90.54262150514212
 20
-155.8654215105128
 10
90.54262150514212
 20
-155.4592447528019
 10
90.54262150514212
 20
-155.1398844013192
 10
90.74140351464104
 20
-154.9197427998117
 10
91.05869680883255
 20
-154.9197427998117
 10
91.57270505523182
 20
-154.9197427998117
 10
91.5833848512361
 20
-155.4740586633884
 10
91.5833848512361
 20
-155.6876545834739
 10
91.5833848512361
 20
-155.9184759809857
 10
91.56409231651871
 20
-156.563742365373
 10
91.02045624894627
 20
-156.563742365373
 97
        0
 97
        0
 92
        1
 93
        1
 72
     4
 94
        3
 73
     0
 74
     1
 95
       17
 96
       13
 40
0.0
 40
0.0
 40
0.0
 40
0.0
 40
1.0
 40
1.0
 40
1.0
 40
2.0
 40
2.0
 40
2.0
 40
3.0
 40
3.0
 40
3.0
 40
4.0
 40
4.0
 40
4.0
 40
4.0
 10
91.06076386612371
 20
-155.1123236374372
 10
90.9422525814311
 20
-155.1123236374372
 10
90.76655271168336
 20
-155.1695122224924
 10
90.76655271168336
 20
-155.4551106382196
 10
90.76655271168336
 20
-155.6814534116005
 10
90.90642358838451
 20
-155.7765380469934
 10
91.04181584095483
 20
-155.7765380469934
 10
91.30398760738234
 20
-155.7765380469934
 10
91.34222816726862
 20
-155.5670762414902
 10
91.34222816726862
 20
-155.4509765236373
 10
91.34222816726862
 20
-155.2752766538895
 10
91.2467990223272
 20
-155.1123236374372
 10
91.06076386612371
 20
-155.1123236374372
 97
        0
 97
        0
 75
     2
 76
     1
 98
        0
  0
ENDBLK
  5
5D
330
5A
100
AcDbEntity
  8
0
100
AcDbBlockEnd
  0
BLOCK
  5
63
330
61
100
AcDbEntity
  8
0
100
AcDbBlockBegin
  2
block 4
 70
     0
 10
0.0
 20
0.0
 30
0.0
  3
block 4
  1

  0
SPLINE
  5
65
330
61
100
AcDbEntity
  8
_U+30EC_U+30A4_U+30E4_U+30FC 1
370
     0
100
AcDbSpline
210
0.0
220
0.0
230
1.0
 70
    11
 71
     3
 72
    26
 73
    22
 74
     0
 42
0.0000000001
 43
0.0000000001
 12
1.0
 22
0.0
 32
0.0
 13
1.0
 23
0.0
 33
0.0
 40
0.0
 40
0.0
 40
0.0
 40
0.0
 40
1.0
 40
1.0
 40
1.0
 40
2.0
 40
2.0
 40
2.0
 40
3.0
 40
3.0
 40
3.0
 40
4.0
 40
4.0
 40
4.0
 40
5.0
 40
5.0
 40
5.0
 40
6.0
 40
6.0
 40
6.0
 40
7.0
 40
7.0
 40
7.0
 40
7.0
 10
105.4202663581935
 20
-156.5127549521913
 30
0.0
 10
105.4202663581935
 20
-156.5127549521913
 30
0.0
 10
105.4202663581935
 20
-155.4086018491687
 30
0.0
 10
105.4202663581935
 20
-155.4086018491687
 30
0.0
 10
105.4202663581935
 20
-155.4086018491687
 30
0.0
 10
105.0902262107066
 20
-155.4086018491687
 30
0.0
 10
105.0902262107066
 20
-155.4086018491687
 30
0.0
 10
105.0902262107066
 20
-155.4086018491687
 30
0.0
 10
105.0902262107066
 20
-155.260462743303
 30
0.0
 10
105.0902262107066
 20
-155.260462743303
 30
0.0
 10
105.4223334154847
 20
-155.2456488327164
 30
0.0
 10
105.4688422045356
 20
-155.082695816264
 30
0.0
 10
105.4984700257087
 20
-154.9686631557023
 30
0.0
 10
105.4984700257087
 20
-154.9686631557023
 30
0.0
 10
105.6445420742833
 20
-154.9686631557023
 30
0.0
 10
105.6445420742833
 20
-154.9686631557023
 30
0.0
 10
105.6445420742833
 20
-154.9686631557023
 30
0.0
 10
105.6445420742833
 20
-156.5127549521913
 30
0.0
 10
105.6445420742833
 20
-156.5127549521913
 30
0.0
 10
105.6445420742833
 20
-156.5127549521913
 30
0.0
 10
105.4202663581935
 20
-156.5127549521913
 30
0.0
 10
105.4202663581935
 20
-156.5127549521913
 30
0.0
  0
HATCH
  5
66
330
61
100
AcDbEntity
  8
_U+30EC_U+30A4_U+30E4_U+30FC 1
 62
   179
420
  2234388
100
AcDbHatch
 10
0.0
 20
0.0
 30
0.0
210
0.0
220
0.0
230
1.0
  2
SOLID
 70
     1
 71
     0
 91
        1
 92
        1
 93
        1
 72
     4
 94
        3
 73
     0
 74
     1
 95
       26
 96
       22
 40
0.0
 40
0.0
 40
0.0
 40
0.0
 40
1.0
 40
1.0
 40
1.0
 40
2.0
 40
2.0
 40
2.0
 40
3.0
 40
3.0
 40
3.0
 40
4.0
 40
4.0
 40
4.0
 40
5.0
 40
5.0
 40
5.0
 40
6.0
 40
6.0
 40
6.0
 40
7.0
 40
7.0
 40
7.0
 40
7.0
 10
105.4202663581935
 20
-156.5127549521913
 10
105.4202663581935
 20
-156.5127549521913
 10
105.4202663581935
 20
-155.4086018491687
 10
105.4202663581935
 20
-155.4086018491687
 10
105.4202663581935
 20
-155.4086018491687
 10
105.0902262107066
 20
-155.4086018491687
 10
105.0902262107066
 20
-155.4086018491687
 10
105.0902262107066
 20
-155.4086018491687
 10
105.0902262107066
 20
-155.260462743303
 10
105.0902262107066
 20
-155.260462743303
 10
105.4223334154847
 20
-155.2456488327164
 10
105.4688422045356
 20
-155.082695816264
 10
105.4984700257087
 20
-154.9686631557023
 10
105.4984700257087
 20
-154.9686631557023
 10
105.6445420742833
 20
-154.9686631557023
 10
105.6445420742833
 20
-154.9686631557023
 10
105.6445420742833
 20
-154.9686631557023
 10
105.6445420742833
 20
-156.5127549521913
 10
105.6445420742833
 20
-156.5127549521913
 10
105.6445420742833
 20
-156.5127549521913
 10
105.4202663581935
 20
-156.5127549521913
 10
105.4202663581935
 20
-156.5127549521913
 97
        0
 97
        0
 75
     2
 76
     1
 98
        0
  0
SPLINE
  5
67
330
61
100
AcDbEntity
  8
_U+30EC_U+30A4_U+30E4_U+30FC 1
370
     0
100
AcDbSpline
210
0.0
220
0.0
230
1.0
 70
    11
 71
     3
 72
    53
 73
    49
 74
     0
 42
0.0000000001
 43
0.0000000001
 12
1.0
 22
0.0
 32
0.0
 13
1.0
 23
0.0
 33
0.0
 40
0.0
 40
0.0
 40
0.0
 40
0.0
 40
1.0
 40
1.0
 40
1.0
 40
2.0
 40
2.0
 40
2.0
 40
3.0
 40
3.0
 40
3.0
 40
4.0
 40
4.0
 40
4.0
 40
5.0
 40
5.0
 40
5.0
 40
6.0
 40
6.0
 40
6.0
 40
7.0
 40
7.0
 40
7.0
 40
8.0
 40
8.0
 40
8.0
 40
9.0
 40
9.0
 40
9.0
 40
10.0
 40
10.0
 40
10.0
 40
11.0
 40
11.0
 40
11.0
 40
12.0
 40
12.0
 40
12.0
 40
13.0
 40
13.0
 40
13.0
 40
14.0
 40
14.0
 40
14.0
 40
15.0
 40
15.0
 40
15.0
 40
16.0
 40
16.0
 40
16.0
 40
16.0
 10
106.626738797128
 20
-156.563742365373
 30
0.0
 10
106.5485351296129
 20
-156.563742365373
 30
0.0
 10
106.446904812798
 20
-156.5465168879467
 30
0.0
 10
106.3452744959831
 20
-156.4831271310181
 30
0.0
 10
106.1719861930751
 20
-156.3732285850386
 30
0.0
 10
106.1506266010665
 20
-156.2419704470506
 30
0.0
 10
106.1316785758976
 20
-156.1341389583623
 30
0.0
 10
106.1316785758976
 20
-156.1341389583623
 30
0.0
 10
106.3538872346963
 20
-156.1341389583623
 30
0.0
 10
106.3538872346963
 20
-156.1341389583623
 30
0.0
 10
106.4086642529117
 20
-156.3329209678612
 30
0.0
 10
106.5357882763174
 20
-156.3625487890344
 30
0.0
 10
106.6288058544192
 20
-156.3625487890344
 30
0.0
 10
106.7683322215718
 20
-156.3625487890344
 30
0.0
 10
106.9206054420198
 20
-156.2633300390592
 30
0.0
 10
106.9206054420198
 20
-156.0304415842563
 30
0.0
 10
106.9206054420198
 20
-155.7744709897022
 30
0.0
 10
106.7407714576898
 20
-155.7048800609002
 30
0.0
 10
106.6201931157061
 20
-155.7048800609002
 30
0.0
 10
106.5884982372418
 20
-155.7048800609002
 30
0.0
 10
106.446904812798
 20
-155.7048800609002
 30
0.0
 10
106.3580213492786
 20
-155.8337266320485
 30
0.0
 10
106.3580213492786
 20
-155.8337266320485
 30
0.0
 10
106.1823214795308
 20
-155.8147786068797
 30
0.0
 10
106.1823214795308
 20
-155.8147786068797
 30
0.0
 10
106.1823214795308
 20
-155.8147786068797
 30
0.0
 10
106.3028998215146
 20
-154.9686631557023
 30
0.0
 10
106.3028998215146
 20
-154.9686631557023
 30
0.0
 10
106.3028998215146
 20
-154.9686631557023
 30
0.0
 10
107.081491401181
 20
-154.9686631557023
 30
0.0
 10
107.081491401181
 20
-154.9686631557023
 30
0.0
 10
107.081491401181
 20
-154.9686631557023
 30
0.0
 10
107.081491401181
 20
-155.1633110506189
 30
0.0
 10
107.081491401181
 20
-155.1633110506189
 30
0.0
 10
107.081491401181
 20
-155.1633110506189
 30
0.0
 10
106.4658528379669
 20
-155.1633110506189
 30
0.0
 10
106.4658528379669
 20
-155.1633110506189
 30
0.0
 10
106.4658528379669
 20
-155.1633110506189
 30
0.0
 10
106.4003960237471
 20
-155.5863687762076
 30
0.0
 10
106.4003960237471
 20
-155.5863687762076
 30
0.0
 10
106.4617187233846
 20
-155.5522623309036
 30
0.0
 10
106.544056505482
 20
-155.5122992232747
 30
0.0
 10
106.6625677901746
 20
-155.5122992232747
 30
0.0
 10
106.9164713274375
 20
-155.5122992232747
 30
0.0
 10
107.1534938968227
 20
-155.6983343794782
 30
0.0
 10
107.1534938968227
 20
-156.0114935590874
 30
0.0
 10
107.1534938968227
 20
-156.3287868532789
 30
0.0
 10
106.929218180733
 20
-156.563742365373
 30
0.0
 10
106.626738797128
 20
-156.563742365373
 30
0.0
  0
HATCH
  5
68
330
61
100
AcDbEntity
  8
_U+30EC_U+30A4_U+30E4_U+30FC 1
 62
   179
420
  2234388
100
AcDbHatch
 10
0.0
 20
0.0
 30
0.0
210
0.0
220
0.0
230
1.0
  2
SOLID
 70
     1
 71
     0
 91
        1
 92
        1
 93
        1
 72
     4
 94
        3
 73
     0
 74
     1
 95
       53
 96
       49
 40
0.0
 40
0.0
 40
0.0
 40
0.0
 40
1.0
 40
1.0
 40
1.0
 40
2.0
 40
2.0
 40
2.0
 40
3.0
 40
3.0
 40
3.0
 40
4.0
 40
4.0
 40
4.0
 40
5.0
 40
5.0
 40
5.0
 40
6.0
 40
6.0
 40
6.0
 40
7.0
 40
7.0
 40
7.0
 40
8.0
 40
8.0
 40
8.0
 40
9.0
 40
9.0
 40
9.0
 40
10.0
 40
10.0
 40
10.0
 40
11.0
 40
11.0
 40
11.0
 40
12.0
 40
12.0
 40
12.0
 40
13.0
 40
13.0
 40
13.0
 40
14.0
 40
14.0
 40
14.0
 40
15.0
 40
15.0
 40
15.0
 40
16.0
 40
16.0
 40
16.0
 40
16.0
 10
106.626738797128
 20
-156.563742365373
 10
106.5485351296129
 20
-156.563742365373
 10
106.446904812798
 20
-156.5465168879467
 10
106.3452744959831
 20
-156.4831271310181
 10
106.1719861930751
 20
-156.3732285850386
 10
106.1506266010665
 20
-156.2419704470506
 10
106.1316785758976
 20
-156.1341389583623
 10
106.1316785758976
 20
-156.1341389583623
 10
106.3538872346963
 20
-156.1341389583623
 10
106.3538872346963
 20
-156.1341389583623
 10
106.4086642529117
 20
-156.3329209678612
 10
106.5357882763174
 20
-156.3625487890344
 10
106.6288058544192
 20
-156.3625487890344
 10
106.7683322215718
 20
-156.3625487890344
 10
106.9206054420198
 20
-156.2633300390592
 10
106.9206054420198
 20
-156.0304415842563
 10
106.9206054420198
 20
-155.7744709897022
 10
106.7407714576898
 20
-155.7048800609002
 10
106.6201931157061
 20
-155.7048800609002
 10
106.5884982372418
 20
-155.7048800609002
 10
106.446904812798
 20
-155.7048800609002
 10
106.3580213492786
 20
-155.8337266320485
 10
106.3580213492786
 20
-155.8337266320485
 10
106.1823214795308
 20
-155.8147786068797
 10
106.1823214795308
 20
-155.8147786068797
 10
106.1823214795308
 20
-155.8147786068797
 10
106.3028998215146
 20
-154.9686631557023
 10
106.3028998215146
 20
-154.9686631557023
 10
106.3028998215146
 20
-154.9686631557023
 10
107.081491401181
 20
-154.9686631557023
 10
107.081491401181
 20
-154.9686631557023
 10
107.081491401181
 20
-154.9686631557023
 10
107.081491401181
 20
-155.1633110506189
 10
107.081491401181
 20
-155.1633110506189
 10
107.081491401181
 20
-155.1633110506189
 10
106.4658528379669
 20
-155.1633110506189
 10
106.4658528379669
 20
-155.1633110506189
 10
106.4658528379669
 20
-155.1633110506189
 10
106.4003960237471
 20
-155.5863687762076
 10
106.4003960237471
 20
-155.5863687762076
 10
106.4617187233846
 20
-155.5522623309036
 10
106.544056505482
 20
-155.5122992232747
 10
106.6625677901746
 20
-155.5122992232747
 10
106.9164713274375
 20
-155.5122992232747
 10
107.1534938968227
 20
-155.6983343794782
 10
107.1534938968227
 20
-156.0114935590874
 10
107.1534938968227
 20
-156.3287868532789
 10
106.929218180733
 20
-156.563742365373
 10
106.626738797128
 20
-156.563742365373
 97
        0
 97
        0
 75
     2
 76
     1
 98
        0
  0
ENDBLK
  5
64
330
61
100
AcDbEntity
  8
0
100
AcDbBlockEnd
  0
BLOCK
  5
6B
330
69
100
AcDbEntity
  8
0
100
AcDbBlockBegin
  2
block 5
 70
     0
 10
0.0
 20
0.0
 30
0.0
  3
block 5
  1

  0
SPLINE
  5
6D
330
69
100
AcDbEntity
  8
_U+30EC_U+30A4_U+30E4_U+30FC 1
370
     0
100
AcDbSpline
210
0.0
220
0.0
230
1.0
 70
    11
 71
     3
 72
    44
 73
    40
 74
     0
 42
0.0000000001
 43
0.0000000001
 12
1.0
 22
0.0
 32
0.0
 13
1.0
 23
0.0
 33
0.0
 40
0.0
 40
0.0
 40
0.0
 40
0.0
 40
1.0
 40
1.0
 40
1.0
 40
2.0
 40
2.0
 40
2.0
 40
3.0
 40
3.0
 40
3.0
 40
4.0
 40
4.0
 40
4.0
 40
5.0
 40
5.0
 40
5.0
 40
6.0
 40
6.0
 40
6.0
 40
7.0
 40
7.0
 40
7.0
 40
8.0
 40
8.0
 40
8.0
 40
9.0
 40
9.0
 40
9.0
 40
10.0
 40
10.0
 40
10.0
 40
11.0
 40
11.0
 40
11.0
 40
12.0
 40
12.0
 40
12.0
 40
13.0
 40
13.0
 40
13.0
 40
13.0
 10
99.52088484925173
 20
-140.7419690945888
 30
0.0
 10
99.30315481458393
 20
-140.9006157416846
 30
0.0
 10
99.2101372364822
 20
-140.9746852946174
 30
0.0
 10
99.16121688059164
 20
-141.1185180311266
 30
0.0
 10
99.16121688059164
 20
-141.1185180311266
 30
0.0
 10
99.9398084602581
 20
-141.1185180311266
 30
0.0
 10
99.9398084602581
 20
-141.1185180311266
 30
0.0
 10
99.9398084602581
 20
-141.1185180311266
 30
0.0
 10
99.9398084602581
 20
-141.3236734672733
 30
0.0
 10
99.9398084602581
 20
-141.3236734672733
 30
0.0
 10
99.9398084602581
 20
-141.3236734672733
 30
0.0
 10
98.91179196745955
 20
-141.3236734672733
 30
0.0
 10
98.91179196745955
 20
-141.3236734672733
 30
0.0
 10
98.94348684592386
 20
-140.9660725559043
 30
0.0
 10
99.0089436601436
 20
-140.8878688883892
 30
0.0
 10
99.39410533539453
 20
-140.5895236193665
 30
0.0
 10
99.6500759299486
 20
-140.3907416098676
 30
0.0
 10
99.71553274416834
 20
-140.3230454835824
 30
0.0
 10
99.71553274416834
 20
-140.185586173721
 30
0.0
 10
99.71553274416834
 20
-140.0670748890284
 30
0.0
 10
99.64353024852662
 20
-139.9358167510404
 30
0.0
 10
99.44681529631886
 20
-139.9358167510404
 30
0.0
 10
99.18671058718249
 20
-139.9358167510404
 30
0.0
 10
99.17809784846936
 20
-140.1664658937778
 30
0.0
 10
99.17396373388706
 20
-140.2829101211793
 30
0.0
 10
99.17396373388706
 20
-140.2829101211793
 30
0.0
 10
98.9496880177973
 20
-140.2829101211793
 30
0.0
 10
98.9496880177973
 20
-140.2829101211793
 30
0.0
 10
98.95830075651043
 20
-140.1559583525478
 30
0.0
 10
98.96898055251471
 20
-140.0438204945029
 30
0.0
 10
99.04925127732102
 20
-139.9253092098103
 30
0.0
 10
99.1591498233005
 20
-139.7645955054234
 30
0.0
 10
99.34552948905251
 20
-139.7306613148937
 30
0.0
 10
99.46162920690543
 20
-139.7306613148937
 30
0.0
 10
99.73895939346804
 20
-139.7306613148937
 30
0.0
 10
99.94635414168009
 20
-139.9148016685803
 30
0.0
 10
99.94635414168009
 20
-140.1876532310121
 30
0.0
 10
99.94635414168009
 20
-140.4160630616842
 30
0.0
 10
99.82990991427864
 20
-140.5156263212079
 30
0.0
 10
99.52088484925173
 20
-140.7419690945888
 30
0.0
  0
HATCH
  5
6E
330
69
100
AcDbEntity
  8
_U+30EC_U+30A4_U+30E4_U+30FC 1
 62
   179
420
  2234388
100
AcDbHatch
 10
0.0
 20
0.0
 30
0.0
210
0.0
220
0.0
230
1.0
  2
SOLID
 70
     1
 71
     0
 91
        1
 92
        1
 93
        1
 72
     4
 94
        3
 73
     0
 74
     1
 95
       44
 96
       40
 40
0.0
 40
0.0
 40
0.0
 40
0.0
 40
1.0
 40
1.0
 40
1.0
 40
2.0
 40
2.0
 40
2.0
 40
3.0
 40
3.0
 40
3.0
 40
4.0
 40
4.0
 40
4.0
 40
5.0
 40
5.0
 40
5.0
 40
6.0
 40
6.0
 40
6.0
 40
7.0
 40
7.0
 40
7.0
 40
8.0
 40
8.0
 40
8.0
 40
9.0
 40
9.0
 40
9.0
 40
10.0
 40
10.0
 40
10.0
 40
11.0
 40
11.0
 40
11.0
 40
12.0
 40
12.0
 40
12.0
 40
13.0
 40
13.0
 40
13.0
 40
13.0
 10
99.52088484925173
 20
-140.7419690945888
 10
99.30315481458393
 20
-140.9006157416846
 10
99.2101372364822
 20
-140.9746852946174
 10
99.16121688059164
 20
-141.1185180311266
 10
99.16121688059164
 20
-141.1185180311266
 10
99.9398084602581
 20
-141.1185180311266
 10
99.9398084602581
 20
-141.1185180311266
 10
99.9398084602581
 20
-141.1185180311266
 10
99.9398084602581
 20
-141.3236734672733
 10
99.9398084602581
 20
-141.3236734672733
 10
99.9398084602581
 20
-141.3236734672733
 10
98.91179196745955
 20
-141.3236734672733
 10
98.91179196745955
 20
-141.3236734672733
 10
98.94348684592386
 20
-140.9660725559043
 10
99.0089436601436
 20
-140.8878688883892
 10
99.39410533539453
 20
-140.5895236193665
 10
99.6500759299486
 20
-140.3907416098676
 10
99.71553274416834
 20
-140.3230454835824
 10
99.71553274416834
 20
-140.185586173721
 10
99.71553274416834
 20
-140.0670748890284
 10
99.64353024852662
 20
-139.9358167510404
 10
99.44681529631886
 20
-139.9358167510404
 10
99.18671058718249
 20
-139.9358167510404
 10
99.17809784846936
 20
-140.1664658937778
 10
99.17396373388706
 20
-140.2829101211793
 10
99.17396373388706
 20
-140.2829101211793
 10
98.9496880177973
 20
-140.2829101211793
 10
98.9496880177973
 20
-140.2829101211793
 10
98.95830075651043
 20
-140.1559583525478
 10
98.96898055251471
 20
-140.0438204945029
 10
99.04925127732102
 20
-139.9253092098103
 10
99.1591498233005
 20
-139.7645955054234
 10
99.34552948905251
 20
-139.7306613148937
 10
99.46162920690543
 20
-139.7306613148937
 10
99.73895939346804
 20
-139.7306613148937
 10
99.94635414168009
 20
-139.9148016685803
 10
99.94635414168009
 20
-140.1876532310121
 10
99.94635414168009
 20
-140.4160630616842
 10
99.82990991427864
 20
-140.5156263212079
 10
99.52088484925173
 20
-140.7419690945888
 97
        0
 97
        0
 75
     2
 76
     1
 98
        0
  0
SPLINE
  5
6F
330
69
100
AcDbEntity
  8
_U+30EC_U+30A4_U+30E4_U+30FC 1
370
     0
100
AcDbSpline
210
0.0
220
0.0
230
1.0
 70
    11
 71
     3
 72
    26
 73
    22
 74
     0
 42
0.0000000001
 43
0.0000000001
 12
1.0
 22
0.0
 32
0.0
 13
1.0
 23
0.0
 33
0.0
 40
0.0
 40
0.0
 40
0.0
 40
0.0
 40
1.0
 40
1.0
 40
1.0
 40
2.0
 40
2.0
 40
2.0
 40
3.0
 40
3.0
 40
3.0
 40
4.0
 40
4.0
 40
4.0
 40
5.0
 40
5.0
 40
5.0
 40
6.0
 40
6.0
 40
6.0
 40
7.0
 40
7.0
 40
7.0
 40
7.0
 10
100.5158284253919
 20
-141.3236734672733
 30
0.0
 10
100.5158284253919
 20
-141.3236734672733
 30
0.0
 10
100.2788058560067
 20
-141.3236734672733
 30
0.0
 10
100.2788058560067
 20
-141.3236734672733
 30
0.0
 10
100.3042995625975
 20
-141.0148206570206
 30
0.0
 10
100.496880400223
 20
-140.4965060412648
 30
0.0
 10
100.903057157934
 20
-139.9909382788044
 30
0.0
 10
100.903057157934
 20
-139.9909382788044
 30
0.0
 10
100.0652099359212
 20
-139.9909382788044
 30
0.0
 10
100.0652099359212
 20
-139.9909382788044
 30
0.0
 10
100.0652099359212
 20
-139.9909382788044
 30
0.0
 10
100.0652099359212
 20
-139.77940941601
 30
0.0
 10
100.0652099359212
 20
-139.77940941601
 30
0.0
 10
100.0652099359212
 20
-139.77940941601
 30
0.0
 10
101.1400797273191
 20
-139.77940941601
 30
0.0
 10
101.1400797273191
 20
-139.77940941601
 30
0.0
 10
101.1400797273191
 20
-139.77940941601
 30
0.0
 10
101.1400797273191
 20
-139.9909382788044
 30
0.0
 10
101.1400797273191
 20
-139.9909382788044
 30
0.0
 10
100.8162407517057
 20
-140.2806708091139
 30
0.0
 10
100.5495903611473
 20
-140.8730549778026
 30
0.0
 10
100.5158284253919
 20
-141.3236734672733
 30
0.0
  0
HATCH
  5
70
330
69
100
AcDbEntity
  8
_U+30EC_U+30A4_U+30E4_U+30FC 1
 62
   179
420
  2234388
100
AcDbHatch
 10
0.0
 20
0.0
 30
0.0
210
0.0
220
0.0
230
1.0
  2
SOLID
 70
     1
 71
     0
 91
        1
 92
        1
 93
        1
 72
     4
 94
        3
 73
     0
 74
     1
 95
       26
 96
       22
 40
0.0
 40
0.0
 40
0.0
 40
0.0
 40
1.0
 40
1.0
 40
1.0
 40
2.0
 40
2.0
 40
2.0
 40
3.0
 40
3.0
 40
3.0
 40
4.0
 40
4.0
 40
4.0
 40
5.0
 40
5.0
 40
5.0
 40
6.0
 40
6.0
 40
6.0
 40
7.0
 40
7.0
 40
7.0
 40
7.0
 10
100.5158284253919
 20
-141.3236734672733
 10
100.5158284253919
 20
-141.3236734672733
 10
100.2788058560067
 20
-141.3236734672733
 10
100.2788058560067
 20
-141.3236734672733
 10
100.3042995625975
 20
-141.0148206570206
 10
100.496880400223
 20
-140.4965060412648
 10
100.903057157934
 20
-139.9909382788044
 10
100.903057157934
 20
-139.9909382788044
 10
100.0652099359212
 20
-139.9909382788044
 10
100.0652099359212
 20
-139.9909382788044
 10
100.0652099359212
 20
-139.9909382788044
 10
100.0652099359212
 20
-139.77940941601
 10
100.0652099359212
 20
-139.77940941601
 10
100.0652099359212
 20
-139.77940941601
 10
101.1400797273191
 20
-139.77940941601
 10
101.1400797273191
 20
-139.77940941601
 10
101.1400797273191
 20
-139.77940941601
 10
101.1400797273191
 20
-139.9909382788044
 10
101.1400797273191
 20
-139.9909382788044
 10
100.8162407517057
 20
-140.2806708091139
 10
100.5495903611473
 20
-140.8730549778026
 10
100.5158284253919
 20
-141.3236734672733
 97
        0
 97
        0
 75
     2
 76
     1
 98
        0
  0
ENDBLK
  5
6C
330
69
100
AcDbEntity
  8
0
100
AcDbBlockEnd
  0
BLOCK
  5
73
330
71
100
AcDbEntity
  8
0
100
AcDbBlockBegin
  2
block 6
 70
     0
 10
0.0
 20
0.0
 30
0.0
  3
block 6
  1

  0
SPLINE
  5
75
330
71
100
AcDbEntity
  8
_U+30EC_U+30A4_U+30E4_U+30FC 1
370
     0
100
AcDbSpline
210
0.0
220
0.0
230
1.0
 70
    11
 71
     3
 72
    62
 73
    58
 74
     0
 42
0.0000000001
 43
0.0000000001
 12
1.0
 22
0.0
 32
0.0
 13
1.0
 23
0.0
 33
0.0
 40
0.0
 40
0.0
 40
0.0
 40
0.0
 40
1.0
 40
1.0
 40
1.0
 40
2.0
 40
2.0
 40
2.0
 40
3.0
 40
3.0
 40
3.0
 40
4.0
 40
4.0
 40
4.0
 40
5.0
 40
5.0
 40
5.0
 40
6.0
 40
6.0
 40
6.0
 40
7.0
 40
7.0
 40
7.0
 40
8.0
 40
8.0
 40
8.0
 40
9.0
 40
9.0
 40
9.0
 40
10.0
 40
10.0
 40
10.0
 40
11.0
 40
11.0
 40
11.0
 40
12.0
 40
12.0
 40
12.0
 40
13.0
 40
13.0
 40
13.0
 40
14.0
 40
14.0
 40
14.0
 40
15.0
 40
15.0
 40
15.0
 40
16.0
 40
16.0
 40
16.0
 40
17.0
 40
17.0
 40
17.0
 40
18.0
 40
18.0
 40
18.0
 40
19.0
 40
19.0
 40
19.0
 40
19.0
 10
97.04902883858497
 20
-156.563742365373
 30
0.0
 10
96.95359969364355
 20
-156.563742365373
 30
0.0
 10
96.73586965897576
 20
-156.5423827733644
 30
0.0
 10
96.61081269286119
 20
-156.3563476171609
 30
0.0
 10
96.53708764947685
 20
-156.2440375043418
 30
0.0
 10
96.53260902534602
 20
-156.1448187543666
 30
0.0
 10
96.52847491076372
 20
-156.0600694054294
 30
0.0
 10
96.52847491076372
 20
-156.0600694054294
 30
0.0
 10
96.74861651227118
 20
-156.0600694054294
 30
0.0
 10
96.74861651227118
 20
-156.0600694054294
 30
0.0
 10
96.75068356956233
 20
-156.1341389583623
 30
0.0
 10
96.76101885601808
 20
-156.3690944704563
 30
0.0
 10
97.04455021445415
 20
-156.3690944704563
 30
0.0
 10
97.18200952431562
 20
-156.3690944704563
 30
0.0
 10
97.33462725431218
 20
-156.2991590321058
 30
0.0
 10
97.33462725431218
 20
-156.0707492014337
 30
0.0
 10
97.33462725431218
 20
-155.9543049740323
 30
0.0
 10
97.2963866944259
 20
-155.9057291276903
 30
0.0
 10
97.26469181596161
 20
-155.874034249226
 30
0.0
 10
97.19062226302874
 20
-155.7999646962931
 30
0.0
 10
97.0741780356273
 20
-155.7872178429976
 30
0.0
 10
97.01940101741182
 20
-155.7872178429976
 30
0.0
 10
97.00010848269442
 20
-155.7872178429976
 30
0.0
 10
96.96427948964782
 20
-155.7892849002888
 30
0.0
 10
96.93671872576583
 20
-155.7934190148711
 30
0.0
 10
96.93671872576583
 20
-155.7934190148711
 30
0.0
 10
96.93671872576583
 20
-155.5987711199545
 30
0.0
 10
96.93671872576583
 20
-155.5987711199545
 30
0.0
 10
96.9749592856521
 20
-155.6053168013765
 30
0.0
 10
97.01698945057214
 20
-155.6073838586676
 30
0.0
 10
97.02353513199412
 20
-155.6073838586676
 30
0.0
 10
97.08899194621387
 20
-155.6073838586676
 30
0.0
 10
97.28777395571278
 20
-155.5863687762076
 30
0.0
 10
97.28777395571278
 20
-155.3493462068224
 30
0.0
 10
97.28777395571278
 20
-155.1715792797835
 30
0.0
 10
97.1568603272733
 20
-155.1164577520195
 30
0.0
 10
97.04661727174529
 20
-155.1164577520195
 30
0.0
 10
96.78237844802663
 20
-155.1164577520195
 30
0.0
 10
96.77376570931351
 20
-155.3493462068224
 30
0.0
 10
96.76963159473121
 20
-155.4213487024641
 30
0.0
 10
96.76963159473121
 20
-155.4213487024641
 30
0.0
 10
96.56637096110147
 20
-155.4213487024641
 30
0.0
 10
96.56637096110147
 20
-155.4213487024641
 30
0.0
 10
96.5749836998146
 20
-155.2962917363496
 30
0.0
 10
96.60254446369659
 20
-154.9197427998117
 30
0.0
 10
97.05936412504072
 20
-154.9197427998117
 30
0.0
 10
97.28363984113048
 20
-154.9197427998117
 30
0.0
 10
97.52479652509797
 20
-155.0468668232175
 30
0.0
 10
97.52479652509797
 20
-155.3428005254004
 30
0.0
 10
97.52479652509797
 20
-155.5291801911524
 30
0.0
 10
97.42971188970508
 20
-155.6115179732499
 30
0.0
 10
97.33014863018136
 20
-155.6728406728874
 30
0.0
 10
97.3914713298188
 20
-155.7004014367693
 30
0.0
 10
97.57337237144
 20
-155.7810166711242
 30
0.0
 10
97.57337237144
 20
-156.0580023481383
 30
0.0
 10
97.57337237144
 20
-156.3966552343383
 30
0.0
 10
97.32601451559906
 20
-156.563742365373
 30
0.0
 10
97.04902883858497
 20
-156.563742365373
 30
0.0
  0
HATCH
  5
76
330
71
100
AcDbEntity
  8
_U+30EC_U+30A4_U+30E4_U+30FC 1
 62
   179
420
  2234388
100
AcDbHatch
 10
0.0
 20
0.0
 30
0.0
210
0.0
220
0.0
230
1.0
  2
SOLID
 70
     1
 71
     0
 91
        1
 92
        1
 93
        1
 72
     4
 94
        3
 73
     0
 74
     1
 95
       62
 96
       58
 40
0.0
 40
0.0
 40
0.0
 40
0.0
 40
1.0
 40
1.0
 40
1.0
 40
2.0
 40
2.0
 40
2.0
 40
3.0
 40
3.0
 40
3.0
 40
4.0
 40
4.0
 40
4.0
 40
5.0
 40
5.0
 40
5.0
 40
6.0
 40
6.0
 40
6.0
 40
7.0
 40
7.0
 40
7.0
 40
8.0
 40
8.0
 40
8.0
 40
9.0
 40
9.0
 40
9.0
 40
10.0
 40
10.0
 40
10.0
 40
11.0
 40
11.0
 40
11.0
 40
12.0
 40
12.0
 40
12.0
 40
13.0
 40
13.0
 40
13.0
 40
14.0
 40
14.0
 40
14.0
 40
15.0
 40
15.0
 40
15.0
 40
16.0
 40
16.0
 40
16.0
 40
17.0
 40
17.0
 40
17.0
 40
18.0
 40
18.0
 40
18.0
 40
19.0
 40
19.0
 40
19.0
 40
19.0
 10
97.04902883858497
 20
-156.563742365373
 10
96.95359969364355
 20
-156.563742365373
 10
96.73586965897576
 20
-156.5423827733644
 10
96.61081269286119
 20
-156.3563476171609
 10
96.53708764947685
 20
-156.2440375043418
 10
96.53260902534602
 20
-156.1448187543666
 10
96.52847491076372
 20
-156.0600694054294
 10
96.52847491076372
 20
-156.0600694054294
 10
96.74861651227118
 20
-156.0600694054294
 10
96.74861651227118
 20
-156.0600694054294
 10
96.75068356956233
 20
-156.1341389583623
 10
96.76101885601808
 20
-156.3690944704563
 10
97.04455021445415
 20
-156.3690944704563
 10
97.18200952431562
 20
-156.3690944704563
 10
97.33462725431218
 20
-156.2991590321058
 10
97.33462725431218
 20
-156.0707492014337
 10
97.33462725431218
 20
-155.9543049740323
 10
97.2963866944259
 20
-155.9057291276903
 10
97.26469181596161
 20
-155.874034249226
 10
97.19062226302874
 20
-155.7999646962931
 10
97.0741780356273
 20
-155.7872178429976
 10
97.01940101741182
 20
-155.7872178429976
 10
97.00010848269442
 20
-155.7872178429976
 10
96.96427948964782
 20
-155.7892849002888
 10
96.93671872576583
 20
-155.7934190148711
 10
96.93671872576583
 20
-155.7934190148711
 10
96.93671872576583
 20
-155.5987711199545
 10
96.93671872576583
 20
-155.5987711199545
 10
96.9749592856521
 20
-155.6053168013765
 10
97.01698945057214
 20
-155.6073838586676
 10
97.02353513199412
 20
-155.6073838586676
 10
97.08899194621387
 20
-155.6073838586676
 10
97.28777395571278
 20
-155.5863687762076
 10
97.28777395571278
 20
-155.3493462068224
 10
97.28777395571278
 20
-155.1715792797835
 10
97.1568603272733
 20
-155.1164577520195
 10
97.04661727174529
 20
-155.1164577520195
 10
96.78237844802663
 20
-155.1164577520195
 10
96.77376570931351
 20
-155.3493462068224
 10
96.76963159473121
 20
-155.4213487024641
 10
96.76963159473121
 20
-155.4213487024641
 10
96.56637096110147
 20
-155.4213487024641
 10
96.56637096110147
 20
-155.4213487024641
 10
96.5749836998146
 20
-155.2962917363496
 10
96.60254446369659
 20
-154.9197427998117
 10
97.05936412504072
 20
-154.9197427998117
 10
97.28363984113048
 20
-154.9197427998117
 10
97.52479652509797
 20
-155.0468668232175
 10
97.52479652509797
 20
-155.3428005254004
 10
97.52479652509797
 20
-155.5291801911524
 10
97.42971188970508
 20
-155.6115179732499
 10
97.33014863018136
 20
-155.6728406728874
 10
97.3914713298188
 20
-155.7004014367693
 10
97.57337237144
 20
-155.7810166711242
 10
97.57337237144
 20
-156.0580023481383
 10
97.57337237144
 20
-156.3966552343383
 10
97.32601451559906
 20
-156.563742365373
 10
97.04902883858497
 20
-156.563742365373
 97
        0
 97
        0
 75
     2
 76
     1
 98
        0
  0
ENDBLK
  5
74
330
71
100
AcDbEntity
  8
0
100
AcDbBlockEnd
  0
BLOCK
  5
A7
330
A5
100
AcDbEntity
  8
0
100
AcDbBlockBegin
  2
block 7
 70
     0
 10
0.0
 20
0.0
 30
0.0
  3
block 7
  1

  0
SPLINE
  5
A9
330
A5
100
AcDbEntity
  8
_U+30EC_U+30A4_U+30E4_U+30FC 1
370
     0
100
AcDbSpline
210
0.0
220
0.0
230
1.0
 70
    11
 71
     3
 72
    32
 73
    28
 74
     0
 42
0.0000000001
 43
0.0000000001
 12
1.0
 22
0.0
 32
0.0
 13
1.0
 23
0.0
 33
0.0
 40
0.0
 40
0.0
 40
0.0
 40
0.0
 40
1.0
 40
1.0
 40
1.0
 40
2.0
 40
2.0
 40
2.0
 40
3.0
 40
3.0
 40
3.0
 40
4.0
 40
4.0
 40
4.0
 40
5.0
 40
5.0
 40
5.0
 40
6.0
 40
6.0
 40
6.0
 40
7.0
 40
7.0
 40
7.0
 40
8.0
 40
8.0
 40
8.0
 40
9.0
 40
9.0
 40
9.0
 40
9.0
 10
122.1996039191029
 20
-149.9085069069673
 30
0.0
 10
122.1996039191029
 20
-150.4245822106577
 30
0.0
 10
121.6456325650747
 20
-150.4328504398223
 30
0.0
 10
121.4320366449892
 20
-150.4328504398223
 30
0.0
 10
121.2012152474775
 20
-150.4328504398223
 30
0.0
 10
120.553881805799
 20
-150.4139024146535
 30
0.0
 10
120.553881805799
 20
-149.870266347081
 30
0.0
 10
120.553881805799
 20
-149.696978044173
 30
0.0
 10
120.6238172441496
 20
-149.4513427360747
 30
0.0
 10
120.9559244489277
 20
-149.4134466857369
 30
0.0
 10
120.9559244489277
 20
-149.4134466857369
 30
0.0
 10
120.9559244489277
 20
-149.6270426058224
 30
0.0
 10
120.9559244489277
 20
-149.6270426058224
 30
0.0
 10
120.8987358638725
 20
-149.6377224018267
 30
0.0
 10
120.7505967580068
 20
-149.669417280291
 30
0.0
 10
120.7505967580068
 20
-149.8723334043722
 30
0.0
 10
120.7505967580068
 20
-150.1644775015214
 30
0.0
 10
121.0785698482026
 20
-150.2044406091503
 30
0.0
 10
121.2838975391235
 20
-150.2171874624457
 30
0.0
 10
121.2053493620598
 20
-150.124169884344
 30
0.0
 10
121.1460937197135
 20
-150.0563015032845
 30
0.0
 10
121.1460937197135
 20
-149.8744004616634
 30
0.0
 10
121.1460937197135
 20
-149.6945664773333
 30
0.0
 10
121.2542697179503
 20
-149.3920870937284
 30
0.0
 10
121.6601019661128
 20
-149.3920870937284
 30
0.0
 10
121.9798068271439
 20
-149.3920870937284
 30
0.0
 10
122.1996039191029
 20
-149.5912136127758
 30
0.0
 10
122.1996039191029
 20
-149.9085069069673
 30
0.0
  0
SPLINE
  5
AA
330
A5
100
AcDbEntity
  8
_U+30EC_U+30A4_U+30E4_U+30FC 1
370
     0
100
AcDbSpline
210
0.0
220
0.0
230
1.0
 70
    11
 71
     3
 72
    17
 73
    13
 74
     0
 42
0.0000000001
 43
0.0000000001
 12
1.0
 22
0.0
 32
0.0
 13
1.0
 23
0.0
 33
0.0
 40
0.0
 40
0.0
 40
0.0
 40
0.0
 40
1.0
 40
1.0
 40
1.0
 40
2.0
 40
2.0
 40
2.0
 40
3.0
 40
3.0
 40
3.0
 40
4.0
 40
4.0
 40
4.0
 40
4.0
 10
121.3410861241786
 20
-149.8912814295411
 30
0.0
 10
121.3410861241786
 20
-150.1537977055171
 30
0.0
 10
121.552614986973
 20
-150.1916937558549
 30
0.0
 10
121.6687147048259
 20
-150.1916937558549
 30
0.0
 10
121.8444145745736
 20
-150.1916937558549
 30
0.0
 10
122.0073675910259
 20
-150.096609120462
 30
0.0
 10
122.0073675910259
 20
-149.9126410215496
 30
0.0
 10
122.0073675910259
 20
-149.7920626795659
 30
0.0
 10
121.9481119486796
 20
-149.6163628098181
 30
0.0
 10
121.6621690234039
 20
-149.6163628098181
 30
0.0
 10
121.4382378168627
 20
-149.6163628098181
 30
0.0
 10
121.3410861241786
 20
-149.7562336865193
 30
0.0
 10
121.3410861241786
 20
-149.8912814295411
 30
0.0
  0
HATCH
  5
AB
330
A5
100
AcDbEntity
  8
_U+30EC_U+30A4_U+30E4_U+30FC 1
 62
   179
420
  2234388
100
AcDbHatch
 10
0.0
 20
0.0
 30
0.0
210
0.0
220
0.0
230
1.0
  2
SOLID
 70
     1
 71
     0
 91
        2
 92
        1
 93
        1
 72
     4
 94
        3
 73
     0
 74
     1
 95
       32
 96
       28
 40
0.0
 40
0.0
 40
0.0
 40
0.0
 40
1.0
 40
1.0
 40
1.0
 40
2.0
 40
2.0
 40
2.0
 40
3.0
 40
3.0
 40
3.0
 40
4.0
 40
4.0
 40
4.0
 40
5.0
 40
5.0
 40
5.0
 40
6.0
 40
6.0
 40
6.0
 40
7.0
 40
7.0
 40
7.0
 40
8.0
 40
8.0
 40
8.0
 40
9.0
 40
9.0
 40
9.0
 40
9.0
 10
122.1996039191029
 20
-149.9085069069673
 10
122.1996039191029
 20
-150.4245822106577
 10
121.6456325650747
 20
-150.4328504398223
 10
121.4320366449892
 20
-150.4328504398223
 10
121.2012152474775
 20
-150.4328504398223
 10
120.553881805799
 20
-150.4139024146535
 10
120.553881805799
 20
-149.870266347081
 10
120.553881805799
 20
-149.696978044173
 10
120.6238172441496
 20
-149.4513427360747
 10
120.9559244489277
 20
-149.4134466857369
 10
120.9559244489277
 20
-149.4134466857369
 10
120.9559244489277
 20
-149.6270426058224
 10
120.9559244489277
 20
-149.6270426058224
 10
120.8987358638725
 20
-149.6377224018267
 10
120.7505967580068
 20
-149.669417280291
 10
120.7505967580068
 20
-149.8723334043722
 10
120.7505967580068
 20
-150.1644775015214
 10
121.0785698482026
 20
-150.2044406091503
 10
121.2838975391235
 20
-150.2171874624457
 10
121.2053493620598
 20
-150.124169884344
 10
121.1460937197135
 20
-150.0563015032845
 10
121.1460937197135
 20
-149.8744004616634
 10
121.1460937197135
 20
-149.6945664773333
 10
121.2542697179503
 20
-149.3920870937284
 10
121.6601019661128
 20
-149.3920870937284
 10
121.9798068271439
 20
-149.3920870937284
 10
122.1996039191029
 20
-149.5912136127758
 10
122.1996039191029
 20
-149.9085069069673
 97
        0
 97
        0
 92
        1
 93
        1
 72
     4
 94
        3
 73
     0
 74
     1
 95
       17
 96
       13
 40
0.0
 40
0.0
 40
0.0
 40
0.0
 40
1.0
 40
1.0
 40
1.0
 40
2.0
 40
2.0
 40
2.0
 40
3.0
 40
3.0
 40
3.0
 40
4.0
 40
4.0
 40
4.0
 40
4.0
 10
121.3410861241786
 20
-149.8912814295411
 10
121.3410861241786
 20
-150.1537977055171
 10
121.552614986973
 20
-150.1916937558549
 10
121.6687147048259
 20
-150.1916937558549
 10
121.8444145745736
 20
-150.1916937558549
 10
122.0073675910259
 20
-150.096609120462
 10
122.0073675910259
 20
-149.9126410215496
 10
122.0073675910259
 20
-149.7920626795659
 10
121.9481119486796
 20
-149.6163628098181
 10
121.6621690234039
 20
-149.6163628098181
 10
121.4382378168627
 20
-149.6163628098181
 10
121.3410861241786
 20
-149.7562336865193
 10
121.3410861241786
 20
-149.8912814295411
 97
        0
 97
        0
 75
     2
 76
     1
 98
        0
  0
POLYLINE
  5
AC
330
A5
100
AcDbEntity
  8
_U+30EC_U+30A4_U+30E4_U+30FC 1
370
     0
100
AcDb2dPolyline
 66
     1
 10
0.0
 20
0.0
 30
0.0
  0
VERTEX
  5
AD
330
AC
100
AcDbEntity
  8
_U+30EC_U+30A4_U+30E4_U+30FC 1
370
     0
100
AcDbVertex
100
AcDb2dVertex
 10
122.1489610154697
 20
-149.1757350972547
 30
0.0
  0
VERTEX
  5
AE
330
AC
100
AcDbEntity
  8
_U+30EC_U+30A4_U+30E4_U+30FC 1
370
     0
100
AcDbVertex
100
AcDb2dVertex
 10
121.897124535498
 20
-149.1757350972547
 30
0.0
  0
VERTEX
  5
AF
330
AC
100
AcDbEntity
  8
_U+30EC_U+30A4_U+30E4_U+30FC 1
370
     0
100
AcDbVertex
100
AcDb2dVertex
 10
121.897124535498
 20
-148.9238986172829
 30
0.0
  0
VERTEX
  5
B0
330
AC
100
AcDbEntity
  8
_U+30EC_U+30A4_U+30E4_U+30FC 1
370
     0
100
AcDbVertex
100
AcDb2dVertex
 10
122.1489610154697
 20
-148.9238986172829
 30
0.0
  0
VERTEX
  5
B1
330
AC
100
AcDbEntity
  8
_U+30EC_U+30A4_U+30E4_U+30FC 1
370
     0
100
AcDbVertex
100
AcDb2dVertex
 10
122.1489610154697
 20
-149.1757350972547
 30
0.0
  0
SEQEND
  5
B2
330
AC
100
AcDbEntity
  8
_U+30EC_U+30A4_U+30E4_U+30FC 1
370
     0
  0
HATCH
  5
B3
330
A5
100
AcDbEntity
  8
_U+30EC_U+30A4_U+30E4_U+30FC 1
 62
   179
420
  2234388
100
AcDbHatch
 10
0.0
 20
0.0
 30
0.0
210
0.0
220
0.0
230
1.0
  2
SOLID
 70
     1
 71
     0
 91
        1
 92
        1
 93
        4
 72
     1
 10
122.1489610154697
 20
-149.1757350972547
 11
121.897124535498
 21
-149.1757350972547
 72
     1
 10
121.897124535498
 20
-149.1757350972547
 11
121.897124535498
 21
-148.9238986172829
 72
     1
 10
121.897124535498
 20
-148.9238986172829
 11
122.1489610154697
 21
-148.9238986172829
 72
     1
 10
122.1489610154697
 20
-148.9238986172829
 11
122.1489610154697
 21
-149.1757350972547
 97
        0
 75
     2
 76
     1
 98
        0
  0
SPLINE
  5
B4
330
A5
100
AcDbEntity
  8
_U+30EC_U+30A4_U+30E4_U+30FC 1
370
     0
100
AcDbSpline
210
0.0
220
0.0
230
1.0
 70
    11
 71
     3
 72
    53
 73
    49
 74
     0
 42
0.0000000001
 43
0.0000000001
 12
1.0
 22
0.0
 32
0.0
 13
1.0
 23
0.0
 33
0.0
 40
0.0
 40
0.0
 40
0.0
 40
0.0
 40
1.0
 40
1.0
 40
1.0
 40
2.0
 40
2.0
 40
2.0
 40
3.0
 40
3.0
 40
3.0
 40
4.0
 40
4.0
 40
4.0
 40
5.0
 40
5.0
 40
5.0
 40
6.0
 40
6.0
 40
6.0
 40
7.0
 40
7.0
 40
7.0
 40
8.0
 40
8.0
 40
8.0
 40
9.0
 40
9.0
 40
9.0
 40
10.0
 40
10.0
 40
10.0
 40
11.0
 40
11.0
 40
11.0
 40
12.0
 40
12.0
 40
12.0
 40
13.0
 40
13.0
 40
13.0
 40
14.0
 40
14.0
 40
14.0
 40
15.0
 40
15.0
 40
15.0
 40
16.0
 40
16.0
 40
16.0
 40
16.0
 10
122.1996039191029
 20
-148.2066297372539
 30
0.0
 10
122.1996039191029
 20
-148.2848334047691
 30
0.0
 10
122.1827229512252
 20
-148.3864637215839
 30
0.0
 10
122.1193331942966
 20
-148.4880940383988
 30
0.0
 10
122.0094346483171
 20
-148.6613823413069
 30
0.0
 10
121.8781765103291
 20
-148.6827419333154
 30
0.0
 10
121.7703450216408
 20
-148.7016899584843
 30
0.0
 10
121.7703450216408
 20
-148.7016899584843
 30
0.0
 10
121.7703450216408
 20
-148.4794812996857
 30
0.0
 10
121.7703450216408
 20
-148.4794812996857
 30
0.0
 10
121.9691270311397
 20
-148.4247042814702
 30
0.0
 10
121.9987548523128
 20
-148.2975802580645
 30
0.0
 10
121.9987548523128
 20
-148.2045626799627
 30
0.0
 10
121.9987548523128
 20
-148.0650363128102
 30
0.0
 10
121.8991915927891
 20
-147.9127630923621
 30
0.0
 10
121.6666476475347
 20
-147.9127630923621
 30
0.0
 10
121.4106770529807
 20
-147.9127630923621
 30
0.0
 10
121.3410861241786
 20
-148.0925970766921
 30
0.0
 10
121.3410861241786
 20
-148.2131754186759
 30
0.0
 10
121.3410861241786
 20
-148.2448702971402
 30
0.0
 10
121.3410861241786
 20
-148.3864637215839
 30
0.0
 10
121.469932695327
 20
-148.4753471851034
 30
0.0
 10
121.469932695327
 20
-148.4753471851034
 30
0.0
 10
121.4506401606096
 20
-148.6510470548511
 30
0.0
 10
121.4506401606096
 20
-148.6510470548511
 30
0.0
 10
121.4506401606096
 20
-148.6510470548511
 30
0.0
 10
120.6045247094322
 20
-148.5304687128674
 30
0.0
 10
120.6045247094322
 20
-148.5304687128674
 30
0.0
 10
120.6045247094322
 20
-148.5304687128674
 30
0.0
 10
120.6045247094322
 20
-147.7518771332009
 30
0.0
 10
120.6045247094322
 20
-147.7518771332009
 30
0.0
 10
120.6045247094322
 20
-147.7518771332009
 30
0.0
 10
120.7995171138974
 20
-147.7518771332009
 30
0.0
 10
120.7995171138974
 20
-147.7518771332009
 30
0.0
 10
120.7995171138974
 20
-147.7518771332009
 30
0.0
 10
120.7995171138974
 20
-148.3675156964151
 30
0.0
 10
120.7995171138974
 20
-148.3675156964151
 30
0.0
 10
120.7995171138974
 20
-148.3675156964151
 30
0.0
 10
121.222574839486
 20
-148.4329725106348
 30
0.0
 10
121.222574839486
 20
-148.4329725106348
 30
0.0
 10
121.1884683941821
 20
-148.3716498109974
 30
0.0
 10
121.1481607770046
 20
-148.2893120288999
 30
0.0
 10
121.1481607770046
 20
-148.1708007442073
 30
0.0
 10
121.1481607770046
 20
-147.9168972069444
 30
0.0
 10
121.3345404427566
 20
-147.6798746375592
 30
0.0
 10
121.6476996223659
 20
-147.6798746375592
 30
0.0
 10
121.9649929165574
 20
-147.6798746375592
 30
0.0
 10
122.1996039191029
 20
-147.904150353649
 30
0.0
 10
122.1996039191029
 20
-148.2066297372539
 30
0.0
  0
HATCH
  5
B5
330
A5
100
AcDbEntity
  8
_U+30EC_U+30A4_U+30E4_U+30FC 1
 62
   179
420
  2234388
100
AcDbHatch
 10
0.0
 20
0.0
 30
0.0
210
0.0
220
0.0
230
1.0
  2
SOLID
 70
     1
 71
     0
 91
        1
 92
        1
 93
        1
 72
     4
 94
        3
 73
     0
 74
     1
 95
       53
 96
       49
 40
0.0
 40
0.0
 40
0.0
 40
0.0
 40
1.0
 40
1.0
 40
1.0
 40
2.0
 40
2.0
 40
2.0
 40
3.0
 40
3.0
 40
3.0
 40
4.0
 40
4.0
 40
4.0
 40
5.0
 40
5.0
 40
5.0
 40
6.0
 40
6.0
 40
6.0
 40
7.0
 40
7.0
 40
7.0
 40
8.0
 40
8.0
 40
8.0
 40
9.0
 40
9.0
 40
9.0
 40
10.0
 40
10.0
 40
10.0
 40
11.0
 40
11.0
 40
11.0
 40
12.0
 40
12.0
 40
12.0
 40
13.0
 40
13.0
 40
13.0
 40
14.0
 40
14.0
 40
14.0
 40
15.0
 40
15.0
 40
15.0
 40
16.0
 40
16.0
 40
16.0
 40
16.0
 10
122.1996039191029
 20
-148.2066297372539
 10
122.1996039191029
 20
-148.2848334047691
 10
122.1827229512252
 20
-148.3864637215839
 10
122.1193331942966
 20
-148.4880940383988
 10
122.0094346483171
 20
-148.6613823413069
 10
121.8781765103291
 20
-148.6827419333154
 10
121.7703450216408
 20
-148.7016899584843
 10
121.7703450216408
 20
-148.7016899584843
 10
121.7703450216408
 20
-148.4794812996857
 10
121.7703450216408
 20
-148.4794812996857
 10
121.9691270311397
 20
-148.4247042814702
 10
121.9987548523128
 20
-148.2975802580645
 10
121.9987548523128
 20
-148.2045626799627
 10
121.9987548523128
 20
-148.0650363128102
 10
121.8991915927891
 20
-147.9127630923621
 10
121.6666476475347
 20
-147.9127630923621
 10
121.4106770529807
 20
-147.9127630923621
 10
121.3410861241786
 20
-148.0925970766921
 10
121.3410861241786
 20
-148.2131754186759
 10
121.3410861241786
 20
-148.2448702971402
 10
121.3410861241786
 20
-148.3864637215839
 10
121.469932695327
 20
-148.4753471851034
 10
121.469932695327
 20
-148.4753471851034
 10
121.4506401606096
 20
-148.6510470548511
 10
121.4506401606096
 20
-148.6510470548511
 10
121.4506401606096
 20
-148.6510470548511
 10
120.6045247094322
 20
-148.5304687128674
 10
120.6045247094322
 20
-148.5304687128674
 10
120.6045247094322
 20
-148.5304687128674
 10
120.6045247094322
 20
-147.7518771332009
 10
120.6045247094322
 20
-147.7518771332009
 10
120.6045247094322
 20
-147.7518771332009
 10
120.7995171138974
 20
-147.7518771332009
 10
120.7995171138974
 20
-147.7518771332009
 10
120.7995171138974
 20
-147.7518771332009
 10
120.7995171138974
 20
-148.3675156964151
 10
120.7995171138974
 20
-148.3675156964151
 10
120.7995171138974
 20
-148.3675156964151
 10
121.222574839486
 20
-148.4329725106348
 10
121.222574839486
 20
-148.4329725106348
 10
121.1884683941821
 20
-148.3716498109974
 10
121.1481607770046
 20
-148.2893120288999
 10
121.1481607770046
 20
-148.1708007442073
 10
121.1481607770046
 20
-147.9168972069444
 10
121.3345404427566
 20
-147.6798746375592
 10
121.6476996223659
 20
-147.6798746375592
 10
121.9649929165574
 20
-147.6798746375592
 10
122.1996039191029
 20
-147.904150353649
 10
122.1996039191029
 20
-148.2066297372539
 97
        0
 97
        0
 75
     2
 76
     1
 98
        0
  0
ENDBLK
  5
A8
330
A5
100
AcDbEntity
  8
0
100
AcDbBlockEnd
  0
BLOCK
  5
C3
330
C1
100
AcDbEntity
  8
0
100
AcDbBlockBegin
  2
block 8
 70
     0
 10
0.0
 20
0.0
 30
0.0
  3
block 8
  1

  0
SPLINE
  5
C5
330
C1
100
AcDbEntity
  8
_U+30EC_U+30A4_U+30E4_U+30FC 1
370
     0
100
AcDbSpline
210
0.0
220
0.0
230
1.0
 70
    11
 71
     3
 72
    17
 73
    13
 74
     0
 42
0.0000000001
 43
0.0000000001
 12
1.0
 22
0.0
 32
0.0
 13
1.0
 23
0.0
 33
0.0
 40
0.0
 40
0.0
 40
0.0
 40
0.0
 40
1.0
 40
1.0
 40
1.0
 40
2.0
 40
2.0
 40
2.0
 40
3.0
 40
3.0
 40
3.0
 40
4.0
 40
4.0
 40
4.0
 40
4.0
 10
108.3368841960061
 20
-147.6238918359239
 30
0.0
 10
108.2311197646089
 20
-147.5181274045267
 30
0.0
 10
108.150504530254
 20
-147.4800590994147
 30
0.0
 10
108.0574869521523
 20
-147.4483642209504
 30
0.0
 10
108.0574869521523
 20
-147.4483642209504
 30
0.0
 10
108.1677300076803
 20
-147.2833441472069
 30
0.0
 10
108.1677300076803
 20
-147.2833441472069
 30
0.0
 10
108.2648817003643
 20
-147.3257188216755
 30
0.0
 10
108.3854600423481
 20
-147.4039224891907
 30
0.0
 10
108.4385145128209
 20
-147.4588717621804
 30
0.0
 10
108.4385145128209
 20
-147.4588717621804
 30
0.0
 10
108.3368841960061
 20
-147.6238918359239
 30
0.0
 10
108.3368841960061
 20
-147.6238918359239
 30
0.0
  0
SPLINE
  5
C6
330
C1
100
AcDbEntity
  8
_U+30EC_U+30A4_U+30E4_U+30FC 1
370
     0
100
AcDbSpline
210
0.0
220
0.0
230
1.0
 70
    11
 71
     3
 72
   182
 73
   178
 74
     0
 42
0.0000000001
 43
0.0000000001
 12
1.0
 22
0.0
 32
0.0
 13
1.0
 23
0.0
 33
0.0
 40
0.0
 40
0.0
 40
0.0
 40
0.0
 40
1.0
 40
1.0
 40
1.0
 40
2.0
 40
2.0
 40
2.0
 40
3.0
 40
3.0
 40
3.0
 40
4.0
 40
4.0
 40
4.0
 40
5.0
 40
5.0
 40
5.0
 40
6.0
 40
6.0
 40
6.0
 40
7.0
 40
7.0
 40
7.0
 40
8.0
 40
8.0
 40
8.0
 40
9.0
 40
9.0
 40
9.0
 40
10.0
 40
10.0
 40
10.0
 40
11.0
 40
11.0
 40
11.0
 40
12.0
 40
12.0
 40
12.0
 40
13.0
 40
13.0
 40
13.0
 40
14.0
 40
14.0
 40
14.0
 40
15.0
 40
15.0
 40
15.0
 40
16.0
 40
16.0
 40
16.0
 40
17.0
 40
17.0
 40
17.0
 40
18.0
 40
18.0
 40
18.0
 40
19.0
 40
19.0
 40
19.0
 40
20.0
 40
20.0
 40
20.0
 40
21.0
 40
21.0
 40
21.0
 40
22.0
 40
22.0
 40
22.0
 40
23.0
 40
23.0
 40
23.0
 40
24.0
 40
24.0
 40
24.0
 40
25.0
 40
25.0
 40
25.0
 40
26.0
 40
26.0
 40
26.0
 40
27.0
 40
27.0
 40
27.0
 40
28.0
 40
28.0
 40
28.0
 40
29.0
 40
29.0
 40
29.0
 40
30.0
 40
30.0
 40
30.0
 40
31.0
 40
31.0
 40
31.0
 40
32.0
 40
32.0
 40
32.0
 40
33.0
 40
33.0
 40
33.0
 40
34.0
 40
34.0
 40
34.0
 40
35.0
 40
35.0
 40
35.0
 40
36.0
 40
36.0
 40
36.0
 40
37.0
 40
37.0
 40
37.0
 40
38.0
 40
38.0
 40
38.0
 40
39.0
 40
39.0
 40
39.0
 40
40.0
 40
40.0
 40
40.0
 40
41.0
 40
41.0
 40
41.0
 40
42.0
 40
42.0
 40
42.0
 40
43.0
 40
43.0
 40
43.0
 40
44.0
 40
44.0
 40
44.0
 40
45.0
 40
45.0
 40
45.0
 40
46.0
 40
46.0
 40
46.0
 40
47.0
 40
47.0
 40
47.0
 40
48.0
 40
48.0
 40
48.0
 40
49.0
 40
49.0
 40
49.0
 40
50.0
 40
50.0
 40
50.0
 40
51.0
 40
51.0
 40
51.0
 40
52.0
 40
52.0
 40
52.0
 40
53.0
 40
53.0
 40
53.0
 40
54.0
 40
54.0
 40
54.0
 40
55.0
 40
55.0
 40
55.0
 40
56.0
 40
56.0
 40
56.0
 40
57.0
 40
57.0
 40
57.0
 40
58.0
 40
58.0
 40
58.0
 40
59.0
 40
59.0
 40
59.0
 40
59.0
 10
109.3817816566823
 20
-148.8022867466536
 30
0.0
 10
109.3817816566823
 20
-148.8022867466536
 30
0.0
 10
108.7451280110082
 20
-148.8022867466536
 30
0.0
 10
108.7451280110082
 20
-148.8022867466536
 30
0.0
 10
108.5315320909227
 20
-148.8022867466536
 30
0.0
 10
108.3155246039975
 20
-148.8065931160102
 30
0.0
 10
108.101928683912
 20
-148.8191677145313
 30
0.0
 10
108.101928683912
 20
-148.8191677145313
 30
0.0
 10
108.101928683912
 20
-148.6119452210935
 30
0.0
 10
108.101928683912
 20
-148.6119452210935
 30
0.0
 10
108.3241373427106
 20
-148.6245198196147
 30
0.0
 10
108.6476318087756
 20
-148.6288261889713
 30
0.0
 10
108.7451280110082
 20
-148.6288261889713
 30
0.0
 10
108.7451280110082
 20
-148.6288261889713
 30
0.0
 10
108.9652696125156
 20
-148.6288261889713
 30
0.0
 10
108.9652696125156
 20
-148.6288261889713
 30
0.0
 10
108.9652696125156
 20
-148.6288261889713
 30
0.0
 10
108.9652696125156
 20
-148.4870605097532
 30
0.0
 10
108.9652696125156
 20
-148.4870605097532
 30
0.0
 10
108.9652696125156
 20
-148.4870605097532
 30
0.0
 10
108.8043836533545
 20
-148.4870605097532
 30
0.0
 10
108.8043836533545
 20
-148.4870605097532
 30
0.0
 10
108.639363579611
 20
-148.4870605097532
 30
0.0
 10
108.4743435058675
 20
-148.4913668791098
 30
0.0
 10
108.3093234321241
 20
-148.5061807896964
 30
0.0
 10
108.3093234321241
 20
-148.5061807896964
 30
0.0
 10
108.3093234321241
 20
-148.2967189841932
 30
0.0
 10
108.3093234321241
 20
-148.2967189841932
 30
0.0
 10
108.480544677741
 20
-148.3115328947798
 30
0.0
 10
108.7282470431304
 20
-148.3156670093621
 30
0.0
 10
108.8043836533545
 20
-148.3156670093621
 30
0.0
 10
108.8043836533545
 20
-148.3156670093621
 30
0.0
 10
108.9652696125156
 20
-148.3156670093621
 30
0.0
 10
108.9652696125156
 20
-148.3156670093621
 30
0.0
 10
108.9607909883848
 20
-148.2438367684946
 30
0.0
 10
108.9607909883848
 20
-148.2374633418469
 30
0.0
 10
108.9545898165114
 20
-148.1845811261483
 30
0.0
 10
108.9545898165114
 20
-148.1845811261483
 30
0.0
 10
109.094116183664
 20
-148.1993950367349
 30
0.0
 10
109.094116183664
 20
-148.1993950367349
 30
0.0
 10
109.094116183664
 20
-148.1993950367349
 30
0.0
 10
108.9948974336888
 20
-148.0280015363437
 30
0.0
 10
108.9948974336888
 20
-148.0280015363437
 30
0.0
 10
109.0414062227397
 20
-148.0343749629914
 30
0.0
 10
109.1154757756725
 20
-148.0428154469303
 30
0.0
 10
109.1323567435502
 20
-148.0428154469303
 30
0.0
 10
109.1829996471834
 20
-148.0428154469303
 30
0.0
 10
109.1998806150611
 20
-148.021628109696
 30
0.0
 10
109.1998806150611
 20
-147.9646117794151
 30
0.0
 10
109.1998806150611
 20
-147.9646117794151
 30
0.0
 10
109.1998806150611
 20
-147.8269802147794
 30
0.0
 10
109.1998806150611
 20
-147.8269802147794
 30
0.0
 10
109.1998806150611
 20
-147.8269802147794
 30
0.0
 10
109.094116183664
 20
-147.8269802147794
 30
0.0
 10
109.094116183664
 20
-147.8269802147794
 30
0.0
 10
108.9607909883848
 20
-147.8269802147794
 30
0.0
 10
108.8043836533545
 20
-147.8269802147794
 30
0.0
 10
108.6817382540796
 20
-147.8397270680748
 30
0.0
 10
108.6817382540796
 20
-147.8397270680748
 30
0.0
 10
108.6817382540796
 20
-147.6493855425148
 30
0.0
 10
108.6817382540796
 20
-147.6493855425148
 30
0.0
 10
108.8488253851142
 20
-147.6662665103925
 30
0.0
 10
109.0793022730774
 20
-147.6683335676836
 30
0.0
 10
109.094116183664
 20
-147.6683335676836
 30
0.0
 10
109.094116183664
 20
-147.6683335676836
 30
0.0
 10
109.1998806150611
 20
-147.6683335676836
 30
0.0
 10
109.1998806150611
 20
-147.6683335676836
 30
0.0
 10
109.1998806150611
 20
-147.6683335676836
 30
0.0
 10
109.1998806150611
 20
-147.5372476844699
 30
0.0
 10
109.1998806150611
 20
-147.5372476844699
 30
0.0
 10
109.1998806150611
 20
-147.5372476844699
 30
0.0
 10
109.1619845647234
 20
-147.5372476844699
 30
0.0
 10
109.1619845647234
 20
-147.5372476844699
 30
0.0
 10
109.1175428329637
 20
-147.5372476844699
 30
0.0
 10
108.9924858668491
 20
-147.5413817990522
 30
0.0
 10
108.9036024033297
 20
-147.549822282991
 30
0.0
 10
108.9036024033297
 20
-147.549822282991
 30
0.0
 10
108.9036024033297
 20
-147.4695515581847
 30
0.0
 10
108.9036024033297
 20
-147.4695515581847
 30
0.0
 10
108.8508924424053
 20
-147.5076198632967
 30
0.0
 10
108.8253987358145
 20
-147.5224337738833
 30
0.0
 10
108.7830240613459
 20
-147.5456881684087
 30
0.0
 10
108.7830240613459
 20
-147.5456881684087
 30
0.0
 10
108.5949218478513
 20
-147.4166693424861
 30
0.0
 10
108.5949218478513
 20
-147.4166693424861
 30
0.0
 10
108.6731255153665
 20
-147.3827351519564
 30
0.0
 10
108.8298773599453
 20
-147.3193453950278
 30
0.0
 10
108.9862846949757
 20
-147.1755126585186
 30
0.0
 10
109.0686224770731
 20
-147.0971367362292
 30
0.0
 10
109.1471706541368
 20
-147.0125596420663
 30
0.0
 10
109.1998806150611
 20
-146.9111015800257
 30
0.0
 10
109.1998806150611
 20
-146.9111015800257
 30
0.0
 10
109.4114094778555
 20
-146.9724242796632
 30
0.0
 10
109.4114094778555
 20
-146.9724242796632
 30
0.0
 10
109.4307020125729
 20
-146.9786254515366
 30
0.0
 10
109.4410372990286
 20
-146.9872381902497
 30
0.0
 10
109.4410372990286
 20
-146.9998127887709
 30
0.0
 10
109.4410372990286
 20
-147.0168660114229
 30
0.0
 10
109.4282904457332
 20
-147.0230671832963
 30
0.0
 10
109.4031412486909
 20
-147.0358140365917
 30
0.0
 10
109.4834119734972
 20
-147.1331379840501
 30
0.0
 10
109.6463649899495
 20
-147.2304619315084
 30
0.0
 10
109.680126925705
 20
-147.2494099566772
 30
0.0
 10
109.8303330888619
 20
-147.3382934201967
 30
0.0
 10
109.9447102589722
 20
-147.3658541840787
 30
0.0
 10
110.0229139264873
 20
-147.3848022092476
 30
0.0
 10
110.0229139264873
 20
-147.3848022092476
 30
0.0
 10
109.9044026417947
 20
-147.5541286523476
 30
0.0
 10
109.9044026417947
 20
-147.5541286523476
 30
0.0
 10
109.8196532928576
 20
-147.5245008311744
 30
0.0
 10
109.7690103892244
 20
-147.5055528060056
 30
0.0
 10
109.6504991045318
 20
-147.4399237370116
 30
0.0
 10
109.6504991045318
 20
-147.4399237370116
 30
0.0
 10
109.6504991045318
 20
-147.549822282991
 30
0.0
 10
109.6504991045318
 20
-147.549822282991
 30
0.0
 10
109.5681613224343
 20
-147.5413817990522
 30
0.0
 10
109.4410372990286
 20
-147.5372476844699
 30
0.0
 10
109.3883273381043
 20
-147.5372476844699
 30
0.0
 10
109.3883273381043
 20
-147.5372476844699
 30
0.0
 10
109.3883273381043
 20
-147.6683335676836
 30
0.0
 10
109.3883273381043
 20
-147.6683335676836
 30
0.0
 10
109.3883273381043
 20
-147.6683335676836
 30
0.0
 10
109.5089056800881
 20
-147.6683335676836
 30
0.0
 10
109.5089056800881
 20
-147.6683335676836
 30
0.0
 10
109.5109727373792
 20
-147.6683335676836
 30
0.0
 10
109.7435166826336
 20
-147.6662665103925
 30
0.0
 10
109.9212836096725
 20
-147.6493855425148
 30
0.0
 10
109.9212836096725
 20
-147.6493855425148
 30
0.0
 10
109.9212836096725
 20
-147.8397270680748
 30
0.0
 10
109.9212836096725
 20
-147.8397270680748
 30
0.0
 10
109.7924370385241
 20
-147.8269802147794
 30
0.0
 10
109.6356851939452
 20
-147.8269802147794
 30
0.0
 10
109.5089056800881
 20
-147.8269802147794
 30
0.0
 10
109.5089056800881
 20
-147.8269802147794
 30
0.0
 10
109.3883273381043
 20
-147.8269802147794
 30
0.0
 10
109.3883273381043
 20
-147.8269802147794
 30
0.0
 10
109.3883273381043
 20
-147.8269802147794
 30
0.0
 10
109.3883273381043
 20
-148.0533229881603
 30
0.0
 10
109.3883273381043
 20
-148.0533229881603
 30
0.0
 10
109.3883273381043
 20
-148.1718342728529
 30
0.0
 10
109.3628336315135
 20
-148.2078355206737
 30
0.0
 10
109.2019476723523
 20
-148.2226494312603
 30
0.0
 10
109.2064262964831
 20
-148.2415974564292
 30
0.0
 10
109.1998806150611
 20
-148.2522772524335
 30
0.0
 10
109.1619845647234
 20
-148.2755316469589
 30
0.0
 10
109.1599175074323
 20
-148.2944796721278
 30
0.0
 10
109.1599175074323
 20
-148.3008530987755
 30
0.0
 10
109.1575059405926
 20
-148.3156670093621
 30
0.0
 10
109.1575059405926
 20
-148.3156670093621
 30
0.0
 10
109.294965250454
 20
-148.3156670093621
 30
0.0
 10
109.294965250454
 20
-148.3156670093621
 30
0.0
 10
109.4599853241975
 20
-148.3156670093621
 30
0.0
 10
109.6274169647807
 20
-148.3115328947798
 30
0.0
 10
109.7945040958153
 20
-148.2967189841932
 30
0.0
 10
109.7945040958153
 20
-148.2967189841932
 30
0.0
 10
109.7945040958153
 20
-148.503941477631
 30
0.0
 10
109.7945040958153
 20
-148.503941477631
 30
0.0
 10
109.5784966088901
 20
-148.4870605097532
 30
0.0
 10
109.3142577851714
 20
-148.4870605097532
 30
0.0
 10
109.294965250454
 20
-148.4870605097532
 30
0.0
 10
109.294965250454
 20
-148.4870605097532
 30
0.0
 10
109.1554388833014
 20
-148.4870605097532
 30
0.0
 10
109.1554388833014
 20
-148.4870605097532
 30
0.0
 10
109.1554388833014
 20
-148.4870605097532
 30
0.0
 10
109.1554388833014
 20
-148.6288261889713
 30
0.0
 10
109.1554388833014
 20
-148.6288261889713
 30
0.0
 10
109.1554388833014
 20
-148.6288261889713
 30
0.0
 10
109.3817816566823
 20
-148.6288261889713
 30
0.0
 10
109.3817816566823
 20
-148.6288261889713
 30
0.0
 10
109.5977891436075
 20
-148.6288261889713
 30
0.0
 10
109.8155191782753
 20
-148.6245198196147
 30
0.0
 10
110.0311821556519
 20
-148.6119452210935
 30
0.0
 10
110.0311821556519
 20
-148.6119452210935
 30
0.0
 10
110.0311821556519
 20
-148.8191677145313
 30
0.0
 10
110.0311821556519
 20
-148.8191677145313
 30
0.0
 10
109.7500623640556
 20
-148.8022867466536
 30
0.0
 10
109.405208305982
 20
-148.8022867466536
 30
0.0
 10
109.3817816566823
 20
-148.8022867466536
 30
0.0
  0
SPLINE
  5
C7
330
C1
100
AcDbEntity
  8
_U+30EC_U+30A4_U+30E4_U+30FC 1
370
     0
100
AcDbSpline
210
0.0
220
0.0
230
1.0
 70
    11
 71
     3
 72
    23
 73
    19
 74
     0
 42
0.0000000001
 43
0.0000000001
 12
1.0
 22
0.0
 32
0.0
 13
1.0
 23
0.0
 33
0.0
 40
0.0
 40
0.0
 40
0.0
 40
0.0
 40
1.0
 40
1.0
 40
1.0
 40
2.0
 40
2.0
 40
2.0
 40
3.0
 40
3.0
 40
3.0
 40
4.0
 40
4.0
 40
4.0
 40
5.0
 40
5.0
 40
5.0
 40
6.0
 40
6.0
 40
6.0
 40
6.0
 10
108.2628146430732
 20
-148.173901330144
 30
0.0
 10
108.2628146430732
 20
-148.1950886673783
 30
0.0
 10
108.2648817003643
 20
-148.2331569724903
 30
0.0
 10
108.2393879937735
 20
-148.2331569724903
 30
0.0
 10
108.2290527073177
 20
-148.2331569724903
 30
0.0
 10
108.2204399686046
 20
-148.2267835458426
 30
0.0
 10
108.2097601726003
 20
-148.2099025779649
 30
0.0
 10
108.2097601726003
 20
-148.2099025779649
 30
0.0
 10
108.1060627984943
 20
-148.0280015363437
 30
0.0
 10
108.1060627984943
 20
-148.0280015363437
 30
0.0
 10
108.3220702854195
 20
-147.8989827104211
 30
0.0
 10
108.5187852376273
 20
-147.6218247786327
 30
0.0
 10
108.5652940266781
 20
-147.549822282991
 30
0.0
 10
108.5652940266781
 20
-147.549822282991
 30
0.0
 10
108.6372965223198
 20
-147.7296562673211
 30
0.0
 10
108.6372965223198
 20
-147.7296562673211
 30
0.0
 10
108.5039713270407
 20
-147.9263712195288
 30
0.0
 10
108.3282714572929
 20
-148.1105115732154
 30
0.0
 10
108.2628146430732
 20
-148.173901330144
 30
0.0
  0
SPLINE
  5
C8
330
C1
100
AcDbEntity
  8
_U+30EC_U+30A4_U+30E4_U+30FC 1
370
     0
100
AcDbSpline
210
0.0
220
0.0
230
1.0
 70
    11
 71
     3
 72
    17
 73
    13
 74
     0
 42
0.0000000001
 43
0.0000000001
 12
1.0
 22
0.0
 32
0.0
 13
1.0
 23
0.0
 33
0.0
 40
0.0
 40
0.0
 40
0.0
 40
0.0
 40
1.0
 40
1.0
 40
1.0
 40
2.0
 40
2.0
 40
2.0
 40
3.0
 40
3.0
 40
3.0
 40
4.0
 40
4.0
 40
4.0
 40
4.0
 10
108.5167181803361
 20
-147.2790377778504
 30
0.0
 10
108.4553954806987
 20
-147.2029011676264
 30
0.0
 10
108.3262044000018
 20
-147.1267645574023
 30
0.0
 10
108.2225070258958
 20
-147.0971367362292
 30
0.0
 10
108.2225070258958
 20
-147.0971367362292
 30
0.0
 10
108.3179361708372
 20
-146.9321166624857
 30
0.0
 10
108.3179361708372
 20
-146.9321166624857
 30
0.0
 10
108.4192219781035
 20
-146.9681179103066
 30
0.0
 10
108.5249864095007
 20
-147.0253064953617
 30
0.0
 10
108.6138698730201
 20
-147.105577220168
 30
0.0
 10
108.6138698730201
 20
-147.105577220168
 30
0.0
 10
108.5167181803361
 20
-147.2790377778504
 30
0.0
 10
108.5167181803361
 20
-147.2790377778504
 30
0.0
  0
SPLINE
  5
C9
330
C1
100
AcDbEntity
  8
_U+30EC_U+30A4_U+30E4_U+30FC 1
370
     0
100
AcDbSpline
210
0.0
220
0.0
230
1.0
 70
    11
 71
     3
 72
    23
 73
    19
 74
     0
 42
0.0000000001
 43
0.0000000001
 12
1.0
 22
0.0
 32
0.0
 13
1.0
 23
0.0
 33
0.0
 40
0.0
 40
0.0
 40
0.0
 40
0.0
 40
1.0
 40
1.0
 40
1.0
 40
2.0
 40
2.0
 40
2.0
 40
3.0
 40
3.0
 40
3.0
 40
4.0
 40
4.0
 40
4.0
 40
5.0
 40
5.0
 40
5.0
 40
6.0
 40
6.0
 40
6.0
 40
6.0
 10
108.9694037270979
 20
-147.983559804584
 30
0.0
 10
108.9480441350894
 20
-148.0068141991094
 30
0.0
 10
108.8508924424053
 20
-148.1189520571543
 30
0.0
 10
108.7113660752527
 20
-148.1993950367349
 30
0.0
 10
108.7113660752527
 20
-148.1993950367349
 30
0.0
 10
108.5442789442181
 20
-148.0788166947511
 30
0.0
 10
108.5442789442181
 20
-148.0788166947511
 30
0.0
 10
108.694485107375
 20
-148.0026800845271
 30
0.0
 10
108.7937038573502
 20
-147.90742319436
 30
0.0
 10
108.8422797036922
 20
-147.8545409786614
 30
0.0
 10
108.8422797036922
 20
-147.8545409786614
 30
0.0
 10
109.0159125161488
 20
-147.9370510155331
 30
0.0
 10
109.0159125161488
 20
-147.9370510155331
 30
0.0
 10
109.0241807453134
 20
-147.9411851301154
 30
0.0
 10
109.0327934840265
 20
-147.9475585567631
 30
0.0
 10
109.0327934840265
 20
-147.9582383527674
 30
0.0
 10
109.0327934840265
 20
-147.983559804584
 30
0.0
 10
108.9969644909799
 20
-147.983559804584
 30
0.0
 10
108.9694037270979
 20
-147.983559804584
 30
0.0
  0
SPLINE
  5
CA
330
C1
100
AcDbEntity
  8
_U+30EC_U+30A4_U+30E4_U+30FC 1
370
     0
100
AcDbSpline
210
0.0
220
0.0
230
1.0
 70
    11
 71
     3
 72
    20
 73
    16
 74
     0
 42
0.0000000001
 43
0.0000000001
 12
1.0
 22
0.0
 32
0.0
 13
1.0
 23
0.0
 33
0.0
 40
0.0
 40
0.0
 40
0.0
 40
0.0
 40
1.0
 40
1.0
 40
1.0
 40
2.0
 40
2.0
 40
2.0
 40
3.0
 40
3.0
 40
3.0
 40
4.0
 40
4.0
 40
4.0
 40
5.0
 40
5.0
 40
5.0
 40
5.0
 10
109.2677489961206
 20
-147.1415784679889
 30
0.0
 10
109.2295084362343
 20
-147.1903265691052
 30
0.0
 10
109.1681857365969
 20
-147.2685302366204
 30
0.0
 10
109.0286593694442
 20
-147.3786010373741
 30
0.0
 10
109.1089300942506
 20
-147.3827351519564
 30
0.0
 10
109.1385579154237
 20
-147.3827351519564
 30
0.0
 10
109.1619845647234
 20
-147.3827351519564
 30
0.0
 10
109.1619845647234
 20
-147.3827351519564
 30
0.0
 10
109.3903943953955
 20
-147.3827351519564
 30
0.0
 10
109.3903943953955
 20
-147.3827351519564
 30
0.0
 10
109.4220892738598
 20
-147.3827351519564
 30
0.0
 10
109.4706651202018
 20
-147.3806680946653
 30
0.0
 10
109.5447346731347
 20
-147.3786010373741
 30
0.0
 10
109.432769069864
 20
-147.3045314844412
 30
0.0
 10
109.3838487139735
 20
-147.2580226953904
 30
0.0
 10
109.2677489961206
 20
-147.1415784679889
 30
0.0
  0
SPLINE
  5
CB
330
C1
100
AcDbEntity
  8
_U+30EC_U+30A4_U+30E4_U+30FC 1
370
     0
100
AcDbSpline
210
0.0
220
0.0
230
1.0
 70
    11
 71
     3
 72
    17
 73
    13
 74
     0
 42
0.0000000001
 43
0.0000000001
 12
1.0
 22
0.0
 32
0.0
 13
1.0
 23
0.0
 33
0.0
 40
0.0
 40
0.0
 40
0.0
 40
0.0
 40
1.0
 40
1.0
 40
1.0
 40
2.0
 40
2.0
 40
2.0
 40
3.0
 40
3.0
 40
3.0
 40
4.0
 40
4.0
 40
4.0
 40
4.0
 10
109.8282660315707
 20
-148.1971557246695
 30
0.0
 10
109.6928737790004
 20
-148.0851901213989
 30
0.0
 10
109.5871093476032
 20
-148.021628109696
 30
0.0
 10
109.4685980629106
 20
-147.9582383527674
 30
0.0
 10
109.4685980629106
 20
-147.9582383527674
 30
0.0
 10
109.5953775767678
 20
-147.8461004947225
 30
0.0
 10
109.5953775767678
 20
-147.8461004947225
 30
0.0
 10
109.7266357147558
 20
-147.8926092837734
 30
0.0
 10
109.8365342607353
 20
-147.9497978688285
 30
0.0
 10
109.9615912268499
 20
-148.0512559308691
 30
0.0
 10
109.9615912268499
 20
-148.0512559308691
 30
0.0
 10
109.8282660315707
 20
-148.1971557246695
 30
0.0
 10
109.8282660315707
 20
-148.1971557246695
 30
0.0
  0
HATCH
  5
CC
330
C1
100
AcDbEntity
  8
_U+30EC_U+30A4_U+30E4_U+30FC 1
 62
   179
420
  2234388
100
AcDbHatch
 10
0.0
 20
0.0
 30
0.0
210
0.0
220
0.0
230
1.0
  2
SOLID
 70
     1
 71
     0
 91
        7
 92
        1
 93
        1
 72
     4
 94
        3
 73
     0
 74
     1
 95
       17
 96
       13
 40
0.0
 40
0.0
 40
0.0
 40
0.0
 40
1.0
 40
1.0
 40
1.0
 40
2.0
 40
2.0
 40
2.0
 40
3.0
 40
3.0
 40
3.0
 40
4.0
 40
4.0
 40
4.0
 40
4.0
 10
108.3368841960061
 20
-147.6238918359239
 10
108.2311197646089
 20
-147.5181274045267
 10
108.150504530254
 20
-147.4800590994147
 10
108.0574869521523
 20
-147.4483642209504
 10
108.0574869521523
 20
-147.4483642209504
 10
108.1677300076803
 20
-147.2833441472069
 10
108.1677300076803
 20
-147.2833441472069
 10
108.2648817003643
 20
-147.3257188216755
 10
108.3854600423481
 20
-147.4039224891907
 10
108.4385145128209
 20
-147.4588717621804
 10
108.4385145128209
 20
-147.4588717621804
 10
108.3368841960061
 20
-147.6238918359239
 10
108.3368841960061
 20
-147.6238918359239
 97
        0
 97
        0
 92
        1
 93
        1
 72
     4
 94
        3
 73
     0
 74
     1
 95
      182
 96
      178
 40
0.0
 40
0.0
 40
0.0
 40
0.0
 40
1.0
 40
1.0
 40
1.0
 40
2.0
 40
2.0
 40
2.0
 40
3.0
 40
3.0
 40
3.0
 40
4.0
 40
4.0
 40
4.0
 40
5.0
 40
5.0
 40
5.0
 40
6.0
 40
6.0
 40
6.0
 40
7.0
 40
7.0
 40
7.0
 40
8.0
 40
8.0
 40
8.0
 40
9.0
 40
9.0
 40
9.0
 40
10.0
 40
10.0
 40
10.0
 40
11.0
 40
11.0
 40
11.0
 40
12.0
 40
12.0
 40
12.0
 40
13.0
 40
13.0
 40
13.0
 40
14.0
 40
14.0
 40
14.0
 40
15.0
 40
15.0
 40
15.0
 40
16.0
 40
16.0
 40
16.0
 40
17.0
 40
17.0
 40
17.0
 40
18.0
 40
18.0
 40
18.0
 40
19.0
 40
19.0
 40
19.0
 40
20.0
 40
20.0
 40
20.0
 40
21.0
 40
21.0
 40
21.0
 40
22.0
 40
22.0
 40
22.0
 40
23.0
 40
23.0
 40
23.0
 40
24.0
 40
24.0
 40
24.0
 40
25.0
 40
25.0
 40
25.0
 40
26.0
 40
26.0
 40
26.0
 40
27.0
 40
27.0
 40
27.0
 40
28.0
 40
28.0
 40
28.0
 40
29.0
 40
29.0
 40
29.0
 40
30.0
 40
30.0
 40
30.0
 40
31.0
 40
31.0
 40
31.0
 40
32.0
 40
32.0
 40
32.0
 40
33.0
 40
33.0
 40
33.0
 40
34.0
 40
34.0
 40
34.0
 40
35.0
 40
35.0
 40
35.0
 40
36.0
 40
36.0
 40
36.0
 40
37.0
 40
37.0
 40
37.0
 40
38.0
 40
38.0
 40
38.0
 40
39.0
 40
39.0
 40
39.0
 40
40.0
 40
40.0
 40
40.0
 40
41.0
 40
41.0
 40
41.0
 40
42.0
 40
42.0
 40
42.0
 40
43.0
 40
43.0
 40
43.0
 40
44.0
 40
44.0
 40
44.0
 40
45.0
 40
45.0
 40
45.0
 40
46.0
 40
46.0
 40
46.0
 40
47.0
 40
47.0
 40
47.0
 40
48.0
 40
48.0
 40
48.0
 40
49.0
 40
49.0
 40
49.0
 40
50.0
 40
50.0
 40
50.0
 40
51.0
 40
51.0
 40
51.0
 40
52.0
 40
52.0
 40
52.0
 40
53.0
 40
53.0
 40
53.0
 40
54.0
 40
54.0
 40
54.0
 40
55.0
 40
55.0
 40
55.0
 40
56.0
 40
56.0
 40
56.0
 40
57.0
 40
57.0
 40
57.0
 40
58.0
 40
58.0
 40
58.0
 40
59.0
 40
59.0
 40
59.0
 40
59.0
 10
109.3817816566823
 20
-148.8022867466536
 10
109.3817816566823
 20
-148.8022867466536
 10
108.7451280110082
 20
-148.8022867466536
 10
108.7451280110082
 20
-148.8022867466536
 10
108.5315320909227
 20
-148.8022867466536
 10
108.3155246039975
 20
-148.8065931160102
 10
108.101928683912
 20
-148.8191677145313
 10
108.101928683912
 20
-148.8191677145313
 10
108.101928683912
 20
-148.6119452210935
 10
108.101928683912
 20
-148.6119452210935
 10
108.3241373427106
 20
-148.6245198196147
 10
108.6476318087756
 20
-148.6288261889713
 10
108.7451280110082
 20
-148.6288261889713
 10
108.7451280110082
 20
-148.6288261889713
 10
108.9652696125156
 20
-148.6288261889713
 10
108.9652696125156
 20
-148.6288261889713
 10
108.9652696125156
 20
-148.6288261889713
 10
108.9652696125156
 20
-148.4870605097532
 10
108.9652696125156
 20
-148.4870605097532
 10
108.9652696125156
 20
-148.4870605097532
 10
108.8043836533545
 20
-148.4870605097532
 10
108.8043836533545
 20
-148.4870605097532
 10
108.639363579611
 20
-148.4870605097532
 10
108.4743435058675
 20
-148.4913668791098
 10
108.3093234321241
 20
-148.5061807896964
 10
108.3093234321241
 20
-148.5061807896964
 10
108.3093234321241
 20
-148.2967189841932
 10
108.3093234321241
 20
-148.2967189841932
 10
108.480544677741
 20
-148.3115328947798
 10
108.7282470431304
 20
-148.3156670093621
 10
108.8043836533545
 20
-148.3156670093621
 10
108.8043836533545
 20
-148.3156670093621
 10
108.9652696125156
 20
-148.3156670093621
 10
108.9652696125156
 20
-148.3156670093621
 10
108.9607909883848
 20
-148.2438367684946
 10
108.9607909883848
 20
-148.2374633418469
 10
108.9545898165114
 20
-148.1845811261483
 10
108.9545898165114
 20
-148.1845811261483
 10
109.094116183664
 20
-148.1993950367349
 10
109.094116183664
 20
-148.1993950367349
 10
109.094116183664
 20
-148.1993950367349
 10
108.9948974336888
 20
-148.0280015363437
 10
108.9948974336888
 20
-148.0280015363437
 10
109.0414062227397
 20
-148.0343749629914
 10
109.1154757756725
 20
-148.0428154469303
 10
109.1323567435502
 20
-148.0428154469303
 10
109.1829996471834
 20
-148.0428154469303
 10
109.1998806150611
 20
-148.021628109696
 10
109.1998806150611
 20
-147.9646117794151
 10
109.1998806150611
 20
-147.9646117794151
 10
109.1998806150611
 20
-147.8269802147794
 10
109.1998806150611
 20
-147.8269802147794
 10
109.1998806150611
 20
-147.8269802147794
 10
109.094116183664
 20
-147.8269802147794
 10
109.094116183664
 20
-147.8269802147794
 10
108.9607909883848
 20
-147.8269802147794
 10
108.8043836533545
 20
-147.8269802147794
 10
108.6817382540796
 20
-147.8397270680748
 10
108.6817382540796
 20
-147.8397270680748
 10
108.6817382540796
 20
-147.6493855425148
 10
108.6817382540796
 20
-147.6493855425148
 10
108.8488253851142
 20
-147.6662665103925
 10
109.0793022730774
 20
-147.6683335676836
 10
109.094116183664
 20
-147.6683335676836
 10
109.094116183664
 20
-147.6683335676836
 10
109.1998806150611
 20
-147.6683335676836
 10
109.1998806150611
 20
-147.6683335676836
 10
109.1998806150611
 20
-147.6683335676836
 10
109.1998806150611
 20
-147.5372476844699
 10
109.1998806150611
 20
-147.5372476844699
 10
109.1998806150611
 20
-147.5372476844699
 10
109.1619845647234
 20
-147.5372476844699
 10
109.1619845647234
 20
-147.5372476844699
 10
109.1175428329637
 20
-147.5372476844699
 10
108.9924858668491
 20
-147.5413817990522
 10
108.9036024033297
 20
-147.549822282991
 10
108.9036024033297
 20
-147.549822282991
 10
108.9036024033297
 20
-147.4695515581847
 10
108.9036024033297
 20
-147.4695515581847
 10
108.8508924424053
 20
-147.5076198632967
 10
108.8253987358145
 20
-147.5224337738833
 10
108.7830240613459
 20
-147.5456881684087
 10
108.7830240613459
 20
-147.5456881684087
 10
108.5949218478513
 20
-147.4166693424861
 10
108.5949218478513
 20
-147.4166693424861
 10
108.6731255153665
 20
-147.3827351519564
 10
108.8298773599453
 20
-147.3193453950278
 10
108.9862846949757
 20
-147.1755126585186
 10
109.0686224770731
 20
-147.0971367362292
 10
109.1471706541368
 20
-147.0125596420663
 10
109.1998806150611
 20
-146.9111015800257
 10
109.1998806150611
 20
-146.9111015800257
 10
109.4114094778555
 20
-146.9724242796632
 10
109.4114094778555
 20
-146.9724242796632
 10
109.4307020125729
 20
-146.9786254515366
 10
109.4410372990286
 20
-146.9872381902497
 10
109.4410372990286
 20
-146.9998127887709
 10
109.4410372990286
 20
-147.0168660114229
 10
109.4282904457332
 20
-147.0230671832963
 10
109.4031412486909
 20
-147.0358140365917
 10
109.4834119734972
 20
-147.1331379840501
 10
109.6463649899495
 20
-147.2304619315084
 10
109.680126925705
 20
-147.2494099566772
 10
109.8303330888619
 20
-147.3382934201967
 10
109.9447102589722
 20
-147.3658541840787
 10
110.0229139264873
 20
-147.3848022092476
 10
110.0229139264873
 20
-147.3848022092476
 10
109.9044026417947
 20
-147.5541286523476
 10
109.9044026417947
 20
-147.5541286523476
 10
109.8196532928576
 20
-147.5245008311744
 10
109.7690103892244
 20
-147.5055528060056
 10
109.6504991045318
 20
-147.4399237370116
 10
109.6504991045318
 20
-147.4399237370116
 10
109.6504991045318
 20
-147.549822282991
 10
109.6504991045318
 20
-147.549822282991
 10
109.5681613224343
 20
-147.5413817990522
 10
109.4410372990286
 20
-147.5372476844699
 10
109.3883273381043
 20
-147.5372476844699
 10
109.3883273381043
 20
-147.5372476844699
 10
109.3883273381043
 20
-147.6683335676836
 10
109.3883273381043
 20
-147.6683335676836
 10
109.3883273381043
 20
-147.6683335676836
 10
109.5089056800881
 20
-147.6683335676836
 10
109.5089056800881
 20
-147.6683335676836
 10
109.5109727373792
 20
-147.6683335676836
 10
109.7435166826336
 20
-147.6662665103925
 10
109.9212836096725
 20
-147.6493855425148
 10
109.9212836096725
 20
-147.6493855425148
 10
109.9212836096725
 20
-147.8397270680748
 10
109.9212836096725
 20
-147.8397270680748
 10
109.7924370385241
 20
-147.8269802147794
 10
109.6356851939452
 20
-147.8269802147794
 10
109.5089056800881
 20
-147.8269802147794
 10
109.5089056800881
 20
-147.8269802147794
 10
109.3883273381043
 20
-147.8269802147794
 10
109.3883273381043
 20
-147.8269802147794
 10
109.3883273381043
 20
-147.8269802147794
 10
109.3883273381043
 20
-148.0533229881603
 10
109.3883273381043
 20
-148.0533229881603
 10
109.3883273381043
 20
-148.1718342728529
 10
109.3628336315135
 20
-148.2078355206737
 10
109.2019476723523
 20
-148.2226494312603
 10
109.2064262964831
 20
-148.2415974564292
 10
109.1998806150611
 20
-148.2522772524335
 10
109.1619845647234
 20
-148.2755316469589
 10
109.1599175074323
 20
-148.2944796721278
 10
109.1599175074323
 20
-148.3008530987755
 10
109.1575059405926
 20
-148.3156670093621
 10
109.1575059405926
 20
-148.3156670093621
 10
109.294965250454
 20
-148.3156670093621
 10
109.294965250454
 20
-148.3156670093621
 10
109.4599853241975
 20
-148.3156670093621
 10
109.6274169647807
 20
-148.3115328947798
 10
109.7945040958153
 20
-148.2967189841932
 10
109.7945040958153
 20
-148.2967189841932
 10
109.7945040958153
 20
-148.503941477631
 10
109.7945040958153
 20
-148.503941477631
 10
109.5784966088901
 20
-148.4870605097532
 10
109.3142577851714
 20
-148.4870605097532
 10
109.294965250454
 20
-148.4870605097532
 10
109.294965250454
 20
-148.4870605097532
 10
109.1554388833014
 20
-148.4870605097532
 10
109.1554388833014
 20
-148.4870605097532
 10
109.1554388833014
 20
-148.4870605097532
 10
109.1554388833014
 20
-148.6288261889713
 10
109.1554388833014
 20
-148.6288261889713
 10
109.1554388833014
 20
-148.6288261889713
 10
109.3817816566823
 20
-148.6288261889713
 10
109.3817816566823
 20
-148.6288261889713
 10
109.5977891436075
 20
-148.6288261889713
 10
109.8155191782753
 20
-148.6245198196147
 10
110.0311821556519
 20
-148.6119452210935
 10
110.0311821556519
 20
-148.6119452210935
 10
110.0311821556519
 20
-148.8191677145313
 10
110.0311821556519
 20
-148.8191677145313
 10
109.7500623640556
 20
-148.8022867466536
 10
109.405208305982
 20
-148.8022867466536
 10
109.3817816566823
 20
-148.8022867466536
 97
        0
 97
        0
 92
        1
 93
        1
 72
     4
 94
        3
 73
     0
 74
     1
 95
       23
 96
       19
 40
0.0
 40
0.0
 40
0.0
 40
0.0
 40
1.0
 40
1.0
 40
1.0
 40
2.0
 40
2.0
 40
2.0
 40
3.0
 40
3.0
 40
3.0
 40
4.0
 40
4.0
 40
4.0
 40
5.0
 40
5.0
 40
5.0
 40
6.0
 40
6.0
 40
6.0
 40
6.0
 10
108.2628146430732
 20
-148.173901330144
 10
108.2628146430732
 20
-148.1950886673783
 10
108.2648817003643
 20
-148.2331569724903
 10
108.2393879937735
 20
-148.2331569724903
 10
108.2290527073177
 20
-148.2331569724903
 10
108.2204399686046
 20
-148.2267835458426
 10
108.2097601726003
 20
-148.2099025779649
 10
108.2097601726003
 20
-148.2099025779649
 10
108.1060627984943
 20
-148.0280015363437
 10
108.1060627984943
 20
-148.0280015363437
 10
108.3220702854195
 20
-147.8989827104211
 10
108.5187852376273
 20
-147.6218247786327
 10
108.5652940266781
 20
-147.549822282991
 10
108.5652940266781
 20
-147.549822282991
 10
108.6372965223198
 20
-147.7296562673211
 10
108.6372965223198
 20
-147.7296562673211
 10
108.5039713270407
 20
-147.9263712195288
 10
108.3282714572929
 20
-148.1105115732154
 10
108.2628146430732
 20
-148.173901330144
 97
        0
 97
        0
 92
        1
 93
        1
 72
     4
 94
        3
 73
     0
 74
     1
 95
       17
 96
       13
 40
0.0
 40
0.0
 40
0.0
 40
0.0
 40
1.0
 40
1.0
 40
1.0
 40
2.0
 40
2.0
 40
2.0
 40
3.0
 40
3.0
 40
3.0
 40
4.0
 40
4.0
 40
4.0
 40
4.0
 10
108.5167181803361
 20
-147.2790377778504
 10
108.4553954806987
 20
-147.2029011676264
 10
108.3262044000018
 20
-147.1267645574023
 10
108.2225070258958
 20
-147.0971367362292
 10
108.2225070258958
 20
-147.0971367362292
 10
108.3179361708372
 20
-146.9321166624857
 10
108.3179361708372
 20
-146.9321166624857
 10
108.4192219781035
 20
-146.9681179103066
 10
108.5249864095007
 20
-147.0253064953617
 10
108.6138698730201
 20
-147.105577220168
 10
108.6138698730201
 20
-147.105577220168
 10
108.5167181803361
 20
-147.2790377778504
 10
108.5167181803361
 20
-147.2790377778504
 97
        0
 97
        0
 92
        1
 93
        1
 72
     4
 94
        3
 73
     0
 74
     1
 95
       23
 96
       19
 40
0.0
 40
0.0
 40
0.0
 40
0.0
 40
1.0
 40
1.0
 40
1.0
 40
2.0
 40
2.0
 40
2.0
 40
3.0
 40
3.0
 40
3.0
 40
4.0
 40
4.0
 40
4.0
 40
5.0
 40
5.0
 40
5.0
 40
6.0
 40
6.0
 40
6.0
 40
6.0
 10
108.9694037270979
 20
-147.983559804584
 10
108.9480441350894
 20
-148.0068141991094
 10
108.8508924424053
 20
-148.1189520571543
 10
108.7113660752527
 20
-148.1993950367349
 10
108.7113660752527
 20
-148.1993950367349
 10
108.5442789442181
 20
-148.0788166947511
 10
108.5442789442181
 20
-148.0788166947511
 10
108.694485107375
 20
-148.0026800845271
 10
108.7937038573502
 20
-147.90742319436
 10
108.8422797036922
 20
-147.8545409786614
 10
108.8422797036922
 20
-147.8545409786614
 10
109.0159125161488
 20
-147.9370510155331
 10
109.0159125161488
 20
-147.9370510155331
 10
109.0241807453134
 20
-147.9411851301154
 10
109.0327934840265
 20
-147.9475585567631
 10
109.0327934840265
 20
-147.9582383527674
 10
109.0327934840265
 20
-147.983559804584
 10
108.9969644909799
 20
-147.983559804584
 10
108.9694037270979
 20
-147.983559804584
 97
        0
 97
        0
 92
        1
 93
        1
 72
     4
 94
        3
 73
     0
 74
     1
 95
       20
 96
       16
 40
0.0
 40
0.0
 40
0.0
 40
0.0
 40
1.0
 40
1.0
 40
1.0
 40
2.0
 40
2.0
 40
2.0
 40
3.0
 40
3.0
 40
3.0
 40
4.0
 40
4.0
 40
4.0
 40
5.0
 40
5.0
 40
5.0
 40
5.0
 10
109.2677489961206
 20
-147.1415784679889
 10
109.2295084362343
 20
-147.1903265691052
 10
109.1681857365969
 20
-147.2685302366204
 10
109.0286593694442
 20
-147.3786010373741
 10
109.1089300942506
 20
-147.3827351519564
 10
109.1385579154237
 20
-147.3827351519564
 10
109.1619845647234
 20
-147.3827351519564
 10
109.1619845647234
 20
-147.3827351519564
 10
109.3903943953955
 20
-147.3827351519564
 10
109.3903943953955
 20
-147.3827351519564
 10
109.4220892738598
 20
-147.3827351519564
 10
109.4706651202018
 20
-147.3806680946653
 10
109.5447346731347
 20
-147.3786010373741
 10
109.432769069864
 20
-147.3045314844412
 10
109.3838487139735
 20
-147.2580226953904
 10
109.2677489961206
 20
-147.1415784679889
 97
        0
 97
        0
 92
        1
 93
        1
 72
     4
 94
        3
 73
     0
 74
     1
 95
       17
 96
       13
 40
0.0
 40
0.0
 40
0.0
 40
0.0
 40
1.0
 40
1.0
 40
1.0
 40
2.0
 40
2.0
 40
2.0
 40
3.0
 40
3.0
 40
3.0
 40
4.0
 40
4.0
 40
4.0
 40
4.0
 10
109.8282660315707
 20
-148.1971557246695
 10
109.6928737790004
 20
-148.0851901213989
 10
109.5871093476032
 20
-148.021628109696
 10
109.4685980629106
 20
-147.9582383527674
 10
109.4685980629106
 20
-147.9582383527674
 10
109.5953775767678
 20
-147.8461004947225
 10
109.5953775767678
 20
-147.8461004947225
 10
109.7266357147558
 20
-147.8926092837734
 10
109.8365342607353
 20
-147.9497978688285
 10
109.9615912268499
 20
-148.0512559308691
 10
109.9615912268499
 20
-148.0512559308691
 10
109.8282660315707
 20
-148.1971557246695
 10
109.8282660315707
 20
-148.1971557246695
 97
        0
 97
        0
 75
     2
 76
     1
 98
        0
  0
SPLINE
  5
CD
330
C1
100
AcDbEntity
  8
_U+30EC_U+30A4_U+30E4_U+30FC 1
370
     0
100
AcDbSpline
210
0.0
220
0.0
230
1.0
 70
    11
 71
     3
 72
   113
 73
   109
 74
     0
 42
0.0000000001
 43
0.0000000001
 12
1.0
 22
0.0
 32
0.0
 13
1.0
 23
0.0
 33
0.0
 40
0.0
 40
0.0
 40
0.0
 40
0.0
 40
1.0
 40
1.0
 40
1.0
 40
2.0
 40
2.0
 40
2.0
 40
3.0
 40
3.0
 40
3.0
 40
4.0
 40
4.0
 40
4.0
 40
5.0
 40
5.0
 40
5.0
 40
6.0
 40
6.0
 40
6.0
 40
7.0
 40
7.0
 40
7.0
 40
8.0
 40
8.0
 40
8.0
 40
9.0
 40
9.0
 40
9.0
 40
10.0
 40
10.0
 40
10.0
 40
11.0
 40
11.0
 40
11.0
 40
12.0
 40
12.0
 40
12.0
 40
13.0
 40
13.0
 40
13.0
 40
14.0
 40
14.0
 40
14.0
 40
15.0
 40
15.0
 40
15.0
 40
16.0
 40
16.0
 40
16.0
 40
17.0
 40
17.0
 40
17.0
 40
18.0
 40
18.0
 40
18.0
 40
19.0
 40
19.0
 40
19.0
 40
20.0
 40
20.0
 40
20.0
 40
21.0
 40
21.0
 40
21.0
 40
22.0
 40
22.0
 40
22.0
 40
23.0
 40
23.0
 40
23.0
 40
24.0
 40
24.0
 40
24.0
 40
25.0
 40
25.0
 40
25.0
 40
26.0
 40
26.0
 40
26.0
 40
27.0
 40
27.0
 40
27.0
 40
28.0
 40
28.0
 40
28.0
 40
29.0
 40
29.0
 40
29.0
 40
30.0
 40
30.0
 40
30.0
 40
31.0
 40
31.0
 40
31.0
 40
32.0
 40
32.0
 40
32.0
 40
33.0
 40
33.0
 40
33.0
 40
34.0
 40
34.0
 40
34.0
 40
35.0
 40
35.0
 40
35.0
 40
36.0
 40
36.0
 40
36.0
 40
36.0
 10
111.707910128323
 20
-148.173901330144
 30
0.0
 10
111.707910128323
 20
-148.173901330144
 30
0.0
 10
111.8074733878467
 20
-148.2734645896678
 30
0.0
 10
111.8074733878467
 20
-148.2734645896678
 30
0.0
 10
111.818153183851
 20
-148.2839721308978
 30
0.0
 10
111.8284884703068
 20
-148.2967189841932
 30
0.0
 10
111.8284884703068
 20
-148.3115328947798
 30
0.0
 10
111.8284884703068
 20
-148.3135999520709
 30
0.0
 10
111.8284884703068
 20
-148.3432277732441
 30
0.0
 10
111.790592419969
 20
-148.3432277732441
 30
0.0
 10
111.7819796812559
 20
-148.3432277732441
 30
0.0
 10
111.7416720640785
 20
-148.3389214038875
 30
0.0
 10
111.735470892205
 20
-148.3389214038875
 30
0.0
 10
111.6951632750276
 20
-148.3707885371261
 30
0.0
 10
111.6486544859767
 20
-148.4045504728815
 30
0.0
 10
111.5494357360015
 20
-148.4617390579367
 30
0.0
 10
111.6951632750276
 20
-148.569570546625
 30
0.0
 10
111.8539821768976
 20
-148.6267591316801
 30
0.0
 10
112.1268337393294
 20
-148.6648274367921
 30
0.0
 10
112.1268337393294
 20
-148.6648274367921
 30
0.0
 10
111.9766275761725
 20
-148.8403550517656
 30
0.0
 10
111.9766275761725
 20
-148.8403550517656
 30
0.0
 10
111.714455809745
 20
-148.7683525561239
 30
0.0
 10
111.5577039651661
 20
-148.6796413473787
 30
0.0
 10
111.4815673549421
 20
-148.6267591316801
 30
0.0
 10
111.3313611917852
 20
-148.5251288148652
 30
0.0
 10
111.1877007100503
 20
-148.3621757984129
 30
0.0
 10
111.1115640998263
 20
-148.1971557246695
 30
0.0
 10
111.0436957187669
 20
-148.2627847936635
 30
0.0
 10
110.969626165834
 20
-148.3156670093621
 30
0.0
 10
110.8914224983188
 20
-148.3644151104783
 30
0.0
 10
110.8914224983188
 20
-148.3644151104783
 30
0.0
 10
110.8914224983188
 20
-148.6160793356758
 30
0.0
 10
110.8914224983188
 20
-148.6160793356758
 30
0.0
 10
111.0543755147711
 20
-148.5907578838593
 30
0.0
 10
111.2404106709746
 20
-148.5463161520995
 30
0.0
 10
111.3038004279032
 20
-148.531502241513
 30
0.0
 10
111.3038004279032
 20
-148.531502241513
 30
0.0
 10
111.2741726067301
 20
-148.7006564298387
 30
0.0
 10
111.2741726067301
 20
-148.7006564298387
 30
0.0
 10
111.2721055494389
 20
-148.7006564298387
 30
0.0
 10
111.2531575242701
 20
-148.7070298564865
 30
0.0
 10
111.2510904669789
 20
-148.7070298564865
 30
0.0
 10
111.05230845748
 20
-148.7450981615985
 30
0.0
 10
110.7350151632885
 20
-148.8107272305925
 30
0.0
 10
110.5379557015322
 20
-148.8467284784133
 30
0.0
 10
110.5276204150764
 20
-148.863609446291
 30
0.0
 10
110.5041937657767
 20
-148.8953043247554
 30
0.0
 10
110.4811116260256
 20
-148.8953043247554
 30
0.0
 10
110.4535508621436
 20
-148.8953043247554
 30
0.0
 10
110.4494167475613
 20
-148.8763562995865
 30
0.0
 10
110.4470051807216
 20
-148.8572360196433
 30
0.0
 10
110.4470051807216
 20
-148.8572360196433
 30
0.0
 10
110.4218559836793
 20
-148.683775461961
 30
0.0
 10
110.4218559836793
 20
-148.683775461961
 30
0.0
 10
110.4959255366121
 20
-148.6753349780221
 30
0.0
 10
110.6037570253005
 20
-148.6625881247267
 30
0.0
 10
110.7115885139888
 20
-148.6415730422667
 30
0.0
 10
110.7115885139888
 20
-148.6415730422667
 30
0.0
 10
110.7115885139888
 20
-148.4638061152278
 30
0.0
 10
110.7115885139888
 20
-148.4638061152278
 30
0.0
 10
110.5675835227053
 20
-148.5358086108695
 30
0.0
 10
110.4724988873124
 20
-148.5652641772684
 30
0.0
 10
110.307478813569
 20
-148.5948919984416
 30
0.0
 10
110.307478813569
 20
-148.5948919984416
 30
0.0
 10
110.1869004715852
 20
-148.4257378101158
 30
0.0
 10
110.1869004715852
 20
-148.4257378101158
 30
0.0
 10
110.5041937657767
 20
-148.3981770462338
 30
0.0
 10
110.6967746034022
 20
-148.305159468132
 30
0.0
 10
110.8745415304411
 20
-148.1718342728529
 30
0.0
 10
110.7284694818665
 20
-148.1718342728529
 30
0.0
 10
110.4280571555527
 20
-148.1761406422094
 30
0.0
 10
110.231342203345
 20
-148.1825140688572
 30
0.0
 10
110.231342203345
 20
-148.1825140688572
 30
0.0
 10
110.231342203345
 20
-148.0047471418183
 30
0.0
 10
110.231342203345
 20
-148.0047471418183
 30
0.0
 10
110.3856824810841
 20
-148.011120568466
 30
0.0
 10
110.6819606928156
 20
-148.0174939951137
 30
0.0
 10
110.865928791728
 20
-148.0174939951137
 30
0.0
 10
110.865928791728
 20
-148.0174939951137
 30
0.0
 10
111.0774576545223
 20
-148.0174939951137
 30
0.0
 10
111.0774576545223
 20
-148.0174939951137
 30
0.0
 10
111.0774576545223
 20
-147.9222371049465
 30
0.0
 10
111.0753905972312
 20
-147.8714219465391
 30
0.0
 10
111.0691894253577
 20
-147.8249131574882
 30
0.0
 10
111.0691894253577
 20
-147.8249131574882
 30
0.0
 10
111.2848524027343
 20
-147.8417941253659
 30
0.0
 10
111.2848524027343
 20
-147.8417941253659
 30
0.0
 10
111.3334282490764
 20
-147.8461004947225
 30
0.0
 10
111.3420409877895
 20
-147.8609144053091
 30
0.0
 10
111.3420409877895
 20
-147.8757283158957
 30
0.0
 10
111.3420409877895
 20
-147.9010497677122
 30
0.0
 10
111.3251600199118
 20
-147.9094902516511
 30
0.0
 10
111.2741726067301
 20
-147.934983958242
 30
0.0
 10
111.2721055494389
 20
-147.9603054100585
 30
0.0
 10
111.2721055494389
 20
-147.9666788367063
 30
0.0
 10
111.2700384921478
 20
-148.0174939951137
 30
0.0
 10
111.2700384921478
 20
-148.0174939951137
 30
0.0
 10
111.500515380111
 20
-148.0174939951137
 30
0.0
 10
111.500515380111
 20
-148.0174939951137
 30
0.0
 10
111.6655354538545
 20
-148.0174939951137
 30
0.0
 10
111.9576795510036
 20
-148.011120568466
 30
0.0
 10
112.1375135353337
 20
-148.0047471418183
 30
0.0
 10
112.1375135353337
 20
-148.0047471418183
 30
0.0
 10
112.1375135353337
 20
-148.1825140688572
 30
0.0
 10
112.1375135353337
 20
-148.1825140688572
 30
0.0
 10
112.0083224546368
 20
-148.1782076995006
 30
0.0
 10
111.9852403148856
 20
-148.1782076995006
 30
0.0
 10
111.707910128323
 20
-148.173901330144
 30
0.0
  0
SPLINE
  5
CE
330
C1
100
AcDbEntity
  8
_U+30EC_U+30A4_U+30E4_U+30FC 1
370
     0
100
AcDbSpline
210
0.0
220
0.0
230
1.0
 70
    11
 71
     3
 72
    23
 73
    19
 74
     0
 42
0.0000000001
 43
0.0000000001
 12
1.0
 22
0.0
 32
0.0
 13
1.0
 23
0.0
 33
0.0
 40
0.0
 40
0.0
 40
0.0
 40
0.0
 40
1.0
 40
1.0
 40
1.0
 40
2.0
 40
2.0
 40
2.0
 40
3.0
 40
3.0
 40
3.0
 40
4.0
 40
4.0
 40
4.0
 40
5.0
 40
5.0
 40
5.0
 40
6.0
 40
6.0
 40
6.0
 40
6.0
 10
110.4239230409704
 20
-147.8228461001971
 30
0.0
 10
110.4070420730927
 20
-147.8629814626002
 30
0.0
 10
110.4004963916707
 20
-147.879862430478
 30
0.0
 10
110.3794813092107
 20
-147.879862430478
 30
0.0
 10
110.3646673986241
 20
-147.879862430478
 30
0.0
 10
110.3539876026198
 20
-147.8629814626002
 30
0.0
 10
110.3477864307464
 20
-147.8502346093048
 30
0.0
 10
110.3477864307464
 20
-147.8502346093048
 30
0.0
 10
110.2482231712227
 20
-147.6852145355613
 30
0.0
 10
110.2482231712227
 20
-147.6852145355613
 30
0.0
 10
110.3498534880375
 20
-147.653519657097
 30
0.0
 10
110.5000596511944
 20
-147.5985703841073
 30
0.0
 10
110.6988416606933
 20
-147.435617367655
 30
0.0
 10
110.6988416606933
 20
-147.435617367655
 30
0.0
 10
110.7560302457485
 20
-147.6090779253373
 30
0.0
 10
110.7560302457485
 20
-147.6090779253373
 30
0.0
 10
110.6630126676468
 20
-147.691587962209
 30
0.0
 10
110.5741292041273
 20
-147.7487765472642
 30
0.0
 10
110.4239230409704
 20
-147.8228461001971
 30
0.0
  0
SPLINE
  5
CF
330
C1
100
AcDbEntity
  8
_U+30EC_U+30A4_U+30E4_U+30FC 1
370
     0
100
AcDbSpline
210
0.0
220
0.0
230
1.0
 70
    11
 71
     3
 72
    17
 73
    13
 74
     0
 42
0.0000000001
 43
0.0000000001
 12
1.0
 22
0.0
 32
0.0
 13
1.0
 23
0.0
 33
0.0
 40
0.0
 40
0.0
 40
0.0
 40
0.0
 40
1.0
 40
1.0
 40
1.0
 40
2.0
 40
2.0
 40
2.0
 40
3.0
 40
3.0
 40
3.0
 40
4.0
 40
4.0
 40
4.0
 40
4.0
 10
110.5761962614185
 20
-147.3574137001398
 30
0.0
 10
110.5465684402453
 20
-147.3172783377367
 30
0.0
 10
110.4787000591859
 20
-147.2199543902784
 30
0.0
 10
110.2967990175647
 20
-147.1098835895246
 30
0.0
 10
110.2967990175647
 20
-147.1098835895246
 30
0.0
 10
110.4239230409704
 20
-146.9765583942454
 30
0.0
 10
110.4239230409704
 20
-146.9765583942454
 30
0.0
 10
110.6099581971739
 20
-147.0781887110603
 30
0.0
 10
110.6671467822291
 20
-147.1670721745798
 30
0.0
 10
110.694707546111
 20
-147.2092745942741
 30
0.0
 10
110.694707546111
 20
-147.2092745942741
 30
0.0
 10
110.5761962614185
 20
-147.3574137001398
 30
0.0
 10
110.5761962614185
 20
-147.3574137001398
 30
0.0
  0
SPLINE
  5
D0
330
C1
100
AcDbEntity
  8
_U+30EC_U+30A4_U+30E4_U+30FC 1
370
     0
100
AcDbSpline
210
0.0
220
0.0
230
1.0
 70
    11
 71
     3
 72
    38
 73
    34
 74
     0
 42
0.0000000001
 43
0.0000000001
 12
1.0
 22
0.0
 32
0.0
 13
1.0
 23
0.0
 33
0.0
 40
0.0
 40
0.0
 40
0.0
 40
0.0
 40
1.0
 40
1.0
 40
1.0
 40
2.0
 40
2.0
 40
2.0
 40
3.0
 40
3.0
 40
3.0
 40
4.0
 40
4.0
 40
4.0
 40
5.0
 40
5.0
 40
5.0
 40
6.0
 40
6.0
 40
6.0
 40
7.0
 40
7.0
 40
7.0
 40
8.0
 40
8.0
 40
8.0
 40
9.0
 40
9.0
 40
9.0
 40
10.0
 40
10.0
 40
10.0
 40
11.0
 40
11.0
 40
11.0
 40
11.0
 10
110.9441324592431
 20
-147.0526950044695
 30
0.0
 10
110.942065401952
 20
-147.0993760482946
 30
0.0
 10
110.9399983446608
 20
-147.2156480209218
 30
0.0
 10
110.9399983446608
 20
-147.2600897526815
 30
0.0
 10
110.9399983446608
 20
-147.2600897526815
 30
0.0
 10
110.9399983446608
 20
-147.6070108680462
 30
0.0
 10
110.9399983446608
 20
-147.6070108680462
 30
0.0
 10
110.9399983446608
 20
-147.6938272742745
 30
0.0
 10
110.942065401952
 20
-147.8354206987182
 30
0.0
 10
110.9527451979563
 20
-147.955999040702
 30
0.0
 10
110.9527451979563
 20
-147.955999040702
 30
0.0
 10
110.7622314176219
 20
-147.955999040702
 30
0.0
 10
110.7622314176219
 20
-147.955999040702
 30
0.0
 10
110.7667100417528
 20
-147.8926092837734
 30
0.0
 10
110.7708441563351
 20
-147.8397270680748
 30
0.0
 10
110.7729112136262
 20
-147.7847777950851
 30
0.0
 10
110.7749782709174
 20
-147.6619601410359
 30
0.0
 10
110.7770453282085
 20
-147.6471462304493
 30
0.0
 10
110.7770453282085
 20
-147.6027044986896
 30
0.0
 10
110.7770453282085
 20
-147.6027044986896
 30
0.0
 10
110.7770453282085
 20
-147.2812770899158
 30
0.0
 10
110.7770453282085
 20
-147.2812770899158
 30
0.0
 10
110.7770453282085
 20
-147.2261555621518
 30
0.0
 10
110.7642984749131
 20
-146.9872381902497
 30
0.0
 10
110.7622314176219
 20
-146.9364230318423
 30
0.0
 10
110.7622314176219
 20
-146.9364230318423
 30
0.0
 10
110.9634249939605
 20
-146.9639837957243
 30
0.0
 10
110.9634249939605
 20
-146.9639837957243
 30
0.0
 10
110.9844400764206
 20
-146.9660508530154
 30
0.0
 10
111.0161349548849
 20
-146.9701849675977
 30
0.0
 10
111.0161349548849
 20
-146.9956786741886
 30
0.0
 10
111.0161349548849
 20
-147.0230671832963
 30
0.0
 10
110.9654920512517
 20
-147.0442545205306
 30
0.0
 10
110.9441324592431
 20
-147.0526950044695
 30
0.0
  0
SPLINE
  5
D1
330
C1
100
AcDbEntity
  8
_U+30EC_U+30A4_U+30E4_U+30FC 1
370
     0
100
AcDbSpline
210
0.0
220
0.0
230
1.0
 70
    11
 71
     3
 72
    83
 73
    79
 74
     0
 42
0.0000000001
 43
0.0000000001
 12
1.0
 22
0.0
 32
0.0
 13
1.0
 23
0.0
 33
0.0
 40
0.0
 40
0.0
 40
0.0
 40
0.0
 40
1.0
 40
1.0
 40
1.0
 40
2.0
 40
2.0
 40
2.0
 40
3.0
 40
3.0
 40
3.0
 40
4.0
 40
4.0
 40
4.0
 40
5.0
 40
5.0
 40
5.0
 40
6.0
 40
6.0
 40
6.0
 40
7.0
 40
7.0
 40
7.0
 40
8.0
 40
8.0
 40
8.0
 40
9.0
 40
9.0
 40
9.0
 40
10.0
 40
10.0
 40
10.0
 40
11.0
 40
11.0
 40
11.0
 40
12.0
 40
12.0
 40
12.0
 40
13.0
 40
13.0
 40
13.0
 40
14.0
 40
14.0
 40
14.0
 40
15.0
 40
15.0
 40
15.0
 40
16.0
 40
16.0
 40
16.0
 40
17.0
 40
17.0
 40
17.0
 40
18.0
 40
18.0
 40
18.0
 40
19.0
 40
19.0
 40
19.0
 40
20.0
 40
20.0
 40
20.0
 40
21.0
 40
21.0
 40
21.0
 40
22.0
 40
22.0
 40
22.0
 40
23.0
 40
23.0
 40
23.0
 40
24.0
 40
24.0
 40
24.0
 40
25.0
 40
25.0
 40
25.0
 40
26.0
 40
26.0
 40
26.0
 40
26.0
 10
111.7461506882093
 20
-147.3742946680175
 30
0.0
 10
111.7461506882093
 20
-147.3742946680175
 30
0.0
 10
111.6486544859767
 20
-147.3742946680175
 30
0.0
 10
111.6486544859767
 20
-147.3742946680175
 30
0.0
 10
111.6486544859767
 20
-147.3742946680175
 30
0.0
 10
111.6486544859767
 20
-147.6218247786327
 30
0.0
 10
111.6486544859767
 20
-147.6218247786327
 30
0.0
 10
111.6486544859767
 20
-147.6218247786327
 30
0.0
 10
111.7313367776227
 20
-147.6218247786327
 30
0.0
 10
111.7313367776227
 20
-147.6218247786327
 30
0.0
 10
111.7967935918425
 20
-147.6218247786327
 30
0.0
 10
111.9363199589951
 20
-147.6175184092762
 30
0.0
 10
112.0358832185188
 20
-147.6090779253373
 30
0.0
 10
112.0358832185188
 20
-147.6090779253373
 30
0.0
 10
112.0358832185188
 20
-147.7889119096673
 30
0.0
 10
112.0358832185188
 20
-147.7889119096673
 30
0.0
 10
111.9428656404171
 20
-147.7804714257285
 30
0.0
 10
111.7926594772602
 20
-147.7763373111462
 30
0.0
 10
111.7313367776227
 20
-147.7763373111462
 30
0.0
 10
111.7313367776227
 20
-147.7763373111462
 30
0.0
 10
111.4264458271781
 20
-147.7763373111462
 30
0.0
 10
111.4264458271781
 20
-147.7763373111462
 30
0.0
 10
111.3737358662538
 20
-147.7763373111462
 30
0.0
 10
111.2276638176792
 20
-147.7804714257285
 30
0.0
 10
111.121899386282
 20
-147.7889119096673
 30
0.0
 10
111.121899386282
 20
-147.7889119096673
 30
0.0
 10
111.121899386282
 20
-147.6090779253373
 30
0.0
 10
111.121899386282
 20
-147.6090779253373
 30
0.0
 10
111.2214626458057
 20
-147.6175184092762
 30
0.0
 10
111.3609890129584
 20
-147.6218247786327
 30
0.0
 10
111.4264458271781
 20
-147.6218247786327
 30
0.0
 10
111.4264458271781
 20
-147.6218247786327
 30
0.0
 10
111.4708875589378
 20
-147.6218247786327
 30
0.0
 10
111.4708875589378
 20
-147.6218247786327
 30
0.0
 10
111.4708875589378
 20
-147.6218247786327
 30
0.0
 10
111.4708875589378
 20
-147.3742946680175
 30
0.0
 10
111.4708875589378
 20
-147.3742946680175
 30
0.0
 10
111.4708875589378
 20
-147.3742946680175
 30
0.0
 10
111.3971625155535
 20
-147.3742946680175
 30
0.0
 10
111.3971625155535
 20
-147.3742946680175
 30
0.0
 10
111.3354953063675
 20
-147.3742946680175
 30
0.0
 10
111.1684081753329
 20
-147.3786010373741
 30
0.0
 10
111.0478298333492
 20
-147.387041521313
 30
0.0
 10
111.0478298333492
 20
-147.387041521313
 30
0.0
 10
111.0478298333492
 20
-147.2092745942741
 30
0.0
 10
111.0478298333492
 20
-147.2092745942741
 30
0.0
 10
111.1622070034595
 20
-147.2156480209218
 30
0.0
 10
111.320681395781
 20
-147.2199543902784
 30
0.0
 10
111.3971625155535
 20
-147.2199543902784
 30
0.0
 10
111.3971625155535
 20
-147.2199543902784
 30
0.0
 10
111.4688205016467
 20
-147.2199543902784
 30
0.0
 10
111.4688205016467
 20
-147.2199543902784
 30
0.0
 10
111.4646863870644
 20
-147.067508915056
 30
0.0
 10
111.4626193297732
 20
-147.0337469793006
 30
0.0
 10
111.4560736483513
 20
-146.9405571464246
 30
0.0
 10
111.4560736483513
 20
-146.9405571464246
 30
0.0
 10
111.6679470206941
 20
-146.9639837957243
 30
0.0
 10
111.6679470206941
 20
-146.9639837957243
 30
0.0
 10
111.6930962177365
 20
-146.9660508530154
 30
0.0
 10
111.7165228670361
 20
-146.9701849675977
 30
0.0
 10
111.7165228670361
 20
-146.9934393621232
 30
0.0
 10
111.7165228670361
 20
-147.0253064953617
 30
0.0
 10
111.6720811352764
 20
-147.0421874632395
 30
0.0
 10
111.6486544859767
 20
-147.0506279471783
 30
0.0
 10
111.6486544859767
 20
-147.0506279471783
 30
0.0
 10
111.6486544859767
 20
-147.2199543902784
 30
0.0
 10
111.6486544859767
 20
-147.2199543902784
 30
0.0
 10
111.6486544859767
 20
-147.2199543902784
 30
0.0
 10
111.7461506882093
 20
-147.2199543902784
 30
0.0
 10
111.7461506882093
 20
-147.2199543902784
 30
0.0
 10
111.8222872984333
 20
-147.2199543902784
 30
0.0
 10
111.9807616907548
 20
-147.2156480209218
 30
0.0
 10
112.0972059181563
 20
-147.2092745942741
 30
0.0
 10
112.0972059181563
 20
-147.2092745942741
 30
0.0
 10
112.0972059181563
 20
-147.387041521313
 30
0.0
 10
112.0972059181563
 20
-147.387041521313
 30
0.0
 10
111.9893744294679
 20
-147.3806680946653
 30
0.0
 10
111.8157416170113
 20
-147.3742946680175
 30
0.0
 10
111.7461506882093
 20
-147.3742946680175
 30
0.0
  0
SPLINE
  5
D2
330
C1
100
AcDbEntity
  8
_U+30EC_U+30A4_U+30E4_U+30FC 1
370
     0
100
AcDbSpline
210
0.0
220
0.0
230
1.0
 70
    11
 71
     3
 72
    17
 73
    13
 74
     0
 42
0.0000000001
 43
0.0000000001
 12
1.0
 22
0.0
 32
0.0
 13
1.0
 23
0.0
 33
0.0
 40
0.0
 40
0.0
 40
0.0
 40
0.0
 40
1.0
 40
1.0
 40
1.0
 40
2.0
 40
2.0
 40
2.0
 40
3.0
 40
3.0
 40
3.0
 40
4.0
 40
4.0
 40
4.0
 40
4.0
 10
111.500515380111
 20
-148.1718342728529
 30
0.0
 10
111.500515380111
 20
-148.1718342728529
 30
0.0
 10
111.2975992560298
 20
-148.1718342728529
 30
0.0
 10
111.2975992560298
 20
-148.1718342728529
 30
0.0
 10
111.3251600199118
 20
-148.2310899151992
 30
0.0
 10
111.3799370381272
 20
-148.3030924108409
 30
0.0
 10
111.4074978020092
 20
-148.3325479772398
 30
0.0
 10
111.4350585658912
 20
-148.3179063214275
 30
0.0
 10
111.5494357360015
 20
-148.2543443097246
 30
0.0
 10
111.6403862568121
 20
-148.1718342728529
 30
0.0
 10
111.6403862568121
 20
-148.1718342728529
 30
0.0
 10
111.500515380111
 20
-148.1718342728529
 30
0.0
 10
111.500515380111
 20
-148.1718342728529
 30
0.0
  0
HATCH
  5
D3
330
C1
100
AcDbEntity
  8
_U+30EC_U+30A4_U+30E4_U+30FC 1
 62
   179
420
  2234388
100
AcDbHatch
 10
0.0
 20
0.0
 30
0.0
210
0.0
220
0.0
230
1.0
  2
SOLID
 70
     1
 71
     0
 91
        6
 92
        1
 93
        1
 72
     4
 94
        3
 73
     0
 74
     1
 95
      113
 96
      109
 40
0.0
 40
0.0
 40
0.0
 40
0.0
 40
1.0
 40
1.0
 40
1.0
 40
2.0
 40
2.0
 40
2.0
 40
3.0
 40
3.0
 40
3.0
 40
4.0
 40
4.0
 40
4.0
 40
5.0
 40
5.0
 40
5.0
 40
6.0
 40
6.0
 40
6.0
 40
7.0
 40
7.0
 40
7.0
 40
8.0
 40
8.0
 40
8.0
 40
9.0
 40
9.0
 40
9.0
 40
10.0
 40
10.0
 40
10.0
 40
11.0
 40
11.0
 40
11.0
 40
12.0
 40
12.0
 40
12.0
 40
13.0
 40
13.0
 40
13.0
 40
14.0
 40
14.0
 40
14.0
 40
15.0
 40
15.0
 40
15.0
 40
16.0
 40
16.0
 40
16.0
 40
17.0
 40
17.0
 40
17.0
 40
18.0
 40
18.0
 40
18.0
 40
19.0
 40
19.0
 40
19.0
 40
20.0
 40
20.0
 40
20.0
 40
21.0
 40
21.0
 40
21.0
 40
22.0
 40
22.0
 40
22.0
 40
23.0
 40
23.0
 40
23.0
 40
24.0
 40
24.0
 40
24.0
 40
25.0
 40
25.0
 40
25.0
 40
26.0
 40
26.0
 40
26.0
 40
27.0
 40
27.0
 40
27.0
 40
28.0
 40
28.0
 40
28.0
 40
29.0
 40
29.0
 40
29.0
 40
30.0
 40
30.0
 40
30.0
 40
31.0
 40
31.0
 40
31.0
 40
32.0
 40
32.0
 40
32.0
 40
33.0
 40
33.0
 40
33.0
 40
34.0
 40
34.0
 40
34.0
 40
35.0
 40
35.0
 40
35.0
 40
36.0
 40
36.0
 40
36.0
 40
36.0
 10
111.707910128323
 20
-148.173901330144
 10
111.707910128323
 20
-148.173901330144
 10
111.8074733878467
 20
-148.2734645896678
 10
111.8074733878467
 20
-148.2734645896678
 10
111.818153183851
 20
-148.2839721308978
 10
111.8284884703068
 20
-148.2967189841932
 10
111.8284884703068
 20
-148.3115328947798
 10
111.8284884703068
 20
-148.3135999520709
 10
111.8284884703068
 20
-148.3432277732441
 10
111.790592419969
 20
-148.3432277732441
 10
111.7819796812559
 20
-148.3432277732441
 10
111.7416720640785
 20
-148.3389214038875
 10
111.735470892205
 20
-148.3389214038875
 10
111.6951632750276
 20
-148.3707885371261
 10
111.6486544859767
 20
-148.4045504728815
 10
111.5494357360015
 20
-148.4617390579367
 10
111.6951632750276
 20
-148.569570546625
 10
111.8539821768976
 20
-148.6267591316801
 10
112.1268337393294
 20
-148.6648274367921
 10
112.1268337393294
 20
-148.6648274367921
 10
111.9766275761725
 20
-148.8403550517656
 10
111.9766275761725
 20
-148.8403550517656
 10
111.714455809745
 20
-148.7683525561239
 10
111.5577039651661
 20
-148.6796413473787
 10
111.4815673549421
 20
-148.6267591316801
 10
111.3313611917852
 20
-148.5251288148652
 10
111.1877007100503
 20
-148.3621757984129
 10
111.1115640998263
 20
-148.1971557246695
 10
111.0436957187669
 20
-148.2627847936635
 10
110.969626165834
 20
-148.3156670093621
 10
110.8914224983188
 20
-148.3644151104783
 10
110.8914224983188
 20
-148.3644151104783
 10
110.8914224983188
 20
-148.6160793356758
 10
110.8914224983188
 20
-148.6160793356758
 10
111.0543755147711
 20
-148.5907578838593
 10
111.2404106709746
 20
-148.5463161520995
 10
111.3038004279032
 20
-148.531502241513
 10
111.3038004279032
 20
-148.531502241513
 10
111.2741726067301
 20
-148.7006564298387
 10
111.2741726067301
 20
-148.7006564298387
 10
111.2721055494389
 20
-148.7006564298387
 10
111.2531575242701
 20
-148.7070298564865
 10
111.2510904669789
 20
-148.7070298564865
 10
111.05230845748
 20
-148.7450981615985
 10
110.7350151632885
 20
-148.8107272305925
 10
110.5379557015322
 20
-148.8467284784133
 10
110.5276204150764
 20
-148.863609446291
 10
110.5041937657767
 20
-148.8953043247554
 10
110.4811116260256
 20
-148.8953043247554
 10
110.4535508621436
 20
-148.8953043247554
 10
110.4494167475613
 20
-148.8763562995865
 10
110.4470051807216
 20
-148.8572360196433
 10
110.4470051807216
 20
-148.8572360196433
 10
110.4218559836793
 20
-148.683775461961
 10
110.4218559836793
 20
-148.683775461961
 10
110.4959255366121
 20
-148.6753349780221
 10
110.6037570253005
 20
-148.6625881247267
 10
110.7115885139888
 20
-148.6415730422667
 10
110.7115885139888
 20
-148.6415730422667
 10
110.7115885139888
 20
-148.4638061152278
 10
110.7115885139888
 20
-148.4638061152278
 10
110.5675835227053
 20
-148.5358086108695
 10
110.4724988873124
 20
-148.5652641772684
 10
110.307478813569
 20
-148.5948919984416
 10
110.307478813569
 20
-148.5948919984416
 10
110.1869004715852
 20
-148.4257378101158
 10
110.1869004715852
 20
-148.4257378101158
 10
110.5041937657767
 20
-148.3981770462338
 10
110.6967746034022
 20
-148.305159468132
 10
110.8745415304411
 20
-148.1718342728529
 10
110.7284694818665
 20
-148.1718342728529
 10
110.4280571555527
 20
-148.1761406422094
 10
110.231342203345
 20
-148.1825140688572
 10
110.231342203345
 20
-148.1825140688572
 10
110.231342203345
 20
-148.0047471418183
 10
110.231342203345
 20
-148.0047471418183
 10
110.3856824810841
 20
-148.011120568466
 10
110.6819606928156
 20
-148.0174939951137
 10
110.865928791728
 20
-148.0174939951137
 10
110.865928791728
 20
-148.0174939951137
 10
111.0774576545223
 20
-148.0174939951137
 10
111.0774576545223
 20
-148.0174939951137
 10
111.0774576545223
 20
-147.9222371049465
 10
111.0753905972312
 20
-147.8714219465391
 10
111.0691894253577
 20
-147.8249131574882
 10
111.0691894253577
 20
-147.8249131574882
 10
111.2848524027343
 20
-147.8417941253659
 10
111.2848524027343
 20
-147.8417941253659
 10
111.3334282490764
 20
-147.8461004947225
 10
111.3420409877895
 20
-147.8609144053091
 10
111.3420409877895
 20
-147.8757283158957
 10
111.3420409877895
 20
-147.9010497677122
 10
111.3251600199118
 20
-147.9094902516511
 10
111.2741726067301
 20
-147.934983958242
 10
111.2721055494389
 20
-147.9603054100585
 10
111.2721055494389
 20
-147.9666788367063
 10
111.2700384921478
 20
-148.0174939951137
 10
111.2700384921478
 20
-148.0174939951137
 10
111.500515380111
 20
-148.0174939951137
 10
111.500515380111
 20
-148.0174939951137
 10
111.6655354538545
 20
-148.0174939951137
 10
111.9576795510036
 20
-148.011120568466
 10
112.1375135353337
 20
-148.0047471418183
 10
112.1375135353337
 20
-148.0047471418183
 10
112.1375135353337
 20
-148.1825140688572
 10
112.1375135353337
 20
-148.1825140688572
 10
112.0083224546368
 20
-148.1782076995006
 10
111.9852403148856
 20
-148.1782076995006
 10
111.707910128323
 20
-148.173901330144
 97
        0
 97
        0
 92
        1
 93
        1
 72
     4
 94
        3
 73
     0
 74
     1
 95
       23
 96
       19
 40
0.0
 40
0.0
 40
0.0
 40
0.0
 40
1.0
 40
1.0
 40
1.0
 40
2.0
 40
2.0
 40
2.0
 40
3.0
 40
3.0
 40
3.0
 40
4.0
 40
4.0
 40
4.0
 40
5.0
 40
5.0
 40
5.0
 40
6.0
 40
6.0
 40
6.0
 40
6.0
 10
110.4239230409704
 20
-147.8228461001971
 10
110.4070420730927
 20
-147.8629814626002
 10
110.4004963916707
 20
-147.879862430478
 10
110.3794813092107
 20
-147.879862430478
 10
110.3646673986241
 20
-147.879862430478
 10
110.3539876026198
 20
-147.8629814626002
 10
110.3477864307464
 20
-147.8502346093048
 10
110.3477864307464
 20
-147.8502346093048
 10
110.2482231712227
 20
-147.6852145355613
 10
110.2482231712227
 20
-147.6852145355613
 10
110.3498534880375
 20
-147.653519657097
 10
110.5000596511944
 20
-147.5985703841073
 10
110.6988416606933
 20
-147.435617367655
 10
110.6988416606933
 20
-147.435617367655
 10
110.7560302457485
 20
-147.6090779253373
 10
110.7560302457485
 20
-147.6090779253373
 10
110.6630126676468
 20
-147.691587962209
 10
110.5741292041273
 20
-147.7487765472642
 10
110.4239230409704
 20
-147.8228461001971
 97
        0
 97
        0
 92
        1
 93
        1
 72
     4
 94
        3
 73
     0
 74
     1
 95
       17
 96
       13
 40
0.0
 40
0.0
 40
0.0
 40
0.0
 40
1.0
 40
1.0
 40
1.0
 40
2.0
 40
2.0
 40
2.0
 40
3.0
 40
3.0
 40
3.0
 40
4.0
 40
4.0
 40
4.0
 40
4.0
 10
110.5761962614185
 20
-147.3574137001398
 10
110.5465684402453
 20
-147.3172783377367
 10
110.4787000591859
 20
-147.2199543902784
 10
110.2967990175647
 20
-147.1098835895246
 10
110.2967990175647
 20
-147.1098835895246
 10
110.4239230409704
 20
-146.9765583942454
 10
110.4239230409704
 20
-146.9765583942454
 10
110.6099581971739
 20
-147.0781887110603
 10
110.6671467822291
 20
-147.1670721745798
 10
110.694707546111
 20
-147.2092745942741
 10
110.694707546111
 20
-147.2092745942741
 10
110.5761962614185
 20
-147.3574137001398
 10
110.5761962614185
 20
-147.3574137001398
 97
        0
 97
        0
 92
        1
 93
        1
 72
     4
 94
        3
 73
     0
 74
     1
 95
       38
 96
       34
 40
0.0
 40
0.0
 40
0.0
 40
0.0
 40
1.0
 40
1.0
 40
1.0
 40
2.0
 40
2.0
 40
2.0
 40
3.0
 40
3.0
 40
3.0
 40
4.0
 40
4.0
 40
4.0
 40
5.0
 40
5.0
 40
5.0
 40
6.0
 40
6.0
 40
6.0
 40
7.0
 40
7.0
 40
7.0
 40
8.0
 40
8.0
 40
8.0
 40
9.0
 40
9.0
 40
9.0
 40
10.0
 40
10.0
 40
10.0
 40
11.0
 40
11.0
 40
11.0
 40
11.0
 10
110.9441324592431
 20
-147.0526950044695
 10
110.942065401952
 20
-147.0993760482946
 10
110.9399983446608
 20
-147.2156480209218
 10
110.9399983446608
 20
-147.2600897526815
 10
110.9399983446608
 20
-147.2600897526815
 10
110.9399983446608
 20
-147.6070108680462
 10
110.9399983446608
 20
-147.6070108680462
 10
110.9399983446608
 20
-147.6938272742745
 10
110.942065401952
 20
-147.8354206987182
 10
110.9527451979563
 20
-147.955999040702
 10
110.9527451979563
 20
-147.955999040702
 10
110.7622314176219
 20
-147.955999040702
 10
110.7622314176219
 20
-147.955999040702
 10
110.7667100417528
 20
-147.8926092837734
 10
110.7708441563351
 20
-147.8397270680748
 10
110.7729112136262
 20
-147.7847777950851
 10
110.7749782709174
 20
-147.6619601410359
 10
110.7770453282085
 20
-147.6471462304493
 10
110.7770453282085
 20
-147.6027044986896
 10
110.7770453282085
 20
-147.6027044986896
 10
110.7770453282085
 20
-147.2812770899158
 10
110.7770453282085
 20
-147.2812770899158
 10
110.7770453282085
 20
-147.2261555621518
 10
110.7642984749131
 20
-146.9872381902497
 10
110.7622314176219
 20
-146.9364230318423
 10
110.7622314176219
 20
-146.9364230318423
 10
110.9634249939605
 20
-146.9639837957243
 10
110.9634249939605
 20
-146.9639837957243
 10
110.9844400764206
 20
-146.9660508530154
 10
111.0161349548849
 20
-146.9701849675977
 10
111.0161349548849
 20
-146.9956786741886
 10
111.0161349548849
 20
-147.0230671832963
 10
110.9654920512517
 20
-147.0442545205306
 10
110.9441324592431
 20
-147.0526950044695
 97
        0
 97
        0
 92
        1
 93
        1
 72
     4
 94
        3
 73
     0
 74
     1
 95
       83
 96
       79
 40
0.0
 40
0.0
 40
0.0
 40
0.0
 40
1.0
 40
1.0
 40
1.0
 40
2.0
 40
2.0
 40
2.0
 40
3.0
 40
3.0
 40
3.0
 40
4.0
 40
4.0
 40
4.0
 40
5.0
 40
5.0
 40
5.0
 40
6.0
 40
6.0
 40
6.0
 40
7.0
 40
7.0
 40
7.0
 40
8.0
 40
8.0
 40
8.0
 40
9.0
 40
9.0
 40
9.0
 40
10.0
 40
10.0
 40
10.0
 40
11.0
 40
11.0
 40
11.0
 40
12.0
 40
12.0
 40
12.0
 40
13.0
 40
13.0
 40
13.0
 40
14.0
 40
14.0
 40
14.0
 40
15.0
 40
15.0
 40
15.0
 40
16.0
 40
16.0
 40
16.0
 40
17.0
 40
17.0
 40
17.0
 40
18.0
 40
18.0
 40
18.0
 40
19.0
 40
19.0
 40
19.0
 40
20.0
 40
20.0
 40
20.0
 40
21.0
 40
21.0
 40
21.0
 40
22.0
 40
22.0
 40
22.0
 40
23.0
 40
23.0
 40
23.0
 40
24.0
 40
24.0
 40
24.0
 40
25.0
 40
25.0
 40
25.0
 40
26.0
 40
26.0
 40
26.0
 40
26.0
 10
111.7461506882093
 20
-147.3742946680175
 10
111.7461506882093
 20
-147.3742946680175
 10
111.6486544859767
 20
-147.3742946680175
 10
111.6486544859767
 20
-147.3742946680175
 10
111.6486544859767
 20
-147.3742946680175
 10
111.6486544859767
 20
-147.6218247786327
 10
111.6486544859767
 20
-147.6218247786327
 10
111.6486544859767
 20
-147.6218247786327
 10
111.7313367776227
 20
-147.6218247786327
 10
111.7313367776227
 20
-147.6218247786327
 10
111.7967935918425
 20
-147.6218247786327
 10
111.9363199589951
 20
-147.6175184092762
 10
112.0358832185188
 20
-147.6090779253373
 10
112.0358832185188
 20
-147.6090779253373
 10
112.0358832185188
 20
-147.7889119096673
 10
112.0358832185188
 20
-147.7889119096673
 10
111.9428656404171
 20
-147.7804714257285
 10
111.7926594772602
 20
-147.7763373111462
 10
111.7313367776227
 20
-147.7763373111462
 10
111.7313367776227
 20
-147.7763373111462
 10
111.4264458271781
 20
-147.7763373111462
 10
111.4264458271781
 20
-147.7763373111462
 10
111.3737358662538
 20
-147.7763373111462
 10
111.2276638176792
 20
-147.7804714257285
 10
111.121899386282
 20
-147.7889119096673
 10
111.121899386282
 20
-147.7889119096673
 10
111.121899386282
 20
-147.6090779253373
 10
111.121899386282
 20
-147.6090779253373
 10
111.2214626458057
 20
-147.6175184092762
 10
111.3609890129584
 20
-147.6218247786327
 10
111.4264458271781
 20
-147.6218247786327
 10
111.4264458271781
 20
-147.6218247786327
 10
111.4708875589378
 20
-147.6218247786327
 10
111.4708875589378
 20
-147.6218247786327
 10
111.4708875589378
 20
-147.6218247786327
 10
111.4708875589378
 20
-147.3742946680175
 10
111.4708875589378
 20
-147.3742946680175
 10
111.4708875589378
 20
-147.3742946680175
 10
111.3971625155535
 20
-147.3742946680175
 10
111.3971625155535
 20
-147.3742946680175
 10
111.3354953063675
 20
-147.3742946680175
 10
111.1684081753329
 20
-147.3786010373741
 10
111.0478298333492
 20
-147.387041521313
 10
111.0478298333492
 20
-147.387041521313
 10
111.0478298333492
 20
-147.2092745942741
 10
111.0478298333492
 20
-147.2092745942741
 10
111.1622070034595
 20
-147.2156480209218
 10
111.320681395781
 20
-147.2199543902784
 10
111.3971625155535
 20
-147.2199543902784
 10
111.3971625155535
 20
-147.2199543902784
 10
111.4688205016467
 20
-147.2199543902784
 10
111.4688205016467
 20
-147.2199543902784
 10
111.4646863870644
 20
-147.067508915056
 10
111.4626193297732
 20
-147.0337469793006
 10
111.4560736483513
 20
-146.9405571464246
 10
111.4560736483513
 20
-146.9405571464246
 10
111.6679470206941
 20
-146.9639837957243
 10
111.6679470206941
 20
-146.9639837957243
 10
111.6930962177365
 20
-146.9660508530154
 10
111.7165228670361
 20
-146.9701849675977
 10
111.7165228670361
 20
-146.9934393621232
 10
111.7165228670361
 20
-147.0253064953617
 10
111.6720811352764
 20
-147.0421874632395
 10
111.6486544859767
 20
-147.0506279471783
 10
111.6486544859767
 20
-147.0506279471783
 10
111.6486544859767
 20
-147.2199543902784
 10
111.6486544859767
 20
-147.2199543902784
 10
111.6486544859767
 20
-147.2199543902784
 10
111.7461506882093
 20
-147.2199543902784
 10
111.7461506882093
 20
-147.2199543902784
 10
111.8222872984333
 20
-147.2199543902784
 10
111.9807616907548
 20
-147.2156480209218
 10
112.0972059181563
 20
-147.2092745942741
 10
112.0972059181563
 20
-147.2092745942741
 10
112.0972059181563
 20
-147.387041521313
 10
112.0972059181563
 20
-147.387041521313
 10
111.9893744294679
 20
-147.3806680946653
 10
111.8157416170113
 20
-147.3742946680175
 10
111.7461506882093
 20
-147.3742946680175
 97
        0
 97
        0
 92
        1
 93
        1
 72
     4
 94
        3
 73
     0
 74
     1
 95
       17
 96
       13
 40
0.0
 40
0.0
 40
0.0
 40
0.0
 40
1.0
 40
1.0
 40
1.0
 40
2.0
 40
2.0
 40
2.0
 40
3.0
 40
3.0
 40
3.0
 40
4.0
 40
4.0
 40
4.0
 40
4.0
 10
111.500515380111
 20
-148.1718342728529
 10
111.500515380111
 20
-148.1718342728529
 10
111.2975992560298
 20
-148.1718342728529
 10
111.2975992560298
 20
-148.1718342728529
 10
111.3251600199118
 20
-148.2310899151992
 10
111.3799370381272
 20
-148.3030924108409
 10
111.4074978020092
 20
-148.3325479772398
 10
111.4350585658912
 20
-148.3179063214275
 10
111.5494357360015
 20
-148.2543443097246
 10
111.6403862568121
 20
-148.1718342728529
 10
111.6403862568121
 20
-148.1718342728529
 10
111.500515380111
 20
-148.1718342728529
 10
111.500515380111
 20
-148.1718342728529
 97
        0
 97
        0
 75
     2
 76
     1
 98
        0
  0
SPLINE
  5
D4
330
C1
100
AcDbEntity
  8
_U+30EC_U+30A4_U+30E4_U+30FC 1
370
     0
100
AcDbSpline
210
0.0
220
0.0
230
1.0
 70
    11
 71
     3
 72
    77
 73
    73
 74
     0
 42
0.0000000001
 43
0.0000000001
 12
1.0
 22
0.0
 32
0.0
 13
1.0
 23
0.0
 33
0.0
 40
0.0
 40
0.0
 40
0.0
 40
0.0
 40
1.0
 40
1.0
 40
1.0
 40
2.0
 40
2.0
 40
2.0
 40
3.0
 40
3.0
 40
3.0
 40
4.0
 40
4.0
 40
4.0
 40
5.0
 40
5.0
 40
5.0
 40
6.0
 40
6.0
 40
6.0
 40
7.0
 40
7.0
 40
7.0
 40
8.0
 40
8.0
 40
8.0
 40
9.0
 40
9.0
 40
9.0
 40
10.0
 40
10.0
 40
10.0
 40
11.0
 40
11.0
 40
11.0
 40
12.0
 40
12.0
 40
12.0
 40
13.0
 40
13.0
 40
13.0
 40
14.0
 40
14.0
 40
14.0
 40
15.0
 40
15.0
 40
15.0
 40
16.0
 40
16.0
 40
16.0
 40
17.0
 40
17.0
 40
17.0
 40
18.0
 40
18.0
 40
18.0
 40
19.0
 40
19.0
 40
19.0
 40
20.0
 40
20.0
 40
20.0
 40
21.0
 40
21.0
 40
21.0
 40
22.0
 40
22.0
 40
22.0
 40
23.0
 40
23.0
 40
23.0
 40
24.0
 40
24.0
 40
24.0
 40
24.0
 10
113.9916639254951
 20
-148.8022867466536
 30
0.0
 10
113.9451551364443
 20
-148.8276081984702
 30
0.0
 10
113.8204426798782
 20
-148.8403550517656
 30
0.0
 10
113.7418945028145
 20
-148.8403550517656
 30
0.0
 10
113.7294921590676
 20
-148.8403550517656
 30
0.0
 10
113.7039984524768
 20
-148.8403550517656
 30
0.0
 10
113.6702365167213
 20
-148.8360486824091
 30
0.0
 10
113.6702365167213
 20
-148.8360486824091
 30
0.0
 10
113.5727403144888
 20
-148.6097059090281
 30
0.0
 10
113.5727403144888
 20
-148.6097059090281
 30
0.0
 10
113.6023681356619
 20
-148.6160793356758
 30
0.0
 10
113.6595567207171
 20
-148.6245198196147
 30
0.0
 10
113.7760009481185
 20
-148.6245198196147
 30
0.0
 10
113.8542046156337
 20
-148.6245198196147
 30
0.0
 10
113.8562716729248
 20
-148.5823173999204
 30
0.0
 10
113.8562716729248
 20
-148.5251288148652
 30
0.0
 10
113.8562716729248
 20
-148.5251288148652
 30
0.0
 10
113.8562716729248
 20
-148.1761406422094
 30
0.0
 10
113.8562716729248
 20
-148.1761406422094
 30
0.0
 10
113.8562716729248
 20
-148.1761406422094
 30
0.0
 10
113.397040444741
 20
-148.1761406422094
 30
0.0
 10
113.397040444741
 20
-148.1761406422094
 30
0.0
 10
113.3994520115807
 20
-148.3135999520709
 30
0.0
 10
113.4015190688718
 20
-148.5123819615698
 30
0.0
 10
113.4077202407453
 20
-148.645707156849
 30
0.0
 10
113.4097872980364
 20
-148.673267920731
 30
0.0
 10
113.4097872980364
 20
-148.7177096524907
 30
0.0
 10
113.4225341513319
 20
-148.7790323521282
 30
0.0
 10
113.4225341513319
 20
-148.7790323521282
 30
0.0
 10
113.1813774673644
 20
-148.7790323521282
 30
0.0
 10
113.1813774673644
 20
-148.7790323521282
 30
0.0
 10
113.2068711739552
 20
-148.6541476407879
 30
0.0
 10
113.2068711739552
 20
-148.3135999520709
 30
0.0
 10
113.2068711739552
 20
-148.1761406422094
 30
0.0
 10
113.2068711739552
 20
-148.1761406422094
 30
0.0
 10
112.7645209136492
 20
-148.1761406422094
 30
0.0
 10
112.7645209136492
 20
-148.1761406422094
 30
0.0
 10
112.741438773898
 20
-148.3833631356472
 30
0.0
 10
112.6759819596782
 20
-148.6520805834967
 30
0.0
 10
112.4789224979219
 20
-148.8360486824091
 30
0.0
 10
112.4789224979219
 20
-148.8360486824091
 30
0.0
 10
112.2908202844273
 20
-148.7134032831342
 30
0.0
 10
112.2908202844273
 20
-148.7134032831342
 30
0.0
 10
112.5447238216902
 20
-148.4934339364009
 30
0.0
 10
112.5764187001545
 20
-148.1613267316229
 30
0.0
 10
112.5764187001545
 20
-147.8292195268448
 30
0.0
 10
112.5764187001545
 20
-147.8292195268448
 30
0.0
 10
112.5764187001545
 20
-147.3934149479607
 30
0.0
 10
112.5764187001545
 20
-147.3934149479607
 30
0.0
 10
112.5764187001545
 20
-147.3574137001398
 30
0.0
 10
112.5743516428634
 20
-147.1246975001112
 30
0.0
 10
112.5657389041502
 20
-147.0230671832963
 30
0.0
 10
112.7056097808514
 20
-147.0337469793006
 30
0.0
 10
112.9467664648189
 20
-147.0337469793006
 30
0.0
 10
113.0904269465538
 20
-147.0337469793006
 30
0.0
 10
113.0904269465538
 20
-147.0337469793006
 30
0.0
 10
113.5496581747376
 20
-147.0337469793006
 30
0.0
 10
113.5496581747376
 20
-147.0337469793006
 30
0.0
 10
113.5644720853242
 20
-147.0337469793006
 30
0.0
 10
113.91346025798
 20
-147.0337469793006
 30
0.0
 10
114.0719346503015
 20
-147.0230671832963
 30
0.0
 10
114.0698675930103
 20
-147.0759493989949
 30
0.0
 10
114.0636664211369
 20
-147.2368353581561
 30
0.0
 10
114.0636664211369
 20
-147.2876505165635
 30
0.0
 10
114.0636664211369
 20
-147.2876505165635
 30
0.0
 10
114.0636664211369
 20
-147.8946763410645
 30
0.0
 10
114.0636664211369
 20
-147.8946763410645
 30
0.0
 10
114.0636664211369
 20
-147.9137966210077
 30
0.0
 10
114.0740017075926
 20
-148.4849934524621
 30
0.0
 10
114.0740017075926
 20
-148.597131310507
 30
0.0
 10
114.0740017075926
 20
-148.6541476407879
 30
0.0
 10
114.0740017075926
 20
-148.7557779576027
 30
0.0
 10
113.9916639254951
 20
-148.8022867466536
 30
0.0
  0
POLYLINE
  5
D5
330
C1
100
AcDbEntity
  8
_U+30EC_U+30A4_U+30E4_U+30FC 1
370
     0
100
AcDb2dPolyline
 66
     1
 10
0.0
 20
0.0
 30
0.0
  0
VERTEX
  5
D6
330
D5
100
AcDbEntity
  8
_U+30EC_U+30A4_U+30E4_U+30FC 1
370
     0
100
AcDbVertex
100
AcDb2dVertex
 10
113.2068711739552
 20
-147.2156480209218
 30
0.0
  0
VERTEX
  5
D7
330
D5
100
AcDbEntity
  8
_U+30EC_U+30A4_U+30E4_U+30FC 1
370
     0
100
AcDbVertex
100
AcDb2dVertex
 10
112.76899953778
 20
-147.2156480209218
 30
0.0
  0
VERTEX
  5
D8
330
D5
100
AcDbEntity
  8
_U+30EC_U+30A4_U+30E4_U+30FC 1
370
     0
100
AcDbVertex
100
AcDb2dVertex
 10
112.76899953778
 20
-147.5201944618179
 30
0.0
  0
VERTEX
  5
D9
330
D5
100
AcDbEntity
  8
_U+30EC_U+30A4_U+30E4_U+30FC 1
370
     0
100
AcDbVertex
100
AcDb2dVertex
 10
113.2068711739552
 20
-147.5201944618179
 30
0.0
  0
VERTEX
  5
DA
330
D5
100
AcDbEntity
  8
_U+30EC_U+30A4_U+30E4_U+30FC 1
370
     0
100
AcDbVertex
100
AcDb2dVertex
 10
113.2068711739552
 20
-147.2156480209218
 30
0.0
  0
SEQEND
  5
DB
330
D5
100
AcDbEntity
  8
_U+30EC_U+30A4_U+30E4_U+30FC 1
370
     0
  0
POLYLINE
  5
DC
330
C1
100
AcDbEntity
  8
_U+30EC_U+30A4_U+30E4_U+30FC 1
370
     0
100
AcDb2dPolyline
 66
     1
 10
0.0
 20
0.0
 30
0.0
  0
VERTEX
  5
DD
330
DC
100
AcDbEntity
  8
_U+30EC_U+30A4_U+30E4_U+30FC 1
370
     0
100
AcDbVertex
100
AcDb2dVertex
 10
113.2068711739552
 20
-147.6874538476268
 30
0.0
  0
VERTEX
  5
DE
330
DC
100
AcDbEntity
  8
_U+30EC_U+30A4_U+30E4_U+30FC 1
370
     0
100
AcDbVertex
100
AcDb2dVertex
 10
112.76899953778
 20
-147.6874538476268
 30
0.0
  0
VERTEX
  5
DF
330
DC
100
AcDbEntity
  8
_U+30EC_U+30A4_U+30E4_U+30FC 1
370
     0
100
AcDbVertex
100
AcDb2dVertex
 10
112.76899953778
 20
-147.9963066578794
 30
0.0
  0
VERTEX
  5
E0
330
DC
100
AcDbEntity
  8
_U+30EC_U+30A4_U+30E4_U+30FC 1
370
     0
100
AcDbVertex
100
AcDb2dVertex
 10
113.2068711739552
 20
-147.9963066578794
 30
0.0
  0
VERTEX
  5
E1
330
DC
100
AcDbEntity
  8
_U+30EC_U+30A4_U+30E4_U+30FC 1
370
     0
100
AcDbVertex
100
AcDb2dVertex
 10
113.2068711739552
 20
-147.6874538476268
 30
0.0
  0
SEQEND
  5
E2
330
DC
100
AcDbEntity
  8
_U+30EC_U+30A4_U+30E4_U+30FC 1
370
     0
  0
POLYLINE
  5
E3
330
C1
100
AcDbEntity
  8
_U+30EC_U+30A4_U+30E4_U+30FC 1
370
     0
100
AcDb2dPolyline
 66
     1
 10
0.0
 20
0.0
 30
0.0
  0
VERTEX
  5
E4
330
E3
100
AcDbEntity
  8
_U+30EC_U+30A4_U+30E4_U+30FC 1
370
     0
100
AcDbVertex
100
AcDb2dVertex
 10
113.8562716729248
 20
-147.2156480209218
 30
0.0
  0
VERTEX
  5
E5
330
E3
100
AcDbEntity
  8
_U+30EC_U+30A4_U+30E4_U+30FC 1
370
     0
100
AcDbVertex
100
AcDb2dVertex
 10
113.397040444741
 20
-147.2156480209218
 30
0.0
  0
VERTEX
  5
E6
330
E3
100
AcDbEntity
  8
_U+30EC_U+30A4_U+30E4_U+30FC 1
370
     0
100
AcDbVertex
100
AcDb2dVertex
 10
113.397040444741
 20
-147.5201944618179
 30
0.0
  0
VERTEX
  5
E7
330
E3
100
AcDbEntity
  8
_U+30EC_U+30A4_U+30E4_U+30FC 1
370
     0
100
AcDbVertex
100
AcDb2dVertex
 10
113.8562716729248
 20
-147.5201944618179
 30
0.0
  0
VERTEX
  5
E8
330
E3
100
AcDbEntity
  8
_U+30EC_U+30A4_U+30E4_U+30FC 1
370
     0
100
AcDbVertex
100
AcDb2dVertex
 10
113.8562716729248
 20
-147.2156480209218
 30
0.0
  0
SEQEND
  5
E9
330
E3
100
AcDbEntity
  8
_U+30EC_U+30A4_U+30E4_U+30FC 1
370
     0
  0
POLYLINE
  5
EA
330
C1
100
AcDbEntity
  8
_U+30EC_U+30A4_U+30E4_U+30FC 1
370
     0
100
AcDb2dPolyline
 66
     1
 10
0.0
 20
0.0
 30
0.0
  0
VERTEX
  5
EB
330
EA
100
AcDbEntity
  8
_U+30EC_U+30A4_U+30E4_U+30FC 1
370
     0
100
AcDbVertex
100
AcDb2dVertex
 10
113.8562716729248
 20
-147.6874538476268
 30
0.0
  0
VERTEX
  5
EC
330
EA
100
AcDbEntity
  8
_U+30EC_U+30A4_U+30E4_U+30FC 1
370
     0
100
AcDbVertex
100
AcDb2dVertex
 10
113.397040444741
 20
-147.6874538476268
 30
0.0
  0
VERTEX
  5
ED
330
EA
100
AcDbEntity
  8
_U+30EC_U+30A4_U+30E4_U+30FC 1
370
     0
100
AcDbVertex
100
AcDb2dVertex
 10
113.397040444741
 20
-147.9963066578794
 30
0.0
  0
VERTEX
  5
EE
330
EA
100
AcDbEntity
  8
_U+30EC_U+30A4_U+30E4_U+30FC 1
370
     0
100
AcDbVertex
100
AcDb2dVertex
 10
113.8562716729248
 20
-147.9963066578794
 30
0.0
  0
VERTEX
  5
EF
330
EA
100
AcDbEntity
  8
_U+30EC_U+30A4_U+30E4_U+30FC 1
370
     0
100
AcDbVertex
100
AcDb2dVertex
 10
113.8562716729248
 20
-147.6874538476268
 30
0.0
  0
SEQEND
  5
F0
330
EA
100
AcDbEntity
  8
_U+30EC_U+30A4_U+30E4_U+30FC 1
370
     0
  0
HATCH
  5
F1
330
C1
100
AcDbEntity
  8
_U+30EC_U+30A4_U+30E4_U+30FC 1
 62
   179
420
  2234388
100
AcDbHatch
 10
0.0
 20
0.0
 30
0.0
210
0.0
220
0.0
230
1.0
  2
SOLID
 70
     1
 71
     0
 91
        5
 92
        1
 93
        1
 72
     4
 94
        3
 73
     0
 74
     1
 95
       77
 96
       73
 40
0.0
 40
0.0
 40
0.0
 40
0.0
 40
1.0
 40
1.0
 40
1.0
 40
2.0
 40
2.0
 40
2.0
 40
3.0
 40
3.0
 40
3.0
 40
4.0
 40
4.0
 40
4.0
 40
5.0
 40
5.0
 40
5.0
 40
6.0
 40
6.0
 40
6.0
 40
7.0
 40
7.0
 40
7.0
 40
8.0
 40
8.0
 40
8.0
 40
9.0
 40
9.0
 40
9.0
 40
10.0
 40
10.0
 40
10.0
 40
11.0
 40
11.0
 40
11.0
 40
12.0
 40
12.0
 40
12.0
 40
13.0
 40
13.0
 40
13.0
 40
14.0
 40
14.0
 40
14.0
 40
15.0
 40
15.0
 40
15.0
 40
16.0
 40
16.0
 40
16.0
 40
17.0
 40
17.0
 40
17.0
 40
18.0
 40
18.0
 40
18.0
 40
19.0
 40
19.0
 40
19.0
 40
20.0
 40
20.0
 40
20.0
 40
21.0
 40
21.0
 40
21.0
 40
22.0
 40
22.0
 40
22.0
 40
23.0
 40
23.0
 40
23.0
 40
24.0
 40
24.0
 40
24.0
 40
24.0
 10
113.9916639254951
 20
-148.8022867466536
 10
113.9451551364443
 20
-148.8276081984702
 10
113.8204426798782
 20
-148.8403550517656
 10
113.7418945028145
 20
-148.8403550517656
 10
113.7294921590676
 20
-148.8403550517656
 10
113.7039984524768
 20
-148.8403550517656
 10
113.6702365167213
 20
-148.8360486824091
 10
113.6702365167213
 20
-148.8360486824091
 10
113.5727403144888
 20
-148.6097059090281
 10
113.5727403144888
 20
-148.6097059090281
 10
113.6023681356619
 20
-148.6160793356758
 10
113.6595567207171
 20
-148.6245198196147
 10
113.7760009481185
 20
-148.6245198196147
 10
113.8542046156337
 20
-148.6245198196147
 10
113.8562716729248
 20
-148.5823173999204
 10
113.8562716729248
 20
-148.5251288148652
 10
113.8562716729248
 20
-148.5251288148652
 10
113.8562716729248
 20
-148.1761406422094
 10
113.8562716729248
 20
-148.1761406422094
 10
113.8562716729248
 20
-148.1761406422094
 10
113.397040444741
 20
-148.1761406422094
 10
113.397040444741
 20
-148.1761406422094
 10
113.3994520115807
 20
-148.3135999520709
 10
113.4015190688718
 20
-148.5123819615698
 10
113.4077202407453
 20
-148.645707156849
 10
113.4097872980364
 20
-148.673267920731
 10
113.4097872980364
 20
-148.7177096524907
 10
113.4225341513319
 20
-148.7790323521282
 10
113.4225341513319
 20
-148.7790323521282
 10
113.1813774673644
 20
-148.7790323521282
 10
113.1813774673644
 20
-148.7790323521282
 10
113.2068711739552
 20
-148.6541476407879
 10
113.2068711739552
 20
-148.3135999520709
 10
113.2068711739552
 20
-148.1761406422094
 10
113.2068711739552
 20
-148.1761406422094
 10
112.7645209136492
 20
-148.1761406422094
 10
112.7645209136492
 20
-148.1761406422094
 10
112.741438773898
 20
-148.3833631356472
 10
112.6759819596782
 20
-148.6520805834967
 10
112.4789224979219
 20
-148.8360486824091
 10
112.4789224979219
 20
-148.8360486824091
 10
112.2908202844273
 20
-148.7134032831342
 10
112.2908202844273
 20
-148.7134032831342
 10
112.5447238216902
 20
-148.4934339364009
 10
112.5764187001545
 20
-148.1613267316229
 10
112.5764187001545
 20
-147.8292195268448
 10
112.5764187001545
 20
-147.8292195268448
 10
112.5764187001545
 20
-147.3934149479607
 10
112.5764187001545
 20
-147.3934149479607
 10
112.5764187001545
 20
-147.3574137001398
 10
112.5743516428634
 20
-147.1246975001112
 10
112.5657389041502
 20
-147.0230671832963
 10
112.7056097808514
 20
-147.0337469793006
 10
112.9467664648189
 20
-147.0337469793006
 10
113.0904269465538
 20
-147.0337469793006
 10
113.0904269465538
 20
-147.0337469793006
 10
113.5496581747376
 20
-147.0337469793006
 10
113.5496581747376
 20
-147.0337469793006
 10
113.5644720853242
 20
-147.0337469793006
 10
113.91346025798
 20
-147.0337469793006
 10
114.0719346503015
 20
-147.0230671832963
 10
114.0698675930103
 20
-147.0759493989949
 10
114.0636664211369
 20
-147.2368353581561
 10
114.0636664211369
 20
-147.2876505165635
 10
114.0636664211369
 20
-147.2876505165635
 10
114.0636664211369
 20
-147.8946763410645
 10
114.0636664211369
 20
-147.8946763410645
 10
114.0636664211369
 20
-147.9137966210077
 10
114.0740017075926
 20
-148.4849934524621
 10
114.0740017075926
 20
-148.597131310507
 10
114.0740017075926
 20
-148.6541476407879
 10
114.0740017075926
 20
-148.7557779576027
 10
113.9916639254951
 20
-148.8022867466536
 97
        0
 97
        0
 92
        1
 93
        4
 72
     1
 10
113.2068711739552
 20
-147.2156480209218
 11
112.76899953778
 21
-147.2156480209218
 72
     1
 10
112.76899953778
 20
-147.2156480209218
 11
112.76899953778
 21
-147.5201944618179
 72
     1
 10
112.76899953778
 20
-147.5201944618179
 11
113.2068711739552
 21
-147.5201944618179
 72
     1
 10
113.2068711739552
 20
-147.5201944618179
 11
113.2068711739552
 21
-147.2156480209218
 97
        0
 92
        1
 93
        4
 72
     1
 10
113.2068711739552
 20
-147.6874538476268
 11
112.76899953778
 21
-147.6874538476268
 72
     1
 10
112.76899953778
 20
-147.6874538476268
 11
112.76899953778
 21
-147.9963066578794
 72
     1
 10
112.76899953778
 20
-147.9963066578794
 11
113.2068711739552
 21
-147.9963066578794
 72
     1
 10
113.2068711739552
 20
-147.9963066578794
 11
113.2068711739552
 21
-147.6874538476268
 97
        0
 92
        1
 93
        4
 72
     1
 10
113.8562716729248
 20
-147.2156480209218
 11
113.397040444741
 21
-147.2156480209218
 72
     1
 10
113.397040444741
 20
-147.2156480209218
 11
113.397040444741
 21
-147.5201944618179
 72
     1
 10
113.397040444741
 20
-147.5201944618179
 11
113.8562716729248
 21
-147.5201944618179
 72
     1
 10
113.8562716729248
 20
-147.5201944618179
 11
113.8562716729248
 21
-147.2156480209218
 97
        0
 92
        1
 93
        4
 72
     1
 10
113.8562716729248
 20
-147.6874538476268
 11
113.397040444741
 21
-147.6874538476268
 72
     1
 10
113.397040444741
 20
-147.6874538476268
 11
113.397040444741
 21
-147.9963066578794
 72
     1
 10
113.397040444741
 20
-147.9963066578794
 11
113.8562716729248
 21
-147.9963066578794
 72
     1
 10
113.8562716729248
 20
-147.9963066578794
 11
113.8562716729248
 21
-147.6874538476268
 97
        0
 75
     2
 76
     1
 98
        0
  0
ENDBLK
  5
C4
330
C1
100
AcDbEntity
  8
0
100
AcDbBlockEnd
  0
BLOCK
  5
F4
330
F2
100
AcDbEntity
  8
0
100
AcDbBlockBegin
  2
block 9
 70
     0
 10
0.0
 20
0.0
 30
0.0
  3
block 9
  1

  0
SPLINE
  5
F6
330
F2
100
AcDbEntity
  8
_U+30EC_U+30A4_U+30E4_U+30FC 1
370
     0
100
AcDbSpline
210
0.0
220
0.0
230
1.0
 70
    11
 71
     3
 72
    44
 73
    40
 74
     0
 42
0.0000000001
 43
0.0000000001
 12
1.0
 22
0.0
 32
0.0
 13
1.0
 23
0.0
 33
0.0
 40
0.0
 40
0.0
 40
0.0
 40
0.0
 40
1.0
 40
1.0
 40
1.0
 40
2.0
 40
2.0
 40
2.0
 40
3.0
 40
3.0
 40
3.0
 40
4.0
 40
4.0
 40
4.0
 40
5.0
 40
5.0
 40
5.0
 40
6.0
 40
6.0
 40
6.0
 40
7.0
 40
7.0
 40
7.0
 40
8.0
 40
8.0
 40
8.0
 40
9.0
 40
9.0
 40
9.0
 40
10.0
 40
10.0
 40
10.0
 40
11.0
 40
11.0
 40
11.0
 40
12.0
 40
12.0
 40
12.0
 40
13.0
 40
13.0
 40
13.0
 40
13.0
 10
109.5402560490038
 20
-150.0921304963312
 30
0.0
 10
109.4282904457332
 20
-150.4600666941558
 30
0.0
 10
109.3776475421
 20
-150.6188855960258
 30
0.0
 10
109.1809325898923
 20
-150.8683105091579
 30
0.0
 10
108.9966199814314
 20
-151.0991319066697
 30
0.0
 10
108.7599419215947
 20
-151.2851670628732
 30
0.0
 10
108.480544677741
 20
-151.3781846409749
 30
0.0
 10
108.480544677741
 20
-151.3781846409749
 30
0.0
 10
108.2879638401155
 20
-151.1983506566449
 30
0.0
 10
108.2879638401155
 20
-151.1983506566449
 30
0.0
 10
108.9290961099205
 20
-151.0460774361968
 30
0.0
 10
109.2591362574074
 20
-150.489694515329
 30
0.0
 10
109.322526014336
 20
-150.0497558218626
 30
0.0
 10
109.322526014336
 20
-150.0497558218626
 30
0.0
 10
108.556681287965
 20
-150.0497558218626
 30
0.0
 10
108.556681287965
 20
-150.0497558218626
 30
0.0
 10
108.4636637098633
 20
-150.0497558218626
 30
0.0
 10
108.2796956109509
 20
-150.0538899364449
 30
0.0
 10
108.122943766372
 20
-150.0728379616137
 30
0.0
 10
108.122943766372
 20
-150.0728379616137
 30
0.0
 10
108.122943766372
 20
-149.8530408696548
 30
0.0
 10
108.122943766372
 20
-149.8530408696548
 30
0.0
 10
108.2097601726003
 20
-149.8740559521148
 30
0.0
 10
108.4615966525721
 20
-149.8740559521148
 30
0.0
 10
108.5608154025473
 20
-149.8740559521148
 30
0.0
 10
108.5608154025473
 20
-149.8740559521148
 30
0.0
 10
108.9924858668491
 20
-149.8740559521148
 30
0.0
 10
108.9924858668491
 20
-149.8740559521148
 30
0.0
 10
109.0348605413177
 20
-149.8740559521148
 30
0.0
 10
109.2694715438632
 20
-149.8719888948237
 30
0.0
 10
109.3077121037495
 20
-149.8657877229502
 30
0.0
 10
109.350086778218
 20
-149.8592420415283
 30
0.0
 10
109.3521538355092
 20
-149.8571749842371
 30
0.0
 10
109.4134765351466
 20
-149.8168673670597
 30
0.0
 10
109.4134765351466
 20
-149.8168673670597
 30
0.0
 10
109.6015787486413
 20
-149.9715521543474
 30
0.0
 10
109.6015787486413
 20
-149.9715521543474
 30
0.0
 10
109.5722954370166
 20
-150.0011799755206
 30
0.0
 10
109.5574815264301
 20
-150.0328748539849
 30
0.0
 10
109.5402560490038
 20
-150.0921304963312
 30
0.0
  0
SPLINE
  5
F7
330
F2
100
AcDbEntity
  8
_U+30EC_U+30A4_U+30E4_U+30FC 1
370
     0
100
AcDbSpline
210
0.0
220
0.0
230
1.0
 70
    11
 71
     3
 72
    17
 73
    13
 74
     0
 42
0.0000000001
 43
0.0000000001
 12
1.0
 22
0.0
 32
0.0
 13
1.0
 23
0.0
 33
0.0
 40
0.0
 40
0.0
 40
0.0
 40
0.0
 40
1.0
 40
1.0
 40
1.0
 40
2.0
 40
2.0
 40
2.0
 40
3.0
 40
3.0
 40
3.0
 40
4.0
 40
4.0
 40
4.0
 40
4.0
 10
109.749717854507
 20
-149.8930039772837
 30
0.0
 10
109.6229383406498
 20
-149.8930039772837
 30
0.0
 10
109.521308023835
 20
-149.7917181700174
 30
0.0
 10
109.521308023835
 20
-149.6645941466116
 30
0.0
 10
109.521308023835
 20
-149.5378146327544
 30
0.0
 10
109.6229383406498
 20
-149.4341172586484
 30
0.0
 10
109.749717854507
 20
-149.4341172586484
 30
0.0
 10
109.8768418779127
 20
-149.4341172586484
 30
0.0
 10
109.9805392520188
 20
-149.5378146327544
 30
0.0
 10
109.9805392520188
 20
-149.6645941466116
 30
0.0
 10
109.9805392520188
 20
-149.7917181700174
 30
0.0
 10
109.8768418779127
 20
-149.8930039772837
 30
0.0
 10
109.749717854507
 20
-149.8930039772837
 30
0.0
  0
SPLINE
  5
F8
330
F2
100
AcDbEntity
  8
_U+30EC_U+30A4_U+30E4_U+30FC 1
370
     0
100
AcDbSpline
210
0.0
220
0.0
230
1.0
 70
    11
 71
     3
 72
    17
 73
    13
 74
     0
 42
0.0000000001
 43
0.0000000001
 12
1.0
 22
0.0
 32
0.0
 13
1.0
 23
0.0
 33
0.0
 40
0.0
 40
0.0
 40
0.0
 40
0.0
 40
1.0
 40
1.0
 40
1.0
 40
2.0
 40
2.0
 40
2.0
 40
3.0
 40
3.0
 40
3.0
 40
4.0
 40
4.0
 40
4.0
 40
4.0
 10
109.7476507972159
 20
-149.5629638297968
 30
0.0
 10
109.6928737790004
 20
-149.5629638297968
 30
0.0
 10
109.6484320472407
 20
-149.6074055615565
 30
0.0
 10
109.6484320472407
 20
-149.6625270893205
 30
0.0
 10
109.6484320472407
 20
-149.7197156743756
 30
0.0
 10
109.6928737790004
 20
-149.7682915207177
 30
0.0
 10
109.7517849117982
 20
-149.7682915207177
 30
0.0
 10
109.8110405541445
 20
-149.7682915207177
 30
0.0
 10
109.8513481713219
 20
-149.7176486170845
 30
0.0
 10
109.8513481713219
 20
-149.6645941466116
 30
0.0
 10
109.8513481713219
 20
-149.6074055615565
 30
0.0
 10
109.804839382271
 20
-149.5629638297968
 30
0.0
 10
109.7476507972159
 20
-149.5629638297968
 30
0.0
  0
HATCH
  5
F9
330
F2
100
AcDbEntity
  8
_U+30EC_U+30A4_U+30E4_U+30FC 1
 62
   179
420
  2234388
100
AcDbHatch
 10
0.0
 20
0.0
 30
0.0
210
0.0
220
0.0
230
1.0
  2
SOLID
 70
     1
 71
     0
 91
        3
 92
        1
 93
        1
 72
     4
 94
        3
 73
     0
 74
     1
 95
       44
 96
       40
 40
0.0
 40
0.0
 40
0.0
 40
0.0
 40
1.0
 40
1.0
 40
1.0
 40
2.0
 40
2.0
 40
2.0
 40
3.0
 40
3.0
 40
3.0
 40
4.0
 40
4.0
 40
4.0
 40
5.0
 40
5.0
 40
5.0
 40
6.0
 40
6.0
 40
6.0
 40
7.0
 40
7.0
 40
7.0
 40
8.0
 40
8.0
 40
8.0
 40
9.0
 40
9.0
 40
9.0
 40
10.0
 40
10.0
 40
10.0
 40
11.0
 40
11.0
 40
11.0
 40
12.0
 40
12.0
 40
12.0
 40
13.0
 40
13.0
 40
13.0
 40
13.0
 10
109.5402560490038
 20
-150.0921304963312
 10
109.4282904457332
 20
-150.4600666941558
 10
109.3776475421
 20
-150.6188855960258
 10
109.1809325898923
 20
-150.8683105091579
 10
108.9966199814314
 20
-151.0991319066697
 10
108.7599419215947
 20
-151.2851670628732
 10
108.480544677741
 20
-151.3781846409749
 10
108.480544677741
 20
-151.3781846409749
 10
108.2879638401155
 20
-151.1983506566449
 10
108.2879638401155
 20
-151.1983506566449
 10
108.9290961099205
 20
-151.0460774361968
 10
109.2591362574074
 20
-150.489694515329
 10
109.322526014336
 20
-150.0497558218626
 10
109.322526014336
 20
-150.0497558218626
 10
108.556681287965
 20
-150.0497558218626
 10
108.556681287965
 20
-150.0497558218626
 10
108.4636637098633
 20
-150.0497558218626
 10
108.2796956109509
 20
-150.0538899364449
 10
108.122943766372
 20
-150.0728379616137
 10
108.122943766372
 20
-150.0728379616137
 10
108.122943766372
 20
-149.8530408696548
 10
108.122943766372
 20
-149.8530408696548
 10
108.2097601726003
 20
-149.8740559521148
 10
108.4615966525721
 20
-149.8740559521148
 10
108.5608154025473
 20
-149.8740559521148
 10
108.5608154025473
 20
-149.8740559521148
 10
108.9924858668491
 20
-149.8740559521148
 10
108.9924858668491
 20
-149.8740559521148
 10
109.0348605413177
 20
-149.8740559521148
 10
109.2694715438632
 20
-149.8719888948237
 10
109.3077121037495
 20
-149.8657877229502
 10
109.350086778218
 20
-149.8592420415283
 10
109.3521538355092
 20
-149.8571749842371
 10
109.4134765351466
 20
-149.8168673670597
 10
109.4134765351466
 20
-149.8168673670597
 10
109.6015787486413
 20
-149.9715521543474
 10
109.6015787486413
 20
-149.9715521543474
 10
109.5722954370166
 20
-150.0011799755206
 10
109.5574815264301
 20
-150.0328748539849
 10
109.5402560490038
 20
-150.0921304963312
 97
        0
 97
        0
 92
        1
 93
        1
 72
     4
 94
        3
 73
     0
 74
     1
 95
       17
 96
       13
 40
0.0
 40
0.0
 40
0.0
 40
0.0
 40
1.0
 40
1.0
 40
1.0
 40
2.0
 40
2.0
 40
2.0
 40
3.0
 40
3.0
 40
3.0
 40
4.0
 40
4.0
 40
4.0
 40
4.0
 10
109.749717854507
 20
-149.8930039772837
 10
109.6229383406498
 20
-149.8930039772837
 10
109.521308023835
 20
-149.7917181700174
 10
109.521308023835
 20
-149.6645941466116
 10
109.521308023835
 20
-149.5378146327544
 10
109.6229383406498
 20
-149.4341172586484
 10
109.749717854507
 20
-149.4341172586484
 10
109.8768418779127
 20
-149.4341172586484
 10
109.9805392520188
 20
-149.5378146327544
 10
109.9805392520188
 20
-149.6645941466116
 10
109.9805392520188
 20
-149.7917181700174
 10
109.8768418779127
 20
-149.8930039772837
 10
109.749717854507
 20
-149.8930039772837
 97
        0
 97
        0
 92
        1
 93
        1
 72
     4
 94
        3
 73
     0
 74
     1
 95
       17
 96
       13
 40
0.0
 40
0.0
 40
0.0
 40
0.0
 40
1.0
 40
1.0
 40
1.0
 40
2.0
 40
2.0
 40
2.0
 40
3.0
 40
3.0
 40
3.0
 40
4.0
 40
4.0
 40
4.0
 40
4.0
 10
109.7476507972159
 20
-149.5629638297968
 10
109.6928737790004
 20
-149.5629638297968
 10
109.6484320472407
 20
-149.6074055615565
 10
109.6484320472407
 20
-149.6625270893205
 10
109.6484320472407
 20
-149.7197156743756
 10
109.6928737790004
 20
-149.7682915207177
 10
109.7517849117982
 20
-149.7682915207177
 10
109.8110405541445
 20
-149.7682915207177
 10
109.8513481713219
 20
-149.7176486170845
 10
109.8513481713219
 20
-149.6645941466116
 10
109.8513481713219
 20
-149.6074055615565
 10
109.804839382271
 20
-149.5629638297968
 10
109.7476507972159
 20
-149.5629638297968
 97
        0
 97
        0
 75
     2
 76
     1
 98
        0
  0
SPLINE
  5
FA
330
F2
100
AcDbEntity
  8
_U+30EC_U+30A4_U+30E4_U+30FC 1
370
     0
100
AcDbSpline
210
0.0
220
0.0
230
1.0
 70
    11
 71
     3
 72
    50
 73
    46
 74
     0
 42
0.0000000001
 43
0.0000000001
 12
1.0
 22
0.0
 32
0.0
 13
1.0
 23
0.0
 33
0.0
 40
0.0
 40
0.0
 40
0.0
 40
0.0
 40
1.0
 40
1.0
 40
1.0
 40
2.0
 40
2.0
 40
2.0
 40
3.0
 40
3.0
 40
3.0
 40
4.0
 40
4.0
 40
4.0
 40
5.0
 40
5.0
 40
5.0
 40
6.0
 40
6.0
 40
6.0
 40
7.0
 40
7.0
 40
7.0
 40
8.0
 40
8.0
 40
8.0
 40
9.0
 40
9.0
 40
9.0
 40
10.0
 40
10.0
 40
10.0
 40
11.0
 40
11.0
 40
11.0
 40
12.0
 40
12.0
 40
12.0
 40
13.0
 40
13.0
 40
13.0
 40
14.0
 40
14.0
 40
14.0
 40
15.0
 40
15.0
 40
15.0
 40
15.0
 10
111.5449571118707
 20
-150.4008110518095
 30
0.0
 10
111.466408934807
 20
-150.5785779788484
 30
0.0
 10
111.3310166822367
 20
-150.7859727270605
 30
0.0
 10
111.1935573723752
 20
-150.9254990942131
 30
0.0
 10
111.0244031840495
 20
-151.09672033983
 30
0.0
 10
110.8614501675971
 20
-151.1856038033494
 30
0.0
 10
110.5420898161145
 20
-151.3275417373417
 30
0.0
 10
110.5420898161145
 20
-151.3275417373417
 30
0.0
 10
110.3729356277887
 20
-151.1390950142986
 30
0.0
 10
110.3729356277887
 20
-151.1390950142986
 30
0.0
 10
110.5589707839922
 20
-151.1160128745474
 30
0.0
 10
110.7301920296091
 20
-151.0291964683191
 30
0.0
 10
110.8828097596057
 20
-150.9234320369219
 30
0.0
 10
111.1449815260332
 20
-150.7415309953007
 30
0.0
 10
111.3354953063675
 20
-150.4283718156915
 30
0.0
 10
111.3840711527095
 20
-150.2464707740703
 30
0.0
 10
111.3840711527095
 20
-150.2464707740703
 30
0.0
 10
110.7133110617314
 20
-150.2464707740703
 30
0.0
 10
110.7133110617314
 20
-150.2464707740703
 30
0.0
 10
110.5548366694099
 20
-150.2464707740703
 30
0.0
 10
110.2626925722607
 20
-150.2547390032349
 30
0.0
 10
110.1104193518127
 20
-150.2719644806612
 30
0.0
 10
110.1104193518127
 20
-150.2719644806612
 30
0.0
 10
110.1104193518127
 20
-150.0432101404406
 30
0.0
 10
110.1104193518127
 20
-150.0432101404406
 30
0.0
 10
110.1445257971167
 20
-150.0497558218626
 30
0.0
 10
110.169674994159
 20
-150.055956993736
 30
0.0
 10
110.2227294646318
 20
-150.0600911083183
 30
0.0
 10
110.3240152718982
 20
-150.0666367897403
 30
0.0
 10
110.5210747336545
 20
-150.0687038470314
 30
0.0
 10
110.6054795730431
 20
-150.0687038470314
 30
0.0
 10
110.6054795730431
 20
-150.0687038470314
 30
0.0
 10
111.1112195902778
 20
-150.0687038470314
 30
0.0
 10
111.1112195902778
 20
-150.0687038470314
 30
0.0
 10
111.1787434617887
 20
-150.0687038470314
 30
0.0
 10
111.3248155103633
 20
-150.0645697324491
 30
0.0
 10
111.3861382100007
 20
-150.0580240510272
 30
0.0
 10
111.4581407056424
 20
-150.0497558218626
 30
0.0
 10
111.4857014695244
 20
-150.034941911276
 30
0.0
 10
111.5194634052799
 20
-150.0115152619763
 30
0.0
 10
111.5194634052799
 20
-150.0115152619763
 30
0.0
 10
111.6844834790233
 20
-150.1786023930109
 30
0.0
 10
111.6844834790233
 20
-150.1786023930109
 30
0.0
 10
111.6145480406728
 20
-150.2464707740703
 30
0.0
 10
111.5680392516219
 20
-150.3501681481764
 30
0.0
 10
111.5449571118707
 20
-150.4008110518095
 30
0.0
  0
SPLINE
  5
FB
330
F2
100
AcDbEntity
  8
_U+30EC_U+30A4_U+30E4_U+30FC 1
370
     0
100
AcDbSpline
210
0.0
220
0.0
230
1.0
 70
    11
 71
     3
 72
    29
 73
    25
 74
     0
 42
0.0000000001
 43
0.0000000001
 12
1.0
 22
0.0
 32
0.0
 13
1.0
 23
0.0
 33
0.0
 40
0.0
 40
0.0
 40
0.0
 40
0.0
 40
1.0
 40
1.0
 40
1.0
 40
2.0
 40
2.0
 40
2.0
 40
3.0
 40
3.0
 40
3.0
 40
4.0
 40
4.0
 40
4.0
 40
5.0
 40
5.0
 40
5.0
 40
6.0
 40
6.0
 40
6.0
 40
7.0
 40
7.0
 40
7.0
 40
8.0
 40
8.0
 40
8.0
 40
8.0
 10
111.0519639479315
 20
-149.7748372021396
 30
0.0
 10
111.0519639479315
 20
-149.7748372021396
 30
0.0
 10
110.7112440044402
 20
-149.7748372021396
 30
0.0
 10
110.7112440044402
 20
-149.7748372021396
 30
0.0
 10
110.5972113438785
 20
-149.7748372021396
 30
0.0
 10
110.480767116477
 20
-149.7789713167219
 30
0.0
 10
110.3663899463667
 20
-149.7937852273085
 30
0.0
 10
110.3663899463667
 20
-149.7937852273085
 30
0.0
 10
110.3663899463667
 20
-149.5843234218053
 30
0.0
 10
110.3663899463667
 20
-149.5843234218053
 30
0.0
 10
110.4849012310593
 20
-149.5991373323919
 30
0.0
 10
110.6585340435159
 20
-149.6032714469742
 30
0.0
 10
110.7112440044402
 20
-149.6032714469742
 30
0.0
 10
110.7112440044402
 20
-149.6032714469742
 30
0.0
 10
111.0519639479315
 20
-149.6032714469742
 30
0.0
 10
111.0519639479315
 20
-149.6032714469742
 30
0.0
 10
111.1684081753329
 20
-149.6032714469742
 30
0.0
 10
111.2845078931858
 20
-149.5991373323919
 30
0.0
 10
111.4009521205873
 20
-149.5843234218053
 30
0.0
 10
111.4009521205873
 20
-149.5843234218053
 30
0.0
 10
111.4009521205873
 20
-149.7937852273085
 30
0.0
 10
111.4009521205873
 20
-149.7937852273085
 30
0.0
 10
111.2507459574304
 20
-149.7748372021396
 30
0.0
 10
111.066777858518
 20
-149.7748372021396
 30
0.0
 10
111.0519639479315
 20
-149.7748372021396
 30
0.0
  0
HATCH
  5
FC
330
F2
100
AcDbEntity
  8
_U+30EC_U+30A4_U+30E4_U+30FC 1
 62
   179
420
  2234388
100
AcDbHatch
 10
0.0
 20
0.0
 30
0.0
210
0.0
220
0.0
230
1.0
  2
SOLID
 70
     1
 71
     0
 91
        2
 92
        1
 93
        1
 72
     4
 94
        3
 73
     0
 74
     1
 95
       50
 96
       46
 40
0.0
 40
0.0
 40
0.0
 40
0.0
 40
1.0
 40
1.0
 40
1.0
 40
2.0
 40
2.0
 40
2.0
 40
3.0
 40
3.0
 40
3.0
 40
4.0
 40
4.0
 40
4.0
 40
5.0
 40
5.0
 40
5.0
 40
6.0
 40
6.0
 40
6.0
 40
7.0
 40
7.0
 40
7.0
 40
8.0
 40
8.0
 40
8.0
 40
9.0
 40
9.0
 40
9.0
 40
10.0
 40
10.0
 40
10.0
 40
11.0
 40
11.0
 40
11.0
 40
12.0
 40
12.0
 40
12.0
 40
13.0
 40
13.0
 40
13.0
 40
14.0
 40
14.0
 40
14.0
 40
15.0
 40
15.0
 40
15.0
 40
15.0
 10
111.5449571118707
 20
-150.4008110518095
 10
111.466408934807
 20
-150.5785779788484
 10
111.3310166822367
 20
-150.7859727270605
 10
111.1935573723752
 20
-150.9254990942131
 10
111.0244031840495
 20
-151.09672033983
 10
110.8614501675971
 20
-151.1856038033494
 10
110.5420898161145
 20
-151.3275417373417
 10
110.5420898161145
 20
-151.3275417373417
 10
110.3729356277887
 20
-151.1390950142986
 10
110.3729356277887
 20
-151.1390950142986
 10
110.5589707839922
 20
-151.1160128745474
 10
110.7301920296091
 20
-151.0291964683191
 10
110.8828097596057
 20
-150.9234320369219
 10
111.1449815260332
 20
-150.7415309953007
 10
111.3354953063675
 20
-150.4283718156915
 10
111.3840711527095
 20
-150.2464707740703
 10
111.3840711527095
 20
-150.2464707740703
 10
110.7133110617314
 20
-150.2464707740703
 10
110.7133110617314
 20
-150.2464707740703
 10
110.5548366694099
 20
-150.2464707740703
 10
110.2626925722607
 20
-150.2547390032349
 10
110.1104193518127
 20
-150.2719644806612
 10
110.1104193518127
 20
-150.2719644806612
 10
110.1104193518127
 20
-150.0432101404406
 10
110.1104193518127
 20
-150.0432101404406
 10
110.1445257971167
 20
-150.0497558218626
 10
110.169674994159
 20
-150.055956993736
 10
110.2227294646318
 20
-150.0600911083183
 10
110.3240152718982
 20
-150.0666367897403
 10
110.5210747336545
 20
-150.0687038470314
 10
110.6054795730431
 20
-150.0687038470314
 10
110.6054795730431
 20
-150.0687038470314
 10
111.1112195902778
 20
-150.0687038470314
 10
111.1112195902778
 20
-150.0687038470314
 10
111.1787434617887
 20
-150.0687038470314
 10
111.3248155103633
 20
-150.0645697324491
 10
111.3861382100007
 20
-150.0580240510272
 10
111.4581407056424
 20
-150.0497558218626
 10
111.4857014695244
 20
-150.034941911276
 10
111.5194634052799
 20
-150.0115152619763
 10
111.5194634052799
 20
-150.0115152619763
 10
111.6844834790233
 20
-150.1786023930109
 10
111.6844834790233
 20
-150.1786023930109
 10
111.6145480406728
 20
-150.2464707740703
 10
111.5680392516219
 20
-150.3501681481764
 10
111.5449571118707
 20
-150.4008110518095
 97
        0
 97
        0
 92
        1
 93
        1
 72
     4
 94
        3
 73
     0
 74
     1
 95
       29
 96
       25
 40
0.0
 40
0.0
 40
0.0
 40
0.0
 40
1.0
 40
1.0
 40
1.0
 40
2.0
 40
2.0
 40
2.0
 40
3.0
 40
3.0
 40
3.0
 40
4.0
 40
4.0
 40
4.0
 40
5.0
 40
5.0
 40
5.0
 40
6.0
 40
6.0
 40
6.0
 40
7.0
 40
7.0
 40
7.0
 40
8.0
 40
8.0
 40
8.0
 40
8.0
 10
111.0519639479315
 20
-149.7748372021396
 10
111.0519639479315
 20
-149.7748372021396
 10
110.7112440044402
 20
-149.7748372021396
 10
110.7112440044402
 20
-149.7748372021396
 10
110.5972113438785
 20
-149.7748372021396
 10
110.480767116477
 20
-149.7789713167219
 10
110.3663899463667
 20
-149.7937852273085
 10
110.3663899463667
 20
-149.7937852273085
 10
110.3663899463667
 20
-149.5843234218053
 10
110.3663899463667
 20
-149.5843234218053
 10
110.4849012310593
 20
-149.5991373323919
 10
110.6585340435159
 20
-149.6032714469742
 10
110.7112440044402
 20
-149.6032714469742
 10
110.7112440044402
 20
-149.6032714469742
 10
111.0519639479315
 20
-149.6032714469742
 10
111.0519639479315
 20
-149.6032714469742
 10
111.1684081753329
 20
-149.6032714469742
 10
111.2845078931858
 20
-149.5991373323919
 10
111.4009521205873
 20
-149.5843234218053
 10
111.4009521205873
 20
-149.5843234218053
 10
111.4009521205873
 20
-149.7937852273085
 10
111.4009521205873
 20
-149.7937852273085
 10
111.2507459574304
 20
-149.7748372021396
 10
111.066777858518
 20
-149.7748372021396
 10
111.0519639479315
 20
-149.7748372021396
 97
        0
 97
        0
 75
     2
 76
     1
 98
        0
  0
SPLINE
  5
FD
330
F2
100
AcDbEntity
  8
_U+30EC_U+30A4_U+30E4_U+30FC 1
370
     0
100
AcDbSpline
210
0.0
220
0.0
230
1.0
 70
    11
 71
     3
 72
    50
 73
    46
 74
     0
 42
0.0000000001
 43
0.0000000001
 12
1.0
 22
0.0
 32
0.0
 13
1.0
 23
0.0
 33
0.0
 40
0.0
 40
0.0
 40
0.0
 40
0.0
 40
1.0
 40
1.0
 40
1.0
 40
2.0
 40
2.0
 40
2.0
 40
3.0
 40
3.0
 40
3.0
 40
4.0
 40
4.0
 40
4.0
 40
5.0
 40
5.0
 40
5.0
 40
6.0
 40
6.0
 40
6.0
 40
7.0
 40
7.0
 40
7.0
 40
8.0
 40
8.0
 40
8.0
 40
9.0
 40
9.0
 40
9.0
 40
10.0
 40
10.0
 40
10.0
 40
11.0
 40
11.0
 40
11.0
 40
12.0
 40
12.0
 40
12.0
 40
13.0
 40
13.0
 40
13.0
 40
14.0
 40
14.0
 40
14.0
 40
15.0
 40
15.0
 40
15.0
 40
15.0
 10
113.2551025107487
 20
-149.7600232915531
 30
0.0
 10
113.0456407052455
 20
-149.9736192116385
 30
0.0
 10
112.9739827191523
 20
-150.0456217072803
 30
0.0
 10
112.8320447851601
 20
-150.1637884824243
 30
0.0
 10
112.8320447851601
 20
-150.1637884824243
 30
0.0
 10
112.8320447851601
 20
-150.7308511992965
 30
0.0
 10
112.8320447851601
 20
-150.7308511992965
 30
0.0
 10
112.8320447851601
 20
-150.8810573624534
 30
0.0
 10
112.838590466582
 20
-150.9000053876222
 30
0.0
 10
112.8427245811643
 20
-151.0777723146611
 30
0.0
 10
112.8447916384555
 20
-151.2090304526491
 30
0.0
 10
112.8509928103289
 20
-151.2576062989912
 30
0.0
 10
112.8575384917509
 20
-151.3168619413375
 30
0.0
 10
112.8575384917509
 20
-151.3168619413375
 30
0.0
 10
112.63119571837
 20
-151.3168619413375
 30
0.0
 10
112.63119571837
 20
-151.3168619413375
 30
0.0
 10
112.6353298329523
 20
-151.2724202095777
 30
0.0
 10
112.6394639475346
 20
-151.2259114205269
 30
0.0
 10
112.6394639475346
 20
-151.2172986818137
 30
0.0
 10
112.6394639475346
 20
-151.1370279570074
 30
0.0
 10
112.6439425716654
 20
-150.7859727270605
 30
0.0
 10
112.6439425716654
 20
-150.7139702314187
 30
0.0
 10
112.6439425716654
 20
-150.7139702314187
 30
0.0
 10
112.6439425716654
 20
-150.3077934737078
 30
0.0
 10
112.6439425716654
 20
-150.3077934737078
 30
0.0
 10
112.4620415300442
 20
-150.4325059302738
 30
0.0
 10
112.2673936351276
 20
-150.5427489858018
 30
0.0
 10
112.0641330014979
 20
-150.6292208824816
 30
0.0
 10
112.0641330014979
 20
-150.6292208824816
 30
0.0
 10
111.8612168774167
 20
-150.4662678660293
 30
0.0
 10
111.8612168774167
 20
-150.4662678660293
 30
0.0
 10
111.9838622766915
 20
-150.4304388729827
 30
0.0
 10
112.2398328712456
 20
-150.3563693200498
 30
0.0
 10
112.5846869293191
 20
-150.1003987254958
 30
0.0
 10
112.8003499066958
 20
-149.9419243331743
 30
0.0
 10
112.9929307443212
 20
-149.7534776101311
 30
0.0
 10
113.1452039647693
 20
-149.5333360086236
 30
0.0
 10
113.1452039647693
 20
-149.5333360086236
 30
0.0
 10
113.3377848023947
 20
-149.6773409999071
 30
0.0
 10
113.3377848023947
 20
-149.6773409999071
 30
0.0
 10
113.3505316556901
 20
-149.6880207959113
 30
0.0
 10
113.3587998848547
 20
-149.7028347064979
 30
0.0
 10
113.3587998848547
 20
-149.7155815597933
 30
0.0
 10
113.3587998848547
 20
-149.7555446674222
 30
0.0
 10
113.320903834517
 20
-149.7555446674222
 30
0.0
 10
113.2551025107487
 20
-149.7600232915531
 30
0.0
  0
HATCH
  5
FE
330
F2
100
AcDbEntity
  8
_U+30EC_U+30A4_U+30E4_U+30FC 1
 62
   179
420
  2234388
100
AcDbHatch
 10
0.0
 20
0.0
 30
0.0
210
0.0
220
0.0
230
1.0
  2
SOLID
 70
     1
 71
     0
 91
        1
 92
        1
 93
        1
 72
     4
 94
        3
 73
     0
 74
     1
 95
       50
 96
       46
 40
0.0
 40
0.0
 40
0.0
 40
0.0
 40
1.0
 40
1.0
 40
1.0
 40
2.0
 40
2.0
 40
2.0
 40
3.0
 40
3.0
 40
3.0
 40
4.0
 40
4.0
 40
4.0
 40
5.0
 40
5.0
 40
5.0
 40
6.0
 40
6.0
 40
6.0
 40
7.0
 40
7.0
 40
7.0
 40
8.0
 40
8.0
 40
8.0
 40
9.0
 40
9.0
 40
9.0
 40
10.0
 40
10.0
 40
10.0
 40
11.0
 40
11.0
 40
11.0
 40
12.0
 40
12.0
 40
12.0
 40
13.0
 40
13.0
 40
13.0
 40
14.0
 40
14.0
 40
14.0
 40
15.0
 40
15.0
 40
15.0
 40
15.0
 10
113.2551025107487
 20
-149.7600232915531
 10
113.0456407052455
 20
-149.9736192116385
 10
112.9739827191523
 20
-150.0456217072803
 10
112.8320447851601
 20
-150.1637884824243
 10
112.8320447851601
 20
-150.1637884824243
 10
112.8320447851601
 20
-150.7308511992965
 10
112.8320447851601
 20
-150.7308511992965
 10
112.8320447851601
 20
-150.8810573624534
 10
112.838590466582
 20
-150.9000053876222
 10
112.8427245811643
 20
-151.0777723146611
 10
112.8447916384555
 20
-151.2090304526491
 10
112.8509928103289
 20
-151.2576062989912
 10
112.8575384917509
 20
-151.3168619413375
 10
112.8575384917509
 20
-151.3168619413375
 10
112.63119571837
 20
-151.3168619413375
 10
112.63119571837
 20
-151.3168619413375
 10
112.6353298329523
 20
-151.2724202095777
 10
112.6394639475346
 20
-151.2259114205269
 10
112.6394639475346
 20
-151.2172986818137
 10
112.6394639475346
 20
-151.1370279570074
 10
112.6439425716654
 20
-150.7859727270605
 10
112.6439425716654
 20
-150.7139702314187
 10
112.6439425716654
 20
-150.7139702314187
 10
112.6439425716654
 20
-150.3077934737078
 10
112.6439425716654
 20
-150.3077934737078
 10
112.4620415300442
 20
-150.4325059302738
 10
112.2673936351276
 20
-150.5427489858018
 10
112.0641330014979
 20
-150.6292208824816
 10
112.0641330014979
 20
-150.6292208824816
 10
111.8612168774167
 20
-150.4662678660293
 10
111.8612168774167
 20
-150.4662678660293
 10
111.9838622766915
 20
-150.4304388729827
 10
112.2398328712456
 20
-150.3563693200498
 10
112.5846869293191
 20
-150.1003987254958
 10
112.8003499066958
 20
-149.9419243331743
 10
112.9929307443212
 20
-149.7534776101311
 10
113.1452039647693
 20
-149.5333360086236
 10
113.1452039647693
 20
-149.5333360086236
 10
113.3377848023947
 20
-149.6773409999071
 10
113.3377848023947
 20
-149.6773409999071
 10
113.3505316556901
 20
-149.6880207959113
 10
113.3587998848547
 20
-149.7028347064979
 10
113.3587998848547
 20
-149.7155815597933
 10
113.3587998848547
 20
-149.7555446674222
 10
113.320903834517
 20
-149.7555446674222
 10
113.2551025107487
 20
-149.7600232915531
 97
        0
 97
        0
 75
     2
 76
     1
 98
        0
  0
SPLINE
  5
FF
330
F2
100
AcDbEntity
  8
_U+30EC_U+30A4_U+30E4_U+30FC 1
370
     0
100
AcDbSpline
210
0.0
220
0.0
230
1.0
 70
    11
 71
     3
 72
    50
 73
    46
 74
     0
 42
0.0000000001
 43
0.0000000001
 12
1.0
 22
0.0
 32
0.0
 13
1.0
 23
0.0
 33
0.0
 40
0.0
 40
0.0
 40
0.0
 40
0.0
 40
1.0
 40
1.0
 40
1.0
 40
2.0
 40
2.0
 40
2.0
 40
3.0
 40
3.0
 40
3.0
 40
4.0
 40
4.0
 40
4.0
 40
5.0
 40
5.0
 40
5.0
 40
6.0
 40
6.0
 40
6.0
 40
7.0
 40
7.0
 40
7.0
 40
8.0
 40
8.0
 40
8.0
 40
9.0
 40
9.0
 40
9.0
 40
10.0
 40
10.0
 40
10.0
 40
11.0
 40
11.0
 40
11.0
 40
12.0
 40
12.0
 40
12.0
 40
13.0
 40
13.0
 40
13.0
 40
14.0
 40
14.0
 40
14.0
 40
15.0
 40
15.0
 40
15.0
 40
15.0
 10
114.9655924191753
 20
-150.2867783912478
 30
0.0
 10
114.9042697195378
 20
-150.358436377341
 30
0.0
 10
114.6438205008529
 20
-150.6757296715325
 30
0.0
 10
114.5869764253463
 20
-150.7394639380096
 30
0.0
 10
114.6713812647349
 20
-150.8366156306936
 30
0.0
 10
114.7223686779166
 20
-150.9000053876222
 30
0.0
 10
114.7878254921364
 20
-150.9909559084328
 30
0.0
 10
114.7878254921364
 20
-150.9909559084328
 30
0.0
 10
114.603857393224
 20
-151.1287597278428
 30
0.0
 10
114.603857393224
 20
-151.1287597278428
 30
0.0
 10
114.4684651406537
 20
-150.9168863554999
 30
0.0
 10
114.2968993854883
 20
-150.6929551489587
 30
0.0
 10
114.0030327405965
 20
-150.4938286299113
 30
0.0
 10
114.0030327405965
 20
-150.4938286299113
 30
0.0
 10
114.1511718464622
 20
-150.3394883521721
 30
0.0
 10
114.1511718464622
 20
-150.3394883521721
 30
0.0
 10
114.2610703924417
 20
-150.4197590769784
 30
0.0
 10
114.3647677665477
 20
-150.5086425404978
 30
0.0
 10
114.4619194592318
 20
-150.6040716854393
 30
0.0
 10
114.5297878402912
 20
-150.5279350752153
 30
0.0
 10
114.7327039643724
 20
-150.2843668244081
 30
0.0
 10
114.8660291596516
 20
-150.055956993736
 30
0.0
 10
114.8660291596516
 20
-150.055956993736
 30
0.0
 10
114.1932020113823
 20
-150.055956993736
 30
0.0
 10
114.1932020113823
 20
-150.055956993736
 30
0.0
 10
114.0684895548162
 20
-150.055956993736
 30
0.0
 10
113.8166530748445
 20
-150.0645697324491
 30
0.0
 10
113.6071912693413
 20
-150.0749050189049
 30
0.0
 10
113.6071912693413
 20
-150.0749050189049
 30
0.0
 10
113.6071912693413
 20
-149.8551079269459
 30
0.0
 10
113.6071912693413
 20
-149.8551079269459
 30
0.0
 10
113.7915038778021
 20
-149.8740559521148
 30
0.0
 10
113.9964870591745
 20
-149.8781900666971
 30
0.0
 10
114.1849337822177
 20
-149.8781900666971
 30
0.0
 10
114.1849337822177
 20
-149.8781900666971
 30
0.0
 10
114.6882622326127
 20
-149.8781900666971
 30
0.0
 10
114.6882622326127
 20
-149.8781900666971
 30
0.0
 10
115.0269151188127
 20
-149.8781900666971
 30
0.0
 10
115.0713568505724
 20
-149.8633761561105
 30
0.0
 10
115.1536946326699
 20
-149.8234130484817
 30
0.0
 10
115.1536946326699
 20
-149.8234130484817
 30
0.0
 10
115.3207817637045
 20
-149.9818874408031
 30
0.0
 10
115.3207817637045
 20
-149.9818874408031
 30
0.0
 10
115.1685085432565
 20
-150.0538899364449
 30
0.0
 10
115.0248480615216
 20
-150.2168429528972
 30
0.0
 10
114.9655924191753
 20
-150.2867783912478
 30
0.0
  0
HATCH
  5
100
330
F2
100
AcDbEntity
  8
_U+30EC_U+30A4_U+30E4_U+30FC 1
 62
   179
420
  2234388
100
AcDbHatch
 10
0.0
 20
0.0
 30
0.0
210
0.0
220
0.0
230
1.0
  2
SOLID
 70
     1
 71
     0
 91
        1
 92
        1
 93
        1
 72
     4
 94
        3
 73
     0
 74
     1
 95
       50
 96
       46
 40
0.0
 40
0.0
 40
0.0
 40
0.0
 40
1.0
 40
1.0
 40
1.0
 40
2.0
 40
2.0
 40
2.0
 40
3.0
 40
3.0
 40
3.0
 40
4.0
 40
4.0
 40
4.0
 40
5.0
 40
5.0
 40
5.0
 40
6.0
 40
6.0
 40
6.0
 40
7.0
 40
7.0
 40
7.0
 40
8.0
 40
8.0
 40
8.0
 40
9.0
 40
9.0
 40
9.0
 40
10.0
 40
10.0
 40
10.0
 40
11.0
 40
11.0
 40
11.0
 40
12.0
 40
12.0
 40
12.0
 40
13.0
 40
13.0
 40
13.0
 40
14.0
 40
14.0
 40
14.0
 40
15.0
 40
15.0
 40
15.0
 40
15.0
 10
114.9655924191753
 20
-150.2867783912478
 10
114.9042697195378
 20
-150.358436377341
 10
114.6438205008529
 20
-150.6757296715325
 10
114.5869764253463
 20
-150.7394639380096
 10
114.6713812647349
 20
-150.8366156306936
 10
114.7223686779166
 20
-150.9000053876222
 10
114.7878254921364
 20
-150.9909559084328
 10
114.7878254921364
 20
-150.9909559084328
 10
114.603857393224
 20
-151.1287597278428
 10
114.603857393224
 20
-151.1287597278428
 10
114.4684651406537
 20
-150.9168863554999
 10
114.2968993854883
 20
-150.6929551489587
 10
114.0030327405965
 20
-150.4938286299113
 10
114.0030327405965
 20
-150.4938286299113
 10
114.1511718464622
 20
-150.3394883521721
 10
114.1511718464622
 20
-150.3394883521721
 10
114.2610703924417
 20
-150.4197590769784
 10
114.3647677665477
 20
-150.5086425404978
 10
114.4619194592318
 20
-150.6040716854393
 10
114.5297878402912
 20
-150.5279350752153
 10
114.7327039643724
 20
-150.2843668244081
 10
114.8660291596516
 20
-150.055956993736
 10
114.8660291596516
 20
-150.055956993736
 10
114.1932020113823
 20
-150.055956993736
 10
114.1932020113823
 20
-150.055956993736
 10
114.0684895548162
 20
-150.055956993736
 10
113.8166530748445
 20
-150.0645697324491
 10
113.6071912693413
 20
-150.0749050189049
 10
113.6071912693413
 20
-150.0749050189049
 10
113.6071912693413
 20
-149.8551079269459
 10
113.6071912693413
 20
-149.8551079269459
 10
113.7915038778021
 20
-149.8740559521148
 10
113.9964870591745
 20
-149.8781900666971
 10
114.1849337822177
 20
-149.8781900666971
 10
114.1849337822177
 20
-149.8781900666971
 10
114.6882622326127
 20
-149.8781900666971
 10
114.6882622326127
 20
-149.8781900666971
 10
115.0269151188127
 20
-149.8781900666971
 10
115.0713568505724
 20
-149.8633761561105
 10
115.1536946326699
 20
-149.8234130484817
 10
115.1536946326699
 20
-149.8234130484817
 10
115.3207817637045
 20
-149.9818874408031
 10
115.3207817637045
 20
-149.9818874408031
 10
115.1685085432565
 20
-150.0538899364449
 10
115.0248480615216
 20
-150.2168429528972
 10
114.9655924191753
 20
-150.2867783912478
 97
        0
 97
        0
 75
     2
 76
     1
 98
        0
  0
SPLINE
  5
101
330
F2
100
AcDbEntity
  8
_U+30EC_U+30A4_U+30E4_U+30FC 1
370
     0
100
AcDbSpline
210
0.0
220
0.0
230
1.0
 70
    11
 71
     3
 72
    29
 73
    25
 74
     0
 42
0.0000000001
 43
0.0000000001
 12
1.0
 22
0.0
 32
0.0
 13
1.0
 23
0.0
 33
0.0
 40
0.0
 40
0.0
 40
0.0
 40
0.0
 40
1.0
 40
1.0
 40
1.0
 40
2.0
 40
2.0
 40
2.0
 40
3.0
 40
3.0
 40
3.0
 40
4.0
 40
4.0
 40
4.0
 40
5.0
 40
5.0
 40
5.0
 40
6.0
 40
6.0
 40
6.0
 40
7.0
 40
7.0
 40
7.0
 40
8.0
 40
8.0
 40
8.0
 40
8.0
 10
116.588921411825
 20
-150.5300021325064
 30
0.0
 10
116.588921411825
 20
-150.5300021325064
 30
0.0
 10
116.1045409865989
 20
-150.5300021325064
 30
0.0
 10
116.1045409865989
 20
-150.5300021325064
 30
0.0
 10
116.0769802227169
 20
-150.5300021325064
 30
0.0
 10
115.7596869285254
 20
-150.5300021325064
 30
0.0
 10
115.548158065731
 20
-150.5551513295487
 30
0.0
 10
115.548158065731
 20
-150.5551513295487
 30
0.0
 10
115.548158065731
 20
-150.3246744415855
 30
0.0
 10
115.548158065731
 20
-150.3246744415855
 30
0.0
 10
115.7066324580525
 20
-150.3481010908852
 30
0.0
 10
115.8971462383868
 20
-150.3501681481764
 30
0.0
 10
116.1045409865989
 20
-150.3501681481764
 30
0.0
 10
116.1045409865989
 20
-150.3501681481764
 30
0.0
 10
116.588921411825
 20
-150.3501681481764
 30
0.0
 10
116.588921411825
 20
-150.3501681481764
 30
0.0
 10
116.7749565680285
 20
-150.3501681481764
 30
0.0
 10
116.9613362337805
 20
-150.3481010908852
 30
0.0
 10
117.1453043326928
 20
-150.3246744415855
 30
0.0
 10
117.1453043326928
 20
-150.3246744415855
 30
0.0
 10
117.1453043326928
 20
-150.5551513295487
 30
0.0
 10
117.1453043326928
 20
-150.5551513295487
 30
0.0
 10
116.9613362337805
 20
-150.5320691897975
 30
0.0
 10
116.713633868391
 20
-150.5300021325064
 30
0.0
 10
116.588921411825
 20
-150.5300021325064
 30
0.0
  0
HATCH
  5
102
330
F2
100
AcDbEntity
  8
_U+30EC_U+30A4_U+30E4_U+30FC 1
 62
   179
420
  2234388
100
AcDbHatch
 10
0.0
 20
0.0
 30
0.0
210
0.0
220
0.0
230
1.0
  2
SOLID
 70
     1
 71
     0
 91
        1
 92
        1
 93
        1
 72
     4
 94
        3
 73
     0
 74
     1
 95
       29
 96
       25
 40
0.0
 40
0.0
 40
0.0
 40
0.0
 40
1.0
 40
1.0
 40
1.0
 40
2.0
 40
2.0
 40
2.0
 40
3.0
 40
3.0
 40
3.0
 40
4.0
 40
4.0
 40
4.0
 40
5.0
 40
5.0
 40
5.0
 40
6.0
 40
6.0
 40
6.0
 40
7.0
 40
7.0
 40
7.0
 40
8.0
 40
8.0
 40
8.0
 40
8.0
 10
116.588921411825
 20
-150.5300021325064
 10
116.588921411825
 20
-150.5300021325064
 10
116.1045409865989
 20
-150.5300021325064
 10
116.1045409865989
 20
-150.5300021325064
 10
116.0769802227169
 20
-150.5300021325064
 10
115.7596869285254
 20
-150.5300021325064
 10
115.548158065731
 20
-150.5551513295487
 10
115.548158065731
 20
-150.5551513295487
 10
115.548158065731
 20
-150.3246744415855
 10
115.548158065731
 20
-150.3246744415855
 10
115.7066324580525
 20
-150.3481010908852
 10
115.8971462383868
 20
-150.3501681481764
 10
116.1045409865989
 20
-150.3501681481764
 10
116.1045409865989
 20
-150.3501681481764
 10
116.588921411825
 20
-150.3501681481764
 10
116.588921411825
 20
-150.3501681481764
 10
116.7749565680285
 20
-150.3501681481764
 10
116.9613362337805
 20
-150.3481010908852
 10
117.1453043326928
 20
-150.3246744415855
 10
117.1453043326928
 20
-150.3246744415855
 10
117.1453043326928
 20
-150.5551513295487
 10
117.1453043326928
 20
-150.5551513295487
 10
116.9613362337805
 20
-150.5320691897975
 10
116.713633868391
 20
-150.5300021325064
 10
116.588921411825
 20
-150.5300021325064
 97
        0
 97
        0
 75
     2
 76
     1
 98
        0
  0
SPLINE
  5
103
330
F2
100
AcDbEntity
  8
_U+30EC_U+30A4_U+30E4_U+30FC 1
370
     0
100
AcDbSpline
210
0.0
220
0.0
230
1.0
 70
    11
 71
     3
 72
    53
 73
    49
 74
     0
 42
0.0000000001
 43
0.0000000001
 12
1.0
 22
0.0
 32
0.0
 13
1.0
 23
0.0
 33
0.0
 40
0.0
 40
0.0
 40
0.0
 40
0.0
 40
1.0
 40
1.0
 40
1.0
 40
2.0
 40
2.0
 40
2.0
 40
3.0
 40
3.0
 40
3.0
 40
4.0
 40
4.0
 40
4.0
 40
5.0
 40
5.0
 40
5.0
 40
6.0
 40
6.0
 40
6.0
 40
7.0
 40
7.0
 40
7.0
 40
8.0
 40
8.0
 40
8.0
 40
9.0
 40
9.0
 40
9.0
 40
10.0
 40
10.0
 40
10.0
 40
11.0
 40
11.0
 40
11.0
 40
12.0
 40
12.0
 40
12.0
 40
13.0
 40
13.0
 40
13.0
 40
14.0
 40
14.0
 40
14.0
 40
15.0
 40
15.0
 40
15.0
 40
16.0
 40
16.0
 40
16.0
 40
16.0
 10
118.0076117326509
 20
-149.656325917447
 30
0.0
 10
117.94008786114
 20
-149.8085991378951
 30
0.0
 10
117.8977131866714
 20
-149.8868028054102
 30
0.0
 10
117.8594726267851
 20
-149.9543266769211
 30
0.0
 10
117.9018473012537
 20
-149.9756862689297
 30
0.0
 10
117.905981415836
 20
-149.9777533262208
 30
0.0
 10
117.905981415836
 20
-149.9925672368074
 30
0.0
 10
117.905981415836
 20
-150.0053140901028
 30
0.0
 10
117.8722194800806
 20
-150.0390760258583
 30
0.0
 10
117.8615396840763
 20
-150.0476887645714
 30
0.0
 10
117.8594726267851
 20
-150.2444037167792
 30
0.0
 10
117.8594726267851
 20
-150.2654187992392
 30
0.0
 10
117.8594726267851
 20
-150.3987439945184
 30
0.0
 10
117.857405569494
 20
-150.4114908478138
 30
0.0
 10
117.857405569494
 20
-150.4263047584004
 30
0.0
 10
117.857405569494
 20
-150.4411186689869
 30
0.0
 10
117.857405569494
 20
-150.4411186689869
 30
0.0
 10
117.857405569494
 20
-150.9761419978462
 30
0.0
 10
117.857405569494
 20
-150.9761419978462
 30
0.0
 10
117.857405569494
 20
-151.048144493488
 30
0.0
 10
117.8615396840763
 20
-151.283100005582
 30
0.0
 10
117.8701524227894
 20
-151.3929985515615
 30
0.0
 10
117.8701524227894
 20
-151.3929985515615
 30
0.0
 10
117.6269286815308
 20
-151.3929985515615
 30
0.0
 10
117.6269286815308
 20
-151.3929985515615
 30
0.0
 10
117.650010821282
 20
-151.23452415924
 30
0.0
 10
117.6565565027039
 20
-150.9933674752725
 30
0.0
 10
117.6565565027039
 20
-150.972007883264
 30
0.0
 10
117.6565565027039
 20
-150.972007883264
 30
0.0
 10
117.6565565027039
 20
-150.2547390032349
 30
0.0
 10
117.6565565027039
 20
-150.2547390032349
 30
0.0
 10
117.5656059818933
 20
-150.3691161733452
 30
0.0
 10
117.5042832822559
 20
-150.4283718156915
 30
0.0
 10
117.4619086077873
 20
-150.4707464901601
 30
0.0
 10
117.4619086077873
 20
-150.4707464901601
 30
0.0
 10
117.271394827453
 20
-150.3332871802986
 30
0.0
 10
117.271394827453
 20
-150.3332871802986
 30
0.0
 10
117.5528591285979
 20
-150.1172796933735
 30
0.0
 10
117.7454399662234
 20
-149.8085991378951
 30
0.0
 10
117.857405569494
 20
-149.4720133089862
 30
0.0
 10
117.857405569494
 20
-149.4720133089862
 30
0.0
 10
118.0775471710015
 20
-149.5863904790965
 30
0.0
 10
118.0775471710015
 20
-149.5863904790965
 30
0.0
 10
118.0902940242969
 20
-149.5925916509699
 30
0.0
 10
118.0985622534615
 20
-149.5970702751007
 30
0.0
 10
118.0985622534615
 20
-149.6118841856873
 30
0.0
 10
118.0985622534615
 20
-149.6370333827296
 30
0.0
 10
118.0816812855838
 20
-149.6415120068605
 30
0.0
 10
118.0076117326509
 20
-149.656325917447
 30
0.0
  0
SPLINE
  5
104
330
F2
100
AcDbEntity
  8
_U+30EC_U+30A4_U+30E4_U+30FC 1
370
     0
100
AcDbSpline
210
0.0
220
0.0
230
1.0
 70
    11
 71
     3
 72
    77
 73
    73
 74
     0
 42
0.0000000001
 43
0.0000000001
 12
1.0
 22
0.0
 32
0.0
 13
1.0
 23
0.0
 33
0.0
 40
0.0
 40
0.0
 40
0.0
 40
0.0
 40
1.0
 40
1.0
 40
1.0
 40
2.0
 40
2.0
 40
2.0
 40
3.0
 40
3.0
 40
3.0
 40
4.0
 40
4.0
 40
4.0
 40
5.0
 40
5.0
 40
5.0
 40
6.0
 40
6.0
 40
6.0
 40
7.0
 40
7.0
 40
7.0
 40
8.0
 40
8.0
 40
8.0
 40
9.0
 40
9.0
 40
9.0
 40
10.0
 40
10.0
 40
10.0
 40
11.0
 40
11.0
 40
11.0
 40
12.0
 40
12.0
 40
12.0
 40
13.0
 40
13.0
 40
13.0
 40
14.0
 40
14.0
 40
14.0
 40
15.0
 40
15.0
 40
15.0
 40
16.0
 40
16.0
 40
16.0
 40
17.0
 40
17.0
 40
17.0
 40
18.0
 40
18.0
 40
18.0
 40
19.0
 40
19.0
 40
19.0
 40
20.0
 40
20.0
 40
20.0
 40
21.0
 40
21.0
 40
21.0
 40
22.0
 40
22.0
 40
22.0
 40
23.0
 40
23.0
 40
23.0
 40
24.0
 40
24.0
 40
24.0
 40
24.0
 10
119.1586181342729
 20
-150.1555202532597
 30
0.0
 10
119.0886826959223
 20
-150.1513861386775
 30
0.0
 10
119.0208143148629
 20
-150.1513861386775
 30
0.0
 10
118.953290443352
 20
-150.1513861386775
 30
0.0
 10
118.953290443352
 20
-150.1513861386775
 30
0.0
 10
118.953290443352
 20
-150.9254990942131
 30
0.0
 10
118.953290443352
 20
-150.9254990942131
 30
0.0
 10
118.953290443352
 20
-151.1900824274803
 30
0.0
 10
118.9512233860608
 20
-151.2197102486534
 30
0.0
 10
118.9446777046388
 20
-151.2493380698266
 30
0.0
 10
118.9109157688834
 20
-151.3823187555572
 30
0.0
 10
118.8092854520685
 20
-151.3909314942703
 30
0.0
 10
118.6339300918693
 20
-151.3909314942703
 30
0.0
 10
118.5936224746919
 20
-151.3909314942703
 30
0.0
 10
118.5767415068142
 20
-151.3909314942703
 30
0.0
 10
118.5364338896367
 20
-151.386797379688
 30
0.0
 10
118.5364338896367
 20
-151.386797379688
 30
0.0
 10
118.4117214330707
 20
-151.1456406957205
 30
0.0
 10
118.4117214330707
 20
-151.1456406957205
 30
0.0
 10
118.5281656604721
 20
-151.1773355741848
 30
0.0
 10
118.6105034425696
 20
-151.1773355741848
 30
0.0
 10
118.6339300918693
 20
-151.1773355741848
 30
0.0
 10
118.7035210206713
 20
-151.1773355741848
 30
0.0
 10
118.7376274659753
 20
-151.1604546063071
 30
0.0
 10
118.7417615805576
 20
-151.103266021252
 30
0.0
 10
118.7417615805576
 20
-151.0905191679566
 30
0.0
 10
118.7438286378488
 20
-150.9933674752725
 30
0.0
 10
118.7438286378488
 20
-150.9361788902173
 30
0.0
 10
118.7438286378488
 20
-150.9361788902173
 30
0.0
 10
118.7438286378488
 20
-150.1489745718378
 30
0.0
 10
118.7438286378488
 20
-150.1489745718378
 30
0.0
 10
118.7438286378488
 20
-150.1489745718378
 30
0.0
 10
118.4496174834084
 20
-150.1489745718378
 30
0.0
 10
118.4496174834084
 20
-150.1489745718378
 30
0.0
 10
118.3038899443824
 20
-150.1489745718378
 30
0.0
 10
118.1578178958078
 20
-150.1555202532597
 30
0.0
 10
118.0138129045243
 20
-150.1682671065552
 30
0.0
 10
118.0138129045243
 20
-150.1682671065552
 30
0.0
 10
118.0138129045243
 20
-149.9608723583431
 30
0.0
 10
118.0138129045243
 20
-149.9608723583431
 30
0.0
 10
118.1640190676812
 20
-149.9736192116385
 30
0.0
 10
118.3820936118975
 20
-149.9777533262208
 30
0.0
 10
118.4496174834084
 20
-149.9777533262208
 30
0.0
 10
118.4496174834084
 20
-149.9777533262208
 30
0.0
 10
118.7438286378488
 20
-149.9777533262208
 30
0.0
 10
118.7438286378488
 20
-149.9777533262208
 30
0.0
 10
118.7417615805576
 20
-149.7090358783714
 30
0.0
 10
118.7417615805576
 20
-149.6328992681473
 30
0.0
 10
118.7331488418445
 20
-149.4847601622816
 30
0.0
 10
118.7331488418445
 20
-149.4847601622816
 30
0.0
 10
118.9911864936897
 20
-149.5230007221679
 30
0.0
 10
118.9911864936897
 20
-149.5230007221679
 30
0.0
 10
119.0060004042763
 20
-149.525067779459
 30
0.0
 10
119.0208143148629
 20
-149.5312689513325
 30
0.0
 10
119.0208143148629
 20
-149.552628543341
 30
0.0
 10
119.0208143148629
 20
-149.5715765685099
 30
0.0
 10
119.0146131429894
 20
-149.5736436258011
 30
0.0
 10
118.9574245579343
 20
-149.6074055615565
 30
0.0
 10
118.953290443352
 20
-149.6859537386202
 30
0.0
 10
118.953290443352
 20
-149.7007676492068
 30
0.0
 10
118.953290443352
 20
-149.9777533262208
 30
0.0
 10
119.1310573703908
 20
-149.9736192116385
 30
0.0
 10
119.1500053955597
 20
-149.9736192116385
 30
0.0
 10
119.1837673313152
 20
-149.9691405875077
 30
0.0
 10
119.2347547444969
 20
-149.9650064729254
 30
0.0
 10
119.2388888590792
 20
-149.9629394156343
 30
0.0
 10
119.2833305908389
 20
-149.9608723583431
 30
0.0
 10
119.2833305908389
 20
-149.9608723583431
 30
0.0
 10
119.2833305908389
 20
-150.1682671065552
 30
0.0
 10
119.2833305908389
 20
-150.1682671065552
 30
0.0
 10
119.2537027696658
 20
-150.166200049264
 30
0.0
 10
119.1985812419017
 20
-150.1575873105509
 30
0.0
 10
119.1586181342729
 20
-150.1555202532597
 30
0.0
  0
SPLINE
  5
105
330
F2
100
AcDbEntity
  8
_U+30EC_U+30A4_U+30E4_U+30FC 1
370
     0
100
AcDbSpline
210
0.0
220
0.0
230
1.0
 70
    11
 71
     3
 72
    20
 73
    16
 74
     0
 42
0.0000000001
 43
0.0000000001
 12
1.0
 22
0.0
 32
0.0
 13
1.0
 23
0.0
 33
0.0
 40
0.0
 40
0.0
 40
0.0
 40
0.0
 40
1.0
 40
1.0
 40
1.0
 40
2.0
 40
2.0
 40
2.0
 40
3.0
 40
3.0
 40
3.0
 40
4.0
 40
4.0
 40
4.0
 40
5.0
 40
5.0
 40
5.0
 40
5.0
 10
118.388294783771
 20
-150.8810573624534
 30
0.0
 10
118.3417859947201
 20
-150.7032904354145
 30
0.0
 10
118.2446343020361
 20
-150.5616970109707
 30
0.0
 10
118.1051079348834
 20
-150.4517984649912
 30
0.0
 10
118.1051079348834
 20
-150.4517984649912
 30
0.0
 10
118.2656493844961
 20
-150.3374212948809
 30
0.0
 10
118.2656493844961
 20
-150.3374212948809
 30
0.0
 10
118.3269720841335
 20
-150.3797959693495
 30
0.0
 10
118.367279701311
 20
-150.4135579051049
 30
0.0
 10
118.443416311535
 20
-150.5213893937933
 30
0.0
 10
118.5236870363413
 20
-150.6378336211947
 30
0.0
 10
118.5450466283499
 20
-150.690543582119
 30
0.0
 10
118.5701958253922
 20
-150.7563449058873
 30
0.0
 10
118.5701958253922
 20
-150.7563449058873
 30
0.0
 10
118.388294783771
 20
-150.8810573624534
 30
0.0
 10
118.388294783771
 20
-150.8810573624534
 30
0.0
  0
HATCH
  5
106
330
F2
100
AcDbEntity
  8
_U+30EC_U+30A4_U+30E4_U+30FC 1
 62
   179
420
  2234388
100
AcDbHatch
 10
0.0
 20
0.0
 30
0.0
210
0.0
220
0.0
230
1.0
  2
SOLID
 70
     1
 71
     0
 91
        3
 92
        1
 93
        1
 72
     4
 94
        3
 73
     0
 74
     1
 95
       53
 96
       49
 40
0.0
 40
0.0
 40
0.0
 40
0.0
 40
1.0
 40
1.0
 40
1.0
 40
2.0
 40
2.0
 40
2.0
 40
3.0
 40
3.0
 40
3.0
 40
4.0
 40
4.0
 40
4.0
 40
5.0
 40
5.0
 40
5.0
 40
6.0
 40
6.0
 40
6.0
 40
7.0
 40
7.0
 40
7.0
 40
8.0
 40
8.0
 40
8.0
 40
9.0
 40
9.0
 40
9.0
 40
10.0
 40
10.0
 40
10.0
 40
11.0
 40
11.0
 40
11.0
 40
12.0
 40
12.0
 40
12.0
 40
13.0
 40
13.0
 40
13.0
 40
14.0
 40
14.0
 40
14.0
 40
15.0
 40
15.0
 40
15.0
 40
16.0
 40
16.0
 40
16.0
 40
16.0
 10
118.0076117326509
 20
-149.656325917447
 10
117.94008786114
 20
-149.8085991378951
 10
117.8977131866714
 20
-149.8868028054102
 10
117.8594726267851
 20
-149.9543266769211
 10
117.9018473012537
 20
-149.9756862689297
 10
117.905981415836
 20
-149.9777533262208
 10
117.905981415836
 20
-149.9925672368074
 10
117.905981415836
 20
-150.0053140901028
 10
117.8722194800806
 20
-150.0390760258583
 10
117.8615396840763
 20
-150.0476887645714
 10
117.8594726267851
 20
-150.2444037167792
 10
117.8594726267851
 20
-150.2654187992392
 10
117.8594726267851
 20
-150.3987439945184
 10
117.857405569494
 20
-150.4114908478138
 10
117.857405569494
 20
-150.4263047584004
 10
117.857405569494
 20
-150.4411186689869
 10
117.857405569494
 20
-150.4411186689869
 10
117.857405569494
 20
-150.9761419978462
 10
117.857405569494
 20
-150.9761419978462
 10
117.857405569494
 20
-151.048144493488
 10
117.8615396840763
 20
-151.283100005582
 10
117.8701524227894
 20
-151.3929985515615
 10
117.8701524227894
 20
-151.3929985515615
 10
117.6269286815308
 20
-151.3929985515615
 10
117.6269286815308
 20
-151.3929985515615
 10
117.650010821282
 20
-151.23452415924
 10
117.6565565027039
 20
-150.9933674752725
 10
117.6565565027039
 20
-150.972007883264
 10
117.6565565027039
 20
-150.972007883264
 10
117.6565565027039
 20
-150.2547390032349
 10
117.6565565027039
 20
-150.2547390032349
 10
117.5656059818933
 20
-150.3691161733452
 10
117.5042832822559
 20
-150.4283718156915
 10
117.4619086077873
 20
-150.4707464901601
 10
117.4619086077873
 20
-150.4707464901601
 10
117.271394827453
 20
-150.3332871802986
 10
117.271394827453
 20
-150.3332871802986
 10
117.5528591285979
 20
-150.1172796933735
 10
117.7454399662234
 20
-149.8085991378951
 10
117.857405569494
 20
-149.4720133089862
 10
117.857405569494
 20
-149.4720133089862
 10
118.0775471710015
 20
-149.5863904790965
 10
118.0775471710015
 20
-149.5863904790965
 10
118.0902940242969
 20
-149.5925916509699
 10
118.0985622534615
 20
-149.5970702751007
 10
118.0985622534615
 20
-149.6118841856873
 10
118.0985622534615
 20
-149.6370333827296
 10
118.0816812855838
 20
-149.6415120068605
 10
118.0076117326509
 20
-149.656325917447
 97
        0
 97
        0
 92
        1
 93
        1
 72
     4
 94
        3
 73
     0
 74
     1
 95
       77
 96
       73
 40
0.0
 40
0.0
 40
0.0
 40
0.0
 40
1.0
 40
1.0
 40
1.0
 40
2.0
 40
2.0
 40
2.0
 40
3.0
 40
3.0
 40
3.0
 40
4.0
 40
4.0
 40
4.0
 40
5.0
 40
5.0
 40
5.0
 40
6.0
 40
6.0
 40
6.0
 40
7.0
 40
7.0
 40
7.0
 40
8.0
 40
8.0
 40
8.0
 40
9.0
 40
9.0
 40
9.0
 40
10.0
 40
10.0
 40
10.0
 40
11.0
 40
11.0
 40
11.0
 40
12.0
 40
12.0
 40
12.0
 40
13.0
 40
13.0
 40
13.0
 40
14.0
 40
14.0
 40
14.0
 40
15.0
 40
15.0
 40
15.0
 40
16.0
 40
16.0
 40
16.0
 40
17.0
 40
17.0
 40
17.0
 40
18.0
 40
18.0
 40
18.0
 40
19.0
 40
19.0
 40
19.0
 40
20.0
 40
20.0
 40
20.0
 40
21.0
 40
21.0
 40
21.0
 40
22.0
 40
22.0
 40
22.0
 40
23.0
 40
23.0
 40
23.0
 40
24.0
 40
24.0
 40
24.0
 40
24.0
 10
119.1586181342729
 20
-150.1555202532597
 10
119.0886826959223
 20
-150.1513861386775
 10
119.0208143148629
 20
-150.1513861386775
 10
118.953290443352
 20
-150.1513861386775
 10
118.953290443352
 20
-150.1513861386775
 10
118.953290443352
 20
-150.9254990942131
 10
118.953290443352
 20
-150.9254990942131
 10
118.953290443352
 20
-151.1900824274803
 10
118.9512233860608
 20
-151.2197102486534
 10
118.9446777046388
 20
-151.2493380698266
 10
118.9109157688834
 20
-151.3823187555572
 10
118.8092854520685
 20
-151.3909314942703
 10
118.6339300918693
 20
-151.3909314942703
 10
118.5936224746919
 20
-151.3909314942703
 10
118.5767415068142
 20
-151.3909314942703
 10
118.5364338896367
 20
-151.386797379688
 10
118.5364338896367
 20
-151.386797379688
 10
118.4117214330707
 20
-151.1456406957205
 10
118.4117214330707
 20
-151.1456406957205
 10
118.5281656604721
 20
-151.1773355741848
 10
118.6105034425696
 20
-151.1773355741848
 10
118.6339300918693
 20
-151.1773355741848
 10
118.7035210206713
 20
-151.1773355741848
 10
118.7376274659753
 20
-151.1604546063071
 10
118.7417615805576
 20
-151.103266021252
 10
118.7417615805576
 20
-151.0905191679566
 10
118.7438286378488
 20
-150.9933674752725
 10
118.7438286378488
 20
-150.9361788902173
 10
118.7438286378488
 20
-150.9361788902173
 10
118.7438286378488
 20
-150.1489745718378
 10
118.7438286378488
 20
-150.1489745718378
 10
118.7438286378488
 20
-150.1489745718378
 10
118.4496174834084
 20
-150.1489745718378
 10
118.4496174834084
 20
-150.1489745718378
 10
118.3038899443824
 20
-150.1489745718378
 10
118.1578178958078
 20
-150.1555202532597
 10
118.0138129045243
 20
-150.1682671065552
 10
118.0138129045243
 20
-150.1682671065552
 10
118.0138129045243
 20
-149.9608723583431
 10
118.0138129045243
 20
-149.9608723583431
 10
118.1640190676812
 20
-149.9736192116385
 10
118.3820936118975
 20
-149.9777533262208
 10
118.4496174834084
 20
-149.9777533262208
 10
118.4496174834084
 20
-149.9777533262208
 10
118.7438286378488
 20
-149.9777533262208
 10
118.7438286378488
 20
-149.9777533262208
 10
118.7417615805576
 20
-149.7090358783714
 10
118.7417615805576
 20
-149.6328992681473
 10
118.7331488418445
 20
-149.4847601622816
 10
118.7331488418445
 20
-149.4847601622816
 10
118.9911864936897
 20
-149.5230007221679
 10
118.9911864936897
 20
-149.5230007221679
 10
119.0060004042763
 20
-149.525067779459
 10
119.0208143148629
 20
-149.5312689513325
 10
119.0208143148629
 20
-149.552628543341
 10
119.0208143148629
 20
-149.5715765685099
 10
119.0146131429894
 20
-149.5736436258011
 10
118.9574245579343
 20
-149.6074055615565
 10
118.953290443352
 20
-149.6859537386202
 10
118.953290443352
 20
-149.7007676492068
 10
118.953290443352
 20
-149.9777533262208
 10
119.1310573703908
 20
-149.9736192116385
 10
119.1500053955597
 20
-149.9736192116385
 10
119.1837673313152
 20
-149.9691405875077
 10
119.2347547444969
 20
-149.9650064729254
 10
119.2388888590792
 20
-149.9629394156343
 10
119.2833305908389
 20
-149.9608723583431
 10
119.2833305908389
 20
-149.9608723583431
 10
119.2833305908389
 20
-150.1682671065552
 10
119.2833305908389
 20
-150.1682671065552
 10
119.2537027696658
 20
-150.166200049264
 10
119.1985812419017
 20
-150.1575873105509
 10
119.1586181342729
 20
-150.1555202532597
 97
        0
 97
        0
 92
        1
 93
        1
 72
     4
 94
        3
 73
     0
 74
     1
 95
       20
 96
       16
 40
0.0
 40
0.0
 40
0.0
 40
0.0
 40
1.0
 40
1.0
 40
1.0
 40
2.0
 40
2.0
 40
2.0
 40
3.0
 40
3.0
 40
3.0
 40
4.0
 40
4.0
 40
4.0
 40
5.0
 40
5.0
 40
5.0
 40
5.0
 10
118.388294783771
 20
-150.8810573624534
 10
118.3417859947201
 20
-150.7032904354145
 10
118.2446343020361
 20
-150.5616970109707
 10
118.1051079348834
 20
-150.4517984649912
 10
118.1051079348834
 20
-150.4517984649912
 10
118.2656493844961
 20
-150.3374212948809
 10
118.2656493844961
 20
-150.3374212948809
 10
118.3269720841335
 20
-150.3797959693495
 10
118.367279701311
 20
-150.4135579051049
 10
118.443416311535
 20
-150.5213893937933
 10
118.5236870363413
 20
-150.6378336211947
 10
118.5450466283499
 20
-150.690543582119
 10
118.5701958253922
 20
-150.7563449058873
 10
118.5701958253922
 20
-150.7563449058873
 10
118.388294783771
 20
-150.8810573624534
 10
118.388294783771
 20
-150.8810573624534
 97
        0
 97
        0
 75
     2
 76
     1
 98
        0
  0
ENDBLK
  5
F5
330
F2
100
AcDbEntity
  8
0
100
AcDbBlockEnd
  0
ENDSEC
  0
SECTION
  2
ENTITIES
  0
SPLINE
  5
41
330
1F
100
AcDbEntity
  8
_U+30EC_U+30A4_U+30E4_U+30FC 1
 62
   179
420
  2234388
370
     9
100
AcDbSpline
210
0.0
220
0.0
230
1.0
 70
    11
 71
     3
 72
    17
 73
    13
 74
     0
 42
0.0000000001
 43
0.0000000001
 12
1.0
 22
0.0
 32
0.0
 13
1.0
 23
0.0
 33
0.0
 40
0.0
 40
0.0
 40
0.0
 40
0.0
 40
1.0
 40
1.0
 40
1.0
 40
2.0
 40
2.0
 40
2.0
 40
3.0
 40
3.0
 40
3.0
 40
4.0
 40
4.0
 40
4.0
 40
4.0
 10
122.6575863001733
 20
-144.8415250628022
 30
0.0
 10
122.6575863001733
 20
-144.7865111942721
 30
0.0
 10
122.6127785270182
 20
-144.7417034211171
 30
0.0
 10
122.5577431266414
 20
-144.7417034211171
 30
0.0
 10
122.5027077262645
 20
-144.7417034211171
 30
0.0
 10
122.4578999531095
 20
-144.7865111942721
 30
0.0
 10
122.4578999531095
 20
-144.8415250628022
 30
0.0
 10
122.4578999531095
 20
-144.8965604631791
 30
0.0
 10
122.5027077262645
 20
-144.9413682363341
 30
0.0
 10
122.5577431266414
 20
-144.9413682363341
 30
0.0
 10
122.6127785270182
 20
-144.9413682363341
 30
0.0
 10
122.6575863001733
 20
-144.8965604631791
 30
0.0
 10
122.6575863001733
 20
-144.8415250628022
 30
0.0
  0
SPLINE
  5
42
330
1F
100
AcDbEntity
  8
_U+30EC_U+30A4_U+30E4_U+30FC 1
 62
   179
420
  2234388
370
     9
100
AcDbSpline
210
0.0
220
0.0
230
1.0
 70
    11
 71
     3
 72
    17
 73
    13
 74
     0
 42
0.0000000001
 43
0.0000000001
 12
1.0
 22
0.0
 32
0.0
 13
1.0
 23
0.0
 33
0.0
 40
0.0
 40
0.0
 40
0.0
 40
0.0
 40
1.0
 40
1.0
 40
1.0
 40
2.0
 40
2.0
 40
2.0
 40
3.0
 40
3.0
 40
3.0
 40
4.0
 40
4.0
 40
4.0
 40
4.0
 10
122.6575863001733
 20
-145.8413348363153
 30
0.0
 10
122.6575863001733
 20
-145.7863209677855
 30
0.0
 10
122.6127785270182
 20
-145.7415131946302
 30
0.0
 10
122.5577431266414
 20
-145.7415131946302
 30
0.0
 10
122.5027077262645
 20
-145.7415131946302
 30
0.0
 10
122.4578999531095
 20
-145.7863209677855
 30
0.0
 10
122.4578999531095
 20
-145.8413348363153
 30
0.0
 10
122.4578999531095
 20
-145.8963702366921
 30
0.0
 10
122.5027077262645
 20
-145.9411780098475
 30
0.0
 10
122.5577431266414
 20
-145.9411780098475
 30
0.0
 10
122.6127785270182
 20
-145.9411780098475
 30
0.0
 10
122.6575863001733
 20
-145.8963702366921
 30
0.0
 10
122.6575863001733
 20
-145.8413348363153
 30
0.0
  0
SPLINE
  5
43
330
1F
100
AcDbEntity
  8
_U+30EC_U+30A4_U+30E4_U+30FC 1
 62
   179
420
  2234388
370
     9
100
AcDbSpline
210
0.0
220
0.0
230
1.0
 70
    11
 71
     3
 72
    17
 73
    13
 74
     0
 42
0.0000000001
 43
0.0000000001
 12
1.0
 22
0.0
 32
0.0
 13
1.0
 23
0.0
 33
0.0
 40
0.0
 40
0.0
 40
0.0
 40
0.0
 40
1.0
 40
1.0
 40
1.0
 40
2.0
 40
2.0
 40
2.0
 40
3.0
 40
3.0
 40
3.0
 40
4.0
 40
4.0
 40
4.0
 40
4.0
 10
122.6575863001733
 20
-152.3135711289138
 30
0.0
 10
122.6575863001733
 20
-152.2585572603837
 30
0.0
 10
122.6127785270182
 20
-152.2137494872287
 30
0.0
 10
122.5577431266414
 20
-152.2137494872287
 30
0.0
 10
122.5027077262645
 20
-152.2137494872287
 30
0.0
 10
122.4578999531095
 20
-152.2585572603837
 30
0.0
 10
122.4578999531095
 20
-152.3135711289138
 30
0.0
 10
122.4578999531095
 20
-152.3686065292907
 30
0.0
 10
122.5027077262645
 20
-152.4134143024457
 30
0.0
 10
122.5577431266414
 20
-152.4134143024457
 30
0.0
 10
122.6127785270182
 20
-152.4134143024457
 30
0.0
 10
122.6575863001733
 20
-152.3686065292907
 30
0.0
 10
122.6575863001733
 20
-152.3135711289138
 30
0.0
  0
POLYLINE
  5
44
330
1F
100
AcDbEntity
  8
_U+30EC_U+30A4_U+30E4_U+30FC 1
 62
   179
420
  2234388
370
     9
100
AcDb2dPolyline
 66
     1
 10
0.0
 20
0.0
 30
0.0
  0
VERTEX
  5
45
330
44
100
AcDbEntity
  8
_U+30EC_U+30A4_U+30E4_U+30FC 1
 62
   179
420
  2234388
370
     9
100
AcDbVertex
100
AcDb2dVertex
 10
122.557678531101
 20
-145.0413406009467
 30
0.0
  0
VERTEX
  5
46
330
44
100
AcDbEntity
  8
_U+30EC_U+30A4_U+30E4_U+30FC 1
 62
   179
420
  2234388
370
     9
100
AcDbVertex
100
AcDb2dVertex
 10
122.557678531101
 20
-141.270855847115
 30
0.0
  0
SEQEND
  5
47
330
44
100
AcDbEntity
  8
_U+30EC_U+30A4_U+30E4_U+30FC 1
 62
   179
420
  2234388
370
     9
  0
POLYLINE
  5
48
330
1F
100
AcDbEntity
  8
_U+30EC_U+30A4_U+30E4_U+30FC 1
 62
   179
420
  2234388
370
     9
100
AcDb2dPolyline
 66
     1
 10
0.0
 20
0.0
 30
0.0
  0
VERTEX
  5
49
330
48
100
AcDbEntity
  8
_U+30EC_U+30A4_U+30E4_U+30FC 1
 62
   179
420
  2234388
370
     9
100
AcDbVertex
100
AcDb2dVertex
 10
122.557678531101
 20
-144.8415250628022
 30
0.0
  0
VERTEX
  5
4A
330
48
100
AcDbEntity
  8
_U+30EC_U+30A4_U+30E4_U+30FC 1
 62
   179
420
  2234388
370
     9
100
AcDbVertex
100
AcDb2dVertex
 10
122.557678531101
 20
-145.8413133044685
 30
0.0
  0
SEQEND
  5
4B
330
48
100
AcDbEntity
  8
_U+30EC_U+30A4_U+30E4_U+30FC 1
 62
   179
420
  2234388
370
     9
  0
POLYLINE
  5
4C
330
1F
100
AcDbEntity
  8
_U+30EC_U+30A4_U+30E4_U+30FC 1
 62
   179
420
  2234388
370
     9
100
AcDb2dPolyline
 66
     1
 10
0.0
 20
0.0
 30
0.0
  0
VERTEX
  5
4D
330
4C
100
AcDbEntity
  8
_U+30EC_U+30A4_U+30E4_U+30FC 1
 62
   179
420
  2234388
370
     9
100
AcDbVertex
100
AcDb2dVertex
 10
121.0976470644522
 20
-144.8415250628022
 30
0.0
  0
VERTEX
  5
4E
330
4C
100
AcDbEntity
  8
_U+30EC_U+30A4_U+30E4_U+30FC 1
 62
   179
420
  2234388
370
     9
100
AcDbVertex
100
AcDb2dVertex
 10
123.5575529001544
 20
-144.8415250628022
 30
0.0
  0
SEQEND
  5
4F
330
4C
100
AcDbEntity
  8
_U+30EC_U+30A4_U+30E4_U+30FC 1
 62
   179
420
  2234388
370
     9
  0
POLYLINE
  5
50
330
1F
100
AcDbEntity
  8
_U+30EC_U+30A4_U+30E4_U+30FC 1
 62
   179
420
  2234388
370
     9
100
AcDb2dPolyline
 66
     1
 10
0.0
 20
0.0
 30
0.0
  0
VERTEX
  5
51
330
50
100
AcDbEntity
  8
_U+30EC_U+30A4_U+30E4_U+30FC 1
 62
   179
420
  2234388
370
     9
100
AcDbVertex
100
AcDb2dVertex
 10
121.0976470644522
 20
-145.8413348363153
 30
0.0
  0
VERTEX
  5
52
330
50
100
AcDbEntity
  8
_U+30EC_U+30A4_U+30E4_U+30FC 1
 62
   179
420
  2234388
370
     9
100
AcDbVertex
100
AcDb2dVertex
 10
123.5575529001544
 20
-145.8413348363153
 30
0.0
  0
SEQEND
  5
53
330
50
100
AcDbEntity
  8
_U+30EC_U+30A4_U+30E4_U+30FC 1
 62
   179
420
  2234388
370
     9
  0
INSERT
  5
55
330
1F
100
AcDbEntity
  8
_U+30EC_U+30A4_U+30E4_U+30FC 1
100
AcDbBlockReference
  2
block 2
 10
0.0
 20
0.0
 30
0.0
  0
INSERT
  5
5B
330
1F
100
AcDbEntity
  8
_U+30EC_U+30A4_U+30E4_U+30FC 1
100
AcDbBlockReference
  2
block 3
 10
0.0
 20
0.0
 30
0.0
  0
INSERT
  5
62
330
1F
100
AcDbEntity
  8
_U+30EC_U+30A4_U+30E4_U+30FC 1
100
AcDbBlockReference
  2
block 4
 10
0.0
 20
0.0
 30
0.0
  0
INSERT
  5
6A
330
1F
100
AcDbEntity
  8
_U+30EC_U+30A4_U+30E4_U+30FC 1
100
AcDbBlockReference
  2
block 5
 10
0.0
 20
0.0
 30
0.0
  0
INSERT
  5
72
330
1F
100
AcDbEntity
  8
_U+30EC_U+30A4_U+30E4_U+30FC 1
100
AcDbBlockReference
  2
block 6
 10
0.0
 20
0.0
 30
0.0
  0
SPLINE
  5
77
330
1F
100
AcDbEntity
  8
_U+30EC_U+30A4_U+30E4_U+30FC 1
 62
   179
420
  2234388
370
     9
100
AcDbSpline
210
0.0
220
0.0
230
1.0
 70
    11
 71
     3
 72
    17
 73
    13
 74
     0
 42
0.0000000001
 43
0.0000000001
 12
1.0
 22
0.0
 32
0.0
 13
1.0
 23
0.0
 33
0.0
 40
0.0
 40
0.0
 40
0.0
 40
0.0
 40
1.0
 40
1.0
 40
1.0
 40
2.0
 40
2.0
 40
2.0
 40
3.0
 40
3.0
 40
3.0
 40
4.0
 40
4.0
 40
4.0
 40
4.0
 10
86.66977435170527
 20
-157.1374153592074
 30
0.0
 10
86.66977435170527
 20
-157.0816909397335
 30
0.0
 10
86.62496657854993
 20
-157.0368831665785
 30
0.0
 10
86.56993117817306
 20
-157.0368831665785
 30
0.0
 10
86.5148957777962
 20
-157.0368831665785
 30
0.0
 10
86.47009877056455
 20
-157.0816909397335
 30
0.0
 10
86.47009877056455
 20
-157.1374153592074
 30
0.0
 10
86.47009877056455
 20
-157.1924507595843
 30
0.0
 10
86.5148957777962
 20
-157.2372585327393
 30
0.0
 10
86.56993117817306
 20
-157.2372585327393
 30
0.0
 10
86.62496657854993
 20
-157.2372585327393
 30
0.0
 10
86.66977435170527
 20
-157.1924507595843
 30
0.0
 10
86.66977435170527
 20
-157.1374153592074
 30
0.0
  0
SPLINE
  5
78
330
1F
100
AcDbEntity
  8
_U+30EC_U+30A4_U+30E4_U+30FC 1
 62
   179
420
  2234388
370
     9
100
AcDbSpline
210
0.0
220
0.0
230
1.0
 70
    11
 71
     3
 72
    17
 73
    13
 74
     0
 42
0.0000000001
 43
0.0000000001
 12
1.0
 22
0.0
 32
0.0
 13
1.0
 23
0.0
 33
0.0
 40
0.0
 40
0.0
 40
0.0
 40
0.0
 40
1.0
 40
1.0
 40
1.0
 40
2.0
 40
2.0
 40
2.0
 40
3.0
 40
3.0
 40
3.0
 40
4.0
 40
4.0
 40
4.0
 40
4.0
 10
95.65699494407653
 20
-157.1374153592074
 30
0.0
 10
95.65699494407653
 20
-157.0816909397335
 30
0.0
 10
95.61218717092117
 20
-157.0368831665785
 30
0.0
 10
95.55715177054431
 20
-157.0368831665785
 30
0.0
 10
95.50211637016744
 20
-157.0368831665785
 30
0.0
 10
95.4573193629358
 20
-157.0816909397335
 30
0.0
 10
95.4573193629358
 20
-157.1374153592074
 30
0.0
 10
95.4573193629358
 20
-157.1924507595843
 30
0.0
 10
95.50211637016744
 20
-157.2372585327393
 30
0.0
 10
95.55715177054431
 20
-157.2372585327393
 30
0.0
 10
95.61218717092117
 20
-157.2372585327393
 30
0.0
 10
95.65699494407653
 20
-157.1924507595843
 30
0.0
 10
95.65699494407653
 20
-157.1374153592074
 30
0.0
  0
POLYLINE
  5
79
330
1F
100
AcDbEntity
  8
_U+30EC_U+30A4_U+30E4_U+30FC 1
 62
   179
420
  2234388
370
     9
100
AcDb2dPolyline
 66
     1
 10
0.0
 20
0.0
 30
0.0
  0
VERTEX
  5
7A
330
79
100
AcDbEntity
  8
_U+30EC_U+30A4_U+30E4_U+30FC 1
 62
   179
420
  2234388
370
     9
100
AcDbVertex
100
AcDb2dVertex
 10
86.56986658263303
 20
-157.1374153592074
 30
0.0
  0
VERTEX
  5
7B
330
79
100
AcDbEntity
  8
_U+30EC_U+30A4_U+30E4_U+30FC 1
 62
   179
420
  2234388
370
     9
100
AcDbVertex
100
AcDb2dVertex
 10
113.4624649611906
 20
-157.1374153592074
 30
0.0
  0
SEQEND
  5
7C
330
79
100
AcDbEntity
  8
_U+30EC_U+30A4_U+30E4_U+30FC 1
 62
   179
420
  2234388
370
     9
  0
POLYLINE
  5
7D
330
1F
100
AcDbEntity
  8
_U+30EC_U+30A4_U+30E4_U+30FC 1
 62
   179
420
  2234388
370
     9
100
AcDb2dPolyline
 66
     1
 10
0.0
 20
0.0
 30
0.0
  0
VERTEX
  5
7E
330
7D
100
AcDbEntity
  8
_U+30EC_U+30A4_U+30E4_U+30FC 1
 62
   179
420
  2234388
370
     9
100
AcDbVertex
100
AcDb2dVertex
 10
86.56986658263303
 20
-155.6770609148568
 30
0.0
  0
VERTEX
  5
7F
330
7D
100
AcDbEntity
  8
_U+30EC_U+30A4_U+30E4_U+30FC 1
 62
   179
420
  2234388
370
     9
100
AcDbVertex
100
AcDb2dVertex
 10
86.56986658263303
 20
-158.1373543238012
 30
0.0
  0
SEQEND
  5
80
330
7D
100
AcDbEntity
  8
_U+30EC_U+30A4_U+30E4_U+30FC 1
 62
   179
420
  2234388
370
     9
  0
POLYLINE
  5
81
330
1F
100
AcDbEntity
  8
_U+30EC_U+30A4_U+30E4_U+30FC 1
 62
   179
420
  2234388
370
     9
100
AcDb2dPolyline
 66
     1
 10
0.0
 20
0.0
 30
0.0
  0
VERTEX
  5
82
330
81
100
AcDbEntity
  8
_U+30EC_U+30A4_U+30E4_U+30FC 1
 62
   179
420
  2234388
370
     9
100
AcDbVertex
100
AcDb2dVertex
 10
95.55709794092735
 20
-155.6774269562521
 30
0.0
  0
VERTEX
  5
83
330
81
100
AcDbEntity
  8
_U+30EC_U+30A4_U+30E4_U+30FC 1
 62
   179
420
  2234388
370
     9
100
AcDbVertex
100
AcDb2dVertex
 10
95.55709794092735
 20
-158.1373543238012
 30
0.0
  0
SEQEND
  5
84
330
81
100
AcDbEntity
  8
_U+30EC_U+30A4_U+30E4_U+30FC 1
 62
   179
420
  2234388
370
     9
  0
SPLINE
  5
85
330
1F
100
AcDbEntity
  8
_U+30EC_U+30A4_U+30E4_U+30FC 1
 62
   179
420
  2234388
370
     9
100
AcDbSpline
210
0.0
220
0.0
230
1.0
 70
    11
 71
     3
 72
    17
 73
    13
 74
     0
 42
0.0000000001
 43
0.0000000001
 12
1.0
 22
0.0
 32
0.0
 13
1.0
 23
0.0
 33
0.0
 40
0.0
 40
0.0
 40
0.0
 40
0.0
 40
1.0
 40
1.0
 40
1.0
 40
2.0
 40
2.0
 40
2.0
 40
3.0
 40
3.0
 40
3.0
 40
4.0
 40
4.0
 40
4.0
 40
4.0
 10
98.65698409263209
 20
-157.1374153592074
 30
0.0
 10
98.65698409263209
 20
-157.0816909397335
 30
0.0
 10
98.61217631947673
 20
-157.0368831665785
 30
0.0
 10
98.55714091909987
 20
-157.0368831665785
 30
0.0
 10
98.502105518723
 20
-157.0368831665785
 30
0.0
 10
98.45730851149136
 20
-157.0816909397335
 30
0.0
 10
98.45730851149136
 20
-157.1374153592074
 30
0.0
 10
98.45730851149136
 20
-157.1924507595843
 30
0.0
 10
98.502105518723
 20
-157.2372585327393
 30
0.0
 10
98.55714091909987
 20
-157.2372585327393
 30
0.0
 10
98.61217631947673
 20
-157.2372585327393
 30
0.0
 10
98.65698409263209
 20
-157.1924507595843
 30
0.0
 10
98.65698409263209
 20
-157.1374153592074
 30
0.0
  0
POLYLINE
  5
86
330
1F
100
AcDbEntity
  8
_U+30EC_U+30A4_U+30E4_U+30FC 1
 62
   179
420
  2234388
370
     9
100
AcDb2dPolyline
 66
     1
 10
0.0
 20
0.0
 30
0.0
  0
VERTEX
  5
87
330
86
100
AcDbEntity
  8
_U+30EC_U+30A4_U+30E4_U+30FC 1
 62
   179
420
  2234388
370
     9
100
AcDbVertex
100
AcDb2dVertex
 10
98.55707632355984
 20
-155.6774269562521
 30
0.0
  0
VERTEX
  5
88
330
86
100
AcDbEntity
  8
_U+30EC_U+30A4_U+30E4_U+30FC 1
 62
   179
420
  2234388
370
     9
100
AcDbVertex
100
AcDb2dVertex
 10
98.55707632355984
 20
-158.1373543238012
 30
0.0
  0
SEQEND
  5
89
330
86
100
AcDbEntity
  8
_U+30EC_U+30A4_U+30E4_U+30FC 1
 62
   179
420
  2234388
370
     9
  0
SPLINE
  5
8A
330
1F
100
AcDbEntity
  8
_U+30EC_U+30A4_U+30E4_U+30FC 1
 62
   179
420
  2234388
370
     9
100
AcDbSpline
210
0.0
220
0.0
230
1.0
 70
    11
 71
     3
 72
    17
 73
    13
 74
     0
 42
0.0000000001
 43
0.0000000001
 12
1.0
 22
0.0
 32
0.0
 13
1.0
 23
0.0
 33
0.0
 40
0.0
 40
0.0
 40
0.0
 40
0.0
 40
1.0
 40
1.0
 40
1.0
 40
2.0
 40
2.0
 40
2.0
 40
3.0
 40
3.0
 40
3.0
 40
4.0
 40
4.0
 40
4.0
 40
4.0
 10
113.6569190694862
 20
-157.1374153592074
 30
0.0
 10
113.6569190694862
 20
-157.0816909397335
 30
0.0
 10
113.6121112963311
 20
-157.0368831665785
 30
0.0
 10
113.5570758959543
 20
-157.0368831665785
 30
0.0
 10
113.5020404955774
 20
-157.0368831665785
 30
0.0
 10
113.4572434883458
 20
-157.0816909397335
 30
0.0
 10
113.4572434883458
 20
-157.1374153592074
 30
0.0
 10
113.4572434883458
 20
-157.1924507595843
 30
0.0
 10
113.5020404955774
 20
-157.2372585327393
 30
0.0
 10
113.5570758959543
 20
-157.2372585327393
 30
0.0
 10
113.6121112963311
 20
-157.2372585327393
 30
0.0
 10
113.6569190694862
 20
-157.1924507595843
 30
0.0
 10
113.6569190694862
 20
-157.1374153592074
 30
0.0
  0
POLYLINE
  5
8B
330
1F
100
AcDbEntity
  8
_U+30EC_U+30A4_U+30E4_U+30FC 1
 62
   179
420
  2234388
370
     9
100
AcDb2dPolyline
 66
     1
 10
0.0
 20
0.0
 30
0.0
  0
VERTEX
  5
8C
330
8B
100
AcDbEntity
  8
_U+30EC_U+30A4_U+30E4_U+30FC 1
 62
   179
420
  2234388
370
     9
100
AcDbVertex
100
AcDb2dVertex
 10
113.5570113004139
 20
-155.6774269562521
 30
0.0
  0
VERTEX
  5
8D
330
8B
100
AcDbEntity
  8
_U+30EC_U+30A4_U+30E4_U+30FC 1
 62
   179
420
  2234388
370
     9
100
AcDbVertex
100
AcDb2dVertex
 10
113.5570113004139
 20
-158.1373543238012
 30
0.0
  0
SEQEND
  5
8E
330
8B
100
AcDbEntity
  8
_U+30EC_U+30A4_U+30E4_U+30FC 1
 62
   179
420
  2234388
370
     9
  0
SPLINE
  5
8F
330
1F
100
AcDbEntity
  8
_U+30EC_U+30A4_U+30E4_U+30FC 1
 62
   179
420
  2234388
370
     9
100
AcDbSpline
210
0.0
220
0.0
230
1.0
 70
    11
 71
     3
 72
    17
 73
    13
 74
     0
 42
0.0000000001
 43
0.0000000001
 12
1.0
 22
0.0
 32
0.0
 13
1.0
 23
0.0
 33
0.0
 40
0.0
 40
0.0
 40
0.0
 40
0.0
 40
1.0
 40
1.0
 40
1.0
 40
2.0
 40
2.0
 40
2.0
 40
3.0
 40
3.0
 40
3.0
 40
4.0
 40
4.0
 40
4.0
 40
4.0
 10
86.66977435170527
 20
-142.1412592214634
 30
0.0
 10
86.66977435170527
 20
-142.085879311538
 30
0.0
 10
86.62496657854993
 20
-142.0410715383833
 30
0.0
 10
86.56993117817306
 20
-142.0410715383833
 30
0.0
 10
86.5148957777962
 20
-142.0410715383833
 30
0.0
 10
86.47009877056455
 20
-142.085879311538
 30
0.0
 10
86.47009877056455
 20
-142.1412592214634
 30
0.0
 10
86.47009877056455
 20
-142.1962946218403
 30
0.0
 10
86.5148957777962
 20
-142.2411023949953
 30
0.0
 10
86.56993117817306
 20
-142.2411023949953
 30
0.0
 10
86.62496657854993
 20
-142.2411023949953
 30
0.0
 10
86.66977435170527
 20
-142.1962946218403
 30
0.0
 10
86.66977435170527
 20
-142.1412592214634
 30
0.0
  0
POLYLINE
  5
90
330
1F
100
AcDbEntity
  8
_U+30EC_U+30A4_U+30E4_U+30FC 1
 62
   179
420
  2234388
370
     9
100
AcDb2dPolyline
 66
     1
 10
0.0
 20
0.0
 30
0.0
  0
VERTEX
  5
91
330
90
100
AcDbEntity
  8
_U+30EC_U+30A4_U+30E4_U+30FC 1
 62
   179
420
  2234388
370
     9
100
AcDbVertex
100
AcDb2dVertex
 10
86.56986658263303
 20
-142.1412592214634
 30
0.0
  0
VERTEX
  5
92
330
90
100
AcDbEntity
  8
_U+30EC_U+30A4_U+30E4_U+30FC 1
 62
   179
420
  2234388
370
     9
100
AcDbVertex
100
AcDb2dVertex
 10
113.4624649611906
 20
-142.1412592214634
 30
0.0
  0
SEQEND
  5
93
330
90
100
AcDbEntity
  8
_U+30EC_U+30A4_U+30E4_U+30FC 1
 62
   179
420
  2234388
370
     9
  0
POLYLINE
  5
94
330
1F
100
AcDbEntity
  8
_U+30EC_U+30A4_U+30E4_U+30FC 1
 62
   179
420
  2234388
370
     9
100
AcDb2dPolyline
 66
     1
 10
0.0
 20
0.0
 30
0.0
  0
VERTEX
  5
95
330
94
100
AcDbEntity
  8
_U+30EC_U+30A4_U+30E4_U+30FC 1
 62
   179
420
  2234388
370
     9
100
AcDbVertex
100
AcDb2dVertex
 10
86.56986658263303
 20
-140.6808617134195
 30
0.0
  0
VERTEX
  5
96
330
94
100
AcDbEntity
  8
_U+30EC_U+30A4_U+30E4_U+30FC 1
 62
   179
420
  2234388
370
     9
100
AcDbVertex
100
AcDb2dVertex
 10
86.56986658263303
 20
-143.1411551223636
 30
0.0
  0
SEQEND
  5
97
330
94
100
AcDbEntity
  8
_U+30EC_U+30A4_U+30E4_U+30FC 1
 62
   179
420
  2234388
370
     9
  0
SPLINE
  5
98
330
1F
100
AcDbEntity
  8
_U+30EC_U+30A4_U+30E4_U+30FC 1
 62
   179
420
  2234388
370
     9
100
AcDbSpline
210
0.0
220
0.0
230
1.0
 70
    11
 71
     3
 72
    17
 73
    13
 74
     0
 42
0.0000000001
 43
0.0000000001
 12
1.0
 22
0.0
 32
0.0
 13
1.0
 23
0.0
 33
0.0
 40
0.0
 40
0.0
 40
0.0
 40
0.0
 40
1.0
 40
1.0
 40
1.0
 40
2.0
 40
2.0
 40
2.0
 40
3.0
 40
3.0
 40
3.0
 40
4.0
 40
4.0
 40
4.0
 40
4.0
 10
113.6569190694862
 20
-142.1412592214634
 30
0.0
 10
113.6569190694862
 20
-142.085879311538
 30
0.0
 10
113.6121112963311
 20
-142.0410715383833
 30
0.0
 10
113.5570758959543
 20
-142.0410715383833
 30
0.0
 10
113.5020404955774
 20
-142.0410715383833
 30
0.0
 10
113.4572434883458
 20
-142.085879311538
 30
0.0
 10
113.4572434883458
 20
-142.1412592214634
 30
0.0
 10
113.4572434883458
 20
-142.1962946218403
 30
0.0
 10
113.5020404955774
 20
-142.2411023949953
 30
0.0
 10
113.5570758959543
 20
-142.2411023949953
 30
0.0
 10
113.6121112963311
 20
-142.2411023949953
 30
0.0
 10
113.6569190694862
 20
-142.1962946218403
 30
0.0
 10
113.6569190694862
 20
-142.1412592214634
 30
0.0
  0
POLYLINE
  5
99
330
1F
100
AcDbEntity
  8
_U+30EC_U+30A4_U+30E4_U+30FC 1
 62
   179
420
  2234388
370
     9
100
AcDb2dPolyline
 66
     1
 10
0.0
 20
0.0
 30
0.0
  0
VERTEX
  5
9A
330
99
100
AcDbEntity
  8
_U+30EC_U+30A4_U+30E4_U+30FC 1
 62
   179
420
  2234388
370
     9
100
AcDbVertex
100
AcDb2dVertex
 10
113.5570113004139
 20
-140.6812492866613
 30
0.0
  0
VERTEX
  5
9B
330
99
100
AcDbEntity
  8
_U+30EC_U+30A4_U+30E4_U+30FC 1
 62
   179
420
  2234388
370
     9
100
AcDbVertex
100
AcDb2dVertex
 10
113.5570113004139
 20
-143.1411766542107
 30
0.0
  0
SEQEND
  5
9C
330
99
100
AcDbEntity
  8
_U+30EC_U+30A4_U+30E4_U+30FC 1
 62
   179
420
  2234388
370
     9
  0
POLYLINE
  5
9D
330
1F
100
AcDbEntity
  8
_U+30EC_U+30A4_U+30E4_U+30FC 1
 62
   179
420
  2234388
370
     9
100
AcDb2dPolyline
 66
     1
 10
0.0
 20
0.0
 30
0.0
  0
VERTEX
  5
9E
330
9D
100
AcDbEntity
  8
_U+30EC_U+30A4_U+30E4_U+30FC 1
 62
   179
420
  2234388
370
     9
100
AcDbVertex
100
AcDb2dVertex
 10
122.557678531101
 20
-145.8413348363153
 30
0.0
  0
VERTEX
  5
9F
330
9D
100
AcDbEntity
  8
_U+30EC_U+30A4_U+30E4_U+30FC 1
 62
   179
420
  2234388
370
     9
100
AcDbVertex
100
AcDb2dVertex
 10
122.557678531101
 20
-152.3423376762156
 30
0.0
  0
SEQEND
  5
A0
330
9D
100
AcDbEntity
  8
_U+30EC_U+30A4_U+30E4_U+30FC 1
 62
   179
420
  2234388
370
     9
  0
POLYLINE
  5
A1
330
1F
100
AcDbEntity
  8
_U+30EC_U+30A4_U+30E4_U+30FC 1
 62
   179
420
  2234388
370
     9
100
AcDb2dPolyline
 66
     1
 10
0.0
 20
0.0
 30
0.0
  0
VERTEX
  5
A2
330
A1
100
AcDbEntity
  8
_U+30EC_U+30A4_U+30E4_U+30FC 1
 62
   179
420
  2234388
370
     9
100
AcDbVertex
100
AcDb2dVertex
 10
105.0986343968753
 20
-152.3418639755864
 30
0.0
  0
VERTEX
  5
A3
330
A1
100
AcDbEntity
  8
_U+30EC_U+30A4_U+30E4_U+30FC 1
 62
   179
420
  2234388
370
     9
100
AcDbVertex
100
AcDb2dVertex
 10
123.5580696644772
 20
-152.3418639755864
 30
0.0
  0
SEQEND
  5
A4
330
A1
100
AcDbEntity
  8
_U+30EC_U+30A4_U+30E4_U+30FC 1
 62
   179
420
  2234388
370
     9
  0
INSERT
  5
A6
330
1F
100
AcDbEntity
  8
_U+30EC_U+30A4_U+30E4_U+30FC 1
100
AcDbBlockReference
  2
block 7
 10
0.0
 20
0.0
 30
0.0
  0
POLYLINE
  5
B6
330
1F
100
AcDbEntity
  8
_U+30EC_U+30A4_U+30E4_U+30FC 1
 62
   179
420
  2234388
370
    25
100
AcDb2dPolyline
 66
     1
 10
0.0
 20
0.0
 30
0.0
  0
VERTEX
  5
B7
330
B6
100
AcDbEntity
  8
_U+30EC_U+30A4_U+30E4_U+30FC 1
 62
   179
420
  2234388
370
    25
100
AcDbVertex
100
AcDb2dVertex
 10
113.5721804864724
 20
-145.8950783258852
 30
0.0
  0
VERTEX
  5
B8
330
B6
100
AcDbEntity
  8
_U+30EC_U+30A4_U+30E4_U+30FC 1
 62
   179
420
  2234388
370
    25
100
AcDbVertex
100
AcDb2dVertex
 10
98.57559371179306
 20
-145.8950783258852
 30
0.0
  0
VERTEX
  5
B9
330
B6
100
AcDbEntity
  8
_U+30EC_U+30A4_U+30E4_U+30FC 1
 62
   179
420
  2234388
370
    25
100
AcDbVertex
100
AcDb2dVertex
 10
98.57559371179306
 20
-152.3900737805331
 30
0.0
  0
VERTEX
  5
BA
330
B6
100
AcDbEntity
  8
_U+30EC_U+30A4_U+30E4_U+30FC 1
 62
   179
420
  2234388
370
    25
100
AcDbVertex
100
AcDb2dVertex
 10
95.57627205048745
 20
-152.3900737805331
 30
0.0
  0
VERTEX
  5
BB
330
B6
100
AcDbEntity
  8
_U+30EC_U+30A4_U+30E4_U+30FC 1
 62
   179
420
  2234388
370
    25
100
AcDbVertex
100
AcDb2dVertex
 10
95.57627205048745
 20
-145.8950783258852
 30
0.0
  0
VERTEX
  5
BC
330
B6
100
AcDbEntity
  8
_U+30EC_U+30A4_U+30E4_U+30FC 1
 62
   179
420
  2234388
370
    25
100
AcDbVertex
100
AcDb2dVertex
 10
86.57268725456126
 20
-145.8950783258852
 30
0.0
  0
VERTEX
  5
BD
330
B6
100
AcDbEntity
  8
_U+30EC_U+30A4_U+30E4_U+30FC 1
 62
   179
420
  2234388
370
    25
100
AcDbVertex
100
AcDb2dVertex
 10
86.57268725456126
 20
-144.8896702722086
 30
0.0
  0
VERTEX
  5
BE
330
B6
100
AcDbEntity
  8
_U+30EC_U+30A4_U+30E4_U+30FC 1
 62
   179
420
  2234388
370
    25
100
AcDbVertex
100
AcDb2dVertex
 10
113.5721804864724
 20
-144.8896702722086
 30
0.0
  0
VERTEX
  5
BF
330
B6
100
AcDbEntity
  8
_U+30EC_U+30A4_U+30E4_U+30FC 1
 62
   179
420
  2234388
370
    25
100
AcDbVertex
100
AcDb2dVertex
 10
113.5721804864724
 20
-145.8950783258852
 30
0.0
  0
SEQEND
  5
C0
330
B6
100
AcDbEntity
  8
_U+30EC_U+30A4_U+30E4_U+30FC 1
 62
   179
420
  2234388
370
    25
  0
INSERT
  5
C2
330
1F
100
AcDbEntity
  8
_U+30EC_U+30A4_U+30E4_U+30FC 1
100
AcDbBlockReference
  2
block 8
 10
0.0
 20
0.0
 30
0.0
  0
INSERT
  5
F3
330
1F
100
AcDbEntity
  8
_U+30EC_U+30A4_U+30E4_U+30FC 1
100
AcDbBlockReference
  2
block 9
 10
0.0
 20
0.0
 30
0.0
  0
POLYLINE
  5
107
330
1F
100
AcDbEntity
  8
_U+30EC_U+30A4_U+30E4_U+30FC 1
 62
   179
420
  2234388
370
     9
100
AcDb2dPolyline
 66
     1
 10
0.0
 20
0.0
 30
0.0
  0
VERTEX
  5
108
330
107
100
AcDbEntity
  8
_U+30EC_U+30A4_U+30E4_U+30FC 1
 62
   179
420
  2234388
370
     9
100
AcDbVertex
100
AcDb2dVertex
 10
103.7095718972226
 20
-146.4465950493801
 30
0.0
  0
VERTEX
  5
109
330
107
100
AcDbEntity
  8
_U+30EC_U+30A4_U+30E4_U+30FC 1
 62
   179
420
  2234388
370
     9
100
AcDbVertex
100
AcDb2dVertex
 10
108.0028714227877
 20
-151.8698643622604
 30
0.0
  0
VERTEX
  5
10A
330
107
100
AcDbEntity
  8
_U+30EC_U+30A4_U+30E4_U+30FC 1
 62
   179
420
  2234388
370
     9
100
AcDbVertex
100
AcDb2dVertex
 10
119.6452378715644
 20
-151.8698643622604
 30
0.0
  0
SEQEND
  5
10B
330
107
100
AcDbEntity
  8
_U+30EC_U+30A4_U+30E4_U+30FC 1
 62
   179
420
  2234388
370
     9
  0
POLYLINE
  5
10C
330
1F
100
AcDbEntity
  8
_U+30EC_U+30A4_U+30E4_U+30FC 1
  6
AI-Linetype-1
 62
   154
420
    23468
370
    25
100
AcDb2dPolyline
 66
     1
 10
0.0
 20
0.0
 30
0.0
  0
VERTEX
  5
10D
330
10C
100
AcDbEntity
  8
_U+30EC_U+30A4_U+30E4_U+30FC 1
  6
AI-Linetype-1
 62
   154
420
    23468
370
    25
100
AcDbVertex
100
AcDb2dVertex
 10
86.54919600972153
 20
-146.4235559733225
 30
0.0
  0
VERTEX
  5
10E
330
10C
100
AcDbEntity
  8
_U+30EC_U+30A4_U+30E4_U+30FC 1
  6
AI-Linetype-1
 62
   154
420
    23468
370
    25
100
AcDbVertex
100
AcDb2dVertex
 10
95.04372488400817
 20
-146.4235559733225
 30
0.0
  0
VERTEX
  5
10F
330
10C
100
AcDbEntity
  8
_U+30EC_U+30A4_U+30E4_U+30FC 1
  6
AI-Linetype-1
 62
   154
420
    23468
370
    25
100
AcDbVertex
100
AcDb2dVertex
 10
95.04372488400817
 20
-152.9235037527305
 30
0.0
  0
VERTEX
  5
110
330
10C
100
AcDbEntity
  8
_U+30EC_U+30A4_U+30E4_U+30FC 1
  6
AI-Linetype-1
 62
   154
420
    23468
370
    25
100
AcDbVertex
100
AcDb2dVertex
 10
99.09397292308893
 20
-152.9235037527305
 30
0.0
  0
VERTEX
  5
111
330
10C
100
AcDbEntity
  8
_U+30EC_U+30A4_U+30E4_U+30FC 1
  6
AI-Linetype-1
 62
   154
420
    23468
370
    25
100
AcDbVertex
100
AcDb2dVertex
 10
99.09397292308893
 20
-146.4235559733225
 30
0.0
  0
VERTEX
  5
112
330
10C
100
AcDbEntity
  8
_U+30EC_U+30A4_U+30E4_U+30FC 1
  6
AI-Linetype-1
 62
   154
420
    23468
370
    25
100
AcDbVertex
100
AcDb2dVertex
 10
113.557151257418
 20
-146.4235559733225
 30
0.0
  0
SEQEND
  5
114
330
10C
100
AcDbEntity
  8
_U+30EC_U+30A4_U+30E4_U+30FC 1
  6
AI-Linetype-1
 62
   154
420
    23468
370
    25
  0
ENDSEC
  0
SECTION
  2
OBJECTS
  0
DICTIONARY
  5
C
330
0
100
AcDbDictionary
281
     1
  3
ACAD_GROUP
350
D
  3
ACAD_LAYOUT
350
1A
  3
ACAD_MATERIAL
350
3B
  3
ACAD_MLEADERSTYLE
350
116
  3
ACAD_MLINESTYLE
350
17
  3
ACAD_PLOTSETTINGS
350
19
  3
ACAD_PLOTSTYLENAME
350
E
  3
ACAD_TABLESTYLE
350
115
  3
ACAD_VISUALSTYLE
350
2A
  0
SUN
  5
3F
330
29
100
AcDbSun
 90
        1
290
     0
 63
     7
421
 16777215
 40
1.0
291
     1
 91
  2455826
 92
 54000000
292
     0
 70
     2
 71
   256
280
     1
  0
DICTIONARY
  5
D
102
{ACAD_REACTORS
330
C
102
}
330
C
100
AcDbDictionary
281
     1
  0
DICTIONARY
  5
1A
102
{ACAD_REACTORS
330
C
102
}
330
C
100
AcDbDictionary
281
     1
  3
Layout1
350
1E
  3
Layout2
350
26
  3
Model
350
22
  0
DICTIONARY
  5
3B
102
{ACAD_REACTORS
330
C
102
}
330
C
100
AcDbDictionary
281
     1
  3
ByBlock
350
3D
  3
ByLayer
350
3C
  3
Global
350
3E
  0
DICTIONARY
  5
116
102
{ACAD_REACTORS
330
C
102
}
330
C
100
AcDbDictionary
281
     1
  0
DICTIONARY
  5
17
102
{ACAD_REACTORS
330
C
102
}
330
C
100
AcDbDictionary
281
     1
  3
Standard
350
18
  0
DICTIONARY
  5
19
102
{ACAD_REACTORS
330
C
102
}
330
C
100
AcDbDictionary
281
     1
  0
ACDBDICTIONARYWDFLT
  5
E
102
{ACAD_REACTORS
330
C
102
}
330
C
100
AcDbDictionary
281
     1
  3
Normal
350
F
100
AcDbDictionaryWithDefault
340
F
  0
DICTIONARY
  5
115
102
{ACAD_REACTORS
330
C
102
}
330
C
100
AcDbDictionary
281
     1
  0
DICTIONARY
  5
2A
102
{ACAD_REACTORS
330
C
102
}
330
C
100
AcDbDictionary
281
     1
  3
2dWireframe
350
2F
  3
3D Hidden
350
31
  3
3dWireframe
350
30
  3
Basic
350
32
  3
Brighten
350
36
  3
ColorChange
350
3A
  3
Conceptual
350
34
  3
Dim
350
35
  3
Facepattern
350
39
  3
Flat
350
2B
  3
FlatWithEdges
350
2C
  3
Gouraud
350
2D
  3
GouraudWithEdges
350
2E
  3
Linepattern
350
38
  3
Realistic
350
33
  3
Thicken
350
37
  0
LAYOUT
  5
1E
102
{ACAD_REACTORS
330
1A
102
}
330
1A
100
AcDbPlotSettings
  1

  2
none_device
  4

  6

 40
0.0
 41
0.0
 42
0.0
 43
0.0
 44
0.0
 45
0.0
 46
0.0
 47
0.0
 48
0.0
 49
0.0
140
0.0
141
0.0
142
1.0
143
1.0
 70
   688
 72
     0
 73
     0
 74
     5
  7

 75
    16
 76
     0
 77
     2
 78
   300
147
1.0
148
0.0
149
0.0
100
AcDbLayout
  1
Layout1
 70
     1
 71
     1
 10
0.0
 20
0.0
 11
12.0
 21
9.0
 12
0.0
 22
0.0
 32
0.0
 14
1.000000000000000E+20
 24
1.000000000000000E+20
 34
1.000000000000000E+20
 15
-1.000000000000000E+20
 25
-1.000000000000000E+20
 35
-1.000000000000000E+20
146
0.0
 13
0.0
 23
0.0
 33
0.0
 16
1.0
 26
0.0
 36
0.0
 17
0.0
 27
1.0
 37
0.0
 76
     0
330
1B
  0
LAYOUT
  5
26
102
{ACAD_REACTORS
330
1A
102
}
330
1A
100
AcDbPlotSettings
  1

  2
none_device
  4

  6

 40
0.0
 41
0.0
 42
0.0
 43
0.0
 44
0.0
 45
0.0
 46
0.0
 47
0.0
 48
0.0
 49
0.0
140
0.0
141
0.0
142
1.0
143
1.0
 70
   688
 72
     0
 73
     0
 74
     5
  7

 75
    16
 76
     0
 77
     2
 78
   300
147
1.0
148
0.0
149
0.0
100
AcDbLayout
  1
Layout2
 70
     1
 71
     2
 10
0.0
 20
0.0
 11
0.0
 21
0.0
 12
0.0
 22
0.0
 32
0.0
 14
0.0
 24
0.0
 34
0.0
 15
0.0
 25
0.0
 35
0.0
146
0.0
 13
0.0
 23
0.0
 33
0.0
 16
1.0
 26
0.0
 36
0.0
 17
0.0
 27
1.0
 37
0.0
 76
     0
330
23
  0
LAYOUT
  5
22
102
{ACAD_REACTORS
330
1A
102
}
330
1A
100
AcDbPlotSettings
  1

  2
none_device
  4

  6

 40
0.0
 41
0.0
 42
0.0
 43
0.0
 44
0.0
 45
0.0
 46
0.0
 47
0.0
 48
0.0
 49
0.0
140
0.0
141
0.0
142
1.0
143
1.0
 70
  1712
 72
     0
 73
     0
 74
     0
  7

 75
     0
 76
     0
 77
     2
 78
   300
147
1.0
148
0.0
149
0.0
100
AcDbLayout
  1
Model
 70
     1
 71
     0
 10
0.0
 20
0.0
 11
12.0
 21
9.0
 12
0.0
 22
0.0
 32
0.0
 14
1.000000000000000E+20
 24
1.000000000000000E+20
 34
1.000000000000000E+20
 15
-1.000000000000000E+20
 25
-1.000000000000000E+20
 35
-1.000000000000000E+20
146
0.0
 13
0.0
 23
0.0
 33
0.0
 16
1.0
 26
0.0
 36
0.0
 17
0.0
 27
1.0
 37
0.0
 76
     0
330
1F
331
29
  0
MATERIAL
  5
3D
102
{ACAD_REACTORS
330
3B
102
}
330
3B
100
AcDbMaterial
  1
ByBlock
 72
     1
 94
      127
  0
MATERIAL
  5
3C
102
{ACAD_REACTORS
330
3B
102
}
330
3B
100
AcDbMaterial
  1
ByLayer
 72
     1
 94
      127
  0
MATERIAL
  5
3E
102
{ACAD_REACTORS
330
3B
102
}
330
3B
100
AcDbMaterial
  1
Global
 72
     1
 94
      127
  0
MLINESTYLE
  5
18
102
{ACAD_REACTORS
330
17
102
}
330
17
100
AcDbMlineStyle
  2
Standard
 70
     0
  3

 62
   256
 51
90.0
 52
90.0
 71
     2
 49
0.5
 62
   256
  6
BYLAYER
 49
-0.5
 62
   256
  6
BYLAYER
  0
ACDBPLACEHOLDER
  5
F
102
{ACAD_REACTORS
330
E
102
}
330
E
  0
VISUALSTYLE
  5
2F
102
{ACAD_REACTORS
330
2A
102
}
330
2A
100
AcDbVisualStyle
  2
2dWireframe
 70
     4
177
     2
291
     0
 71
     0
176
     1
 72
     2
176
     1
 73
     0
176
     1
 90
        0
176
     1
 40
-0.6
176
     1
 41
-30.0
176
     1
 62
     5
 63
     7
421
 16777215
176
     1
 74
     1
176
     1
 91
        4
176
     1
 64
     7
176
     1
 65
   257
176
     1
 75
     1
176
     1
175
     1
176
     1
 42
1.0
176
     1
 92
        0
176
     1
 66
   257
176
     1
 43
1.0
176
     1
 76
     1
176
     1
 77
     6
176
     1
 78
     2
176
     1
 67
     7
176
     1
 79
     5
176
     1
170
     0
176
     1
171
     0
176
     1
290
     0
176
     1
 93
        1
176
     1
 44
0.0
176
     1
173
     0
176
     1
  0
VISUALSTYLE
  5
31
102
{ACAD_REACTORS
330
2A
102
}
330
2A
100
AcDbVisualStyle
  2
3D Hidden
 70
     6
177
     2
291
     0
 71
     1
176
     1
 72
     2
176
     1
 73
     2
176
     1
 90
        0
176
     1
 40
-0.6
176
     1
 41
-30.0
176
     1
 62
     5
 63
     7
421
 16777215
176
     1
 74
     2
176
     1
 91
        2
176
     1
 64
     7
176
     1
 65
   257
176
     1
 75
     2
176
     1
175
     1
176
     1
 42
40.0
176
     1
 92
        0
176
     1
 66
   257
176
     1
 43
1.0
176
     1
 76
     1
176
     1
 77
     6
176
     1
 78
     2
176
     1
 67
     7
176
     1
 79
     3
176
     1
170
     0
176
     1
171
     0
176
     1
290
     0
176
     1
 93
        1
176
     1
 44
0.0
176
     1
173
     0
176
     1
  0
VISUALSTYLE
  5
30
102
{ACAD_REACTORS
330
2A
102
}
330
2A
100
AcDbVisualStyle
  2
3dWireframe
 70
     5
177
     2
291
     0
 71
     0
176
     1
 72
     2
176
     1
 73
     0
176
     1
 90
        0
176
     1
 40
-0.6
176
     1
 41
-30.0
176
     1
 62
     5
 63
     7
421
 16777215
176
     1
 74
     1
176
     1
 91
        4
176
     1
 64
     7
176
     1
 65
   257
176
     1
 75
     1
176
     1
175
     1
176
     1
 42
1.0
176
     1
 92
        0
176
     1
 66
   257
176
     1
 43
1.0
176
     1
 76
     1
176
     1
 77
     6
176
     1
 78
     2
176
     1
 67
     7
176
     1
 79
     5
176
     1
170
     0
176
     1
171
     0
176
     1
290
     0
176
     1
 93
        1
176
     1
 44
0.0
176
     1
173
     0
176
     1
  0
VISUALSTYLE
  5
32
102
{ACAD_REACTORS
330
2A
102
}
330
2A
100
AcDbVisualStyle
  2
Basic
 70
     7
177
     2
291
     1
 71
     1
176
     1
 72
     0
176
     1
 73
     1
176
     1
 90
        0
176
     1
 40
-0.6
176
     1
 41
-30.0
176
     1
 62
     5
 63
     7
421
 16777215
176
     1
 74
     0
176
     1
 91
        4
176
     1
 64
     7
176
     1
 65
   257
176
     1
 75
     1
176
     1
175
     1
176
     1
 42
1.0
176
     1
 92
        8
176
     1
 66
     7
176
     1
 43
1.0
176
     1
 76
     1
176
     1
 77
     6
176
     1
 78
     2
176
     1
 67
     7
176
     1
 79
     5
176
     1
170
     0
176
     1
171
     0
176
     1
290
     0
176
     1
 93
        1
176
     1
 44
0.0
176
     1
173
     0
176
     1
  0
VISUALSTYLE
  5
36
102
{ACAD_REACTORS
330
2A
102
}
330
2A
100
AcDbVisualStyle
  2
Brighten
 70
    12
177
     2
291
     1
 71
     2
176
     1
 72
     2
176
     1
 73
     0
176
     1
 90
        0
176
     1
 40
-0.6
176
     1
 41
-30.0
176
     1
 62
     5
 63
     7
421
 16777215
176
     1
 74
     1
176
     1
 91
        4
176
     1
 64
     7
176
     1
 65
   257
176
     1
 75
     1
176
     1
175
     1
176
     1
 42
1.0
176
     1
 92
        8
176
     1
 66
     7
176
     1
 43
1.0
176
     1
 76
     1
176
     1
 77
     6
176
     1
 78
     2
176
     1
 67
     7
176
     1
 79
     5
176
     1
170
     0
176
     1
171
     0
176
     1
290
     0
176
     1
 93
        1
176
     1
 44
50.0
176
     1
173
     0
176
     1
  0
VISUALSTYLE
  5
3A
102
{ACAD_REACTORS
330
2A
102
}
330
2A
100
AcDbVisualStyle
  2
ColorChange
 70
    16
177
     2
291
     1
 71
     2
176
     1
 72
     2
176
     1
 73
     3
176
     1
 90
        0
176
     1
 40
-0.6
176
     1
 41
-30.0
176
     1
 62
     5
 63
     8
421
  8421504
176
     1
 74
     1
176
     1
 91
        4
176
     1
 64
     7
176
     1
 65
   257
176
     1
 75
     1
176
     1
175
     1
176
     1
 42
1.0
176
     1
 92
        8
176
     1
 66
     8
424
  8421504
176
     1
 43
1.0
176
     1
 76
     1
176
     1
 77
     6
176
     1
 78
     2
176
     1
 67
     7
176
     1
 79
     5
176
     1
170
     0
176
     1
171
     0
176
     1
290
     0
176
     1
 93
        1
176
     1
 44
0.0
176
     1
173
     0
176
     1
  0
VISUALSTYLE
  5
34
102
{ACAD_REACTORS
330
2A
102
}
330
2A
100
AcDbVisualStyle
  2
Conceptual
 70
     9
177
     2
291
     0
 71
     3
176
     1
 72
     2
176
     1
 73
     0
176
     1
 90
        0
176
     1
 40
-0.6
176
     1
 41
-30.0
176
     1
 62
     5
 63
     7
421
 16777215
176
     1
 74
     2
176
     1
 91
        2
176
     1
 64
     7
176
     1
 65
   257
176
     1
 75
     1
176
     1
175
     1
176
     1
 42
40.0
176
     1
 92
        8
176
     1
 66
     7
176
     1
 43
1.0
176
     1
 76
     1
176
     1
 77
     6
176
     1
 78
     2
176
     1
 67
     7
176
     1
 79
     3
176
     1
170
     0
176
     1
171
     0
176
     1
290
     0
176
     1
 93
        1
176
     1
 44
0.0
176
     1
173
     0
176
     1
  0
VISUALSTYLE
  5
35
102
{ACAD_REACTORS
330
2A
102
}
330
2A
100
AcDbVisualStyle
  2
Dim
 70
    11
177
     2
291
     1
 71
     2
176
     1
 72
     2
176
     1
 73
     0
176
     1
 90
        0
176
     1
 40
-0.6
176
     1
 41
-30.0
176
     1
 62
     5
 63
     7
421
 16777215
176
     1
 74
     1
176
     1
 91
        4
176
     1
 64
     7
176
     1
 65
   257
176
     1
 75
     1
176
     1
175
     1
176
     1
 42
1.0
176
     1
 92
        8
176
     1
 66
     7
176
     1
 43
1.0
176
     1
 76
     1
176
     1
 77
     6
176
     1
 78
     2
176
     1
 67
     7
176
     1
 79
     5
176
     1
170
     0
176
     1
171
     0
176
     1
290
     0
176
     1
 93
        1
176
     1
 44
-50.0
176
     1
173
     0
176
     1
  0
VISUALSTYLE
  5
39
102
{ACAD_REACTORS
330
2A
102
}
330
2A
100
AcDbVisualStyle
  2
Facepattern
 70
    15
177
     2
291
     1
 71
     2
176
     1
 72
     2
176
     1
 73
     0
176
     1
 90
        0
176
     1
 40
-0.6
176
     1
 41
-30.0
176
     1
 62
     5
 63
     7
421
 16777215
176
     1
 74
     1
176
     1
 91
        4
176
     1
 64
     7
176
     1
 65
   257
176
     1
 75
     1
176
     1
175
     1
176
     1
 42
1.0
176
     1
 92
        8
176
     1
 66
     7
176
     1
 43
1.0
176
     1
 76
     1
176
     1
 77
     6
176
     1
 78
     2
176
     1
 67
     7
176
     1
 79
     5
176
     1
170
     0
176
     1
171
     0
176
     1
290
     0
176
     1
 93
        1
176
     1
 44
0.0
176
     1
173
     0
176
     1
  0
VISUALSTYLE
  5
2B
102
{ACAD_REACTORS
330
2A
102
}
330
2A
100
AcDbVisualStyle
  2
Flat
 70
     0
177
     2
291
     1
 71
     2
176
     1
 72
     1
176
     1
 73
     1
176
     1
 90
        2
176
     1
 40
-0.6
176
     1
 41
30.0
176
     1
 62
     5
 63
     7
421
 16777215
176
     1
 74
     0
176
     1
 91
        4
176
     1
 64
     7
176
     1
 65
   257
176
     1
 75
     1
176
     1
175
     1
176
     1
 42
1.0
176
     1
 92
        8
176
     1
 66
     7
176
     1
 43
1.0
176
     1
 76
     1
176
     1
 77
     6
176
     1
 78
     2
176
     1
 67
     7
176
     1
 79
     5
176
     1
170
     0
176
     1
171
     0
176
     1
290
     0
176
     1
 93
       13
176
     1
 44
0.0
176
     1
173
     0
176
     1
  0
VISUALSTYLE
  5
2C
102
{ACAD_REACTORS
330
2A
102
}
330
2A
100
AcDbVisualStyle
  2
FlatWithEdges
 70
     1
177
     2
291
     1
 71
     2
176
     1
 72
     1
176
     1
 73
     1
176
     1
 90
        2
176
     1
 40
-0.6
176
     1
 41
30.0
176
     1
 62
     5
 63
     7
421
 16777215
176
     1
 74
     1
176
     1
 91
        4
176
     1
 64
     7
176
     1
 65
   257
176
     1
 75
     1
176
     1
175
     1
176
     1
 42
1.0
176
     1
 92
        0
176
     1
 66
   257
176
     1
 43
1.0
176
     1
 76
     1
176
     1
 77
     6
176
     1
 78
     2
176
     1
 67
     7
176
     1
 79
     5
176
     1
170
     0
176
     1
171
     0
176
     1
290
     0
176
     1
 93
       13
176
     1
 44
0.0
176
     1
173
     0
176
     1
  0
VISUALSTYLE
  5
2D
102
{ACAD_REACTORS
330
2A
102
}
330
2A
100
AcDbVisualStyle
  2
Gouraud
 70
     2
177
     2
291
     1
 71
     2
176
     1
 72
     2
176
     1
 73
     1
176
     1
 90
        2
176
     1
 40
-0.6
176
     1
 41
30.0
176
     1
 62
     5
 63
     7
421
 16777215
176
     1
 74
     0
176
     1
 91
        4
176
     1
 64
     7
176
     1
 65
   257
176
     1
 75
     1
176
     1
175
     1
176
     1
 42
1.0
176
     1
 92
        0
176
     1
 66
     7
176
     1
 43
1.0
176
     1
 76
     1
176
     1
 77
     6
176
     1
 78
     2
176
     1
 67
     7
176
     1
 79
     5
176
     1
170
     0
176
     1
171
     0
176
     1
290
     0
176
     1
 93
       13
176
     1
 44
0.0
176
     1
173
     0
176
     1
  0
VISUALSTYLE
  5
2E
102
{ACAD_REACTORS
330
2A
102
}
330
2A
100
AcDbVisualStyle
  2
GouraudWithEdges
 70
     3
177
     2
291
     1
 71
     2
176
     1
 72
     2
176
     1
 73
     1
176
     1
 90
        2
176
     1
 40
-0.6
176
     1
 41
30.0
176
     1
 62
     5
 63
     7
421
 16777215
176
     1
 74
     1
176
     1
 91
        4
176
     1
 64
     7
176
     1
 65
   257
176
     1
 75
     1
176
     1
175
     1
176
     1
 42
1.0
176
     1
 92
        0
176
     1
 66
   257
176
     1
 43
1.0
176
     1
 76
     1
176
     1
 77
     6
176
     1
 78
     2
176
     1
 67
     7
176
     1
 79
     5
176
     1
170
     0
176
     1
171
     0
176
     1
290
     0
176
     1
 93
       13
176
     1
 44
0.0
176
     1
173
     0
176
     1
  0
VISUALSTYLE
  5
38
102
{ACAD_REACTORS
330
2A
102
}
330
2A
100
AcDbVisualStyle
  2
Linepattern
 70
    14
177
     2
291
     1
 71
     2
176
     1
 72
     2
176
     1
 73
     0
176
     1
 90
        0
176
     1
 40
-0.6
176
     1
 41
-30.0
176
     1
 62
     5
 63
     7
421
 16777215
176
     1
 74
     1
176
     1
 91
        4
176
     1
 64
     7
176
     1
 65
   257
176
     1
 75
     7
176
     1
175
     7
176
     1
 42
1.0
176
     1
 92
        8
176
     1
 66
     7
176
     1
 43
1.0
176
     1
 76
     1
176
     1
 77
     6
176
     1
 78
     2
176
     1
 67
     7
176
     1
 79
     5
176
     1
170
     0
176
     1
171
     0
176
     1
290
     0
176
     1
 93
        1
176
     1
 44
0.0
176
     1
173
     0
176
     1
  0
VISUALSTYLE
  5
33
102
{ACAD_REACTORS
330
2A
102
}
330
2A
100
AcDbVisualStyle
  2
Realistic
 70
     8
177
     2
291
     0
 71
     2
176
     1
 72
     2
176
     1
 73
     0
176
     1
 90
        0
176
     1
 40
-0.6
176
     1
 41
-30.0
176
     1
 62
     5
 63
     7
421
 16777215
176
     1
 74
     1
176
     1
 91
        0
176
     1
 64
     7
176
     1
 65
   257
176
     1
 75
     1
176
     1
175
     1
176
     1
 42
1.0
176
     1
 92
        8
176
     1
 66
     8
424
  7895160
176
     1
 43
1.0
176
     1
 76
     1
176
     1
 77
     6
176
     1
 78
     2
176
     1
 67
     7
176
     1
 79
     5
176
     1
170
     0
176
     1
171
     0
176
     1
290
     0
176
     1
 93
       13
176
     1
 44
0.0
176
     1
173
     0
176
     1
  0
VISUALSTYLE
  5
37
102
{ACAD_REACTORS
330
2A
102
}
330
2A
100
AcDbVisualStyle
  2
Thicken
 70
    13
177
     2
291
     1
 71
     2
176
     1
 72
     2
176
     1
 73
     0
176
     1
 90
        0
176
     1
 40
-0.6
176
     1
 41
-30.0
176
     1
 62
     5
 63
     7
421
 16777215
176
     1
 74
     1
176
     1
 91
        4
176
     1
 64
     7
176
     1
 65
   257
176
     1
 75
     1
176
     1
175
     1
176
     1
 42
1.0
176
     1
 92
       12
176
     1
 66
     7
176
     1
 43
1.0
176
     1
 76
     1
176
     1
 77
     6
176
     1
 78
     2
176
     1
 67
     7
176
     1
 79
     5
176
     1
170
     0
176
     1
171
     0
176
     1
290
     0
176
     1
 93
        1
176
     1
 44
0.0
176
     1
173
     0
176
     1
  0
ENDSEC
  0
EOF
