  0
SECTION
  2
HEADER
  9
$ACADVER
  1
AC1024
  9
$ACADMAINTVER
 70
     6
  9
$DWGCODEPAGE
  3
UNDEFINED
  9
$INSBASE
 10
0.0
 20
0.0
 30
0.0
  9
$EXTMIN
 10
1.000000000000000E+20
 20
1.000000000000000E+20
 30
1.000000000000000E+20
  9
$EXTMAX
 10
-1.000000000000000E+20
 20
-1.000000000000000E+20
 30
-1.000000000000000E+20
  9
$LIMMIN
 10
0.0
 20
0.0
  9
$LIMMAX
 10
12.0
 20
9.0
  9
$ORTHOMODE
 70
     0
  9
$REGENMODE
 70
     1
  9
$FILLMODE
 70
     1
  9
$QTEXTMODE
 70
     0
  9
$MIRRTEXT
 70
     1
  9
$LTSCALE
 40
1.0
  9
$ATTMODE
 70
     1
  9
$TEXTSIZE
 40
0.2
  9
$TRACEWID
 40
0.05
  9
$TEXTSTYLE
  7
Standard
  9
$CLAYER
  8
0
  9
$CELTYPE
  6
ByLayer
  9
$CECOLOR
 62
   256
  9
$CELTSCALE
 40
1.0
  9
$DISPSILH
 70
     0
  9
$DIMSCALE
 40
1.0
  9
$DIMASZ
 40
0.18
  9
$DIMEXO
 40
0.0625
  9
$DIMDLI
 40
0.38
  9
$DIMRND
 40
0.0
  9
$DIMDLE
 40
0.0
  9
$DIMEXE
 40
0.18
  9
$DIMTP
 40
0.0
  9
$DIMTM
 40
0.0
  9
$DIMTXT
 40
0.18
  9
$DIMCEN
 40
0.09
  9
$DIMTSZ
 40
0.0
  9
$DIMTOL
 70
     0
  9
$DIMLIM
 70
     0
  9
$DIMTIH
 70
     1
  9
$DIMTOH
 70
     1
  9
$DIMSE1
 70
     0
  9
$DIMSE2
 70
     0
  9
$DIMTAD
 70
     0
  9
$DIMZIN
 70
     0
  9
$DIMBLK
  1

  9
$DIMASO
 70
     1
  9
$DIMSHO
 70
     1
  9
$DIMPOST
  1

  9
$DIMAPOST
  1

  9
$DIMALT
 70
     0
  9
$DIMALTD
 70
     2
  9
$DIMALTF
 40
25.4
  9
$DIMLFAC
 40
1.0
  9
$DIMTOFL
 70
     0
  9
$DIMTVP
 40
0.0
  9
$DIMTIX
 70
     0
  9
$DIMSOXD
 70
     0
  9
$DIMSAH
 70
     0
  9
$DIMBLK1
  1

  9
$DIMBLK2
  1

  9
$DIMSTYLE
  2
Standard
  9
$DIMCLRD
 70
     0
  9
$DIMCLRE
 70
     0
  9
$DIMCLRT
 70
     0
  9
$DIMTFAC
 40
1.0
  9
$DIMGAP
 40
0.09
  9
$DIMJUST
 70
     0
  9
$DIMSD1
 70
     0
  9
$DIMSD2
 70
     0
  9
$DIMTOLJ
 70
     1
  9
$DIMTZIN
 70
     0
  9
$DIMALTZ
 70
     0
  9
$DIMALTTZ
 70
     0
  9
$DIMUPT
 70
     0
  9
$DIMDEC
 70
     4
  9
$DIMTDEC
 70
     4
  9
$DIMALTU
 70
     2
  9
$DIMALTTD
 70
     2
  9
$DIMTXSTY
  7
Standard
  9
$DIMAUNIT
 70
     0
  9
$DIMADEC
 70
     0
  9
$DIMALTRND
 40
0.0
  9
$DIMAZIN
 70
     0
  9
$DIMDSEP
 70
    46
  9
$DIMATFIT
 70
     3
  9
$DIMFRAC
 70
     0
  9
$DIMLDRBLK
  1

  9
$DIMLUNIT
 70
     2
  9
$DIMLWD
 70
    -2
  9
$DIMLWE
 70
    -2
  9
$DIMTMOVE
 70
     0
  9
$DIMFXL
 40
1.0
  9
$DIMFXLON
 70
     0
  9
$DIMJOGANG
 40
0.7853981633974483
  9
$DIMTFILL
 70
     0
  9
$DIMTFILLCLR
 70
     0
  9
$DIMARCSYM
 70
     0
  9
$DIMLTYPE
  6

  9
$DIMLTEX1
  6

  9
$DIMLTEX2
  6

  9
$DIMTXTDIRECTION
 70
     0
  9
$LUNITS
 70
     2
  9
$LUPREC
 70
     4
  9
$SKETCHINC
 40
0.1
  9
$FILLETRAD
 40
0.5
  9
$AUNITS
 70
     0
  9
$AUPREC
 70
     0
  9
$MENU
  1
.
  9
$ELEVATION
 40
0.0
  9
$PELEVATION
 40
0.0
  9
$THICKNESS
 40
0.0
  9
$LIMCHECK
 70
     0
  9
$CHAMFERA
 40
0.5
  9
$CHAMFERB
 40
0.5
  9
$CHAMFERC
 40
1.0
  9
$CHAMFERD
 40
0.0
  9
$SKPOLY
 70
     0
  9
$TDCREATE
 40
2457917.61034721
  9
$TDUCREATE
 40
2457917.235347222
  9
$TDUPDATE
 40
2457917.61034721
  9
$TDUUPDATE
 40
2457917.235347222
  9
$TDINDWG
 40
0.0000000116
  9
$TDUSRTIMER
 40
0.0000000116
  9
$USRTIMER
 70
     1
  9
$ANGBASE
 50
0.0
  9
$ANGDIR
 70
     0
  9
$PDMODE
 70
     0
  9
$PDSIZE
 40
0.0
  9
$PLINEWID
 40
0.0
  9
$SPLFRAME
 70
     0
  9
$SPLINETYPE
 70
     6
  9
$SPLINESEGS
 70
     8
  9
$HANDSEED
  5
144
  9
$SURFTAB1
 70
     6
  9
$SURFTAB2
 70
     6
  9
$SURFTYPE
 70
     6
  9
$SURFU
 70
     6
  9
$SURFV
 70
     6
  9
$UCSBASE
  2

  9
$UCSNAME
  2

  9
$UCSORG
 10
0.0
 20
0.0
 30
0.0
  9
$UCSXDIR
 10
1.0
 20
0.0
 30
0.0
  9
$UCSYDIR
 10
0.0
 20
1.0
 30
0.0
  9
$UCSORTHOREF
  2

  9
$UCSORTHOVIEW
 70
     0
  9
$UCSORGTOP
 10
0.0
 20
0.0
 30
0.0
  9
$UCSORGBOTTOM
 10
0.0
 20
0.0
 30
0.0
  9
$UCSORGLEFT
 10
0.0
 20
0.0
 30
0.0
  9
$UCSORGRIGHT
 10
0.0
 20
0.0
 30
0.0
  9
$UCSORGFRONT
 10
0.0
 20
0.0
 30
0.0
  9
$UCSORGBACK
 10
0.0
 20
0.0
 30
0.0
  9
$PUCSBASE
  2

  9
$PUCSNAME
  2

  9
$PUCSORG
 10
0.0
 20
0.0
 30
0.0
  9
$PUCSXDIR
 10
1.0
 20
0.0
 30
0.0
  9
$PUCSYDIR
 10
0.0
 20
1.0
 30
0.0
  9
$PUCSORTHOREF
  2

  9
$PUCSORTHOVIEW
 70
     0
  9
$PUCSORGTOP
 10
0.0
 20
0.0
 30
0.0
  9
$PUCSORGBOTTOM
 10
0.0
 20
0.0
 30
0.0
  9
$PUCSORGLEFT
 10
0.0
 20
0.0
 30
0.0
  9
$PUCSORGRIGHT
 10
0.0
 20
0.0
 30
0.0
  9
$PUCSORGFRONT
 10
0.0
 20
0.0
 30
0.0
  9
$PUCSORGBACK
 10
0.0
 20
0.0
 30
0.0
  9
$USERI1
 70
     0
  9
$USERI2
 70
     0
  9
$USERI3
 70
     0
  9
$USERI4
 70
     0
  9
$USERI5
 70
     0
  9
$USERR1
 40
0.0
  9
$USERR2
 40
0.0
  9
$USERR3
 40
0.0
  9
$USERR4
 40
0.0
  9
$USERR5
 40
0.0
  9
$WORLDVIEW
 70
     1
  9
$SHADEDGE
 70
     3
  9
$SHADEDIF
 70
    70
  9
$TILEMODE
 70
     1
  9
$MAXACTVP
 70
    64
  9
$PINSBASE
 10
0.0
 20
0.0
 30
0.0
  9
$PLIMCHECK
 70
     0
  9
$PEXTMIN
 10
1.000000000000000E+20
 20
1.000000000000000E+20
 30
1.000000000000000E+20
  9
$PEXTMAX
 10
-1.000000000000000E+20
 20
-1.000000000000000E+20
 30
-1.000000000000000E+20
  9
$PLIMMIN
 10
0.0
 20
0.0
  9
$PLIMMAX
 10
12.0
 20
9.0
  9
$UNITMODE
 70
     0
  9
$VISRETAIN
 70
     1
  9
$PLINEGEN
 70
     0
  9
$PSLTSCALE
 70
     1
  9
$TREEDEPTH
 70
  3020
  9
$CMLSTYLE
  2
Standard
  9
$CMLJUST
 70
     0
  9
$CMLSCALE
 40
1.0
  9
$PROXYGRAPHICS
 70
     1
  9
$MEASUREMENT
 70
     0
  9
$CELWEIGHT
370
    -1
  9
$ENDCAPS
280
     0
  9
$JOINSTYLE
280
     0
  9
$LWDISPLAY
290
     1
  9
$INSUNITS
 70
     1
  9
$HYPERLINKBASE
  1

  9
$STYLESHEET
  1

  9
$XEDIT
290
     1
  9
$CEPSNTYPE
380
     0
  9
$PSTYLEMODE
290
     1
  9
$FINGERPRINTGUID
  2
{CD673DCA-25E2-2B3E-1C97-6FD8688603A1}
  9
$VERSIONGUID
  2
{FAEB1C32-E019-11D5-929B-00C0DF256EC4}
  9
$EXTNAMES
290
     1
  9
$PSVPSCALE
 40
0.0
  9
$OLESTARTUP
290
     0
  9
$SORTENTS
280
   127
  9
$INDEXCTL
280
     0
  9
$HIDETEXT
280
     1
  9
$XCLIPFRAME
280
     2
  9
$HALOGAP
280
     0
  9
$OBSCOLOR
 70
   257
  9
$OBSLTYPE
280
     0
  9
$INTERSECTIONDISPLAY
280
     0
  9
$INTERSECTIONCOLOR
 70
   257
  9
$DIMASSOC
280
     2
  9
$PROJECTNAME
  1

  9
$CAMERADISPLAY
290
     0
  9
$LENSLENGTH
 40
50.0
  9
$CAMERAHEIGHT
 40
0.0
  9
$STEPSPERSEC
 40
2.0
  9
$STEPSIZE
 40
6.0
  9
$3DDWFPREC
 40
2.0
  9
$PSOLWIDTH
 40
0.25
  9
$PSOLHEIGHT
 40
4.0
  9
$LOFTANG1
 40
1.570796326794897
  9
$LOFTANG2
 40
1.570796326794897
  9
$LOFTMAG1
 40
0.0
  9
$LOFTMAG2
 40
0.0
  9
$LOFTPARAM
 70
     7
  9
$LOFTNORMALS
280
     1
  9
$LATITUDE
 40
37.795
  9
$LONGITUDE
 40
-122.394
  9
$NORTHDIRECTION
 40
0.0
  9
$TIMEZONE
 70
 -8000
  9
$LIGHTGLYPHDISPLAY
280
     1
  9
$TILEMODELIGHTSYNCH
280
     1
  9
$CMATERIAL
347
3C
  9
$SOLIDHIST
280
     1
  9
$SHOWHIST
280
     1
  9
$DWFFRAME
280
     2
  9
$DGNFRAME
280
     2
  9
$REALWORLDSCALE
290
     1
  9
$INTERFERECOLOR
 62
   256
  9
$CSHADOW
280
     0
  9
$SHADOWPLANELOCATION
 40
0.0
  0
ENDSEC
  0
SECTION
  2
CLASSES
  0
CLASS
  1
ACDBDICTIONARYWDFLT
  2
AcDbDictionaryWithDefault
  3
ObjectDBX Classes
 90
        0
 91
        4
280
     0
281
     0
  0
CLASS
  1
VISUALSTYLE
  2
AcDbVisualStyle
  3
ObjectDBX Classes
 90
     4095
 91
        4
280
     0
281
     0
  0
CLASS
  1
MATERIAL
  2
AcDbMaterial
  3
ObjectDBX Classes
 90
     1153
 91
        4
280
     0
281
     0
  0
CLASS
  1
SUN
  2
AcDbSun
  3
SCENEOE
 90
     1024
 91
        4
280
     0
281
     0
  0
ENDSEC
  0
SECTION
  2
TABLES
  0
TABLE
  2
VPORT
  5
8
330
0
100
AcDbSymbolTable
 70
     1
  0
VPORT
  5
29
330
8
100
AcDbSymbolTableRecord
100
AcDbViewportTableRecord
  2
*Active
 70
     0
 10
0.0
 20
0.0
 11
1.0
 21
1.0
 12
0.0
 22
0.0
 13
0.0
 23
0.0
 14
0.5
 24
0.5
 15
0.5
 25
0.5
 16
0.0
 26
0.0
 36
1.0
 17
105.0008280156501
 27
-148.4999710739862
 37
0.0
 40
296.9999421479724
 41
0.7070764206636528
 42
50.0
 43
0.0
 44
0.0
 50
0.0
 51
0.0
 71
     0
 72
   100
 73
     1
 74
     3
 75
     0
 76
     0
 77
     0
 78
     0
281
     0
 65
     1
110
0.0
120
0.0
130
0.0
111
1.0
121
0.0
131
0.0
112
0.0
122
1.0
132
0.0
 79
     0
146
0.0
 60
     3
 61
     5
292
     1
282
     1
141
0.0
142
0.0
 63
   250
361
3F
  0
ENDTAB
  0
TABLE
  2
LTYPE
  5
5
330
0
100
AcDbSymbolTable
 70
     3
  0
LTYPE
  5
14
330
5
100
AcDbSymbolTableRecord
100
AcDbLinetypeTableRecord
  2
ByBlock
 70
     0
  3

 72
    65
 73
     0
 40
0.0
  0
LTYPE
  5
15
330
5
100
AcDbSymbolTableRecord
100
AcDbLinetypeTableRecord
  2
ByLayer
 70
     0
  3

 72
    65
 73
     0
 40
0.0
  0
LTYPE
  5
16
330
5
100
AcDbSymbolTableRecord
100
AcDbLinetypeTableRecord
  2
Continuous
 70
     0
  3
Solid line
 72
    65
 73
     0
 40
0.0
  0
LTYPE
  5
139
330
5
100
AcDbSymbolTableRecord
100
AcDbLinetypeTableRecord
  2
AI-Linetype-1
 70
     0
  3
Adobe Illustrator Linetype No. 1
 72
    65
 73
     2
 40
1.411111110758333
 49
0.7055555553791667
 74
     0
 49
-0.7055555553791667
 74
     0
  0
LTYPE
  5
140
330
5
100
AcDbSymbolTableRecord
100
AcDbLinetypeTableRecord
  2
AI-Linetype-2
 70
     0
  3
Adobe Illustrator Linetype No. 2
 72
    65
 73
     2
 40
1.411111110758333
 49
0.7055555553791667
 74
     0
 49
-0.7055555553791667
 74
     0
  0
ENDTAB
  0
TABLE
  2
LAYER
  5
2
330
0
100
AcDbSymbolTable
 70
     2
  0
LAYER
  5
10
330
2
100
AcDbSymbolTableRecord
100
AcDbLayerTableRecord
  2
0
 70
     0
 62
     7
  6
Continuous
370
    -3
390
F
347
3E
  0
LAYER
  5
40
330
2
100
AcDbSymbolTableRecord
100
AcDbLayerTableRecord
  2
_U+30EC_U+30A4_U+30E4_U+30FC 1
 70
     0
 62
     7
  6
Continuous
370
    -3
390
F
347
3E
  0
ENDTAB
  0
TABLE
  2
STYLE
  5
3
330
0
100
AcDbSymbolTable
 70
     1
  0
STYLE
  5
11
330
3
100
AcDbSymbolTableRecord
100
AcDbTextStyleTableRecord
  2
Standard
 70
     0
 40
0.0
 41
1.0
 50
0.0
 71
     0
 42
0.2
  3
txt
  4

  0
ENDTAB
  0
TABLE
  2
VIEW
  5
6
330
0
100
AcDbSymbolTable
 70
     0
  0
ENDTAB
  0
TABLE
  2
UCS
  5
7
330
0
100
AcDbSymbolTable
 70
     0
  0
ENDTAB
  0
TABLE
  2
APPID
  5
9
330
0
100
AcDbSymbolTable
 70
     1
  0
APPID
  5
12
330
9
100
AcDbSymbolTableRecord
100
AcDbRegAppTableRecord
  2
ACAD
 70
     0
  0
ENDTAB
  0
TABLE
  2
DIMSTYLE
  5
A
330
0
100
AcDbSymbolTable
 70
     1
100
AcDbDimStyleTable
  0
DIMSTYLE
105
27
330
A
100
AcDbSymbolTableRecord
100
AcDbDimStyleTableRecord
  2
Standard
 70
     0
178
     0
340
11
  0
ENDTAB
  0
TABLE
  2
BLOCK_RECORD
  5
1
330
0
100
AcDbSymbolTable
 70
     8
  0
BLOCK_RECORD
  5
1F
330
1
100
AcDbSymbolTableRecord
100
AcDbBlockTableRecord
  2
*Model_Space
340
22
 70
     0
280
     1
281
     0
  0
BLOCK_RECORD
  5
1B
330
1
100
AcDbSymbolTableRecord
100
AcDbBlockTableRecord
  2
*Paper_Space
340
1E
 70
     0
280
     1
281
     0
  0
BLOCK_RECORD
  5
23
330
1
100
AcDbSymbolTableRecord
100
AcDbBlockTableRecord
  2
*Paper_Space0
340
26
 70
     0
280
     1
281
     0
  0
BLOCK_RECORD
  5
71
330
1
100
AcDbSymbolTableRecord
100
AcDbBlockTableRecord
  2
block 2
340
0
102
{BLKREFS
331
72
102
}
 70
     0
280
     1
281
     0
  0
BLOCK_RECORD
  5
89
330
1
100
AcDbSymbolTableRecord
100
AcDbBlockTableRecord
  2
block 3
340
0
102
{BLKREFS
331
8A
102
}
 70
     0
280
     1
281
     0
  0
BLOCK_RECORD
  5
A9
330
1
100
AcDbSymbolTableRecord
100
AcDbBlockTableRecord
  2
block 4
340
0
102
{BLKREFS
331
AA
102
}
 70
     0
280
     1
281
     0
  0
BLOCK_RECORD
  5
D9
330
1
100
AcDbSymbolTableRecord
100
AcDbBlockTableRecord
  2
block 5
340
0
102
{BLKREFS
331
DA
102
}
 70
     0
280
     1
281
     0
  0
BLOCK_RECORD
  5
E8
330
1
100
AcDbSymbolTableRecord
100
AcDbBlockTableRecord
  2
block 6
340
0
102
{BLKREFS
331
E9
102
}
 70
     0
280
     1
281
     0
  0
BLOCK_RECORD
  5
F4
330
1
100
AcDbSymbolTableRecord
100
AcDbBlockTableRecord
  2
block 7
340
0
102
{BLKREFS
331
F5
102
}
 70
     0
280
     1
281
     0
  0
BLOCK_RECORD
  5
132
330
1
100
AcDbSymbolTableRecord
100
AcDbBlockTableRecord
  2
block 8
340
0
102
{BLKREFS
331
133
102
}
 70
     0
280
     1
281
     0
  0
ENDTAB
  0
ENDSEC
  0
SECTION
  2
BLOCKS
  0
BLOCK
  5
20
330
1F
100
AcDbEntity
  8
0
100
AcDbBlockBegin
  2
*Model_Space
 70
     0
 10
0.0
 20
0.0
 30
0.0
  3
*Model_Space
  1

  0
ENDBLK
  5
21
330
1F
100
AcDbEntity
  8
0
100
AcDbBlockEnd
  0
BLOCK
  5
1C
330
1B
100
AcDbEntity
 67
     1
  8
0
100
AcDbBlockBegin
  2
*Paper_Space
 70
     0
 10
0.0
 20
0.0
 30
0.0
  3
*Paper_Space
  1

  0
ENDBLK
  5
1D
330
1B
100
AcDbEntity
 67
     1
  8
0
100
AcDbBlockEnd
  0
BLOCK
  5
24
330
23
100
AcDbEntity
  8
0
100
AcDbBlockBegin
  2
*Paper_Space0
 70
     0
 10
0.0
 20
0.0
 30
0.0
  3
*Paper_Space0
  1

  0
ENDBLK
  5
25
330
23
100
AcDbEntity
  8
0
100
AcDbBlockEnd
  0
BLOCK
  5
73
330
71
100
AcDbEntity
  8
0
100
AcDbBlockBegin
  2
block 2
 70
     0
 10
0.0
 20
0.0
 30
0.0
  3
block 2
  1

  0
SPLINE
  5
75
330
71
100
AcDbEntity
  8
_U+30EC_U+30A4_U+30E4_U+30FC 1
370
     0
100
AcDbSpline
210
0.0
220
0.0
230
1.0
 70
    11
 71
     3
 72
    26
 73
    22
 74
     0
 42
0.0000000001
 43
0.0000000001
 12
1.0
 22
0.0
 32
0.0
 13
1.0
 23
0.0
 33
0.0
 40
0.0
 40
0.0
 40
0.0
 40
0.0
 40
1.0
 40
1.0
 40
1.0
 40
2.0
 40
2.0
 40
2.0
 40
3.0
 40
3.0
 40
3.0
 40
4.0
 40
4.0
 40
4.0
 40
5.0
 40
5.0
 40
5.0
 40
6.0
 40
6.0
 40
6.0
 40
7.0
 40
7.0
 40
7.0
 40
7.0
 10
103.0610649698945
 20
-158.4737033023955
 30
0.0
 10
103.0610649698945
 20
-158.4737033023955
 30
0.0
 10
103.0610649698945
 20
-157.3695501993729
 30
0.0
 10
103.0610649698945
 20
-157.3695501993729
 30
0.0
 10
103.0610649698945
 20
-157.3695501993729
 30
0.0
 10
102.7310248224075
 20
-157.3695501993729
 30
0.0
 10
102.7310248224075
 20
-157.3695501993729
 30
0.0
 10
102.7310248224075
 20
-157.3695501993729
 30
0.0
 10
102.7310248224075
 20
-157.2214110935072
 30
0.0
 10
102.7310248224075
 20
-157.2214110935072
 30
0.0
 10
103.0631320271856
 20
-157.2065971829206
 30
0.0
 10
103.1096408162365
 20
-157.0436441664683
 30
0.0
 10
103.1392686374096
 20
-156.929266996358
 30
0.0
 10
103.1392686374096
 20
-156.929266996358
 30
0.0
 10
103.2853406859842
 20
-156.929266996358
 30
0.0
 10
103.2853406859842
 20
-156.929266996358
 30
0.0
 10
103.2853406859842
 20
-156.929266996358
 30
0.0
 10
103.2853406859842
 20
-158.4737033023955
 30
0.0
 10
103.2853406859842
 20
-158.4737033023955
 30
0.0
 10
103.2853406859842
 20
-158.4737033023955
 30
0.0
 10
103.0610649698945
 20
-158.4737033023955
 30
0.0
 10
103.0610649698945
 20
-158.4737033023955
 30
0.0
  0
HATCH
  5
76
330
71
100
AcDbEntity
  8
_U+30EC_U+30A4_U+30E4_U+30FC 1
 62
     7
420
 16777215
100
AcDbHatch
 10
0.0
 20
0.0
 30
0.0
210
0.0
220
0.0
230
1.0
  2
SOLID
 70
     1
 71
     0
 91
        1
 92
        1
 93
        1
 72
     4
 94
        3
 73
     0
 74
     1
 95
       26
 96
       22
 40
0.0
 40
0.0
 40
0.0
 40
0.0
 40
1.0
 40
1.0
 40
1.0
 40
2.0
 40
2.0
 40
2.0
 40
3.0
 40
3.0
 40
3.0
 40
4.0
 40
4.0
 40
4.0
 40
5.0
 40
5.0
 40
5.0
 40
6.0
 40
6.0
 40
6.0
 40
7.0
 40
7.0
 40
7.0
 40
7.0
 10
103.0610649698945
 20
-158.4737033023955
 10
103.0610649698945
 20
-158.4737033023955
 10
103.0610649698945
 20
-157.3695501993729
 10
103.0610649698945
 20
-157.3695501993729
 10
103.0610649698945
 20
-157.3695501993729
 10
102.7310248224075
 20
-157.3695501993729
 10
102.7310248224075
 20
-157.3695501993729
 10
102.7310248224075
 20
-157.3695501993729
 10
102.7310248224075
 20
-157.2214110935072
 10
102.7310248224075
 20
-157.2214110935072
 10
103.0631320271856
 20
-157.2065971829206
 10
103.1096408162365
 20
-157.0436441664683
 10
103.1392686374096
 20
-156.929266996358
 10
103.1392686374096
 20
-156.929266996358
 10
103.2853406859842
 20
-156.929266996358
 10
103.2853406859842
 20
-156.929266996358
 10
103.2853406859842
 20
-156.929266996358
 10
103.2853406859842
 20
-158.4737033023955
 10
103.2853406859842
 20
-158.4737033023955
 10
103.2853406859842
 20
-158.4737033023955
 10
103.0610649698945
 20
-158.4737033023955
 10
103.0610649698945
 20
-158.4737033023955
 97
        0
 97
        0
 75
     2
 76
     1
 98
        0
  0
SPLINE
  5
77
330
71
100
AcDbEntity
  8
_U+30EC_U+30A4_U+30E4_U+30FC 1
370
     0
100
AcDbSpline
210
0.0
220
0.0
230
1.0
 70
    11
 71
     3
 72
    26
 73
    22
 74
     0
 42
0.0000000001
 43
0.0000000001
 12
1.0
 22
0.0
 32
0.0
 13
1.0
 23
0.0
 33
0.0
 40
0.0
 40
0.0
 40
0.0
 40
0.0
 40
1.0
 40
1.0
 40
1.0
 40
2.0
 40
2.0
 40
2.0
 40
3.0
 40
3.0
 40
3.0
 40
4.0
 40
4.0
 40
4.0
 40
5.0
 40
5.0
 40
5.0
 40
6.0
 40
6.0
 40
6.0
 40
7.0
 40
7.0
 40
7.0
 40
7.0
 10
104.1976019704784
 20
-158.4737033023955
 30
0.0
 10
104.1976019704784
 20
-158.4737033023955
 30
0.0
 10
103.9605794010932
 20
-158.4737033023955
 30
0.0
 10
103.9605794010932
 20
-158.4737033023955
 30
0.0
 10
103.986073107684
 20
-158.1646782373685
 30
0.0
 10
104.1786539453095
 20
-157.646535876387
 30
0.0
 10
104.5848307030205
 20
-157.1407958591523
 30
0.0
 10
104.5848307030205
 20
-157.1407958591523
 30
0.0
 10
103.7469834810077
 20
-157.1407958591523
 30
0.0
 10
103.7469834810077
 20
-157.1407958591523
 30
0.0
 10
103.7469834810077
 20
-157.1407958591523
 30
0.0
 10
103.7469834810077
 20
-156.929266996358
 30
0.0
 10
103.7469834810077
 20
-156.929266996358
 30
0.0
 10
103.7469834810077
 20
-156.929266996358
 30
0.0
 10
104.8218532724056
 20
-156.929266996358
 30
0.0
 10
104.8218532724056
 20
-156.929266996358
 30
0.0
 10
104.8218532724056
 20
-156.929266996358
 30
0.0
 10
104.8218532724056
 20
-157.1407958591523
 30
0.0
 10
104.8218532724056
 20
-157.1407958591523
 30
0.0
 10
104.4980142967922
 20
-157.4308728990104
 30
0.0
 10
104.2313639062338
 20
-158.0230848129248
 30
0.0
 10
104.1976019704784
 20
-158.4737033023955
 30
0.0
  0
HATCH
  5
78
330
71
100
AcDbEntity
  8
_U+30EC_U+30A4_U+30E4_U+30FC 1
 62
     7
420
 16777215
100
AcDbHatch
 10
0.0
 20
0.0
 30
0.0
210
0.0
220
0.0
230
1.0
  2
SOLID
 70
     1
 71
     0
 91
        1
 92
        1
 93
        1
 72
     4
 94
        3
 73
     0
 74
     1
 95
       26
 96
       22
 40
0.0
 40
0.0
 40
0.0
 40
0.0
 40
1.0
 40
1.0
 40
1.0
 40
2.0
 40
2.0
 40
2.0
 40
3.0
 40
3.0
 40
3.0
 40
4.0
 40
4.0
 40
4.0
 40
5.0
 40
5.0
 40
5.0
 40
6.0
 40
6.0
 40
6.0
 40
7.0
 40
7.0
 40
7.0
 40
7.0
 10
104.1976019704784
 20
-158.4737033023955
 10
104.1976019704784
 20
-158.4737033023955
 10
103.9605794010932
 20
-158.4737033023955
 10
103.9605794010932
 20
-158.4737033023955
 10
103.986073107684
 20
-158.1646782373685
 10
104.1786539453095
 20
-157.646535876387
 10
104.5848307030205
 20
-157.1407958591523
 10
104.5848307030205
 20
-157.1407958591523
 10
103.7469834810077
 20
-157.1407958591523
 10
103.7469834810077
 20
-157.1407958591523
 10
103.7469834810077
 20
-157.1407958591523
 10
103.7469834810077
 20
-156.929266996358
 10
103.7469834810077
 20
-156.929266996358
 10
103.7469834810077
 20
-156.929266996358
 10
104.8218532724056
 20
-156.929266996358
 10
104.8218532724056
 20
-156.929266996358
 10
104.8218532724056
 20
-156.929266996358
 10
104.8218532724056
 20
-157.1407958591523
 10
104.8218532724056
 20
-157.1407958591523
 10
104.4980142967922
 20
-157.4308728990104
 10
104.2313639062338
 20
-158.0230848129248
 10
104.1976019704784
 20
-158.4737033023955
 97
        0
 97
        0
 75
     2
 76
     1
 98
        0
  0
ENDBLK
  5
74
330
71
100
AcDbEntity
  8
0
100
AcDbBlockEnd
  0
BLOCK
  5
8B
330
89
100
AcDbEntity
  8
0
100
AcDbBlockBegin
  2
block 3
 70
     0
 10
0.0
 20
0.0
 30
0.0
  3
block 3
  1

  0
SPLINE
  5
8D
330
89
100
AcDbEntity
  8
_U+30EC_U+30A4_U+30E4_U+30FC 1
370
     0
100
AcDbSpline
210
0.0
220
0.0
230
1.0
 70
    11
 71
     3
 72
    26
 73
    22
 74
     0
 42
0.0000000001
 43
0.0000000001
 12
1.0
 22
0.0
 32
0.0
 13
1.0
 23
0.0
 33
0.0
 40
0.0
 40
0.0
 40
0.0
 40
0.0
 40
1.0
 40
1.0
 40
1.0
 40
2.0
 40
2.0
 40
2.0
 40
3.0
 40
3.0
 40
3.0
 40
4.0
 40
4.0
 40
4.0
 40
5.0
 40
5.0
 40
5.0
 40
6.0
 40
6.0
 40
6.0
 40
7.0
 40
7.0
 40
7.0
 40
7.0
 10
86.10241018897787
 20
-136.7758029171949
 30
0.0
 10
86.10241018897787
 20
-136.7758029171949
 30
0.0
 10
84.99808483118103
 20
-136.7758029171949
 30
0.0
 10
84.99808483118103
 20
-136.7758029171949
 30
0.0
 10
84.99808483118103
 20
-136.7758029171949
 30
0.0
 10
84.99808483118103
 20
-137.1058430646819
 30
0.0
 10
84.99808483118103
 20
-137.1058430646819
 30
0.0
 10
84.99808483118103
 20
-137.1058430646819
 30
0.0
 10
84.8499457253153
 20
-137.1058430646819
 30
0.0
 10
84.8499457253153
 20
-137.1058430646819
 30
0.0
 10
84.83530406950298
 20
-136.7737358599038
 30
0.0
 10
84.67235105305066
 20
-136.7272270708529
 30
0.0
 10
84.55814613771463
 20
-136.6975992496798
 30
0.0
 10
84.55814613771463
 20
-136.6975992496798
 30
0.0
 10
84.55814613771463
 20
-136.5515272011052
 30
0.0
 10
84.55814613771463
 20
-136.5515272011052
 30
0.0
 10
84.55814613771463
 20
-136.5515272011052
 30
0.0
 10
86.10241018897787
 20
-136.5515272011052
 30
0.0
 10
86.10241018897787
 20
-136.5515272011052
 30
0.0
 10
86.10241018897787
 20
-136.5515272011052
 30
0.0
 10
86.10241018897787
 20
-136.7758029171949
 30
0.0
 10
86.10241018897787
 20
-136.7758029171949
 30
0.0
  0
HATCH
  5
8E
330
89
100
AcDbEntity
  8
_U+30EC_U+30A4_U+30E4_U+30FC 1
 62
     7
420
 16777215
100
AcDbHatch
 10
0.0
 20
0.0
 30
0.0
210
0.0
220
0.0
230
1.0
  2
SOLID
 70
     1
 71
     0
 91
        1
 92
        1
 93
        1
 72
     4
 94
        3
 73
     0
 74
     1
 95
       26
 96
       22
 40
0.0
 40
0.0
 40
0.0
 40
0.0
 40
1.0
 40
1.0
 40
1.0
 40
2.0
 40
2.0
 40
2.0
 40
3.0
 40
3.0
 40
3.0
 40
4.0
 40
4.0
 40
4.0
 40
5.0
 40
5.0
 40
5.0
 40
6.0
 40
6.0
 40
6.0
 40
7.0
 40
7.0
 40
7.0
 40
7.0
 10
86.10241018897787
 20
-136.7758029171949
 10
86.10241018897787
 20
-136.7758029171949
 10
84.99808483118103
 20
-136.7758029171949
 10
84.99808483118103
 20
-136.7758029171949
 10
84.99808483118103
 20
-136.7758029171949
 10
84.99808483118103
 20
-137.1058430646819
 10
84.99808483118103
 20
-137.1058430646819
 10
84.99808483118103
 20
-137.1058430646819
 10
84.8499457253153
 20
-137.1058430646819
 10
84.8499457253153
 20
-137.1058430646819
 10
84.83530406950298
 20
-136.7737358599038
 10
84.67235105305066
 20
-136.7272270708529
 10
84.55814613771463
 20
-136.6975992496798
 10
84.55814613771463
 20
-136.6975992496798
 10
84.55814613771463
 20
-136.5515272011052
 10
84.55814613771463
 20
-136.5515272011052
 10
84.55814613771463
 20
-136.5515272011052
 10
86.10241018897787
 20
-136.5515272011052
 10
86.10241018897787
 20
-136.5515272011052
 10
86.10241018897787
 20
-136.5515272011052
 10
86.10241018897787
 20
-136.7758029171949
 10
86.10241018897787
 20
-136.7758029171949
 97
        0
 97
        0
 75
     2
 76
     1
 98
        0
  0
POLYLINE
  5
8F
330
89
100
AcDbEntity
  8
_U+30EC_U+30A4_U+30E4_U+30FC 1
370
     0
100
AcDb2dPolyline
 66
     1
 10
0.0
 20
0.0
 30
0.0
  0
VERTEX
  5
90
330
8F
100
AcDbEntity
  8
_U+30EC_U+30A4_U+30E4_U+30FC 1
370
     0
100
AcDbVertex
100
AcDb2dVertex
 10
86.10241018897787
 20
-135.990321146558
 30
0.0
  0
VERTEX
  5
91
330
8F
100
AcDbEntity
  8
_U+30EC_U+30A4_U+30E4_U+30FC 1
370
     0
100
AcDbVertex
100
AcDb2dVertex
 10
85.85074596378037
 20
-135.990321146558
 30
0.0
  0
VERTEX
  5
92
330
8F
100
AcDbEntity
  8
_U+30EC_U+30A4_U+30E4_U+30FC 1
370
     0
100
AcDbVertex
100
AcDb2dVertex
 10
85.85074596378037
 20
-135.7384846665862
 30
0.0
  0
VERTEX
  5
93
330
8F
100
AcDbEntity
  8
_U+30EC_U+30A4_U+30E4_U+30FC 1
370
     0
100
AcDbVertex
100
AcDb2dVertex
 10
86.10241018897787
 20
-135.7384846665862
 30
0.0
  0
VERTEX
  5
94
330
8F
100
AcDbEntity
  8
_U+30EC_U+30A4_U+30E4_U+30FC 1
370
     0
100
AcDbVertex
100
AcDb2dVertex
 10
86.10241018897787
 20
-135.990321146558
 30
0.0
  0
SEQEND
  5
95
330
8F
100
AcDbEntity
  8
_U+30EC_U+30A4_U+30E4_U+30FC 1
370
     0
  0
HATCH
  5
96
330
89
100
AcDbEntity
  8
_U+30EC_U+30A4_U+30E4_U+30FC 1
 62
     7
420
 16777215
100
AcDbHatch
 10
0.0
 20
0.0
 30
0.0
210
0.0
220
0.0
230
1.0
  2
SOLID
 70
     1
 71
     0
 91
        1
 92
        1
 93
        4
 72
     1
 10
86.10241018897787
 20
-135.990321146558
 11
85.85074596378037
 21
-135.990321146558
 72
     1
 10
85.85074596378037
 20
-135.990321146558
 11
85.85074596378037
 21
-135.7384846665862
 72
     1
 10
85.85074596378037
 20
-135.7384846665862
 11
86.10241018897787
 21
-135.7384846665862
 72
     1
 10
86.10241018897787
 20
-135.7384846665862
 11
86.10241018897787
 21
-135.990321146558
 97
        0
 75
     2
 76
     1
 98
        0
  0
SPLINE
  5
97
330
89
100
AcDbEntity
  8
_U+30EC_U+30A4_U+30E4_U+30FC 1
370
     0
100
AcDbSpline
210
0.0
220
0.0
230
1.0
 70
    11
 71
     3
 72
    26
 73
    22
 74
     0
 42
0.0000000001
 43
0.0000000001
 12
1.0
 22
0.0
 32
0.0
 13
1.0
 23
0.0
 33
0.0
 40
0.0
 40
0.0
 40
0.0
 40
0.0
 40
1.0
 40
1.0
 40
1.0
 40
2.0
 40
2.0
 40
2.0
 40
3.0
 40
3.0
 40
3.0
 40
4.0
 40
4.0
 40
4.0
 40
5.0
 40
5.0
 40
5.0
 40
6.0
 40
6.0
 40
6.0
 40
7.0
 40
7.0
 40
7.0
 40
7.0
 10
86.10241018897787
 20
-135.0508436077303
 30
0.0
 10
86.10241018897787
 20
-135.0508436077303
 30
0.0
 10
84.99808483118103
 20
-135.0508436077303
 30
0.0
 10
84.99808483118103
 20
-135.0508436077303
 30
0.0
 10
84.99808483118103
 20
-135.0508436077303
 30
0.0
 10
84.99808483118103
 20
-135.3808837552173
 30
0.0
 10
84.99808483118103
 20
-135.3808837552173
 30
0.0
 10
84.99808483118103
 20
-135.3808837552173
 30
0.0
 10
84.8499457253153
 20
-135.3808837552173
 30
0.0
 10
84.8499457253153
 20
-135.3808837552173
 30
0.0
 10
84.83530406950298
 20
-135.0487765504392
 30
0.0
 10
84.67235105305066
 20
-135.0022677613883
 30
0.0
 10
84.55814613771463
 20
-134.9726399402152
 30
0.0
 10
84.55814613771463
 20
-134.9726399402152
 30
0.0
 10
84.55814613771463
 20
-134.8265678916406
 30
0.0
 10
84.55814613771463
 20
-134.8265678916406
 30
0.0
 10
84.55814613771463
 20
-134.8265678916406
 30
0.0
 10
86.10241018897787
 20
-134.8265678916406
 30
0.0
 10
86.10241018897787
 20
-134.8265678916406
 30
0.0
 10
86.10241018897787
 20
-134.8265678916406
 30
0.0
 10
86.10241018897787
 20
-135.0508436077303
 30
0.0
 10
86.10241018897787
 20
-135.0508436077303
 30
0.0
  0
HATCH
  5
98
330
89
100
AcDbEntity
  8
_U+30EC_U+30A4_U+30E4_U+30FC 1
 62
     7
420
 16777215
100
AcDbHatch
 10
0.0
 20
0.0
 30
0.0
210
0.0
220
0.0
230
1.0
  2
SOLID
 70
     1
 71
     0
 91
        1
 92
        1
 93
        1
 72
     4
 94
        3
 73
     0
 74
     1
 95
       26
 96
       22
 40
0.0
 40
0.0
 40
0.0
 40
0.0
 40
1.0
 40
1.0
 40
1.0
 40
2.0
 40
2.0
 40
2.0
 40
3.0
 40
3.0
 40
3.0
 40
4.0
 40
4.0
 40
4.0
 40
5.0
 40
5.0
 40
5.0
 40
6.0
 40
6.0
 40
6.0
 40
7.0
 40
7.0
 40
7.0
 40
7.0
 10
86.10241018897787
 20
-135.0508436077303
 10
86.10241018897787
 20
-135.0508436077303
 10
84.99808483118103
 20
-135.0508436077303
 10
84.99808483118103
 20
-135.0508436077303
 10
84.99808483118103
 20
-135.0508436077303
 10
84.99808483118103
 20
-135.3808837552173
 10
84.99808483118103
 20
-135.3808837552173
 10
84.99808483118103
 20
-135.3808837552173
 10
84.8499457253153
 20
-135.3808837552173
 10
84.8499457253153
 20
-135.3808837552173
 10
84.83530406950298
 20
-135.0487765504392
 10
84.67235105305066
 20
-135.0022677613883
 10
84.55814613771463
 20
-134.9726399402152
 10
84.55814613771463
 20
-134.9726399402152
 10
84.55814613771463
 20
-134.8265678916406
 10
84.55814613771463
 20
-134.8265678916406
 10
84.55814613771463
 20
-134.8265678916406
 10
86.10241018897787
 20
-134.8265678916406
 10
86.10241018897787
 20
-134.8265678916406
 10
86.10241018897787
 20
-134.8265678916406
 10
86.10241018897787
 20
-135.0508436077303
 10
86.10241018897787
 20
-135.0508436077303
 97
        0
 97
        0
 75
     2
 76
     1
 98
        0
  0
ENDBLK
  5
8C
330
89
100
AcDbEntity
  8
0
100
AcDbBlockEnd
  0
BLOCK
  5
AB
330
A9
100
AcDbEntity
  8
0
100
AcDbBlockBegin
  2
block 4
 70
     0
 10
0.0
 20
0.0
 30
0.0
  3
block 4
  1

  0
SPLINE
  5
AD
330
A9
100
AcDbEntity
  8
_U+30EC_U+30A4_U+30E4_U+30FC 1
370
     0
100
AcDbSpline
210
0.0
220
0.0
230
1.0
 70
    11
 71
     3
 72
    29
 73
    25
 74
     0
 42
0.0000000001
 43
0.0000000001
 12
1.0
 22
0.0
 32
0.0
 13
1.0
 23
0.0
 33
0.0
 40
0.0
 40
0.0
 40
0.0
 40
0.0
 40
1.0
 40
1.0
 40
1.0
 40
2.0
 40
2.0
 40
2.0
 40
3.0
 40
3.0
 40
3.0
 40
4.0
 40
4.0
 40
4.0
 40
5.0
 40
5.0
 40
5.0
 40
6.0
 40
6.0
 40
6.0
 40
7.0
 40
7.0
 40
7.0
 40
8.0
 40
8.0
 40
8.0
 40
8.0
 10
118.9398545709595
 20
-154.3323540195766
 30
0.0
 10
119.1493163764627
 20
-154.4405300178135
 30
0.0
 10
119.1682644016315
 20
-154.6138183207215
 30
0.0
 10
119.1682644016315
 20
-154.730262548123
 30
0.0
 10
119.1682644016315
 20
-154.8911485072842
 30
0.0
 10
119.1217556125807
 20
-155.0327419317279
 30
0.0
 10
118.9398545709595
 20
-155.1278265671208
 30
0.0
 10
118.7452066760429
 20
-155.2315239412268
 30
0.0
 10
118.5081841066577
 20
-155.2508164759442
 30
0.0
 10
118.3455755997539
 20
-155.2508164759442
 30
0.0
 10
118.2015706084704
 20
-155.2508164759442
 30
0.0
 10
117.9497341284987
 20
-155.233590998518
 30
0.0
 10
117.7509521189998
 20
-155.1278265671208
 30
0.0
 10
117.5480359949185
 20
-155.0199950784325
 30
0.0
 10
117.5246093456189
 20
-154.8591091192714
 30
0.0
 10
117.5246093456189
 20
-154.730262548123
 30
0.0
 10
117.5246093456189
 20
-154.571443646253
 30
0.0
 10
117.5690510773786
 20
-154.4277831645181
 30
0.0
 10
117.7509521189998
 20
-154.3323540195766
 30
0.0
 10
117.9435329566252
 20
-154.2331352696014
 30
0.0
 10
118.1719427872973
 20
-154.2097086203017
 30
0.0
 10
118.3455755997539
 20
-154.2097086203017
 30
0.0
 10
118.5167968453708
 20
-154.2097086203017
 30
0.0
 10
118.747273733334
 20
-154.2310682123103
 30
0.0
 10
118.9398545709595
 20
-154.3323540195766
 30
0.0
  0
SPLINE
  5
AE
330
A9
100
AcDbEntity
  8
_U+30EC_U+30A4_U+30E4_U+30FC 1
370
     0
100
AcDbSpline
210
0.0
220
0.0
230
1.0
 70
    11
 71
     3
 72
    17
 73
    13
 74
     0
 42
0.0000000001
 43
0.0000000001
 12
1.0
 22
0.0
 32
0.0
 13
1.0
 23
0.0
 33
0.0
 40
0.0
 40
0.0
 40
0.0
 40
0.0
 40
1.0
 40
1.0
 40
1.0
 40
2.0
 40
2.0
 40
2.0
 40
3.0
 40
3.0
 40
3.0
 40
4.0
 40
4.0
 40
4.0
 40
4.0
 10
117.7171901832443
 20
-154.730262548123
 30
0.0
 10
117.7171901832443
 20
-154.9800319708036
 30
0.0
 10
118.0007215416804
 20
-155.0265407598545
 30
0.0
 10
118.3455755997539
 20
-155.0265407598545
 30
0.0
 10
118.6649359512365
 20
-155.0265407598545
 30
0.0
 10
118.9736165067149
 20
-154.9903672572594
 30
0.0
 10
118.9736165067149
 20
-154.730262548123
 30
0.0
 10
118.9736165067149
 20
-154.4825601827335
 30
0.0
 10
118.6924967151186
 20
-154.4339843363915
 30
0.0
 10
118.3455755997539
 20
-154.4339843363915
 30
0.0
 10
118.0258707387227
 20
-154.4339843363915
 30
0.0
 10
117.7171901832443
 20
-154.4722248962778
 30
0.0
 10
117.7171901832443
 20
-154.730262548123
 30
0.0
  0
HATCH
  5
AF
330
A9
100
AcDbEntity
  8
_U+30EC_U+30A4_U+30E4_U+30FC 1
 62
     7
420
 16777215
100
AcDbHatch
 10
0.0
 20
0.0
 30
0.0
210
0.0
220
0.0
230
1.0
  2
SOLID
 70
     1
 71
     0
 91
        2
 92
        1
 93
        1
 72
     4
 94
        3
 73
     0
 74
     1
 95
       29
 96
       25
 40
0.0
 40
0.0
 40
0.0
 40
0.0
 40
1.0
 40
1.0
 40
1.0
 40
2.0
 40
2.0
 40
2.0
 40
3.0
 40
3.0
 40
3.0
 40
4.0
 40
4.0
 40
4.0
 40
5.0
 40
5.0
 40
5.0
 40
6.0
 40
6.0
 40
6.0
 40
7.0
 40
7.0
 40
7.0
 40
8.0
 40
8.0
 40
8.0
 40
8.0
 10
118.9398545709595
 20
-154.3323540195766
 10
119.1493163764627
 20
-154.4405300178135
 10
119.1682644016315
 20
-154.6138183207215
 10
119.1682644016315
 20
-154.730262548123
 10
119.1682644016315
 20
-154.8911485072842
 10
119.1217556125807
 20
-155.0327419317279
 10
118.9398545709595
 20
-155.1278265671208
 10
118.7452066760429
 20
-155.2315239412268
 10
118.5081841066577
 20
-155.2508164759442
 10
118.3455755997539
 20
-155.2508164759442
 10
118.2015706084704
 20
-155.2508164759442
 10
117.9497341284987
 20
-155.233590998518
 10
117.7509521189998
 20
-155.1278265671208
 10
117.5480359949185
 20
-155.0199950784325
 10
117.5246093456189
 20
-154.8591091192714
 10
117.5246093456189
 20
-154.730262548123
 10
117.5246093456189
 20
-154.571443646253
 10
117.5690510773786
 20
-154.4277831645181
 10
117.7509521189998
 20
-154.3323540195766
 10
117.9435329566252
 20
-154.2331352696014
 10
118.1719427872973
 20
-154.2097086203017
 10
118.3455755997539
 20
-154.2097086203017
 10
118.5167968453708
 20
-154.2097086203017
 10
118.747273733334
 20
-154.2310682123103
 10
118.9398545709595
 20
-154.3323540195766
 97
        0
 97
        0
 92
        1
 93
        1
 72
     4
 94
        3
 73
     0
 74
     1
 95
       17
 96
       13
 40
0.0
 40
0.0
 40
0.0
 40
0.0
 40
1.0
 40
1.0
 40
1.0
 40
2.0
 40
2.0
 40
2.0
 40
3.0
 40
3.0
 40
3.0
 40
4.0
 40
4.0
 40
4.0
 40
4.0
 10
117.7171901832443
 20
-154.730262548123
 10
117.7171901832443
 20
-154.9800319708036
 10
118.0007215416804
 20
-155.0265407598545
 10
118.3455755997539
 20
-155.0265407598545
 10
118.6649359512365
 20
-155.0265407598545
 10
118.9736165067149
 20
-154.9903672572594
 10
118.9736165067149
 20
-154.730262548123
 10
118.9736165067149
 20
-154.4825601827335
 10
118.6924967151186
 20
-154.4339843363915
 10
118.3455755997539
 20
-154.4339843363915
 10
118.0258707387227
 20
-154.4339843363915
 10
117.7171901832443
 20
-154.4722248962778
 10
117.7171901832443
 20
-154.730262548123
 97
        0
 97
        0
 75
     2
 76
     1
 98
        0
  0
POLYLINE
  5
B0
330
A9
100
AcDbEntity
  8
_U+30EC_U+30A4_U+30E4_U+30FC 1
370
     0
100
AcDb2dPolyline
 66
     1
 10
0.0
 20
0.0
 30
0.0
  0
VERTEX
  5
B1
330
B0
100
AcDbEntity
  8
_U+30EC_U+30A4_U+30E4_U+30FC 1
370
     0
100
AcDbVertex
100
AcDb2dVertex
 10
119.1176214979984
 20
-153.993356623828
 30
0.0
  0
VERTEX
  5
B2
330
B0
100
AcDbEntity
  8
_U+30EC_U+30A4_U+30E4_U+30FC 1
370
     0
100
AcDbVertex
100
AcDb2dVertex
 10
118.8657850180266
 20
-153.993356623828
 30
0.0
  0
VERTEX
  5
B3
330
B0
100
AcDbEntity
  8
_U+30EC_U+30A4_U+30E4_U+30FC 1
370
     0
100
AcDbVertex
100
AcDb2dVertex
 10
118.8657850180266
 20
-153.7415201438563
 30
0.0
  0
VERTEX
  5
B4
330
B0
100
AcDbEntity
  8
_U+30EC_U+30A4_U+30E4_U+30FC 1
370
     0
100
AcDbVertex
100
AcDb2dVertex
 10
119.1176214979984
 20
-153.7415201438563
 30
0.0
  0
VERTEX
  5
B5
330
B0
100
AcDbEntity
  8
_U+30EC_U+30A4_U+30E4_U+30FC 1
370
     0
100
AcDbVertex
100
AcDb2dVertex
 10
119.1176214979984
 20
-153.993356623828
 30
0.0
  0
SEQEND
  5
B6
330
B0
100
AcDbEntity
  8
_U+30EC_U+30A4_U+30E4_U+30FC 1
370
     0
  0
HATCH
  5
B7
330
A9
100
AcDbEntity
  8
_U+30EC_U+30A4_U+30E4_U+30FC 1
 62
     7
420
 16777215
100
AcDbHatch
 10
0.0
 20
0.0
 30
0.0
210
0.0
220
0.0
230
1.0
  2
SOLID
 70
     1
 71
     0
 91
        1
 92
        1
 93
        4
 72
     1
 10
119.1176214979984
 20
-153.993356623828
 11
118.8657850180266
 21
-153.993356623828
 72
     1
 10
118.8657850180266
 20
-153.993356623828
 11
118.8657850180266
 21
-153.7415201438563
 72
     1
 10
118.8657850180266
 20
-153.7415201438563
 11
119.1176214979984
 21
-153.7415201438563
 72
     1
 10
119.1176214979984
 20
-153.7415201438563
 11
119.1176214979984
 21
-153.993356623828
 97
        0
 75
     2
 76
     1
 98
        0
  0
POLYLINE
  5
B8
330
A9
100
AcDbEntity
  8
_U+30EC_U+30A4_U+30E4_U+30FC 1
370
     0
100
AcDb2dPolyline
 66
     1
 10
0.0
 20
0.0
 30
0.0
  0
VERTEX
  5
B9
330
B8
100
AcDbEntity
  8
_U+30EC_U+30A4_U+30E4_U+30FC 1
370
     0
100
AcDbVertex
100
AcDb2dVertex
 10
118.7707003826337
 20
-152.6731960338803
 30
0.0
  0
VERTEX
  5
BA
330
B8
100
AcDbEntity
  8
_U+30EC_U+30A4_U+30E4_U+30FC 1
370
     0
100
AcDbVertex
100
AcDb2dVertex
 10
119.1176214979984
 20
-152.6731960338803
 30
0.0
  0
VERTEX
  5
BB
330
B8
100
AcDbEntity
  8
_U+30EC_U+30A4_U+30E4_U+30FC 1
370
     0
100
AcDbVertex
100
AcDb2dVertex
 10
119.1176214979984
 20
-152.8909260685481
 30
0.0
  0
VERTEX
  5
BC
330
B8
100
AcDbEntity
  8
_U+30EC_U+30A4_U+30E4_U+30FC 1
370
     0
100
AcDbVertex
100
AcDb2dVertex
 10
118.7707003826337
 20
-152.8909260685481
 30
0.0
  0
VERTEX
  5
BD
330
B8
100
AcDbEntity
  8
_U+30EC_U+30A4_U+30E4_U+30FC 1
370
     0
100
AcDbVertex
100
AcDb2dVertex
 10
118.7707003826337
 20
-153.5468722489397
 30
0.0
  0
VERTEX
  5
BE
330
B8
100
AcDbEntity
  8
_U+30EC_U+30A4_U+30E4_U+30FC 1
370
     0
100
AcDbVertex
100
AcDb2dVertex
 10
118.546424666544
 20
-153.5468722489397
 30
0.0
  0
VERTEX
  5
BF
330
B8
100
AcDbEntity
  8
_U+30EC_U+30A4_U+30E4_U+30FC 1
370
     0
100
AcDbVertex
100
AcDb2dVertex
 10
117.5731851919609
 20
-152.8678439287969
 30
0.0
  0
VERTEX
  5
C0
330
B8
100
AcDbEntity
  8
_U+30EC_U+30A4_U+30E4_U+30FC 1
370
     0
100
AcDbVertex
100
AcDb2dVertex
 10
117.5731851919609
 20
-152.6731960338803
 30
0.0
  0
VERTEX
  5
C1
330
B8
100
AcDbEntity
  8
_U+30EC_U+30A4_U+30E4_U+30FC 1
370
     0
100
AcDbVertex
100
AcDb2dVertex
 10
118.5719183731348
 20
-152.6731960338803
 30
0.0
  0
VERTEX
  5
C2
330
B8
100
AcDbEntity
  8
_U+30EC_U+30A4_U+30E4_U+30FC 1
370
     0
100
AcDbVertex
100
AcDb2dVertex
 10
118.5719183731348
 20
-152.4658012856683
 30
0.0
  0
VERTEX
  5
C3
330
B8
100
AcDbEntity
  8
_U+30EC_U+30A4_U+30E4_U+30FC 1
370
     0
100
AcDbVertex
100
AcDb2dVertex
 10
118.7707003826337
 20
-152.4658012856683
 30
0.0
  0
VERTEX
  5
C4
330
B8
100
AcDbEntity
  8
_U+30EC_U+30A4_U+30E4_U+30FC 1
370
     0
100
AcDbVertex
100
AcDb2dVertex
 10
118.7707003826337
 20
-152.6731960338803
 30
0.0
  0
SEQEND
  5
C5
330
B8
100
AcDbEntity
  8
_U+30EC_U+30A4_U+30E4_U+30FC 1
370
     0
  0
POLYLINE
  5
C6
330
A9
100
AcDbEntity
  8
_U+30EC_U+30A4_U+30E4_U+30FC 1
370
     0
100
AcDb2dPolyline
 66
     1
 10
0.0
 20
0.0
 30
0.0
  0
VERTEX
  5
C7
330
C6
100
AcDbEntity
  8
_U+30EC_U+30A4_U+30E4_U+30FC 1
370
     0
100
AcDbVertex
100
AcDb2dVertex
 10
117.9159721927432
 20
-152.8909260685481
 30
0.0
  0
VERTEX
  5
C8
330
C6
100
AcDbEntity
  8
_U+30EC_U+30A4_U+30E4_U+30FC 1
370
     0
100
AcDbVertex
100
AcDb2dVertex
 10
118.5719183731348
 20
-153.3480902394408
 30
0.0
  0
VERTEX
  5
C9
330
C6
100
AcDbEntity
  8
_U+30EC_U+30A4_U+30E4_U+30FC 1
370
     0
100
AcDbVertex
100
AcDb2dVertex
 10
118.5719183731348
 20
-152.8909260685481
 30
0.0
  0
VERTEX
  5
CA
330
C6
100
AcDbEntity
  8
_U+30EC_U+30A4_U+30E4_U+30FC 1
370
     0
100
AcDbVertex
100
AcDb2dVertex
 10
117.9159721927432
 20
-152.8909260685481
 30
0.0
  0
SEQEND
  5
CB
330
C6
100
AcDbEntity
  8
_U+30EC_U+30A4_U+30E4_U+30FC 1
370
     0
  0
HATCH
  5
CC
330
A9
100
AcDbEntity
  8
_U+30EC_U+30A4_U+30E4_U+30FC 1
 62
     7
420
 16777215
100
AcDbHatch
 10
0.0
 20
0.0
 30
0.0
210
0.0
220
0.0
230
1.0
  2
SOLID
 70
     1
 71
     0
 91
        2
 92
        1
 93
       11
 72
     1
 10
118.7707003826337
 20
-152.6731960338803
 11
119.1176214979984
 21
-152.6731960338803
 72
     1
 10
119.1176214979984
 20
-152.6731960338803
 11
119.1176214979984
 21
-152.8909260685481
 72
     1
 10
119.1176214979984
 20
-152.8909260685481
 11
118.7707003826337
 21
-152.8909260685481
 72
     1
 10
118.7707003826337
 20
-152.8909260685481
 11
118.7707003826337
 21
-153.5468722489397
 72
     1
 10
118.7707003826337
 20
-153.5468722489397
 11
118.546424666544
 21
-153.5468722489397
 72
     1
 10
118.546424666544
 20
-153.5468722489397
 11
117.5731851919609
 21
-152.8678439287969
 72
     1
 10
117.5731851919609
 20
-152.8678439287969
 11
117.5731851919609
 21
-152.6731960338803
 72
     1
 10
117.5731851919609
 20
-152.6731960338803
 11
118.5719183731348
 21
-152.6731960338803
 72
     1
 10
118.5719183731348
 20
-152.6731960338803
 11
118.5719183731348
 21
-152.4658012856683
 72
     1
 10
118.5719183731348
 20
-152.4658012856683
 11
118.7707003826337
 21
-152.4658012856683
 72
     1
 10
118.7707003826337
 20
-152.4658012856683
 11
118.7707003826337
 21
-152.6731960338803
 97
        0
 92
        1
 93
        3
 72
     1
 10
117.9159721927432
 20
-152.8909260685481
 11
118.5719183731348
 21
-153.3480902394408
 72
     1
 10
118.5719183731348
 20
-153.3480902394408
 11
118.5719183731348
 21
-152.8909260685481
 72
     1
 10
118.5719183731348
 20
-152.8909260685481
 11
117.9159721927432
 21
-152.8909260685481
 97
        0
 75
     2
 76
     1
 98
        0
  0
ENDBLK
  5
AC
330
A9
100
AcDbEntity
  8
0
100
AcDbBlockEnd
  0
BLOCK
  5
DB
330
D9
100
AcDbEntity
  8
0
100
AcDbBlockBegin
  2
block 5
 70
     0
 10
0.0
 20
0.0
 30
0.0
  3
block 5
  1

  0
SPLINE
  5
DD
330
D9
100
AcDbEntity
  8
_U+30EC_U+30A4_U+30E4_U+30FC 1
370
     0
100
AcDbSpline
210
0.0
220
0.0
230
1.0
 70
    11
 71
     3
 72
    32
 73
    28
 74
     0
 42
0.0000000001
 43
0.0000000001
 12
1.0
 22
0.0
 32
0.0
 13
1.0
 23
0.0
 33
0.0
 40
0.0
 40
0.0
 40
0.0
 40
0.0
 40
1.0
 40
1.0
 40
1.0
 40
2.0
 40
2.0
 40
2.0
 40
3.0
 40
3.0
 40
3.0
 40
4.0
 40
4.0
 40
4.0
 40
5.0
 40
5.0
 40
5.0
 40
6.0
 40
6.0
 40
6.0
 40
7.0
 40
7.0
 40
7.0
 40
8.0
 40
8.0
 40
8.0
 40
9.0
 40
9.0
 40
9.0
 40
9.0
 10
92.45344371603595
 20
-158.5243462060286
 30
0.0
 10
91.93736841234552
 20
-158.5243462060286
 30
0.0
 10
91.92910018318092
 20
-157.9703748520005
 30
0.0
 10
91.92910018318092
 20
-157.7564344223665
 30
0.0
 10
91.92910018318092
 20
-157.5259575344032
 30
0.0
 10
91.9480482083498
 20
-156.8786240927248
 30
0.0
 10
92.49168427592222
 20
-156.8786240927248
 30
0.0
 10
92.66497257883029
 20
-156.8786240927248
 30
0.0
 10
92.9106078869286
 20
-156.9485595310754
 30
0.0
 10
92.94850393726635
 20
-157.2806667358535
 30
0.0
 10
92.94850393726635
 20
-157.2806667358535
 30
0.0
 10
92.73490801718086
 20
-157.2806667358535
 30
0.0
 10
92.73490801718086
 20
-157.2806667358535
 30
0.0
 10
92.72422822117659
 20
-157.2234781507983
 30
0.0
 10
92.69253334271228
 20
-157.0753390449325
 30
0.0
 10
92.48961721863107
 20
-157.0753390449325
 30
0.0
 10
92.19747312148189
 20
-157.0753390449325
 30
0.0
 10
92.15751001385298
 20
-157.4033121351283
 30
0.0
 10
92.14476316055756
 20
-157.6082953165007
 30
0.0
 10
92.23778073865931
 20
-157.5300916489855
 30
0.0
 10
92.30564911971874
 20
-157.4708360066392
 30
0.0
 10
92.48755016133993
 20
-157.4708360066392
 30
0.0
 10
92.66738414566997
 20
-157.4708360066392
 30
0.0
 10
92.9698635292749
 20
-157.5790120048761
 30
0.0
 10
92.9698635292749
 20
-157.9851887625871
 30
0.0
 10
92.9698635292749
 20
-158.3045491140697
 30
0.0
 10
92.77073701022746
 20
-158.5243462060286
 30
0.0
 10
92.45344371603595
 20
-158.5243462060286
 30
0.0
  0
SPLINE
  5
DE
330
D9
100
AcDbEntity
  8
_U+30EC_U+30A4_U+30E4_U+30FC 1
370
     0
100
AcDbSpline
210
0.0
220
0.0
230
1.0
 70
    11
 71
     3
 72
    17
 73
    13
 74
     0
 42
0.0000000001
 43
0.0000000001
 12
1.0
 22
0.0
 32
0.0
 13
1.0
 23
0.0
 33
0.0
 40
0.0
 40
0.0
 40
0.0
 40
0.0
 40
1.0
 40
1.0
 40
1.0
 40
2.0
 40
2.0
 40
2.0
 40
3.0
 40
3.0
 40
3.0
 40
4.0
 40
4.0
 40
4.0
 40
4.0
 10
92.4706691934622
 20
-157.6654839015559
 30
0.0
 10
92.20815291748616
 20
-157.6654839015559
 30
0.0
 10
92.17025686714841
 20
-157.8770127643502
 30
0.0
 10
92.17025686714841
 20
-157.9934569917517
 30
0.0
 10
92.17025686714841
 20
-158.1691568614994
 30
0.0
 10
92.2653415025413
 20
-158.3321098779517
 30
0.0
 10
92.44930960145365
 20
-158.3321098779517
 30
0.0
 10
92.5698879434374
 20
-158.3321098779517
 30
0.0
 10
92.74558781318514
 20
-158.2728542356054
 30
0.0
 10
92.74558781318514
 20
-157.9872558198782
 30
0.0
 10
92.74558781318514
 20
-157.7629801037884
 30
0.0
 10
92.60571693648399
 20
-157.6654839015559
 30
0.0
 10
92.4706691934622
 20
-157.6654839015559
 30
0.0
  0
HATCH
  5
DF
330
D9
100
AcDbEntity
  8
_U+30EC_U+30A4_U+30E4_U+30FC 1
 62
     7
420
 16777215
100
AcDbHatch
 10
0.0
 20
0.0
 30
0.0
210
0.0
220
0.0
230
1.0
  2
SOLID
 70
     1
 71
     0
 91
        2
 92
        1
 93
        1
 72
     4
 94
        3
 73
     0
 74
     1
 95
       32
 96
       28
 40
0.0
 40
0.0
 40
0.0
 40
0.0
 40
1.0
 40
1.0
 40
1.0
 40
2.0
 40
2.0
 40
2.0
 40
3.0
 40
3.0
 40
3.0
 40
4.0
 40
4.0
 40
4.0
 40
5.0
 40
5.0
 40
5.0
 40
6.0
 40
6.0
 40
6.0
 40
7.0
 40
7.0
 40
7.0
 40
8.0
 40
8.0
 40
8.0
 40
9.0
 40
9.0
 40
9.0
 40
9.0
 10
92.45344371603595
 20
-158.5243462060286
 10
91.93736841234552
 20
-158.5243462060286
 10
91.92910018318092
 20
-157.9703748520005
 10
91.92910018318092
 20
-157.7564344223665
 10
91.92910018318092
 20
-157.5259575344032
 10
91.9480482083498
 20
-156.8786240927248
 10
92.49168427592222
 20
-156.8786240927248
 10
92.66497257883029
 20
-156.8786240927248
 10
92.9106078869286
 20
-156.9485595310754
 10
92.94850393726635
 20
-157.2806667358535
 10
92.94850393726635
 20
-157.2806667358535
 10
92.73490801718086
 20
-157.2806667358535
 10
92.73490801718086
 20
-157.2806667358535
 10
92.72422822117659
 20
-157.2234781507983
 10
92.69253334271228
 20
-157.0753390449325
 10
92.48961721863107
 20
-157.0753390449325
 10
92.19747312148189
 20
-157.0753390449325
 10
92.15751001385298
 20
-157.4033121351283
 10
92.14476316055756
 20
-157.6082953165007
 10
92.23778073865931
 20
-157.5300916489855
 10
92.30564911971874
 20
-157.4708360066392
 10
92.48755016133993
 20
-157.4708360066392
 10
92.66738414566997
 20
-157.4708360066392
 10
92.9698635292749
 20
-157.5790120048761
 10
92.9698635292749
 20
-157.9851887625871
 10
92.9698635292749
 20
-158.3045491140697
 10
92.77073701022746
 20
-158.5243462060286
 10
92.45344371603595
 20
-158.5243462060286
 97
        0
 97
        0
 92
        1
 93
        1
 72
     4
 94
        3
 73
     0
 74
     1
 95
       17
 96
       13
 40
0.0
 40
0.0
 40
0.0
 40
0.0
 40
1.0
 40
1.0
 40
1.0
 40
2.0
 40
2.0
 40
2.0
 40
3.0
 40
3.0
 40
3.0
 40
4.0
 40
4.0
 40
4.0
 40
4.0
 10
92.4706691934622
 20
-157.6654839015559
 10
92.20815291748616
 20
-157.6654839015559
 10
92.17025686714841
 20
-157.8770127643502
 10
92.17025686714841
 20
-157.9934569917517
 10
92.17025686714841
 20
-158.1691568614994
 10
92.2653415025413
 20
-158.3321098779517
 10
92.44930960145365
 20
-158.3321098779517
 10
92.5698879434374
 20
-158.3321098779517
 10
92.74558781318514
 20
-158.2728542356054
 10
92.74558781318514
 20
-157.9872558198782
 10
92.74558781318514
 20
-157.7629801037884
 10
92.60571693648399
 20
-157.6654839015559
 10
92.4706691934622
 20
-157.6654839015559
 97
        0
 97
        0
 75
     2
 76
     1
 98
        0
  0
ENDBLK
  5
DC
330
D9
100
AcDbEntity
  8
0
100
AcDbBlockEnd
  0
BLOCK
  5
EA
330
E8
100
AcDbEntity
  8
0
100
AcDbBlockBegin
  2
block 6
 70
     0
 10
0.0
 20
0.0
 30
0.0
  3
block 6
  1

  0
SPLINE
  5
EC
330
E8
100
AcDbEntity
  8
_U+30EC_U+30A4_U+30E4_U+30FC 1
370
     0
100
AcDbSpline
210
0.0
220
0.0
230
1.0
 70
    11
 71
     3
 72
    26
 73
    22
 74
     0
 42
0.0000000001
 43
0.0000000001
 12
1.0
 22
0.0
 32
0.0
 13
1.0
 23
0.0
 33
0.0
 40
0.0
 40
0.0
 40
0.0
 40
0.0
 40
1.0
 40
1.0
 40
1.0
 40
2.0
 40
2.0
 40
2.0
 40
3.0
 40
3.0
 40
3.0
 40
4.0
 40
4.0
 40
4.0
 40
5.0
 40
5.0
 40
5.0
 40
6.0
 40
6.0
 40
6.0
 40
7.0
 40
7.0
 40
7.0
 40
7.0
 10
115.7662326099473
 20
-147.2488931923544
 30
0.0
 10
115.7662326099473
 20
-147.2488931923544
 30
0.0
 10
114.6620795069248
 20
-147.2488931923544
 30
0.0
 10
114.6620795069248
 20
-147.2488931923544
 30
0.0
 10
114.6620795069248
 20
-147.2488931923544
 30
0.0
 10
114.6620795069248
 20
-147.5789333398414
 30
0.0
 10
114.6620795069248
 20
-147.5789333398414
 30
0.0
 10
114.6620795069248
 20
-147.5789333398414
 30
0.0
 10
114.513940401059
 20
-147.5789333398414
 30
0.0
 10
114.513940401059
 20
-147.5789333398414
 30
0.0
 10
114.4991264904724
 20
-147.2468261350633
 30
0.0
 10
114.3361734740201
 20
-147.2003173460124
 30
0.0
 10
114.2217963039098
 20
-147.1706895248393
 30
0.0
 10
114.2217963039098
 20
-147.1706895248393
 30
0.0
 10
114.2217963039098
 20
-147.0246174762647
 30
0.0
 10
114.2217963039098
 20
-147.0246174762647
 30
0.0
 10
114.2217963039098
 20
-147.0246174762647
 30
0.0
 10
115.7662326099473
 20
-147.0246174762647
 30
0.0
 10
115.7662326099473
 20
-147.0246174762647
 30
0.0
 10
115.7662326099473
 20
-147.0246174762647
 30
0.0
 10
115.7662326099473
 20
-147.2488931923544
 30
0.0
 10
115.7662326099473
 20
-147.2488931923544
 30
0.0
  0
HATCH
  5
ED
330
E8
100
AcDbEntity
  8
_U+30EC_U+30A4_U+30E4_U+30FC 1
 62
     7
420
 16777215
100
AcDbHatch
 10
0.0
 20
0.0
 30
0.0
210
0.0
220
0.0
230
1.0
  2
SOLID
 70
     1
 71
     0
 91
        1
 92
        1
 93
        1
 72
     4
 94
        3
 73
     0
 74
     1
 95
       26
 96
       22
 40
0.0
 40
0.0
 40
0.0
 40
0.0
 40
1.0
 40
1.0
 40
1.0
 40
2.0
 40
2.0
 40
2.0
 40
3.0
 40
3.0
 40
3.0
 40
4.0
 40
4.0
 40
4.0
 40
5.0
 40
5.0
 40
5.0
 40
6.0
 40
6.0
 40
6.0
 40
7.0
 40
7.0
 40
7.0
 40
7.0
 10
115.7662326099473
 20
-147.2488931923544
 10
115.7662326099473
 20
-147.2488931923544
 10
114.6620795069248
 20
-147.2488931923544
 10
114.6620795069248
 20
-147.2488931923544
 10
114.6620795069248
 20
-147.2488931923544
 10
114.6620795069248
 20
-147.5789333398414
 10
114.6620795069248
 20
-147.5789333398414
 10
114.6620795069248
 20
-147.5789333398414
 10
114.513940401059
 20
-147.5789333398414
 10
114.513940401059
 20
-147.5789333398414
 10
114.4991264904724
 20
-147.2468261350633
 10
114.3361734740201
 20
-147.2003173460124
 10
114.2217963039098
 20
-147.1706895248393
 10
114.2217963039098
 20
-147.1706895248393
 10
114.2217963039098
 20
-147.0246174762647
 10
114.2217963039098
 20
-147.0246174762647
 10
114.2217963039098
 20
-147.0246174762647
 10
115.7662326099473
 20
-147.0246174762647
 10
115.7662326099473
 20
-147.0246174762647
 10
115.7662326099473
 20
-147.0246174762647
 10
115.7662326099473
 20
-147.2488931923544
 10
115.7662326099473
 20
-147.2488931923544
 97
        0
 97
        0
 75
     2
 76
     1
 98
        0
  0
SPLINE
  5
EE
330
E8
100
AcDbEntity
  8
_U+30EC_U+30A4_U+30E4_U+30FC 1
370
     0
100
AcDbSpline
210
0.0
220
0.0
230
1.0
 70
    11
 71
     3
 72
    53
 73
    49
 74
     0
 42
0.0000000001
 43
0.0000000001
 12
1.0
 22
0.0
 32
0.0
 13
1.0
 23
0.0
 33
0.0
 40
0.0
 40
0.0
 40
0.0
 40
0.0
 40
1.0
 40
1.0
 40
1.0
 40
2.0
 40
2.0
 40
2.0
 40
3.0
 40
3.0
 40
3.0
 40
4.0
 40
4.0
 40
4.0
 40
5.0
 40
5.0
 40
5.0
 40
6.0
 40
6.0
 40
6.0
 40
7.0
 40
7.0
 40
7.0
 40
8.0
 40
8.0
 40
8.0
 40
9.0
 40
9.0
 40
9.0
 40
10.0
 40
10.0
 40
10.0
 40
11.0
 40
11.0
 40
11.0
 40
12.0
 40
12.0
 40
12.0
 40
13.0
 40
13.0
 40
13.0
 40
14.0
 40
14.0
 40
14.0
 40
15.0
 40
15.0
 40
15.0
 40
16.0
 40
16.0
 40
16.0
 40
16.0
 10
115.8168755135805
 20
-146.0424207534199
 30
0.0
 10
115.8168755135805
 20
-146.1206244209351
 30
0.0
 10
115.7999945457028
 20
-146.22225473775
 30
0.0
 10
115.7366047887742
 20
-146.3238850545649
 30
0.0
 10
115.6267062427947
 20
-146.4971733574729
 30
0.0
 10
115.4954481048067
 20
-146.5185329494815
 30
0.0
 10
115.3876166161184
 20
-146.5374809746504
 30
0.0
 10
115.3876166161184
 20
-146.5374809746504
 30
0.0
 10
115.3876166161184
 20
-146.3152723158518
 30
0.0
 10
115.3876166161184
 20
-146.3152723158518
 30
0.0
 10
115.5863986256173
 20
-146.2604952976363
 30
0.0
 10
115.6160264467904
 20
-146.1333712742305
 30
0.0
 10
115.6160264467904
 20
-146.0403536961288
 30
0.0
 10
115.6160264467904
 20
-145.9008273289762
 30
0.0
 10
115.5164631872667
 20
-145.7485541085281
 30
0.0
 10
115.2839192420124
 20
-145.7485541085281
 30
0.0
 10
115.0279486474583
 20
-145.7485541085281
 30
0.0
 10
114.9580132091077
 20
-145.9283880928582
 30
0.0
 10
114.9580132091077
 20
-146.0489664348419
 30
0.0
 10
114.9580132091077
 20
-146.0806613133062
 30
0.0
 10
114.9580132091077
 20
-146.22225473775
 30
0.0
 10
115.0872042898046
 20
-146.3111382012694
 30
0.0
 10
115.0872042898046
 20
-146.3111382012694
 30
0.0
 10
115.0682562646357
 20
-146.4868380710172
 30
0.0
 10
115.0682562646357
 20
-146.4868380710172
 30
0.0
 10
115.0682562646357
 20
-146.4868380710172
 30
0.0
 10
114.2217963039098
 20
-146.3662597290334
 30
0.0
 10
114.2217963039098
 20
-146.3662597290334
 30
0.0
 10
114.2217963039098
 20
-146.3662597290334
 30
0.0
 10
114.2217963039098
 20
-145.587668149367
 30
0.0
 10
114.2217963039098
 20
-145.587668149367
 30
0.0
 10
114.2217963039098
 20
-145.587668149367
 30
0.0
 10
114.4164441988265
 20
-145.587668149367
 30
0.0
 10
114.4164441988265
 20
-145.587668149367
 30
0.0
 10
114.4164441988265
 20
-145.587668149367
 30
0.0
 10
114.4164441988265
 20
-146.2033067125811
 30
0.0
 10
114.4164441988265
 20
-146.2033067125811
 30
0.0
 10
114.4164441988265
 20
-146.2033067125811
 30
0.0
 10
114.8395019244151
 20
-146.2687635268009
 30
0.0
 10
114.8395019244151
 20
-146.2687635268009
 30
0.0
 10
114.8057399886597
 20
-146.2074408271634
 30
0.0
 10
114.7654323714823
 20
-146.1251030450659
 30
0.0
 10
114.7654323714823
 20
-146.0065917603734
 30
0.0
 10
114.7654323714823
 20
-145.7526882231105
 30
0.0
 10
114.9518120372343
 20
-145.5156656537253
 30
0.0
 10
115.2649712168435
 20
-145.5156656537253
 30
0.0
 10
115.582264511035
 20
-145.5156656537253
 30
0.0
 10
115.8168755135805
 20
-145.739941369815
 30
0.0
 10
115.8168755135805
 20
-146.0424207534199
 30
0.0
  0
HATCH
  5
EF
330
E8
100
AcDbEntity
  8
_U+30EC_U+30A4_U+30E4_U+30FC 1
 62
     7
420
 16777215
100
AcDbHatch
 10
0.0
 20
0.0
 30
0.0
210
0.0
220
0.0
230
1.0
  2
SOLID
 70
     1
 71
     0
 91
        1
 92
        1
 93
        1
 72
     4
 94
        3
 73
     0
 74
     1
 95
       53
 96
       49
 40
0.0
 40
0.0
 40
0.0
 40
0.0
 40
1.0
 40
1.0
 40
1.0
 40
2.0
 40
2.0
 40
2.0
 40
3.0
 40
3.0
 40
3.0
 40
4.0
 40
4.0
 40
4.0
 40
5.0
 40
5.0
 40
5.0
 40
6.0
 40
6.0
 40
6.0
 40
7.0
 40
7.0
 40
7.0
 40
8.0
 40
8.0
 40
8.0
 40
9.0
 40
9.0
 40
9.0
 40
10.0
 40
10.0
 40
10.0
 40
11.0
 40
11.0
 40
11.0
 40
12.0
 40
12.0
 40
12.0
 40
13.0
 40
13.0
 40
13.0
 40
14.0
 40
14.0
 40
14.0
 40
15.0
 40
15.0
 40
15.0
 40
16.0
 40
16.0
 40
16.0
 40
16.0
 10
115.8168755135805
 20
-146.0424207534199
 10
115.8168755135805
 20
-146.1206244209351
 10
115.7999945457028
 20
-146.22225473775
 10
115.7366047887742
 20
-146.3238850545649
 10
115.6267062427947
 20
-146.4971733574729
 10
115.4954481048067
 20
-146.5185329494815
 10
115.3876166161184
 20
-146.5374809746504
 10
115.3876166161184
 20
-146.5374809746504
 10
115.3876166161184
 20
-146.3152723158518
 10
115.3876166161184
 20
-146.3152723158518
 10
115.5863986256173
 20
-146.2604952976363
 10
115.6160264467904
 20
-146.1333712742305
 10
115.6160264467904
 20
-146.0403536961288
 10
115.6160264467904
 20
-145.9008273289762
 10
115.5164631872667
 20
-145.7485541085281
 10
115.2839192420124
 20
-145.7485541085281
 10
115.0279486474583
 20
-145.7485541085281
 10
114.9580132091077
 20
-145.9283880928582
 10
114.9580132091077
 20
-146.0489664348419
 10
114.9580132091077
 20
-146.0806613133062
 10
114.9580132091077
 20
-146.22225473775
 10
115.0872042898046
 20
-146.3111382012694
 10
115.0872042898046
 20
-146.3111382012694
 10
115.0682562646357
 20
-146.4868380710172
 10
115.0682562646357
 20
-146.4868380710172
 10
115.0682562646357
 20
-146.4868380710172
 10
114.2217963039098
 20
-146.3662597290334
 10
114.2217963039098
 20
-146.3662597290334
 10
114.2217963039098
 20
-146.3662597290334
 10
114.2217963039098
 20
-145.587668149367
 10
114.2217963039098
 20
-145.587668149367
 10
114.2217963039098
 20
-145.587668149367
 10
114.4164441988265
 20
-145.587668149367
 10
114.4164441988265
 20
-145.587668149367
 10
114.4164441988265
 20
-145.587668149367
 10
114.4164441988265
 20
-146.2033067125811
 10
114.4164441988265
 20
-146.2033067125811
 10
114.4164441988265
 20
-146.2033067125811
 10
114.8395019244151
 20
-146.2687635268009
 10
114.8395019244151
 20
-146.2687635268009
 10
114.8057399886597
 20
-146.2074408271634
 10
114.7654323714823
 20
-146.1251030450659
 10
114.7654323714823
 20
-146.0065917603734
 10
114.7654323714823
 20
-145.7526882231105
 10
114.9518120372343
 20
-145.5156656537253
 10
115.2649712168435
 20
-145.5156656537253
 10
115.582264511035
 20
-145.5156656537253
 10
115.8168755135805
 20
-145.739941369815
 10
115.8168755135805
 20
-146.0424207534199
 97
        0
 97
        0
 75
     2
 76
     1
 98
        0
  0
ENDBLK
  5
EB
330
E8
100
AcDbEntity
  8
0
100
AcDbBlockEnd
  0
BLOCK
  5
F6
330
F4
100
AcDbEntity
  8
0
100
AcDbBlockBegin
  2
block 7
 70
     0
 10
0.0
 20
0.0
 30
0.0
  3
block 7
  1

  0
SPLINE
  5
F8
330
F4
100
AcDbEntity
  8
_U+30EC_U+30A4_U+30E4_U+30FC 1
370
     0
100
AcDbSpline
210
0.0
220
0.0
230
1.0
 70
    11
 71
     3
 72
    17
 73
    13
 74
     0
 42
0.0000000001
 43
0.0000000001
 12
1.0
 22
0.0
 32
0.0
 13
1.0
 23
0.0
 33
0.0
 40
0.0
 40
0.0
 40
0.0
 40
0.0
 40
1.0
 40
1.0
 40
1.0
 40
2.0
 40
2.0
 40
2.0
 40
3.0
 40
3.0
 40
3.0
 40
4.0
 40
4.0
 40
4.0
 40
4.0
 10
115.6070691985288
 20
-159.0276746564236
 30
0.0
 10
115.5013047671316
 20
-158.9219102250265
 30
0.0
 10
115.4206895327768
 20
-158.8836696651402
 30
0.0
 10
115.327671954675
 20
-158.8519747866759
 30
0.0
 10
115.327671954675
 20
-158.8519747866759
 30
0.0
 10
115.437915010203
 20
-158.6869547129324
 30
0.0
 10
115.437915010203
 20
-158.6869547129324
 30
0.0
 10
115.5350667028871
 20
-158.729329387401
 30
0.0
 10
115.6556450448708
 20
-158.8075330549162
 30
0.0
 10
115.7086995153437
 20
-158.8626545826802
 30
0.0
 10
115.7086995153437
 20
-158.8626545826802
 30
0.0
 10
115.6070691985288
 20
-159.0276746564236
 30
0.0
 10
115.6070691985288
 20
-159.0276746564236
 30
0.0
  0
SPLINE
  5
F9
330
F4
100
AcDbEntity
  8
_U+30EC_U+30A4_U+30E4_U+30FC 1
370
     0
100
AcDbSpline
210
0.0
220
0.0
230
1.0
 70
    11
 71
     3
 72
   182
 73
   178
 74
     0
 42
0.0000000001
 43
0.0000000001
 12
1.0
 22
0.0
 32
0.0
 13
1.0
 23
0.0
 33
0.0
 40
0.0
 40
0.0
 40
0.0
 40
0.0
 40
1.0
 40
1.0
 40
1.0
 40
2.0
 40
2.0
 40
2.0
 40
3.0
 40
3.0
 40
3.0
 40
4.0
 40
4.0
 40
4.0
 40
5.0
 40
5.0
 40
5.0
 40
6.0
 40
6.0
 40
6.0
 40
7.0
 40
7.0
 40
7.0
 40
8.0
 40
8.0
 40
8.0
 40
9.0
 40
9.0
 40
9.0
 40
10.0
 40
10.0
 40
10.0
 40
11.0
 40
11.0
 40
11.0
 40
12.0
 40
12.0
 40
12.0
 40
13.0
 40
13.0
 40
13.0
 40
14.0
 40
14.0
 40
14.0
 40
15.0
 40
15.0
 40
15.0
 40
16.0
 40
16.0
 40
16.0
 40
17.0
 40
17.0
 40
17.0
 40
18.0
 40
18.0
 40
18.0
 40
19.0
 40
19.0
 40
19.0
 40
20.0
 40
20.0
 40
20.0
 40
21.0
 40
21.0
 40
21.0
 40
22.0
 40
22.0
 40
22.0
 40
23.0
 40
23.0
 40
23.0
 40
24.0
 40
24.0
 40
24.0
 40
25.0
 40
25.0
 40
25.0
 40
26.0
 40
26.0
 40
26.0
 40
27.0
 40
27.0
 40
27.0
 40
28.0
 40
28.0
 40
28.0
 40
29.0
 40
29.0
 40
29.0
 40
30.0
 40
30.0
 40
30.0
 40
31.0
 40
31.0
 40
31.0
 40
32.0
 40
32.0
 40
32.0
 40
33.0
 40
33.0
 40
33.0
 40
34.0
 40
34.0
 40
34.0
 40
35.0
 40
35.0
 40
35.0
 40
36.0
 40
36.0
 40
36.0
 40
37.0
 40
37.0
 40
37.0
 40
38.0
 40
38.0
 40
38.0
 40
39.0
 40
39.0
 40
39.0
 40
40.0
 40
40.0
 40
40.0
 40
41.0
 40
41.0
 40
41.0
 40
42.0
 40
42.0
 40
42.0
 40
43.0
 40
43.0
 40
43.0
 40
44.0
 40
44.0
 40
44.0
 40
45.0
 40
45.0
 40
45.0
 40
46.0
 40
46.0
 40
46.0
 40
47.0
 40
47.0
 40
47.0
 40
48.0
 40
48.0
 40
48.0
 40
49.0
 40
49.0
 40
49.0
 40
50.0
 40
50.0
 40
50.0
 40
51.0
 40
51.0
 40
51.0
 40
52.0
 40
52.0
 40
52.0
 40
53.0
 40
53.0
 40
53.0
 40
54.0
 40
54.0
 40
54.0
 40
55.0
 40
55.0
 40
55.0
 40
56.0
 40
56.0
 40
56.0
 40
57.0
 40
57.0
 40
57.0
 40
58.0
 40
58.0
 40
58.0
 40
59.0
 40
59.0
 40
59.0
 40
59.0
 10
116.6519666592051
 20
-160.2058973123791
 30
0.0
 10
116.6519666592051
 20
-160.2058973123791
 30
0.0
 10
116.0153130135309
 20
-160.2058973123791
 30
0.0
 10
116.0153130135309
 20
-160.2058973123791
 30
0.0
 10
115.8017170934454
 20
-160.2058973123791
 30
0.0
 10
115.5857096065202
 20
-160.2103759365099
 30
0.0
 10
115.3721136864348
 20
-160.2227782802568
 30
0.0
 10
115.3721136864348
 20
-160.2227782802568
 30
0.0
 10
115.3721136864348
 20
-160.0157280415933
 30
0.0
 10
115.3721136864348
 20
-160.0157280415933
 30
0.0
 10
115.5943223452334
 20
-160.0281303853402
 30
0.0
 10
115.9178168112983
 20
-160.032609009471
 30
0.0
 10
116.0153130135309
 20
-160.032609009471
 30
0.0
 10
116.0153130135309
 20
-160.032609009471
 30
0.0
 10
116.2354546150384
 20
-160.032609009471
 30
0.0
 10
116.2354546150384
 20
-160.032609009471
 30
0.0
 10
116.2354546150384
 20
-160.032609009471
 30
0.0
 10
116.2354546150384
 20
-159.8906710754787
 30
0.0
 10
116.2354546150384
 20
-159.8906710754787
 30
0.0
 10
116.2354546150384
 20
-159.8906710754787
 30
0.0
 10
116.0745686558772
 20
-159.8906710754787
 30
0.0
 10
116.0745686558772
 20
-159.8906710754787
 30
0.0
 10
115.9095485821337
 20
-159.8906710754787
 30
0.0
 10
115.7445285083903
 20
-159.8951496996096
 30
0.0
 10
115.5795084346468
 20
-159.9099636101961
 30
0.0
 10
115.5795084346468
 20
-159.9099636101961
 30
0.0
 10
115.5795084346468
 20
-159.7005018046929
 30
0.0
 10
115.5795084346468
 20
-159.7005018046929
 30
0.0
 10
115.7507296802637
 20
-159.7153157152795
 30
0.0
 10
115.9984320456532
 20
-159.7194498298618
 30
0.0
 10
116.0745686558772
 20
-159.7194498298618
 30
0.0
 10
116.0745686558772
 20
-159.7194498298618
 30
0.0
 10
116.2354546150384
 20
-159.7194498298618
 30
0.0
 10
116.2354546150384
 20
-159.7194498298618
 30
0.0
 10
116.2309759909075
 20
-159.6474473342201
 30
0.0
 10
116.2309759909075
 20
-159.6412461623466
 30
0.0
 10
116.2247748190341
 20
-159.5881916918738
 30
0.0
 10
116.2247748190341
 20
-159.5881916918738
 30
0.0
 10
116.3643011861867
 20
-159.6030056024604
 30
0.0
 10
116.3643011861867
 20
-159.6030056024604
 30
0.0
 10
116.3643011861867
 20
-159.6030056024604
 30
0.0
 10
116.2650824362115
 20
-159.4317843568435
 30
0.0
 10
116.2650824362115
 20
-159.4317843568435
 30
0.0
 10
116.3115912252624
 20
-159.4379855287169
 30
0.0
 10
116.3856607781953
 20
-159.44659826743
 30
0.0
 10
116.402541746073
 20
-159.44659826743
 30
0.0
 10
116.4531846497062
 20
-159.44659826743
 30
0.0
 10
116.4700656175839
 20
-159.4252386754215
 30
0.0
 10
116.4700656175839
 20
-159.3683945999149
 30
0.0
 10
116.4700656175839
 20
-159.3683945999149
 30
0.0
 10
116.4700656175839
 20
-159.2305907805049
 30
0.0
 10
116.4700656175839
 20
-159.2305907805049
 30
0.0
 10
116.4700656175839
 20
-159.2305907805049
 30
0.0
 10
116.3643011861867
 20
-159.2305907805049
 30
0.0
 10
116.3643011861867
 20
-159.2305907805049
 30
0.0
 10
116.2309759909075
 20
-159.2305907805049
 30
0.0
 10
116.0745686558772
 20
-159.2305907805049
 30
0.0
 10
115.9519232566023
 20
-159.2433376338003
 30
0.0
 10
115.9519232566023
 20
-159.2433376338003
 30
0.0
 10
115.9519232566023
 20
-159.0531683630145
 30
0.0
 10
115.9519232566023
 20
-159.0531683630145
 30
0.0
 10
116.1190103876369
 20
-159.0700493308922
 30
0.0
 10
116.3494872756001
 20
-159.0721163881834
 30
0.0
 10
116.3643011861867
 20
-159.0721163881834
 30
0.0
 10
116.3643011861867
 20
-159.0721163881834
 30
0.0
 10
116.4700656175839
 20
-159.0721163881834
 30
0.0
 10
116.4700656175839
 20
-159.0721163881834
 30
0.0
 10
116.4700656175839
 20
-159.0721163881834
 30
0.0
 10
116.4700656175839
 20
-158.9408582501954
 30
0.0
 10
116.4700656175839
 20
-158.9408582501954
 30
0.0
 10
116.4700656175839
 20
-158.9408582501954
 30
0.0
 10
116.4321695672461
 20
-158.9408582501954
 30
0.0
 10
116.4321695672461
 20
-158.9408582501954
 30
0.0
 10
116.3877278354864
 20
-158.9408582501954
 30
0.0
 10
116.2626708693718
 20
-158.9449923647776
 30
0.0
 10
116.1737874058524
 20
-158.9536051034908
 30
0.0
 10
116.1737874058524
 20
-158.9536051034908
 30
0.0
 10
116.1737874058524
 20
-158.8733343786845
 30
0.0
 10
116.1737874058524
 20
-158.8733343786845
 30
0.0
 10
116.1210774449281
 20
-158.9112304290222
 30
0.0
 10
116.0955837383372
 20
-158.9260443396088
 30
0.0
 10
116.0532090638686
 20
-158.9494709889085
 30
0.0
 10
116.0532090638686
 20
-158.9494709889085
 30
0.0
 10
115.865106850374
 20
-158.8202799082116
 30
0.0
 10
115.865106850374
 20
-158.8202799082116
 30
0.0
 10
115.9433105178892
 20
-158.7865179724562
 30
0.0
 10
116.1000623624681
 20
-158.7231282155276
 30
0.0
 10
116.2564696974984
 20
-158.5791232242441
 30
0.0
 10
116.3388074795959
 20
-158.5009195567289
 30
0.0
 10
116.4173556566596
 20
-158.4161702077918
 30
0.0
 10
116.4700656175839
 20
-158.3148844005254
 30
0.0
 10
116.4700656175839
 20
-158.3148844005254
 30
0.0
 10
116.6815944803782
 20
-158.3762071001629
 30
0.0
 10
116.6815944803782
 20
-158.3762071001629
 30
0.0
 10
116.7008870150956
 20
-158.3824082720363
 30
0.0
 10
116.7112223015514
 20
-158.3910210107495
 30
0.0
 10
116.7112223015514
 20
-158.4034233544964
 30
0.0
 10
116.7112223015514
 20
-158.4206488319226
 30
0.0
 10
116.6984754482559
 20
-158.4268500037961
 30
0.0
 10
116.6733262512136
 20
-158.4395968570915
 30
0.0
 10
116.7535969760199
 20
-158.5367485497756
 30
0.0
 10
116.9165499924723
 20
-158.6342447520081
 30
0.0
 10
116.9503119282277
 20
-158.653192777177
 30
0.0
 10
117.1005180913846
 20
-158.7420762406964
 30
0.0
 10
117.2148952614949
 20
-158.7696370045784
 30
0.0
 10
117.2930989290101
 20
-158.7885850297473
 30
0.0
 10
117.2930989290101
 20
-158.7885850297473
 30
0.0
 10
117.1745876443175
 20
-158.9577392180731
 30
0.0
 10
117.1745876443175
 20
-158.9577392180731
 30
0.0
 10
117.0898382953803
 20
-158.9281113968999
 30
0.0
 10
117.0391953917472
 20
-158.909163371731
 30
0.0
 10
116.9206841070546
 20
-158.8437065575113
 30
0.0
 10
116.9206841070546
 20
-158.8437065575113
 30
0.0
 10
116.9206841070546
 20
-158.9536051034908
 30
0.0
 10
116.9206841070546
 20
-158.9536051034908
 30
0.0
 10
116.8383463249571
 20
-158.9449923647776
 30
0.0
 10
116.7112223015514
 20
-158.9408582501954
 30
0.0
 10
116.658512340627
 20
-158.9408582501954
 30
0.0
 10
116.658512340627
 20
-158.9408582501954
 30
0.0
 10
116.658512340627
 20
-159.0721163881834
 30
0.0
 10
116.658512340627
 20
-159.0721163881834
 30
0.0
 10
116.658512340627
 20
-159.0721163881834
 30
0.0
 10
116.7790906826108
 20
-159.0721163881834
 30
0.0
 10
116.7790906826108
 20
-159.0721163881834
 30
0.0
 10
116.7811577399019
 20
-159.0721163881834
 30
0.0
 10
117.0137016851563
 20
-159.0700493308922
 30
0.0
 10
117.1914686121952
 20
-159.0531683630145
 30
0.0
 10
117.1914686121952
 20
-159.0531683630145
 30
0.0
 10
117.1914686121952
 20
-159.2433376338003
 30
0.0
 10
117.1914686121952
 20
-159.2433376338003
 30
0.0
 10
117.0626220410469
 20
-159.2305907805049
 30
0.0
 10
116.905870196468
 20
-159.2305907805049
 30
0.0
 10
116.7790906826108
 20
-159.2305907805049
 30
0.0
 10
116.7790906826108
 20
-159.2305907805049
 30
0.0
 10
116.658512340627
 20
-159.2305907805049
 30
0.0
 10
116.658512340627
 20
-159.2305907805049
 30
0.0
 10
116.658512340627
 20
-159.2305907805049
 30
0.0
 10
116.658512340627
 20
-159.4569335538858
 30
0.0
 10
116.658512340627
 20
-159.4569335538858
 30
0.0
 10
116.658512340627
 20
-159.5754448385784
 30
0.0
 10
116.6330186340362
 20
-159.6116183411735
 30
0.0
 10
116.472132674875
 20
-159.6264322517601
 30
0.0
 10
116.4766112990059
 20
-159.6453802769289
 30
0.0
 10
116.4700656175839
 20
-159.6560600729332
 30
0.0
 10
116.4321695672461
 20
-159.6791422126844
 30
0.0
 10
116.430102509955
 20
-159.6980902378533
 30
0.0
 10
116.430102509955
 20
-159.7046359192752
 30
0.0
 10
116.4276909431153
 20
-159.7194498298618
 30
0.0
 10
116.4276909431153
 20
-159.7194498298618
 30
0.0
 10
116.5651502529768
 20
-159.7194498298618
 30
0.0
 10
116.5651502529768
 20
-159.7194498298618
 30
0.0
 10
116.7301703267202
 20
-159.7194498298618
 30
0.0
 10
116.8976019673034
 20
-159.7153157152795
 30
0.0
 10
117.064689098338
 20
-159.7005018046929
 30
0.0
 10
117.064689098338
 20
-159.7005018046929
 30
0.0
 10
117.064689098338
 20
-159.9075520433564
 30
0.0
 10
117.064689098338
 20
-159.9075520433564
 30
0.0
 10
116.8486816114128
 20
-159.8906710754787
 30
0.0
 10
116.5844427876942
 20
-159.8906710754787
 30
0.0
 10
116.5651502529768
 20
-159.8906710754787
 30
0.0
 10
116.5651502529768
 20
-159.8906710754787
 30
0.0
 10
116.4256238858242
 20
-159.8906710754787
 30
0.0
 10
116.4256238858242
 20
-159.8906710754787
 30
0.0
 10
116.4256238858242
 20
-159.8906710754787
 30
0.0
 10
116.4256238858242
 20
-160.032609009471
 30
0.0
 10
116.4256238858242
 20
-160.032609009471
 30
0.0
 10
116.4256238858242
 20
-160.032609009471
 30
0.0
 10
116.6519666592051
 20
-160.032609009471
 30
0.0
 10
116.6519666592051
 20
-160.032609009471
 30
0.0
 10
116.8679741461302
 20
-160.032609009471
 30
0.0
 10
117.085704180798
 20
-160.0281303853402
 30
0.0
 10
117.3013671581747
 20
-160.0157280415933
 30
0.0
 10
117.3013671581747
 20
-160.0157280415933
 30
0.0
 10
117.3013671581747
 20
-160.2227782802568
 30
0.0
 10
117.3013671581747
 20
-160.2227782802568
 30
0.0
 10
117.0202473665783
 20
-160.2058973123791
 30
0.0
 10
116.6753933085048
 20
-160.2058973123791
 30
0.0
 10
116.6519666592051
 20
-160.2058973123791
 30
0.0
  0
SPLINE
  5
FA
330
F4
100
AcDbEntity
  8
_U+30EC_U+30A4_U+30E4_U+30FC 1
370
     0
100
AcDbSpline
210
0.0
220
0.0
230
1.0
 70
    11
 71
     3
 72
    23
 73
    19
 74
     0
 42
0.0000000001
 43
0.0000000001
 12
1.0
 22
0.0
 32
0.0
 13
1.0
 23
0.0
 33
0.0
 40
0.0
 40
0.0
 40
0.0
 40
0.0
 40
1.0
 40
1.0
 40
1.0
 40
2.0
 40
2.0
 40
2.0
 40
3.0
 40
3.0
 40
3.0
 40
4.0
 40
4.0
 40
4.0
 40
5.0
 40
5.0
 40
5.0
 40
6.0
 40
6.0
 40
6.0
 40
6.0
 10
115.5329996455959
 20
-159.5775118958695
 30
0.0
 10
115.5329996455959
 20
-159.5988714878781
 30
0.0
 10
115.5350667028871
 20
-159.6367675382158
 30
0.0
 10
115.5095729962962
 20
-159.6367675382158
 30
0.0
 10
115.4992377098405
 20
-159.6367675382158
 30
0.0
 10
115.4906249711273
 20
-159.6305663663424
 30
0.0
 10
115.4799451751231
 20
-159.6136853984646
 30
0.0
 10
115.4799451751231
 20
-159.6136853984646
 30
0.0
 10
115.3762478010171
 20
-159.4317843568435
 30
0.0
 10
115.3762478010171
 20
-159.4317843568435
 30
0.0
 10
115.5922552879422
 20
-159.3025932761466
 30
0.0
 10
115.78897024015
 20
-159.0256075991325
 30
0.0
 10
115.8354790292009
 20
-158.9536051034908
 30
0.0
 10
115.8354790292009
 20
-158.9536051034908
 30
0.0
 10
115.9074815248426
 20
-159.1334390878208
 30
0.0
 10
115.9074815248426
 20
-159.1334390878208
 30
0.0
 10
115.7741563295634
 20
-159.3301540400286
 30
0.0
 10
115.5984564598157
 20
-159.5141221389409
 30
0.0
 10
115.5329996455959
 20
-159.5775118958695
 30
0.0
  0
SPLINE
  5
FB
330
F4
100
AcDbEntity
  8
_U+30EC_U+30A4_U+30E4_U+30FC 1
370
     0
100
AcDbSpline
210
0.0
220
0.0
230
1.0
 70
    11
 71
     3
 72
    17
 73
    13
 74
     0
 42
0.0000000001
 43
0.0000000001
 12
1.0
 22
0.0
 32
0.0
 13
1.0
 23
0.0
 33
0.0
 40
0.0
 40
0.0
 40
0.0
 40
0.0
 40
1.0
 40
1.0
 40
1.0
 40
2.0
 40
2.0
 40
2.0
 40
3.0
 40
3.0
 40
3.0
 40
4.0
 40
4.0
 40
4.0
 40
4.0
 10
115.7869031828588
 20
-158.6828205983501
 30
0.0
 10
115.7255804832214
 20
-158.6066839881261
 30
0.0
 10
115.5963894025245
 20
-158.5305473779021
 30
0.0
 10
115.4926920284185
 20
-158.5009195567289
 30
0.0
 10
115.4926920284185
 20
-158.5009195567289
 30
0.0
 10
115.5881211733599
 20
-158.3358994829855
 30
0.0
 10
115.5881211733599
 20
-158.3358994829855
 30
0.0
 10
115.6894069806263
 20
-158.3717284760321
 30
0.0
 10
115.7951714120234
 20
-158.4289170610872
 30
0.0
 10
115.8840548755429
 20
-158.5091877858935
 30
0.0
 10
115.8840548755429
 20
-158.5091877858935
 30
0.0
 10
115.7869031828588
 20
-158.6828205983501
 30
0.0
 10
115.7869031828588
 20
-158.6828205983501
 30
0.0
  0
SPLINE
  5
FC
330
F4
100
AcDbEntity
  8
_U+30EC_U+30A4_U+30E4_U+30FC 1
370
     0
100
AcDbSpline
210
0.0
220
0.0
230
1.0
 70
    11
 71
     3
 72
    23
 73
    19
 74
     0
 42
0.0000000001
 43
0.0000000001
 12
1.0
 22
0.0
 32
0.0
 13
1.0
 23
0.0
 33
0.0
 40
0.0
 40
0.0
 40
0.0
 40
0.0
 40
1.0
 40
1.0
 40
1.0
 40
2.0
 40
2.0
 40
2.0
 40
3.0
 40
3.0
 40
3.0
 40
4.0
 40
4.0
 40
4.0
 40
5.0
 40
5.0
 40
5.0
 40
6.0
 40
6.0
 40
6.0
 40
6.0
 10
116.2395887296207
 20
-159.3873426250837
 30
0.0
 10
116.2182291376121
 20
-159.4104247648349
 30
0.0
 10
116.1210774449281
 20
-159.522734877654
 30
0.0
 10
115.9815510777754
 20
-159.6030056024604
 30
0.0
 10
115.9815510777754
 20
-159.6030056024604
 30
0.0
 10
115.8144639467408
 20
-159.4824272604766
 30
0.0
 10
115.8144639467408
 20
-159.4824272604766
 30
0.0
 10
115.9646701098977
 20
-159.4062906502526
 30
0.0
 10
116.0638888598729
 20
-159.3112060148597
 30
0.0
 10
116.112464706215
 20
-159.2581515443869
 30
0.0
 10
116.112464706215
 20
-159.2581515443869
 30
0.0
 10
116.2860975186715
 20
-159.3408338360329
 30
0.0
 10
116.2860975186715
 20
-159.3408338360329
 30
0.0
 10
116.2943657478361
 20
-159.3449679506151
 30
0.0
 10
116.3029784865493
 20
-159.3511691224886
 30
0.0
 10
116.3029784865493
 20
-159.3618489184929
 30
0.0
 10
116.3029784865493
 20
-159.3873426250837
 30
0.0
 10
116.2671494935027
 20
-159.3873426250837
 30
0.0
 10
116.2395887296207
 20
-159.3873426250837
 30
0.0
  0
SPLINE
  5
FD
330
F4
100
AcDbEntity
  8
_U+30EC_U+30A4_U+30E4_U+30FC 1
370
     0
100
AcDbSpline
210
0.0
220
0.0
230
1.0
 70
    11
 71
     3
 72
    20
 73
    16
 74
     0
 42
0.0000000001
 43
0.0000000001
 12
1.0
 22
0.0
 32
0.0
 13
1.0
 23
0.0
 33
0.0
 40
0.0
 40
0.0
 40
0.0
 40
0.0
 40
1.0
 40
1.0
 40
1.0
 40
2.0
 40
2.0
 40
2.0
 40
3.0
 40
3.0
 40
3.0
 40
4.0
 40
4.0
 40
4.0
 40
5.0
 40
5.0
 40
5.0
 40
5.0
 10
116.5379339986433
 20
-158.5453612884887
 30
0.0
 10
116.499693438757
 20
-158.5939371348307
 30
0.0
 10
116.4383707391196
 20
-158.6721408023459
 30
0.0
 10
116.298844371967
 20
-158.7823838578739
 30
0.0
 10
116.3791150967733
 20
-158.7865179724562
 30
0.0
 10
116.4087429179464
 20
-158.7865179724562
 30
0.0
 10
116.4321695672461
 20
-158.7865179724562
 30
0.0
 10
116.4321695672461
 20
-158.7865179724562
 30
0.0
 10
116.6605793979182
 20
-158.7865179724562
 30
0.0
 10
116.6605793979182
 20
-158.7865179724562
 30
0.0
 10
116.6922742763825
 20
-158.7865179724562
 30
0.0
 10
116.7408501227245
 20
-158.784450915165
 30
0.0
 10
116.8149196756574
 20
-158.7823838578739
 30
0.0
 10
116.7029540723868
 20
-158.708314304941
 30
0.0
 10
116.6540337164962
 20
-158.6618055158901
 30
0.0
 10
116.5379339986433
 20
-158.5453612884887
 30
0.0
  0
SPLINE
  5
FE
330
F4
100
AcDbEntity
  8
_U+30EC_U+30A4_U+30E4_U+30FC 1
370
     0
100
AcDbSpline
210
0.0
220
0.0
230
1.0
 70
    11
 71
     3
 72
    17
 73
    13
 74
     0
 42
0.0000000001
 43
0.0000000001
 12
1.0
 22
0.0
 32
0.0
 13
1.0
 23
0.0
 33
0.0
 40
0.0
 40
0.0
 40
0.0
 40
0.0
 40
1.0
 40
1.0
 40
1.0
 40
2.0
 40
2.0
 40
2.0
 40
3.0
 40
3.0
 40
3.0
 40
4.0
 40
4.0
 40
4.0
 40
4.0
 10
117.0984510340934
 20
-159.6009385451692
 30
0.0
 10
116.9630587815231
 20
-159.4889729418986
 30
0.0
 10
116.857294350126
 20
-159.4252386754215
 30
0.0
 10
116.7387830654334
 20
-159.3618489184929
 30
0.0
 10
116.7387830654334
 20
-159.3618489184929
 30
0.0
 10
116.8655625792906
 20
-159.2498833152223
 30
0.0
 10
116.8655625792906
 20
-159.2498833152223
 30
0.0
 10
116.9968207172786
 20
-159.2963921042731
 30
0.0
 10
117.106719263258
 20
-159.3535806893283
 30
0.0
 10
117.2317762293726
 20
-159.4548664965946
 30
0.0
 10
117.2317762293726
 20
-159.4548664965946
 30
0.0
 10
117.0984510340934
 20
-159.6009385451692
 30
0.0
 10
117.0984510340934
 20
-159.6009385451692
 30
0.0
  0
HATCH
  5
FF
330
F4
100
AcDbEntity
  8
_U+30EC_U+30A4_U+30E4_U+30FC 1
 62
     7
420
 16777215
100
AcDbHatch
 10
0.0
 20
0.0
 30
0.0
210
0.0
220
0.0
230
1.0
  2
SOLID
 70
     1
 71
     0
 91
        7
 92
        1
 93
        1
 72
     4
 94
        3
 73
     0
 74
     1
 95
       17
 96
       13
 40
0.0
 40
0.0
 40
0.0
 40
0.0
 40
1.0
 40
1.0
 40
1.0
 40
2.0
 40
2.0
 40
2.0
 40
3.0
 40
3.0
 40
3.0
 40
4.0
 40
4.0
 40
4.0
 40
4.0
 10
115.6070691985288
 20
-159.0276746564236
 10
115.5013047671316
 20
-158.9219102250265
 10
115.4206895327768
 20
-158.8836696651402
 10
115.327671954675
 20
-158.8519747866759
 10
115.327671954675
 20
-158.8519747866759
 10
115.437915010203
 20
-158.6869547129324
 10
115.437915010203
 20
-158.6869547129324
 10
115.5350667028871
 20
-158.729329387401
 10
115.6556450448708
 20
-158.8075330549162
 10
115.7086995153437
 20
-158.8626545826802
 10
115.7086995153437
 20
-158.8626545826802
 10
115.6070691985288
 20
-159.0276746564236
 10
115.6070691985288
 20
-159.0276746564236
 97
        0
 97
        0
 92
        1
 93
        1
 72
     4
 94
        3
 73
     0
 74
     1
 95
      182
 96
      178
 40
0.0
 40
0.0
 40
0.0
 40
0.0
 40
1.0
 40
1.0
 40
1.0
 40
2.0
 40
2.0
 40
2.0
 40
3.0
 40
3.0
 40
3.0
 40
4.0
 40
4.0
 40
4.0
 40
5.0
 40
5.0
 40
5.0
 40
6.0
 40
6.0
 40
6.0
 40
7.0
 40
7.0
 40
7.0
 40
8.0
 40
8.0
 40
8.0
 40
9.0
 40
9.0
 40
9.0
 40
10.0
 40
10.0
 40
10.0
 40
11.0
 40
11.0
 40
11.0
 40
12.0
 40
12.0
 40
12.0
 40
13.0
 40
13.0
 40
13.0
 40
14.0
 40
14.0
 40
14.0
 40
15.0
 40
15.0
 40
15.0
 40
16.0
 40
16.0
 40
16.0
 40
17.0
 40
17.0
 40
17.0
 40
18.0
 40
18.0
 40
18.0
 40
19.0
 40
19.0
 40
19.0
 40
20.0
 40
20.0
 40
20.0
 40
21.0
 40
21.0
 40
21.0
 40
22.0
 40
22.0
 40
22.0
 40
23.0
 40
23.0
 40
23.0
 40
24.0
 40
24.0
 40
24.0
 40
25.0
 40
25.0
 40
25.0
 40
26.0
 40
26.0
 40
26.0
 40
27.0
 40
27.0
 40
27.0
 40
28.0
 40
28.0
 40
28.0
 40
29.0
 40
29.0
 40
29.0
 40
30.0
 40
30.0
 40
30.0
 40
31.0
 40
31.0
 40
31.0
 40
32.0
 40
32.0
 40
32.0
 40
33.0
 40
33.0
 40
33.0
 40
34.0
 40
34.0
 40
34.0
 40
35.0
 40
35.0
 40
35.0
 40
36.0
 40
36.0
 40
36.0
 40
37.0
 40
37.0
 40
37.0
 40
38.0
 40
38.0
 40
38.0
 40
39.0
 40
39.0
 40
39.0
 40
40.0
 40
40.0
 40
40.0
 40
41.0
 40
41.0
 40
41.0
 40
42.0
 40
42.0
 40
42.0
 40
43.0
 40
43.0
 40
43.0
 40
44.0
 40
44.0
 40
44.0
 40
45.0
 40
45.0
 40
45.0
 40
46.0
 40
46.0
 40
46.0
 40
47.0
 40
47.0
 40
47.0
 40
48.0
 40
48.0
 40
48.0
 40
49.0
 40
49.0
 40
49.0
 40
50.0
 40
50.0
 40
50.0
 40
51.0
 40
51.0
 40
51.0
 40
52.0
 40
52.0
 40
52.0
 40
53.0
 40
53.0
 40
53.0
 40
54.0
 40
54.0
 40
54.0
 40
55.0
 40
55.0
 40
55.0
 40
56.0
 40
56.0
 40
56.0
 40
57.0
 40
57.0
 40
57.0
 40
58.0
 40
58.0
 40
58.0
 40
59.0
 40
59.0
 40
59.0
 40
59.0
 10
116.6519666592051
 20
-160.2058973123791
 10
116.6519666592051
 20
-160.2058973123791
 10
116.0153130135309
 20
-160.2058973123791
 10
116.0153130135309
 20
-160.2058973123791
 10
115.8017170934454
 20
-160.2058973123791
 10
115.5857096065202
 20
-160.2103759365099
 10
115.3721136864348
 20
-160.2227782802568
 10
115.3721136864348
 20
-160.2227782802568
 10
115.3721136864348
 20
-160.0157280415933
 10
115.3721136864348
 20
-160.0157280415933
 10
115.5943223452334
 20
-160.0281303853402
 10
115.9178168112983
 20
-160.032609009471
 10
116.0153130135309
 20
-160.032609009471
 10
116.0153130135309
 20
-160.032609009471
 10
116.2354546150384
 20
-160.032609009471
 10
116.2354546150384
 20
-160.032609009471
 10
116.2354546150384
 20
-160.032609009471
 10
116.2354546150384
 20
-159.8906710754787
 10
116.2354546150384
 20
-159.8906710754787
 10
116.2354546150384
 20
-159.8906710754787
 10
116.0745686558772
 20
-159.8906710754787
 10
116.0745686558772
 20
-159.8906710754787
 10
115.9095485821337
 20
-159.8906710754787
 10
115.7445285083903
 20
-159.8951496996096
 10
115.5795084346468
 20
-159.9099636101961
 10
115.5795084346468
 20
-159.9099636101961
 10
115.5795084346468
 20
-159.7005018046929
 10
115.5795084346468
 20
-159.7005018046929
 10
115.7507296802637
 20
-159.7153157152795
 10
115.9984320456532
 20
-159.7194498298618
 10
116.0745686558772
 20
-159.7194498298618
 10
116.0745686558772
 20
-159.7194498298618
 10
116.2354546150384
 20
-159.7194498298618
 10
116.2354546150384
 20
-159.7194498298618
 10
116.2309759909075
 20
-159.6474473342201
 10
116.2309759909075
 20
-159.6412461623466
 10
116.2247748190341
 20
-159.5881916918738
 10
116.2247748190341
 20
-159.5881916918738
 10
116.3643011861867
 20
-159.6030056024604
 10
116.3643011861867
 20
-159.6030056024604
 10
116.3643011861867
 20
-159.6030056024604
 10
116.2650824362115
 20
-159.4317843568435
 10
116.2650824362115
 20
-159.4317843568435
 10
116.3115912252624
 20
-159.4379855287169
 10
116.3856607781953
 20
-159.44659826743
 10
116.402541746073
 20
-159.44659826743
 10
116.4531846497062
 20
-159.44659826743
 10
116.4700656175839
 20
-159.4252386754215
 10
116.4700656175839
 20
-159.3683945999149
 10
116.4700656175839
 20
-159.3683945999149
 10
116.4700656175839
 20
-159.2305907805049
 10
116.4700656175839
 20
-159.2305907805049
 10
116.4700656175839
 20
-159.2305907805049
 10
116.3643011861867
 20
-159.2305907805049
 10
116.3643011861867
 20
-159.2305907805049
 10
116.2309759909075
 20
-159.2305907805049
 10
116.0745686558772
 20
-159.2305907805049
 10
115.9519232566023
 20
-159.2433376338003
 10
115.9519232566023
 20
-159.2433376338003
 10
115.9519232566023
 20
-159.0531683630145
 10
115.9519232566023
 20
-159.0531683630145
 10
116.1190103876369
 20
-159.0700493308922
 10
116.3494872756001
 20
-159.0721163881834
 10
116.3643011861867
 20
-159.0721163881834
 10
116.3643011861867
 20
-159.0721163881834
 10
116.4700656175839
 20
-159.0721163881834
 10
116.4700656175839
 20
-159.0721163881834
 10
116.4700656175839
 20
-159.0721163881834
 10
116.4700656175839
 20
-158.9408582501954
 10
116.4700656175839
 20
-158.9408582501954
 10
116.4700656175839
 20
-158.9408582501954
 10
116.4321695672461
 20
-158.9408582501954
 10
116.4321695672461
 20
-158.9408582501954
 10
116.3877278354864
 20
-158.9408582501954
 10
116.2626708693718
 20
-158.9449923647776
 10
116.1737874058524
 20
-158.9536051034908
 10
116.1737874058524
 20
-158.9536051034908
 10
116.1737874058524
 20
-158.8733343786845
 10
116.1737874058524
 20
-158.8733343786845
 10
116.1210774449281
 20
-158.9112304290222
 10
116.0955837383372
 20
-158.9260443396088
 10
116.0532090638686
 20
-158.9494709889085
 10
116.0532090638686
 20
-158.9494709889085
 10
115.865106850374
 20
-158.8202799082116
 10
115.865106850374
 20
-158.8202799082116
 10
115.9433105178892
 20
-158.7865179724562
 10
116.1000623624681
 20
-158.7231282155276
 10
116.2564696974984
 20
-158.5791232242441
 10
116.3388074795959
 20
-158.5009195567289
 10
116.4173556566596
 20
-158.4161702077918
 10
116.4700656175839
 20
-158.3148844005254
 10
116.4700656175839
 20
-158.3148844005254
 10
116.6815944803782
 20
-158.3762071001629
 10
116.6815944803782
 20
-158.3762071001629
 10
116.7008870150956
 20
-158.3824082720363
 10
116.7112223015514
 20
-158.3910210107495
 10
116.7112223015514
 20
-158.4034233544964
 10
116.7112223015514
 20
-158.4206488319226
 10
116.6984754482559
 20
-158.4268500037961
 10
116.6733262512136
 20
-158.4395968570915
 10
116.7535969760199
 20
-158.5367485497756
 10
116.9165499924723
 20
-158.6342447520081
 10
116.9503119282277
 20
-158.653192777177
 10
117.1005180913846
 20
-158.7420762406964
 10
117.2148952614949
 20
-158.7696370045784
 10
117.2930989290101
 20
-158.7885850297473
 10
117.2930989290101
 20
-158.7885850297473
 10
117.1745876443175
 20
-158.9577392180731
 10
117.1745876443175
 20
-158.9577392180731
 10
117.0898382953803
 20
-158.9281113968999
 10
117.0391953917472
 20
-158.909163371731
 10
116.9206841070546
 20
-158.8437065575113
 10
116.9206841070546
 20
-158.8437065575113
 10
116.9206841070546
 20
-158.9536051034908
 10
116.9206841070546
 20
-158.9536051034908
 10
116.8383463249571
 20
-158.9449923647776
 10
116.7112223015514
 20
-158.9408582501954
 10
116.658512340627
 20
-158.9408582501954
 10
116.658512340627
 20
-158.9408582501954
 10
116.658512340627
 20
-159.0721163881834
 10
116.658512340627
 20
-159.0721163881834
 10
116.658512340627
 20
-159.0721163881834
 10
116.7790906826108
 20
-159.0721163881834
 10
116.7790906826108
 20
-159.0721163881834
 10
116.7811577399019
 20
-159.0721163881834
 10
117.0137016851563
 20
-159.0700493308922
 10
117.1914686121952
 20
-159.0531683630145
 10
117.1914686121952
 20
-159.0531683630145
 10
117.1914686121952
 20
-159.2433376338003
 10
117.1914686121952
 20
-159.2433376338003
 10
117.0626220410469
 20
-159.2305907805049
 10
116.905870196468
 20
-159.2305907805049
 10
116.7790906826108
 20
-159.2305907805049
 10
116.7790906826108
 20
-159.2305907805049
 10
116.658512340627
 20
-159.2305907805049
 10
116.658512340627
 20
-159.2305907805049
 10
116.658512340627
 20
-159.2305907805049
 10
116.658512340627
 20
-159.4569335538858
 10
116.658512340627
 20
-159.4569335538858
 10
116.658512340627
 20
-159.5754448385784
 10
116.6330186340362
 20
-159.6116183411735
 10
116.472132674875
 20
-159.6264322517601
 10
116.4766112990059
 20
-159.6453802769289
 10
116.4700656175839
 20
-159.6560600729332
 10
116.4321695672461
 20
-159.6791422126844
 10
116.430102509955
 20
-159.6980902378533
 10
116.430102509955
 20
-159.7046359192752
 10
116.4276909431153
 20
-159.7194498298618
 10
116.4276909431153
 20
-159.7194498298618
 10
116.5651502529768
 20
-159.7194498298618
 10
116.5651502529768
 20
-159.7194498298618
 10
116.7301703267202
 20
-159.7194498298618
 10
116.8976019673034
 20
-159.7153157152795
 10
117.064689098338
 20
-159.7005018046929
 10
117.064689098338
 20
-159.7005018046929
 10
117.064689098338
 20
-159.9075520433564
 10
117.064689098338
 20
-159.9075520433564
 10
116.8486816114128
 20
-159.8906710754787
 10
116.5844427876942
 20
-159.8906710754787
 10
116.5651502529768
 20
-159.8906710754787
 10
116.5651502529768
 20
-159.8906710754787
 10
116.4256238858242
 20
-159.8906710754787
 10
116.4256238858242
 20
-159.8906710754787
 10
116.4256238858242
 20
-159.8906710754787
 10
116.4256238858242
 20
-160.032609009471
 10
116.4256238858242
 20
-160.032609009471
 10
116.4256238858242
 20
-160.032609009471
 10
116.6519666592051
 20
-160.032609009471
 10
116.6519666592051
 20
-160.032609009471
 10
116.8679741461302
 20
-160.032609009471
 10
117.085704180798
 20
-160.0281303853402
 10
117.3013671581747
 20
-160.0157280415933
 10
117.3013671581747
 20
-160.0157280415933
 10
117.3013671581747
 20
-160.2227782802568
 10
117.3013671581747
 20
-160.2227782802568
 10
117.0202473665783
 20
-160.2058973123791
 10
116.6753933085048
 20
-160.2058973123791
 10
116.6519666592051
 20
-160.2058973123791
 97
        0
 97
        0
 92
        1
 93
        1
 72
     4
 94
        3
 73
     0
 74
     1
 95
       23
 96
       19
 40
0.0
 40
0.0
 40
0.0
 40
0.0
 40
1.0
 40
1.0
 40
1.0
 40
2.0
 40
2.0
 40
2.0
 40
3.0
 40
3.0
 40
3.0
 40
4.0
 40
4.0
 40
4.0
 40
5.0
 40
5.0
 40
5.0
 40
6.0
 40
6.0
 40
6.0
 40
6.0
 10
115.5329996455959
 20
-159.5775118958695
 10
115.5329996455959
 20
-159.5988714878781
 10
115.5350667028871
 20
-159.6367675382158
 10
115.5095729962962
 20
-159.6367675382158
 10
115.4992377098405
 20
-159.6367675382158
 10
115.4906249711273
 20
-159.6305663663424
 10
115.4799451751231
 20
-159.6136853984646
 10
115.4799451751231
 20
-159.6136853984646
 10
115.3762478010171
 20
-159.4317843568435
 10
115.3762478010171
 20
-159.4317843568435
 10
115.5922552879422
 20
-159.3025932761466
 10
115.78897024015
 20
-159.0256075991325
 10
115.8354790292009
 20
-158.9536051034908
 10
115.8354790292009
 20
-158.9536051034908
 10
115.9074815248426
 20
-159.1334390878208
 10
115.9074815248426
 20
-159.1334390878208
 10
115.7741563295634
 20
-159.3301540400286
 10
115.5984564598157
 20
-159.5141221389409
 10
115.5329996455959
 20
-159.5775118958695
 97
        0
 97
        0
 92
        1
 93
        1
 72
     4
 94
        3
 73
     0
 74
     1
 95
       17
 96
       13
 40
0.0
 40
0.0
 40
0.0
 40
0.0
 40
1.0
 40
1.0
 40
1.0
 40
2.0
 40
2.0
 40
2.0
 40
3.0
 40
3.0
 40
3.0
 40
4.0
 40
4.0
 40
4.0
 40
4.0
 10
115.7869031828588
 20
-158.6828205983501
 10
115.7255804832214
 20
-158.6066839881261
 10
115.5963894025245
 20
-158.5305473779021
 10
115.4926920284185
 20
-158.5009195567289
 10
115.4926920284185
 20
-158.5009195567289
 10
115.5881211733599
 20
-158.3358994829855
 10
115.5881211733599
 20
-158.3358994829855
 10
115.6894069806263
 20
-158.3717284760321
 10
115.7951714120234
 20
-158.4289170610872
 10
115.8840548755429
 20
-158.5091877858935
 10
115.8840548755429
 20
-158.5091877858935
 10
115.7869031828588
 20
-158.6828205983501
 10
115.7869031828588
 20
-158.6828205983501
 97
        0
 97
        0
 92
        1
 93
        1
 72
     4
 94
        3
 73
     0
 74
     1
 95
       23
 96
       19
 40
0.0
 40
0.0
 40
0.0
 40
0.0
 40
1.0
 40
1.0
 40
1.0
 40
2.0
 40
2.0
 40
2.0
 40
3.0
 40
3.0
 40
3.0
 40
4.0
 40
4.0
 40
4.0
 40
5.0
 40
5.0
 40
5.0
 40
6.0
 40
6.0
 40
6.0
 40
6.0
 10
116.2395887296207
 20
-159.3873426250837
 10
116.2182291376121
 20
-159.4104247648349
 10
116.1210774449281
 20
-159.522734877654
 10
115.9815510777754
 20
-159.6030056024604
 10
115.9815510777754
 20
-159.6030056024604
 10
115.8144639467408
 20
-159.4824272604766
 10
115.8144639467408
 20
-159.4824272604766
 10
115.9646701098977
 20
-159.4062906502526
 10
116.0638888598729
 20
-159.3112060148597
 10
116.112464706215
 20
-159.2581515443869
 10
116.112464706215
 20
-159.2581515443869
 10
116.2860975186715
 20
-159.3408338360329
 10
116.2860975186715
 20
-159.3408338360329
 10
116.2943657478361
 20
-159.3449679506151
 10
116.3029784865493
 20
-159.3511691224886
 10
116.3029784865493
 20
-159.3618489184929
 10
116.3029784865493
 20
-159.3873426250837
 10
116.2671494935027
 20
-159.3873426250837
 10
116.2395887296207
 20
-159.3873426250837
 97
        0
 97
        0
 92
        1
 93
        1
 72
     4
 94
        3
 73
     0
 74
     1
 95
       20
 96
       16
 40
0.0
 40
0.0
 40
0.0
 40
0.0
 40
1.0
 40
1.0
 40
1.0
 40
2.0
 40
2.0
 40
2.0
 40
3.0
 40
3.0
 40
3.0
 40
4.0
 40
4.0
 40
4.0
 40
5.0
 40
5.0
 40
5.0
 40
5.0
 10
116.5379339986433
 20
-158.5453612884887
 10
116.499693438757
 20
-158.5939371348307
 10
116.4383707391196
 20
-158.6721408023459
 10
116.298844371967
 20
-158.7823838578739
 10
116.3791150967733
 20
-158.7865179724562
 10
116.4087429179464
 20
-158.7865179724562
 10
116.4321695672461
 20
-158.7865179724562
 10
116.4321695672461
 20
-158.7865179724562
 10
116.6605793979182
 20
-158.7865179724562
 10
116.6605793979182
 20
-158.7865179724562
 10
116.6922742763825
 20
-158.7865179724562
 10
116.7408501227245
 20
-158.784450915165
 10
116.8149196756574
 20
-158.7823838578739
 10
116.7029540723868
 20
-158.708314304941
 10
116.6540337164962
 20
-158.6618055158901
 10
116.5379339986433
 20
-158.5453612884887
 97
        0
 97
        0
 92
        1
 93
        1
 72
     4
 94
        3
 73
     0
 74
     1
 95
       17
 96
       13
 40
0.0
 40
0.0
 40
0.0
 40
0.0
 40
1.0
 40
1.0
 40
1.0
 40
2.0
 40
2.0
 40
2.0
 40
3.0
 40
3.0
 40
3.0
 40
4.0
 40
4.0
 40
4.0
 40
4.0
 10
117.0984510340934
 20
-159.6009385451692
 10
116.9630587815231
 20
-159.4889729418986
 10
116.857294350126
 20
-159.4252386754215
 10
116.7387830654334
 20
-159.3618489184929
 10
116.7387830654334
 20
-159.3618489184929
 10
116.8655625792906
 20
-159.2498833152223
 10
116.8655625792906
 20
-159.2498833152223
 10
116.9968207172786
 20
-159.2963921042731
 10
117.106719263258
 20
-159.3535806893283
 10
117.2317762293726
 20
-159.4548664965946
 10
117.2317762293726
 20
-159.4548664965946
 10
117.0984510340934
 20
-159.6009385451692
 10
117.0984510340934
 20
-159.6009385451692
 97
        0
 97
        0
 75
     2
 76
     1
 98
        0
  0
SPLINE
  5
100
330
F4
100
AcDbEntity
  8
_U+30EC_U+30A4_U+30E4_U+30FC 1
370
     0
100
AcDbSpline
210
0.0
220
0.0
230
1.0
 70
    11
 71
     3
 72
   113
 73
   109
 74
     0
 42
0.0000000001
 43
0.0000000001
 12
1.0
 22
0.0
 32
0.0
 13
1.0
 23
0.0
 33
0.0
 40
0.0
 40
0.0
 40
0.0
 40
0.0
 40
1.0
 40
1.0
 40
1.0
 40
2.0
 40
2.0
 40
2.0
 40
3.0
 40
3.0
 40
3.0
 40
4.0
 40
4.0
 40
4.0
 40
5.0
 40
5.0
 40
5.0
 40
6.0
 40
6.0
 40
6.0
 40
7.0
 40
7.0
 40
7.0
 40
8.0
 40
8.0
 40
8.0
 40
9.0
 40
9.0
 40
9.0
 40
10.0
 40
10.0
 40
10.0
 40
11.0
 40
11.0
 40
11.0
 40
12.0
 40
12.0
 40
12.0
 40
13.0
 40
13.0
 40
13.0
 40
14.0
 40
14.0
 40
14.0
 40
15.0
 40
15.0
 40
15.0
 40
16.0
 40
16.0
 40
16.0
 40
17.0
 40
17.0
 40
17.0
 40
18.0
 40
18.0
 40
18.0
 40
19.0
 40
19.0
 40
19.0
 40
20.0
 40
20.0
 40
20.0
 40
21.0
 40
21.0
 40
21.0
 40
22.0
 40
22.0
 40
22.0
 40
23.0
 40
23.0
 40
23.0
 40
24.0
 40
24.0
 40
24.0
 40
25.0
 40
25.0
 40
25.0
 40
26.0
 40
26.0
 40
26.0
 40
27.0
 40
27.0
 40
27.0
 40
28.0
 40
28.0
 40
28.0
 40
29.0
 40
29.0
 40
29.0
 40
30.0
 40
30.0
 40
30.0
 40
31.0
 40
31.0
 40
31.0
 40
32.0
 40
32.0
 40
32.0
 40
33.0
 40
33.0
 40
33.0
 40
34.0
 40
34.0
 40
34.0
 40
35.0
 40
35.0
 40
35.0
 40
36.0
 40
36.0
 40
36.0
 40
36.0
 10
118.9780951308458
 20
-159.5775118958695
 30
0.0
 10
118.9780951308458
 20
-159.5775118958695
 30
0.0
 10
119.0776583903695
 20
-159.6770751553932
 30
0.0
 10
119.0776583903695
 20
-159.6770751553932
 30
0.0
 10
119.0883381863738
 20
-159.6877549513975
 30
0.0
 10
119.0986734728295
 20
-159.7005018046929
 30
0.0
 10
119.0986734728295
 20
-159.7153157152795
 30
0.0
 10
119.0986734728295
 20
-159.7173827725707
 30
0.0
 10
119.0986734728295
 20
-159.7470105937438
 30
0.0
 10
119.0607774224918
 20
-159.7470105937438
 30
0.0
 10
119.0521646837786
 20
-159.7470105937438
 30
0.0
 10
119.0118570666012
 20
-159.742531969613
 30
0.0
 10
119.0056558947278
 20
-159.742531969613
 30
0.0
 10
118.9653482775503
 20
-159.7745713576258
 30
0.0
 10
118.9188394884995
 20
-159.8083332933813
 30
0.0
 10
118.8196207385243
 20
-159.8655218784364
 30
0.0
 10
118.9653482775503
 20
-159.9733533671247
 30
0.0
 10
119.1241671794204
 20
-160.0305419521799
 30
0.0
 10
119.3970187418521
 20
-160.0684380025176
 30
0.0
 10
119.3970187418521
 20
-160.0684380025176
 30
0.0
 10
119.2468125786952
 20
-160.2441378722654
 30
0.0
 10
119.2468125786952
 20
-160.2441378722654
 30
0.0
 10
118.9846408122677
 20
-160.1721353766236
 30
0.0
 10
118.8278889676889
 20
-160.0832519131042
 30
0.0
 10
118.7517523574649
 20
-160.0305419521799
 30
0.0
 10
118.601546194308
 20
-159.928911635365
 30
0.0
 10
118.457885712573
 20
-159.7659586189127
 30
0.0
 10
118.381749102349
 20
-159.6009385451692
 30
0.0
 10
118.3138807212896
 20
-159.666395359389
 30
0.0
 10
118.2398111683567
 20
-159.7194498298618
 30
0.0
 10
118.1616075008416
 20
-159.7680256762038
 30
0.0
 10
118.1616075008416
 20
-159.7680256762038
 30
0.0
 10
118.1616075008416
 20
-160.0198621561756
 30
0.0
 10
118.1616075008416
 20
-160.0198621561756
 30
0.0
 10
118.3245605172939
 20
-159.9943684495848
 30
0.0
 10
118.5105956734974
 20
-159.949926717825
 30
0.0
 10
118.5739854304259
 20
-159.9351128072385
 30
0.0
 10
118.5739854304259
 20
-159.9351128072385
 30
0.0
 10
118.5443576092528
 20
-160.1042669955642
 30
0.0
 10
118.5443576092528
 20
-160.1042669955642
 30
0.0
 10
118.5422905519617
 20
-160.1042669955642
 30
0.0
 10
118.5233425267928
 20
-160.1108126769862
 30
0.0
 10
118.5212754695016
 20
-160.1108126769862
 30
0.0
 10
118.3224934600027
 20
-160.1487087273239
 30
0.0
 10
118.0052001658112
 20
-160.2145100510922
 30
0.0
 10
117.8081407040549
 20
-160.2503390441388
 30
0.0
 10
117.7978054175992
 20
-160.2672200120165
 30
0.0
 10
117.7743787682995
 20
-160.2989148904808
 30
0.0
 10
117.7512966285483
 20
-160.2989148904808
 30
0.0
 10
117.7237358646663
 20
-160.2989148904808
 30
0.0
 10
117.719601750084
 20
-160.279966865312
 30
0.0
 10
117.7171901832443
 20
-160.2610188401431
 30
0.0
 10
117.7171901832443
 20
-160.2610188401431
 30
0.0
 10
117.692040986202
 20
-160.0873860276865
 30
0.0
 10
117.692040986202
 20
-160.0873860276865
 30
0.0
 10
117.7661105391349
 20
-160.0791177985219
 30
0.0
 10
117.8739420278232
 20
-160.0663709452265
 30
0.0
 10
117.9817735165115
 20
-160.0453558627665
 30
0.0
 10
117.9817735165115
 20
-160.0453558627665
 30
0.0
 10
117.9817735165115
 20
-159.8675889357276
 30
0.0
 10
117.9817735165115
 20
-159.8675889357276
 30
0.0
 10
117.8377685252281
 20
-159.9395914313693
 30
0.0
 10
117.7426838898352
 20
-159.9688747429939
 30
0.0
 10
117.5776638160917
 20
-159.998502564167
 30
0.0
 10
117.5776638160917
 20
-159.998502564167
 30
0.0
 10
117.457085474108
 20
-159.8293483758413
 30
0.0
 10
117.457085474108
 20
-159.8293483758413
 30
0.0
 10
117.7743787682995
 20
-159.8017876119593
 30
0.0
 10
117.9669596059249
 20
-159.7087700338575
 30
0.0
 10
118.1447265329638
 20
-159.5754448385784
 30
0.0
 10
117.9986544843892
 20
-159.5754448385784
 30
0.0
 10
117.6982421580754
 20
-159.5799234627092
 30
0.0
 10
117.5015272058677
 20
-159.5861246345826
 30
0.0
 10
117.5015272058677
 20
-159.5861246345826
 30
0.0
 10
117.5015272058677
 20
-159.4083577075438
 30
0.0
 10
117.5015272058677
 20
-159.4083577075438
 30
0.0
 10
117.6558674836069
 20
-159.4149033889657
 30
0.0
 10
117.9521456953384
 20
-159.4211045608392
 30
0.0
 10
118.1361137942507
 20
-159.4211045608392
 30
0.0
 10
118.1361137942507
 20
-159.4211045608392
 30
0.0
 10
118.347642657045
 20
-159.4211045608392
 30
0.0
 10
118.347642657045
 20
-159.4211045608392
 30
0.0
 10
118.347642657045
 20
-159.3260199254463
 30
0.0
 10
118.3455755997539
 20
-159.2750325122646
 30
0.0
 10
118.3393744278804
 20
-159.2285237232137
 30
0.0
 10
118.3393744278804
 20
-159.2285237232137
 30
0.0
 10
118.5550374052571
 20
-159.2454046910914
 30
0.0
 10
118.5550374052571
 20
-159.2454046910914
 30
0.0
 10
118.6036132515991
 20
-159.2498833152223
 30
0.0
 10
118.6122259903122
 20
-159.2646972258088
 30
0.0
 10
118.6122259903122
 20
-159.2795111363954
 30
0.0
 10
118.6122259903122
 20
-159.3046603334377
 30
0.0
 10
118.5953450224345
 20
-159.3132730721508
 30
0.0
 10
118.5443576092528
 20
-159.3387667787417
 30
0.0
 10
118.5422905519617
 20
-159.363915975784
 30
0.0
 10
118.5422905519617
 20
-159.370461657206
 30
0.0
 10
118.5402234946705
 20
-159.4211045608392
 30
0.0
 10
118.5402234946705
 20
-159.4211045608392
 30
0.0
 10
118.7707003826337
 20
-159.4211045608392
 30
0.0
 10
118.7707003826337
 20
-159.4211045608392
 30
0.0
 10
118.9357204563772
 20
-159.4211045608392
 30
0.0
 10
119.2278645535264
 20
-159.4149033889657
 30
0.0
 10
119.4076985378564
 20
-159.4083577075438
 30
0.0
 10
119.4076985378564
 20
-159.4083577075438
 30
0.0
 10
119.4076985378564
 20
-159.5861246345826
 30
0.0
 10
119.4076985378564
 20
-159.5861246345826
 30
0.0
 10
119.2785074571595
 20
-159.5819905200003
 30
0.0
 10
119.2554253174084
 20
-159.5819905200003
 30
0.0
 10
118.9780951308458
 20
-159.5775118958695
 30
0.0
  0
SPLINE
  5
101
330
F4
100
AcDbEntity
  8
_U+30EC_U+30A4_U+30E4_U+30FC 1
370
     0
100
AcDbSpline
210
0.0
220
0.0
230
1.0
 70
    11
 71
     3
 72
    23
 73
    19
 74
     0
 42
0.0000000001
 43
0.0000000001
 12
1.0
 22
0.0
 32
0.0
 13
1.0
 23
0.0
 33
0.0
 40
0.0
 40
0.0
 40
0.0
 40
0.0
 40
1.0
 40
1.0
 40
1.0
 40
2.0
 40
2.0
 40
2.0
 40
3.0
 40
3.0
 40
3.0
 40
4.0
 40
4.0
 40
4.0
 40
5.0
 40
5.0
 40
5.0
 40
6.0
 40
6.0
 40
6.0
 40
6.0
 10
117.6941080434931
 20
-159.2264566659226
 30
0.0
 10
117.6772270756154
 20
-159.2667642831
 30
0.0
 10
117.6706813941935
 20
-159.2836452509777
 30
0.0
 10
117.6496663117334
 20
-159.2836452509777
 30
0.0
 10
117.6348524011468
 20
-159.2836452509777
 30
0.0
 10
117.6241726051426
 20
-159.2667642831
 30
0.0
 10
117.6179714332691
 20
-159.2540174298045
 30
0.0
 10
117.6179714332691
 20
-159.2540174298045
 30
0.0
 10
117.5184081737454
 20
-159.0889973560611
 30
0.0
 10
117.5184081737454
 20
-159.0889973560611
 30
0.0
 10
117.6200384905603
 20
-159.0573024775968
 30
0.0
 10
117.7702446537172
 20
-159.0021809498328
 30
0.0
 10
117.9690266632161
 20
-158.8392279333805
 30
0.0
 10
117.9690266632161
 20
-158.8392279333805
 30
0.0
 10
118.0262152482712
 20
-159.0128607458371
 30
0.0
 10
118.0262152482712
 20
-159.0128607458371
 30
0.0
 10
117.9331976701695
 20
-159.0951985279345
 30
0.0
 10
117.84431420665
 20
-159.1523871129897
 30
0.0
 10
117.6941080434931
 20
-159.2264566659226
 30
0.0
  0
SPLINE
  5
102
330
F4
100
AcDbEntity
  8
_U+30EC_U+30A4_U+30E4_U+30FC 1
370
     0
100
AcDbSpline
210
0.0
220
0.0
230
1.0
 70
    11
 71
     3
 72
    17
 73
    13
 74
     0
 42
0.0000000001
 43
0.0000000001
 12
1.0
 22
0.0
 32
0.0
 13
1.0
 23
0.0
 33
0.0
 40
0.0
 40
0.0
 40
0.0
 40
0.0
 40
1.0
 40
1.0
 40
1.0
 40
2.0
 40
2.0
 40
2.0
 40
3.0
 40
3.0
 40
3.0
 40
4.0
 40
4.0
 40
4.0
 40
4.0
 10
117.8463812639412
 20
-158.7610242658653
 30
0.0
 10
117.816753442768
 20
-158.7210611582364
 30
0.0
 10
117.7488850617086
 20
-158.6235649560038
 30
0.0
 10
117.5669840200874
 20
-158.5136664100244
 30
0.0
 10
117.5669840200874
 20
-158.5136664100244
 30
0.0
 10
117.6941080434931
 20
-158.3803412147452
 30
0.0
 10
117.6941080434931
 20
-158.3803412147452
 30
0.0
 10
117.8801431996966
 20
-158.4819715315601
 30
0.0
 10
117.9373317847518
 20
-158.5708549950795
 30
0.0
 10
117.9648925486338
 20
-158.6128851599996
 30
0.0
 10
117.9648925486338
 20
-158.6128851599996
 30
0.0
 10
117.8463812639412
 20
-158.7610242658653
 30
0.0
 10
117.8463812639412
 20
-158.7610242658653
 30
0.0
  0
SPLINE
  5
103
330
F4
100
AcDbEntity
  8
_U+30EC_U+30A4_U+30E4_U+30FC 1
370
     0
100
AcDbSpline
210
0.0
220
0.0
230
1.0
 70
    11
 71
     3
 72
    38
 73
    34
 74
     0
 42
0.0000000001
 43
0.0000000001
 12
1.0
 22
0.0
 32
0.0
 13
1.0
 23
0.0
 33
0.0
 40
0.0
 40
0.0
 40
0.0
 40
0.0
 40
1.0
 40
1.0
 40
1.0
 40
2.0
 40
2.0
 40
2.0
 40
3.0
 40
3.0
 40
3.0
 40
4.0
 40
4.0
 40
4.0
 40
5.0
 40
5.0
 40
5.0
 40
6.0
 40
6.0
 40
6.0
 40
7.0
 40
7.0
 40
7.0
 40
8.0
 40
8.0
 40
8.0
 40
9.0
 40
9.0
 40
9.0
 40
10.0
 40
10.0
 40
10.0
 40
11.0
 40
11.0
 40
11.0
 40
11.0
 10
118.2143174617659
 20
-158.4564778249692
 30
0.0
 10
118.2122504044747
 20
-158.5029866140201
 30
0.0
 10
118.2101833471836
 20
-158.6194308414215
 30
0.0
 10
118.2101833471836
 20
-158.6638725731813
 30
0.0
 10
118.2101833471836
 20
-158.6638725731813
 30
0.0
 10
118.2101833471836
 20
-159.0107936885459
 30
0.0
 10
118.2101833471836
 20
-159.0107936885459
 30
0.0
 10
118.2101833471836
 20
-159.0976100947742
 30
0.0
 10
118.2122504044747
 20
-159.239203519218
 30
0.0
 10
118.222930200479
 20
-159.3597818612017
 30
0.0
 10
118.222930200479
 20
-159.3597818612017
 30
0.0
 10
118.0324164201447
 20
-159.3597818612017
 30
0.0
 10
118.0324164201447
 20
-159.3597818612017
 30
0.0
 10
118.0368950442755
 20
-159.2963921042731
 30
0.0
 10
118.0410291588578
 20
-159.2433376338003
 30
0.0
 10
118.043096216149
 20
-159.1885606155848
 30
0.0
 10
118.0451632734401
 20
-159.0655707067614
 30
0.0
 10
118.0472303307313
 20
-159.0507567961748
 30
0.0
 10
118.0472303307313
 20
-159.0063150644151
 30
0.0
 10
118.0472303307313
 20
-159.0063150644151
 30
0.0
 10
118.0472303307313
 20
-158.6848876556413
 30
0.0
 10
118.0472303307313
 20
-158.6848876556413
 30
0.0
 10
118.0472303307313
 20
-158.6297661278773
 30
0.0
 10
118.0344834774358
 20
-158.3910210107495
 30
0.0
 10
118.0324164201447
 20
-158.3400335975678
 30
0.0
 10
118.0324164201447
 20
-158.3400335975678
 30
0.0
 10
118.2336099964833
 20
-158.3675943614498
 30
0.0
 10
118.2336099964833
 20
-158.3675943614498
 30
0.0
 10
118.2546250789433
 20
-158.3696614187409
 30
0.0
 10
118.2863199574076
 20
-158.3737955333232
 30
0.0
 10
118.2863199574076
 20
-158.3992892399141
 30
0.0
 10
118.2863199574076
 20
-158.4268500037961
 30
0.0
 10
118.2356770537744
 20
-158.4478650862561
 30
0.0
 10
118.2143174617659
 20
-158.4564778249692
 30
0.0
  0
SPLINE
  5
104
330
F4
100
AcDbEntity
  8
_U+30EC_U+30A4_U+30E4_U+30FC 1
370
     0
100
AcDbSpline
210
0.0
220
0.0
230
1.0
 70
    11
 71
     3
 72
    83
 73
    79
 74
     0
 42
0.0000000001
 43
0.0000000001
 12
1.0
 22
0.0
 32
0.0
 13
1.0
 23
0.0
 33
0.0
 40
0.0
 40
0.0
 40
0.0
 40
0.0
 40
1.0
 40
1.0
 40
1.0
 40
2.0
 40
2.0
 40
2.0
 40
3.0
 40
3.0
 40
3.0
 40
4.0
 40
4.0
 40
4.0
 40
5.0
 40
5.0
 40
5.0
 40
6.0
 40
6.0
 40
6.0
 40
7.0
 40
7.0
 40
7.0
 40
8.0
 40
8.0
 40
8.0
 40
9.0
 40
9.0
 40
9.0
 40
10.0
 40
10.0
 40
10.0
 40
11.0
 40
11.0
 40
11.0
 40
12.0
 40
12.0
 40
12.0
 40
13.0
 40
13.0
 40
13.0
 40
14.0
 40
14.0
 40
14.0
 40
15.0
 40
15.0
 40
15.0
 40
16.0
 40
16.0
 40
16.0
 40
17.0
 40
17.0
 40
17.0
 40
18.0
 40
18.0
 40
18.0
 40
19.0
 40
19.0
 40
19.0
 40
20.0
 40
20.0
 40
20.0
 40
21.0
 40
21.0
 40
21.0
 40
22.0
 40
22.0
 40
22.0
 40
23.0
 40
23.0
 40
23.0
 40
24.0
 40
24.0
 40
24.0
 40
25.0
 40
25.0
 40
25.0
 40
26.0
 40
26.0
 40
26.0
 40
26.0
 10
119.016335690732
 20
-158.777905233743
 30
0.0
 10
119.016335690732
 20
-158.777905233743
 30
0.0
 10
118.9188394884995
 20
-158.777905233743
 30
0.0
 10
118.9188394884995
 20
-158.777905233743
 30
0.0
 10
118.9188394884995
 20
-158.777905233743
 30
0.0
 10
118.9188394884995
 20
-159.0256075991325
 30
0.0
 10
118.9188394884995
 20
-159.0256075991325
 30
0.0
 10
118.9188394884995
 20
-159.0256075991325
 30
0.0
 10
119.0015217801455
 20
-159.0256075991325
 30
0.0
 10
119.0015217801455
 20
-159.0256075991325
 30
0.0
 10
119.0669785943652
 20
-159.0256075991325
 30
0.0
 10
119.2065049615178
 20
-159.0211289750017
 30
0.0
 10
119.3060682210415
 20
-159.0128607458371
 30
0.0
 10
119.3060682210415
 20
-159.0128607458371
 30
0.0
 10
119.3060682210415
 20
-159.1926947301671
 30
0.0
 10
119.3060682210415
 20
-159.1926947301671
 30
0.0
 10
119.2130506429398
 20
-159.184081991454
 30
0.0
 10
119.0628444797829
 20
-159.1799478768717
 30
0.0
 10
119.0015217801455
 20
-159.1799478768717
 30
0.0
 10
119.0015217801455
 20
-159.1799478768717
 30
0.0
 10
118.6966308297009
 20
-159.1799478768717
 30
0.0
 10
118.6966308297009
 20
-159.1799478768717
 30
0.0
 10
118.6439208687765
 20
-159.1799478768717
 30
0.0
 10
118.4978488202019
 20
-159.184081991454
 30
0.0
 10
118.3920843888048
 20
-159.1926947301671
 30
0.0
 10
118.3920843888048
 20
-159.1926947301671
 30
0.0
 10
118.3920843888048
 20
-159.0128607458371
 30
0.0
 10
118.3920843888048
 20
-159.0128607458371
 30
0.0
 10
118.4916476483285
 20
-159.0211289750017
 30
0.0
 10
118.6311740154811
 20
-159.0256075991325
 30
0.0
 10
118.6966308297009
 20
-159.0256075991325
 30
0.0
 10
118.6966308297009
 20
-159.0256075991325
 30
0.0
 10
118.7410725614606
 20
-159.0256075991325
 30
0.0
 10
118.7410725614606
 20
-159.0256075991325
 30
0.0
 10
118.7410725614606
 20
-159.0256075991325
 30
0.0
 10
118.7410725614606
 20
-158.777905233743
 30
0.0
 10
118.7410725614606
 20
-158.777905233743
 30
0.0
 10
118.7410725614606
 20
-158.777905233743
 30
0.0
 10
118.6673475180762
 20
-158.777905233743
 30
0.0
 10
118.6673475180762
 20
-158.777905233743
 30
0.0
 10
118.6056803088903
 20
-158.777905233743
 30
0.0
 10
118.4385931778556
 20
-158.7823838578739
 30
0.0
 10
118.3180148358719
 20
-158.7906520870385
 30
0.0
 10
118.3180148358719
 20
-158.7906520870385
 30
0.0
 10
118.3180148358719
 20
-158.6128851599996
 30
0.0
 10
118.3180148358719
 20
-158.6128851599996
 30
0.0
 10
118.4323920059822
 20
-158.6194308414215
 30
0.0
 10
118.5908663983037
 20
-158.6235649560038
 30
0.0
 10
118.6673475180762
 20
-158.6235649560038
 30
0.0
 10
118.6673475180762
 20
-158.6235649560038
 30
0.0
 10
118.7390055041694
 20
-158.6235649560038
 30
0.0
 10
118.7390055041694
 20
-158.6235649560038
 30
0.0
 10
118.7348713895871
 20
-158.4712917355558
 30
0.0
 10
118.732804332296
 20
-158.4375297998004
 30
0.0
 10
118.726258650874
 20
-158.3441677121501
 30
0.0
 10
118.726258650874
 20
-158.3441677121501
 30
0.0
 10
118.9381320232169
 20
-158.3675943614498
 30
0.0
 10
118.9381320232169
 20
-158.3675943614498
 30
0.0
 10
118.9632812202592
 20
-158.3696614187409
 30
0.0
 10
118.9867078695589
 20
-158.3737955333232
 30
0.0
 10
118.9867078695589
 20
-158.3972221826229
 30
0.0
 10
118.9867078695589
 20
-158.4289170610872
 30
0.0
 10
118.9422661377992
 20
-158.445798028965
 30
0.0
 10
118.9188394884995
 20
-158.4544107676781
 30
0.0
 10
118.9188394884995
 20
-158.4544107676781
 30
0.0
 10
118.9188394884995
 20
-158.6235649560038
 30
0.0
 10
118.9188394884995
 20
-158.6235649560038
 30
0.0
 10
118.9188394884995
 20
-158.6235649560038
 30
0.0
 10
119.016335690732
 20
-158.6235649560038
 30
0.0
 10
119.016335690732
 20
-158.6235649560038
 30
0.0
 10
119.0924723009561
 20
-158.6235649560038
 30
0.0
 10
119.2509466932775
 20
-158.6194308414215
 30
0.0
 10
119.367390920679
 20
-158.6128851599996
 30
0.0
 10
119.367390920679
 20
-158.6128851599996
 30
0.0
 10
119.367390920679
 20
-158.7906520870385
 30
0.0
 10
119.367390920679
 20
-158.7906520870385
 30
0.0
 10
119.2595594319907
 20
-158.784450915165
 30
0.0
 10
119.0859266195341
 20
-158.777905233743
 30
0.0
 10
119.016335690732
 20
-158.777905233743
 30
0.0
  0
SPLINE
  5
105
330
F4
100
AcDbEntity
  8
_U+30EC_U+30A4_U+30E4_U+30FC 1
370
     0
100
AcDbSpline
210
0.0
220
0.0
230
1.0
 70
    11
 71
     3
 72
    17
 73
    13
 74
     0
 42
0.0000000001
 43
0.0000000001
 12
1.0
 22
0.0
 32
0.0
 13
1.0
 23
0.0
 33
0.0
 40
0.0
 40
0.0
 40
0.0
 40
0.0
 40
1.0
 40
1.0
 40
1.0
 40
2.0
 40
2.0
 40
2.0
 40
3.0
 40
3.0
 40
3.0
 40
4.0
 40
4.0
 40
4.0
 40
4.0
 10
118.7707003826337
 20
-159.5754448385784
 30
0.0
 10
118.7707003826337
 20
-159.5754448385784
 30
0.0
 10
118.5677842585525
 20
-159.5754448385784
 30
0.0
 10
118.5677842585525
 20
-159.5754448385784
 30
0.0
 10
118.5953450224345
 20
-159.6347004809247
 30
0.0
 10
118.65012204065
 20
-159.7067029765664
 30
0.0
 10
118.677682804532
 20
-159.7363307977395
 30
0.0
 10
118.705243568414
 20
-159.721516887153
 30
0.0
 10
118.8196207385243
 20
-159.6581271302244
 30
0.0
 10
118.9105712593349
 20
-159.5754448385784
 30
0.0
 10
118.9105712593349
 20
-159.5754448385784
 30
0.0
 10
118.7707003826337
 20
-159.5754448385784
 30
0.0
 10
118.7707003826337
 20
-159.5754448385784
 30
0.0
  0
HATCH
  5
106
330
F4
100
AcDbEntity
  8
_U+30EC_U+30A4_U+30E4_U+30FC 1
 62
     7
420
 16777215
100
AcDbHatch
 10
0.0
 20
0.0
 30
0.0
210
0.0
220
0.0
230
1.0
  2
SOLID
 70
     1
 71
     0
 91
        6
 92
        1
 93
        1
 72
     4
 94
        3
 73
     0
 74
     1
 95
      113
 96
      109
 40
0.0
 40
0.0
 40
0.0
 40
0.0
 40
1.0
 40
1.0
 40
1.0
 40
2.0
 40
2.0
 40
2.0
 40
3.0
 40
3.0
 40
3.0
 40
4.0
 40
4.0
 40
4.0
 40
5.0
 40
5.0
 40
5.0
 40
6.0
 40
6.0
 40
6.0
 40
7.0
 40
7.0
 40
7.0
 40
8.0
 40
8.0
 40
8.0
 40
9.0
 40
9.0
 40
9.0
 40
10.0
 40
10.0
 40
10.0
 40
11.0
 40
11.0
 40
11.0
 40
12.0
 40
12.0
 40
12.0
 40
13.0
 40
13.0
 40
13.0
 40
14.0
 40
14.0
 40
14.0
 40
15.0
 40
15.0
 40
15.0
 40
16.0
 40
16.0
 40
16.0
 40
17.0
 40
17.0
 40
17.0
 40
18.0
 40
18.0
 40
18.0
 40
19.0
 40
19.0
 40
19.0
 40
20.0
 40
20.0
 40
20.0
 40
21.0
 40
21.0
 40
21.0
 40
22.0
 40
22.0
 40
22.0
 40
23.0
 40
23.0
 40
23.0
 40
24.0
 40
24.0
 40
24.0
 40
25.0
 40
25.0
 40
25.0
 40
26.0
 40
26.0
 40
26.0
 40
27.0
 40
27.0
 40
27.0
 40
28.0
 40
28.0
 40
28.0
 40
29.0
 40
29.0
 40
29.0
 40
30.0
 40
30.0
 40
30.0
 40
31.0
 40
31.0
 40
31.0
 40
32.0
 40
32.0
 40
32.0
 40
33.0
 40
33.0
 40
33.0
 40
34.0
 40
34.0
 40
34.0
 40
35.0
 40
35.0
 40
35.0
 40
36.0
 40
36.0
 40
36.0
 40
36.0
 10
118.9780951308458
 20
-159.5775118958695
 10
118.9780951308458
 20
-159.5775118958695
 10
119.0776583903695
 20
-159.6770751553932
 10
119.0776583903695
 20
-159.6770751553932
 10
119.0883381863738
 20
-159.6877549513975
 10
119.0986734728295
 20
-159.7005018046929
 10
119.0986734728295
 20
-159.7153157152795
 10
119.0986734728295
 20
-159.7173827725707
 10
119.0986734728295
 20
-159.7470105937438
 10
119.0607774224918
 20
-159.7470105937438
 10
119.0521646837786
 20
-159.7470105937438
 10
119.0118570666012
 20
-159.742531969613
 10
119.0056558947278
 20
-159.742531969613
 10
118.9653482775503
 20
-159.7745713576258
 10
118.9188394884995
 20
-159.8083332933813
 10
118.8196207385243
 20
-159.8655218784364
 10
118.9653482775503
 20
-159.9733533671247
 10
119.1241671794204
 20
-160.0305419521799
 10
119.3970187418521
 20
-160.0684380025176
 10
119.3970187418521
 20
-160.0684380025176
 10
119.2468125786952
 20
-160.2441378722654
 10
119.2468125786952
 20
-160.2441378722654
 10
118.9846408122677
 20
-160.1721353766236
 10
118.8278889676889
 20
-160.0832519131042
 10
118.7517523574649
 20
-160.0305419521799
 10
118.601546194308
 20
-159.928911635365
 10
118.457885712573
 20
-159.7659586189127
 10
118.381749102349
 20
-159.6009385451692
 10
118.3138807212896
 20
-159.666395359389
 10
118.2398111683567
 20
-159.7194498298618
 10
118.1616075008416
 20
-159.7680256762038
 10
118.1616075008416
 20
-159.7680256762038
 10
118.1616075008416
 20
-160.0198621561756
 10
118.1616075008416
 20
-160.0198621561756
 10
118.3245605172939
 20
-159.9943684495848
 10
118.5105956734974
 20
-159.949926717825
 10
118.5739854304259
 20
-159.9351128072385
 10
118.5739854304259
 20
-159.9351128072385
 10
118.5443576092528
 20
-160.1042669955642
 10
118.5443576092528
 20
-160.1042669955642
 10
118.5422905519617
 20
-160.1042669955642
 10
118.5233425267928
 20
-160.1108126769862
 10
118.5212754695016
 20
-160.1108126769862
 10
118.3224934600027
 20
-160.1487087273239
 10
118.0052001658112
 20
-160.2145100510922
 10
117.8081407040549
 20
-160.2503390441388
 10
117.7978054175992
 20
-160.2672200120165
 10
117.7743787682995
 20
-160.2989148904808
 10
117.7512966285483
 20
-160.2989148904808
 10
117.7237358646663
 20
-160.2989148904808
 10
117.719601750084
 20
-160.279966865312
 10
117.7171901832443
 20
-160.2610188401431
 10
117.7171901832443
 20
-160.2610188401431
 10
117.692040986202
 20
-160.0873860276865
 10
117.692040986202
 20
-160.0873860276865
 10
117.7661105391349
 20
-160.0791177985219
 10
117.8739420278232
 20
-160.0663709452265
 10
117.9817735165115
 20
-160.0453558627665
 10
117.9817735165115
 20
-160.0453558627665
 10
117.9817735165115
 20
-159.8675889357276
 10
117.9817735165115
 20
-159.8675889357276
 10
117.8377685252281
 20
-159.9395914313693
 10
117.7426838898352
 20
-159.9688747429939
 10
117.5776638160917
 20
-159.998502564167
 10
117.5776638160917
 20
-159.998502564167
 10
117.457085474108
 20
-159.8293483758413
 10
117.457085474108
 20
-159.8293483758413
 10
117.7743787682995
 20
-159.8017876119593
 10
117.9669596059249
 20
-159.7087700338575
 10
118.1447265329638
 20
-159.5754448385784
 10
117.9986544843892
 20
-159.5754448385784
 10
117.6982421580754
 20
-159.5799234627092
 10
117.5015272058677
 20
-159.5861246345826
 10
117.5015272058677
 20
-159.5861246345826
 10
117.5015272058677
 20
-159.4083577075438
 10
117.5015272058677
 20
-159.4083577075438
 10
117.6558674836069
 20
-159.4149033889657
 10
117.9521456953384
 20
-159.4211045608392
 10
118.1361137942507
 20
-159.4211045608392
 10
118.1361137942507
 20
-159.4211045608392
 10
118.347642657045
 20
-159.4211045608392
 10
118.347642657045
 20
-159.4211045608392
 10
118.347642657045
 20
-159.3260199254463
 10
118.3455755997539
 20
-159.2750325122646
 10
118.3393744278804
 20
-159.2285237232137
 10
118.3393744278804
 20
-159.2285237232137
 10
118.5550374052571
 20
-159.2454046910914
 10
118.5550374052571
 20
-159.2454046910914
 10
118.6036132515991
 20
-159.2498833152223
 10
118.6122259903122
 20
-159.2646972258088
 10
118.6122259903122
 20
-159.2795111363954
 10
118.6122259903122
 20
-159.3046603334377
 10
118.5953450224345
 20
-159.3132730721508
 10
118.5443576092528
 20
-159.3387667787417
 10
118.5422905519617
 20
-159.363915975784
 10
118.5422905519617
 20
-159.370461657206
 10
118.5402234946705
 20
-159.4211045608392
 10
118.5402234946705
 20
-159.4211045608392
 10
118.7707003826337
 20
-159.4211045608392
 10
118.7707003826337
 20
-159.4211045608392
 10
118.9357204563772
 20
-159.4211045608392
 10
119.2278645535264
 20
-159.4149033889657
 10
119.4076985378564
 20
-159.4083577075438
 10
119.4076985378564
 20
-159.4083577075438
 10
119.4076985378564
 20
-159.5861246345826
 10
119.4076985378564
 20
-159.5861246345826
 10
119.2785074571595
 20
-159.5819905200003
 10
119.2554253174084
 20
-159.5819905200003
 10
118.9780951308458
 20
-159.5775118958695
 97
        0
 97
        0
 92
        1
 93
        1
 72
     4
 94
        3
 73
     0
 74
     1
 95
       23
 96
       19
 40
0.0
 40
0.0
 40
0.0
 40
0.0
 40
1.0
 40
1.0
 40
1.0
 40
2.0
 40
2.0
 40
2.0
 40
3.0
 40
3.0
 40
3.0
 40
4.0
 40
4.0
 40
4.0
 40
5.0
 40
5.0
 40
5.0
 40
6.0
 40
6.0
 40
6.0
 40
6.0
 10
117.6941080434931
 20
-159.2264566659226
 10
117.6772270756154
 20
-159.2667642831
 10
117.6706813941935
 20
-159.2836452509777
 10
117.6496663117334
 20
-159.2836452509777
 10
117.6348524011468
 20
-159.2836452509777
 10
117.6241726051426
 20
-159.2667642831
 10
117.6179714332691
 20
-159.2540174298045
 10
117.6179714332691
 20
-159.2540174298045
 10
117.5184081737454
 20
-159.0889973560611
 10
117.5184081737454
 20
-159.0889973560611
 10
117.6200384905603
 20
-159.0573024775968
 10
117.7702446537172
 20
-159.0021809498328
 10
117.9690266632161
 20
-158.8392279333805
 10
117.9690266632161
 20
-158.8392279333805
 10
118.0262152482712
 20
-159.0128607458371
 10
118.0262152482712
 20
-159.0128607458371
 10
117.9331976701695
 20
-159.0951985279345
 10
117.84431420665
 20
-159.1523871129897
 10
117.6941080434931
 20
-159.2264566659226
 97
        0
 97
        0
 92
        1
 93
        1
 72
     4
 94
        3
 73
     0
 74
     1
 95
       17
 96
       13
 40
0.0
 40
0.0
 40
0.0
 40
0.0
 40
1.0
 40
1.0
 40
1.0
 40
2.0
 40
2.0
 40
2.0
 40
3.0
 40
3.0
 40
3.0
 40
4.0
 40
4.0
 40
4.0
 40
4.0
 10
117.8463812639412
 20
-158.7610242658653
 10
117.816753442768
 20
-158.7210611582364
 10
117.7488850617086
 20
-158.6235649560038
 10
117.5669840200874
 20
-158.5136664100244
 10
117.5669840200874
 20
-158.5136664100244
 10
117.6941080434931
 20
-158.3803412147452
 10
117.6941080434931
 20
-158.3803412147452
 10
117.8801431996966
 20
-158.4819715315601
 10
117.9373317847518
 20
-158.5708549950795
 10
117.9648925486338
 20
-158.6128851599996
 10
117.9648925486338
 20
-158.6128851599996
 10
117.8463812639412
 20
-158.7610242658653
 10
117.8463812639412
 20
-158.7610242658653
 97
        0
 97
        0
 92
        1
 93
        1
 72
     4
 94
        3
 73
     0
 74
     1
 95
       38
 96
       34
 40
0.0
 40
0.0
 40
0.0
 40
0.0
 40
1.0
 40
1.0
 40
1.0
 40
2.0
 40
2.0
 40
2.0
 40
3.0
 40
3.0
 40
3.0
 40
4.0
 40
4.0
 40
4.0
 40
5.0
 40
5.0
 40
5.0
 40
6.0
 40
6.0
 40
6.0
 40
7.0
 40
7.0
 40
7.0
 40
8.0
 40
8.0
 40
8.0
 40
9.0
 40
9.0
 40
9.0
 40
10.0
 40
10.0
 40
10.0
 40
11.0
 40
11.0
 40
11.0
 40
11.0
 10
118.2143174617659
 20
-158.4564778249692
 10
118.2122504044747
 20
-158.5029866140201
 10
118.2101833471836
 20
-158.6194308414215
 10
118.2101833471836
 20
-158.6638725731813
 10
118.2101833471836
 20
-158.6638725731813
 10
118.2101833471836
 20
-159.0107936885459
 10
118.2101833471836
 20
-159.0107936885459
 10
118.2101833471836
 20
-159.0976100947742
 10
118.2122504044747
 20
-159.239203519218
 10
118.222930200479
 20
-159.3597818612017
 10
118.222930200479
 20
-159.3597818612017
 10
118.0324164201447
 20
-159.3597818612017
 10
118.0324164201447
 20
-159.3597818612017
 10
118.0368950442755
 20
-159.2963921042731
 10
118.0410291588578
 20
-159.2433376338003
 10
118.043096216149
 20
-159.1885606155848
 10
118.0451632734401
 20
-159.0655707067614
 10
118.0472303307313
 20
-159.0507567961748
 10
118.0472303307313
 20
-159.0063150644151
 10
118.0472303307313
 20
-159.0063150644151
 10
118.0472303307313
 20
-158.6848876556413
 10
118.0472303307313
 20
-158.6848876556413
 10
118.0472303307313
 20
-158.6297661278773
 10
118.0344834774358
 20
-158.3910210107495
 10
118.0324164201447
 20
-158.3400335975678
 10
118.0324164201447
 20
-158.3400335975678
 10
118.2336099964833
 20
-158.3675943614498
 10
118.2336099964833
 20
-158.3675943614498
 10
118.2546250789433
 20
-158.3696614187409
 10
118.2863199574076
 20
-158.3737955333232
 10
118.2863199574076
 20
-158.3992892399141
 10
118.2863199574076
 20
-158.4268500037961
 10
118.2356770537744
 20
-158.4478650862561
 10
118.2143174617659
 20
-158.4564778249692
 97
        0
 97
        0
 92
        1
 93
        1
 72
     4
 94
        3
 73
     0
 74
     1
 95
       83
 96
       79
 40
0.0
 40
0.0
 40
0.0
 40
0.0
 40
1.0
 40
1.0
 40
1.0
 40
2.0
 40
2.0
 40
2.0
 40
3.0
 40
3.0
 40
3.0
 40
4.0
 40
4.0
 40
4.0
 40
5.0
 40
5.0
 40
5.0
 40
6.0
 40
6.0
 40
6.0
 40
7.0
 40
7.0
 40
7.0
 40
8.0
 40
8.0
 40
8.0
 40
9.0
 40
9.0
 40
9.0
 40
10.0
 40
10.0
 40
10.0
 40
11.0
 40
11.0
 40
11.0
 40
12.0
 40
12.0
 40
12.0
 40
13.0
 40
13.0
 40
13.0
 40
14.0
 40
14.0
 40
14.0
 40
15.0
 40
15.0
 40
15.0
 40
16.0
 40
16.0
 40
16.0
 40
17.0
 40
17.0
 40
17.0
 40
18.0
 40
18.0
 40
18.0
 40
19.0
 40
19.0
 40
19.0
 40
20.0
 40
20.0
 40
20.0
 40
21.0
 40
21.0
 40
21.0
 40
22.0
 40
22.0
 40
22.0
 40
23.0
 40
23.0
 40
23.0
 40
24.0
 40
24.0
 40
24.0
 40
25.0
 40
25.0
 40
25.0
 40
26.0
 40
26.0
 40
26.0
 40
26.0
 10
119.016335690732
 20
-158.777905233743
 10
119.016335690732
 20
-158.777905233743
 10
118.9188394884995
 20
-158.777905233743
 10
118.9188394884995
 20
-158.777905233743
 10
118.9188394884995
 20
-158.777905233743
 10
118.9188394884995
 20
-159.0256075991325
 10
118.9188394884995
 20
-159.0256075991325
 10
118.9188394884995
 20
-159.0256075991325
 10
119.0015217801455
 20
-159.0256075991325
 10
119.0015217801455
 20
-159.0256075991325
 10
119.0669785943652
 20
-159.0256075991325
 10
119.2065049615178
 20
-159.0211289750017
 10
119.3060682210415
 20
-159.0128607458371
 10
119.3060682210415
 20
-159.0128607458371
 10
119.3060682210415
 20
-159.1926947301671
 10
119.3060682210415
 20
-159.1926947301671
 10
119.2130506429398
 20
-159.184081991454
 10
119.0628444797829
 20
-159.1799478768717
 10
119.0015217801455
 20
-159.1799478768717
 10
119.0015217801455
 20
-159.1799478768717
 10
118.6966308297009
 20
-159.1799478768717
 10
118.6966308297009
 20
-159.1799478768717
 10
118.6439208687765
 20
-159.1799478768717
 10
118.4978488202019
 20
-159.184081991454
 10
118.3920843888048
 20
-159.1926947301671
 10
118.3920843888048
 20
-159.1926947301671
 10
118.3920843888048
 20
-159.0128607458371
 10
118.3920843888048
 20
-159.0128607458371
 10
118.4916476483285
 20
-159.0211289750017
 10
118.6311740154811
 20
-159.0256075991325
 10
118.6966308297009
 20
-159.0256075991325
 10
118.6966308297009
 20
-159.0256075991325
 10
118.7410725614606
 20
-159.0256075991325
 10
118.7410725614606
 20
-159.0256075991325
 10
118.7410725614606
 20
-159.0256075991325
 10
118.7410725614606
 20
-158.777905233743
 10
118.7410725614606
 20
-158.777905233743
 10
118.7410725614606
 20
-158.777905233743
 10
118.6673475180762
 20
-158.777905233743
 10
118.6673475180762
 20
-158.777905233743
 10
118.6056803088903
 20
-158.777905233743
 10
118.4385931778556
 20
-158.7823838578739
 10
118.3180148358719
 20
-158.7906520870385
 10
118.3180148358719
 20
-158.7906520870385
 10
118.3180148358719
 20
-158.6128851599996
 10
118.3180148358719
 20
-158.6128851599996
 10
118.4323920059822
 20
-158.6194308414215
 10
118.5908663983037
 20
-158.6235649560038
 10
118.6673475180762
 20
-158.6235649560038
 10
118.6673475180762
 20
-158.6235649560038
 10
118.7390055041694
 20
-158.6235649560038
 10
118.7390055041694
 20
-158.6235649560038
 10
118.7348713895871
 20
-158.4712917355558
 10
118.732804332296
 20
-158.4375297998004
 10
118.726258650874
 20
-158.3441677121501
 10
118.726258650874
 20
-158.3441677121501
 10
118.9381320232169
 20
-158.3675943614498
 10
118.9381320232169
 20
-158.3675943614498
 10
118.9632812202592
 20
-158.3696614187409
 10
118.9867078695589
 20
-158.3737955333232
 10
118.9867078695589
 20
-158.3972221826229
 10
118.9867078695589
 20
-158.4289170610872
 10
118.9422661377992
 20
-158.445798028965
 10
118.9188394884995
 20
-158.4544107676781
 10
118.9188394884995
 20
-158.4544107676781
 10
118.9188394884995
 20
-158.6235649560038
 10
118.9188394884995
 20
-158.6235649560038
 10
118.9188394884995
 20
-158.6235649560038
 10
119.016335690732
 20
-158.6235649560038
 10
119.016335690732
 20
-158.6235649560038
 10
119.0924723009561
 20
-158.6235649560038
 10
119.2509466932775
 20
-158.6194308414215
 10
119.367390920679
 20
-158.6128851599996
 10
119.367390920679
 20
-158.6128851599996
 10
119.367390920679
 20
-158.7906520870385
 10
119.367390920679
 20
-158.7906520870385
 10
119.2595594319907
 20
-158.784450915165
 10
119.0859266195341
 20
-158.777905233743
 10
119.016335690732
 20
-158.777905233743
 97
        0
 97
        0
 92
        1
 93
        1
 72
     4
 94
        3
 73
     0
 74
     1
 95
       17
 96
       13
 40
0.0
 40
0.0
 40
0.0
 40
0.0
 40
1.0
 40
1.0
 40
1.0
 40
2.0
 40
2.0
 40
2.0
 40
3.0
 40
3.0
 40
3.0
 40
4.0
 40
4.0
 40
4.0
 40
4.0
 10
118.7707003826337
 20
-159.5754448385784
 10
118.7707003826337
 20
-159.5754448385784
 10
118.5677842585525
 20
-159.5754448385784
 10
118.5677842585525
 20
-159.5754448385784
 10
118.5953450224345
 20
-159.6347004809247
 10
118.65012204065
 20
-159.7067029765664
 10
118.677682804532
 20
-159.7363307977395
 10
118.705243568414
 20
-159.721516887153
 10
118.8196207385243
 20
-159.6581271302244
 10
118.9105712593349
 20
-159.5754448385784
 10
118.9105712593349
 20
-159.5754448385784
 10
118.7707003826337
 20
-159.5754448385784
 10
118.7707003826337
 20
-159.5754448385784
 97
        0
 97
        0
 75
     2
 76
     1
 98
        0
  0
SPLINE
  5
107
330
F4
100
AcDbEntity
  8
_U+30EC_U+30A4_U+30E4_U+30FC 1
370
     0
100
AcDbSpline
210
0.0
220
0.0
230
1.0
 70
    11
 71
     3
 72
    77
 73
    73
 74
     0
 42
0.0000000001
 43
0.0000000001
 12
1.0
 22
0.0
 32
0.0
 13
1.0
 23
0.0
 33
0.0
 40
0.0
 40
0.0
 40
0.0
 40
0.0
 40
1.0
 40
1.0
 40
1.0
 40
2.0
 40
2.0
 40
2.0
 40
3.0
 40
3.0
 40
3.0
 40
4.0
 40
4.0
 40
4.0
 40
5.0
 40
5.0
 40
5.0
 40
6.0
 40
6.0
 40
6.0
 40
7.0
 40
7.0
 40
7.0
 40
8.0
 40
8.0
 40
8.0
 40
9.0
 40
9.0
 40
9.0
 40
10.0
 40
10.0
 40
10.0
 40
11.0
 40
11.0
 40
11.0
 40
12.0
 40
12.0
 40
12.0
 40
13.0
 40
13.0
 40
13.0
 40
14.0
 40
14.0
 40
14.0
 40
15.0
 40
15.0
 40
15.0
 40
16.0
 40
16.0
 40
16.0
 40
17.0
 40
17.0
 40
17.0
 40
18.0
 40
18.0
 40
18.0
 40
19.0
 40
19.0
 40
19.0
 40
20.0
 40
20.0
 40
20.0
 40
21.0
 40
21.0
 40
21.0
 40
22.0
 40
22.0
 40
22.0
 40
23.0
 40
23.0
 40
23.0
 40
24.0
 40
24.0
 40
24.0
 40
24.0
 10
121.2618489280179
 20
-160.2058973123791
 30
0.0
 10
121.215340138967
 20
-160.2313910189699
 30
0.0
 10
121.090627682401
 20
-160.2441378722654
 30
0.0
 10
121.0120795053373
 20
-160.2441378722654
 30
0.0
 10
120.9996771615904
 20
-160.2441378722654
 30
0.0
 10
120.9741834549995
 20
-160.2441378722654
 30
0.0
 10
120.9404215192441
 20
-160.2396592481345
 30
0.0
 10
120.9404215192441
 20
-160.2396592481345
 30
0.0
 10
120.8429253170115
 20
-160.0133164747536
 30
0.0
 10
120.8429253170115
 20
-160.0133164747536
 30
0.0
 10
120.8725531381846
 20
-160.0198621561756
 30
0.0
 10
120.9297417232398
 20
-160.0281303853402
 30
0.0
 10
121.0461859506412
 20
-160.0281303853402
 30
0.0
 10
121.1243896181564
 20
-160.0281303853402
 30
0.0
 10
121.1264566754476
 20
-159.9861002204202
 30
0.0
 10
121.1264566754476
 20
-159.928911635365
 30
0.0
 10
121.1264566754476
 20
-159.928911635365
 30
0.0
 10
121.1264566754476
 20
-159.5799234627092
 30
0.0
 10
121.1264566754476
 20
-159.5799234627092
 30
0.0
 10
121.1264566754476
 20
-159.5799234627092
 30
0.0
 10
120.6672254472638
 20
-159.5799234627092
 30
0.0
 10
120.6672254472638
 20
-159.5799234627092
 30
0.0
 10
120.6696370141034
 20
-159.7173827725707
 30
0.0
 10
120.6717040713946
 20
-159.9161647820696
 30
0.0
 10
120.677905243268
 20
-160.0494899773487
 30
0.0
 10
120.6799723005592
 20
-160.0770507412307
 30
0.0
 10
120.6799723005592
 20
-160.1214924729905
 30
0.0
 10
120.6927191538546
 20
-160.1828151726279
 30
0.0
 10
120.6927191538546
 20
-160.1828151726279
 30
0.0
 10
120.4515624698871
 20
-160.1828151726279
 30
0.0
 10
120.4515624698871
 20
-160.1828151726279
 30
0.0
 10
120.477056176478
 20
-160.0577582065133
 30
0.0
 10
120.477056176478
 20
-159.7173827725707
 30
0.0
 10
120.477056176478
 20
-159.5799234627092
 30
0.0
 10
120.477056176478
 20
-159.5799234627092
 30
0.0
 10
120.0347059161719
 20
-159.5799234627092
 30
0.0
 10
120.0347059161719
 20
-159.5799234627092
 30
0.0
 10
120.0116237764207
 20
-159.7869737013727
 30
0.0
 10
119.946166962201
 20
-160.0556911492222
 30
0.0
 10
119.7491075004447
 20
-160.2396592481345
 30
0.0
 10
119.7491075004447
 20
-160.2396592481345
 30
0.0
 10
119.56100528695
 20
-160.1170138488596
 30
0.0
 10
119.56100528695
 20
-160.1170138488596
 30
0.0
 10
119.8149088242129
 20
-159.8972167569007
 30
0.0
 10
119.8466037026772
 20
-159.5651095521226
 30
0.0
 10
119.8466037026772
 20
-159.2330023473445
 30
0.0
 10
119.8466037026772
 20
-159.2330023473445
 30
0.0
 10
119.8466037026772
 20
-158.7971977684604
 30
0.0
 10
119.8466037026772
 20
-158.7971977684604
 30
0.0
 10
119.8466037026772
 20
-158.7610242658653
 30
0.0
 10
119.8445366453861
 20
-158.528480320611
 30
0.0
 10
119.835923906673
 20
-158.4268500037961
 30
0.0
 10
119.9757947833741
 20
-158.4375297998004
 30
0.0
 10
120.2169514673416
 20
-158.4375297998004
 30
0.0
 10
120.3606119490765
 20
-158.4375297998004
 30
0.0
 10
120.3606119490765
 20
-158.4375297998004
 30
0.0
 10
120.8198431772603
 20
-158.4375297998004
 30
0.0
 10
120.8198431772603
 20
-158.4375297998004
 30
0.0
 10
120.8346570878469
 20
-158.4375297998004
 30
0.0
 10
121.1836452605027
 20
-158.4375297998004
 30
0.0
 10
121.3421196528242
 20
-158.4268500037961
 30
0.0
 10
121.3400525955331
 20
-158.4795599647204
 30
0.0
 10
121.3338514236596
 20
-158.6404459238816
 30
0.0
 10
121.3338514236596
 20
-158.6914333370633
 30
0.0
 10
121.3338514236596
 20
-158.6914333370633
 30
0.0
 10
121.3338514236596
 20
-159.2984591615643
 30
0.0
 10
121.3338514236596
 20
-159.2984591615643
 30
0.0
 10
121.3338514236596
 20
-159.3174071867332
 30
0.0
 10
121.3441867101154
 20
-159.8886040181876
 30
0.0
 10
121.3441867101154
 20
-160.0009141310067
 30
0.0
 10
121.3441867101154
 20
-160.0577582065133
 30
0.0
 10
121.3441867101154
 20
-160.1593885233282
 30
0.0
 10
121.2618489280179
 20
-160.2058973123791
 30
0.0
  0
POLYLINE
  5
108
330
F4
100
AcDbEntity
  8
_U+30EC_U+30A4_U+30E4_U+30FC 1
370
     0
100
AcDb2dPolyline
 66
     1
 10
0.0
 20
0.0
 30
0.0
  0
VERTEX
  5
109
330
108
100
AcDbEntity
  8
_U+30EC_U+30A4_U+30E4_U+30FC 1
370
     0
100
AcDbVertex
100
AcDb2dVertex
 10
120.477056176478
 20
-158.6194308414215
 30
0.0
  0
VERTEX
  5
10A
330
108
100
AcDbEntity
  8
_U+30EC_U+30A4_U+30E4_U+30FC 1
370
     0
100
AcDbVertex
100
AcDb2dVertex
 10
120.0391845403027
 20
-158.6194308414215
 30
0.0
  0
VERTEX
  5
10B
330
108
100
AcDbEntity
  8
_U+30EC_U+30A4_U+30E4_U+30FC 1
370
     0
100
AcDbVertex
100
AcDb2dVertex
 10
120.0391845403027
 20
-158.9239772823176
 30
0.0
  0
VERTEX
  5
10C
330
108
100
AcDbEntity
  8
_U+30EC_U+30A4_U+30E4_U+30FC 1
370
     0
100
AcDbVertex
100
AcDb2dVertex
 10
120.477056176478
 20
-158.9239772823176
 30
0.0
  0
VERTEX
  5
10D
330
108
100
AcDbEntity
  8
_U+30EC_U+30A4_U+30E4_U+30FC 1
370
     0
100
AcDbVertex
100
AcDb2dVertex
 10
120.477056176478
 20
-158.6194308414215
 30
0.0
  0
SEQEND
  5
10E
330
108
100
AcDbEntity
  8
_U+30EC_U+30A4_U+30E4_U+30FC 1
370
     0
  0
POLYLINE
  5
10F
330
F4
100
AcDbEntity
  8
_U+30EC_U+30A4_U+30E4_U+30FC 1
370
     0
100
AcDb2dPolyline
 66
     1
 10
0.0
 20
0.0
 30
0.0
  0
VERTEX
  5
110
330
10F
100
AcDbEntity
  8
_U+30EC_U+30A4_U+30E4_U+30FC 1
370
     0
100
AcDbVertex
100
AcDb2dVertex
 10
120.477056176478
 20
-159.0910644133522
 30
0.0
  0
VERTEX
  5
111
330
10F
100
AcDbEntity
  8
_U+30EC_U+30A4_U+30E4_U+30FC 1
370
     0
100
AcDbVertex
100
AcDb2dVertex
 10
120.0391845403027
 20
-159.0910644133522
 30
0.0
  0
VERTEX
  5
112
330
10F
100
AcDbEntity
  8
_U+30EC_U+30A4_U+30E4_U+30FC 1
370
     0
100
AcDbVertex
100
AcDb2dVertex
 10
120.0391845403027
 20
-159.4000894783792
 30
0.0
  0
VERTEX
  5
113
330
10F
100
AcDbEntity
  8
_U+30EC_U+30A4_U+30E4_U+30FC 1
370
     0
100
AcDbVertex
100
AcDb2dVertex
 10
120.477056176478
 20
-159.4000894783792
 30
0.0
  0
VERTEX
  5
114
330
10F
100
AcDbEntity
  8
_U+30EC_U+30A4_U+30E4_U+30FC 1
370
     0
100
AcDbVertex
100
AcDb2dVertex
 10
120.477056176478
 20
-159.0910644133522
 30
0.0
  0
SEQEND
  5
115
330
10F
100
AcDbEntity
  8
_U+30EC_U+30A4_U+30E4_U+30FC 1
370
     0
  0
POLYLINE
  5
116
330
F4
100
AcDbEntity
  8
_U+30EC_U+30A4_U+30E4_U+30FC 1
370
     0
100
AcDb2dPolyline
 66
     1
 10
0.0
 20
0.0
 30
0.0
  0
VERTEX
  5
117
330
116
100
AcDbEntity
  8
_U+30EC_U+30A4_U+30E4_U+30FC 1
370
     0
100
AcDbVertex
100
AcDb2dVertex
 10
121.1264566754476
 20
-158.6194308414215
 30
0.0
  0
VERTEX
  5
118
330
116
100
AcDbEntity
  8
_U+30EC_U+30A4_U+30E4_U+30FC 1
370
     0
100
AcDbVertex
100
AcDb2dVertex
 10
120.6672254472638
 20
-158.6194308414215
 30
0.0
  0
VERTEX
  5
119
330
116
100
AcDbEntity
  8
_U+30EC_U+30A4_U+30E4_U+30FC 1
370
     0
100
AcDbVertex
100
AcDb2dVertex
 10
120.6672254472638
 20
-158.9239772823176
 30
0.0
  0
VERTEX
  5
11A
330
116
100
AcDbEntity
  8
_U+30EC_U+30A4_U+30E4_U+30FC 1
370
     0
100
AcDbVertex
100
AcDb2dVertex
 10
121.1264566754476
 20
-158.9239772823176
 30
0.0
  0
VERTEX
  5
11B
330
116
100
AcDbEntity
  8
_U+30EC_U+30A4_U+30E4_U+30FC 1
370
     0
100
AcDbVertex
100
AcDb2dVertex
 10
121.1264566754476
 20
-158.6194308414215
 30
0.0
  0
SEQEND
  5
11C
330
116
100
AcDbEntity
  8
_U+30EC_U+30A4_U+30E4_U+30FC 1
370
     0
  0
POLYLINE
  5
11D
330
F4
100
AcDbEntity
  8
_U+30EC_U+30A4_U+30E4_U+30FC 1
370
     0
100
AcDb2dPolyline
 66
     1
 10
0.0
 20
0.0
 30
0.0
  0
VERTEX
  5
11E
330
11D
100
AcDbEntity
  8
_U+30EC_U+30A4_U+30E4_U+30FC 1
370
     0
100
AcDbVertex
100
AcDb2dVertex
 10
121.1264566754476
 20
-159.0910644133522
 30
0.0
  0
VERTEX
  5
11F
330
11D
100
AcDbEntity
  8
_U+30EC_U+30A4_U+30E4_U+30FC 1
370
     0
100
AcDbVertex
100
AcDb2dVertex
 10
120.6672254472638
 20
-159.0910644133522
 30
0.0
  0
VERTEX
  5
120
330
11D
100
AcDbEntity
  8
_U+30EC_U+30A4_U+30E4_U+30FC 1
370
     0
100
AcDbVertex
100
AcDb2dVertex
 10
120.6672254472638
 20
-159.4000894783792
 30
0.0
  0
VERTEX
  5
121
330
11D
100
AcDbEntity
  8
_U+30EC_U+30A4_U+30E4_U+30FC 1
370
     0
100
AcDbVertex
100
AcDb2dVertex
 10
121.1264566754476
 20
-159.4000894783792
 30
0.0
  0
VERTEX
  5
122
330
11D
100
AcDbEntity
  8
_U+30EC_U+30A4_U+30E4_U+30FC 1
370
     0
100
AcDbVertex
100
AcDb2dVertex
 10
121.1264566754476
 20
-159.0910644133522
 30
0.0
  0
SEQEND
  5
123
330
11D
100
AcDbEntity
  8
_U+30EC_U+30A4_U+30E4_U+30FC 1
370
     0
  0
HATCH
  5
124
330
F4
100
AcDbEntity
  8
_U+30EC_U+30A4_U+30E4_U+30FC 1
 62
     7
420
 16777215
100
AcDbHatch
 10
0.0
 20
0.0
 30
0.0
210
0.0
220
0.0
230
1.0
  2
SOLID
 70
     1
 71
     0
 91
        5
 92
        1
 93
        1
 72
     4
 94
        3
 73
     0
 74
     1
 95
       77
 96
       73
 40
0.0
 40
0.0
 40
0.0
 40
0.0
 40
1.0
 40
1.0
 40
1.0
 40
2.0
 40
2.0
 40
2.0
 40
3.0
 40
3.0
 40
3.0
 40
4.0
 40
4.0
 40
4.0
 40
5.0
 40
5.0
 40
5.0
 40
6.0
 40
6.0
 40
6.0
 40
7.0
 40
7.0
 40
7.0
 40
8.0
 40
8.0
 40
8.0
 40
9.0
 40
9.0
 40
9.0
 40
10.0
 40
10.0
 40
10.0
 40
11.0
 40
11.0
 40
11.0
 40
12.0
 40
12.0
 40
12.0
 40
13.0
 40
13.0
 40
13.0
 40
14.0
 40
14.0
 40
14.0
 40
15.0
 40
15.0
 40
15.0
 40
16.0
 40
16.0
 40
16.0
 40
17.0
 40
17.0
 40
17.0
 40
18.0
 40
18.0
 40
18.0
 40
19.0
 40
19.0
 40
19.0
 40
20.0
 40
20.0
 40
20.0
 40
21.0
 40
21.0
 40
21.0
 40
22.0
 40
22.0
 40
22.0
 40
23.0
 40
23.0
 40
23.0
 40
24.0
 40
24.0
 40
24.0
 40
24.0
 10
121.2618489280179
 20
-160.2058973123791
 10
121.215340138967
 20
-160.2313910189699
 10
121.090627682401
 20
-160.2441378722654
 10
121.0120795053373
 20
-160.2441378722654
 10
120.9996771615904
 20
-160.2441378722654
 10
120.9741834549995
 20
-160.2441378722654
 10
120.9404215192441
 20
-160.2396592481345
 10
120.9404215192441
 20
-160.2396592481345
 10
120.8429253170115
 20
-160.0133164747536
 10
120.8429253170115
 20
-160.0133164747536
 10
120.8725531381846
 20
-160.0198621561756
 10
120.9297417232398
 20
-160.0281303853402
 10
121.0461859506412
 20
-160.0281303853402
 10
121.1243896181564
 20
-160.0281303853402
 10
121.1264566754476
 20
-159.9861002204202
 10
121.1264566754476
 20
-159.928911635365
 10
121.1264566754476
 20
-159.928911635365
 10
121.1264566754476
 20
-159.5799234627092
 10
121.1264566754476
 20
-159.5799234627092
 10
121.1264566754476
 20
-159.5799234627092
 10
120.6672254472638
 20
-159.5799234627092
 10
120.6672254472638
 20
-159.5799234627092
 10
120.6696370141034
 20
-159.7173827725707
 10
120.6717040713946
 20
-159.9161647820696
 10
120.677905243268
 20
-160.0494899773487
 10
120.6799723005592
 20
-160.0770507412307
 10
120.6799723005592
 20
-160.1214924729905
 10
120.6927191538546
 20
-160.1828151726279
 10
120.6927191538546
 20
-160.1828151726279
 10
120.4515624698871
 20
-160.1828151726279
 10
120.4515624698871
 20
-160.1828151726279
 10
120.477056176478
 20
-160.0577582065133
 10
120.477056176478
 20
-159.7173827725707
 10
120.477056176478
 20
-159.5799234627092
 10
120.477056176478
 20
-159.5799234627092
 10
120.0347059161719
 20
-159.5799234627092
 10
120.0347059161719
 20
-159.5799234627092
 10
120.0116237764207
 20
-159.7869737013727
 10
119.946166962201
 20
-160.0556911492222
 10
119.7491075004447
 20
-160.2396592481345
 10
119.7491075004447
 20
-160.2396592481345
 10
119.56100528695
 20
-160.1170138488596
 10
119.56100528695
 20
-160.1170138488596
 10
119.8149088242129
 20
-159.8972167569007
 10
119.8466037026772
 20
-159.5651095521226
 10
119.8466037026772
 20
-159.2330023473445
 10
119.8466037026772
 20
-159.2330023473445
 10
119.8466037026772
 20
-158.7971977684604
 10
119.8466037026772
 20
-158.7971977684604
 10
119.8466037026772
 20
-158.7610242658653
 10
119.8445366453861
 20
-158.528480320611
 10
119.835923906673
 20
-158.4268500037961
 10
119.9757947833741
 20
-158.4375297998004
 10
120.2169514673416
 20
-158.4375297998004
 10
120.3606119490765
 20
-158.4375297998004
 10
120.3606119490765
 20
-158.4375297998004
 10
120.8198431772603
 20
-158.4375297998004
 10
120.8198431772603
 20
-158.4375297998004
 10
120.8346570878469
 20
-158.4375297998004
 10
121.1836452605027
 20
-158.4375297998004
 10
121.3421196528242
 20
-158.4268500037961
 10
121.3400525955331
 20
-158.4795599647204
 10
121.3338514236596
 20
-158.6404459238816
 10
121.3338514236596
 20
-158.6914333370633
 10
121.3338514236596
 20
-158.6914333370633
 10
121.3338514236596
 20
-159.2984591615643
 10
121.3338514236596
 20
-159.2984591615643
 10
121.3338514236596
 20
-159.3174071867332
 10
121.3441867101154
 20
-159.8886040181876
 10
121.3441867101154
 20
-160.0009141310067
 10
121.3441867101154
 20
-160.0577582065133
 10
121.3441867101154
 20
-160.1593885233282
 10
121.2618489280179
 20
-160.2058973123791
 97
        0
 97
        0
 92
        1
 93
        4
 72
     1
 10
120.477056176478
 20
-158.6194308414215
 11
120.0391845403027
 21
-158.6194308414215
 72
     1
 10
120.0391845403027
 20
-158.6194308414215
 11
120.0391845403027
 21
-158.9239772823176
 72
     1
 10
120.0391845403027
 20
-158.9239772823176
 11
120.477056176478
 21
-158.9239772823176
 72
     1
 10
120.477056176478
 20
-158.9239772823176
 11
120.477056176478
 21
-158.6194308414215
 97
        0
 92
        1
 93
        4
 72
     1
 10
120.477056176478
 20
-159.0910644133522
 11
120.0391845403027
 21
-159.0910644133522
 72
     1
 10
120.0391845403027
 20
-159.0910644133522
 11
120.0391845403027
 21
-159.4000894783792
 72
     1
 10
120.0391845403027
 20
-159.4000894783792
 11
120.477056176478
 21
-159.4000894783792
 72
     1
 10
120.477056176478
 20
-159.4000894783792
 11
120.477056176478
 21
-159.0910644133522
 97
        0
 92
        1
 93
        4
 72
     1
 10
121.1264566754476
 20
-158.6194308414215
 11
120.6672254472638
 21
-158.6194308414215
 72
     1
 10
120.6672254472638
 20
-158.6194308414215
 11
120.6672254472638
 21
-158.9239772823176
 72
     1
 10
120.6672254472638
 20
-158.9239772823176
 11
121.1264566754476
 21
-158.9239772823176
 72
     1
 10
121.1264566754476
 20
-158.9239772823176
 11
121.1264566754476
 21
-158.6194308414215
 97
        0
 92
        1
 93
        4
 72
     1
 10
121.1264566754476
 20
-159.0910644133522
 11
120.6672254472638
 21
-159.0910644133522
 72
     1
 10
120.6672254472638
 20
-159.0910644133522
 11
120.6672254472638
 21
-159.4000894783792
 72
     1
 10
120.6672254472638
 20
-159.4000894783792
 11
121.1264566754476
 21
-159.4000894783792
 72
     1
 10
121.1264566754476
 20
-159.4000894783792
 11
121.1264566754476
 21
-159.0910644133522
 97
        0
 75
     2
 76
     1
 98
        0
  0
SPLINE
  5
125
330
F4
100
AcDbEntity
  8
_U+30EC_U+30A4_U+30E4_U+30FC 1
370
     0
100
AcDbSpline
210
0.0
220
0.0
230
1.0
 70
    11
 71
     3
 72
    44
 73
    40
 74
     0
 42
0.0000000001
 43
0.0000000001
 12
1.0
 22
0.0
 32
0.0
 13
1.0
 23
0.0
 33
0.0
 40
0.0
 40
0.0
 40
0.0
 40
0.0
 40
1.0
 40
1.0
 40
1.0
 40
2.0
 40
2.0
 40
2.0
 40
3.0
 40
3.0
 40
3.0
 40
4.0
 40
4.0
 40
4.0
 40
5.0
 40
5.0
 40
5.0
 40
6.0
 40
6.0
 40
6.0
 40
7.0
 40
7.0
 40
7.0
 40
8.0
 40
8.0
 40
8.0
 40
9.0
 40
9.0
 40
9.0
 40
10.0
 40
10.0
 40
10.0
 40
11.0
 40
11.0
 40
11.0
 40
12.0
 40
12.0
 40
12.0
 40
13.0
 40
13.0
 40
13.0
 40
13.0
 10
116.8104410515266
 20
-161.4957410620566
 30
0.0
 10
116.6984754482559
 20
-161.8640217694298
 30
0.0
 10
116.6478325446228
 20
-162.0224961617513
 30
0.0
 10
116.451117592415
 20
-162.2722655844319
 30
0.0
 10
116.2668049839541
 20
-162.5027424723951
 30
0.0
 10
116.0301269241175
 20
-162.6887776285986
 30
0.0
 10
115.7507296802637
 20
-162.7821397162489
 30
0.0
 10
115.7507296802637
 20
-162.7821397162489
 30
0.0
 10
115.5581488426382
 20
-162.6023057319189
 30
0.0
 10
115.5581488426382
 20
-162.6023057319189
 30
0.0
 10
116.1992811124432
 20
-162.4500325114708
 30
0.0
 10
116.5293212599302
 20
-161.893649590603
 30
0.0
 10
116.5927110168588
 20
-161.4533663875881
 30
0.0
 10
116.5927110168588
 20
-161.4533663875881
 30
0.0
 10
115.8268662904877
 20
-161.4533663875881
 30
0.0
 10
115.8268662904877
 20
-161.4533663875881
 30
0.0
 10
115.733848712386
 20
-161.4533663875881
 30
0.0
 10
115.5498806134736
 20
-161.4578450117189
 30
0.0
 10
115.3931287688948
 20
-161.4767930368878
 30
0.0
 10
115.3931287688948
 20
-161.4767930368878
 30
0.0
 10
115.3931287688948
 20
-161.2566514353803
 30
0.0
 10
115.3931287688948
 20
-161.2566514353803
 30
0.0
 10
115.4799451751231
 20
-161.2780110273888
 30
0.0
 10
115.7317816550948
 20
-161.2780110273888
 30
0.0
 10
115.83100040507
 20
-161.2780110273888
 30
0.0
 10
115.83100040507
 20
-161.2780110273888
 30
0.0
 10
116.2626708693718
 20
-161.2780110273888
 30
0.0
 10
116.2626708693718
 20
-161.2780110273888
 30
0.0
 10
116.3050455438404
 20
-161.2780110273888
 30
0.0
 10
116.5396565463859
 20
-161.2755994605492
 30
0.0
 10
116.5778971062722
 20
-161.2693982886757
 30
0.0
 10
116.6202717807408
 20
-161.2631971168023
 30
0.0
 10
116.6223388380319
 20
-161.2611300595111
 30
0.0
 10
116.6836615376694
 20
-161.2208224423337
 30
0.0
 10
116.6836615376694
 20
-161.2208224423337
 30
0.0
 10
116.871763751164
 20
-161.3751627200729
 30
0.0
 10
116.871763751164
 20
-161.3751627200729
 30
0.0
 10
116.8424804395394
 20
-161.404790541246
 30
0.0
 10
116.8276665289528
 20
-161.4364854197103
 30
0.0
 10
116.8104410515266
 20
-161.4957410620566
 30
0.0
  0
SPLINE
  5
126
330
F4
100
AcDbEntity
  8
_U+30EC_U+30A4_U+30E4_U+30FC 1
370
     0
100
AcDbSpline
210
0.0
220
0.0
230
1.0
 70
    11
 71
     3
 72
    17
 73
    13
 74
     0
 42
0.0000000001
 43
0.0000000001
 12
1.0
 22
0.0
 32
0.0
 13
1.0
 23
0.0
 33
0.0
 40
0.0
 40
0.0
 40
0.0
 40
0.0
 40
1.0
 40
1.0
 40
1.0
 40
2.0
 40
2.0
 40
2.0
 40
3.0
 40
3.0
 40
3.0
 40
4.0
 40
4.0
 40
4.0
 40
4.0
 10
117.0199028570297
 20
-161.2969590525577
 30
0.0
 10
116.8931233431726
 20
-161.2969590525577
 30
0.0
 10
116.7914930263577
 20
-161.1953287357428
 30
0.0
 10
116.7914930263577
 20
-161.0685492218857
 30
0.0
 10
116.7914930263577
 20
-160.9414251984799
 30
0.0
 10
116.8931233431726
 20
-160.8377278243739
 30
0.0
 10
117.0199028570297
 20
-160.8377278243739
 30
0.0
 10
117.1470268804355
 20
-160.8377278243739
 30
0.0
 10
117.2507242545415
 20
-160.9414251984799
 30
0.0
 10
117.2507242545415
 20
-161.0685492218857
 30
0.0
 10
117.2507242545415
 20
-161.1953287357428
 30
0.0
 10
117.1470268804355
 20
-161.2969590525577
 30
0.0
 10
117.0199028570297
 20
-161.2969590525577
 30
0.0
  0
SPLINE
  5
127
330
F4
100
AcDbEntity
  8
_U+30EC_U+30A4_U+30E4_U+30FC 1
370
     0
100
AcDbSpline
210
0.0
220
0.0
230
1.0
 70
    11
 71
     3
 72
    17
 73
    13
 74
     0
 42
0.0000000001
 43
0.0000000001
 12
1.0
 22
0.0
 32
0.0
 13
1.0
 23
0.0
 33
0.0
 40
0.0
 40
0.0
 40
0.0
 40
0.0
 40
1.0
 40
1.0
 40
1.0
 40
2.0
 40
2.0
 40
2.0
 40
3.0
 40
3.0
 40
3.0
 40
4.0
 40
4.0
 40
4.0
 40
4.0
 10
117.0178357997386
 20
-160.9669189050708
 30
0.0
 10
116.9630587815231
 20
-160.9669189050708
 30
0.0
 10
116.9186170497634
 20
-161.0113606368305
 30
0.0
 10
116.9186170497634
 20
-161.0664821645945
 30
0.0
 10
116.9186170497634
 20
-161.1233262401011
 30
0.0
 10
116.9630587815231
 20
-161.1722465959917
 30
0.0
 10
117.0219699143209
 20
-161.1722465959917
 30
0.0
 10
117.0812255566672
 20
-161.1722465959917
 30
0.0
 10
117.1215331738446
 20
-161.12125918281
 30
0.0
 10
117.1215331738446
 20
-161.0685492218857
 30
0.0
 10
117.1215331738446
 20
-161.0113606368305
 30
0.0
 10
117.0750243847937
 20
-160.9669189050708
 30
0.0
 10
117.0178357997386
 20
-160.9669189050708
 30
0.0
  0
HATCH
  5
128
330
F4
100
AcDbEntity
  8
_U+30EC_U+30A4_U+30E4_U+30FC 1
 62
     7
420
 16777215
100
AcDbHatch
 10
0.0
 20
0.0
 30
0.0
210
0.0
220
0.0
230
1.0
  2
SOLID
 70
     1
 71
     0
 91
        3
 92
        1
 93
        1
 72
     4
 94
        3
 73
     0
 74
     1
 95
       44
 96
       40
 40
0.0
 40
0.0
 40
0.0
 40
0.0
 40
1.0
 40
1.0
 40
1.0
 40
2.0
 40
2.0
 40
2.0
 40
3.0
 40
3.0
 40
3.0
 40
4.0
 40
4.0
 40
4.0
 40
5.0
 40
5.0
 40
5.0
 40
6.0
 40
6.0
 40
6.0
 40
7.0
 40
7.0
 40
7.0
 40
8.0
 40
8.0
 40
8.0
 40
9.0
 40
9.0
 40
9.0
 40
10.0
 40
10.0
 40
10.0
 40
11.0
 40
11.0
 40
11.0
 40
12.0
 40
12.0
 40
12.0
 40
13.0
 40
13.0
 40
13.0
 40
13.0
 10
116.8104410515266
 20
-161.4957410620566
 10
116.6984754482559
 20
-161.8640217694298
 10
116.6478325446228
 20
-162.0224961617513
 10
116.451117592415
 20
-162.2722655844319
 10
116.2668049839541
 20
-162.5027424723951
 10
116.0301269241175
 20
-162.6887776285986
 10
115.7507296802637
 20
-162.7821397162489
 10
115.7507296802637
 20
-162.7821397162489
 10
115.5581488426382
 20
-162.6023057319189
 10
115.5581488426382
 20
-162.6023057319189
 10
116.1992811124432
 20
-162.4500325114708
 10
116.5293212599302
 20
-161.893649590603
 10
116.5927110168588
 20
-161.4533663875881
 10
116.5927110168588
 20
-161.4533663875881
 10
115.8268662904877
 20
-161.4533663875881
 10
115.8268662904877
 20
-161.4533663875881
 10
115.733848712386
 20
-161.4533663875881
 10
115.5498806134736
 20
-161.4578450117189
 10
115.3931287688948
 20
-161.4767930368878
 10
115.3931287688948
 20
-161.4767930368878
 10
115.3931287688948
 20
-161.2566514353803
 10
115.3931287688948
 20
-161.2566514353803
 10
115.4799451751231
 20
-161.2780110273888
 10
115.7317816550948
 20
-161.2780110273888
 10
115.83100040507
 20
-161.2780110273888
 10
115.83100040507
 20
-161.2780110273888
 10
116.2626708693718
 20
-161.2780110273888
 10
116.2626708693718
 20
-161.2780110273888
 10
116.3050455438404
 20
-161.2780110273888
 10
116.5396565463859
 20
-161.2755994605492
 10
116.5778971062722
 20
-161.2693982886757
 10
116.6202717807408
 20
-161.2631971168023
 10
116.6223388380319
 20
-161.2611300595111
 10
116.6836615376694
 20
-161.2208224423337
 10
116.6836615376694
 20
-161.2208224423337
 10
116.871763751164
 20
-161.3751627200729
 10
116.871763751164
 20
-161.3751627200729
 10
116.8424804395394
 20
-161.404790541246
 10
116.8276665289528
 20
-161.4364854197103
 10
116.8104410515266
 20
-161.4957410620566
 97
        0
 97
        0
 92
        1
 93
        1
 72
     4
 94
        3
 73
     0
 74
     1
 95
       17
 96
       13
 40
0.0
 40
0.0
 40
0.0
 40
0.0
 40
1.0
 40
1.0
 40
1.0
 40
2.0
 40
2.0
 40
2.0
 40
3.0
 40
3.0
 40
3.0
 40
4.0
 40
4.0
 40
4.0
 40
4.0
 10
117.0199028570297
 20
-161.2969590525577
 10
116.8931233431726
 20
-161.2969590525577
 10
116.7914930263577
 20
-161.1953287357428
 10
116.7914930263577
 20
-161.0685492218857
 10
116.7914930263577
 20
-160.9414251984799
 10
116.8931233431726
 20
-160.8377278243739
 10
117.0199028570297
 20
-160.8377278243739
 10
117.1470268804355
 20
-160.8377278243739
 10
117.2507242545415
 20
-160.9414251984799
 10
117.2507242545415
 20
-161.0685492218857
 10
117.2507242545415
 20
-161.1953287357428
 10
117.1470268804355
 20
-161.2969590525577
 10
117.0199028570297
 20
-161.2969590525577
 97
        0
 97
        0
 92
        1
 93
        1
 72
     4
 94
        3
 73
     0
 74
     1
 95
       17
 96
       13
 40
0.0
 40
0.0
 40
0.0
 40
0.0
 40
1.0
 40
1.0
 40
1.0
 40
2.0
 40
2.0
 40
2.0
 40
3.0
 40
3.0
 40
3.0
 40
4.0
 40
4.0
 40
4.0
 40
4.0
 10
117.0178357997386
 20
-160.9669189050708
 10
116.9630587815231
 20
-160.9669189050708
 10
116.9186170497634
 20
-161.0113606368305
 10
116.9186170497634
 20
-161.0664821645945
 10
116.9186170497634
 20
-161.1233262401011
 10
116.9630587815231
 20
-161.1722465959917
 10
117.0219699143209
 20
-161.1722465959917
 10
117.0812255566672
 20
-161.1722465959917
 10
117.1215331738446
 20
-161.12125918281
 10
117.1215331738446
 20
-161.0685492218857
 10
117.1215331738446
 20
-161.0113606368305
 10
117.0750243847937
 20
-160.9669189050708
 10
117.0178357997386
 20
-160.9669189050708
 97
        0
 97
        0
 75
     2
 76
     1
 98
        0
  0
SPLINE
  5
129
330
F4
100
AcDbEntity
  8
_U+30EC_U+30A4_U+30E4_U+30FC 1
370
     0
100
AcDbSpline
210
0.0
220
0.0
230
1.0
 70
    11
 71
     3
 72
    50
 73
    46
 74
     0
 42
0.0000000001
 43
0.0000000001
 12
1.0
 22
0.0
 32
0.0
 13
1.0
 23
0.0
 33
0.0
 40
0.0
 40
0.0
 40
0.0
 40
0.0
 40
1.0
 40
1.0
 40
1.0
 40
2.0
 40
2.0
 40
2.0
 40
3.0
 40
3.0
 40
3.0
 40
4.0
 40
4.0
 40
4.0
 40
5.0
 40
5.0
 40
5.0
 40
6.0
 40
6.0
 40
6.0
 40
7.0
 40
7.0
 40
7.0
 40
8.0
 40
8.0
 40
8.0
 40
9.0
 40
9.0
 40
9.0
 40
10.0
 40
10.0
 40
10.0
 40
11.0
 40
11.0
 40
11.0
 40
12.0
 40
12.0
 40
12.0
 40
13.0
 40
13.0
 40
13.0
 40
14.0
 40
14.0
 40
14.0
 40
15.0
 40
15.0
 40
15.0
 40
15.0
 10
118.8151421143934
 20
-161.8047661270835
 30
0.0
 10
118.7365939373297
 20
-161.9821885445739
 30
0.0
 10
118.6012016847594
 20
-162.189583292786
 30
0.0
 10
118.463742374898
 20
-162.3294541694871
 30
0.0
 10
118.2945881865722
 20
-162.500675415104
 30
0.0
 10
118.1316351701199
 20
-162.5895588786234
 30
0.0
 10
117.8122748186372
 20
-162.7311523030672
 30
0.0
 10
117.8122748186372
 20
-162.7311523030672
 30
0.0
 10
117.6431206303114
 20
-162.5430500895726
 30
0.0
 10
117.6431206303114
 20
-162.5430500895726
 30
0.0
 10
117.8291557865149
 20
-162.5196234402729
 30
0.0
 10
118.0003770321319
 20
-162.4328070340446
 30
0.0
 10
118.1529947621284
 20
-162.3270426026474
 30
0.0
 10
118.4151665285559
 20
-162.1451415610262
 30
0.0
 10
118.6056803088903
 20
-161.831982381417
 30
0.0
 10
118.6542561552323
 20
-161.6500813397958
 30
0.0
 10
118.6542561552323
 20
-161.6500813397958
 30
0.0
 10
117.9834960642541
 20
-161.6500813397958
 30
0.0
 10
117.9834960642541
 20
-161.6500813397958
 30
0.0
 10
117.8250216719326
 20
-161.6500813397958
 30
0.0
 10
117.5328775747835
 20
-161.6586940785089
 30
0.0
 10
117.3806043543354
 20
-161.6755750463867
 30
0.0
 10
117.3806043543354
 20
-161.6755750463867
 30
0.0
 10
117.3806043543354
 20
-161.4471652157146
 30
0.0
 10
117.3806043543354
 20
-161.4471652157146
 30
0.0
 10
117.4147107996394
 20
-161.4533663875881
 30
0.0
 10
117.4398599966817
 20
-161.45991206901
 30
0.0
 10
117.4929144671545
 20
-161.4640461835923
 30
0.0
 10
117.5942002744209
 20
-161.4702473554658
 30
0.0
 10
117.7912597361772
 20
-161.4726589223054
 30
0.0
 10
117.8756645755658
 20
-161.4726589223054
 30
0.0
 10
117.8756645755658
 20
-161.4726589223054
 30
0.0
 10
118.3814045928005
 20
-161.4726589223054
 30
0.0
 10
118.3814045928005
 20
-161.4726589223054
 30
0.0
 10
118.4489284643114
 20
-161.4726589223054
 30
0.0
 10
118.595000512886
 20
-161.4681802981746
 30
0.0
 10
118.6563232125234
 20
-161.4619791263012
 30
0.0
 10
118.7283257081651
 20
-161.4533663875881
 30
0.0
 10
118.7558864720472
 20
-161.4385524770015
 30
0.0
 10
118.7896484078026
 20
-161.4154703372503
 30
0.0
 10
118.7896484078026
 20
-161.4154703372503
 30
0.0
 10
118.9546684815461
 20
-161.5825574682849
 30
0.0
 10
118.9546684815461
 20
-161.5825574682849
 30
0.0
 10
118.8847330431955
 20
-161.6500813397958
 30
0.0
 10
118.8382242541446
 20
-161.7537787139019
 30
0.0
 10
118.8151421143934
 20
-161.8047661270835
 30
0.0
  0
SPLINE
  5
12A
330
F4
100
AcDbEntity
  8
_U+30EC_U+30A4_U+30E4_U+30FC 1
370
     0
100
AcDbSpline
210
0.0
220
0.0
230
1.0
 70
    11
 71
     3
 72
    29
 73
    25
 74
     0
 42
0.0000000001
 43
0.0000000001
 12
1.0
 22
0.0
 32
0.0
 13
1.0
 23
0.0
 33
0.0
 40
0.0
 40
0.0
 40
0.0
 40
0.0
 40
1.0
 40
1.0
 40
1.0
 40
2.0
 40
2.0
 40
2.0
 40
3.0
 40
3.0
 40
3.0
 40
4.0
 40
4.0
 40
4.0
 40
5.0
 40
5.0
 40
5.0
 40
6.0
 40
6.0
 40
6.0
 40
7.0
 40
7.0
 40
7.0
 40
8.0
 40
8.0
 40
8.0
 40
8.0
 10
118.3221489504542
 20
-161.1784477678651
 30
0.0
 10
118.3221489504542
 20
-161.1784477678651
 30
0.0
 10
117.981429006963
 20
-161.1784477678651
 30
0.0
 10
117.981429006963
 20
-161.1784477678651
 30
0.0
 10
117.8673963464012
 20
-161.1784477678651
 30
0.0
 10
117.7509521189998
 20
-161.1825818824474
 30
0.0
 10
117.6365749488895
 20
-161.197395793034
 30
0.0
 10
117.6365749488895
 20
-161.197395793034
 30
0.0
 10
117.6365749488895
 20
-160.9879339875308
 30
0.0
 10
117.6365749488895
 20
-160.9879339875308
 30
0.0
 10
117.7550862335821
 20
-161.0027478981174
 30
0.0
 10
117.9287190460387
 20
-161.0072265222482
 30
0.0
 10
117.981429006963
 20
-161.0072265222482
 30
0.0
 10
117.981429006963
 20
-161.0072265222482
 30
0.0
 10
118.3221489504542
 20
-161.0072265222482
 30
0.0
 10
118.3221489504542
 20
-161.0072265222482
 30
0.0
 10
118.4385931778556
 20
-161.0072265222482
 30
0.0
 10
118.5546928957086
 20
-161.0027478981174
 30
0.0
 10
118.67113712311
 20
-160.9879339875308
 30
0.0
 10
118.67113712311
 20
-160.9879339875308
 30
0.0
 10
118.67113712311
 20
-161.197395793034
 30
0.0
 10
118.67113712311
 20
-161.197395793034
 30
0.0
 10
118.5209309599531
 20
-161.1784477678651
 30
0.0
 10
118.3369628610408
 20
-161.1784477678651
 30
0.0
 10
118.3221489504542
 20
-161.1784477678651
 30
0.0
  0
HATCH
  5
12B
330
F4
100
AcDbEntity
  8
_U+30EC_U+30A4_U+30E4_U+30FC 1
 62
     7
420
 16777215
100
AcDbHatch
 10
0.0
 20
0.0
 30
0.0
210
0.0
220
0.0
230
1.0
  2
SOLID
 70
     1
 71
     0
 91
        2
 92
        1
 93
        1
 72
     4
 94
        3
 73
     0
 74
     1
 95
       50
 96
       46
 40
0.0
 40
0.0
 40
0.0
 40
0.0
 40
1.0
 40
1.0
 40
1.0
 40
2.0
 40
2.0
 40
2.0
 40
3.0
 40
3.0
 40
3.0
 40
4.0
 40
4.0
 40
4.0
 40
5.0
 40
5.0
 40
5.0
 40
6.0
 40
6.0
 40
6.0
 40
7.0
 40
7.0
 40
7.0
 40
8.0
 40
8.0
 40
8.0
 40
9.0
 40
9.0
 40
9.0
 40
10.0
 40
10.0
 40
10.0
 40
11.0
 40
11.0
 40
11.0
 40
12.0
 40
12.0
 40
12.0
 40
13.0
 40
13.0
 40
13.0
 40
14.0
 40
14.0
 40
14.0
 40
15.0
 40
15.0
 40
15.0
 40
15.0
 10
118.8151421143934
 20
-161.8047661270835
 10
118.7365939373297
 20
-161.9821885445739
 10
118.6012016847594
 20
-162.189583292786
 10
118.463742374898
 20
-162.3294541694871
 10
118.2945881865722
 20
-162.500675415104
 10
118.1316351701199
 20
-162.5895588786234
 10
117.8122748186372
 20
-162.7311523030672
 10
117.8122748186372
 20
-162.7311523030672
 10
117.6431206303114
 20
-162.5430500895726
 10
117.6431206303114
 20
-162.5430500895726
 10
117.8291557865149
 20
-162.5196234402729
 10
118.0003770321319
 20
-162.4328070340446
 10
118.1529947621284
 20
-162.3270426026474
 10
118.4151665285559
 20
-162.1451415610262
 10
118.6056803088903
 20
-161.831982381417
 10
118.6542561552323
 20
-161.6500813397958
 10
118.6542561552323
 20
-161.6500813397958
 10
117.9834960642541
 20
-161.6500813397958
 10
117.9834960642541
 20
-161.6500813397958
 10
117.8250216719326
 20
-161.6500813397958
 10
117.5328775747835
 20
-161.6586940785089
 10
117.3806043543354
 20
-161.6755750463867
 10
117.3806043543354
 20
-161.6755750463867
 10
117.3806043543354
 20
-161.4471652157146
 10
117.3806043543354
 20
-161.4471652157146
 10
117.4147107996394
 20
-161.4533663875881
 10
117.4398599966817
 20
-161.45991206901
 10
117.4929144671545
 20
-161.4640461835923
 10
117.5942002744209
 20
-161.4702473554658
 10
117.7912597361772
 20
-161.4726589223054
 10
117.8756645755658
 20
-161.4726589223054
 10
117.8756645755658
 20
-161.4726589223054
 10
118.3814045928005
 20
-161.4726589223054
 10
118.3814045928005
 20
-161.4726589223054
 10
118.4489284643114
 20
-161.4726589223054
 10
118.595000512886
 20
-161.4681802981746
 10
118.6563232125234
 20
-161.4619791263012
 10
118.7283257081651
 20
-161.4533663875881
 10
118.7558864720472
 20
-161.4385524770015
 10
118.7896484078026
 20
-161.4154703372503
 10
118.7896484078026
 20
-161.4154703372503
 10
118.9546684815461
 20
-161.5825574682849
 10
118.9546684815461
 20
-161.5825574682849
 10
118.8847330431955
 20
-161.6500813397958
 10
118.8382242541446
 20
-161.7537787139019
 10
118.8151421143934
 20
-161.8047661270835
 97
        0
 97
        0
 92
        1
 93
        1
 72
     4
 94
        3
 73
     0
 74
     1
 95
       29
 96
       25
 40
0.0
 40
0.0
 40
0.0
 40
0.0
 40
1.0
 40
1.0
 40
1.0
 40
2.0
 40
2.0
 40
2.0
 40
3.0
 40
3.0
 40
3.0
 40
4.0
 40
4.0
 40
4.0
 40
5.0
 40
5.0
 40
5.0
 40
6.0
 40
6.0
 40
6.0
 40
7.0
 40
7.0
 40
7.0
 40
8.0
 40
8.0
 40
8.0
 40
8.0
 10
118.3221489504542
 20
-161.1784477678651
 10
118.3221489504542
 20
-161.1784477678651
 10
117.981429006963
 20
-161.1784477678651
 10
117.981429006963
 20
-161.1784477678651
 10
117.8673963464012
 20
-161.1784477678651
 10
117.7509521189998
 20
-161.1825818824474
 10
117.6365749488895
 20
-161.197395793034
 10
117.6365749488895
 20
-161.197395793034
 10
117.6365749488895
 20
-160.9879339875308
 10
117.6365749488895
 20
-160.9879339875308
 10
117.7550862335821
 20
-161.0027478981174
 10
117.9287190460387
 20
-161.0072265222482
 10
117.981429006963
 20
-161.0072265222482
 10
117.981429006963
 20
-161.0072265222482
 10
118.3221489504542
 20
-161.0072265222482
 10
118.3221489504542
 20
-161.0072265222482
 10
118.4385931778556
 20
-161.0072265222482
 10
118.5546928957086
 20
-161.0027478981174
 10
118.67113712311
 20
-160.9879339875308
 10
118.67113712311
 20
-160.9879339875308
 10
118.67113712311
 20
-161.197395793034
 10
118.67113712311
 20
-161.197395793034
 10
118.5209309599531
 20
-161.1784477678651
 10
118.3369628610408
 20
-161.1784477678651
 10
118.3221489504542
 20
-161.1784477678651
 97
        0
 97
        0
 75
     2
 76
     1
 98
        0
  0
SPLINE
  5
12C
330
F4
100
AcDbEntity
  8
_U+30EC_U+30A4_U+30E4_U+30FC 1
370
     0
100
AcDbSpline
210
0.0
220
0.0
230
1.0
 70
    11
 71
     3
 72
    50
 73
    46
 74
     0
 42
0.0000000001
 43
0.0000000001
 12
1.0
 22
0.0
 32
0.0
 13
1.0
 23
0.0
 33
0.0
 40
0.0
 40
0.0
 40
0.0
 40
0.0
 40
1.0
 40
1.0
 40
1.0
 40
2.0
 40
2.0
 40
2.0
 40
3.0
 40
3.0
 40
3.0
 40
4.0
 40
4.0
 40
4.0
 40
5.0
 40
5.0
 40
5.0
 40
6.0
 40
6.0
 40
6.0
 40
7.0
 40
7.0
 40
7.0
 40
8.0
 40
8.0
 40
8.0
 40
9.0
 40
9.0
 40
9.0
 40
10.0
 40
10.0
 40
10.0
 40
11.0
 40
11.0
 40
11.0
 40
12.0
 40
12.0
 40
12.0
 40
13.0
 40
13.0
 40
13.0
 40
14.0
 40
14.0
 40
14.0
 40
15.0
 40
15.0
 40
15.0
 40
15.0
 10
120.5252875132715
 20
-161.1636338572785
 30
0.0
 10
120.3158257077683
 20
-161.377229777364
 30
0.0
 10
120.2441677216751
 20
-161.4492322730057
 30
0.0
 10
120.1022297876828
 20
-161.5677435576983
 30
0.0
 10
120.1022297876828
 20
-161.5677435576983
 30
0.0
 10
120.1022297876828
 20
-162.1348062745705
 30
0.0
 10
120.1022297876828
 20
-162.1348062745705
 30
0.0
 10
120.1022297876828
 20
-162.2850124377274
 30
0.0
 10
120.1087754691048
 20
-162.3039604628962
 30
0.0
 10
120.1129095836871
 20
-162.4817273899351
 30
0.0
 10
120.1149766409782
 20
-162.6126410183746
 30
0.0
 10
120.1211778128517
 20
-162.6615613742652
 30
0.0
 10
120.1277234942736
 20
-162.7208170166115
 30
0.0
 10
120.1277234942736
 20
-162.7208170166115
 30
0.0
 10
119.9013807208927
 20
-162.7208170166115
 30
0.0
 10
119.9013807208927
 20
-162.7208170166115
 30
0.0
 10
119.905514835475
 20
-162.6763752848518
 30
0.0
 10
119.9096489500573
 20
-162.6295219862523
 30
0.0
 10
119.9096489500573
 20
-162.6212537570877
 30
0.0
 10
119.9096489500573
 20
-162.5409830322814
 30
0.0
 10
119.9141275741881
 20
-162.189583292786
 30
0.0
 10
119.9141275741881
 20
-162.1175807971442
 30
0.0
 10
119.9141275741881
 20
-162.1175807971442
 30
0.0
 10
119.9141275741881
 20
-161.7114040394333
 30
0.0
 10
119.9141275741881
 20
-161.7114040394333
 30
0.0
 10
119.732226532567
 20
-161.8364610055478
 30
0.0
 10
119.5375786376503
 20
-161.9463595515273
 30
0.0
 10
119.3343180040206
 20
-162.0331759577556
 30
0.0
 10
119.3343180040206
 20
-162.0331759577556
 30
0.0
 10
119.1314018799394
 20
-161.8702229413033
 30
0.0
 10
119.1314018799394
 20
-161.8702229413033
 30
0.0
 10
119.2540472792143
 20
-161.8343939482567
 30
0.0
 10
119.5100178737683
 20
-161.7603243953238
 30
0.0
 10
119.8548719318418
 20
-161.5043538007698
 30
0.0
 10
120.0705349092185
 20
-161.3455348988997
 30
0.0
 10
120.263115746844
 20
-161.1574326854051
 30
0.0
 10
120.415388967292
 20
-160.9372910838976
 30
0.0
 10
120.415388967292
 20
-160.9372910838976
 30
0.0
 10
120.6079698049175
 20
-161.0812960751811
 30
0.0
 10
120.6079698049175
 20
-161.0812960751811
 30
0.0
 10
120.6207166582129
 20
-161.0916313616368
 30
0.0
 10
120.6289848873775
 20
-161.1064452722234
 30
0.0
 10
120.6289848873775
 20
-161.1191921255188
 30
0.0
 10
120.6289848873775
 20
-161.1594997426963
 30
0.0
 10
120.5910888370397
 20
-161.1594997426963
 30
0.0
 10
120.5252875132715
 20
-161.1636338572785
 30
0.0
  0
HATCH
  5
12D
330
F4
100
AcDbEntity
  8
_U+30EC_U+30A4_U+30E4_U+30FC 1
 62
     7
420
 16777215
100
AcDbHatch
 10
0.0
 20
0.0
 30
0.0
210
0.0
220
0.0
230
1.0
  2
SOLID
 70
     1
 71
     0
 91
        1
 92
        1
 93
        1
 72
     4
 94
        3
 73
     0
 74
     1
 95
       50
 96
       46
 40
0.0
 40
0.0
 40
0.0
 40
0.0
 40
1.0
 40
1.0
 40
1.0
 40
2.0
 40
2.0
 40
2.0
 40
3.0
 40
3.0
 40
3.0
 40
4.0
 40
4.0
 40
4.0
 40
5.0
 40
5.0
 40
5.0
 40
6.0
 40
6.0
 40
6.0
 40
7.0
 40
7.0
 40
7.0
 40
8.0
 40
8.0
 40
8.0
 40
9.0
 40
9.0
 40
9.0
 40
10.0
 40
10.0
 40
10.0
 40
11.0
 40
11.0
 40
11.0
 40
12.0
 40
12.0
 40
12.0
 40
13.0
 40
13.0
 40
13.0
 40
14.0
 40
14.0
 40
14.0
 40
15.0
 40
15.0
 40
15.0
 40
15.0
 10
120.5252875132715
 20
-161.1636338572785
 10
120.3158257077683
 20
-161.377229777364
 10
120.2441677216751
 20
-161.4492322730057
 10
120.1022297876828
 20
-161.5677435576983
 10
120.1022297876828
 20
-161.5677435576983
 10
120.1022297876828
 20
-162.1348062745705
 10
120.1022297876828
 20
-162.1348062745705
 10
120.1022297876828
 20
-162.2850124377274
 10
120.1087754691048
 20
-162.3039604628962
 10
120.1129095836871
 20
-162.4817273899351
 10
120.1149766409782
 20
-162.6126410183746
 10
120.1211778128517
 20
-162.6615613742652
 10
120.1277234942736
 20
-162.7208170166115
 10
120.1277234942736
 20
-162.7208170166115
 10
119.9013807208927
 20
-162.7208170166115
 10
119.9013807208927
 20
-162.7208170166115
 10
119.905514835475
 20
-162.6763752848518
 10
119.9096489500573
 20
-162.6295219862523
 10
119.9096489500573
 20
-162.6212537570877
 10
119.9096489500573
 20
-162.5409830322814
 10
119.9141275741881
 20
-162.189583292786
 10
119.9141275741881
 20
-162.1175807971442
 10
119.9141275741881
 20
-162.1175807971442
 10
119.9141275741881
 20
-161.7114040394333
 10
119.9141275741881
 20
-161.7114040394333
 10
119.732226532567
 20
-161.8364610055478
 10
119.5375786376503
 20
-161.9463595515273
 10
119.3343180040206
 20
-162.0331759577556
 10
119.3343180040206
 20
-162.0331759577556
 10
119.1314018799394
 20
-161.8702229413033
 10
119.1314018799394
 20
-161.8702229413033
 10
119.2540472792143
 20
-161.8343939482567
 10
119.5100178737683
 20
-161.7603243953238
 10
119.8548719318418
 20
-161.5043538007698
 10
120.0705349092185
 20
-161.3455348988997
 10
120.263115746844
 20
-161.1574326854051
 10
120.415388967292
 20
-160.9372910838976
 10
120.415388967292
 20
-160.9372910838976
 10
120.6079698049175
 20
-161.0812960751811
 10
120.6079698049175
 20
-161.0812960751811
 10
120.6207166582129
 20
-161.0916313616368
 10
120.6289848873775
 20
-161.1064452722234
 10
120.6289848873775
 20
-161.1191921255188
 10
120.6289848873775
 20
-161.1594997426963
 10
120.5910888370397
 20
-161.1594997426963
 10
120.5252875132715
 20
-161.1636338572785
 97
        0
 97
        0
 75
     2
 76
     1
 98
        0
  0
SPLINE
  5
12E
330
F4
100
AcDbEntity
  8
_U+30EC_U+30A4_U+30E4_U+30FC 1
370
     0
100
AcDbSpline
210
0.0
220
0.0
230
1.0
 70
    11
 71
     3
 72
    50
 73
    46
 74
     0
 42
0.0000000001
 43
0.0000000001
 12
1.0
 22
0.0
 32
0.0
 13
1.0
 23
0.0
 33
0.0
 40
0.0
 40
0.0
 40
0.0
 40
0.0
 40
1.0
 40
1.0
 40
1.0
 40
2.0
 40
2.0
 40
2.0
 40
3.0
 40
3.0
 40
3.0
 40
4.0
 40
4.0
 40
4.0
 40
5.0
 40
5.0
 40
5.0
 40
6.0
 40
6.0
 40
6.0
 40
7.0
 40
7.0
 40
7.0
 40
8.0
 40
8.0
 40
8.0
 40
9.0
 40
9.0
 40
9.0
 40
10.0
 40
10.0
 40
10.0
 40
11.0
 40
11.0
 40
11.0
 40
12.0
 40
12.0
 40
12.0
 40
13.0
 40
13.0
 40
13.0
 40
14.0
 40
14.0
 40
14.0
 40
15.0
 40
15.0
 40
15.0
 40
15.0
 10
122.2337103644069
 20
-161.6903889569732
 30
0.0
 10
122.1723876647694
 20
-161.762391452615
 30
0.0
 10
121.9119384460845
 20
-162.0796847468065
 30
0.0
 10
121.8550943705779
 20
-162.1430745037351
 30
0.0
 10
121.9394992099665
 20
-162.2405707059677
 30
0.0
 10
121.9904866231482
 20
-162.3039604628962
 30
0.0
 10
122.055943437368
 20
-162.3949109837068
 30
0.0
 10
122.055943437368
 20
-162.3949109837068
 30
0.0
 10
121.8719753384556
 20
-162.5323702935683
 30
0.0
 10
121.8719753384556
 20
-162.5323702935683
 30
0.0
 10
121.7365830858853
 20
-162.320841430774
 30
0.0
 10
121.5650173307199
 20
-162.0965657146842
 30
0.0
 10
121.271150685828
 20
-161.8977837051853
 30
0.0
 10
121.271150685828
 20
-161.8977837051853
 30
0.0
 10
121.4192897916938
 20
-161.7434434274461
 30
0.0
 10
121.4192897916938
 20
-161.7434434274461
 30
0.0
 10
121.5291883376733
 20
-161.8237141522524
 30
0.0
 10
121.6328857117793
 20
-161.9125976157719
 30
0.0
 10
121.7300374044633
 20
-162.0076822511648
 30
0.0
 10
121.7979057855228
 20
-161.9315456409407
 30
0.0
 10
122.000821909604
 20
-161.6883218996821
 30
0.0
 10
122.1341471048831
 20
-161.45991206901
 30
0.0
 10
122.1341471048831
 20
-161.45991206901
 30
0.0
 10
121.4613199566138
 20
-161.45991206901
 30
0.0
 10
121.4613199566138
 20
-161.45991206901
 30
0.0
 10
121.3366075000478
 20
-161.45991206901
 30
0.0
 10
121.084771020076
 20
-161.4681802981746
 30
0.0
 10
120.8753092145729
 20
-161.4788600941789
 30
0.0
 10
120.8753092145729
 20
-161.4788600941789
 30
0.0
 10
120.8753092145729
 20
-161.2587184926714
 30
0.0
 10
120.8753092145729
 20
-161.2587184926714
 30
0.0
 10
121.0596218230337
 20
-161.2780110273888
 30
0.0
 10
121.2646050044061
 20
-161.2821451419711
 30
0.0
 10
121.4530517274492
 20
-161.2821451419711
 30
0.0
 10
121.4530517274492
 20
-161.2821451419711
 30
0.0
 10
121.9563801778442
 20
-161.2821451419711
 30
0.0
 10
121.9563801778442
 20
-161.2821451419711
 30
0.0
 10
122.2950330640443
 20
-161.2821451419711
 30
0.0
 10
122.339474795804
 20
-161.2673312313846
 30
0.0
 10
122.4218125779015
 20
-161.2270236142071
 30
0.0
 10
122.4218125779015
 20
-161.2270236142071
 30
0.0
 10
122.5888997089361
 20
-161.3858425160772
 30
0.0
 10
122.5888997089361
 20
-161.3858425160772
 30
0.0
 10
122.4366264884881
 20
-161.4578450117189
 30
0.0
 10
122.2929660067531
 20
-161.6204535186227
 30
0.0
 10
122.2337103644069
 20
-161.6903889569732
 30
0.0
  0
HATCH
  5
12F
330
F4
100
AcDbEntity
  8
_U+30EC_U+30A4_U+30E4_U+30FC 1
 62
     7
420
 16777215
100
AcDbHatch
 10
0.0
 20
0.0
 30
0.0
210
0.0
220
0.0
230
1.0
  2
SOLID
 70
     1
 71
     0
 91
        1
 92
        1
 93
        1
 72
     4
 94
        3
 73
     0
 74
     1
 95
       50
 96
       46
 40
0.0
 40
0.0
 40
0.0
 40
0.0
 40
1.0
 40
1.0
 40
1.0
 40
2.0
 40
2.0
 40
2.0
 40
3.0
 40
3.0
 40
3.0
 40
4.0
 40
4.0
 40
4.0
 40
5.0
 40
5.0
 40
5.0
 40
6.0
 40
6.0
 40
6.0
 40
7.0
 40
7.0
 40
7.0
 40
8.0
 40
8.0
 40
8.0
 40
9.0
 40
9.0
 40
9.0
 40
10.0
 40
10.0
 40
10.0
 40
11.0
 40
11.0
 40
11.0
 40
12.0
 40
12.0
 40
12.0
 40
13.0
 40
13.0
 40
13.0
 40
14.0
 40
14.0
 40
14.0
 40
15.0
 40
15.0
 40
15.0
 40
15.0
 10
122.2337103644069
 20
-161.6903889569732
 10
122.1723876647694
 20
-161.762391452615
 10
121.9119384460845
 20
-162.0796847468065
 10
121.8550943705779
 20
-162.1430745037351
 10
121.9394992099665
 20
-162.2405707059677
 10
121.9904866231482
 20
-162.3039604628962
 10
122.055943437368
 20
-162.3949109837068
 10
122.055943437368
 20
-162.3949109837068
 10
121.8719753384556
 20
-162.5323702935683
 10
121.8719753384556
 20
-162.5323702935683
 10
121.7365830858853
 20
-162.320841430774
 10
121.5650173307199
 20
-162.0965657146842
 10
121.271150685828
 20
-161.8977837051853
 10
121.271150685828
 20
-161.8977837051853
 10
121.4192897916938
 20
-161.7434434274461
 10
121.4192897916938
 20
-161.7434434274461
 10
121.5291883376733
 20
-161.8237141522524
 10
121.6328857117793
 20
-161.9125976157719
 10
121.7300374044633
 20
-162.0076822511648
 10
121.7979057855228
 20
-161.9315456409407
 10
122.000821909604
 20
-161.6883218996821
 10
122.1341471048831
 20
-161.45991206901
 10
122.1341471048831
 20
-161.45991206901
 10
121.4613199566138
 20
-161.45991206901
 10
121.4613199566138
 20
-161.45991206901
 10
121.3366075000478
 20
-161.45991206901
 10
121.084771020076
 20
-161.4681802981746
 10
120.8753092145729
 20
-161.4788600941789
 10
120.8753092145729
 20
-161.4788600941789
 10
120.8753092145729
 20
-161.2587184926714
 10
120.8753092145729
 20
-161.2587184926714
 10
121.0596218230337
 20
-161.2780110273888
 10
121.2646050044061
 20
-161.2821451419711
 10
121.4530517274492
 20
-161.2821451419711
 10
121.4530517274492
 20
-161.2821451419711
 10
121.9563801778442
 20
-161.2821451419711
 10
121.9563801778442
 20
-161.2821451419711
 10
122.2950330640443
 20
-161.2821451419711
 10
122.339474795804
 20
-161.2673312313846
 10
122.4218125779015
 20
-161.2270236142071
 10
122.4218125779015
 20
-161.2270236142071
 10
122.5888997089361
 20
-161.3858425160772
 10
122.5888997089361
 20
-161.3858425160772
 10
122.4366264884881
 20
-161.4578450117189
 10
122.2929660067531
 20
-161.6204535186227
 10
122.2337103644069
 20
-161.6903889569732
 97
        0
 97
        0
 75
     2
 76
     1
 98
        0
  0
SPLINE
  5
130
330
F4
100
AcDbEntity
  8
_U+30EC_U+30A4_U+30E4_U+30FC 1
370
     0
100
AcDbSpline
210
0.0
220
0.0
230
1.0
 70
    11
 71
     3
 72
    29
 73
    25
 74
     0
 42
0.0000000001
 43
0.0000000001
 12
1.0
 22
0.0
 32
0.0
 13
1.0
 23
0.0
 33
0.0
 40
0.0
 40
0.0
 40
0.0
 40
0.0
 40
1.0
 40
1.0
 40
1.0
 40
2.0
 40
2.0
 40
2.0
 40
3.0
 40
3.0
 40
3.0
 40
4.0
 40
4.0
 40
4.0
 40
5.0
 40
5.0
 40
5.0
 40
6.0
 40
6.0
 40
6.0
 40
7.0
 40
7.0
 40
7.0
 40
8.0
 40
8.0
 40
8.0
 40
8.0
 10
123.8573838666051
 20
-161.9336126982319
 30
0.0
 10
123.8573838666051
 20
-161.9336126982319
 30
0.0
 10
123.373003441379
 20
-161.9336126982319
 30
0.0
 10
123.373003441379
 20
-161.9336126982319
 30
0.0
 10
123.345442677497
 20
-161.9336126982319
 30
0.0
 10
123.0281493833055
 20
-161.9336126982319
 30
0.0
 10
122.8166205205111
 20
-161.9591064048227
 30
0.0
 10
122.8166205205111
 20
-161.9591064048227
 30
0.0
 10
122.8166205205111
 20
-161.7286295168595
 30
0.0
 10
122.8166205205111
 20
-161.7286295168595
 30
0.0
 10
122.9750949128326
 20
-161.7517116566107
 30
0.0
 10
123.1656086931669
 20
-161.7537787139019
 30
0.0
 10
123.373003441379
 20
-161.7537787139019
 30
0.0
 10
123.373003441379
 20
-161.7537787139019
 30
0.0
 10
123.8573838666051
 20
-161.7537787139019
 30
0.0
 10
123.8573838666051
 20
-161.7537787139019
 30
0.0
 10
124.0434190228086
 20
-161.7537787139019
 30
0.0
 10
124.2297986885606
 20
-161.7517116566107
 30
0.0
 10
124.413766787473
 20
-161.7286295168595
 30
0.0
 10
124.413766787473
 20
-161.7286295168595
 30
0.0
 10
124.413766787473
 20
-161.9591064048227
 30
0.0
 10
124.413766787473
 20
-161.9591064048227
 30
0.0
 10
124.2297986885606
 20
-161.935679755523
 30
0.0
 10
123.9820963231711
 20
-161.9336126982319
 30
0.0
 10
123.8573838666051
 20
-161.9336126982319
 30
0.0
  0
HATCH
  5
131
330
F4
100
AcDbEntity
  8
_U+30EC_U+30A4_U+30E4_U+30FC 1
 62
     7
420
 16777215
100
AcDbHatch
 10
0.0
 20
0.0
 30
0.0
210
0.0
220
0.0
230
1.0
  2
SOLID
 70
     1
 71
     0
 91
        1
 92
        1
 93
        1
 72
     4
 94
        3
 73
     0
 74
     1
 95
       29
 96
       25
 40
0.0
 40
0.0
 40
0.0
 40
0.0
 40
1.0
 40
1.0
 40
1.0
 40
2.0
 40
2.0
 40
2.0
 40
3.0
 40
3.0
 40
3.0
 40
4.0
 40
4.0
 40
4.0
 40
5.0
 40
5.0
 40
5.0
 40
6.0
 40
6.0
 40
6.0
 40
7.0
 40
7.0
 40
7.0
 40
8.0
 40
8.0
 40
8.0
 40
8.0
 10
123.8573838666051
 20
-161.9336126982319
 10
123.8573838666051
 20
-161.9336126982319
 10
123.373003441379
 20
-161.9336126982319
 10
123.373003441379
 20
-161.9336126982319
 10
123.345442677497
 20
-161.9336126982319
 10
123.0281493833055
 20
-161.9336126982319
 10
122.8166205205111
 20
-161.9591064048227
 10
122.8166205205111
 20
-161.9591064048227
 10
122.8166205205111
 20
-161.7286295168595
 10
122.8166205205111
 20
-161.7286295168595
 10
122.9750949128326
 20
-161.7517116566107
 10
123.1656086931669
 20
-161.7537787139019
 10
123.373003441379
 20
-161.7537787139019
 10
123.373003441379
 20
-161.7537787139019
 10
123.8573838666051
 20
-161.7537787139019
 10
123.8573838666051
 20
-161.7537787139019
 10
124.0434190228086
 20
-161.7537787139019
 10
124.2297986885606
 20
-161.7517116566107
 10
124.413766787473
 20
-161.7286295168595
 10
124.413766787473
 20
-161.7286295168595
 10
124.413766787473
 20
-161.9591064048227
 10
124.413766787473
 20
-161.9591064048227
 10
124.2297986885606
 20
-161.935679755523
 10
123.9820963231711
 20
-161.9336126982319
 10
123.8573838666051
 20
-161.9336126982319
 97
        0
 97
        0
 75
     2
 76
     1
 98
        0
  0
ENDBLK
  5
F7
330
F4
100
AcDbEntity
  8
0
100
AcDbBlockEnd
  0
BLOCK
  5
134
330
132
100
AcDbEntity
  8
0
100
AcDbBlockBegin
  2
block 8
 70
     0
 10
0.0
 20
0.0
 30
0.0
  3
block 8
  1

  0
POLYLINE
  5
136
330
132
100
AcDbEntity
  8
_U+30EC_U+30A4_U+30E4_U+30FC 1
  6
AI-Linetype-1
 62
   154
420
    23468
370
    25
100
AcDb2dPolyline
 66
     1
 10
0.0
 20
0.0
 30
0.0
  0
VERTEX
  5
137
330
136
100
AcDbEntity
  8
_U+30EC_U+30A4_U+30E4_U+30FC 1
  6
AI-Linetype-1
 62
   154
420
    23468
370
    25
100
AcDbVertex
100
AcDb2dVertex
 10
89.36231299795524
 20
-140.5137171870938
 30
0.0
  0
VERTEX
  5
138
330
136
100
AcDbEntity
  8
_U+30EC_U+30A4_U+30E4_U+30FC 1
  6
AI-Linetype-1
 62
   154
420
    23468
370
    25
100
AcDbVertex
100
AcDb2dVertex
 10
94.86243591319096
 20
-140.5137171870938
 30
0.0
  0
SEQEND
  5
13A
330
136
100
AcDbEntity
  8
_U+30EC_U+30A4_U+30E4_U+30FC 1
  6
AI-Linetype-1
 62
   154
420
    23468
370
    25
  0
POLYLINE
  5
13B
330
132
100
AcDbEntity
  8
_U+30EC_U+30A4_U+30E4_U+30FC 1
  6
AI-Linetype-2
 62
   154
420
    23468
370
    25
100
AcDb2dPolyline
 66
     1
 10
0.0
 20
0.0
 30
0.0
  0
VERTEX
  5
13C
330
13B
100
AcDbEntity
  8
_U+30EC_U+30A4_U+30E4_U+30FC 1
  6
AI-Linetype-2
 62
   154
420
    23468
370
    25
100
AcDbVertex
100
AcDb2dVertex
 10
112.3621182445147
 20
-154.87082023906
 30
0.0
  0
VERTEX
  5
13D
330
13B
100
AcDbEntity
  8
_U+30EC_U+30A4_U+30E4_U+30FC 1
  6
AI-Linetype-2
 62
   154
420
    23468
370
    25
100
AcDbVertex
100
AcDb2dVertex
 10
94.8620831354222
 20
-155.5708724611076
 30
0.0
  0
VERTEX
  5
13E
330
13B
100
AcDbEntity
  8
_U+30EC_U+30A4_U+30E4_U+30FC 1
  6
AI-Linetype-2
 62
   154
420
    23468
370
    25
100
AcDbVertex
100
AcDb2dVertex
 10
94.8620831354222
 20
-140.5709377426349
 30
0.0
  0
VERTEX
  5
13F
330
13B
100
AcDbEntity
  8
_U+30EC_U+30A4_U+30E4_U+30FC 1
  6
AI-Linetype-2
 62
   154
420
    23468
370
    25
100
AcDbVertex
100
AcDb2dVertex
 10
94.8620831354222
 20
-140.5137171870938
 30
0.0
  0
SEQEND
  5
141
330
13B
100
AcDbEntity
  8
_U+30EC_U+30A4_U+30E4_U+30FC 1
  6
AI-Linetype-2
 62
   154
420
    23468
370
    25
  0
ENDBLK
  5
135
330
132
100
AcDbEntity
  8
0
100
AcDbBlockEnd
  0
ENDSEC
  0
SECTION
  2
ENTITIES
  0
POLYLINE
  5
41
330
1F
100
AcDbEntity
  8
_U+30EC_U+30A4_U+30E4_U+30FC 1
 62
     7
420
 16777215
370
    25
100
AcDb2dPolyline
 66
     1
 10
0.0
 20
0.0
 30
0.0
  0
VERTEX
  5
42
330
41
100
AcDbEntity
  8
_U+30EC_U+30A4_U+30E4_U+30FC 1
 62
     7
420
 16777215
370
    25
100
AcDbVertex
100
AcDb2dVertex
 10
89.36266577572401
 20
-138.9131291319385
 30
0.0
  0
VERTEX
  5
43
330
41
100
AcDbEntity
  8
_U+30EC_U+30A4_U+30E4_U+30FC 1
 62
     7
420
 16777215
370
    25
100
AcDbVertex
100
AcDb2dVertex
 10
96.46231837237457
 20
-138.9131291319385
 30
0.0
  0
SEQEND
  5
44
330
41
100
AcDbEntity
  8
_U+30EC_U+30A4_U+30E4_U+30FC 1
 62
     7
420
 16777215
370
    25
  0
POLYLINE
  5
45
330
1F
100
AcDbEntity
  8
_U+30EC_U+30A4_U+30E4_U+30FC 1
 62
     7
420
 16777215
370
    25
100
AcDb2dPolyline
 66
     1
 10
0.0
 20
0.0
 30
0.0
  0
VERTEX
  5
46
330
45
100
AcDbEntity
  8
_U+30EC_U+30A4_U+30E4_U+30FC 1
 62
     7
420
 16777215
370
    25
100
AcDbVertex
100
AcDb2dVertex
 10
95.36196923378014
 20
-140.071051631649
 30
0.0
  0
VERTEX
  5
47
330
45
100
AcDbEntity
  8
_U+30EC_U+30A4_U+30E4_U+30FC 1
 62
     7
420
 16777215
370
    25
100
AcDbVertex
100
AcDb2dVertex
 10
95.36196923378014
 20
-155.070986350121
 30
0.0
  0
SEQEND
  5
48
330
45
100
AcDbEntity
  8
_U+30EC_U+30A4_U+30E4_U+30FC 1
 62
     7
420
 16777215
370
    25
  0
POLYLINE
  5
49
330
1F
100
AcDbEntity
  8
_U+30EC_U+30A4_U+30E4_U+30FC 1
 62
     7
420
 16777215
370
    25
100
AcDb2dPolyline
 66
     1
 10
0.0
 20
0.0
 30
0.0
  0
VERTEX
  5
4A
330
49
100
AcDbEntity
  8
_U+30EC_U+30A4_U+30E4_U+30FC 1
 62
     7
420
 16777215
370
    25
100
AcDbVertex
100
AcDb2dVertex
 10
89.36199549796333
 20
-140.0135135761079
 30
0.0
  0
VERTEX
  5
4B
330
49
100
AcDbEntity
  8
_U+30EC_U+30A4_U+30E4_U+30FC 1
 62
     7
420
 16777215
370
    25
100
AcDbVertex
100
AcDb2dVertex
 10
95.36196923378014
 20
-140.0135135761079
 30
0.0
  0
SEQEND
  5
4C
330
49
100
AcDbEntity
  8
_U+30EC_U+30A4_U+30E4_U+30FC 1
 62
     7
420
 16777215
370
    25
  0
POLYLINE
  5
4D
330
1F
100
AcDbEntity
  8
_U+30EC_U+30A4_U+30E4_U+30FC 1
 62
     7
420
 16777215
370
    25
100
AcDb2dPolyline
 66
     1
 10
0.0
 20
0.0
 30
0.0
  0
VERTEX
  5
4E
330
4D
100
AcDbEntity
  8
_U+30EC_U+30A4_U+30E4_U+30FC 1
 62
     7
420
 16777215
370
    25
100
AcDbVertex
100
AcDb2dVertex
 10
89.36199549796333
 20
-138.9131291319385
 30
0.0
  0
VERTEX
  5
4F
330
4D
100
AcDbEntity
  8
_U+30EC_U+30A4_U+30E4_U+30FC 1
 62
     7
420
 16777215
370
    25
100
AcDbVertex
100
AcDb2dVertex
 10
89.36199549796333
 20
-140.0135135761079
 30
0.0
  0
SEQEND
  5
50
330
4D
100
AcDbEntity
  8
_U+30EC_U+30A4_U+30E4_U+30FC 1
 62
     7
420
 16777215
370
    25
  0
POLYLINE
  5
51
330
1F
100
AcDbEntity
  8
_U+30EC_U+30A4_U+30E4_U+30FC 1
 62
     7
420
 16777215
370
    25
100
AcDb2dPolyline
 66
     1
 10
0.0
 20
0.0
 30
0.0
  0
VERTEX
  5
52
330
51
100
AcDbEntity
  8
_U+30EC_U+30A4_U+30E4_U+30FC 1
 62
     7
420
 16777215
370
    25
100
AcDbVertex
100
AcDb2dVertex
 10
96.46231837237457
 20
-138.9713727430351
 30
0.0
  0
VERTEX
  5
53
330
51
100
AcDbEntity
  8
_U+30EC_U+30A4_U+30E4_U+30FC 1
 62
     7
420
 16777215
370
    25
100
AcDbVertex
100
AcDb2dVertex
 10
96.46231837237457
 20
-153.9713074615075
 30
0.0
  0
SEQEND
  5
54
330
51
100
AcDbEntity
  8
_U+30EC_U+30A4_U+30E4_U+30FC 1
 62
     7
420
 16777215
370
    25
  0
POLYLINE
  5
55
330
1F
100
AcDbEntity
  8
_U+30EC_U+30A4_U+30E4_U+30FC 1
 62
     7
420
 16777215
370
    25
100
AcDb2dPolyline
 66
     1
 10
0.0
 20
0.0
 30
0.0
  0
VERTEX
  5
56
330
55
100
AcDbEntity
  8
_U+30EC_U+30A4_U+30E4_U+30FC 1
 62
     7
420
 16777215
370
    25
100
AcDbVertex
100
AcDb2dVertex
 10
112.3621182445147
 20
-153.9713074615075
 30
0.0
  0
VERTEX
  5
57
330
55
100
AcDbEntity
  8
_U+30EC_U+30A4_U+30E4_U+30FC 1
 62
     7
420
 16777215
370
    25
100
AcDbVertex
100
AcDb2dVertex
 10
112.3621182445147
 20
-154.370934128074
 30
0.0
  0
SEQEND
  5
58
330
55
100
AcDbEntity
  8
_U+30EC_U+30A4_U+30E4_U+30FC 1
 62
     7
420
 16777215
370
    25
  0
POLYLINE
  5
59
330
1F
100
AcDbEntity
  8
_U+30EC_U+30A4_U+30E4_U+30FC 1
 62
     7
420
 16777215
370
    25
100
AcDb2dPolyline
 66
     1
 10
0.0
 20
0.0
 30
0.0
  0
VERTEX
  5
5A
330
59
100
AcDbEntity
  8
_U+30EC_U+30A4_U+30E4_U+30FC 1
 62
     7
420
 16777215
370
    25
100
AcDbVertex
100
AcDb2dVertex
 10
96.46231837237457
 20
-153.9713074615075
 30
0.0
  0
VERTEX
  5
5B
330
59
100
AcDbEntity
  8
_U+30EC_U+30A4_U+30E4_U+30FC 1
 62
     7
420
 16777215
370
    25
100
AcDbVertex
100
AcDb2dVertex
 10
112.3621182445147
 20
-153.9713074615075
 30
0.0
  0
SEQEND
  5
5C
330
59
100
AcDbEntity
  8
_U+30EC_U+30A4_U+30E4_U+30FC 1
 62
     7
420
 16777215
370
    25
  0
POLYLINE
  5
5D
330
1F
100
AcDbEntity
  8
_U+30EC_U+30A4_U+30E4_U+30FC 1
 62
     7
420
 16777215
370
    25
100
AcDb2dPolyline
 66
     1
 10
0.0
 20
0.0
 30
0.0
  0
VERTEX
  5
5E
330
5D
100
AcDbEntity
  8
_U+30EC_U+30A4_U+30E4_U+30FC 1
 62
     7
420
 16777215
370
    25
100
AcDbVertex
100
AcDb2dVertex
 10
112.3621182445147
 20
-154.370934128074
 30
0.0
  0
VERTEX
  5
5F
330
5D
100
AcDbEntity
  8
_U+30EC_U+30A4_U+30E4_U+30FC 1
 62
     7
420
 16777215
370
    25
100
AcDbVertex
100
AcDb2dVertex
 10
95.36196923378014
 20
-155.070986350121
 30
0.0
  0
SEQEND
  5
60
330
5D
100
AcDbEntity
  8
_U+30EC_U+30A4_U+30E4_U+30FC 1
 62
     7
420
 16777215
370
    25
  0
SPLINE
  5
61
330
1F
100
AcDbEntity
  8
_U+30EC_U+30A4_U+30E4_U+30FC 1
 62
     7
420
 16777215
370
     9
100
AcDbSpline
210
0.0
220
0.0
230
1.0
 70
    11
 71
     3
 72
    17
 73
    13
 74
     0
 42
0.0000000001
 43
0.0000000001
 12
1.0
 22
0.0
 32
0.0
 13
1.0
 23
0.0
 33
0.0
 40
0.0
 40
0.0
 40
0.0
 40
0.0
 40
1.0
 40
1.0
 40
1.0
 40
2.0
 40
2.0
 40
2.0
 40
3.0
 40
3.0
 40
3.0
 40
4.0
 40
4.0
 40
4.0
 40
4.0
 10
116.4624895287944
 20
-138.9131291319385
 30
0.0
 10
116.4624895287944
 20
-138.8580252430633
 30
0.0
 10
116.4176867521596
 20
-138.8132224652969
 30
0.0
 10
116.361877309139
 20
-138.8132224652969
 30
0.0
 10
116.3067734216559
 20
-138.8132224652969
 30
0.0
 10
116.2619706450211
 20
-138.8580252430633
 30
0.0
 10
116.2619706450211
 20
-138.9131291319385
 30
0.0
 10
116.2619706450211
 20
-138.9682682985913
 30
0.0
 10
116.3067734216559
 20
-139.0130357985801
 30
0.0
 10
116.361877309139
 20
-139.0130357985801
 30
0.0
 10
116.4176867521596
 20
-139.0130357985801
 30
0.0
 10
116.4624895287944
 20
-138.9682682985913
 30
0.0
 10
116.4624895287944
 20
-138.9131291319385
 30
0.0
  0
SPLINE
  5
62
330
1F
100
AcDbEntity
  8
_U+30EC_U+30A4_U+30E4_U+30FC 1
 62
     7
420
 16777215
370
     9
100
AcDbSpline
210
0.0
220
0.0
230
1.0
 70
    11
 71
     3
 72
    17
 73
    13
 74
     0
 42
0.0000000001
 43
0.0000000001
 12
1.0
 22
0.0
 32
0.0
 13
1.0
 23
0.0
 33
0.0
 40
0.0
 40
0.0
 40
0.0
 40
0.0
 40
1.0
 40
1.0
 40
1.0
 40
2.0
 40
2.0
 40
2.0
 40
3.0
 40
3.0
 40
3.0
 40
4.0
 40
4.0
 40
4.0
 40
4.0
 10
116.4624895287944
 20
-153.9713074615075
 30
0.0
 10
116.4624895287944
 20
-153.9154980170764
 30
0.0
 10
116.4176867521596
 20
-153.8706952393103
 30
0.0
 10
116.361877309139
 20
-153.8706952393103
 30
0.0
 10
116.3067734216559
 20
-153.8706952393103
 30
0.0
 10
116.2619706450211
 20
-153.9154980170764
 30
0.0
 10
116.2619706450211
 20
-153.9713074615075
 30
0.0
 10
116.2619706450211
 20
-154.0264466281599
 30
0.0
 10
116.3067734216559
 20
-154.0712141281491
 30
0.0
 10
116.361877309139
 20
-154.0712141281491
 30
0.0
 10
116.4176867521596
 20
-154.0712141281491
 30
0.0
 10
116.4624895287944
 20
-154.0264466281599
 30
0.0
 10
116.4624895287944
 20
-153.9713074615075
 30
0.0
  0
SPLINE
  5
63
330
1F
100
AcDbEntity
  8
_U+30EC_U+30A4_U+30E4_U+30FC 1
 62
     7
420
 16777215
370
     9
100
AcDbSpline
210
0.0
220
0.0
230
1.0
 70
    11
 71
     3
 72
    17
 73
    13
 74
     0
 42
0.0000000001
 43
0.0000000001
 12
1.0
 22
0.0
 32
0.0
 13
1.0
 23
0.0
 33
0.0
 40
0.0
 40
0.0
 40
0.0
 40
0.0
 40
1.0
 40
1.0
 40
1.0
 40
2.0
 40
2.0
 40
2.0
 40
3.0
 40
3.0
 40
3.0
 40
4.0
 40
4.0
 40
4.0
 40
4.0
 10
116.4624895287944
 20
-154.370934128074
 30
0.0
 10
116.4624895287944
 20
-154.3158302391991
 30
0.0
 10
116.4176867521596
 20
-154.2710274614324
 30
0.0
 10
116.361877309139
 20
-154.2710274614324
 30
0.0
 10
116.3067734216559
 20
-154.2710274614324
 30
0.0
 10
116.2619706450211
 20
-154.3158302391991
 30
0.0
 10
116.2619706450211
 20
-154.370934128074
 30
0.0
 10
116.2619706450211
 20
-154.4260732947271
 30
0.0
 10
116.3067734216559
 20
-154.4708407947157
 30
0.0
 10
116.361877309139
 20
-154.4708407947157
 30
0.0
 10
116.4176867521596
 20
-154.4708407947157
 30
0.0
 10
116.4624895287944
 20
-154.4260732947271
 30
0.0
 10
116.4624895287944
 20
-154.370934128074
 30
0.0
  0
SPLINE
  5
64
330
1F
100
AcDbEntity
  8
_U+30EC_U+30A4_U+30E4_U+30FC 1
 62
     7
420
 16777215
370
     9
100
AcDbSpline
210
0.0
220
0.0
230
1.0
 70
    11
 71
     3
 72
    17
 73
    13
 74
     0
 42
0.0000000001
 43
0.0000000001
 12
1.0
 22
0.0
 32
0.0
 13
1.0
 23
0.0
 33
0.0
 40
0.0
 40
0.0
 40
0.0
 40
0.0
 40
1.0
 40
1.0
 40
1.0
 40
2.0
 40
2.0
 40
2.0
 40
3.0
 40
3.0
 40
3.0
 40
4.0
 40
4.0
 40
4.0
 40
4.0
 10
112.4620277496626
 20
-159.0707455157879
 30
0.0
 10
112.4620277496626
 20
-159.0156063491348
 30
0.0
 10
112.4172574097746
 20
-158.9708388491462
 30
0.0
 10
112.3621182445147
 20
-158.9708388491462
 30
0.0
 10
112.3070143570316
 20
-158.9708388491462
 30
0.0
 10
112.2622115803968
 20
-159.0156063491348
 30
0.0
 10
112.2622115803968
 20
-159.0707455157879
 30
0.0
 10
112.2622115803968
 20
-159.1258494046628
 30
0.0
 10
112.3070143570316
 20
-159.1706521824295
 30
0.0
 10
112.3621182445147
 20
-159.1706521824295
 30
0.0
 10
112.4172574097746
 20
-159.1706521824295
 30
0.0
 10
112.4620277496626
 20
-159.1258494046628
 30
0.0
 10
112.4620277496626
 20
-159.0707455157879
 30
0.0
  0
SPLINE
  5
65
330
1F
100
AcDbEntity
  8
_U+30EC_U+30A4_U+30E4_U+30FC 1
 62
     7
420
 16777215
370
     9
100
AcDbSpline
210
0.0
220
0.0
230
1.0
 70
    11
 71
     3
 72
    17
 73
    13
 74
     0
 42
0.0000000001
 43
0.0000000001
 12
1.0
 22
0.0
 32
0.0
 13
1.0
 23
0.0
 33
0.0
 40
0.0
 40
0.0
 40
0.0
 40
0.0
 40
1.0
 40
1.0
 40
1.0
 40
2.0
 40
2.0
 40
2.0
 40
3.0
 40
3.0
 40
3.0
 40
4.0
 40
4.0
 40
4.0
 40
4.0
 10
89.56181108872073
 20
-159.0707455157879
 30
0.0
 10
89.56181108872073
 20
-159.0156063491348
 30
0.0
 10
89.51771386650954
 20
-158.9708388491462
 30
0.0
 10
89.46190216208117
 20
-158.9708388491462
 30
0.0
 10
89.40676299682123
 20
-158.9708388491462
 30
0.0
 10
89.36199549796333
 20
-159.0156063491348
 30
0.0
 10
89.36199549796333
 20
-159.0707455157879
 30
0.0
 10
89.36199549796333
 20
-159.1258494046628
 30
0.0
 10
89.40676299682123
 20
-159.1706521824295
 30
0.0
 10
89.46190216208117
 20
-159.1706521824295
 30
0.0
 10
89.51771386650954
 20
-159.1706521824295
 30
0.0
 10
89.56181108872073
 20
-159.1258494046628
 30
0.0
 10
89.56181108872073
 20
-159.0707455157879
 30
0.0
  0
SPLINE
  5
66
330
1F
100
AcDbEntity
  8
_U+30EC_U+30A4_U+30E4_U+30FC 1
 62
     7
420
 16777215
370
     9
100
AcDbSpline
210
0.0
220
0.0
230
1.0
 70
    11
 71
     3
 72
    17
 73
    13
 74
     0
 42
0.0000000001
 43
0.0000000001
 12
1.0
 22
0.0
 32
0.0
 13
1.0
 23
0.0
 33
0.0
 40
0.0
 40
0.0
 40
0.0
 40
0.0
 40
1.0
 40
1.0
 40
1.0
 40
2.0
 40
2.0
 40
2.0
 40
3.0
 40
3.0
 40
3.0
 40
4.0
 40
4.0
 40
4.0
 40
4.0
 10
86.799523618893
 20
-138.9131291319385
 30
0.0
 10
86.799523618893
 20
-138.8580252430633
 30
0.0
 10
86.75472084225824
 20
-138.8132224652969
 30
0.0
 10
86.69961695477517
 20
-138.8132224652969
 30
0.0
 10
86.64447778951522
 20
-138.8132224652969
 30
0.0
 10
86.59971029065733
 20
-138.8580252430633
 30
0.0
 10
86.59971029065733
 20
-138.9131291319385
 30
0.0
 10
86.59971029065733
 20
-138.9682682985913
 30
0.0
 10
86.64447778951522
 20
-139.0130357985801
 30
0.0
 10
86.69961695477517
 20
-139.0130357985801
 30
0.0
 10
86.75472084225824
 20
-139.0130357985801
 30
0.0
 10
86.799523618893
 20
-138.9682682985913
 30
0.0
 10
86.799523618893
 20
-138.9131291319385
 30
0.0
  0
SPLINE
  5
67
330
1F
100
AcDbEntity
  8
_U+30EC_U+30A4_U+30E4_U+30FC 1
 62
     7
420
 16777215
370
     9
100
AcDbSpline
210
0.0
220
0.0
230
1.0
 70
    11
 71
     3
 72
    17
 73
    13
 74
     0
 42
0.0000000001
 43
0.0000000001
 12
1.0
 22
0.0
 32
0.0
 13
1.0
 23
0.0
 33
0.0
 40
0.0
 40
0.0
 40
0.0
 40
0.0
 40
1.0
 40
1.0
 40
1.0
 40
2.0
 40
2.0
 40
2.0
 40
3.0
 40
3.0
 40
3.0
 40
4.0
 40
4.0
 40
4.0
 40
4.0
 10
86.799523618893
 20
-140.0135135761079
 30
0.0
 10
86.799523618893
 20
-139.9577041316771
 30
0.0
 10
86.75472084225824
 20
-139.9129013539107
 30
0.0
 10
86.69961695477517
 20
-139.9129013539107
 30
0.0
 10
86.64447778951522
 20
-139.9129013539107
 30
0.0
 10
86.59971029065733
 20
-139.9577041316771
 30
0.0
 10
86.59971029065733
 20
-140.0135135761079
 30
0.0
 10
86.59971029065733
 20
-140.0686174649828
 30
0.0
 10
86.64447778951522
 20
-140.1134202427495
 30
0.0
 10
86.69961695477517
 20
-140.1134202427495
 30
0.0
 10
86.75472084225824
 20
-140.1134202427495
 30
0.0
 10
86.799523618893
 20
-140.0686174649828
 30
0.0
 10
86.799523618893
 20
-140.0135135761079
 30
0.0
  0
SPLINE
  5
68
330
1F
100
AcDbEntity
  8
_U+30EC_U+30A4_U+30E4_U+30FC 1
 62
     7
420
 16777215
370
     9
100
AcDbSpline
210
0.0
220
0.0
230
1.0
 70
    11
 71
     3
 72
    17
 73
    13
 74
     0
 42
0.0000000001
 43
0.0000000001
 12
1.0
 22
0.0
 32
0.0
 13
1.0
 23
0.0
 33
0.0
 40
0.0
 40
0.0
 40
0.0
 40
0.0
 40
1.0
 40
1.0
 40
1.0
 40
2.0
 40
2.0
 40
2.0
 40
3.0
 40
3.0
 40
3.0
 40
4.0
 40
4.0
 40
4.0
 40
4.0
 10
95.46254617565866
 20
-159.0707455157879
 30
0.0
 10
95.46254617565866
 20
-159.0156063491348
 30
0.0
 10
95.41777867680078
 20
-158.9708388491462
 30
0.0
 10
95.36196923378014
 20
-158.9708388491462
 30
0.0
 10
95.3068300685202
 20
-158.9708388491462
 30
0.0
 10
95.2620625696623
 20
-159.0156063491348
 30
0.0
 10
95.2620625696623
 20
-159.0707455157879
 30
0.0
 10
95.2620625696623
 20
-159.1258494046628
 30
0.0
 10
95.3068300685202
 20
-159.1706521824295
 30
0.0
 10
95.36196923378014
 20
-159.1706521824295
 30
0.0
 10
95.41777867680078
 20
-159.1706521824295
 30
0.0
 10
95.46254617565866
 20
-159.1258494046628
 30
0.0
 10
95.46254617565866
 20
-159.0707455157879
 30
0.0
  0
POLYLINE
  5
69
330
1F
100
AcDbEntity
  8
_U+30EC_U+30A4_U+30E4_U+30FC 1
 62
     7
420
 16777215
370
     9
100
AcDb2dPolyline
 66
     1
 10
0.0
 20
0.0
 30
0.0
  0
VERTEX
  5
6A
330
69
100
AcDbEntity
  8
_U+30EC_U+30A4_U+30E4_U+30FC 1
 62
     7
420
 16777215
370
     9
100
AcDbVertex
100
AcDb2dVertex
 10
95.36196923378014
 20
-159.0707455157879
 30
0.0
  0
VERTEX
  5
6B
330
69
100
AcDbEntity
  8
_U+30EC_U+30A4_U+30E4_U+30FC 1
 62
     7
420
 16777215
370
     9
100
AcDbVertex
100
AcDb2dVertex
 10
112.3621182445147
 20
-159.0707455157879
 30
0.0
  0
SEQEND
  5
6C
330
69
100
AcDbEntity
  8
_U+30EC_U+30A4_U+30E4_U+30FC 1
 62
     7
420
 16777215
370
     9
  0
POLYLINE
  5
6D
330
1F
100
AcDbEntity
  8
_U+30EC_U+30A4_U+30E4_U+30FC 1
 62
     7
420
 16777215
370
     9
100
AcDb2dPolyline
 66
     1
 10
0.0
 20
0.0
 30
0.0
  0
VERTEX
  5
6E
330
6D
100
AcDbEntity
  8
_U+30EC_U+30A4_U+30E4_U+30FC 1
 62
     7
420
 16777215
370
     9
100
AcDbVertex
100
AcDb2dVertex
 10
112.3621182445147
 20
-156.9106519052166
 30
0.0
  0
VERTEX
  5
6F
330
6D
100
AcDbEntity
  8
_U+30EC_U+30A4_U+30E4_U+30FC 1
 62
     7
420
 16777215
370
     9
100
AcDbVertex
100
AcDb2dVertex
 10
112.3621182445147
 20
-160.0711880155378
 30
0.0
  0
SEQEND
  5
70
330
6D
100
AcDbEntity
  8
_U+30EC_U+30A4_U+30E4_U+30FC 1
 62
     7
420
 16777215
370
     9
  0
INSERT
  5
72
330
1F
100
AcDbEntity
  8
_U+30EC_U+30A4_U+30E4_U+30FC 1
100
AcDbBlockReference
  2
block 2
 10
0.0
 20
0.0
 30
0.0
  0
POLYLINE
  5
79
330
1F
100
AcDbEntity
  8
_U+30EC_U+30A4_U+30E4_U+30FC 1
 62
     7
420
 16777215
370
     9
100
AcDb2dPolyline
 66
     1
 10
0.0
 20
0.0
 30
0.0
  0
VERTEX
  5
7A
330
79
100
AcDbEntity
  8
_U+30EC_U+30A4_U+30E4_U+30FC 1
 62
     7
420
 16777215
370
     9
100
AcDbVertex
100
AcDb2dVertex
 10
86.69961695477517
 20
-138.9131291319385
 30
0.0
  0
VERTEX
  5
7B
330
79
100
AcDbEntity
  8
_U+30EC_U+30A4_U+30E4_U+30FC 1
 62
     7
420
 16777215
370
     9
100
AcDbVertex
100
AcDb2dVertex
 10
86.69961695477517
 20
-137.913356909966
 30
0.0
  0
SEQEND
  5
7C
330
79
100
AcDbEntity
  8
_U+30EC_U+30A4_U+30E4_U+30FC 1
 62
     7
420
 16777215
370
     9
  0
POLYLINE
  5
7D
330
1F
100
AcDbEntity
  8
_U+30EC_U+30A4_U+30E4_U+30FC 1
 62
     7
420
 16777215
370
     9
100
AcDb2dPolyline
 66
     1
 10
0.0
 20
0.0
 30
0.0
  0
VERTEX
  5
7E
330
7D
100
AcDbEntity
  8
_U+30EC_U+30A4_U+30E4_U+30FC 1
 62
     7
420
 16777215
370
     9
100
AcDbVertex
100
AcDb2dVertex
 10
86.69961695477517
 20
-138.9131291319385
 30
0.0
  0
VERTEX
  5
7F
330
7D
100
AcDbEntity
  8
_U+30EC_U+30A4_U+30E4_U+30FC 1
 62
     7
420
 16777215
370
     9
100
AcDbVertex
100
AcDb2dVertex
 10
86.69961695477517
 20
-141.0132857980801
 30
0.0
  0
SEQEND
  5
80
330
7D
100
AcDbEntity
  8
_U+30EC_U+30A4_U+30E4_U+30FC 1
 62
     7
420
 16777215
370
     9
  0
POLYLINE
  5
81
330
1F
100
AcDbEntity
  8
_U+30EC_U+30A4_U+30E4_U+30FC 1
 62
     7
420
 16777215
370
     9
100
AcDb2dPolyline
 66
     1
 10
0.0
 20
0.0
 30
0.0
  0
VERTEX
  5
82
330
81
100
AcDbEntity
  8
_U+30EC_U+30A4_U+30E4_U+30FC 1
 62
     7
420
 16777215
370
     9
100
AcDbVertex
100
AcDb2dVertex
 10
88.1596583064153
 20
-138.9131291319385
 30
0.0
  0
VERTEX
  5
83
330
81
100
AcDbEntity
  8
_U+30EC_U+30A4_U+30E4_U+30FC 1
 62
     7
420
 16777215
370
     9
100
AcDbVertex
100
AcDb2dVertex
 10
85.69917448029858
 20
-138.9131291319385
 30
0.0
  0
SEQEND
  5
84
330
81
100
AcDbEntity
  8
_U+30EC_U+30A4_U+30E4_U+30FC 1
 62
     7
420
 16777215
370
     9
  0
POLYLINE
  5
85
330
1F
100
AcDbEntity
  8
_U+30EC_U+30A4_U+30E4_U+30FC 1
 62
     7
420
 16777215
370
     9
100
AcDb2dPolyline
 66
     1
 10
0.0
 20
0.0
 30
0.0
  0
VERTEX
  5
86
330
85
100
AcDbEntity
  8
_U+30EC_U+30A4_U+30E4_U+30FC 1
 62
     7
420
 16777215
370
     9
100
AcDbVertex
100
AcDb2dVertex
 10
88.1596583064153
 20
-140.0135135761079
 30
0.0
  0
VERTEX
  5
87
330
85
100
AcDbEntity
  8
_U+30EC_U+30A4_U+30E4_U+30FC 1
 62
     7
420
 16777215
370
     9
100
AcDbVertex
100
AcDb2dVertex
 10
85.69917448029858
 20
-140.0135135761079
 30
0.0
  0
SEQEND
  5
88
330
85
100
AcDbEntity
  8
_U+30EC_U+30A4_U+30E4_U+30FC 1
 62
     7
420
 16777215
370
     9
  0
INSERT
  5
8A
330
1F
100
AcDbEntity
  8
_U+30EC_U+30A4_U+30E4_U+30FC 1
100
AcDbBlockReference
  2
block 3
 10
0.0
 20
0.0
 30
0.0
  0
POLYLINE
  5
99
330
1F
100
AcDbEntity
  8
_U+30EC_U+30A4_U+30E4_U+30FC 1
 62
     7
420
 16777215
370
     9
100
AcDb2dPolyline
 66
     1
 10
0.0
 20
0.0
 30
0.0
  0
VERTEX
  5
9A
330
99
100
AcDbEntity
  8
_U+30EC_U+30A4_U+30E4_U+30FC 1
 62
     7
420
 16777215
370
     9
100
AcDbVertex
100
AcDb2dVertex
 10
116.361877309139
 20
-154.370934128074
 30
0.0
  0
VERTEX
  5
9B
330
99
100
AcDbEntity
  8
_U+30EC_U+30A4_U+30E4_U+30FC 1
 62
     7
420
 16777215
370
     9
100
AcDbVertex
100
AcDb2dVertex
 10
116.361877309139
 20
-155.3707063500459
 30
0.0
  0
SEQEND
  5
9C
330
99
100
AcDbEntity
  8
_U+30EC_U+30A4_U+30E4_U+30FC 1
 62
     7
420
 16777215
370
     9
  0
POLYLINE
  5
9D
330
1F
100
AcDbEntity
  8
_U+30EC_U+30A4_U+30E4_U+30FC 1
 62
     7
420
 16777215
370
     9
100
AcDb2dPolyline
 66
     1
 10
0.0
 20
0.0
 30
0.0
  0
VERTEX
  5
9E
330
9D
100
AcDbEntity
  8
_U+30EC_U+30A4_U+30E4_U+30FC 1
 62
     7
420
 16777215
370
     9
100
AcDbVertex
100
AcDb2dVertex
 10
116.361877309139
 20
-153.9713074615075
 30
0.0
  0
VERTEX
  5
9F
330
9D
100
AcDbEntity
  8
_U+30EC_U+30A4_U+30E4_U+30FC 1
 62
     7
420
 16777215
370
     9
100
AcDbVertex
100
AcDb2dVertex
 10
116.361877309139
 20
-154.370934128074
 30
0.0
  0
SEQEND
  5
A0
330
9D
100
AcDbEntity
  8
_U+30EC_U+30A4_U+30E4_U+30FC 1
 62
     7
420
 16777215
370
     9
  0
POLYLINE
  5
A1
330
1F
100
AcDbEntity
  8
_U+30EC_U+30A4_U+30E4_U+30FC 1
 62
     7
420
 16777215
370
     9
100
AcDb2dPolyline
 66
     1
 10
0.0
 20
0.0
 30
0.0
  0
VERTEX
  5
A2
330
A1
100
AcDbEntity
  8
_U+30EC_U+30A4_U+30E4_U+30FC 1
 62
     7
420
 16777215
370
     9
100
AcDbVertex
100
AcDb2dVertex
 10
114.9018712352757
 20
-153.9713074615075
 30
0.0
  0
VERTEX
  5
A3
330
A1
100
AcDbEntity
  8
_U+30EC_U+30A4_U+30E4_U+30FC 1
 62
     7
420
 16777215
370
     9
100
AcDbVertex
100
AcDb2dVertex
 10
117.3623550613924
 20
-153.9713074615075
 30
0.0
  0
SEQEND
  5
A4
330
A1
100
AcDbEntity
  8
_U+30EC_U+30A4_U+30E4_U+30FC 1
 62
     7
420
 16777215
370
     9
  0
POLYLINE
  5
A5
330
1F
100
AcDbEntity
  8
_U+30EC_U+30A4_U+30E4_U+30FC 1
 62
     7
420
 16777215
370
     9
100
AcDb2dPolyline
 66
     1
 10
0.0
 20
0.0
 30
0.0
  0
VERTEX
  5
A6
330
A5
100
AcDbEntity
  8
_U+30EC_U+30A4_U+30E4_U+30FC 1
 62
     7
420
 16777215
370
     9
100
AcDbVertex
100
AcDb2dVertex
 10
114.9018712352757
 20
-154.370934128074
 30
0.0
  0
VERTEX
  5
A7
330
A5
100
AcDbEntity
  8
_U+30EC_U+30A4_U+30E4_U+30FC 1
 62
     7
420
 16777215
370
     9
100
AcDbVertex
100
AcDb2dVertex
 10
117.3623550613924
 20
-154.370934128074
 30
0.0
  0
SEQEND
  5
A8
330
A5
100
AcDbEntity
  8
_U+30EC_U+30A4_U+30E4_U+30FC 1
 62
     7
420
 16777215
370
     9
  0
INSERT
  5
AA
330
1F
100
AcDbEntity
  8
_U+30EC_U+30A4_U+30E4_U+30FC 1
100
AcDbBlockReference
  2
block 4
 10
0.0
 20
0.0
 30
0.0
  0
POLYLINE
  5
CD
330
1F
100
AcDbEntity
  8
_U+30EC_U+30A4_U+30E4_U+30FC 1
 62
     7
420
 16777215
370
     9
100
AcDb2dPolyline
 66
     1
 10
0.0
 20
0.0
 30
0.0
  0
VERTEX
  5
CE
330
CD
100
AcDbEntity
  8
_U+30EC_U+30A4_U+30E4_U+30FC 1
 62
     7
420
 16777215
370
     9
100
AcDbVertex
100
AcDb2dVertex
 10
89.36199549796333
 20
-159.0707455157879
 30
0.0
  0
VERTEX
  5
CF
330
CD
100
AcDbEntity
  8
_U+30EC_U+30A4_U+30E4_U+30FC 1
 62
     7
420
 16777215
370
     9
100
AcDbVertex
100
AcDb2dVertex
 10
95.36196923378014
 20
-159.0707455157879
 30
0.0
  0
SEQEND
  5
D0
330
CD
100
AcDbEntity
  8
_U+30EC_U+30A4_U+30E4_U+30FC 1
 62
     7
420
 16777215
370
     9
  0
POLYLINE
  5
D1
330
1F
100
AcDbEntity
  8
_U+30EC_U+30A4_U+30E4_U+30FC 1
 62
     7
420
 16777215
370
     9
100
AcDb2dPolyline
 66
     1
 10
0.0
 20
0.0
 30
0.0
  0
VERTEX
  5
D2
330
D1
100
AcDbEntity
  8
_U+30EC_U+30A4_U+30E4_U+30FC 1
 62
     7
420
 16777215
370
     9
100
AcDbVertex
100
AcDb2dVertex
 10
89.46190216208117
 20
-145.1108702415002
 30
0.0
  0
VERTEX
  5
D3
330
D1
100
AcDbEntity
  8
_U+30EC_U+30A4_U+30E4_U+30FC 1
 62
     7
420
 16777215
370
     9
100
AcDbVertex
100
AcDb2dVertex
 10
89.46190216208117
 20
-160.0711880155378
 30
0.0
  0
SEQEND
  5
D4
330
D1
100
AcDbEntity
  8
_U+30EC_U+30A4_U+30E4_U+30FC 1
 62
     7
420
 16777215
370
     9
  0
POLYLINE
  5
D5
330
1F
100
AcDbEntity
  8
_U+30EC_U+30A4_U+30E4_U+30FC 1
 62
     7
420
 16777215
370
     9
100
AcDb2dPolyline
 66
     1
 10
0.0
 20
0.0
 30
0.0
  0
VERTEX
  5
D6
330
D5
100
AcDbEntity
  8
_U+30EC_U+30A4_U+30E4_U+30FC 1
 62
     7
420
 16777215
370
     9
100
AcDbVertex
100
AcDb2dVertex
 10
95.36196923378014
 20
-157.6107041272642
 30
0.0
  0
VERTEX
  5
D7
330
D5
100
AcDbEntity
  8
_U+30EC_U+30A4_U+30E4_U+30FC 1
 62
     7
420
 16777215
370
     9
100
AcDbVertex
100
AcDb2dVertex
 10
95.36196923378014
 20
-160.0711880155378
 30
0.0
  0
SEQEND
  5
D8
330
D5
100
AcDbEntity
  8
_U+30EC_U+30A4_U+30E4_U+30FC 1
 62
     7
420
 16777215
370
     9
  0
INSERT
  5
DA
330
1F
100
AcDbEntity
  8
_U+30EC_U+30A4_U+30E4_U+30FC 1
100
AcDbBlockReference
  2
block 5
 10
0.0
 20
0.0
 30
0.0
  0
POLYLINE
  5
E0
330
1F
100
AcDbEntity
  8
_U+30EC_U+30A4_U+30E4_U+30FC 1
 62
     7
420
 16777215
370
     9
100
AcDb2dPolyline
 66
     1
 10
0.0
 20
0.0
 30
0.0
  0
VERTEX
  5
E1
330
E0
100
AcDbEntity
  8
_U+30EC_U+30A4_U+30E4_U+30FC 1
 62
     7
420
 16777215
370
     9
100
AcDbVertex
100
AcDb2dVertex
 10
116.361877309139
 20
-138.9713727430351
 30
0.0
  0
VERTEX
  5
E2
330
E0
100
AcDbEntity
  8
_U+30EC_U+30A4_U+30E4_U+30FC 1
 62
     7
420
 16777215
370
     9
100
AcDbVertex
100
AcDb2dVertex
 10
116.361877309139
 20
-153.9713074615075
 30
0.0
  0
SEQEND
  5
E3
330
E0
100
AcDbEntity
  8
_U+30EC_U+30A4_U+30E4_U+30FC 1
 62
     7
420
 16777215
370
     9
  0
POLYLINE
  5
E4
330
1F
100
AcDbEntity
  8
_U+30EC_U+30A4_U+30E4_U+30FC 1
 62
     7
420
 16777215
370
     9
100
AcDb2dPolyline
 66
     1
 10
0.0
 20
0.0
 30
0.0
  0
VERTEX
  5
E5
330
E4
100
AcDbEntity
  8
_U+30EC_U+30A4_U+30E4_U+30FC 1
 62
     7
420
 16777215
370
     9
100
AcDbVertex
100
AcDb2dVertex
 10
99.00203608535875
 20
-138.9131291319385
 30
0.0
  0
VERTEX
  5
E6
330
E4
100
AcDbEntity
  8
_U+30EC_U+30A4_U+30E4_U+30FC 1
 62
     7
420
 16777215
370
     9
100
AcDbVertex
100
AcDb2dVertex
 10
117.3623550613924
 20
-138.9131291319385
 30
0.0
  0
SEQEND
  5
E7
330
E4
100
AcDbEntity
  8
_U+30EC_U+30A4_U+30E4_U+30FC 1
 62
     7
420
 16777215
370
     9
  0
INSERT
  5
E9
330
1F
100
AcDbEntity
  8
_U+30EC_U+30A4_U+30E4_U+30FC 1
100
AcDbBlockReference
  2
block 6
 10
0.0
 20
0.0
 30
0.0
  0
POLYLINE
  5
F0
330
1F
100
AcDbEntity
  8
_U+30EC_U+30A4_U+30E4_U+30FC 1
 62
     7
420
 16777215
370
     9
100
AcDb2dPolyline
 66
     1
 10
0.0
 20
0.0
 30
0.0
  0
VERTEX
  5
F1
330
F0
100
AcDbEntity
  8
_U+30EC_U+30A4_U+30E4_U+30FC 1
 62
     7
420
 16777215
370
     9
100
AcDbVertex
100
AcDb2dVertex
 10
112.3621182445147
 20
-154.87082023906
 30
0.0
  0
VERTEX
  5
F2
330
F0
100
AcDbEntity
  8
_U+30EC_U+30A4_U+30E4_U+30FC 1
 62
     7
420
 16777215
370
     9
100
AcDbVertex
100
AcDb2dVertex
 10
116.019438859884
 20
-157.9190319049648
 30
0.0
  0
SEQEND
  5
F3
330
F0
100
AcDbEntity
  8
_U+30EC_U+30A4_U+30E4_U+30FC 1
 62
     7
420
 16777215
370
     9
  0
INSERT
  5
F5
330
1F
100
AcDbEntity
  8
_U+30EC_U+30A4_U+30E4_U+30FC 1
100
AcDbBlockReference
  2
block 7
 10
0.0
 20
0.0
 30
0.0
  0
INSERT
  5
133
330
1F
100
AcDbEntity
  8
_U+30EC_U+30A4_U+30E4_U+30FC 1
100
AcDbBlockReference
  2
block 8
 10
0.0
 20
0.0
 30
0.0
  0
ENDSEC
  0
SECTION
  2
OBJECTS
  0
DICTIONARY
  5
C
330
0
100
AcDbDictionary
281
     1
  3
ACAD_GROUP
350
D
  3
ACAD_LAYOUT
350
1A
  3
ACAD_MATERIAL
350
3B
  3
ACAD_MLEADERSTYLE
350
143
  3
ACAD_MLINESTYLE
350
17
  3
ACAD_PLOTSETTINGS
350
19
  3
ACAD_PLOTSTYLENAME
350
E
  3
ACAD_TABLESTYLE
350
142
  3
ACAD_VISUALSTYLE
350
2A
  0
SUN
  5
3F
330
29
100
AcDbSun
 90
        1
290
     0
 63
     7
421
 16777215
 40
1.0
291
     1
 91
  2455826
 92
 54000000
292
     0
 70
     2
 71
   256
280
     1
  0
DICTIONARY
  5
D
102
{ACAD_REACTORS
330
C
102
}
330
C
100
AcDbDictionary
281
     1
  0
DICTIONARY
  5
1A
102
{ACAD_REACTORS
330
C
102
}
330
C
100
AcDbDictionary
281
     1
  3
Layout1
350
1E
  3
Layout2
350
26
  3
Model
350
22
  0
DICTIONARY
  5
3B
102
{ACAD_REACTORS
330
C
102
}
330
C
100
AcDbDictionary
281
     1
  3
ByBlock
350
3D
  3
ByLayer
350
3C
  3
Global
350
3E
  0
DICTIONARY
  5
143
102
{ACAD_REACTORS
330
C
102
}
330
C
100
AcDbDictionary
281
     1
  0
DICTIONARY
  5
17
102
{ACAD_REACTORS
330
C
102
}
330
C
100
AcDbDictionary
281
     1
  3
Standard
350
18
  0
DICTIONARY
  5
19
102
{ACAD_REACTORS
330
C
102
}
330
C
100
AcDbDictionary
281
     1
  0
ACDBDICTIONARYWDFLT
  5
E
102
{ACAD_REACTORS
330
C
102
}
330
C
100
AcDbDictionary
281
     1
  3
Normal
350
F
100
AcDbDictionaryWithDefault
340
F
  0
DICTIONARY
  5
142
102
{ACAD_REACTORS
330
C
102
}
330
C
100
AcDbDictionary
281
     1
  0
DICTIONARY
  5
2A
102
{ACAD_REACTORS
330
C
102
}
330
C
100
AcDbDictionary
281
     1
  3
2dWireframe
350
2F
  3
3D Hidden
350
31
  3
3dWireframe
350
30
  3
Basic
350
32
  3
Brighten
350
36
  3
ColorChange
350
3A
  3
Conceptual
350
34
  3
Dim
350
35
  3
Facepattern
350
39
  3
Flat
350
2B
  3
FlatWithEdges
350
2C
  3
Gouraud
350
2D
  3
GouraudWithEdges
350
2E
  3
Linepattern
350
38
  3
Realistic
350
33
  3
Thicken
350
37
  0
LAYOUT
  5
1E
102
{ACAD_REACTORS
330
1A
102
}
330
1A
100
AcDbPlotSettings
  1

  2
none_device
  4

  6

 40
0.0
 41
0.0
 42
0.0
 43
0.0
 44
0.0
 45
0.0
 46
0.0
 47
0.0
 48
0.0
 49
0.0
140
0.0
141
0.0
142
1.0
143
1.0
 70
   688
 72
     0
 73
     0
 74
     5
  7

 75
    16
 76
     0
 77
     2
 78
   300
147
1.0
148
0.0
149
0.0
100
AcDbLayout
  1
Layout1
 70
     1
 71
     1
 10
0.0
 20
0.0
 11
12.0
 21
9.0
 12
0.0
 22
0.0
 32
0.0
 14
1.000000000000000E+20
 24
1.000000000000000E+20
 34
1.000000000000000E+20
 15
-1.000000000000000E+20
 25
-1.000000000000000E+20
 35
-1.000000000000000E+20
146
0.0
 13
0.0
 23
0.0
 33
0.0
 16
1.0
 26
0.0
 36
0.0
 17
0.0
 27
1.0
 37
0.0
 76
     0
330
1B
  0
LAYOUT
  5
26
102
{ACAD_REACTORS
330
1A
102
}
330
1A
100
AcDbPlotSettings
  1

  2
none_device
  4

  6

 40
0.0
 41
0.0
 42
0.0
 43
0.0
 44
0.0
 45
0.0
 46
0.0
 47
0.0
 48
0.0
 49
0.0
140
0.0
141
0.0
142
1.0
143
1.0
 70
   688
 72
     0
 73
     0
 74
     5
  7

 75
    16
 76
     0
 77
     2
 78
   300
147
1.0
148
0.0
149
0.0
100
AcDbLayout
  1
Layout2
 70
     1
 71
     2
 10
0.0
 20
0.0
 11
0.0
 21
0.0
 12
0.0
 22
0.0
 32
0.0
 14
0.0
 24
0.0
 34
0.0
 15
0.0
 25
0.0
 35
0.0
146
0.0
 13
0.0
 23
0.0
 33
0.0
 16
1.0
 26
0.0
 36
0.0
 17
0.0
 27
1.0
 37
0.0
 76
     0
330
23
  0
LAYOUT
  5
22
102
{ACAD_REACTORS
330
1A
102
}
330
1A
100
AcDbPlotSettings
  1

  2
none_device
  4

  6

 40
0.0
 41
0.0
 42
0.0
 43
0.0
 44
0.0
 45
0.0
 46
0.0
 47
0.0
 48
0.0
 49
0.0
140
0.0
141
0.0
142
1.0
143
1.0
 70
  1712
 72
     0
 73
     0
 74
     0
  7

 75
     0
 76
     0
 77
     2
 78
   300
147
1.0
148
0.0
149
0.0
100
AcDbLayout
  1
Model
 70
     1
 71
     0
 10
0.0
 20
0.0
 11
12.0
 21
9.0
 12
0.0
 22
0.0
 32
0.0
 14
1.000000000000000E+20
 24
1.000000000000000E+20
 34
1.000000000000000E+20
 15
-1.000000000000000E+20
 25
-1.000000000000000E+20
 35
-1.000000000000000E+20
146
0.0
 13
0.0
 23
0.0
 33
0.0
 16
1.0
 26
0.0
 36
0.0
 17
0.0
 27
1.0
 37
0.0
 76
     0
330
1F
331
29
  0
MATERIAL
  5
3D
102
{ACAD_REACTORS
330
3B
102
}
330
3B
100
AcDbMaterial
  1
ByBlock
 72
     1
 94
      127
  0
MATERIAL
  5
3C
102
{ACAD_REACTORS
330
3B
102
}
330
3B
100
AcDbMaterial
  1
ByLayer
 72
     1
 94
      127
  0
MATERIAL
  5
3E
102
{ACAD_REACTORS
330
3B
102
}
330
3B
100
AcDbMaterial
  1
Global
 72
     1
 94
      127
  0
MLINESTYLE
  5
18
102
{ACAD_REACTORS
330
17
102
}
330
17
100
AcDbMlineStyle
  2
Standard
 70
     0
  3

 62
   256
 51
90.0
 52
90.0
 71
     2
 49
0.5
 62
   256
  6
BYLAYER
 49
-0.5
 62
   256
  6
BYLAYER
  0
ACDBPLACEHOLDER
  5
F
102
{ACAD_REACTORS
330
E
102
}
330
E
  0
VISUALSTYLE
  5
2F
102
{ACAD_REACTORS
330
2A
102
}
330
2A
100
AcDbVisualStyle
  2
2dWireframe
 70
     4
177
     2
291
     0
 71
     0
176
     1
 72
     2
176
     1
 73
     0
176
     1
 90
        0
176
     1
 40
-0.6
176
     1
 41
-30.0
176
     1
 62
     5
 63
     7
421
 16777215
176
     1
 74
     1
176
     1
 91
        4
176
     1
 64
     7
176
     1
 65
   257
176
     1
 75
     1
176
     1
175
     1
176
     1
 42
1.0
176
     1
 92
        0
176
     1
 66
   257
176
     1
 43
1.0
176
     1
 76
     1
176
     1
 77
     6
176
     1
 78
     2
176
     1
 67
     7
176
     1
 79
     5
176
     1
170
     0
176
     1
171
     0
176
     1
290
     0
176
     1
 93
        1
176
     1
 44
0.0
176
     1
173
     0
176
     1
  0
VISUALSTYLE
  5
31
102
{ACAD_REACTORS
330
2A
102
}
330
2A
100
AcDbVisualStyle
  2
3D Hidden
 70
     6
177
     2
291
     0
 71
     1
176
     1
 72
     2
176
     1
 73
     2
176
     1
 90
        0
176
     1
 40
-0.6
176
     1
 41
-30.0
176
     1
 62
     5
 63
     7
421
 16777215
176
     1
 74
     2
176
     1
 91
        2
176
     1
 64
     7
176
     1
 65
   257
176
     1
 75
     2
176
     1
175
     1
176
     1
 42
40.0
176
     1
 92
        0
176
     1
 66
   257
176
     1
 43
1.0
176
     1
 76
     1
176
     1
 77
     6
176
     1
 78
     2
176
     1
 67
     7
176
     1
 79
     3
176
     1
170
     0
176
     1
171
     0
176
     1
290
     0
176
     1
 93
        1
176
     1
 44
0.0
176
     1
173
     0
176
     1
  0
VISUALSTYLE
  5
30
102
{ACAD_REACTORS
330
2A
102
}
330
2A
100
AcDbVisualStyle
  2
3dWireframe
 70
     5
177
     2
291
     0
 71
     0
176
     1
 72
     2
176
     1
 73
     0
176
     1
 90
        0
176
     1
 40
-0.6
176
     1
 41
-30.0
176
     1
 62
     5
 63
     7
421
 16777215
176
     1
 74
     1
176
     1
 91
        4
176
     1
 64
     7
176
     1
 65
   257
176
     1
 75
     1
176
     1
175
     1
176
     1
 42
1.0
176
     1
 92
        0
176
     1
 66
   257
176
     1
 43
1.0
176
     1
 76
     1
176
     1
 77
     6
176
     1
 78
     2
176
     1
 67
     7
176
     1
 79
     5
176
     1
170
     0
176
     1
171
     0
176
     1
290
     0
176
     1
 93
        1
176
     1
 44
0.0
176
     1
173
     0
176
     1
  0
VISUALSTYLE
  5
32
102
{ACAD_REACTORS
330
2A
102
}
330
2A
100
AcDbVisualStyle
  2
Basic
 70
     7
177
     2
291
     1
 71
     1
176
     1
 72
     0
176
     1
 73
     1
176
     1
 90
        0
176
     1
 40
-0.6
176
     1
 41
-30.0
176
     1
 62
     5
 63
     7
421
 16777215
176
     1
 74
     0
176
     1
 91
        4
176
     1
 64
     7
176
     1
 65
   257
176
     1
 75
     1
176
     1
175
     1
176
     1
 42
1.0
176
     1
 92
        8
176
     1
 66
     7
176
     1
 43
1.0
176
     1
 76
     1
176
     1
 77
     6
176
     1
 78
     2
176
     1
 67
     7
176
     1
 79
     5
176
     1
170
     0
176
     1
171
     0
176
     1
290
     0
176
     1
 93
        1
176
     1
 44
0.0
176
     1
173
     0
176
     1
  0
VISUALSTYLE
  5
36
102
{ACAD_REACTORS
330
2A
102
}
330
2A
100
AcDbVisualStyle
  2
Brighten
 70
    12
177
     2
291
     1
 71
     2
176
     1
 72
     2
176
     1
 73
     0
176
     1
 90
        0
176
     1
 40
-0.6
176
     1
 41
-30.0
176
     1
 62
     5
 63
     7
421
 16777215
176
     1
 74
     1
176
     1
 91
        4
176
     1
 64
     7
176
     1
 65
   257
176
     1
 75
     1
176
     1
175
     1
176
     1
 42
1.0
176
     1
 92
        8
176
     1
 66
     7
176
     1
 43
1.0
176
     1
 76
     1
176
     1
 77
     6
176
     1
 78
     2
176
     1
 67
     7
176
     1
 79
     5
176
     1
170
     0
176
     1
171
     0
176
     1
290
     0
176
     1
 93
        1
176
     1
 44
50.0
176
     1
173
     0
176
     1
  0
VISUALSTYLE
  5
3A
102
{ACAD_REACTORS
330
2A
102
}
330
2A
100
AcDbVisualStyle
  2
ColorChange
 70
    16
177
     2
291
     1
 71
     2
176
     1
 72
     2
176
     1
 73
     3
176
     1
 90
        0
176
     1
 40
-0.6
176
     1
 41
-30.0
176
     1
 62
     5
 63
     8
421
  8421504
176
     1
 74
     1
176
     1
 91
        4
176
     1
 64
     7
176
     1
 65
   257
176
     1
 75
     1
176
     1
175
     1
176
     1
 42
1.0
176
     1
 92
        8
176
     1
 66
     8
424
  8421504
176
     1
 43
1.0
176
     1
 76
     1
176
     1
 77
     6
176
     1
 78
     2
176
     1
 67
     7
176
     1
 79
     5
176
     1
170
     0
176
     1
171
     0
176
     1
290
     0
176
     1
 93
        1
176
     1
 44
0.0
176
     1
173
     0
176
     1
  0
VISUALSTYLE
  5
34
102
{ACAD_REACTORS
330
2A
102
}
330
2A
100
AcDbVisualStyle
  2
Conceptual
 70
     9
177
     2
291
     0
 71
     3
176
     1
 72
     2
176
     1
 73
     0
176
     1
 90
        0
176
     1
 40
-0.6
176
     1
 41
-30.0
176
     1
 62
     5
 63
     7
421
 16777215
176
     1
 74
     2
176
     1
 91
        2
176
     1
 64
     7
176
     1
 65
   257
176
     1
 75
     1
176
     1
175
     1
176
     1
 42
40.0
176
     1
 92
        8
176
     1
 66
     7
176
     1
 43
1.0
176
     1
 76
     1
176
     1
 77
     6
176
     1
 78
     2
176
     1
 67
     7
176
     1
 79
     3
176
     1
170
     0
176
     1
171
     0
176
     1
290
     0
176
     1
 93
        1
176
     1
 44
0.0
176
     1
173
     0
176
     1
  0
VISUALSTYLE
  5
35
102
{ACAD_REACTORS
330
2A
102
}
330
2A
100
AcDbVisualStyle
  2
Dim
 70
    11
177
     2
291
     1
 71
     2
176
     1
 72
     2
176
     1
 73
     0
176
     1
 90
        0
176
     1
 40
-0.6
176
     1
 41
-30.0
176
     1
 62
     5
 63
     7
421
 16777215
176
     1
 74
     1
176
     1
 91
        4
176
     1
 64
     7
176
     1
 65
   257
176
     1
 75
     1
176
     1
175
     1
176
     1
 42
1.0
176
     1
 92
        8
176
     1
 66
     7
176
     1
 43
1.0
176
     1
 76
     1
176
     1
 77
     6
176
     1
 78
     2
176
     1
 67
     7
176
     1
 79
     5
176
     1
170
     0
176
     1
171
     0
176
     1
290
     0
176
     1
 93
        1
176
     1
 44
-50.0
176
     1
173
     0
176
     1
  0
VISUALSTYLE
  5
39
102
{ACAD_REACTORS
330
2A
102
}
330
2A
100
AcDbVisualStyle
  2
Facepattern
 70
    15
177
     2
291
     1
 71
     2
176
     1
 72
     2
176
     1
 73
     0
176
     1
 90
        0
176
     1
 40
-0.6
176
     1
 41
-30.0
176
     1
 62
     5
 63
     7
421
 16777215
176
     1
 74
     1
176
     1
 91
        4
176
     1
 64
     7
176
     1
 65
   257
176
     1
 75
     1
176
     1
175
     1
176
     1
 42
1.0
176
     1
 92
        8
176
     1
 66
     7
176
     1
 43
1.0
176
     1
 76
     1
176
     1
 77
     6
176
     1
 78
     2
176
     1
 67
     7
176
     1
 79
     5
176
     1
170
     0
176
     1
171
     0
176
     1
290
     0
176
     1
 93
        1
176
     1
 44
0.0
176
     1
173
     0
176
     1
  0
VISUALSTYLE
  5
2B
102
{ACAD_REACTORS
330
2A
102
}
330
2A
100
AcDbVisualStyle
  2
Flat
 70
     0
177
     2
291
     1
 71
     2
176
     1
 72
     1
176
     1
 73
     1
176
     1
 90
        2
176
     1
 40
-0.6
176
     1
 41
30.0
176
     1
 62
     5
 63
     7
421
 16777215
176
     1
 74
     0
176
     1
 91
        4
176
     1
 64
     7
176
     1
 65
   257
176
     1
 75
     1
176
     1
175
     1
176
     1
 42
1.0
176
     1
 92
        8
176
     1
 66
     7
176
     1
 43
1.0
176
     1
 76
     1
176
     1
 77
     6
176
     1
 78
     2
176
     1
 67
     7
176
     1
 79
     5
176
     1
170
     0
176
     1
171
     0
176
     1
290
     0
176
     1
 93
       13
176
     1
 44
0.0
176
     1
173
     0
176
     1
  0
VISUALSTYLE
  5
2C
102
{ACAD_REACTORS
330
2A
102
}
330
2A
100
AcDbVisualStyle
  2
FlatWithEdges
 70
     1
177
     2
291
     1
 71
     2
176
     1
 72
     1
176
     1
 73
     1
176
     1
 90
        2
176
     1
 40
-0.6
176
     1
 41
30.0
176
     1
 62
     5
 63
     7
421
 16777215
176
     1
 74
     1
176
     1
 91
        4
176
     1
 64
     7
176
     1
 65
   257
176
     1
 75
     1
176
     1
175
     1
176
     1
 42
1.0
176
     1
 92
        0
176
     1
 66
   257
176
     1
 43
1.0
176
     1
 76
     1
176
     1
 77
     6
176
     1
 78
     2
176
     1
 67
     7
176
     1
 79
     5
176
     1
170
     0
176
     1
171
     0
176
     1
290
     0
176
     1
 93
       13
176
     1
 44
0.0
176
     1
173
     0
176
     1
  0
VISUALSTYLE
  5
2D
102
{ACAD_REACTORS
330
2A
102
}
330
2A
100
AcDbVisualStyle
  2
Gouraud
 70
     2
177
     2
291
     1
 71
     2
176
     1
 72
     2
176
     1
 73
     1
176
     1
 90
        2
176
     1
 40
-0.6
176
     1
 41
30.0
176
     1
 62
     5
 63
     7
421
 16777215
176
     1
 74
     0
176
     1
 91
        4
176
     1
 64
     7
176
     1
 65
   257
176
     1
 75
     1
176
     1
175
     1
176
     1
 42
1.0
176
     1
 92
        0
176
     1
 66
     7
176
     1
 43
1.0
176
     1
 76
     1
176
     1
 77
     6
176
     1
 78
     2
176
     1
 67
     7
176
     1
 79
     5
176
     1
170
     0
176
     1
171
     0
176
     1
290
     0
176
     1
 93
       13
176
     1
 44
0.0
176
     1
173
     0
176
     1
  0
VISUALSTYLE
  5
2E
102
{ACAD_REACTORS
330
2A
102
}
330
2A
100
AcDbVisualStyle
  2
GouraudWithEdges
 70
     3
177
     2
291
     1
 71
     2
176
     1
 72
     2
176
     1
 73
     1
176
     1
 90
        2
176
     1
 40
-0.6
176
     1
 41
30.0
176
     1
 62
     5
 63
     7
421
 16777215
176
     1
 74
     1
176
     1
 91
        4
176
     1
 64
     7
176
     1
 65
   257
176
     1
 75
     1
176
     1
175
     1
176
     1
 42
1.0
176
     1
 92
        0
176
     1
 66
   257
176
     1
 43
1.0
176
     1
 76
     1
176
     1
 77
     6
176
     1
 78
     2
176
     1
 67
     7
176
     1
 79
     5
176
     1
170
     0
176
     1
171
     0
176
     1
290
     0
176
     1
 93
       13
176
     1
 44
0.0
176
     1
173
     0
176
     1
  0
VISUALSTYLE
  5
38
102
{ACAD_REACTORS
330
2A
102
}
330
2A
100
AcDbVisualStyle
  2
Linepattern
 70
    14
177
     2
291
     1
 71
     2
176
     1
 72
     2
176
     1
 73
     0
176
     1
 90
        0
176
     1
 40
-0.6
176
     1
 41
-30.0
176
     1
 62
     5
 63
     7
421
 16777215
176
     1
 74
     1
176
     1
 91
        4
176
     1
 64
     7
176
     1
 65
   257
176
     1
 75
     7
176
     1
175
     7
176
     1
 42
1.0
176
     1
 92
        8
176
     1
 66
     7
176
     1
 43
1.0
176
     1
 76
     1
176
     1
 77
     6
176
     1
 78
     2
176
     1
 67
     7
176
     1
 79
     5
176
     1
170
     0
176
     1
171
     0
176
     1
290
     0
176
     1
 93
        1
176
     1
 44
0.0
176
     1
173
     0
176
     1
  0
VISUALSTYLE
  5
33
102
{ACAD_REACTORS
330
2A
102
}
330
2A
100
AcDbVisualStyle
  2
Realistic
 70
     8
177
     2
291
     0
 71
     2
176
     1
 72
     2
176
     1
 73
     0
176
     1
 90
        0
176
     1
 40
-0.6
176
     1
 41
-30.0
176
     1
 62
     5
 63
     7
421
 16777215
176
     1
 74
     1
176
     1
 91
        0
176
     1
 64
     7
176
     1
 65
   257
176
     1
 75
     1
176
     1
175
     1
176
     1
 42
1.0
176
     1
 92
        8
176
     1
 66
     8
424
  7895160
176
     1
 43
1.0
176
     1
 76
     1
176
     1
 77
     6
176
     1
 78
     2
176
     1
 67
     7
176
     1
 79
     5
176
     1
170
     0
176
     1
171
     0
176
     1
290
     0
176
     1
 93
       13
176
     1
 44
0.0
176
     1
173
     0
176
     1
  0
VISUALSTYLE
  5
37
102
{ACAD_REACTORS
330
2A
102
}
330
2A
100
AcDbVisualStyle
  2
Thicken
 70
    13
177
     2
291
     1
 71
     2
176
     1
 72
     2
176
     1
 73
     0
176
     1
 90
        0
176
     1
 40
-0.6
176
     1
 41
-30.0
176
     1
 62
     5
 63
     7
421
 16777215
176
     1
 74
     1
176
     1
 91
        4
176
     1
 64
     7
176
     1
 65
   257
176
     1
 75
     1
176
     1
175
     1
176
     1
 42
1.0
176
     1
 92
       12
176
     1
 66
     7
176
     1
 43
1.0
176
     1
 76
     1
176
     1
 77
     6
176
     1
 78
     2
176
     1
 67
     7
176
     1
 79
     5
176
     1
170
     0
176
     1
171
     0
176
     1
290
     0
176
     1
 93
        1
176
     1
 44
0.0
176
     1
173
     0
176
     1
  0
ENDSEC
  0
EOF
