  0
SECTION
  2
HEADER
  9
$ACADVER
  1
AC1024
  9
$ACADMAINTVER
 70
     6
  9
$DWGCODEPAGE
  3
UNDEFINED
  9
$INSBASE
 10
0.0
 20
0.0
 30
0.0
  9
$EXTMIN
 10
1.000000000000000E+20
 20
1.000000000000000E+20
 30
1.000000000000000E+20
  9
$EXTMAX
 10
-1.000000000000000E+20
 20
-1.000000000000000E+20
 30
-1.000000000000000E+20
  9
$LIMMIN
 10
0.0
 20
0.0
  9
$LIMMAX
 10
12.0
 20
9.0
  9
$ORTHOMODE
 70
     0
  9
$REGENMODE
 70
     1
  9
$FILLMODE
 70
     1
  9
$QTEXTMODE
 70
     0
  9
$MIRRTEXT
 70
     1
  9
$LTSCALE
 40
1.0
  9
$ATTMODE
 70
     1
  9
$TEXTSIZE
 40
0.2
  9
$TRACEWID
 40
0.05
  9
$TEXTSTYLE
  7
Standard
  9
$CLAYER
  8
0
  9
$CELTYPE
  6
ByLayer
  9
$CECOLOR
 62
   256
  9
$CELTSCALE
 40
1.0
  9
$DISPSILH
 70
     0
  9
$DIMSCALE
 40
1.0
  9
$DIMASZ
 40
0.18
  9
$DIMEXO
 40
0.0625
  9
$DIMDLI
 40
0.38
  9
$DIMRND
 40
0.0
  9
$DIMDLE
 40
0.0
  9
$DIMEXE
 40
0.18
  9
$DIMTP
 40
0.0
  9
$DIMTM
 40
0.0
  9
$DIMTXT
 40
0.18
  9
$DIMCEN
 40
0.09
  9
$DIMTSZ
 40
0.0
  9
$DIMTOL
 70
     0
  9
$DIMLIM
 70
     0
  9
$DIMTIH
 70
     1
  9
$DIMTOH
 70
     1
  9
$DIMSE1
 70
     0
  9
$DIMSE2
 70
     0
  9
$DIMTAD
 70
     0
  9
$DIMZIN
 70
     0
  9
$DIMBLK
  1

  9
$DIMASO
 70
     1
  9
$DIMSHO
 70
     1
  9
$DIMPOST
  1

  9
$DIMAPOST
  1

  9
$DIMALT
 70
     0
  9
$DIMALTD
 70
     2
  9
$DIMALTF
 40
25.4
  9
$DIMLFAC
 40
1.0
  9
$DIMTOFL
 70
     0
  9
$DIMTVP
 40
0.0
  9
$DIMTIX
 70
     0
  9
$DIMSOXD
 70
     0
  9
$DIMSAH
 70
     0
  9
$DIMBLK1
  1

  9
$DIMBLK2
  1

  9
$DIMSTYLE
  2
Standard
  9
$DIMCLRD
 70
     0
  9
$DIMCLRE
 70
     0
  9
$DIMCLRT
 70
     0
  9
$DIMTFAC
 40
1.0
  9
$DIMGAP
 40
0.09
  9
$DIMJUST
 70
     0
  9
$DIMSD1
 70
     0
  9
$DIMSD2
 70
     0
  9
$DIMTOLJ
 70
     1
  9
$DIMTZIN
 70
     0
  9
$DIMALTZ
 70
     0
  9
$DIMALTTZ
 70
     0
  9
$DIMUPT
 70
     0
  9
$DIMDEC
 70
     4
  9
$DIMTDEC
 70
     4
  9
$DIMALTU
 70
     2
  9
$DIMALTTD
 70
     2
  9
$DIMTXSTY
  7
Standard
  9
$DIMAUNIT
 70
     0
  9
$DIMADEC
 70
     0
  9
$DIMALTRND
 40
0.0
  9
$DIMAZIN
 70
     0
  9
$DIMDSEP
 70
    46
  9
$DIMATFIT
 70
     3
  9
$DIMFRAC
 70
     0
  9
$DIMLDRBLK
  1

  9
$DIMLUNIT
 70
     2
  9
$DIMLWD
 70
    -2
  9
$DIMLWE
 70
    -2
  9
$DIMTMOVE
 70
     0
  9
$DIMFXL
 40
1.0
  9
$DIMFXLON
 70
     0
  9
$DIMJOGANG
 40
0.7853981633974483
  9
$DIMTFILL
 70
     0
  9
$DIMTFILLCLR
 70
     0
  9
$DIMARCSYM
 70
     0
  9
$DIMLTYPE
  6

  9
$DIMLTEX1
  6

  9
$DIMLTEX2
  6

  9
$DIMTXTDIRECTION
 70
     0
  9
$LUNITS
 70
     2
  9
$LUPREC
 70
     4
  9
$SKETCHINC
 40
0.1
  9
$FILLETRAD
 40
0.5
  9
$AUNITS
 70
     0
  9
$AUPREC
 70
     0
  9
$MENU
  1
.
  9
$ELEVATION
 40
0.0
  9
$PELEVATION
 40
0.0
  9
$THICKNESS
 40
0.0
  9
$LIMCHECK
 70
     0
  9
$CHAMFERA
 40
0.5
  9
$CHAMFERB
 40
0.5
  9
$CHAMFERC
 40
1.0
  9
$CHAMFERD
 40
0.0
  9
$SKPOLY
 70
     0
  9
$TDCREATE
 40
2457917.610324062
  9
$TDUCREATE
 40
2457917.235324074
  9
$TDUPDATE
 40
2457917.610324062
  9
$TDUUPDATE
 40
2457917.235324074
  9
$TDINDWG
 40
0.0000000116
  9
$TDUSRTIMER
 40
0.0000000116
  9
$USRTIMER
 70
     1
  9
$ANGBASE
 50
0.0
  9
$ANGDIR
 70
     0
  9
$PDMODE
 70
     0
  9
$PDSIZE
 40
0.0
  9
$PLINEWID
 40
0.0
  9
$SPLFRAME
 70
     0
  9
$SPLINETYPE
 70
     6
  9
$SPLINESEGS
 70
     8
  9
$HANDSEED
  5
146
  9
$SURFTAB1
 70
     6
  9
$SURFTAB2
 70
     6
  9
$SURFTYPE
 70
     6
  9
$SURFU
 70
     6
  9
$SURFV
 70
     6
  9
$UCSBASE
  2

  9
$UCSNAME
  2

  9
$UCSORG
 10
0.0
 20
0.0
 30
0.0
  9
$UCSXDIR
 10
1.0
 20
0.0
 30
0.0
  9
$UCSYDIR
 10
0.0
 20
1.0
 30
0.0
  9
$UCSORTHOREF
  2

  9
$UCSORTHOVIEW
 70
     0
  9
$UCSORGTOP
 10
0.0
 20
0.0
 30
0.0
  9
$UCSORGBOTTOM
 10
0.0
 20
0.0
 30
0.0
  9
$UCSORGLEFT
 10
0.0
 20
0.0
 30
0.0
  9
$UCSORGRIGHT
 10
0.0
 20
0.0
 30
0.0
  9
$UCSORGFRONT
 10
0.0
 20
0.0
 30
0.0
  9
$UCSORGBACK
 10
0.0
 20
0.0
 30
0.0
  9
$PUCSBASE
  2

  9
$PUCSNAME
  2

  9
$PUCSORG
 10
0.0
 20
0.0
 30
0.0
  9
$PUCSXDIR
 10
1.0
 20
0.0
 30
0.0
  9
$PUCSYDIR
 10
0.0
 20
1.0
 30
0.0
  9
$PUCSORTHOREF
  2

  9
$PUCSORTHOVIEW
 70
     0
  9
$PUCSORGTOP
 10
0.0
 20
0.0
 30
0.0
  9
$PUCSORGBOTTOM
 10
0.0
 20
0.0
 30
0.0
  9
$PUCSORGLEFT
 10
0.0
 20
0.0
 30
0.0
  9
$PUCSORGRIGHT
 10
0.0
 20
0.0
 30
0.0
  9
$PUCSORGFRONT
 10
0.0
 20
0.0
 30
0.0
  9
$PUCSORGBACK
 10
0.0
 20
0.0
 30
0.0
  9
$USERI1
 70
     0
  9
$USERI2
 70
     0
  9
$USERI3
 70
     0
  9
$USERI4
 70
     0
  9
$USERI5
 70
     0
  9
$USERR1
 40
0.0
  9
$USERR2
 40
0.0
  9
$USERR3
 40
0.0
  9
$USERR4
 40
0.0
  9
$USERR5
 40
0.0
  9
$WORLDVIEW
 70
     1
  9
$SHADEDGE
 70
     3
  9
$SHADEDIF
 70
    70
  9
$TILEMODE
 70
     1
  9
$MAXACTVP
 70
    64
  9
$PINSBASE
 10
0.0
 20
0.0
 30
0.0
  9
$PLIMCHECK
 70
     0
  9
$PEXTMIN
 10
1.000000000000000E+20
 20
1.000000000000000E+20
 30
1.000000000000000E+20
  9
$PEXTMAX
 10
-1.000000000000000E+20
 20
-1.000000000000000E+20
 30
-1.000000000000000E+20
  9
$PLIMMIN
 10
0.0
 20
0.0
  9
$PLIMMAX
 10
12.0
 20
9.0
  9
$UNITMODE
 70
     0
  9
$VISRETAIN
 70
     1
  9
$PLINEGEN
 70
     0
  9
$PSLTSCALE
 70
     1
  9
$TREEDEPTH
 70
  3020
  9
$CMLSTYLE
  2
Standard
  9
$CMLJUST
 70
     0
  9
$CMLSCALE
 40
1.0
  9
$PROXYGRAPHICS
 70
     1
  9
$MEASUREMENT
 70
     0
  9
$CELWEIGHT
370
    -1
  9
$ENDCAPS
280
     0
  9
$JOINSTYLE
280
     0
  9
$LWDISPLAY
290
     1
  9
$INSUNITS
 70
     1
  9
$HYPERLINKBASE
  1

  9
$STYLESHEET
  1

  9
$XEDIT
290
     1
  9
$CEPSNTYPE
380
     0
  9
$PSTYLEMODE
290
     1
  9
$FINGERPRINTGUID
  2
{F9ADA898-2964-45CE-27BA-8D8875C30112}
  9
$VERSIONGUID
  2
{FAEB1C32-E019-11D5-929B-00C0DF256EC4}
  9
$EXTNAMES
290
     1
  9
$PSVPSCALE
 40
0.0
  9
$OLESTARTUP
290
     0
  9
$SORTENTS
280
   127
  9
$INDEXCTL
280
     0
  9
$HIDETEXT
280
     1
  9
$XCLIPFRAME
280
     2
  9
$HALOGAP
280
     0
  9
$OBSCOLOR
 70
   257
  9
$OBSLTYPE
280
     0
  9
$INTERSECTIONDISPLAY
280
     0
  9
$INTERSECTIONCOLOR
 70
   257
  9
$DIMASSOC
280
     2
  9
$PROJECTNAME
  1

  9
$CAMERADISPLAY
290
     0
  9
$LENSLENGTH
 40
50.0
  9
$CAMERAHEIGHT
 40
0.0
  9
$STEPSPERSEC
 40
2.0
  9
$STEPSIZE
 40
6.0
  9
$3DDWFPREC
 40
2.0
  9
$PSOLWIDTH
 40
0.25
  9
$PSOLHEIGHT
 40
4.0
  9
$LOFTANG1
 40
1.570796326794897
  9
$LOFTANG2
 40
1.570796326794897
  9
$LOFTMAG1
 40
0.0
  9
$LOFTMAG2
 40
0.0
  9
$LOFTPARAM
 70
     7
  9
$LOFTNORMALS
280
     1
  9
$LATITUDE
 40
37.795
  9
$LONGITUDE
 40
-122.394
  9
$NORTHDIRECTION
 40
0.0
  9
$TIMEZONE
 70
 -8000
  9
$LIGHTGLYPHDISPLAY
280
     1
  9
$TILEMODELIGHTSYNCH
280
     1
  9
$CMATERIAL
347
3C
  9
$SOLIDHIST
280
     1
  9
$SHOWHIST
280
     1
  9
$DWFFRAME
280
     2
  9
$DGNFRAME
280
     2
  9
$REALWORLDSCALE
290
     1
  9
$INTERFERECOLOR
 62
   256
  9
$CSHADOW
280
     0
  9
$SHADOWPLANELOCATION
 40
0.0
  0
ENDSEC
  0
SECTION
  2
CLASSES
  0
CLASS
  1
ACDBDICTIONARYWDFLT
  2
AcDbDictionaryWithDefault
  3
ObjectDBX Classes
 90
        0
 91
        4
280
     0
281
     0
  0
CLASS
  1
VISUALSTYLE
  2
AcDbVisualStyle
  3
ObjectDBX Classes
 90
     4095
 91
        4
280
     0
281
     0
  0
CLASS
  1
MATERIAL
  2
AcDbMaterial
  3
ObjectDBX Classes
 90
     1153
 91
        4
280
     0
281
     0
  0
CLASS
  1
SUN
  2
AcDbSun
  3
SCENEOE
 90
     1024
 91
        4
280
     0
281
     0
  0
ENDSEC
  0
SECTION
  2
TABLES
  0
TABLE
  2
VPORT
  5
8
330
0
100
AcDbSymbolTable
 70
     1
  0
VPORT
  5
29
330
8
100
AcDbSymbolTableRecord
100
AcDbViewportTableRecord
  2
*Active
 70
     0
 10
0.0
 20
0.0
 11
1.0
 21
1.0
 12
0.0
 22
0.0
 13
0.0
 23
0.0
 14
0.5
 24
0.5
 15
0.5
 25
0.5
 16
0.0
 26
0.0
 36
1.0
 17
105.0008280156501
 27
-148.4999710739862
 37
0.0
 40
296.9999421479724
 41
0.7070764206636528
 42
50.0
 43
0.0
 44
0.0
 50
0.0
 51
0.0
 71
     0
 72
   100
 73
     1
 74
     3
 75
     0
 76
     0
 77
     0
 78
     0
281
     0
 65
     1
110
0.0
120
0.0
130
0.0
111
1.0
121
0.0
131
0.0
112
0.0
122
1.0
132
0.0
 79
     0
146
0.0
 60
     3
 61
     5
292
     1
282
     1
141
0.0
142
0.0
 63
   250
361
3F
  0
ENDTAB
  0
TABLE
  2
LTYPE
  5
5
330
0
100
AcDbSymbolTable
 70
     2
  0
LTYPE
  5
14
330
5
100
AcDbSymbolTableRecord
100
AcDbLinetypeTableRecord
  2
ByBlock
 70
     0
  3

 72
    65
 73
     0
 40
0.0
  0
LTYPE
  5
15
330
5
100
AcDbSymbolTableRecord
100
AcDbLinetypeTableRecord
  2
ByLayer
 70
     0
  3

 72
    65
 73
     0
 40
0.0
  0
LTYPE
  5
16
330
5
100
AcDbSymbolTableRecord
100
AcDbLinetypeTableRecord
  2
Continuous
 70
     0
  3
Solid line
 72
    65
 73
     0
 40
0.0
  0
LTYPE
  5
142
330
5
100
AcDbSymbolTableRecord
100
AcDbLinetypeTableRecord
  2
AI-Linetype-1
 70
     0
  3
Adobe Illustrator Linetype No. 1
 72
    65
 73
     2
 40
1.411111110758333
 49
0.7055555553791667
 74
     0
 49
-0.7055555553791667
 74
     0
  0
ENDTAB
  0
TABLE
  2
LAYER
  5
2
330
0
100
AcDbSymbolTable
 70
     2
  0
LAYER
  5
10
330
2
100
AcDbSymbolTableRecord
100
AcDbLayerTableRecord
  2
0
 70
     0
 62
     7
  6
Continuous
370
    -3
390
F
347
3E
  0
LAYER
  5
40
330
2
100
AcDbSymbolTableRecord
100
AcDbLayerTableRecord
  2
_U+30EC_U+30A4_U+30E4_U+30FC 1
 70
     0
 62
     7
  6
Continuous
370
    -3
390
F
347
3E
  0
ENDTAB
  0
TABLE
  2
STYLE
  5
3
330
0
100
AcDbSymbolTable
 70
     1
  0
STYLE
  5
11
330
3
100
AcDbSymbolTableRecord
100
AcDbTextStyleTableRecord
  2
Standard
 70
     0
 40
0.0
 41
1.0
 50
0.0
 71
     0
 42
0.2
  3
txt
  4

  0
ENDTAB
  0
TABLE
  2
VIEW
  5
6
330
0
100
AcDbSymbolTable
 70
     0
  0
ENDTAB
  0
TABLE
  2
UCS
  5
7
330
0
100
AcDbSymbolTable
 70
     0
  0
ENDTAB
  0
TABLE
  2
APPID
  5
9
330
0
100
AcDbSymbolTable
 70
     1
  0
APPID
  5
12
330
9
100
AcDbSymbolTableRecord
100
AcDbRegAppTableRecord
  2
ACAD
 70
     0
  0
ENDTAB
  0
TABLE
  2
DIMSTYLE
  5
A
330
0
100
AcDbSymbolTable
 70
     1
100
AcDbDimStyleTable
  0
DIMSTYLE
105
27
330
A
100
AcDbSymbolTableRecord
100
AcDbDimStyleTableRecord
  2
Standard
 70
     0
178
     0
340
11
  0
ENDTAB
  0
TABLE
  2
BLOCK_RECORD
  5
1
330
0
100
AcDbSymbolTable
 70
     7
  0
BLOCK_RECORD
  5
1F
330
1
100
AcDbSymbolTableRecord
100
AcDbBlockTableRecord
  2
*Model_Space
340
22
 70
     0
280
     1
281
     0
  0
BLOCK_RECORD
  5
1B
330
1
100
AcDbSymbolTableRecord
100
AcDbBlockTableRecord
  2
*Paper_Space
340
1E
 70
     0
280
     1
281
     0
  0
BLOCK_RECORD
  5
23
330
1
100
AcDbSymbolTableRecord
100
AcDbBlockTableRecord
  2
*Paper_Space0
340
26
 70
     0
280
     1
281
     0
  0
BLOCK_RECORD
  5
75
330
1
100
AcDbSymbolTableRecord
100
AcDbBlockTableRecord
  2
block 2
340
0
102
{BLKREFS
331
76
102
}
 70
     0
280
     1
281
     0
  0
BLOCK_RECORD
  5
84
330
1
100
AcDbSymbolTableRecord
100
AcDbBlockTableRecord
  2
block 3
340
0
102
{BLKREFS
331
85
102
}
 70
     0
280
     1
281
     0
  0
BLOCK_RECORD
  5
9C
330
1
100
AcDbSymbolTableRecord
100
AcDbBlockTableRecord
  2
block 4
340
0
102
{BLKREFS
331
9D
102
}
 70
     0
280
     1
281
     0
  0
BLOCK_RECORD
  5
B9
330
1
100
AcDbSymbolTableRecord
100
AcDbBlockTableRecord
  2
block 5
340
0
102
{BLKREFS
331
BA
102
}
 70
     0
280
     1
281
     0
  0
BLOCK_RECORD
  5
D7
330
1
100
AcDbSymbolTableRecord
100
AcDbBlockTableRecord
  2
block 6
340
0
102
{BLKREFS
331
D8
102
}
 70
     0
280
     1
281
     0
  0
BLOCK_RECORD
  5
FF
330
1
100
AcDbSymbolTableRecord
100
AcDbBlockTableRecord
  2
block 7
340
0
102
{BLKREFS
331
100
102
}
 70
     0
280
     1
281
     0
  0
ENDTAB
  0
ENDSEC
  0
SECTION
  2
BLOCKS
  0
BLOCK
  5
20
330
1F
100
AcDbEntity
  8
0
100
AcDbBlockBegin
  2
*Model_Space
 70
     0
 10
0.0
 20
0.0
 30
0.0
  3
*Model_Space
  1

  0
ENDBLK
  5
21
330
1F
100
AcDbEntity
  8
0
100
AcDbBlockEnd
  0
BLOCK
  5
1C
330
1B
100
AcDbEntity
 67
     1
  8
0
100
AcDbBlockBegin
  2
*Paper_Space
 70
     0
 10
0.0
 20
0.0
 30
0.0
  3
*Paper_Space
  1

  0
ENDBLK
  5
1D
330
1B
100
AcDbEntity
 67
     1
  8
0
100
AcDbBlockEnd
  0
BLOCK
  5
24
330
23
100
AcDbEntity
  8
0
100
AcDbBlockBegin
  2
*Paper_Space0
 70
     0
 10
0.0
 20
0.0
 30
0.0
  3
*Paper_Space0
  1

  0
ENDBLK
  5
25
330
23
100
AcDbEntity
  8
0
100
AcDbBlockEnd
  0
BLOCK
  5
77
330
75
100
AcDbEntity
  8
0
100
AcDbBlockBegin
  2
block 2
 70
     0
 10
0.0
 20
0.0
 30
0.0
  3
block 2
  1

  0
SPLINE
  5
79
330
75
100
AcDbEntity
  8
_U+30EC_U+30A4_U+30E4_U+30FC 1
370
     0
100
AcDbSpline
210
0.0
220
0.0
230
1.0
 70
    11
 71
     3
 72
    32
 73
    28
 74
     0
 42
0.0000000001
 43
0.0000000001
 12
1.0
 22
0.0
 32
0.0
 13
1.0
 23
0.0
 33
0.0
 40
0.0
 40
0.0
 40
0.0
 40
0.0
 40
1.0
 40
1.0
 40
1.0
 40
2.0
 40
2.0
 40
2.0
 40
3.0
 40
3.0
 40
3.0
 40
4.0
 40
4.0
 40
4.0
 40
5.0
 40
5.0
 40
5.0
 40
6.0
 40
6.0
 40
6.0
 40
7.0
 40
7.0
 40
7.0
 40
8.0
 40
8.0
 40
8.0
 40
9.0
 40
9.0
 40
9.0
 40
9.0
 10
93.23444686254209
 20
-158.3968776730744
 30
0.0
 10
92.7181993040774
 20
-158.3968776730744
 30
0.0
 10
92.70975882013853
 20
-157.8429063190462
 30
0.0
 10
92.70975882013853
 20
-157.6289658894122
 30
0.0
 10
92.70975882013853
 20
-157.398489001449
 30
0.0
 10
92.72887910008167
 20
-156.7511555597706
 30
0.0
 10
93.27251516765409
 20
-156.7511555597706
 30
0.0
 10
93.44597572533642
 20
-156.7511555597706
 30
0.0
 10
93.69143877866048
 20
-156.8210909981211
 30
0.0
 10
93.72950708377249
 20
-157.1531982028992
 30
0.0
 10
93.72950708377249
 20
-157.1531982028992
 30
0.0
 10
93.51573890891274
 20
-157.1531982028992
 30
0.0
 10
93.51573890891274
 20
-157.1531982028992
 30
0.0
 10
93.50523136768273
 20
-157.0960096178441
 30
0.0
 10
93.47353648921843
 20
-156.9478705119783
 30
0.0
 10
93.27044811036295
 20
-156.9478705119783
 30
0.0
 10
92.97847626798803
 20
-156.9478705119783
 30
0.0
 10
92.9381686508106
 20
-157.2758436021741
 30
0.0
 10
92.92559405228944
 20
-157.4808267835465
 30
0.0
 10
93.01861163039119
 20
-157.4026231160313
 30
0.0
 10
93.08630775667635
 20
-157.343367473685
 30
0.0
 10
93.26820879829754
 20
-157.343367473685
 30
0.0
 10
93.44804278262758
 20
-157.343367473685
 30
0.0
 10
93.75052216623251
 20
-157.4515434719218
 30
0.0
 10
93.75052216623251
 20
-157.8577202296328
 30
0.0
 10
93.75052216623251
 20
-158.1770805811155
 30
0.0
 10
93.5517401567336
 20
-158.3968776730744
 30
0.0
 10
93.23444686254209
 20
-158.3968776730744
 30
0.0
  0
SPLINE
  5
7A
330
75
100
AcDbEntity
  8
_U+30EC_U+30A4_U+30E4_U+30FC 1
370
     0
100
AcDbSpline
210
0.0
220
0.0
230
1.0
 70
    11
 71
     3
 72
    17
 73
    13
 74
     0
 42
0.0000000001
 43
0.0000000001
 12
1.0
 22
0.0
 32
0.0
 13
1.0
 23
0.0
 33
0.0
 40
0.0
 40
0.0
 40
0.0
 40
0.0
 40
1.0
 40
1.0
 40
1.0
 40
2.0
 40
2.0
 40
2.0
 40
3.0
 40
3.0
 40
3.0
 40
4.0
 40
4.0
 40
4.0
 40
4.0
 10
93.25132783041981
 20
-157.5380153686016
 30
0.0
 10
92.98898380921804
 20
-157.5380153686016
 30
0.0
 10
92.95091550410602
 20
-157.749544231396
 30
0.0
 10
92.95091550410602
 20
-157.8659884587974
 30
0.0
 10
92.95091550410602
 20
-158.0416883285451
 30
0.0
 10
93.04617239427319
 20
-158.2046413449975
 30
0.0
 10
93.23014049318553
 20
-158.2046413449975
 30
0.0
 10
93.35071883516927
 20
-158.2046413449975
 30
0.0
 10
93.526418704917
 20
-158.1453857026512
 30
0.0
 10
93.526418704917
 20
-157.859787286924
 30
0.0
 10
93.526418704917
 20
-157.6355115708342
 30
0.0
 10
93.38672008299012
 20
-157.5380153686016
 30
0.0
 10
93.25132783041981
 20
-157.5380153686016
 30
0.0
  0
HATCH
  5
7B
330
75
100
AcDbEntity
  8
_U+30EC_U+30A4_U+30E4_U+30FC 1
 62
     7
420
 16777215
100
AcDbHatch
 10
0.0
 20
0.0
 30
0.0
210
0.0
220
0.0
230
1.0
  2
SOLID
 70
     1
 71
     0
 91
        2
 92
        1
 93
        1
 72
     4
 94
        3
 73
     0
 74
     1
 95
       32
 96
       28
 40
0.0
 40
0.0
 40
0.0
 40
0.0
 40
1.0
 40
1.0
 40
1.0
 40
2.0
 40
2.0
 40
2.0
 40
3.0
 40
3.0
 40
3.0
 40
4.0
 40
4.0
 40
4.0
 40
5.0
 40
5.0
 40
5.0
 40
6.0
 40
6.0
 40
6.0
 40
7.0
 40
7.0
 40
7.0
 40
8.0
 40
8.0
 40
8.0
 40
9.0
 40
9.0
 40
9.0
 40
9.0
 10
93.23444686254209
 20
-158.3968776730744
 10
92.7181993040774
 20
-158.3968776730744
 10
92.70975882013853
 20
-157.8429063190462
 10
92.70975882013853
 20
-157.6289658894122
 10
92.70975882013853
 20
-157.398489001449
 10
92.72887910008167
 20
-156.7511555597706
 10
93.27251516765409
 20
-156.7511555597706
 10
93.44597572533642
 20
-156.7511555597706
 10
93.69143877866048
 20
-156.8210909981211
 10
93.72950708377249
 20
-157.1531982028992
 10
93.72950708377249
 20
-157.1531982028992
 10
93.51573890891274
 20
-157.1531982028992
 10
93.51573890891274
 20
-157.1531982028992
 10
93.50523136768273
 20
-157.0960096178441
 10
93.47353648921843
 20
-156.9478705119783
 10
93.27044811036295
 20
-156.9478705119783
 10
92.97847626798803
 20
-156.9478705119783
 10
92.9381686508106
 20
-157.2758436021741
 10
92.92559405228944
 20
-157.4808267835465
 10
93.01861163039119
 20
-157.4026231160313
 10
93.08630775667635
 20
-157.343367473685
 10
93.26820879829754
 20
-157.343367473685
 10
93.44804278262758
 20
-157.343367473685
 10
93.75052216623251
 20
-157.4515434719218
 10
93.75052216623251
 20
-157.8577202296328
 10
93.75052216623251
 20
-158.1770805811155
 10
93.5517401567336
 20
-158.3968776730744
 10
93.23444686254209
 20
-158.3968776730744
 97
        0
 97
        0
 92
        1
 93
        1
 72
     4
 94
        3
 73
     0
 74
     1
 95
       17
 96
       13
 40
0.0
 40
0.0
 40
0.0
 40
0.0
 40
1.0
 40
1.0
 40
1.0
 40
2.0
 40
2.0
 40
2.0
 40
3.0
 40
3.0
 40
3.0
 40
4.0
 40
4.0
 40
4.0
 40
4.0
 10
93.25132783041981
 20
-157.5380153686016
 10
92.98898380921804
 20
-157.5380153686016
 10
92.95091550410602
 20
-157.749544231396
 10
92.95091550410602
 20
-157.8659884587974
 10
92.95091550410602
 20
-158.0416883285451
 10
93.04617239427319
 20
-158.2046413449975
 10
93.23014049318553
 20
-158.2046413449975
 10
93.35071883516927
 20
-158.2046413449975
 10
93.526418704917
 20
-158.1453857026512
 10
93.526418704917
 20
-157.859787286924
 10
93.526418704917
 20
-157.6355115708342
 10
93.38672008299012
 20
-157.5380153686016
 10
93.25132783041981
 20
-157.5380153686016
 97
        0
 97
        0
 75
     2
 76
     1
 98
        0
  0
ENDBLK
  5
78
330
75
100
AcDbEntity
  8
0
100
AcDbBlockEnd
  0
BLOCK
  5
86
330
84
100
AcDbEntity
  8
0
100
AcDbBlockBegin
  2
block 3
 70
     0
 10
0.0
 20
0.0
 30
0.0
  3
block 3
  1

  0
SPLINE
  5
88
330
84
100
AcDbEntity
  8
_U+30EC_U+30A4_U+30E4_U+30FC 1
370
     0
100
AcDbSpline
210
0.0
220
0.0
230
1.0
 70
    11
 71
     3
 72
    26
 73
    22
 74
     0
 42
0.0000000001
 43
0.0000000001
 12
1.0
 22
0.0
 32
0.0
 13
1.0
 23
0.0
 33
0.0
 40
0.0
 40
0.0
 40
0.0
 40
0.0
 40
1.0
 40
1.0
 40
1.0
 40
2.0
 40
2.0
 40
2.0
 40
3.0
 40
3.0
 40
3.0
 40
4.0
 40
4.0
 40
4.0
 40
5.0
 40
5.0
 40
5.0
 40
6.0
 40
6.0
 40
6.0
 40
7.0
 40
7.0
 40
7.0
 40
7.0
 10
104.0928710677268
 20
-158.3462347694412
 30
0.0
 10
104.0928710677268
 20
-158.3462347694412
 30
0.0
 10
104.0928710677268
 20
-157.2420816664186
 30
0.0
 10
104.0928710677268
 20
-157.2420816664186
 30
0.0
 10
104.0928710677268
 20
-157.2420816664186
 30
0.0
 10
103.7628309202398
 20
-157.2420816664186
 30
0.0
 10
103.7628309202398
 20
-157.2420816664186
 30
0.0
 10
103.7628309202398
 20
-157.2420816664186
 30
0.0
 10
103.7628309202398
 20
-157.0939425605529
 30
0.0
 10
103.7628309202398
 20
-157.0939425605529
 30
0.0
 10
104.0949381250179
 20
-157.0791286499663
 30
0.0
 10
104.1414469140688
 20
-156.916175633514
 30
0.0
 10
104.171074735242
 20
-156.8017984634037
 30
0.0
 10
104.171074735242
 20
-156.8017984634037
 30
0.0
 10
104.3171467838166
 20
-156.8017984634037
 30
0.0
 10
104.3171467838166
 20
-156.8017984634037
 30
0.0
 10
104.3171467838166
 20
-156.8017984634037
 30
0.0
 10
104.3171467838166
 20
-158.3462347694412
 30
0.0
 10
104.3171467838166
 20
-158.3462347694412
 30
0.0
 10
104.3171467838166
 20
-158.3462347694412
 30
0.0
 10
104.0928710677268
 20
-158.3462347694412
 30
0.0
 10
104.0928710677268
 20
-158.3462347694412
 30
0.0
  0
HATCH
  5
89
330
84
100
AcDbEntity
  8
_U+30EC_U+30A4_U+30E4_U+30FC 1
 62
     7
420
 16777215
100
AcDbHatch
 10
0.0
 20
0.0
 30
0.0
210
0.0
220
0.0
230
1.0
  2
SOLID
 70
     1
 71
     0
 91
        1
 92
        1
 93
        1
 72
     4
 94
        3
 73
     0
 74
     1
 95
       26
 96
       22
 40
0.0
 40
0.0
 40
0.0
 40
0.0
 40
1.0
 40
1.0
 40
1.0
 40
2.0
 40
2.0
 40
2.0
 40
3.0
 40
3.0
 40
3.0
 40
4.0
 40
4.0
 40
4.0
 40
5.0
 40
5.0
 40
5.0
 40
6.0
 40
6.0
 40
6.0
 40
7.0
 40
7.0
 40
7.0
 40
7.0
 10
104.0928710677268
 20
-158.3462347694412
 10
104.0928710677268
 20
-158.3462347694412
 10
104.0928710677268
 20
-157.2420816664186
 10
104.0928710677268
 20
-157.2420816664186
 10
104.0928710677268
 20
-157.2420816664186
 10
103.7628309202398
 20
-157.2420816664186
 10
103.7628309202398
 20
-157.2420816664186
 10
103.7628309202398
 20
-157.2420816664186
 10
103.7628309202398
 20
-157.0939425605529
 10
103.7628309202398
 20
-157.0939425605529
 10
104.0949381250179
 20
-157.0791286499663
 10
104.1414469140688
 20
-156.916175633514
 10
104.171074735242
 20
-156.8017984634037
 10
104.171074735242
 20
-156.8017984634037
 10
104.3171467838166
 20
-156.8017984634037
 10
104.3171467838166
 20
-156.8017984634037
 10
104.3171467838166
 20
-156.8017984634037
 10
104.3171467838166
 20
-158.3462347694412
 10
104.3171467838166
 20
-158.3462347694412
 10
104.3171467838166
 20
-158.3462347694412
 10
104.0928710677268
 20
-158.3462347694412
 10
104.0928710677268
 20
-158.3462347694412
 97
        0
 97
        0
 75
     2
 76
     1
 98
        0
  0
SPLINE
  5
8A
330
84
100
AcDbEntity
  8
_U+30EC_U+30A4_U+30E4_U+30FC 1
370
     0
100
AcDbSpline
210
0.0
220
0.0
230
1.0
 70
    11
 71
     3
 72
    26
 73
    22
 74
     0
 42
0.0000000001
 43
0.0000000001
 12
1.0
 22
0.0
 32
0.0
 13
1.0
 23
0.0
 33
0.0
 40
0.0
 40
0.0
 40
0.0
 40
0.0
 40
1.0
 40
1.0
 40
1.0
 40
2.0
 40
2.0
 40
2.0
 40
3.0
 40
3.0
 40
3.0
 40
4.0
 40
4.0
 40
4.0
 40
5.0
 40
5.0
 40
5.0
 40
6.0
 40
6.0
 40
6.0
 40
7.0
 40
7.0
 40
7.0
 40
7.0
 10
105.2294080683107
 20
-158.3462347694412
 30
0.0
 10
105.2294080683107
 20
-158.3462347694412
 30
0.0
 10
104.9923854989255
 20
-158.3462347694412
 30
0.0
 10
104.9923854989255
 20
-158.3462347694412
 30
0.0
 10
105.0178792055164
 20
-158.0372097044143
 30
0.0
 10
105.2104600431418
 20
-157.5190673434327
 30
0.0
 10
105.6166368008528
 20
-157.0133273261981
 30
0.0
 10
105.6166368008528
 20
-157.0133273261981
 30
0.0
 10
104.77878957884
 20
-157.0133273261981
 30
0.0
 10
104.77878957884
 20
-157.0133273261981
 30
0.0
 10
104.77878957884
 20
-157.0133273261981
 30
0.0
 10
104.77878957884
 20
-156.8017984634037
 30
0.0
 10
104.77878957884
 20
-156.8017984634037
 30
0.0
 10
104.77878957884
 20
-156.8017984634037
 30
0.0
 10
105.853659370238
 20
-156.8017984634037
 30
0.0
 10
105.853659370238
 20
-156.8017984634037
 30
0.0
 10
105.853659370238
 20
-156.8017984634037
 30
0.0
 10
105.853659370238
 20
-157.0133273261981
 30
0.0
 10
105.853659370238
 20
-157.0133273261981
 30
0.0
 10
105.5298203946245
 20
-157.3034043660561
 30
0.0
 10
105.2631700040662
 20
-157.8956162799705
 30
0.0
 10
105.2294080683107
 20
-158.3462347694412
 30
0.0
  0
HATCH
  5
8B
330
84
100
AcDbEntity
  8
_U+30EC_U+30A4_U+30E4_U+30FC 1
 62
     7
420
 16777215
100
AcDbHatch
 10
0.0
 20
0.0
 30
0.0
210
0.0
220
0.0
230
1.0
  2
SOLID
 70
     1
 71
     0
 91
        1
 92
        1
 93
        1
 72
     4
 94
        3
 73
     0
 74
     1
 95
       26
 96
       22
 40
0.0
 40
0.0
 40
0.0
 40
0.0
 40
1.0
 40
1.0
 40
1.0
 40
2.0
 40
2.0
 40
2.0
 40
3.0
 40
3.0
 40
3.0
 40
4.0
 40
4.0
 40
4.0
 40
5.0
 40
5.0
 40
5.0
 40
6.0
 40
6.0
 40
6.0
 40
7.0
 40
7.0
 40
7.0
 40
7.0
 10
105.2294080683107
 20
-158.3462347694412
 10
105.2294080683107
 20
-158.3462347694412
 10
104.9923854989255
 20
-158.3462347694412
 10
104.9923854989255
 20
-158.3462347694412
 10
105.0178792055164
 20
-158.0372097044143
 10
105.2104600431418
 20
-157.5190673434327
 10
105.6166368008528
 20
-157.0133273261981
 10
105.6166368008528
 20
-157.0133273261981
 10
104.77878957884
 20
-157.0133273261981
 10
104.77878957884
 20
-157.0133273261981
 10
104.77878957884
 20
-157.0133273261981
 10
104.77878957884
 20
-156.8017984634037
 10
104.77878957884
 20
-156.8017984634037
 10
104.77878957884
 20
-156.8017984634037
 10
105.853659370238
 20
-156.8017984634037
 10
105.853659370238
 20
-156.8017984634037
 10
105.853659370238
 20
-156.8017984634037
 10
105.853659370238
 20
-157.0133273261981
 10
105.853659370238
 20
-157.0133273261981
 10
105.5298203946245
 20
-157.3034043660561
 10
105.2631700040662
 20
-157.8956162799705
 10
105.2294080683107
 20
-158.3462347694412
 97
        0
 97
        0
 75
     2
 76
     1
 98
        0
  0
ENDBLK
  5
87
330
84
100
AcDbEntity
  8
0
100
AcDbBlockEnd
  0
BLOCK
  5
9E
330
9C
100
AcDbEntity
  8
0
100
AcDbBlockBegin
  2
block 4
 70
     0
 10
0.0
 20
0.0
 30
0.0
  3
block 4
  1

  0
SPLINE
  5
A0
330
9C
100
AcDbEntity
  8
_U+30EC_U+30A4_U+30E4_U+30FC 1
370
     0
100
AcDbSpline
210
0.0
220
0.0
230
1.0
 70
    11
 71
     3
 72
    26
 73
    22
 74
     0
 42
0.0000000001
 43
0.0000000001
 12
1.0
 22
0.0
 32
0.0
 13
1.0
 23
0.0
 33
0.0
 40
0.0
 40
0.0
 40
0.0
 40
0.0
 40
1.0
 40
1.0
 40
1.0
 40
2.0
 40
2.0
 40
2.0
 40
3.0
 40
3.0
 40
3.0
 40
4.0
 40
4.0
 40
4.0
 40
5.0
 40
5.0
 40
5.0
 40
6.0
 40
6.0
 40
6.0
 40
7.0
 40
7.0
 40
7.0
 40
7.0
 10
87.35590818128603
 20
-139.4016546960524
 30
0.0
 10
87.35590818128603
 20
-139.4016546960524
 30
0.0
 10
86.25175507826346
 20
-139.4016546960524
 30
0.0
 10
86.25175507826346
 20
-139.4016546960524
 30
0.0
 10
86.25175507826346
 20
-139.4016546960524
 30
0.0
 10
86.25175507826346
 20
-139.7316948435393
 30
0.0
 10
86.25175507826346
 20
-139.7316948435393
 30
0.0
 10
86.25175507826346
 20
-139.7316948435393
 30
0.0
 10
86.1036159723977
 20
-139.7316948435393
 30
0.0
 10
86.1036159723977
 20
-139.7316948435393
 30
0.0
 10
86.08880206181114
 20
-139.3995876387612
 30
0.0
 10
85.92584904535882
 20
-139.3530788497104
 30
0.0
 10
85.81147187524853
 20
-139.3234510285372
 30
0.0
 10
85.81147187524853
 20
-139.3234510285372
 30
0.0
 10
85.81147187524853
 20
-139.1773789799626
 30
0.0
 10
85.81147187524853
 20
-139.1773789799626
 30
0.0
 10
85.81147187524853
 20
-139.1773789799626
 30
0.0
 10
87.35590818128603
 20
-139.1773789799626
 30
0.0
 10
87.35590818128603
 20
-139.1773789799626
 30
0.0
 10
87.35590818128603
 20
-139.1773789799626
 30
0.0
 10
87.35590818128603
 20
-139.4016546960524
 30
0.0
 10
87.35590818128603
 20
-139.4016546960524
 30
0.0
  0
HATCH
  5
A1
330
9C
100
AcDbEntity
  8
_U+30EC_U+30A4_U+30E4_U+30FC 1
 62
     7
420
 16777215
100
AcDbHatch
 10
0.0
 20
0.0
 30
0.0
210
0.0
220
0.0
230
1.0
  2
SOLID
 70
     1
 71
     0
 91
        1
 92
        1
 93
        1
 72
     4
 94
        3
 73
     0
 74
     1
 95
       26
 96
       22
 40
0.0
 40
0.0
 40
0.0
 40
0.0
 40
1.0
 40
1.0
 40
1.0
 40
2.0
 40
2.0
 40
2.0
 40
3.0
 40
3.0
 40
3.0
 40
4.0
 40
4.0
 40
4.0
 40
5.0
 40
5.0
 40
5.0
 40
6.0
 40
6.0
 40
6.0
 40
7.0
 40
7.0
 40
7.0
 40
7.0
 10
87.35590818128603
 20
-139.4016546960524
 10
87.35590818128603
 20
-139.4016546960524
 10
86.25175507826346
 20
-139.4016546960524
 10
86.25175507826346
 20
-139.4016546960524
 10
86.25175507826346
 20
-139.4016546960524
 10
86.25175507826346
 20
-139.7316948435393
 10
86.25175507826346
 20
-139.7316948435393
 10
86.25175507826346
 20
-139.7316948435393
 10
86.1036159723977
 20
-139.7316948435393
 10
86.1036159723977
 20
-139.7316948435393
 10
86.08880206181114
 20
-139.3995876387612
 10
85.92584904535882
 20
-139.3530788497104
 10
85.81147187524853
 20
-139.3234510285372
 10
85.81147187524853
 20
-139.3234510285372
 10
85.81147187524853
 20
-139.1773789799626
 10
85.81147187524853
 20
-139.1773789799626
 10
85.81147187524853
 20
-139.1773789799626
 10
87.35590818128603
 20
-139.1773789799626
 10
87.35590818128603
 20
-139.1773789799626
 10
87.35590818128603
 20
-139.1773789799626
 10
87.35590818128603
 20
-139.4016546960524
 10
87.35590818128603
 20
-139.4016546960524
 97
        0
 97
        0
 75
     2
 76
     1
 98
        0
  0
POLYLINE
  5
A2
330
9C
100
AcDbEntity
  8
_U+30EC_U+30A4_U+30E4_U+30FC 1
370
     0
100
AcDb2dPolyline
 66
     1
 10
0.0
 20
0.0
 30
0.0
  0
VERTEX
  5
A3
330
A2
100
AcDbEntity
  8
_U+30EC_U+30A4_U+30E4_U+30FC 1
370
     0
100
AcDbVertex
100
AcDb2dVertex
 10
87.35590818128603
 20
-138.6161729254154
 30
0.0
  0
VERTEX
  5
A4
330
A2
100
AcDbEntity
  8
_U+30EC_U+30A4_U+30E4_U+30FC 1
370
     0
100
AcDbVertex
100
AcDb2dVertex
 10
87.10407170131427
 20
-138.6161729254154
 30
0.0
  0
VERTEX
  5
A5
330
A2
100
AcDbEntity
  8
_U+30EC_U+30A4_U+30E4_U+30FC 1
370
     0
100
AcDbVertex
100
AcDb2dVertex
 10
87.10407170131427
 20
-138.3643364454437
 30
0.0
  0
VERTEX
  5
A6
330
A2
100
AcDbEntity
  8
_U+30EC_U+30A4_U+30E4_U+30FC 1
370
     0
100
AcDbVertex
100
AcDb2dVertex
 10
87.35590818128603
 20
-138.3643364454437
 30
0.0
  0
VERTEX
  5
A7
330
A2
100
AcDbEntity
  8
_U+30EC_U+30A4_U+30E4_U+30FC 1
370
     0
100
AcDbVertex
100
AcDb2dVertex
 10
87.35590818128603
 20
-138.6161729254154
 30
0.0
  0
SEQEND
  5
A8
330
A2
100
AcDbEntity
  8
_U+30EC_U+30A4_U+30E4_U+30FC 1
370
     0
  0
HATCH
  5
A9
330
9C
100
AcDbEntity
  8
_U+30EC_U+30A4_U+30E4_U+30FC 1
 62
     7
420
 16777215
100
AcDbHatch
 10
0.0
 20
0.0
 30
0.0
210
0.0
220
0.0
230
1.0
  2
SOLID
 70
     1
 71
     0
 91
        1
 92
        1
 93
        4
 72
     1
 10
87.35590818128603
 20
-138.6161729254154
 11
87.10407170131427
 21
-138.6161729254154
 72
     1
 10
87.10407170131427
 20
-138.6161729254154
 11
87.10407170131427
 21
-138.3643364454437
 72
     1
 10
87.10407170131427
 20
-138.3643364454437
 11
87.35590818128603
 21
-138.3643364454437
 72
     1
 10
87.35590818128603
 20
-138.3643364454437
 11
87.35590818128603
 21
-138.6161729254154
 97
        0
 75
     2
 76
     1
 98
        0
  0
SPLINE
  5
AA
330
9C
100
AcDbEntity
  8
_U+30EC_U+30A4_U+30E4_U+30FC 1
370
     0
100
AcDbSpline
210
0.0
220
0.0
230
1.0
 70
    11
 71
     3
 72
    29
 73
    25
 74
     0
 42
0.0000000001
 43
0.0000000001
 12
1.0
 22
0.0
 32
0.0
 13
1.0
 23
0.0
 33
0.0
 40
0.0
 40
0.0
 40
0.0
 40
0.0
 40
1.0
 40
1.0
 40
1.0
 40
2.0
 40
2.0
 40
2.0
 40
3.0
 40
3.0
 40
3.0
 40
4.0
 40
4.0
 40
4.0
 40
5.0
 40
5.0
 40
5.0
 40
6.0
 40
6.0
 40
6.0
 40
7.0
 40
7.0
 40
7.0
 40
8.0
 40
8.0
 40
8.0
 40
8.0
 10
87.17814125424714
 20
-137.2302110116994
 30
0.0
 10
87.38760305975032
 20
-137.3383870099362
 30
0.0
 10
87.4065510849192
 20
-137.5116753128443
 30
0.0
 10
87.4065510849192
 20
-137.6281195402458
 30
0.0
 10
87.4065510849192
 20
-137.7890054994069
 30
0.0
 10
87.36004229586833
 20
-137.9305989238507
 30
0.0
 10
87.17814125424714
 20
-138.0256835592436
 30
0.0
 10
86.98349335933052
 20
-138.1293809333496
 30
0.0
 10
86.74681529949386
 20
-138.1483289585185
 30
0.0
 10
86.58386228304154
 20
-138.1483289585185
 30
0.0
 10
86.4398572917581
 20
-138.1483289585185
 30
0.0
 10
86.18802081178633
 20
-138.1314479906408
 30
0.0
 10
85.98923880228742
 20
-138.0256835592436
 30
0.0
 10
85.7863226782062
 20
-137.9178520705553
 30
0.0
 10
85.7628960289065
 20
-137.7569661113941
 30
0.0
 10
85.7628960289065
 20
-137.6281195402458
 30
0.0
 10
85.7628960289065
 20
-137.4693006383757
 30
0.0
 10
85.80733776066623
 20
-137.3256401566408
 30
0.0
 10
85.98923880228742
 20
-137.2302110116994
 30
0.0
 10
86.18181963991289
 20
-137.1309922617242
 30
0.0
 10
86.41022947058495
 20
-137.1075656124245
 30
0.0
 10
86.58386228304154
 20
-137.1075656124245
 30
0.0
 10
86.75508352865846
 20
-137.1075656124245
 30
0.0
 10
86.98556041662167
 20
-137.128925204433
 30
0.0
 10
87.17814125424714
 20
-137.2302110116994
 30
0.0
  0
SPLINE
  5
AB
330
9C
100
AcDbEntity
  8
_U+30EC_U+30A4_U+30E4_U+30FC 1
370
     0
100
AcDbSpline
210
0.0
220
0.0
230
1.0
 70
    11
 71
     3
 72
    17
 73
    13
 74
     0
 42
0.0000000001
 43
0.0000000001
 12
1.0
 22
0.0
 32
0.0
 13
1.0
 23
0.0
 33
0.0
 40
0.0
 40
0.0
 40
0.0
 40
0.0
 40
1.0
 40
1.0
 40
1.0
 40
2.0
 40
2.0
 40
2.0
 40
3.0
 40
3.0
 40
3.0
 40
4.0
 40
4.0
 40
4.0
 40
4.0
 10
85.95547686653197
 20
-137.6281195402458
 30
0.0
 10
85.95547686653197
 20
-137.8775444533779
 30
0.0
 10
86.23900822496803
 20
-137.9243977519772
 30
0.0
 10
86.58386228304154
 20
-137.9243977519772
 30
0.0
 10
86.9032226345242
 20
-137.9243977519772
 30
0.0
 10
87.21190319000259
 20
-137.8882242493821
 30
0.0
 10
87.21190319000259
 20
-137.6281195402458
 30
0.0
 10
87.21190319000259
 20
-137.3804171748563
 30
0.0
 10
86.93078339840619
 20
-137.3318413285143
 30
0.0
 10
86.58386228304154
 20
-137.3318413285143
 30
0.0
 10
86.26415742201036
 20
-137.3318413285143
 30
0.0
 10
85.95547686653197
 20
-137.3700818884005
 30
0.0
 10
85.95547686653197
 20
-137.6281195402458
 30
0.0
  0
HATCH
  5
AC
330
9C
100
AcDbEntity
  8
_U+30EC_U+30A4_U+30E4_U+30FC 1
 62
     7
420
 16777215
100
AcDbHatch
 10
0.0
 20
0.0
 30
0.0
210
0.0
220
0.0
230
1.0
  2
SOLID
 70
     1
 71
     0
 91
        2
 92
        1
 93
        1
 72
     4
 94
        3
 73
     0
 74
     1
 95
       29
 96
       25
 40
0.0
 40
0.0
 40
0.0
 40
0.0
 40
1.0
 40
1.0
 40
1.0
 40
2.0
 40
2.0
 40
2.0
 40
3.0
 40
3.0
 40
3.0
 40
4.0
 40
4.0
 40
4.0
 40
5.0
 40
5.0
 40
5.0
 40
6.0
 40
6.0
 40
6.0
 40
7.0
 40
7.0
 40
7.0
 40
8.0
 40
8.0
 40
8.0
 40
8.0
 10
87.17814125424714
 20
-137.2302110116994
 10
87.38760305975032
 20
-137.3383870099362
 10
87.4065510849192
 20
-137.5116753128443
 10
87.4065510849192
 20
-137.6281195402458
 10
87.4065510849192
 20
-137.7890054994069
 10
87.36004229586833
 20
-137.9305989238507
 10
87.17814125424714
 20
-138.0256835592436
 10
86.98349335933052
 20
-138.1293809333496
 10
86.74681529949386
 20
-138.1483289585185
 10
86.58386228304154
 20
-138.1483289585185
 10
86.4398572917581
 20
-138.1483289585185
 10
86.18802081178633
 20
-138.1314479906408
 10
85.98923880228742
 20
-138.0256835592436
 10
85.7863226782062
 20
-137.9178520705553
 10
85.7628960289065
 20
-137.7569661113941
 10
85.7628960289065
 20
-137.6281195402458
 10
85.7628960289065
 20
-137.4693006383757
 10
85.80733776066623
 20
-137.3256401566408
 10
85.98923880228742
 20
-137.2302110116994
 10
86.18181963991289
 20
-137.1309922617242
 10
86.41022947058495
 20
-137.1075656124245
 10
86.58386228304154
 20
-137.1075656124245
 10
86.75508352865846
 20
-137.1075656124245
 10
86.98556041662167
 20
-137.128925204433
 10
87.17814125424714
 20
-137.2302110116994
 97
        0
 97
        0
 92
        1
 93
        1
 72
     4
 94
        3
 73
     0
 74
     1
 95
       17
 96
       13
 40
0.0
 40
0.0
 40
0.0
 40
0.0
 40
1.0
 40
1.0
 40
1.0
 40
2.0
 40
2.0
 40
2.0
 40
3.0
 40
3.0
 40
3.0
 40
4.0
 40
4.0
 40
4.0
 40
4.0
 10
85.95547686653197
 20
-137.6281195402458
 10
85.95547686653197
 20
-137.8775444533779
 10
86.23900822496803
 20
-137.9243977519772
 10
86.58386228304154
 20
-137.9243977519772
 10
86.9032226345242
 20
-137.9243977519772
 10
87.21190319000259
 20
-137.8882242493821
 10
87.21190319000259
 20
-137.6281195402458
 10
87.21190319000259
 20
-137.3804171748563
 10
86.93078339840619
 20
-137.3318413285143
 10
86.58386228304154
 20
-137.3318413285143
 10
86.26415742201036
 20
-137.3318413285143
 10
85.95547686653197
 20
-137.3700818884005
 10
85.95547686653197
 20
-137.6281195402458
 97
        0
 97
        0
 75
     2
 76
     1
 98
        0
  0
ENDBLK
  5
9F
330
9C
100
AcDbEntity
  8
0
100
AcDbBlockEnd
  0
BLOCK
  5
BB
330
B9
100
AcDbEntity
  8
0
100
AcDbBlockBegin
  2
block 5
 70
     0
 10
0.0
 20
0.0
 30
0.0
  3
block 5
  1

  0
SPLINE
  5
BD
330
B9
100
AcDbEntity
  8
_U+30EC_U+30A4_U+30E4_U+30FC 1
370
     0
100
AcDbSpline
210
0.0
220
0.0
230
1.0
 70
    11
 71
     3
 72
    26
 73
    22
 74
     0
 42
0.0000000001
 43
0.0000000001
 12
1.0
 22
0.0
 32
0.0
 13
1.0
 23
0.0
 33
0.0
 40
0.0
 40
0.0
 40
0.0
 40
0.0
 40
1.0
 40
1.0
 40
1.0
 40
2.0
 40
2.0
 40
2.0
 40
3.0
 40
3.0
 40
3.0
 40
4.0
 40
4.0
 40
4.0
 40
5.0
 40
5.0
 40
5.0
 40
6.0
 40
6.0
 40
6.0
 40
7.0
 40
7.0
 40
7.0
 40
7.0
 10
116.5844427876942
 20
-149.1908935173898
 30
0.0
 10
116.5844427876942
 20
-149.1908935173898
 30
0.0
 10
115.4802896846716
 20
-149.1908935173898
 30
0.0
 10
115.4802896846716
 20
-149.1908935173898
 30
0.0
 10
115.4802896846716
 20
-149.1908935173898
 30
0.0
 10
115.4802896846716
 20
-149.5209336648767
 30
0.0
 10
115.4802896846716
 20
-149.5209336648767
 30
0.0
 10
115.4802896846716
 20
-149.5209336648767
 30
0.0
 10
115.3321505788059
 20
-149.5209336648767
 30
0.0
 10
115.3321505788059
 20
-149.5209336648767
 30
0.0
 10
115.3173366682193
 20
-149.1888264600986
 30
0.0
 10
115.154383651767
 20
-149.1423176710477
 30
0.0
 10
115.0400064816567
 20
-149.1126898498746
 30
0.0
 10
115.0400064816567
 20
-149.1126898498746
 30
0.0
 10
115.0400064816567
 20
-148.9666178013
 30
0.0
 10
115.0400064816567
 20
-148.9666178013
 30
0.0
 10
115.0400064816567
 20
-148.9666178013
 30
0.0
 10
116.5844427876942
 20
-148.9666178013
 30
0.0
 10
116.5844427876942
 20
-148.9666178013
 30
0.0
 10
116.5844427876942
 20
-148.9666178013
 30
0.0
 10
116.5844427876942
 20
-149.1908935173898
 30
0.0
 10
116.5844427876942
 20
-149.1908935173898
 30
0.0
  0
HATCH
  5
BE
330
B9
100
AcDbEntity
  8
_U+30EC_U+30A4_U+30E4_U+30FC 1
 62
     7
420
 16777215
100
AcDbHatch
 10
0.0
 20
0.0
 30
0.0
210
0.0
220
0.0
230
1.0
  2
SOLID
 70
     1
 71
     0
 91
        1
 92
        1
 93
        1
 72
     4
 94
        3
 73
     0
 74
     1
 95
       26
 96
       22
 40
0.0
 40
0.0
 40
0.0
 40
0.0
 40
1.0
 40
1.0
 40
1.0
 40
2.0
 40
2.0
 40
2.0
 40
3.0
 40
3.0
 40
3.0
 40
4.0
 40
4.0
 40
4.0
 40
5.0
 40
5.0
 40
5.0
 40
6.0
 40
6.0
 40
6.0
 40
7.0
 40
7.0
 40
7.0
 40
7.0
 10
116.5844427876942
 20
-149.1908935173898
 10
116.5844427876942
 20
-149.1908935173898
 10
115.4802896846716
 20
-149.1908935173898
 10
115.4802896846716
 20
-149.1908935173898
 10
115.4802896846716
 20
-149.1908935173898
 10
115.4802896846716
 20
-149.5209336648767
 10
115.4802896846716
 20
-149.5209336648767
 10
115.4802896846716
 20
-149.5209336648767
 10
115.3321505788059
 20
-149.5209336648767
 10
115.3321505788059
 20
-149.5209336648767
 10
115.3173366682193
 20
-149.1888264600986
 10
115.154383651767
 20
-149.1423176710477
 10
115.0400064816567
 20
-149.1126898498746
 10
115.0400064816567
 20
-149.1126898498746
 10
115.0400064816567
 20
-148.9666178013
 10
115.0400064816567
 20
-148.9666178013
 10
115.0400064816567
 20
-148.9666178013
 10
116.5844427876942
 20
-148.9666178013
 10
116.5844427876942
 20
-148.9666178013
 10
116.5844427876942
 20
-148.9666178013
 10
116.5844427876942
 20
-149.1908935173898
 10
116.5844427876942
 20
-149.1908935173898
 97
        0
 97
        0
 75
     2
 76
     1
 98
        0
  0
SPLINE
  5
BF
330
B9
100
AcDbEntity
  8
_U+30EC_U+30A4_U+30E4_U+30FC 1
370
     0
100
AcDbSpline
210
0.0
220
0.0
230
1.0
 70
    11
 71
     3
 72
    44
 73
    40
 74
     0
 42
0.0000000001
 43
0.0000000001
 12
1.0
 22
0.0
 32
0.0
 13
1.0
 23
0.0
 33
0.0
 40
0.0
 40
0.0
 40
0.0
 40
0.0
 40
1.0
 40
1.0
 40
1.0
 40
2.0
 40
2.0
 40
2.0
 40
3.0
 40
3.0
 40
3.0
 40
4.0
 40
4.0
 40
4.0
 40
5.0
 40
5.0
 40
5.0
 40
6.0
 40
6.0
 40
6.0
 40
7.0
 40
7.0
 40
7.0
 40
8.0
 40
8.0
 40
8.0
 40
9.0
 40
9.0
 40
9.0
 40
10.0
 40
10.0
 40
10.0
 40
11.0
 40
11.0
 40
11.0
 40
12.0
 40
12.0
 40
12.0
 40
13.0
 40
13.0
 40
13.0
 40
13.0
 10
116.0025661602355
 20
-147.8724554751847
 30
0.0
 10
116.1613850621055
 20
-148.0901855098525
 30
0.0
 10
116.2354546150384
 20
-148.1832030879542
 30
0.0
 10
116.3791150967733
 20
-148.2321234438448
 30
0.0
 10
116.3791150967733
 20
-148.2321234438448
 30
0.0
 10
116.3791150967733
 20
-147.4535318641783
 30
0.0
 10
116.3791150967733
 20
-147.4535318641783
 30
0.0
 10
116.3791150967733
 20
-147.4535318641783
 30
0.0
 10
116.5844427876942
 20
-147.4535318641783
 30
0.0
 10
116.5844427876942
 20
-147.4535318641783
 30
0.0
 10
116.5844427876942
 20
-147.4535318641783
 30
0.0
 10
116.5844427876942
 20
-148.4815483569768
 30
0.0
 10
116.5844427876942
 20
-148.4815483569768
 30
0.0
 10
116.2268418763252
 20
-148.4498534785126
 30
0.0
 10
116.1486382088101
 20
-148.3843966642928
 30
0.0
 10
115.8502929397874
 20
-147.9992349890419
 30
0.0
 10
115.6515109302885
 20
-147.7432643944878
 30
0.0
 10
115.5836425492291
 20
-147.6778075802681
 30
0.0
 10
115.4461832393676
 20
-147.6778075802681
 30
0.0
 10
115.327671954675
 20
-147.6778075802681
 30
0.0
 10
115.1967583262355
 20
-147.7498100759098
 30
0.0
 10
115.1967583262355
 20
-147.9465250281175
 30
0.0
 10
115.1967583262355
 20
-148.2066297372539
 30
0.0
 10
115.4272352141987
 20
-148.2148979664185
 30
0.0
 10
115.5436794416002
 20
-148.2193765905493
 30
0.0
 10
115.5436794416002
 20
-148.2193765905493
 30
0.0
 10
115.5436794416002
 20
-148.4436523066391
 30
0.0
 10
115.5436794416002
 20
-148.4436523066391
 30
0.0
 10
115.4165554181945
 20
-148.435039567926
 30
0.0
 10
115.3045898149239
 20
-148.4243597719217
 30
0.0
 10
115.1860785302313
 20
-148.3440890471154
 30
0.0
 10
115.0251925710701
 20
-148.2341905011359
 30
0.0
 10
114.9914306353146
 20
-148.0478108353839
 30
0.0
 10
114.9914306353146
 20
-147.931711117531
 30
0.0
 10
114.9914306353146
 20
-147.6543809309684
 30
0.0
 10
115.175398734227
 20
-147.4469861827563
 30
0.0
 10
115.4482502966588
 20
-147.4469861827563
 30
0.0
 10
115.6770046368794
 20
-147.4469861827563
 30
0.0
 10
115.7762233868546
 20
-147.5634304101578
 30
0.0
 10
116.0025661602355
 20
-147.8724554751847
 30
0.0
  0
HATCH
  5
C0
330
B9
100
AcDbEntity
  8
_U+30EC_U+30A4_U+30E4_U+30FC 1
 62
     7
420
 16777215
100
AcDbHatch
 10
0.0
 20
0.0
 30
0.0
210
0.0
220
0.0
230
1.0
  2
SOLID
 70
     1
 71
     0
 91
        1
 92
        1
 93
        1
 72
     4
 94
        3
 73
     0
 74
     1
 95
       44
 96
       40
 40
0.0
 40
0.0
 40
0.0
 40
0.0
 40
1.0
 40
1.0
 40
1.0
 40
2.0
 40
2.0
 40
2.0
 40
3.0
 40
3.0
 40
3.0
 40
4.0
 40
4.0
 40
4.0
 40
5.0
 40
5.0
 40
5.0
 40
6.0
 40
6.0
 40
6.0
 40
7.0
 40
7.0
 40
7.0
 40
8.0
 40
8.0
 40
8.0
 40
9.0
 40
9.0
 40
9.0
 40
10.0
 40
10.0
 40
10.0
 40
11.0
 40
11.0
 40
11.0
 40
12.0
 40
12.0
 40
12.0
 40
13.0
 40
13.0
 40
13.0
 40
13.0
 10
116.0025661602355
 20
-147.8724554751847
 10
116.1613850621055
 20
-148.0901855098525
 10
116.2354546150384
 20
-148.1832030879542
 10
116.3791150967733
 20
-148.2321234438448
 10
116.3791150967733
 20
-148.2321234438448
 10
116.3791150967733
 20
-147.4535318641783
 10
116.3791150967733
 20
-147.4535318641783
 10
116.3791150967733
 20
-147.4535318641783
 10
116.5844427876942
 20
-147.4535318641783
 10
116.5844427876942
 20
-147.4535318641783
 10
116.5844427876942
 20
-147.4535318641783
 10
116.5844427876942
 20
-148.4815483569768
 10
116.5844427876942
 20
-148.4815483569768
 10
116.2268418763252
 20
-148.4498534785126
 10
116.1486382088101
 20
-148.3843966642928
 10
115.8502929397874
 20
-147.9992349890419
 10
115.6515109302885
 20
-147.7432643944878
 10
115.5836425492291
 20
-147.6778075802681
 10
115.4461832393676
 20
-147.6778075802681
 10
115.327671954675
 20
-147.6778075802681
 10
115.1967583262355
 20
-147.7498100759098
 10
115.1967583262355
 20
-147.9465250281175
 10
115.1967583262355
 20
-148.2066297372539
 10
115.4272352141987
 20
-148.2148979664185
 10
115.5436794416002
 20
-148.2193765905493
 10
115.5436794416002
 20
-148.2193765905493
 10
115.5436794416002
 20
-148.4436523066391
 10
115.5436794416002
 20
-148.4436523066391
 10
115.4165554181945
 20
-148.435039567926
 10
115.3045898149239
 20
-148.4243597719217
 10
115.1860785302313
 20
-148.3440890471154
 10
115.0251925710701
 20
-148.2341905011359
 10
114.9914306353146
 20
-148.0478108353839
 10
114.9914306353146
 20
-147.931711117531
 10
114.9914306353146
 20
-147.6543809309684
 10
115.175398734227
 20
-147.4469861827563
 10
115.4482502966588
 20
-147.4469861827563
 10
115.6770046368794
 20
-147.4469861827563
 10
115.7762233868546
 20
-147.5634304101578
 10
116.0025661602355
 20
-147.8724554751847
 97
        0
 97
        0
 75
     2
 76
     1
 98
        0
  0
POLYLINE
  5
C1
330
B9
100
AcDbEntity
  8
_U+30EC_U+30A4_U+30E4_U+30FC 1
370
     0
100
AcDb2dPolyline
 66
     1
 10
0.0
 20
0.0
 30
0.0
  0
VERTEX
  5
C2
330
C1
100
AcDbEntity
  8
_U+30EC_U+30A4_U+30E4_U+30FC 1
370
     0
100
AcDbVertex
100
AcDb2dVertex
 10
116.5844427876942
 20
-147.2285671289915
 30
0.0
  0
VERTEX
  5
C3
330
C1
100
AcDbEntity
  8
_U+30EC_U+30A4_U+30E4_U+30FC 1
370
     0
100
AcDbVertex
100
AcDb2dVertex
 10
116.3326063077224
 20
-147.2285671289915
 30
0.0
  0
VERTEX
  5
C4
330
C1
100
AcDbEntity
  8
_U+30EC_U+30A4_U+30E4_U+30FC 1
370
     0
100
AcDbVertex
100
AcDb2dVertex
 10
116.3326063077224
 20
-146.9767306490197
 30
0.0
  0
VERTEX
  5
C5
330
C1
100
AcDbEntity
  8
_U+30EC_U+30A4_U+30E4_U+30FC 1
370
     0
100
AcDbVertex
100
AcDb2dVertex
 10
116.5844427876942
 20
-146.9767306490197
 30
0.0
  0
VERTEX
  5
C6
330
C1
100
AcDbEntity
  8
_U+30EC_U+30A4_U+30E4_U+30FC 1
370
     0
100
AcDbVertex
100
AcDb2dVertex
 10
116.5844427876942
 20
-147.2285671289915
 30
0.0
  0
SEQEND
  5
C7
330
C1
100
AcDbEntity
  8
_U+30EC_U+30A4_U+30E4_U+30FC 1
370
     0
  0
HATCH
  5
C8
330
B9
100
AcDbEntity
  8
_U+30EC_U+30A4_U+30E4_U+30FC 1
 62
     7
420
 16777215
100
AcDbHatch
 10
0.0
 20
0.0
 30
0.0
210
0.0
220
0.0
230
1.0
  2
SOLID
 70
     1
 71
     0
 91
        1
 92
        1
 93
        4
 72
     1
 10
116.5844427876942
 20
-147.2285671289915
 11
116.3326063077224
 21
-147.2285671289915
 72
     1
 10
116.3326063077224
 20
-147.2285671289915
 11
116.3326063077224
 21
-146.9767306490197
 72
     1
 10
116.3326063077224
 20
-146.9767306490197
 11
116.5844427876942
 21
-146.9767306490197
 72
     1
 10
116.5844427876942
 20
-146.9767306490197
 11
116.5844427876942
 21
-147.2285671289915
 97
        0
 75
     2
 76
     1
 98
        0
  0
SPLINE
  5
C9
330
B9
100
AcDbEntity
  8
_U+30EC_U+30A4_U+30E4_U+30FC 1
370
     0
100
AcDbSpline
210
0.0
220
0.0
230
1.0
 70
    11
 71
     3
 72
    53
 73
    49
 74
     0
 42
0.0000000001
 43
0.0000000001
 12
1.0
 22
0.0
 32
0.0
 13
1.0
 23
0.0
 33
0.0
 40
0.0
 40
0.0
 40
0.0
 40
0.0
 40
1.0
 40
1.0
 40
1.0
 40
2.0
 40
2.0
 40
2.0
 40
3.0
 40
3.0
 40
3.0
 40
4.0
 40
4.0
 40
4.0
 40
5.0
 40
5.0
 40
5.0
 40
6.0
 40
6.0
 40
6.0
 40
7.0
 40
7.0
 40
7.0
 40
8.0
 40
8.0
 40
8.0
 40
9.0
 40
9.0
 40
9.0
 40
10.0
 40
10.0
 40
10.0
 40
11.0
 40
11.0
 40
11.0
 40
12.0
 40
12.0
 40
12.0
 40
13.0
 40
13.0
 40
13.0
 40
14.0
 40
14.0
 40
14.0
 40
15.0
 40
15.0
 40
15.0
 40
16.0
 40
16.0
 40
16.0
 40
16.0
 10
116.6350856913273
 20
-146.2594617689907
 30
0.0
 10
116.6350856913273
 20
-146.3376654365059
 30
0.0
 10
116.6182047234496
 20
-146.4392957533207
 30
0.0
 10
116.554814966521
 20
-146.5409260701356
 30
0.0
 10
116.4449164205416
 20
-146.7142143730437
 30
0.0
 10
116.3136582825535
 20
-146.7355739650522
 30
0.0
 10
116.2058267938652
 20
-146.7545219902211
 30
0.0
 10
116.2058267938652
 20
-146.7545219902211
 30
0.0
 10
116.2058267938652
 20
-146.5323133314225
 30
0.0
 10
116.2058267938652
 20
-146.5323133314225
 30
0.0
 10
116.4046088033641
 20
-146.477536313207
 30
0.0
 10
116.4342366245373
 20
-146.3504122898013
 30
0.0
 10
116.4342366245373
 20
-146.2573947116995
 30
0.0
 10
116.4342366245373
 20
-146.1178683445469
 30
0.0
 10
116.3346733650136
 20
-145.9655951240989
 30
0.0
 10
116.1021294197592
 20
-145.9655951240989
 30
0.0
 10
115.8461588252051
 20
-145.9655951240989
 30
0.0
 10
115.7762233868546
 20
-146.1454291084289
 30
0.0
 10
115.7762233868546
 20
-146.2660074504127
 30
0.0
 10
115.7762233868546
 20
-146.297702328877
 30
0.0
 10
115.7762233868546
 20
-146.4392957533207
 30
0.0
 10
115.9054144675514
 20
-146.5281792168402
 30
0.0
 10
115.9054144675514
 20
-146.5281792168402
 30
0.0
 10
115.8864664423826
 20
-146.7038790865879
 30
0.0
 10
115.8864664423826
 20
-146.7038790865879
 30
0.0
 10
115.8864664423826
 20
-146.7038790865879
 30
0.0
 10
115.0400064816567
 20
-146.5833007446042
 30
0.0
 10
115.0400064816567
 20
-146.5833007446042
 30
0.0
 10
115.0400064816567
 20
-146.5833007446042
 30
0.0
 10
115.0400064816567
 20
-145.8047091649377
 30
0.0
 10
115.0400064816567
 20
-145.8047091649377
 30
0.0
 10
115.0400064816567
 20
-145.8047091649377
 30
0.0
 10
115.2346543765733
 20
-145.8047091649377
 30
0.0
 10
115.2346543765733
 20
-145.8047091649377
 30
0.0
 10
115.2346543765733
 20
-145.8047091649377
 30
0.0
 10
115.2346543765733
 20
-146.4203477281519
 30
0.0
 10
115.2346543765733
 20
-146.4203477281519
 30
0.0
 10
115.2346543765733
 20
-146.4203477281519
 30
0.0
 10
115.657712102162
 20
-146.4858045423716
 30
0.0
 10
115.657712102162
 20
-146.4858045423716
 30
0.0
 10
115.6239501664065
 20
-146.4244818427342
 30
0.0
 10
115.5836425492291
 20
-146.3421440606367
 30
0.0
 10
115.5836425492291
 20
-146.2236327759441
 30
0.0
 10
115.5836425492291
 20
-145.9697292386812
 30
0.0
 10
115.7700222149811
 20
-145.732706669296
 30
0.0
 10
116.0831813945903
 20
-145.732706669296
 30
0.0
 10
116.4004746887818
 20
-145.732706669296
 30
0.0
 10
116.6350856913273
 20
-145.9569823853858
 30
0.0
 10
116.6350856913273
 20
-146.2594617689907
 30
0.0
  0
HATCH
  5
CA
330
B9
100
AcDbEntity
  8
_U+30EC_U+30A4_U+30E4_U+30FC 1
 62
     7
420
 16777215
100
AcDbHatch
 10
0.0
 20
0.0
 30
0.0
210
0.0
220
0.0
230
1.0
  2
SOLID
 70
     1
 71
     0
 91
        1
 92
        1
 93
        1
 72
     4
 94
        3
 73
     0
 74
     1
 95
       53
 96
       49
 40
0.0
 40
0.0
 40
0.0
 40
0.0
 40
1.0
 40
1.0
 40
1.0
 40
2.0
 40
2.0
 40
2.0
 40
3.0
 40
3.0
 40
3.0
 40
4.0
 40
4.0
 40
4.0
 40
5.0
 40
5.0
 40
5.0
 40
6.0
 40
6.0
 40
6.0
 40
7.0
 40
7.0
 40
7.0
 40
8.0
 40
8.0
 40
8.0
 40
9.0
 40
9.0
 40
9.0
 40
10.0
 40
10.0
 40
10.0
 40
11.0
 40
11.0
 40
11.0
 40
12.0
 40
12.0
 40
12.0
 40
13.0
 40
13.0
 40
13.0
 40
14.0
 40
14.0
 40
14.0
 40
15.0
 40
15.0
 40
15.0
 40
16.0
 40
16.0
 40
16.0
 40
16.0
 10
116.6350856913273
 20
-146.2594617689907
 10
116.6350856913273
 20
-146.3376654365059
 10
116.6182047234496
 20
-146.4392957533207
 10
116.554814966521
 20
-146.5409260701356
 10
116.4449164205416
 20
-146.7142143730437
 10
116.3136582825535
 20
-146.7355739650522
 10
116.2058267938652
 20
-146.7545219902211
 10
116.2058267938652
 20
-146.7545219902211
 10
116.2058267938652
 20
-146.5323133314225
 10
116.2058267938652
 20
-146.5323133314225
 10
116.4046088033641
 20
-146.477536313207
 10
116.4342366245373
 20
-146.3504122898013
 10
116.4342366245373
 20
-146.2573947116995
 10
116.4342366245373
 20
-146.1178683445469
 10
116.3346733650136
 20
-145.9655951240989
 10
116.1021294197592
 20
-145.9655951240989
 10
115.8461588252051
 20
-145.9655951240989
 10
115.7762233868546
 20
-146.1454291084289
 10
115.7762233868546
 20
-146.2660074504127
 10
115.7762233868546
 20
-146.297702328877
 10
115.7762233868546
 20
-146.4392957533207
 10
115.9054144675514
 20
-146.5281792168402
 10
115.9054144675514
 20
-146.5281792168402
 10
115.8864664423826
 20
-146.7038790865879
 10
115.8864664423826
 20
-146.7038790865879
 10
115.8864664423826
 20
-146.7038790865879
 10
115.0400064816567
 20
-146.5833007446042
 10
115.0400064816567
 20
-146.5833007446042
 10
115.0400064816567
 20
-146.5833007446042
 10
115.0400064816567
 20
-145.8047091649377
 10
115.0400064816567
 20
-145.8047091649377
 10
115.0400064816567
 20
-145.8047091649377
 10
115.2346543765733
 20
-145.8047091649377
 10
115.2346543765733
 20
-145.8047091649377
 10
115.2346543765733
 20
-145.8047091649377
 10
115.2346543765733
 20
-146.4203477281519
 10
115.2346543765733
 20
-146.4203477281519
 10
115.2346543765733
 20
-146.4203477281519
 10
115.657712102162
 20
-146.4858045423716
 10
115.657712102162
 20
-146.4858045423716
 10
115.6239501664065
 20
-146.4244818427342
 10
115.5836425492291
 20
-146.3421440606367
 10
115.5836425492291
 20
-146.2236327759441
 10
115.5836425492291
 20
-145.9697292386812
 10
115.7700222149811
 20
-145.732706669296
 10
116.0831813945903
 20
-145.732706669296
 10
116.4004746887818
 20
-145.732706669296
 10
116.6350856913273
 20
-145.9569823853858
 10
116.6350856913273
 20
-146.2594617689907
 97
        0
 97
        0
 75
     2
 76
     1
 98
        0
  0
ENDBLK
  5
BC
330
B9
100
AcDbEntity
  8
0
100
AcDbBlockEnd
  0
BLOCK
  5
D9
330
D7
100
AcDbEntity
  8
0
100
AcDbBlockBegin
  2
block 6
 70
     0
 10
0.0
 20
0.0
 30
0.0
  3
block 6
  1

  0
SPLINE
  5
DB
330
D7
100
AcDbEntity
  8
_U+30EC_U+30A4_U+30E4_U+30FC 1
370
     0
100
AcDbSpline
210
0.0
220
0.0
230
1.0
 70
    11
 71
     3
 72
    29
 73
    25
 74
     0
 42
0.0000000001
 43
0.0000000001
 12
1.0
 22
0.0
 32
0.0
 13
1.0
 23
0.0
 33
0.0
 40
0.0
 40
0.0
 40
0.0
 40
0.0
 40
1.0
 40
1.0
 40
1.0
 40
2.0
 40
2.0
 40
2.0
 40
3.0
 40
3.0
 40
3.0
 40
4.0
 40
4.0
 40
4.0
 40
5.0
 40
5.0
 40
5.0
 40
6.0
 40
6.0
 40
6.0
 40
7.0
 40
7.0
 40
7.0
 40
8.0
 40
8.0
 40
8.0
 40
8.0
 10
120.463964813634
 20
-154.8329263935834
 30
0.0
 10
120.6734266191372
 20
-154.9411023918203
 30
0.0
 10
120.6923746443061
 20
-155.1143906947283
 30
0.0
 10
120.6923746443061
 20
-155.2308349221298
 30
0.0
 10
120.6923746443061
 20
-155.391720881291
 30
0.0
 10
120.6458658552552
 20
-155.5333143057347
 30
0.0
 10
120.463964813634
 20
-155.6283989411276
 30
0.0
 10
120.2693169187174
 20
-155.7320963152337
 30
0.0
 10
120.0326388588807
 20
-155.751388849951
 30
0.0
 10
119.8696858424284
 20
-155.751388849951
 30
0.0
 10
119.725680851145
 20
-155.751388849951
 30
0.0
 10
119.4738443711732
 20
-155.7341633725248
 30
0.0
 10
119.2750623616743
 20
-155.6283989411276
 30
0.0
 10
119.0721462375931
 20
-155.5205674524393
 30
0.0
 10
119.0487195882934
 20
-155.3596814932781
 30
0.0
 10
119.0487195882934
 20
-155.2308349221298
 30
0.0
 10
119.0487195882934
 20
-155.0720160202598
 30
0.0
 10
119.0931613200531
 20
-154.9283555385249
 30
0.0
 10
119.2750623616743
 20
-154.8329263935834
 30
0.0
 10
119.4676431992998
 20
-154.7337076436083
 30
0.0
 10
119.6960530299718
 20
-154.7102809943086
 30
0.0
 10
119.8696858424284
 20
-154.7102809943086
 30
0.0
 10
120.0409070880453
 20
-154.7102809943086
 30
0.0
 10
120.2713839760086
 20
-154.7316405863171
 30
0.0
 10
120.463964813634
 20
-154.8329263935834
 30
0.0
  0
SPLINE
  5
DC
330
D7
100
AcDbEntity
  8
_U+30EC_U+30A4_U+30E4_U+30FC 1
370
     0
100
AcDbSpline
210
0.0
220
0.0
230
1.0
 70
    11
 71
     3
 72
    17
 73
    13
 74
     0
 42
0.0000000001
 43
0.0000000001
 12
1.0
 22
0.0
 32
0.0
 13
1.0
 23
0.0
 33
0.0
 40
0.0
 40
0.0
 40
0.0
 40
0.0
 40
1.0
 40
1.0
 40
1.0
 40
2.0
 40
2.0
 40
2.0
 40
3.0
 40
3.0
 40
3.0
 40
4.0
 40
4.0
 40
4.0
 40
4.0
 10
119.2413004259189
 20
-155.2308349221298
 30
0.0
 10
119.2413004259189
 20
-155.4806043448104
 30
0.0
 10
119.5248317843549
 20
-155.5271131338613
 30
0.0
 10
119.8696858424284
 20
-155.5271131338613
 30
0.0
 10
120.1890461939111
 20
-155.5271131338613
 30
0.0
 10
120.4977267493895
 20
-155.4909396312662
 30
0.0
 10
120.4977267493895
 20
-155.2308349221298
 30
0.0
 10
120.4977267493895
 20
-154.9831325567403
 30
0.0
 10
120.2166069577931
 20
-154.9345567103983
 30
0.0
 10
119.8696858424284
 20
-154.9345567103983
 30
0.0
 10
119.5499809813972
 20
-154.9345567103983
 30
0.0
 10
119.2413004259189
 20
-154.9727972702846
 30
0.0
 10
119.2413004259189
 20
-155.2308349221298
 30
0.0
  0
HATCH
  5
DD
330
D7
100
AcDbEntity
  8
_U+30EC_U+30A4_U+30E4_U+30FC 1
 62
     7
420
 16777215
100
AcDbHatch
 10
0.0
 20
0.0
 30
0.0
210
0.0
220
0.0
230
1.0
  2
SOLID
 70
     1
 71
     0
 91
        2
 92
        1
 93
        1
 72
     4
 94
        3
 73
     0
 74
     1
 95
       29
 96
       25
 40
0.0
 40
0.0
 40
0.0
 40
0.0
 40
1.0
 40
1.0
 40
1.0
 40
2.0
 40
2.0
 40
2.0
 40
3.0
 40
3.0
 40
3.0
 40
4.0
 40
4.0
 40
4.0
 40
5.0
 40
5.0
 40
5.0
 40
6.0
 40
6.0
 40
6.0
 40
7.0
 40
7.0
 40
7.0
 40
8.0
 40
8.0
 40
8.0
 40
8.0
 10
120.463964813634
 20
-154.8329263935834
 10
120.6734266191372
 20
-154.9411023918203
 10
120.6923746443061
 20
-155.1143906947283
 10
120.6923746443061
 20
-155.2308349221298
 10
120.6923746443061
 20
-155.391720881291
 10
120.6458658552552
 20
-155.5333143057347
 10
120.463964813634
 20
-155.6283989411276
 10
120.2693169187174
 20
-155.7320963152337
 10
120.0326388588807
 20
-155.751388849951
 10
119.8696858424284
 20
-155.751388849951
 10
119.725680851145
 20
-155.751388849951
 10
119.4738443711732
 20
-155.7341633725248
 10
119.2750623616743
 20
-155.6283989411276
 10
119.0721462375931
 20
-155.5205674524393
 10
119.0487195882934
 20
-155.3596814932781
 10
119.0487195882934
 20
-155.2308349221298
 10
119.0487195882934
 20
-155.0720160202598
 10
119.0931613200531
 20
-154.9283555385249
 10
119.2750623616743
 20
-154.8329263935834
 10
119.4676431992998
 20
-154.7337076436083
 10
119.6960530299718
 20
-154.7102809943086
 10
119.8696858424284
 20
-154.7102809943086
 10
120.0409070880453
 20
-154.7102809943086
 10
120.2713839760086
 20
-154.7316405863171
 10
120.463964813634
 20
-154.8329263935834
 97
        0
 97
        0
 92
        1
 93
        1
 72
     4
 94
        3
 73
     0
 74
     1
 95
       17
 96
       13
 40
0.0
 40
0.0
 40
0.0
 40
0.0
 40
1.0
 40
1.0
 40
1.0
 40
2.0
 40
2.0
 40
2.0
 40
3.0
 40
3.0
 40
3.0
 40
4.0
 40
4.0
 40
4.0
 40
4.0
 10
119.2413004259189
 20
-155.2308349221298
 10
119.2413004259189
 20
-155.4806043448104
 10
119.5248317843549
 20
-155.5271131338613
 10
119.8696858424284
 20
-155.5271131338613
 10
120.1890461939111
 20
-155.5271131338613
 10
120.4977267493895
 20
-155.4909396312662
 10
120.4977267493895
 20
-155.2308349221298
 10
120.4977267493895
 20
-154.9831325567403
 10
120.2166069577931
 20
-154.9345567103983
 10
119.8696858424284
 20
-154.9345567103983
 10
119.5499809813972
 20
-154.9345567103983
 10
119.2413004259189
 20
-154.9727972702846
 10
119.2413004259189
 20
-155.2308349221298
 97
        0
 97
        0
 75
     2
 76
     1
 98
        0
  0
POLYLINE
  5
DE
330
D7
100
AcDbEntity
  8
_U+30EC_U+30A4_U+30E4_U+30FC 1
370
     0
100
AcDb2dPolyline
 66
     1
 10
0.0
 20
0.0
 30
0.0
  0
VERTEX
  5
DF
330
DE
100
AcDbEntity
  8
_U+30EC_U+30A4_U+30E4_U+30FC 1
370
     0
100
AcDbVertex
100
AcDb2dVertex
 10
120.6417317406729
 20
-154.4939289978349
 30
0.0
  0
VERTEX
  5
E0
330
DE
100
AcDbEntity
  8
_U+30EC_U+30A4_U+30E4_U+30FC 1
370
     0
100
AcDbVertex
100
AcDb2dVertex
 10
120.3898952607011
 20
-154.4939289978349
 30
0.0
  0
VERTEX
  5
E1
330
DE
100
AcDbEntity
  8
_U+30EC_U+30A4_U+30E4_U+30FC 1
370
     0
100
AcDbVertex
100
AcDb2dVertex
 10
120.3898952607011
 20
-154.2420925178631
 30
0.0
  0
VERTEX
  5
E2
330
DE
100
AcDbEntity
  8
_U+30EC_U+30A4_U+30E4_U+30FC 1
370
     0
100
AcDbVertex
100
AcDb2dVertex
 10
120.6417317406729
 20
-154.2420925178631
 30
0.0
  0
VERTEX
  5
E3
330
DE
100
AcDbEntity
  8
_U+30EC_U+30A4_U+30E4_U+30FC 1
370
     0
100
AcDbVertex
100
AcDb2dVertex
 10
120.6417317406729
 20
-154.4939289978349
 30
0.0
  0
SEQEND
  5
E4
330
DE
100
AcDbEntity
  8
_U+30EC_U+30A4_U+30E4_U+30FC 1
370
     0
  0
HATCH
  5
E5
330
D7
100
AcDbEntity
  8
_U+30EC_U+30A4_U+30E4_U+30FC 1
 62
     7
420
 16777215
100
AcDbHatch
 10
0.0
 20
0.0
 30
0.0
210
0.0
220
0.0
230
1.0
  2
SOLID
 70
     1
 71
     0
 91
        1
 92
        1
 93
        4
 72
     1
 10
120.6417317406729
 20
-154.4939289978349
 11
120.3898952607011
 21
-154.4939289978349
 72
     1
 10
120.3898952607011
 20
-154.4939289978349
 11
120.3898952607011
 21
-154.2420925178631
 72
     1
 10
120.3898952607011
 20
-154.2420925178631
 11
120.6417317406729
 21
-154.2420925178631
 72
     1
 10
120.6417317406729
 20
-154.2420925178631
 11
120.6417317406729
 21
-154.4939289978349
 97
        0
 75
     2
 76
     1
 98
        0
  0
POLYLINE
  5
E6
330
D7
100
AcDbEntity
  8
_U+30EC_U+30A4_U+30E4_U+30FC 1
370
     0
100
AcDb2dPolyline
 66
     1
 10
0.0
 20
0.0
 30
0.0
  0
VERTEX
  5
E7
330
E6
100
AcDbEntity
  8
_U+30EC_U+30A4_U+30E4_U+30FC 1
370
     0
100
AcDbVertex
100
AcDb2dVertex
 10
120.2948106253082
 20
-153.1737684078871
 30
0.0
  0
VERTEX
  5
E8
330
E6
100
AcDbEntity
  8
_U+30EC_U+30A4_U+30E4_U+30FC 1
370
     0
100
AcDbVertex
100
AcDb2dVertex
 10
120.6417317406729
 20
-153.1737684078871
 30
0.0
  0
VERTEX
  5
E9
330
E6
100
AcDbEntity
  8
_U+30EC_U+30A4_U+30E4_U+30FC 1
370
     0
100
AcDbVertex
100
AcDb2dVertex
 10
120.6417317406729
 20
-153.3914984425549
 30
0.0
  0
VERTEX
  5
EA
330
E6
100
AcDbEntity
  8
_U+30EC_U+30A4_U+30E4_U+30FC 1
370
     0
100
AcDbVertex
100
AcDb2dVertex
 10
120.2948106253082
 20
-153.3914984425549
 30
0.0
  0
VERTEX
  5
EB
330
E6
100
AcDbEntity
  8
_U+30EC_U+30A4_U+30E4_U+30FC 1
370
     0
100
AcDbVertex
100
AcDb2dVertex
 10
120.2948106253082
 20
-154.0474446229465
 30
0.0
  0
VERTEX
  5
EC
330
E6
100
AcDbEntity
  8
_U+30EC_U+30A4_U+30E4_U+30FC 1
370
     0
100
AcDbVertex
100
AcDb2dVertex
 10
120.0705349092185
 20
-154.0474446229465
 30
0.0
  0
VERTEX
  5
ED
330
E6
100
AcDbEntity
  8
_U+30EC_U+30A4_U+30E4_U+30FC 1
370
     0
100
AcDbVertex
100
AcDb2dVertex
 10
119.0972954346354
 20
-153.3684163028037
 30
0.0
  0
VERTEX
  5
EE
330
E6
100
AcDbEntity
  8
_U+30EC_U+30A4_U+30E4_U+30FC 1
370
     0
100
AcDbVertex
100
AcDb2dVertex
 10
119.0972954346354
 20
-153.1737684078871
 30
0.0
  0
VERTEX
  5
EF
330
E6
100
AcDbEntity
  8
_U+30EC_U+30A4_U+30E4_U+30FC 1
370
     0
100
AcDbVertex
100
AcDb2dVertex
 10
120.0960286158093
 20
-153.1737684078871
 30
0.0
  0
VERTEX
  5
F0
330
E6
100
AcDbEntity
  8
_U+30EC_U+30A4_U+30E4_U+30FC 1
370
     0
100
AcDbVertex
100
AcDb2dVertex
 10
120.0960286158093
 20
-152.9663736596751
 30
0.0
  0
VERTEX
  5
F1
330
E6
100
AcDbEntity
  8
_U+30EC_U+30A4_U+30E4_U+30FC 1
370
     0
100
AcDbVertex
100
AcDb2dVertex
 10
120.2948106253082
 20
-152.9663736596751
 30
0.0
  0
VERTEX
  5
F2
330
E6
100
AcDbEntity
  8
_U+30EC_U+30A4_U+30E4_U+30FC 1
370
     0
100
AcDbVertex
100
AcDb2dVertex
 10
120.2948106253082
 20
-153.1737684078871
 30
0.0
  0
SEQEND
  5
F3
330
E6
100
AcDbEntity
  8
_U+30EC_U+30A4_U+30E4_U+30FC 1
370
     0
  0
POLYLINE
  5
F4
330
D7
100
AcDbEntity
  8
_U+30EC_U+30A4_U+30E4_U+30FC 1
370
     0
100
AcDb2dPolyline
 66
     1
 10
0.0
 20
0.0
 30
0.0
  0
VERTEX
  5
F5
330
F4
100
AcDbEntity
  8
_U+30EC_U+30A4_U+30E4_U+30FC 1
370
     0
100
AcDbVertex
100
AcDb2dVertex
 10
119.4400824354178
 20
-153.3914984425549
 30
0.0
  0
VERTEX
  5
F6
330
F4
100
AcDbEntity
  8
_U+30EC_U+30A4_U+30E4_U+30FC 1
370
     0
100
AcDbVertex
100
AcDb2dVertex
 10
120.0960286158093
 20
-153.8486626134476
 30
0.0
  0
VERTEX
  5
F7
330
F4
100
AcDbEntity
  8
_U+30EC_U+30A4_U+30E4_U+30FC 1
370
     0
100
AcDbVertex
100
AcDb2dVertex
 10
120.0960286158093
 20
-153.3914984425549
 30
0.0
  0
VERTEX
  5
F8
330
F4
100
AcDbEntity
  8
_U+30EC_U+30A4_U+30E4_U+30FC 1
370
     0
100
AcDbVertex
100
AcDb2dVertex
 10
119.4400824354178
 20
-153.3914984425549
 30
0.0
  0
SEQEND
  5
F9
330
F4
100
AcDbEntity
  8
_U+30EC_U+30A4_U+30E4_U+30FC 1
370
     0
  0
HATCH
  5
FA
330
D7
100
AcDbEntity
  8
_U+30EC_U+30A4_U+30E4_U+30FC 1
 62
     7
420
 16777215
100
AcDbHatch
 10
0.0
 20
0.0
 30
0.0
210
0.0
220
0.0
230
1.0
  2
SOLID
 70
     1
 71
     0
 91
        2
 92
        1
 93
       11
 72
     1
 10
120.2948106253082
 20
-153.1737684078871
 11
120.6417317406729
 21
-153.1737684078871
 72
     1
 10
120.6417317406729
 20
-153.1737684078871
 11
120.6417317406729
 21
-153.3914984425549
 72
     1
 10
120.6417317406729
 20
-153.3914984425549
 11
120.2948106253082
 21
-153.3914984425549
 72
     1
 10
120.2948106253082
 20
-153.3914984425549
 11
120.2948106253082
 21
-154.0474446229465
 72
     1
 10
120.2948106253082
 20
-154.0474446229465
 11
120.0705349092185
 21
-154.0474446229465
 72
     1
 10
120.0705349092185
 20
-154.0474446229465
 11
119.0972954346354
 21
-153.3684163028037
 72
     1
 10
119.0972954346354
 20
-153.3684163028037
 11
119.0972954346354
 21
-153.1737684078871
 72
     1
 10
119.0972954346354
 20
-153.1737684078871
 11
120.0960286158093
 21
-153.1737684078871
 72
     1
 10
120.0960286158093
 20
-153.1737684078871
 11
120.0960286158093
 21
-152.9663736596751
 72
     1
 10
120.0960286158093
 20
-152.9663736596751
 11
120.2948106253082
 21
-152.9663736596751
 72
     1
 10
120.2948106253082
 20
-152.9663736596751
 11
120.2948106253082
 21
-153.1737684078871
 97
        0
 92
        1
 93
        3
 72
     1
 10
119.4400824354178
 20
-153.3914984425549
 11
120.0960286158093
 21
-153.8486626134476
 72
     1
 10
120.0960286158093
 20
-153.8486626134476
 11
120.0960286158093
 21
-153.3914984425549
 72
     1
 10
120.0960286158093
 20
-153.3914984425549
 11
119.4400824354178
 21
-153.3914984425549
 97
        0
 75
     2
 76
     1
 98
        0
  0
ENDBLK
  5
DA
330
D7
100
AcDbEntity
  8
0
100
AcDbBlockEnd
  0
BLOCK
  5
101
330
FF
100
AcDbEntity
  8
0
100
AcDbBlockBegin
  2
block 7
 70
     0
 10
0.0
 20
0.0
 30
0.0
  3
block 7
  1

  0
SPLINE
  5
103
330
FF
100
AcDbEntity
  8
_U+30EC_U+30A4_U+30E4_U+30FC 1
370
     0
100
AcDbSpline
210
0.0
220
0.0
230
1.0
 70
    11
 71
     3
 72
    17
 73
    13
 74
     0
 42
0.0000000001
 43
0.0000000001
 12
1.0
 22
0.0
 32
0.0
 13
1.0
 23
0.0
 33
0.0
 40
0.0
 40
0.0
 40
0.0
 40
0.0
 40
1.0
 40
1.0
 40
1.0
 40
2.0
 40
2.0
 40
2.0
 40
3.0
 40
3.0
 40
3.0
 40
4.0
 40
4.0
 40
4.0
 40
4.0
 10
116.5107177443098
 20
-158.949815498457
 30
0.0
 10
116.4049533129127
 20
-158.8440510670598
 30
0.0
 10
116.3243380785578
 20
-158.8058105071736
 30
0.0
 10
116.2313205004561
 20
-158.7741156287093
 30
0.0
 10
116.2313205004561
 20
-158.7741156287093
 30
0.0
 10
116.3415635559841
 20
-158.6094400645143
 30
0.0
 10
116.3415635559841
 20
-158.6094400645143
 30
0.0
 10
116.4387152486681
 20
-158.6514702294344
 30
0.0
 10
116.5592935906518
 20
-158.7300184064981
 30
0.0
 10
116.6123480611247
 20
-158.7847954247135
 30
0.0
 10
116.6123480611247
 20
-158.7847954247135
 30
0.0
 10
116.5107177443098
 20
-158.949815498457
 30
0.0
 10
116.5107177443098
 20
-158.949815498457
 30
0.0
  0
SPLINE
  5
104
330
FF
100
AcDbEntity
  8
_U+30EC_U+30A4_U+30E4_U+30FC 1
370
     0
100
AcDbSpline
210
0.0
220
0.0
230
1.0
 70
    11
 71
     3
 72
   182
 73
   178
 74
     0
 42
0.0000000001
 43
0.0000000001
 12
1.0
 22
0.0
 32
0.0
 13
1.0
 23
0.0
 33
0.0
 40
0.0
 40
0.0
 40
0.0
 40
0.0
 40
1.0
 40
1.0
 40
1.0
 40
2.0
 40
2.0
 40
2.0
 40
3.0
 40
3.0
 40
3.0
 40
4.0
 40
4.0
 40
4.0
 40
5.0
 40
5.0
 40
5.0
 40
6.0
 40
6.0
 40
6.0
 40
7.0
 40
7.0
 40
7.0
 40
8.0
 40
8.0
 40
8.0
 40
9.0
 40
9.0
 40
9.0
 40
10.0
 40
10.0
 40
10.0
 40
11.0
 40
11.0
 40
11.0
 40
12.0
 40
12.0
 40
12.0
 40
13.0
 40
13.0
 40
13.0
 40
14.0
 40
14.0
 40
14.0
 40
15.0
 40
15.0
 40
15.0
 40
16.0
 40
16.0
 40
16.0
 40
17.0
 40
17.0
 40
17.0
 40
18.0
 40
18.0
 40
18.0
 40
19.0
 40
19.0
 40
19.0
 40
20.0
 40
20.0
 40
20.0
 40
21.0
 40
21.0
 40
21.0
 40
22.0
 40
22.0
 40
22.0
 40
23.0
 40
23.0
 40
23.0
 40
24.0
 40
24.0
 40
24.0
 40
25.0
 40
25.0
 40
25.0
 40
26.0
 40
26.0
 40
26.0
 40
27.0
 40
27.0
 40
27.0
 40
28.0
 40
28.0
 40
28.0
 40
29.0
 40
29.0
 40
29.0
 40
30.0
 40
30.0
 40
30.0
 40
31.0
 40
31.0
 40
31.0
 40
32.0
 40
32.0
 40
32.0
 40
33.0
 40
33.0
 40
33.0
 40
34.0
 40
34.0
 40
34.0
 40
35.0
 40
35.0
 40
35.0
 40
36.0
 40
36.0
 40
36.0
 40
37.0
 40
37.0
 40
37.0
 40
38.0
 40
38.0
 40
38.0
 40
39.0
 40
39.0
 40
39.0
 40
40.0
 40
40.0
 40
40.0
 40
41.0
 40
41.0
 40
41.0
 40
42.0
 40
42.0
 40
42.0
 40
43.0
 40
43.0
 40
43.0
 40
44.0
 40
44.0
 40
44.0
 40
45.0
 40
45.0
 40
45.0
 40
46.0
 40
46.0
 40
46.0
 40
47.0
 40
47.0
 40
47.0
 40
48.0
 40
48.0
 40
48.0
 40
49.0
 40
49.0
 40
49.0
 40
50.0
 40
50.0
 40
50.0
 40
51.0
 40
51.0
 40
51.0
 40
52.0
 40
52.0
 40
52.0
 40
53.0
 40
53.0
 40
53.0
 40
54.0
 40
54.0
 40
54.0
 40
55.0
 40
55.0
 40
55.0
 40
56.0
 40
56.0
 40
56.0
 40
57.0
 40
57.0
 40
57.0
 40
58.0
 40
58.0
 40
58.0
 40
59.0
 40
59.0
 40
59.0
 40
59.0
 10
117.5556152049861
 20
-160.1280381544125
 30
0.0
 10
117.5556152049861
 20
-160.1280381544125
 30
0.0
 10
116.9189615593119
 20
-160.1280381544125
 30
0.0
 10
116.9189615593119
 20
-160.1280381544125
 30
0.0
 10
116.7053656392264
 20
-160.1280381544125
 30
0.0
 10
116.4893581523013
 20
-160.1325167785433
 30
0.0
 10
116.2757622322158
 20
-160.1452636318387
 30
0.0
 10
116.2757622322158
 20
-160.1452636318387
 30
0.0
 10
116.2757622322158
 20
-159.9378688836267
 30
0.0
 10
116.2757622322158
 20
-159.9378688836267
 30
0.0
 10
116.4979708910144
 20
-159.9502712273735
 30
0.0
 10
116.8214653570794
 20
-159.9547498515044
 30
0.0
 10
116.9189615593119
 20
-159.9547498515044
 30
0.0
 10
116.9189615593119
 20
-159.9547498515044
 30
0.0
 10
117.1391031608194
 20
-159.9547498515044
 30
0.0
 10
117.1391031608194
 20
-159.9547498515044
 30
0.0
 10
117.1391031608194
 20
-159.9547498515044
 30
0.0
 10
117.1391031608194
 20
-159.8131564270606
 30
0.0
 10
117.1391031608194
 20
-159.8131564270606
 30
0.0
 10
117.1391031608194
 20
-159.8131564270606
 30
0.0
 10
116.9782172016582
 20
-159.8131564270606
 30
0.0
 10
116.9782172016582
 20
-159.8131564270606
 30
0.0
 10
116.8131971279148
 20
-159.8131564270606
 30
0.0
 10
116.6481770541713
 20
-159.8172905416429
 30
0.0
 10
116.4831569804278
 20
-159.8321044522295
 30
0.0
 10
116.4831569804278
 20
-159.8321044522295
 30
0.0
 10
116.4831569804278
 20
-159.6226426467263
 30
0.0
 10
116.4831569804278
 20
-159.6226426467263
 30
0.0
 10
116.6543782260447
 20
-159.6374565573129
 30
0.0
 10
116.9020805914342
 20
-159.6415906718952
 30
0.0
 10
116.9782172016582
 20
-159.6415906718952
 30
0.0
 10
116.9782172016582
 20
-159.6415906718952
 30
0.0
 10
117.1391031608194
 20
-159.6415906718952
 30
0.0
 10
117.1391031608194
 20
-159.6415906718952
 30
0.0
 10
117.1346245366886
 20
-159.569932685802
 30
0.0
 10
117.1346245366886
 20
-159.56338700438
 30
0.0
 10
117.1284233648151
 20
-159.5106770434557
 30
0.0
 10
117.1284233648151
 20
-159.5106770434557
 30
0.0
 10
117.2679497319677
 20
-159.5251464444937
 30
0.0
 10
117.2679497319677
 20
-159.5251464444937
 30
0.0
 10
117.2679497319677
 20
-159.5251464444937
 30
0.0
 10
117.1687309819925
 20
-159.3539251988768
 30
0.0
 10
117.1687309819925
 20
-159.3539251988768
 30
0.0
 10
117.2152397710434
 20
-159.3604708802988
 30
0.0
 10
117.2893093239763
 20
-159.3687391094634
 30
0.0
 10
117.306190291854
 20
-159.3687391094634
 30
0.0
 10
117.3568331954872
 20
-159.3687391094634
 30
0.0
 10
117.3737141633649
 20
-159.3473795174548
 30
0.0
 10
117.3737141633649
 20
-159.2905354419482
 30
0.0
 10
117.3737141633649
 20
-159.2905354419482
 30
0.0
 10
117.3737141633649
 20
-159.1530761320867
 30
0.0
 10
117.3737141633649
 20
-159.1530761320867
 30
0.0
 10
117.3737141633649
 20
-159.1530761320867
 30
0.0
 10
117.2679497319677
 20
-159.1530761320867
 30
0.0
 10
117.2679497319677
 20
-159.1530761320867
 30
0.0
 10
117.1346245366886
 20
-159.1530761320867
 30
0.0
 10
116.9782172016582
 20
-159.1530761320867
 30
0.0
 10
116.8555718023833
 20
-159.1654784758337
 30
0.0
 10
116.8555718023833
 20
-159.1654784758337
 30
0.0
 10
116.8555718023833
 20
-158.9753092050478
 30
0.0
 10
116.8555718023833
 20
-158.9753092050478
 30
0.0
 10
117.022658933418
 20
-158.9921901729256
 30
0.0
 10
117.2531358213812
 20
-158.9942572302167
 30
0.0
 10
117.2679497319677
 20
-158.9942572302167
 30
0.0
 10
117.2679497319677
 20
-158.9942572302167
 30
0.0
 10
117.3737141633649
 20
-158.9942572302167
 30
0.0
 10
117.3737141633649
 20
-158.9942572302167
 30
0.0
 10
117.3737141633649
 20
-158.9942572302167
 30
0.0
 10
117.3737141633649
 20
-158.8629990922287
 30
0.0
 10
117.3737141633649
 20
-158.8629990922287
 30
0.0
 10
117.3737141633649
 20
-158.8629990922287
 30
0.0
 10
117.3358181130272
 20
-158.8629990922287
 30
0.0
 10
117.3358181130272
 20
-158.8629990922287
 30
0.0
 10
117.2913763812674
 20
-158.8629990922287
 30
0.0
 10
117.1663194151529
 20
-158.867133206811
 30
0.0
 10
117.0774359516334
 20
-158.8757459455241
 30
0.0
 10
117.0774359516334
 20
-158.8757459455241
 30
0.0
 10
117.0774359516334
 20
-158.7954752207178
 30
0.0
 10
117.0774359516334
 20
-158.7954752207178
 30
0.0
 10
117.0247259907091
 20
-158.8333712710555
 30
0.0
 10
116.9992322841182
 20
-158.8485296911907
 30
0.0
 10
116.9568576096497
 20
-158.8716118309418
 30
0.0
 10
116.9568576096497
 20
-158.8716118309418
 30
0.0
 10
116.768755396155
 20
-158.7424207502449
 30
0.0
 10
116.768755396155
 20
-158.7424207502449
 30
0.0
 10
116.8469590636702
 20
-158.7086588144895
 30
0.0
 10
117.0037109082491
 20
-158.6452690575609
 30
0.0
 10
117.1601182432794
 20
-158.5012640662775
 30
0.0
 10
117.2424560253769
 20
-158.4230603987623
 30
0.0
 10
117.3210042024406
 20
-158.3386555593737
 30
0.0
 10
117.3737141633649
 20
-158.2370252425588
 30
0.0
 10
117.3737141633649
 20
-158.2370252425588
 30
0.0
 10
117.5852430261592
 20
-158.2983479421962
 30
0.0
 10
117.5852430261592
 20
-158.2983479421962
 30
0.0
 10
117.6045355608767
 20
-158.3045491140697
 30
0.0
 10
117.6148708473324
 20
-158.3131618527828
 30
0.0
 10
117.6148708473324
 20
-158.3255641965297
 30
0.0
 10
117.6148708473324
 20
-158.342789673956
 30
0.0
 10
117.602123994037
 20
-158.3489908458294
 30
0.0
 10
117.5769747969946
 20
-158.3617376991249
 30
0.0
 10
117.657245521801
 20
-158.4592339013574
 30
0.0
 10
117.8201985382533
 20
-158.5563855940415
 30
0.0
 10
117.8539604740087
 20
-158.5753336192103
 30
0.0
 10
118.0041666371656
 20
-158.6642170827298
 30
0.0
 10
118.1185438072759
 20
-158.6917778466118
 30
0.0
 10
118.1967474747911
 20
-158.7107258717807
 30
0.0
 10
118.1967474747911
 20
-158.7107258717807
 30
0.0
 10
118.0782361900985
 20
-158.880224569655
 30
0.0
 10
118.0782361900985
 20
-158.880224569655
 30
0.0
 10
117.9934868411614
 20
-158.8505967484818
 30
0.0
 10
117.9428439375282
 20
-158.8313042137644
 30
0.0
 10
117.8243326528356
 20
-158.7658473995447
 30
0.0
 10
117.8243326528356
 20
-158.7658473995447
 30
0.0
 10
117.8243326528356
 20
-158.8757459455241
 30
0.0
 10
117.8243326528356
 20
-158.8757459455241
 30
0.0
 10
117.7419948707381
 20
-158.867133206811
 30
0.0
 10
117.6148708473324
 20
-158.8629990922287
 30
0.0
 10
117.5621608864081
 20
-158.8629990922287
 30
0.0
 10
117.5621608864081
 20
-158.8629990922287
 30
0.0
 10
117.5621608864081
 20
-158.9942572302167
 30
0.0
 10
117.5621608864081
 20
-158.9942572302167
 30
0.0
 10
117.5621608864081
 20
-158.9942572302167
 30
0.0
 10
117.6827392283918
 20
-158.9942572302167
 30
0.0
 10
117.6827392283918
 20
-158.9942572302167
 30
0.0
 10
117.684806285683
 20
-158.9942572302167
 30
0.0
 10
117.9173502309373
 20
-158.9921901729256
 30
0.0
 10
118.0951171579762
 20
-158.9753092050478
 30
0.0
 10
118.0951171579762
 20
-158.9753092050478
 30
0.0
 10
118.0951171579762
 20
-159.1654784758337
 30
0.0
 10
118.0951171579762
 20
-159.1654784758337
 30
0.0
 10
117.9662705868279
 20
-159.1530761320867
 30
0.0
 10
117.809518742249
 20
-159.1530761320867
 30
0.0
 10
117.6827392283918
 20
-159.1530761320867
 30
0.0
 10
117.6827392283918
 20
-159.1530761320867
 30
0.0
 10
117.5621608864081
 20
-159.1530761320867
 30
0.0
 10
117.5621608864081
 20
-159.1530761320867
 30
0.0
 10
117.5621608864081
 20
-159.1530761320867
 30
0.0
 10
117.5621608864081
 20
-159.3790743959191
 30
0.0
 10
117.5621608864081
 20
-159.3790743959191
 30
0.0
 10
117.5621608864081
 20
-159.4975856806117
 30
0.0
 10
117.5366671798172
 20
-159.5337591832069
 30
0.0
 10
117.3757812206561
 20
-159.5485730937934
 30
0.0
 10
117.3802598447869
 20
-159.5675211189623
 30
0.0
 10
117.3737141633649
 20
-159.5782009149666
 30
0.0
 10
117.3358181130272
 20
-159.6016275642663
 30
0.0
 10
117.333751055736
 20
-159.6202310798866
 30
0.0
 10
117.333751055736
 20
-159.6267767613086
 30
0.0
 10
117.3313394888963
 20
-159.6415906718952
 30
0.0
 10
117.3313394888963
 20
-159.6415906718952
 30
0.0
 10
117.4687987987578
 20
-159.6415906718952
 30
0.0
 10
117.4687987987578
 20
-159.6415906718952
 30
0.0
 10
117.6338188725013
 20
-159.6415906718952
 30
0.0
 10
117.8012505130844
 20
-159.6374565573129
 30
0.0
 10
117.968337644119
 20
-159.6226426467263
 30
0.0
 10
117.968337644119
 20
-159.6226426467263
 30
0.0
 10
117.968337644119
 20
-159.8296928853898
 30
0.0
 10
117.968337644119
 20
-159.8296928853898
 30
0.0
 10
117.7523301571939
 20
-159.8131564270606
 30
0.0
 10
117.4880913334752
 20
-159.8131564270606
 30
0.0
 10
117.4687987987578
 20
-159.8131564270606
 30
0.0
 10
117.4687987987578
 20
-159.8131564270606
 30
0.0
 10
117.3292724316052
 20
-159.8131564270606
 30
0.0
 10
117.3292724316052
 20
-159.8131564270606
 30
0.0
 10
117.3292724316052
 20
-159.8131564270606
 30
0.0
 10
117.3292724316052
 20
-159.9547498515044
 30
0.0
 10
117.3292724316052
 20
-159.9547498515044
 30
0.0
 10
117.3292724316052
 20
-159.9547498515044
 30
0.0
 10
117.5556152049861
 20
-159.9547498515044
 30
0.0
 10
117.5556152049861
 20
-159.9547498515044
 30
0.0
 10
117.7716226919113
 20
-159.9547498515044
 30
0.0
 10
117.9893527265791
 20
-159.9502712273735
 30
0.0
 10
118.2050157039557
 20
-159.9378688836267
 30
0.0
 10
118.2050157039557
 20
-159.9378688836267
 30
0.0
 10
118.2050157039557
 20
-160.1452636318387
 30
0.0
 10
118.2050157039557
 20
-160.1452636318387
 30
0.0
 10
117.9238959123593
 20
-160.1280381544125
 30
0.0
 10
117.5790418542858
 20
-160.1280381544125
 30
0.0
 10
117.5556152049861
 20
-160.1280381544125
 30
0.0
  0
SPLINE
  5
105
330
FF
100
AcDbEntity
  8
_U+30EC_U+30A4_U+30E4_U+30FC 1
370
     0
100
AcDbSpline
210
0.0
220
0.0
230
1.0
 70
    11
 71
     3
 72
    23
 73
    19
 74
     0
 42
0.0000000001
 43
0.0000000001
 12
1.0
 22
0.0
 32
0.0
 13
1.0
 23
0.0
 33
0.0
 40
0.0
 40
0.0
 40
0.0
 40
0.0
 40
1.0
 40
1.0
 40
1.0
 40
2.0
 40
2.0
 40
2.0
 40
3.0
 40
3.0
 40
3.0
 40
4.0
 40
4.0
 40
4.0
 40
5.0
 40
5.0
 40
5.0
 40
6.0
 40
6.0
 40
6.0
 40
6.0
 10
116.436648191377
 20
-159.4996527379029
 30
0.0
 10
116.436648191377
 20
-159.5210123299114
 30
0.0
 10
116.4387152486681
 20
-159.5589083802492
 30
0.0
 10
116.4132215420773
 20
-159.5589083802492
 30
0.0
 10
116.4028862556215
 20
-159.5589083802492
 30
0.0
 10
116.3942735169084
 20
-159.5527072083757
 30
0.0
 10
116.3835937209041
 20
-159.535826240498
 30
0.0
 10
116.3835937209041
 20
-159.535826240498
 30
0.0
 10
116.2798963467981
 20
-159.3539251988768
 30
0.0
 10
116.2798963467981
 20
-159.3539251988768
 30
0.0
 10
116.4959038337232
 20
-159.2247341181799
 30
0.0
 10
116.692618785931
 20
-158.9477484411659
 30
0.0
 10
116.7391275749819
 20
-158.8757459455241
 30
0.0
 10
116.7391275749819
 20
-158.8757459455241
 30
0.0
 10
116.8111300706236
 20
-159.0555799298542
 30
0.0
 10
116.8111300706236
 20
-159.0555799298542
 30
0.0
 10
116.6778048753444
 20
-159.2522948820619
 30
0.0
 10
116.5021050055967
 20
-159.4362629809743
 30
0.0
 10
116.436648191377
 20
-159.4996527379029
 30
0.0
  0
SPLINE
  5
106
330
FF
100
AcDbEntity
  8
_U+30EC_U+30A4_U+30E4_U+30FC 1
370
     0
100
AcDbSpline
210
0.0
220
0.0
230
1.0
 70
    11
 71
     3
 72
    17
 73
    13
 74
     0
 42
0.0000000001
 43
0.0000000001
 12
1.0
 22
0.0
 32
0.0
 13
1.0
 23
0.0
 33
0.0
 40
0.0
 40
0.0
 40
0.0
 40
0.0
 40
1.0
 40
1.0
 40
1.0
 40
2.0
 40
2.0
 40
2.0
 40
3.0
 40
3.0
 40
3.0
 40
4.0
 40
4.0
 40
4.0
 40
4.0
 10
116.6905517286399
 20
-158.6049614403835
 30
0.0
 10
116.6292290290024
 20
-158.5288248301595
 30
0.0
 10
116.5000379483055
 20
-158.4526882199355
 30
0.0
 10
116.3963405741995
 20
-158.4230603987623
 30
0.0
 10
116.3963405741995
 20
-158.4230603987623
 30
0.0
 10
116.4917697191409
 20
-158.2580403250188
 30
0.0
 10
116.4917697191409
 20
-158.2580403250188
 30
0.0
 10
116.5930555264073
 20
-158.2938693180654
 30
0.0
 10
116.6988199578045
 20
-158.3510579031206
 30
0.0
 10
116.7877034213239
 20
-158.4316731374754
 30
0.0
 10
116.7877034213239
 20
-158.4316731374754
 30
0.0
 10
116.6905517286399
 20
-158.6049614403835
 30
0.0
 10
116.6905517286399
 20
-158.6049614403835
 30
0.0
  0
SPLINE
  5
107
330
FF
100
AcDbEntity
  8
_U+30EC_U+30A4_U+30E4_U+30FC 1
370
     0
100
AcDbSpline
210
0.0
220
0.0
230
1.0
 70
    11
 71
     3
 72
    23
 73
    19
 74
     0
 42
0.0000000001
 43
0.0000000001
 12
1.0
 22
0.0
 32
0.0
 13
1.0
 23
0.0
 33
0.0
 40
0.0
 40
0.0
 40
0.0
 40
0.0
 40
1.0
 40
1.0
 40
1.0
 40
2.0
 40
2.0
 40
2.0
 40
3.0
 40
3.0
 40
3.0
 40
4.0
 40
4.0
 40
4.0
 40
5.0
 40
5.0
 40
5.0
 40
6.0
 40
6.0
 40
6.0
 40
6.0
 10
117.1432372754017
 20
-159.3094834671171
 30
0.0
 10
117.1218776833932
 20
-159.3329101164168
 30
0.0
 10
117.0247259907091
 20
-159.4448757196874
 30
0.0
 10
116.8851996235565
 20
-159.5251464444937
 30
0.0
 10
116.8851996235565
 20
-159.5251464444937
 30
0.0
 10
116.7181124925219
 20
-159.40456810251
 30
0.0
 10
116.7181124925219
 20
-159.40456810251
 30
0.0
 10
116.8683186556788
 20
-159.3287760018345
 30
0.0
 10
116.967537405654
 20
-159.2333468568931
 30
0.0
 10
117.016113251996
 20
-159.1806368959687
 30
0.0
 10
117.016113251996
 20
-159.1806368959687
 30
0.0
 10
117.1897460644526
 20
-159.2629746780662
 30
0.0
 10
117.1897460644526
 20
-159.2629746780662
 30
0.0
 10
117.1980142936172
 20
-159.2671087926485
 30
0.0
 10
117.2066270323303
 20
-159.2736544740705
 30
0.0
 10
117.2066270323303
 20
-159.2839897605262
 30
0.0
 10
117.2066270323303
 20
-159.3094834671171
 30
0.0
 10
117.1707980392837
 20
-159.3094834671171
 30
0.0
 10
117.1432372754017
 20
-159.3094834671171
 30
0.0
  0
SPLINE
  5
108
330
FF
100
AcDbEntity
  8
_U+30EC_U+30A4_U+30E4_U+30FC 1
370
     0
100
AcDbSpline
210
0.0
220
0.0
230
1.0
 70
    11
 71
     3
 72
    20
 73
    16
 74
     0
 42
0.0000000001
 43
0.0000000001
 12
1.0
 22
0.0
 32
0.0
 13
1.0
 23
0.0
 33
0.0
 40
0.0
 40
0.0
 40
0.0
 40
0.0
 40
1.0
 40
1.0
 40
1.0
 40
2.0
 40
2.0
 40
2.0
 40
3.0
 40
3.0
 40
3.0
 40
4.0
 40
4.0
 40
4.0
 40
5.0
 40
5.0
 40
5.0
 40
5.0
 10
117.4415825444243
 20
-158.467502130522
 30
0.0
 10
117.4033419845381
 20
-158.5164224864126
 30
0.0
 10
117.3420192849006
 20
-158.5942816443792
 30
0.0
 10
117.202492917748
 20
-158.7045246999072
 30
0.0
 10
117.2827636425543
 20
-158.7086588144895
 30
0.0
 10
117.3123914637275
 20
-158.7086588144895
 30
0.0
 10
117.3358181130272
 20
-158.7086588144895
 30
0.0
 10
117.3358181130272
 20
-158.7086588144895
 30
0.0
 10
117.5642279436992
 20
-158.7086588144895
 30
0.0
 10
117.5642279436992
 20
-158.7086588144895
 30
0.0
 10
117.5959228221635
 20
-158.7086588144895
 30
0.0
 10
117.6444986685055
 20
-158.7065917571984
 30
0.0
 10
117.7185682214384
 20
-158.7045246999072
 30
0.0
 10
117.6066026181678
 20
-158.6304551469743
 30
0.0
 10
117.5576822622773
 20
-158.5839463579235
 30
0.0
 10
117.4415825444243
 20
-158.467502130522
 30
0.0
  0
SPLINE
  5
109
330
FF
100
AcDbEntity
  8
_U+30EC_U+30A4_U+30E4_U+30FC 1
370
     0
100
AcDbSpline
210
0.0
220
0.0
230
1.0
 70
    11
 71
     3
 72
    17
 73
    13
 74
     0
 42
0.0000000001
 43
0.0000000001
 12
1.0
 22
0.0
 32
0.0
 13
1.0
 23
0.0
 33
0.0
 40
0.0
 40
0.0
 40
0.0
 40
0.0
 40
1.0
 40
1.0
 40
1.0
 40
2.0
 40
2.0
 40
2.0
 40
3.0
 40
3.0
 40
3.0
 40
4.0
 40
4.0
 40
4.0
 40
4.0
 10
118.0020995798745
 20
-159.5230793872026
 30
0.0
 10
117.8667073273042
 20
-159.4111137839319
 30
0.0
 10
117.760942895907
 20
-159.3473795174548
 30
0.0
 10
117.6424316112144
 20
-159.2839897605262
 30
0.0
 10
117.6424316112144
 20
-159.2839897605262
 30
0.0
 10
117.7692111250716
 20
-159.1720241572556
 30
0.0
 10
117.7692111250716
 20
-159.1720241572556
 30
0.0
 10
117.9004692630596
 20
-159.2185329463065
 30
0.0
 10
118.0103678090391
 20
-159.2757215313616
 30
0.0
 10
118.1354247751537
 20
-159.377007338628
 30
0.0
 10
118.1354247751537
 20
-159.377007338628
 30
0.0
 10
118.0020995798745
 20
-159.5230793872026
 30
0.0
 10
118.0020995798745
 20
-159.5230793872026
 30
0.0
  0
HATCH
  5
10A
330
FF
100
AcDbEntity
  8
_U+30EC_U+30A4_U+30E4_U+30FC 1
 62
     7
420
 16777215
100
AcDbHatch
 10
0.0
 20
0.0
 30
0.0
210
0.0
220
0.0
230
1.0
  2
SOLID
 70
     1
 71
     0
 91
        7
 92
        1
 93
        1
 72
     4
 94
        3
 73
     0
 74
     1
 95
       17
 96
       13
 40
0.0
 40
0.0
 40
0.0
 40
0.0
 40
1.0
 40
1.0
 40
1.0
 40
2.0
 40
2.0
 40
2.0
 40
3.0
 40
3.0
 40
3.0
 40
4.0
 40
4.0
 40
4.0
 40
4.0
 10
116.5107177443098
 20
-158.949815498457
 10
116.4049533129127
 20
-158.8440510670598
 10
116.3243380785578
 20
-158.8058105071736
 10
116.2313205004561
 20
-158.7741156287093
 10
116.2313205004561
 20
-158.7741156287093
 10
116.3415635559841
 20
-158.6094400645143
 10
116.3415635559841
 20
-158.6094400645143
 10
116.4387152486681
 20
-158.6514702294344
 10
116.5592935906518
 20
-158.7300184064981
 10
116.6123480611247
 20
-158.7847954247135
 10
116.6123480611247
 20
-158.7847954247135
 10
116.5107177443098
 20
-158.949815498457
 10
116.5107177443098
 20
-158.949815498457
 97
        0
 97
        0
 92
        1
 93
        1
 72
     4
 94
        3
 73
     0
 74
     1
 95
      182
 96
      178
 40
0.0
 40
0.0
 40
0.0
 40
0.0
 40
1.0
 40
1.0
 40
1.0
 40
2.0
 40
2.0
 40
2.0
 40
3.0
 40
3.0
 40
3.0
 40
4.0
 40
4.0
 40
4.0
 40
5.0
 40
5.0
 40
5.0
 40
6.0
 40
6.0
 40
6.0
 40
7.0
 40
7.0
 40
7.0
 40
8.0
 40
8.0
 40
8.0
 40
9.0
 40
9.0
 40
9.0
 40
10.0
 40
10.0
 40
10.0
 40
11.0
 40
11.0
 40
11.0
 40
12.0
 40
12.0
 40
12.0
 40
13.0
 40
13.0
 40
13.0
 40
14.0
 40
14.0
 40
14.0
 40
15.0
 40
15.0
 40
15.0
 40
16.0
 40
16.0
 40
16.0
 40
17.0
 40
17.0
 40
17.0
 40
18.0
 40
18.0
 40
18.0
 40
19.0
 40
19.0
 40
19.0
 40
20.0
 40
20.0
 40
20.0
 40
21.0
 40
21.0
 40
21.0
 40
22.0
 40
22.0
 40
22.0
 40
23.0
 40
23.0
 40
23.0
 40
24.0
 40
24.0
 40
24.0
 40
25.0
 40
25.0
 40
25.0
 40
26.0
 40
26.0
 40
26.0
 40
27.0
 40
27.0
 40
27.0
 40
28.0
 40
28.0
 40
28.0
 40
29.0
 40
29.0
 40
29.0
 40
30.0
 40
30.0
 40
30.0
 40
31.0
 40
31.0
 40
31.0
 40
32.0
 40
32.0
 40
32.0
 40
33.0
 40
33.0
 40
33.0
 40
34.0
 40
34.0
 40
34.0
 40
35.0
 40
35.0
 40
35.0
 40
36.0
 40
36.0
 40
36.0
 40
37.0
 40
37.0
 40
37.0
 40
38.0
 40
38.0
 40
38.0
 40
39.0
 40
39.0
 40
39.0
 40
40.0
 40
40.0
 40
40.0
 40
41.0
 40
41.0
 40
41.0
 40
42.0
 40
42.0
 40
42.0
 40
43.0
 40
43.0
 40
43.0
 40
44.0
 40
44.0
 40
44.0
 40
45.0
 40
45.0
 40
45.0
 40
46.0
 40
46.0
 40
46.0
 40
47.0
 40
47.0
 40
47.0
 40
48.0
 40
48.0
 40
48.0
 40
49.0
 40
49.0
 40
49.0
 40
50.0
 40
50.0
 40
50.0
 40
51.0
 40
51.0
 40
51.0
 40
52.0
 40
52.0
 40
52.0
 40
53.0
 40
53.0
 40
53.0
 40
54.0
 40
54.0
 40
54.0
 40
55.0
 40
55.0
 40
55.0
 40
56.0
 40
56.0
 40
56.0
 40
57.0
 40
57.0
 40
57.0
 40
58.0
 40
58.0
 40
58.0
 40
59.0
 40
59.0
 40
59.0
 40
59.0
 10
117.5556152049861
 20
-160.1280381544125
 10
117.5556152049861
 20
-160.1280381544125
 10
116.9189615593119
 20
-160.1280381544125
 10
116.9189615593119
 20
-160.1280381544125
 10
116.7053656392264
 20
-160.1280381544125
 10
116.4893581523013
 20
-160.1325167785433
 10
116.2757622322158
 20
-160.1452636318387
 10
116.2757622322158
 20
-160.1452636318387
 10
116.2757622322158
 20
-159.9378688836267
 10
116.2757622322158
 20
-159.9378688836267
 10
116.4979708910144
 20
-159.9502712273735
 10
116.8214653570794
 20
-159.9547498515044
 10
116.9189615593119
 20
-159.9547498515044
 10
116.9189615593119
 20
-159.9547498515044
 10
117.1391031608194
 20
-159.9547498515044
 10
117.1391031608194
 20
-159.9547498515044
 10
117.1391031608194
 20
-159.9547498515044
 10
117.1391031608194
 20
-159.8131564270606
 10
117.1391031608194
 20
-159.8131564270606
 10
117.1391031608194
 20
-159.8131564270606
 10
116.9782172016582
 20
-159.8131564270606
 10
116.9782172016582
 20
-159.8131564270606
 10
116.8131971279148
 20
-159.8131564270606
 10
116.6481770541713
 20
-159.8172905416429
 10
116.4831569804278
 20
-159.8321044522295
 10
116.4831569804278
 20
-159.8321044522295
 10
116.4831569804278
 20
-159.6226426467263
 10
116.4831569804278
 20
-159.6226426467263
 10
116.6543782260447
 20
-159.6374565573129
 10
116.9020805914342
 20
-159.6415906718952
 10
116.9782172016582
 20
-159.6415906718952
 10
116.9782172016582
 20
-159.6415906718952
 10
117.1391031608194
 20
-159.6415906718952
 10
117.1391031608194
 20
-159.6415906718952
 10
117.1346245366886
 20
-159.569932685802
 10
117.1346245366886
 20
-159.56338700438
 10
117.1284233648151
 20
-159.5106770434557
 10
117.1284233648151
 20
-159.5106770434557
 10
117.2679497319677
 20
-159.5251464444937
 10
117.2679497319677
 20
-159.5251464444937
 10
117.2679497319677
 20
-159.5251464444937
 10
117.1687309819925
 20
-159.3539251988768
 10
117.1687309819925
 20
-159.3539251988768
 10
117.2152397710434
 20
-159.3604708802988
 10
117.2893093239763
 20
-159.3687391094634
 10
117.306190291854
 20
-159.3687391094634
 10
117.3568331954872
 20
-159.3687391094634
 10
117.3737141633649
 20
-159.3473795174548
 10
117.3737141633649
 20
-159.2905354419482
 10
117.3737141633649
 20
-159.2905354419482
 10
117.3737141633649
 20
-159.1530761320867
 10
117.3737141633649
 20
-159.1530761320867
 10
117.3737141633649
 20
-159.1530761320867
 10
117.2679497319677
 20
-159.1530761320867
 10
117.2679497319677
 20
-159.1530761320867
 10
117.1346245366886
 20
-159.1530761320867
 10
116.9782172016582
 20
-159.1530761320867
 10
116.8555718023833
 20
-159.1654784758337
 10
116.8555718023833
 20
-159.1654784758337
 10
116.8555718023833
 20
-158.9753092050478
 10
116.8555718023833
 20
-158.9753092050478
 10
117.022658933418
 20
-158.9921901729256
 10
117.2531358213812
 20
-158.9942572302167
 10
117.2679497319677
 20
-158.9942572302167
 10
117.2679497319677
 20
-158.9942572302167
 10
117.3737141633649
 20
-158.9942572302167
 10
117.3737141633649
 20
-158.9942572302167
 10
117.3737141633649
 20
-158.9942572302167
 10
117.3737141633649
 20
-158.8629990922287
 10
117.3737141633649
 20
-158.8629990922287
 10
117.3737141633649
 20
-158.8629990922287
 10
117.3358181130272
 20
-158.8629990922287
 10
117.3358181130272
 20
-158.8629990922287
 10
117.2913763812674
 20
-158.8629990922287
 10
117.1663194151529
 20
-158.867133206811
 10
117.0774359516334
 20
-158.8757459455241
 10
117.0774359516334
 20
-158.8757459455241
 10
117.0774359516334
 20
-158.7954752207178
 10
117.0774359516334
 20
-158.7954752207178
 10
117.0247259907091
 20
-158.8333712710555
 10
116.9992322841182
 20
-158.8485296911907
 10
116.9568576096497
 20
-158.8716118309418
 10
116.9568576096497
 20
-158.8716118309418
 10
116.768755396155
 20
-158.7424207502449
 10
116.768755396155
 20
-158.7424207502449
 10
116.8469590636702
 20
-158.7086588144895
 10
117.0037109082491
 20
-158.6452690575609
 10
117.1601182432794
 20
-158.5012640662775
 10
117.2424560253769
 20
-158.4230603987623
 10
117.3210042024406
 20
-158.3386555593737
 10
117.3737141633649
 20
-158.2370252425588
 10
117.3737141633649
 20
-158.2370252425588
 10
117.5852430261592
 20
-158.2983479421962
 10
117.5852430261592
 20
-158.2983479421962
 10
117.6045355608767
 20
-158.3045491140697
 10
117.6148708473324
 20
-158.3131618527828
 10
117.6148708473324
 20
-158.3255641965297
 10
117.6148708473324
 20
-158.342789673956
 10
117.602123994037
 20
-158.3489908458294
 10
117.5769747969946
 20
-158.3617376991249
 10
117.657245521801
 20
-158.4592339013574
 10
117.8201985382533
 20
-158.5563855940415
 10
117.8539604740087
 20
-158.5753336192103
 10
118.0041666371656
 20
-158.6642170827298
 10
118.1185438072759
 20
-158.6917778466118
 10
118.1967474747911
 20
-158.7107258717807
 10
118.1967474747911
 20
-158.7107258717807
 10
118.0782361900985
 20
-158.880224569655
 10
118.0782361900985
 20
-158.880224569655
 10
117.9934868411614
 20
-158.8505967484818
 10
117.9428439375282
 20
-158.8313042137644
 10
117.8243326528356
 20
-158.7658473995447
 10
117.8243326528356
 20
-158.7658473995447
 10
117.8243326528356
 20
-158.8757459455241
 10
117.8243326528356
 20
-158.8757459455241
 10
117.7419948707381
 20
-158.867133206811
 10
117.6148708473324
 20
-158.8629990922287
 10
117.5621608864081
 20
-158.8629990922287
 10
117.5621608864081
 20
-158.8629990922287
 10
117.5621608864081
 20
-158.9942572302167
 10
117.5621608864081
 20
-158.9942572302167
 10
117.5621608864081
 20
-158.9942572302167
 10
117.6827392283918
 20
-158.9942572302167
 10
117.6827392283918
 20
-158.9942572302167
 10
117.684806285683
 20
-158.9942572302167
 10
117.9173502309373
 20
-158.9921901729256
 10
118.0951171579762
 20
-158.9753092050478
 10
118.0951171579762
 20
-158.9753092050478
 10
118.0951171579762
 20
-159.1654784758337
 10
118.0951171579762
 20
-159.1654784758337
 10
117.9662705868279
 20
-159.1530761320867
 10
117.809518742249
 20
-159.1530761320867
 10
117.6827392283918
 20
-159.1530761320867
 10
117.6827392283918
 20
-159.1530761320867
 10
117.5621608864081
 20
-159.1530761320867
 10
117.5621608864081
 20
-159.1530761320867
 10
117.5621608864081
 20
-159.1530761320867
 10
117.5621608864081
 20
-159.3790743959191
 10
117.5621608864081
 20
-159.3790743959191
 10
117.5621608864081
 20
-159.4975856806117
 10
117.5366671798172
 20
-159.5337591832069
 10
117.3757812206561
 20
-159.5485730937934
 10
117.3802598447869
 20
-159.5675211189623
 10
117.3737141633649
 20
-159.5782009149666
 10
117.3358181130272
 20
-159.6016275642663
 10
117.333751055736
 20
-159.6202310798866
 10
117.333751055736
 20
-159.6267767613086
 10
117.3313394888963
 20
-159.6415906718952
 10
117.3313394888963
 20
-159.6415906718952
 10
117.4687987987578
 20
-159.6415906718952
 10
117.4687987987578
 20
-159.6415906718952
 10
117.6338188725013
 20
-159.6415906718952
 10
117.8012505130844
 20
-159.6374565573129
 10
117.968337644119
 20
-159.6226426467263
 10
117.968337644119
 20
-159.6226426467263
 10
117.968337644119
 20
-159.8296928853898
 10
117.968337644119
 20
-159.8296928853898
 10
117.7523301571939
 20
-159.8131564270606
 10
117.4880913334752
 20
-159.8131564270606
 10
117.4687987987578
 20
-159.8131564270606
 10
117.4687987987578
 20
-159.8131564270606
 10
117.3292724316052
 20
-159.8131564270606
 10
117.3292724316052
 20
-159.8131564270606
 10
117.3292724316052
 20
-159.8131564270606
 10
117.3292724316052
 20
-159.9547498515044
 10
117.3292724316052
 20
-159.9547498515044
 10
117.3292724316052
 20
-159.9547498515044
 10
117.5556152049861
 20
-159.9547498515044
 10
117.5556152049861
 20
-159.9547498515044
 10
117.7716226919113
 20
-159.9547498515044
 10
117.9893527265791
 20
-159.9502712273735
 10
118.2050157039557
 20
-159.9378688836267
 10
118.2050157039557
 20
-159.9378688836267
 10
118.2050157039557
 20
-160.1452636318387
 10
118.2050157039557
 20
-160.1452636318387
 10
117.9238959123593
 20
-160.1280381544125
 10
117.5790418542858
 20
-160.1280381544125
 10
117.5556152049861
 20
-160.1280381544125
 97
        0
 97
        0
 92
        1
 93
        1
 72
     4
 94
        3
 73
     0
 74
     1
 95
       23
 96
       19
 40
0.0
 40
0.0
 40
0.0
 40
0.0
 40
1.0
 40
1.0
 40
1.0
 40
2.0
 40
2.0
 40
2.0
 40
3.0
 40
3.0
 40
3.0
 40
4.0
 40
4.0
 40
4.0
 40
5.0
 40
5.0
 40
5.0
 40
6.0
 40
6.0
 40
6.0
 40
6.0
 10
116.436648191377
 20
-159.4996527379029
 10
116.436648191377
 20
-159.5210123299114
 10
116.4387152486681
 20
-159.5589083802492
 10
116.4132215420773
 20
-159.5589083802492
 10
116.4028862556215
 20
-159.5589083802492
 10
116.3942735169084
 20
-159.5527072083757
 10
116.3835937209041
 20
-159.535826240498
 10
116.3835937209041
 20
-159.535826240498
 10
116.2798963467981
 20
-159.3539251988768
 10
116.2798963467981
 20
-159.3539251988768
 10
116.4959038337232
 20
-159.2247341181799
 10
116.692618785931
 20
-158.9477484411659
 10
116.7391275749819
 20
-158.8757459455241
 10
116.7391275749819
 20
-158.8757459455241
 10
116.8111300706236
 20
-159.0555799298542
 10
116.8111300706236
 20
-159.0555799298542
 10
116.6778048753444
 20
-159.2522948820619
 10
116.5021050055967
 20
-159.4362629809743
 10
116.436648191377
 20
-159.4996527379029
 97
        0
 97
        0
 92
        1
 93
        1
 72
     4
 94
        3
 73
     0
 74
     1
 95
       17
 96
       13
 40
0.0
 40
0.0
 40
0.0
 40
0.0
 40
1.0
 40
1.0
 40
1.0
 40
2.0
 40
2.0
 40
2.0
 40
3.0
 40
3.0
 40
3.0
 40
4.0
 40
4.0
 40
4.0
 40
4.0
 10
116.6905517286399
 20
-158.6049614403835
 10
116.6292290290024
 20
-158.5288248301595
 10
116.5000379483055
 20
-158.4526882199355
 10
116.3963405741995
 20
-158.4230603987623
 10
116.3963405741995
 20
-158.4230603987623
 10
116.4917697191409
 20
-158.2580403250188
 10
116.4917697191409
 20
-158.2580403250188
 10
116.5930555264073
 20
-158.2938693180654
 10
116.6988199578045
 20
-158.3510579031206
 10
116.7877034213239
 20
-158.4316731374754
 10
116.7877034213239
 20
-158.4316731374754
 10
116.6905517286399
 20
-158.6049614403835
 10
116.6905517286399
 20
-158.6049614403835
 97
        0
 97
        0
 92
        1
 93
        1
 72
     4
 94
        3
 73
     0
 74
     1
 95
       23
 96
       19
 40
0.0
 40
0.0
 40
0.0
 40
0.0
 40
1.0
 40
1.0
 40
1.0
 40
2.0
 40
2.0
 40
2.0
 40
3.0
 40
3.0
 40
3.0
 40
4.0
 40
4.0
 40
4.0
 40
5.0
 40
5.0
 40
5.0
 40
6.0
 40
6.0
 40
6.0
 40
6.0
 10
117.1432372754017
 20
-159.3094834671171
 10
117.1218776833932
 20
-159.3329101164168
 10
117.0247259907091
 20
-159.4448757196874
 10
116.8851996235565
 20
-159.5251464444937
 10
116.8851996235565
 20
-159.5251464444937
 10
116.7181124925219
 20
-159.40456810251
 10
116.7181124925219
 20
-159.40456810251
 10
116.8683186556788
 20
-159.3287760018345
 10
116.967537405654
 20
-159.2333468568931
 10
117.016113251996
 20
-159.1806368959687
 10
117.016113251996
 20
-159.1806368959687
 10
117.1897460644526
 20
-159.2629746780662
 10
117.1897460644526
 20
-159.2629746780662
 10
117.1980142936172
 20
-159.2671087926485
 10
117.2066270323303
 20
-159.2736544740705
 10
117.2066270323303
 20
-159.2839897605262
 10
117.2066270323303
 20
-159.3094834671171
 10
117.1707980392837
 20
-159.3094834671171
 10
117.1432372754017
 20
-159.3094834671171
 97
        0
 97
        0
 92
        1
 93
        1
 72
     4
 94
        3
 73
     0
 74
     1
 95
       20
 96
       16
 40
0.0
 40
0.0
 40
0.0
 40
0.0
 40
1.0
 40
1.0
 40
1.0
 40
2.0
 40
2.0
 40
2.0
 40
3.0
 40
3.0
 40
3.0
 40
4.0
 40
4.0
 40
4.0
 40
5.0
 40
5.0
 40
5.0
 40
5.0
 10
117.4415825444243
 20
-158.467502130522
 10
117.4033419845381
 20
-158.5164224864126
 10
117.3420192849006
 20
-158.5942816443792
 10
117.202492917748
 20
-158.7045246999072
 10
117.2827636425543
 20
-158.7086588144895
 10
117.3123914637275
 20
-158.7086588144895
 10
117.3358181130272
 20
-158.7086588144895
 10
117.3358181130272
 20
-158.7086588144895
 10
117.5642279436992
 20
-158.7086588144895
 10
117.5642279436992
 20
-158.7086588144895
 10
117.5959228221635
 20
-158.7086588144895
 10
117.6444986685055
 20
-158.7065917571984
 10
117.7185682214384
 20
-158.7045246999072
 10
117.6066026181678
 20
-158.6304551469743
 10
117.5576822622773
 20
-158.5839463579235
 10
117.4415825444243
 20
-158.467502130522
 97
        0
 97
        0
 92
        1
 93
        1
 72
     4
 94
        3
 73
     0
 74
     1
 95
       17
 96
       13
 40
0.0
 40
0.0
 40
0.0
 40
0.0
 40
1.0
 40
1.0
 40
1.0
 40
2.0
 40
2.0
 40
2.0
 40
3.0
 40
3.0
 40
3.0
 40
4.0
 40
4.0
 40
4.0
 40
4.0
 10
118.0020995798745
 20
-159.5230793872026
 10
117.8667073273042
 20
-159.4111137839319
 10
117.760942895907
 20
-159.3473795174548
 10
117.6424316112144
 20
-159.2839897605262
 10
117.6424316112144
 20
-159.2839897605262
 10
117.7692111250716
 20
-159.1720241572556
 10
117.7692111250716
 20
-159.1720241572556
 10
117.9004692630596
 20
-159.2185329463065
 10
118.0103678090391
 20
-159.2757215313616
 10
118.1354247751537
 20
-159.377007338628
 10
118.1354247751537
 20
-159.377007338628
 10
118.0020995798745
 20
-159.5230793872026
 10
118.0020995798745
 20
-159.5230793872026
 97
        0
 97
        0
 75
     2
 76
     1
 98
        0
  0
SPLINE
  5
10B
330
FF
100
AcDbEntity
  8
_U+30EC_U+30A4_U+30E4_U+30FC 1
370
     0
100
AcDbSpline
210
0.0
220
0.0
230
1.0
 70
    11
 71
     3
 72
   113
 73
   109
 74
     0
 42
0.0000000001
 43
0.0000000001
 12
1.0
 22
0.0
 32
0.0
 13
1.0
 23
0.0
 33
0.0
 40
0.0
 40
0.0
 40
0.0
 40
0.0
 40
1.0
 40
1.0
 40
1.0
 40
2.0
 40
2.0
 40
2.0
 40
3.0
 40
3.0
 40
3.0
 40
4.0
 40
4.0
 40
4.0
 40
5.0
 40
5.0
 40
5.0
 40
6.0
 40
6.0
 40
6.0
 40
7.0
 40
7.0
 40
7.0
 40
8.0
 40
8.0
 40
8.0
 40
9.0
 40
9.0
 40
9.0
 40
10.0
 40
10.0
 40
10.0
 40
11.0
 40
11.0
 40
11.0
 40
12.0
 40
12.0
 40
12.0
 40
13.0
 40
13.0
 40
13.0
 40
14.0
 40
14.0
 40
14.0
 40
15.0
 40
15.0
 40
15.0
 40
16.0
 40
16.0
 40
16.0
 40
17.0
 40
17.0
 40
17.0
 40
18.0
 40
18.0
 40
18.0
 40
19.0
 40
19.0
 40
19.0
 40
20.0
 40
20.0
 40
20.0
 40
21.0
 40
21.0
 40
21.0
 40
22.0
 40
22.0
 40
22.0
 40
23.0
 40
23.0
 40
23.0
 40
24.0
 40
24.0
 40
24.0
 40
25.0
 40
25.0
 40
25.0
 40
26.0
 40
26.0
 40
26.0
 40
27.0
 40
27.0
 40
27.0
 40
28.0
 40
28.0
 40
28.0
 40
29.0
 40
29.0
 40
29.0
 40
30.0
 40
30.0
 40
30.0
 40
31.0
 40
31.0
 40
31.0
 40
32.0
 40
32.0
 40
32.0
 40
33.0
 40
33.0
 40
33.0
 40
34.0
 40
34.0
 40
34.0
 40
35.0
 40
35.0
 40
35.0
 40
36.0
 40
36.0
 40
36.0
 40
36.0
 10
119.8817436766268
 20
-159.4996527379029
 30
0.0
 10
119.8817436766268
 20
-159.4996527379029
 30
0.0
 10
119.9813069361505
 20
-159.5995605069751
 30
0.0
 10
119.9813069361505
 20
-159.5995605069751
 30
0.0
 10
119.9919867321548
 20
-159.6098957934309
 30
0.0
 10
120.0023220186105
 20
-159.6226426467263
 30
0.0
 10
120.0023220186105
 20
-159.6374565573129
 30
0.0
 10
120.0023220186105
 20
-159.639523614604
 30
0.0
 10
120.0023220186105
 20
-159.6691514357772
 30
0.0
 10
119.9644259682728
 20
-159.6691514357772
 30
0.0
 10
119.9558132295597
 20
-159.6691514357772
 30
0.0
 10
119.9155056123822
 20
-159.6650173211949
 30
0.0
 10
119.9093044405088
 20
-159.6650173211949
 30
0.0
 10
119.8689968233314
 20
-159.6967121996592
 30
0.0
 10
119.8224880342805
 20
-159.7304741354146
 30
0.0
 10
119.7232692843053
 20
-159.7876627204698
 30
0.0
 10
119.8689968233314
 20
-159.8954942091581
 30
0.0
 10
120.0278157252014
 20
-159.9526827942132
 30
0.0
 10
120.3006672876332
 20
-159.9909233540995
 30
0.0
 10
120.3006672876332
 20
-159.9909233540995
 30
0.0
 10
120.1504611244763
 20
-160.1662787142987
 30
0.0
 10
120.1504611244763
 20
-160.1662787142987
 30
0.0
 10
119.8882893580488
 20
-160.094276218657
 30
0.0
 10
119.7315375134699
 20
-160.0053927551375
 30
0.0
 10
119.6554009032459
 20
-159.9526827942132
 30
0.0
 10
119.505194740089
 20
-159.8510524773984
 30
0.0
 10
119.3615342583541
 20
-159.688099460946
 30
0.0
 10
119.28539764813
 20
-159.5230793872026
 30
0.0
 10
119.2175292670706
 20
-159.5885362014223
 30
0.0
 10
119.1434597141377
 20
-159.6415906718952
 30
0.0
 10
119.0652560466226
 20
-159.6905110277857
 30
0.0
 10
119.0652560466226
 20
-159.6905110277857
 30
0.0
 10
119.0652560466226
 20
-159.9420029982089
 30
0.0
 10
119.0652560466226
 20
-159.9420029982089
 30
0.0
 10
119.2282090630749
 20
-159.9165092916181
 30
0.0
 10
119.4142442192784
 20
-159.8724120694069
 30
0.0
 10
119.477633976207
 20
-159.8572536492718
 30
0.0
 10
119.477633976207
 20
-159.8572536492718
 30
0.0
 10
119.4480061550338
 20
-160.0267523471461
 30
0.0
 10
119.4480061550338
 20
-160.0267523471461
 30
0.0
 10
119.4459390977427
 20
-160.0267523471461
 30
0.0
 10
119.4269910725738
 20
-160.0329535190195
 30
0.0
 10
119.4249240152827
 20
-160.0329535190195
 30
0.0
 10
119.2261420057837
 20
-160.0708495693573
 30
0.0
 10
118.9088487115922
 20
-160.1366508931256
 30
0.0
 10
118.7117892498359
 20
-160.1728243957207
 30
0.0
 10
118.7014539633802
 20
-160.1893608540499
 30
0.0
 10
118.6780273140805
 20
-160.2210557325142
 30
0.0
 10
118.6549451743293
 20
-160.2210557325142
 30
0.0
 10
118.6273844104473
 20
-160.2210557325142
 30
0.0
 10
118.623250295865
 20
-160.2024522168938
 30
0.0
 10
118.6208387290254
 20
-160.1831596821764
 30
0.0
 10
118.6208387290254
 20
-160.1831596821764
 30
0.0
 10
118.595689531983
 20
-160.0095268697198
 30
0.0
 10
118.595689531983
 20
-160.0095268697198
 30
0.0
 10
118.6697590849159
 20
-160.0012586405552
 30
0.0
 10
118.7775905736042
 20
-159.9885117872598
 30
0.0
 10
118.8854220622925
 20
-159.9674967047998
 30
0.0
 10
118.8854220622925
 20
-159.9674967047998
 30
0.0
 10
118.8854220622925
 20
-159.7897297777609
 30
0.0
 10
118.8854220622925
 20
-159.7897297777609
 30
0.0
 10
118.7414170710091
 20
-159.8617322734026
 30
0.0
 10
118.6463324356162
 20
-159.8910155850272
 30
0.0
 10
118.4813123618727
 20
-159.9206434062004
 30
0.0
 10
118.4813123618727
 20
-159.9206434062004
 30
0.0
 10
118.360734019889
 20
-159.7518337274232
 30
0.0
 10
118.360734019889
 20
-159.7518337274232
 30
0.0
 10
118.6780273140805
 20
-159.7242729635412
 30
0.0
 10
118.870608151706
 20
-159.6312553854394
 30
0.0
 10
119.0483750787449
 20
-159.4975856806117
 30
0.0
 10
118.9023030301703
 20
-159.4975856806117
 30
0.0
 10
118.6018907038565
 20
-159.5020643047426
 30
0.0
 10
118.4051757516487
 20
-159.5086099861645
 30
0.0
 10
118.4051757516487
 20
-159.5086099861645
 30
0.0
 10
118.4051757516487
 20
-159.3308430591256
 30
0.0
 10
118.4051757516487
 20
-159.3308430591256
 30
0.0
 10
118.5595160293879
 20
-159.3370442309991
 30
0.0
 10
118.8557942411194
 20
-159.3432454028725
 30
0.0
 10
119.0397623400317
 20
-159.3432454028725
 30
0.0
 10
119.0397623400317
 20
-159.3432454028725
 30
0.0
 10
119.2512912028261
 20
-159.3432454028725
 30
0.0
 10
119.2512912028261
 20
-159.3432454028725
 30
0.0
 10
119.2512912028261
 20
-159.2481607674796
 30
0.0
 10
119.2492241455349
 20
-159.1971733542979
 30
0.0
 10
119.2430229736615
 20
-159.1510090747956
 30
0.0
 10
119.2430229736615
 20
-159.1510090747956
 30
0.0
 10
119.4586859510381
 20
-159.1675455331248
 30
0.0
 10
119.4586859510381
 20
-159.1675455331248
 30
0.0
 10
119.5072617973801
 20
-159.1720241572556
 30
0.0
 10
119.5158745360933
 20
-159.1868380678422
 30
0.0
 10
119.5158745360933
 20
-159.2016519784288
 30
0.0
 10
119.5158745360933
 20
-159.2268011754711
 30
0.0
 10
119.4989935682155
 20
-159.2354139141842
 30
0.0
 10
119.4480061550338
 20
-159.2609076207751
 30
0.0
 10
119.4459390977427
 20
-159.2860568178174
 30
0.0
 10
119.4459390977427
 20
-159.2926024992394
 30
0.0
 10
119.4438720404515
 20
-159.3432454028725
 30
0.0
 10
119.4438720404515
 20
-159.3432454028725
 30
0.0
 10
119.6743489284148
 20
-159.3432454028725
 30
0.0
 10
119.6743489284148
 20
-159.3432454028725
 30
0.0
 10
119.8393690021582
 20
-159.3432454028725
 30
0.0
 10
120.1315130993074
 20
-159.3370442309991
 30
0.0
 10
120.3113470836374
 20
-159.3308430591256
 30
0.0
 10
120.3113470836374
 20
-159.3308430591256
 30
0.0
 10
120.3113470836374
 20
-159.5086099861645
 30
0.0
 10
120.3113470836374
 20
-159.5086099861645
 30
0.0
 10
120.1821560029406
 20
-159.5041313620337
 30
0.0
 10
120.1590738631894
 20
-159.5041313620337
 30
0.0
 10
119.8817436766268
 20
-159.4996527379029
 30
0.0
  0
SPLINE
  5
10C
330
FF
100
AcDbEntity
  8
_U+30EC_U+30A4_U+30E4_U+30FC 1
370
     0
100
AcDbSpline
210
0.0
220
0.0
230
1.0
 70
    11
 71
     3
 72
    23
 73
    19
 74
     0
 42
0.0000000001
 43
0.0000000001
 12
1.0
 22
0.0
 32
0.0
 13
1.0
 23
0.0
 33
0.0
 40
0.0
 40
0.0
 40
0.0
 40
0.0
 40
1.0
 40
1.0
 40
1.0
 40
2.0
 40
2.0
 40
2.0
 40
3.0
 40
3.0
 40
3.0
 40
4.0
 40
4.0
 40
4.0
 40
5.0
 40
5.0
 40
5.0
 40
6.0
 40
6.0
 40
6.0
 40
6.0
 10
118.5977565892742
 20
-159.1489420175044
 30
0.0
 10
118.5808756213965
 20
-159.1889051251333
 30
0.0
 10
118.5743299399745
 20
-159.2057860930111
 30
0.0
 10
118.5533148575145
 20
-159.2057860930111
 30
0.0
 10
118.5385009469279
 20
-159.2057860930111
 30
0.0
 10
118.5278211509236
 20
-159.1889051251333
 30
0.0
 10
118.5216199790502
 20
-159.1761582718379
 30
0.0
 10
118.5216199790502
 20
-159.1761582718379
 30
0.0
 10
118.4220567195264
 20
-159.0111381980944
 30
0.0
 10
118.4220567195264
 20
-159.0111381980944
 30
0.0
 10
118.5236870363413
 20
-158.9794433196301
 30
0.0
 10
118.6738931994982
 20
-158.9243217918662
 30
0.0
 10
118.8726752089971
 20
-158.7617132849624
 30
0.0
 10
118.8726752089971
 20
-158.7617132849624
 30
0.0
 10
118.9298637940523
 20
-158.9350015878704
 30
0.0
 10
118.9298637940523
 20
-158.9350015878704
 30
0.0
 10
118.8368462159505
 20
-159.0173393699679
 30
0.0
 10
118.7479627524311
 20
-159.074527955023
 30
0.0
 10
118.5977565892742
 20
-159.1489420175044
 30
0.0
  0
SPLINE
  5
10D
330
FF
100
AcDbEntity
  8
_U+30EC_U+30A4_U+30E4_U+30FC 1
370
     0
100
AcDbSpline
210
0.0
220
0.0
230
1.0
 70
    11
 71
     3
 72
    17
 73
    13
 74
     0
 42
0.0000000001
 43
0.0000000001
 12
1.0
 22
0.0
 32
0.0
 13
1.0
 23
0.0
 33
0.0
 40
0.0
 40
0.0
 40
0.0
 40
0.0
 40
1.0
 40
1.0
 40
1.0
 40
2.0
 40
2.0
 40
2.0
 40
3.0
 40
3.0
 40
3.0
 40
4.0
 40
4.0
 40
4.0
 40
4.0
 10
118.7500298097222
 20
-158.6831651078987
 30
0.0
 10
118.7204019885491
 20
-158.6432020002698
 30
0.0
 10
118.6525336074896
 20
-158.5460503075857
 30
0.0
 10
118.4706325658685
 20
-158.4358072520577
 30
0.0
 10
118.4706325658685
 20
-158.4358072520577
 30
0.0
 10
118.5977565892742
 20
-158.3024820567786
 30
0.0
 10
118.5977565892742
 20
-158.3024820567786
 30
0.0
 10
118.7837917454777
 20
-158.4041123735934
 30
0.0
 10
118.8409803305328
 20
-158.4929958371129
 30
0.0
 10
118.8685410944148
 20
-158.5350260020329
 30
0.0
 10
118.8685410944148
 20
-158.5350260020329
 30
0.0
 10
118.7500298097222
 20
-158.6831651078987
 30
0.0
 10
118.7500298097222
 20
-158.6831651078987
 30
0.0
  0
SPLINE
  5
10E
330
FF
100
AcDbEntity
  8
_U+30EC_U+30A4_U+30E4_U+30FC 1
370
     0
100
AcDbSpline
210
0.0
220
0.0
230
1.0
 70
    11
 71
     3
 72
    38
 73
    34
 74
     0
 42
0.0000000001
 43
0.0000000001
 12
1.0
 22
0.0
 32
0.0
 13
1.0
 23
0.0
 33
0.0
 40
0.0
 40
0.0
 40
0.0
 40
0.0
 40
1.0
 40
1.0
 40
1.0
 40
2.0
 40
2.0
 40
2.0
 40
3.0
 40
3.0
 40
3.0
 40
4.0
 40
4.0
 40
4.0
 40
5.0
 40
5.0
 40
5.0
 40
6.0
 40
6.0
 40
6.0
 40
7.0
 40
7.0
 40
7.0
 40
8.0
 40
8.0
 40
8.0
 40
9.0
 40
9.0
 40
9.0
 40
10.0
 40
10.0
 40
10.0
 40
11.0
 40
11.0
 40
11.0
 40
11.0
 10
119.1179660075469
 20
-158.3786186670026
 30
0.0
 10
119.1158989502558
 20
-158.425471965602
 30
0.0
 10
119.1138318929646
 20
-158.5415716834549
 30
0.0
 10
119.1138318929646
 20
-158.5860134152146
 30
0.0
 10
119.1138318929646
 20
-158.5860134152146
 30
0.0
 10
119.1138318929646
 20
-158.9329345305793
 30
0.0
 10
119.1138318929646
 20
-158.9329345305793
 30
0.0
 10
119.1138318929646
 20
-159.0197509368076
 30
0.0
 10
119.1158989502558
 20
-159.1613443612513
 30
0.0
 10
119.12657874626
 20
-159.2819227032351
 30
0.0
 10
119.12657874626
 20
-159.2819227032351
 30
0.0
 10
118.9360649659257
 20
-159.2819227032351
 30
0.0
 10
118.9360649659257
 20
-159.2819227032351
 30
0.0
 10
118.9405435900565
 20
-159.2185329463065
 30
0.0
 10
118.9446777046388
 20
-159.1654784758337
 30
0.0
 10
118.94674476193
 20
-159.1107014576182
 30
0.0
 10
118.9488118192211
 20
-158.9877115487947
 30
0.0
 10
118.9508788765123
 20
-158.9732421477567
 30
0.0
 10
118.9508788765123
 20
-158.9284559064484
 30
0.0
 10
118.9508788765123
 20
-158.9284559064484
 30
0.0
 10
118.9508788765123
 20
-158.6073730072232
 30
0.0
 10
118.9508788765123
 20
-158.6073730072232
 30
0.0
 10
118.9508788765123
 20
-158.5522514794592
 30
0.0
 10
118.9381320232169
 20
-158.3131618527828
 30
0.0
 10
118.9360649659257
 20
-158.2621744396011
 30
0.0
 10
118.9360649659257
 20
-158.2621744396011
 30
0.0
 10
119.1372585422643
 20
-158.2897352034831
 30
0.0
 10
119.1372585422643
 20
-158.2897352034831
 30
0.0
 10
119.1582736247243
 20
-158.2918022607743
 30
0.0
 10
119.1899685031886
 20
-158.2959363753566
 30
0.0
 10
119.1899685031886
 20
-158.3214300819474
 30
0.0
 10
119.1899685031886
 20
-158.3489908458294
 30
0.0
 10
119.1393255995554
 20
-158.370350437838
 30
0.0
 10
119.1179660075469
 20
-158.3786186670026
 30
0.0
  0
SPLINE
  5
10F
330
FF
100
AcDbEntity
  8
_U+30EC_U+30A4_U+30E4_U+30FC 1
370
     0
100
AcDbSpline
210
0.0
220
0.0
230
1.0
 70
    11
 71
     3
 72
    83
 73
    79
 74
     0
 42
0.0000000001
 43
0.0000000001
 12
1.0
 22
0.0
 32
0.0
 13
1.0
 23
0.0
 33
0.0
 40
0.0
 40
0.0
 40
0.0
 40
0.0
 40
1.0
 40
1.0
 40
1.0
 40
2.0
 40
2.0
 40
2.0
 40
3.0
 40
3.0
 40
3.0
 40
4.0
 40
4.0
 40
4.0
 40
5.0
 40
5.0
 40
5.0
 40
6.0
 40
6.0
 40
6.0
 40
7.0
 40
7.0
 40
7.0
 40
8.0
 40
8.0
 40
8.0
 40
9.0
 40
9.0
 40
9.0
 40
10.0
 40
10.0
 40
10.0
 40
11.0
 40
11.0
 40
11.0
 40
12.0
 40
12.0
 40
12.0
 40
13.0
 40
13.0
 40
13.0
 40
14.0
 40
14.0
 40
14.0
 40
15.0
 40
15.0
 40
15.0
 40
16.0
 40
16.0
 40
16.0
 40
17.0
 40
17.0
 40
17.0
 40
18.0
 40
18.0
 40
18.0
 40
19.0
 40
19.0
 40
19.0
 40
20.0
 40
20.0
 40
20.0
 40
21.0
 40
21.0
 40
21.0
 40
22.0
 40
22.0
 40
22.0
 40
23.0
 40
23.0
 40
23.0
 40
24.0
 40
24.0
 40
24.0
 40
25.0
 40
25.0
 40
25.0
 40
26.0
 40
26.0
 40
26.0
 40
26.0
 10
119.9199842365131
 20
-158.7003905853249
 30
0.0
 10
119.9199842365131
 20
-158.7003905853249
 30
0.0
 10
119.8224880342805
 20
-158.7003905853249
 30
0.0
 10
119.8224880342805
 20
-158.7003905853249
 30
0.0
 10
119.8224880342805
 20
-158.7003905853249
 30
0.0
 10
119.8224880342805
 20
-158.9477484411659
 30
0.0
 10
119.8224880342805
 20
-158.9477484411659
 30
0.0
 10
119.8224880342805
 20
-158.9477484411659
 30
0.0
 10
119.9051703259265
 20
-158.9477484411659
 30
0.0
 10
119.9051703259265
 20
-158.9477484411659
 30
0.0
 10
119.9706271401462
 20
-158.9477484411659
 30
0.0
 10
120.1101535072989
 20
-158.9436143265835
 30
0.0
 10
120.2097167668226
 20
-158.9350015878704
 30
0.0
 10
120.2097167668226
 20
-158.9350015878704
 30
0.0
 10
120.2097167668226
 20
-159.1148355722005
 30
0.0
 10
120.2097167668226
 20
-159.1148355722005
 30
0.0
 10
120.1166991887208
 20
-159.1062228334874
 30
0.0
 10
119.9664930255639
 20
-159.102088718905
 30
0.0
 10
119.9051703259265
 20
-159.102088718905
 30
0.0
 10
119.9051703259265
 20
-159.102088718905
 30
0.0
 10
119.6002793754819
 20
-159.102088718905
 30
0.0
 10
119.6002793754819
 20
-159.102088718905
 30
0.0
 10
119.5475694145576
 20
-159.102088718905
 30
0.0
 10
119.401497365983
 20
-159.1062228334874
 30
0.0
 10
119.2957329345858
 20
-159.1148355722005
 30
0.0
 10
119.2957329345858
 20
-159.1148355722005
 30
0.0
 10
119.2957329345858
 20
-158.9350015878704
 30
0.0
 10
119.2957329345858
 20
-158.9350015878704
 30
0.0
 10
119.3952961941095
 20
-158.9436143265835
 30
0.0
 10
119.5348225612621
 20
-158.9477484411659
 30
0.0
 10
119.6002793754819
 20
-158.9477484411659
 30
0.0
 10
119.6002793754819
 20
-158.9477484411659
 30
0.0
 10
119.6447211072416
 20
-158.9477484411659
 30
0.0
 10
119.6447211072416
 20
-158.9477484411659
 30
0.0
 10
119.6447211072416
 20
-158.9477484411659
 30
0.0
 10
119.6447211072416
 20
-158.7003905853249
 30
0.0
 10
119.6447211072416
 20
-158.7003905853249
 30
0.0
 10
119.6447211072416
 20
-158.7003905853249
 30
0.0
 10
119.5709960638573
 20
-158.7003905853249
 30
0.0
 10
119.5709960638573
 20
-158.7003905853249
 30
0.0
 10
119.5093288546713
 20
-158.7003905853249
 30
0.0
 10
119.3422417236367
 20
-158.7045246999072
 30
0.0
 10
119.2216633816529
 20
-158.7127929290718
 30
0.0
 10
119.2216633816529
 20
-158.7127929290718
 30
0.0
 10
119.2216633816529
 20
-158.5350260020329
 30
0.0
 10
119.2216633816529
 20
-158.5350260020329
 30
0.0
 10
119.3360405517632
 20
-158.5415716834549
 30
0.0
 10
119.4945149440847
 20
-158.5460503075857
 30
0.0
 10
119.5709960638573
 20
-158.5460503075857
 30
0.0
 10
119.5709960638573
 20
-158.5460503075857
 30
0.0
 10
119.6426540499505
 20
-158.5460503075857
 30
0.0
 10
119.6426540499505
 20
-158.5460503075857
 30
0.0
 10
119.6385199353682
 20
-158.3934325775892
 30
0.0
 10
119.636452878077
 20
-158.3596706418337
 30
0.0
 10
119.629907196655
 20
-158.2663085541834
 30
0.0
 10
119.629907196655
 20
-158.2663085541834
 30
0.0
 10
119.8417805689979
 20
-158.2897352034831
 30
0.0
 10
119.8417805689979
 20
-158.2897352034831
 30
0.0
 10
119.8669297660402
 20
-158.2918022607743
 30
0.0
 10
119.8903564153399
 20
-158.2959363753566
 30
0.0
 10
119.8903564153399
 20
-158.3193630246563
 30
0.0
 10
119.8903564153399
 20
-158.3510579031206
 30
0.0
 10
119.8459146835802
 20
-158.3682833805468
 30
0.0
 10
119.8224880342805
 20
-158.3765516097114
 30
0.0
 10
119.8224880342805
 20
-158.3765516097114
 30
0.0
 10
119.8224880342805
 20
-158.5460503075857
 30
0.0
 10
119.8224880342805
 20
-158.5460503075857
 30
0.0
 10
119.8224880342805
 20
-158.5460503075857
 30
0.0
 10
119.9199842365131
 20
-158.5460503075857
 30
0.0
 10
119.9199842365131
 20
-158.5460503075857
 30
0.0
 10
119.9961208467371
 20
-158.5460503075857
 30
0.0
 10
120.1545952390586
 20
-158.5415716834549
 30
0.0
 10
120.27103946646
 20
-158.5350260020329
 30
0.0
 10
120.27103946646
 20
-158.5350260020329
 30
0.0
 10
120.27103946646
 20
-158.7127929290718
 30
0.0
 10
120.27103946646
 20
-158.7127929290718
 30
0.0
 10
120.1632079777717
 20
-158.7065917571984
 30
0.0
 10
119.9895751653151
 20
-158.7003905853249
 30
0.0
 10
119.9199842365131
 20
-158.7003905853249
 30
0.0
  0
SPLINE
  5
110
330
FF
100
AcDbEntity
  8
_U+30EC_U+30A4_U+30E4_U+30FC 1
370
     0
100
AcDbSpline
210
0.0
220
0.0
230
1.0
 70
    11
 71
     3
 72
    17
 73
    13
 74
     0
 42
0.0000000001
 43
0.0000000001
 12
1.0
 22
0.0
 32
0.0
 13
1.0
 23
0.0
 33
0.0
 40
0.0
 40
0.0
 40
0.0
 40
0.0
 40
1.0
 40
1.0
 40
1.0
 40
2.0
 40
2.0
 40
2.0
 40
3.0
 40
3.0
 40
3.0
 40
4.0
 40
4.0
 40
4.0
 40
4.0
 10
119.6743489284148
 20
-159.4975856806117
 30
0.0
 10
119.6743489284148
 20
-159.4975856806117
 30
0.0
 10
119.4714328043335
 20
-159.4975856806117
 30
0.0
 10
119.4714328043335
 20
-159.4975856806117
 30
0.0
 10
119.4989935682155
 20
-159.556841322958
 30
0.0
 10
119.553770586431
 20
-159.6291883281483
 30
0.0
 10
119.581331350313
 20
-159.6584716397729
 30
0.0
 10
119.608892114195
 20
-159.6436577291863
 30
0.0
 10
119.7232692843053
 20
-159.5802679722577
 30
0.0
 10
119.8142198051159
 20
-159.4975856806117
 30
0.0
 10
119.8142198051159
 20
-159.4975856806117
 30
0.0
 10
119.6743489284148
 20
-159.4975856806117
 30
0.0
 10
119.6743489284148
 20
-159.4975856806117
 30
0.0
  0
HATCH
  5
111
330
FF
100
AcDbEntity
  8
_U+30EC_U+30A4_U+30E4_U+30FC 1
 62
     7
420
 16777215
100
AcDbHatch
 10
0.0
 20
0.0
 30
0.0
210
0.0
220
0.0
230
1.0
  2
SOLID
 70
     1
 71
     0
 91
        6
 92
        1
 93
        1
 72
     4
 94
        3
 73
     0
 74
     1
 95
      113
 96
      109
 40
0.0
 40
0.0
 40
0.0
 40
0.0
 40
1.0
 40
1.0
 40
1.0
 40
2.0
 40
2.0
 40
2.0
 40
3.0
 40
3.0
 40
3.0
 40
4.0
 40
4.0
 40
4.0
 40
5.0
 40
5.0
 40
5.0
 40
6.0
 40
6.0
 40
6.0
 40
7.0
 40
7.0
 40
7.0
 40
8.0
 40
8.0
 40
8.0
 40
9.0
 40
9.0
 40
9.0
 40
10.0
 40
10.0
 40
10.0
 40
11.0
 40
11.0
 40
11.0
 40
12.0
 40
12.0
 40
12.0
 40
13.0
 40
13.0
 40
13.0
 40
14.0
 40
14.0
 40
14.0
 40
15.0
 40
15.0
 40
15.0
 40
16.0
 40
16.0
 40
16.0
 40
17.0
 40
17.0
 40
17.0
 40
18.0
 40
18.0
 40
18.0
 40
19.0
 40
19.0
 40
19.0
 40
20.0
 40
20.0
 40
20.0
 40
21.0
 40
21.0
 40
21.0
 40
22.0
 40
22.0
 40
22.0
 40
23.0
 40
23.0
 40
23.0
 40
24.0
 40
24.0
 40
24.0
 40
25.0
 40
25.0
 40
25.0
 40
26.0
 40
26.0
 40
26.0
 40
27.0
 40
27.0
 40
27.0
 40
28.0
 40
28.0
 40
28.0
 40
29.0
 40
29.0
 40
29.0
 40
30.0
 40
30.0
 40
30.0
 40
31.0
 40
31.0
 40
31.0
 40
32.0
 40
32.0
 40
32.0
 40
33.0
 40
33.0
 40
33.0
 40
34.0
 40
34.0
 40
34.0
 40
35.0
 40
35.0
 40
35.0
 40
36.0
 40
36.0
 40
36.0
 40
36.0
 10
119.8817436766268
 20
-159.4996527379029
 10
119.8817436766268
 20
-159.4996527379029
 10
119.9813069361505
 20
-159.5995605069751
 10
119.9813069361505
 20
-159.5995605069751
 10
119.9919867321548
 20
-159.6098957934309
 10
120.0023220186105
 20
-159.6226426467263
 10
120.0023220186105
 20
-159.6374565573129
 10
120.0023220186105
 20
-159.639523614604
 10
120.0023220186105
 20
-159.6691514357772
 10
119.9644259682728
 20
-159.6691514357772
 10
119.9558132295597
 20
-159.6691514357772
 10
119.9155056123822
 20
-159.6650173211949
 10
119.9093044405088
 20
-159.6650173211949
 10
119.8689968233314
 20
-159.6967121996592
 10
119.8224880342805
 20
-159.7304741354146
 10
119.7232692843053
 20
-159.7876627204698
 10
119.8689968233314
 20
-159.8954942091581
 10
120.0278157252014
 20
-159.9526827942132
 10
120.3006672876332
 20
-159.9909233540995
 10
120.3006672876332
 20
-159.9909233540995
 10
120.1504611244763
 20
-160.1662787142987
 10
120.1504611244763
 20
-160.1662787142987
 10
119.8882893580488
 20
-160.094276218657
 10
119.7315375134699
 20
-160.0053927551375
 10
119.6554009032459
 20
-159.9526827942132
 10
119.505194740089
 20
-159.8510524773984
 10
119.3615342583541
 20
-159.688099460946
 10
119.28539764813
 20
-159.5230793872026
 10
119.2175292670706
 20
-159.5885362014223
 10
119.1434597141377
 20
-159.6415906718952
 10
119.0652560466226
 20
-159.6905110277857
 10
119.0652560466226
 20
-159.6905110277857
 10
119.0652560466226
 20
-159.9420029982089
 10
119.0652560466226
 20
-159.9420029982089
 10
119.2282090630749
 20
-159.9165092916181
 10
119.4142442192784
 20
-159.8724120694069
 10
119.477633976207
 20
-159.8572536492718
 10
119.477633976207
 20
-159.8572536492718
 10
119.4480061550338
 20
-160.0267523471461
 10
119.4480061550338
 20
-160.0267523471461
 10
119.4459390977427
 20
-160.0267523471461
 10
119.4269910725738
 20
-160.0329535190195
 10
119.4249240152827
 20
-160.0329535190195
 10
119.2261420057837
 20
-160.0708495693573
 10
118.9088487115922
 20
-160.1366508931256
 10
118.7117892498359
 20
-160.1728243957207
 10
118.7014539633802
 20
-160.1893608540499
 10
118.6780273140805
 20
-160.2210557325142
 10
118.6549451743293
 20
-160.2210557325142
 10
118.6273844104473
 20
-160.2210557325142
 10
118.623250295865
 20
-160.2024522168938
 10
118.6208387290254
 20
-160.1831596821764
 10
118.6208387290254
 20
-160.1831596821764
 10
118.595689531983
 20
-160.0095268697198
 10
118.595689531983
 20
-160.0095268697198
 10
118.6697590849159
 20
-160.0012586405552
 10
118.7775905736042
 20
-159.9885117872598
 10
118.8854220622925
 20
-159.9674967047998
 10
118.8854220622925
 20
-159.9674967047998
 10
118.8854220622925
 20
-159.7897297777609
 10
118.8854220622925
 20
-159.7897297777609
 10
118.7414170710091
 20
-159.8617322734026
 10
118.6463324356162
 20
-159.8910155850272
 10
118.4813123618727
 20
-159.9206434062004
 10
118.4813123618727
 20
-159.9206434062004
 10
118.360734019889
 20
-159.7518337274232
 10
118.360734019889
 20
-159.7518337274232
 10
118.6780273140805
 20
-159.7242729635412
 10
118.870608151706
 20
-159.6312553854394
 10
119.0483750787449
 20
-159.4975856806117
 10
118.9023030301703
 20
-159.4975856806117
 10
118.6018907038565
 20
-159.5020643047426
 10
118.4051757516487
 20
-159.5086099861645
 10
118.4051757516487
 20
-159.5086099861645
 10
118.4051757516487
 20
-159.3308430591256
 10
118.4051757516487
 20
-159.3308430591256
 10
118.5595160293879
 20
-159.3370442309991
 10
118.8557942411194
 20
-159.3432454028725
 10
119.0397623400317
 20
-159.3432454028725
 10
119.0397623400317
 20
-159.3432454028725
 10
119.2512912028261
 20
-159.3432454028725
 10
119.2512912028261
 20
-159.3432454028725
 10
119.2512912028261
 20
-159.2481607674796
 10
119.2492241455349
 20
-159.1971733542979
 10
119.2430229736615
 20
-159.1510090747956
 10
119.2430229736615
 20
-159.1510090747956
 10
119.4586859510381
 20
-159.1675455331248
 10
119.4586859510381
 20
-159.1675455331248
 10
119.5072617973801
 20
-159.1720241572556
 10
119.5158745360933
 20
-159.1868380678422
 10
119.5158745360933
 20
-159.2016519784288
 10
119.5158745360933
 20
-159.2268011754711
 10
119.4989935682155
 20
-159.2354139141842
 10
119.4480061550338
 20
-159.2609076207751
 10
119.4459390977427
 20
-159.2860568178174
 10
119.4459390977427
 20
-159.2926024992394
 10
119.4438720404515
 20
-159.3432454028725
 10
119.4438720404515
 20
-159.3432454028725
 10
119.6743489284148
 20
-159.3432454028725
 10
119.6743489284148
 20
-159.3432454028725
 10
119.8393690021582
 20
-159.3432454028725
 10
120.1315130993074
 20
-159.3370442309991
 10
120.3113470836374
 20
-159.3308430591256
 10
120.3113470836374
 20
-159.3308430591256
 10
120.3113470836374
 20
-159.5086099861645
 10
120.3113470836374
 20
-159.5086099861645
 10
120.1821560029406
 20
-159.5041313620337
 10
120.1590738631894
 20
-159.5041313620337
 10
119.8817436766268
 20
-159.4996527379029
 97
        0
 97
        0
 92
        1
 93
        1
 72
     4
 94
        3
 73
     0
 74
     1
 95
       23
 96
       19
 40
0.0
 40
0.0
 40
0.0
 40
0.0
 40
1.0
 40
1.0
 40
1.0
 40
2.0
 40
2.0
 40
2.0
 40
3.0
 40
3.0
 40
3.0
 40
4.0
 40
4.0
 40
4.0
 40
5.0
 40
5.0
 40
5.0
 40
6.0
 40
6.0
 40
6.0
 40
6.0
 10
118.5977565892742
 20
-159.1489420175044
 10
118.5808756213965
 20
-159.1889051251333
 10
118.5743299399745
 20
-159.2057860930111
 10
118.5533148575145
 20
-159.2057860930111
 10
118.5385009469279
 20
-159.2057860930111
 10
118.5278211509236
 20
-159.1889051251333
 10
118.5216199790502
 20
-159.1761582718379
 10
118.5216199790502
 20
-159.1761582718379
 10
118.4220567195264
 20
-159.0111381980944
 10
118.4220567195264
 20
-159.0111381980944
 10
118.5236870363413
 20
-158.9794433196301
 10
118.6738931994982
 20
-158.9243217918662
 10
118.8726752089971
 20
-158.7617132849624
 10
118.8726752089971
 20
-158.7617132849624
 10
118.9298637940523
 20
-158.9350015878704
 10
118.9298637940523
 20
-158.9350015878704
 10
118.8368462159505
 20
-159.0173393699679
 10
118.7479627524311
 20
-159.074527955023
 10
118.5977565892742
 20
-159.1489420175044
 97
        0
 97
        0
 92
        1
 93
        1
 72
     4
 94
        3
 73
     0
 74
     1
 95
       17
 96
       13
 40
0.0
 40
0.0
 40
0.0
 40
0.0
 40
1.0
 40
1.0
 40
1.0
 40
2.0
 40
2.0
 40
2.0
 40
3.0
 40
3.0
 40
3.0
 40
4.0
 40
4.0
 40
4.0
 40
4.0
 10
118.7500298097222
 20
-158.6831651078987
 10
118.7204019885491
 20
-158.6432020002698
 10
118.6525336074896
 20
-158.5460503075857
 10
118.4706325658685
 20
-158.4358072520577
 10
118.4706325658685
 20
-158.4358072520577
 10
118.5977565892742
 20
-158.3024820567786
 10
118.5977565892742
 20
-158.3024820567786
 10
118.7837917454777
 20
-158.4041123735934
 10
118.8409803305328
 20
-158.4929958371129
 10
118.8685410944148
 20
-158.5350260020329
 10
118.8685410944148
 20
-158.5350260020329
 10
118.7500298097222
 20
-158.6831651078987
 10
118.7500298097222
 20
-158.6831651078987
 97
        0
 97
        0
 92
        1
 93
        1
 72
     4
 94
        3
 73
     0
 74
     1
 95
       38
 96
       34
 40
0.0
 40
0.0
 40
0.0
 40
0.0
 40
1.0
 40
1.0
 40
1.0
 40
2.0
 40
2.0
 40
2.0
 40
3.0
 40
3.0
 40
3.0
 40
4.0
 40
4.0
 40
4.0
 40
5.0
 40
5.0
 40
5.0
 40
6.0
 40
6.0
 40
6.0
 40
7.0
 40
7.0
 40
7.0
 40
8.0
 40
8.0
 40
8.0
 40
9.0
 40
9.0
 40
9.0
 40
10.0
 40
10.0
 40
10.0
 40
11.0
 40
11.0
 40
11.0
 40
11.0
 10
119.1179660075469
 20
-158.3786186670026
 10
119.1158989502558
 20
-158.425471965602
 10
119.1138318929646
 20
-158.5415716834549
 10
119.1138318929646
 20
-158.5860134152146
 10
119.1138318929646
 20
-158.5860134152146
 10
119.1138318929646
 20
-158.9329345305793
 10
119.1138318929646
 20
-158.9329345305793
 10
119.1138318929646
 20
-159.0197509368076
 10
119.1158989502558
 20
-159.1613443612513
 10
119.12657874626
 20
-159.2819227032351
 10
119.12657874626
 20
-159.2819227032351
 10
118.9360649659257
 20
-159.2819227032351
 10
118.9360649659257
 20
-159.2819227032351
 10
118.9405435900565
 20
-159.2185329463065
 10
118.9446777046388
 20
-159.1654784758337
 10
118.94674476193
 20
-159.1107014576182
 10
118.9488118192211
 20
-158.9877115487947
 10
118.9508788765123
 20
-158.9732421477567
 10
118.9508788765123
 20
-158.9284559064484
 10
118.9508788765123
 20
-158.9284559064484
 10
118.9508788765123
 20
-158.6073730072232
 10
118.9508788765123
 20
-158.6073730072232
 10
118.9508788765123
 20
-158.5522514794592
 10
118.9381320232169
 20
-158.3131618527828
 10
118.9360649659257
 20
-158.2621744396011
 10
118.9360649659257
 20
-158.2621744396011
 10
119.1372585422643
 20
-158.2897352034831
 10
119.1372585422643
 20
-158.2897352034831
 10
119.1582736247243
 20
-158.2918022607743
 10
119.1899685031886
 20
-158.2959363753566
 10
119.1899685031886
 20
-158.3214300819474
 10
119.1899685031886
 20
-158.3489908458294
 10
119.1393255995554
 20
-158.370350437838
 10
119.1179660075469
 20
-158.3786186670026
 97
        0
 97
        0
 92
        1
 93
        1
 72
     4
 94
        3
 73
     0
 74
     1
 95
       83
 96
       79
 40
0.0
 40
0.0
 40
0.0
 40
0.0
 40
1.0
 40
1.0
 40
1.0
 40
2.0
 40
2.0
 40
2.0
 40
3.0
 40
3.0
 40
3.0
 40
4.0
 40
4.0
 40
4.0
 40
5.0
 40
5.0
 40
5.0
 40
6.0
 40
6.0
 40
6.0
 40
7.0
 40
7.0
 40
7.0
 40
8.0
 40
8.0
 40
8.0
 40
9.0
 40
9.0
 40
9.0
 40
10.0
 40
10.0
 40
10.0
 40
11.0
 40
11.0
 40
11.0
 40
12.0
 40
12.0
 40
12.0
 40
13.0
 40
13.0
 40
13.0
 40
14.0
 40
14.0
 40
14.0
 40
15.0
 40
15.0
 40
15.0
 40
16.0
 40
16.0
 40
16.0
 40
17.0
 40
17.0
 40
17.0
 40
18.0
 40
18.0
 40
18.0
 40
19.0
 40
19.0
 40
19.0
 40
20.0
 40
20.0
 40
20.0
 40
21.0
 40
21.0
 40
21.0
 40
22.0
 40
22.0
 40
22.0
 40
23.0
 40
23.0
 40
23.0
 40
24.0
 40
24.0
 40
24.0
 40
25.0
 40
25.0
 40
25.0
 40
26.0
 40
26.0
 40
26.0
 40
26.0
 10
119.9199842365131
 20
-158.7003905853249
 10
119.9199842365131
 20
-158.7003905853249
 10
119.8224880342805
 20
-158.7003905853249
 10
119.8224880342805
 20
-158.7003905853249
 10
119.8224880342805
 20
-158.7003905853249
 10
119.8224880342805
 20
-158.9477484411659
 10
119.8224880342805
 20
-158.9477484411659
 10
119.8224880342805
 20
-158.9477484411659
 10
119.9051703259265
 20
-158.9477484411659
 10
119.9051703259265
 20
-158.9477484411659
 10
119.9706271401462
 20
-158.9477484411659
 10
120.1101535072989
 20
-158.9436143265835
 10
120.2097167668226
 20
-158.9350015878704
 10
120.2097167668226
 20
-158.9350015878704
 10
120.2097167668226
 20
-159.1148355722005
 10
120.2097167668226
 20
-159.1148355722005
 10
120.1166991887208
 20
-159.1062228334874
 10
119.9664930255639
 20
-159.102088718905
 10
119.9051703259265
 20
-159.102088718905
 10
119.9051703259265
 20
-159.102088718905
 10
119.6002793754819
 20
-159.102088718905
 10
119.6002793754819
 20
-159.102088718905
 10
119.5475694145576
 20
-159.102088718905
 10
119.401497365983
 20
-159.1062228334874
 10
119.2957329345858
 20
-159.1148355722005
 10
119.2957329345858
 20
-159.1148355722005
 10
119.2957329345858
 20
-158.9350015878704
 10
119.2957329345858
 20
-158.9350015878704
 10
119.3952961941095
 20
-158.9436143265835
 10
119.5348225612621
 20
-158.9477484411659
 10
119.6002793754819
 20
-158.9477484411659
 10
119.6002793754819
 20
-158.9477484411659
 10
119.6447211072416
 20
-158.9477484411659
 10
119.6447211072416
 20
-158.9477484411659
 10
119.6447211072416
 20
-158.9477484411659
 10
119.6447211072416
 20
-158.7003905853249
 10
119.6447211072416
 20
-158.7003905853249
 10
119.6447211072416
 20
-158.7003905853249
 10
119.5709960638573
 20
-158.7003905853249
 10
119.5709960638573
 20
-158.7003905853249
 10
119.5093288546713
 20
-158.7003905853249
 10
119.3422417236367
 20
-158.7045246999072
 10
119.2216633816529
 20
-158.7127929290718
 10
119.2216633816529
 20
-158.7127929290718
 10
119.2216633816529
 20
-158.5350260020329
 10
119.2216633816529
 20
-158.5350260020329
 10
119.3360405517632
 20
-158.5415716834549
 10
119.4945149440847
 20
-158.5460503075857
 10
119.5709960638573
 20
-158.5460503075857
 10
119.5709960638573
 20
-158.5460503075857
 10
119.6426540499505
 20
-158.5460503075857
 10
119.6426540499505
 20
-158.5460503075857
 10
119.6385199353682
 20
-158.3934325775892
 10
119.636452878077
 20
-158.3596706418337
 10
119.629907196655
 20
-158.2663085541834
 10
119.629907196655
 20
-158.2663085541834
 10
119.8417805689979
 20
-158.2897352034831
 10
119.8417805689979
 20
-158.2897352034831
 10
119.8669297660402
 20
-158.2918022607743
 10
119.8903564153399
 20
-158.2959363753566
 10
119.8903564153399
 20
-158.3193630246563
 10
119.8903564153399
 20
-158.3510579031206
 10
119.8459146835802
 20
-158.3682833805468
 10
119.8224880342805
 20
-158.3765516097114
 10
119.8224880342805
 20
-158.3765516097114
 10
119.8224880342805
 20
-158.5460503075857
 10
119.8224880342805
 20
-158.5460503075857
 10
119.8224880342805
 20
-158.5460503075857
 10
119.9199842365131
 20
-158.5460503075857
 10
119.9199842365131
 20
-158.5460503075857
 10
119.9961208467371
 20
-158.5460503075857
 10
120.1545952390586
 20
-158.5415716834549
 10
120.27103946646
 20
-158.5350260020329
 10
120.27103946646
 20
-158.5350260020329
 10
120.27103946646
 20
-158.7127929290718
 10
120.27103946646
 20
-158.7127929290718
 10
120.1632079777717
 20
-158.7065917571984
 10
119.9895751653151
 20
-158.7003905853249
 10
119.9199842365131
 20
-158.7003905853249
 97
        0
 97
        0
 92
        1
 93
        1
 72
     4
 94
        3
 73
     0
 74
     1
 95
       17
 96
       13
 40
0.0
 40
0.0
 40
0.0
 40
0.0
 40
1.0
 40
1.0
 40
1.0
 40
2.0
 40
2.0
 40
2.0
 40
3.0
 40
3.0
 40
3.0
 40
4.0
 40
4.0
 40
4.0
 40
4.0
 10
119.6743489284148
 20
-159.4975856806117
 10
119.6743489284148
 20
-159.4975856806117
 10
119.4714328043335
 20
-159.4975856806117
 10
119.4714328043335
 20
-159.4975856806117
 10
119.4989935682155
 20
-159.556841322958
 10
119.553770586431
 20
-159.6291883281483
 10
119.581331350313
 20
-159.6584716397729
 10
119.608892114195
 20
-159.6436577291863
 10
119.7232692843053
 20
-159.5802679722577
 10
119.8142198051159
 20
-159.4975856806117
 10
119.8142198051159
 20
-159.4975856806117
 10
119.6743489284148
 20
-159.4975856806117
 10
119.6743489284148
 20
-159.4975856806117
 97
        0
 97
        0
 75
     2
 76
     1
 98
        0
  0
SPLINE
  5
112
330
FF
100
AcDbEntity
  8
_U+30EC_U+30A4_U+30E4_U+30FC 1
370
     0
100
AcDbSpline
210
0.0
220
0.0
230
1.0
 70
    11
 71
     3
 72
    77
 73
    73
 74
     0
 42
0.0000000001
 43
0.0000000001
 12
1.0
 22
0.0
 32
0.0
 13
1.0
 23
0.0
 33
0.0
 40
0.0
 40
0.0
 40
0.0
 40
0.0
 40
1.0
 40
1.0
 40
1.0
 40
2.0
 40
2.0
 40
2.0
 40
3.0
 40
3.0
 40
3.0
 40
4.0
 40
4.0
 40
4.0
 40
5.0
 40
5.0
 40
5.0
 40
6.0
 40
6.0
 40
6.0
 40
7.0
 40
7.0
 40
7.0
 40
8.0
 40
8.0
 40
8.0
 40
9.0
 40
9.0
 40
9.0
 40
10.0
 40
10.0
 40
10.0
 40
11.0
 40
11.0
 40
11.0
 40
12.0
 40
12.0
 40
12.0
 40
13.0
 40
13.0
 40
13.0
 40
14.0
 40
14.0
 40
14.0
 40
15.0
 40
15.0
 40
15.0
 40
16.0
 40
16.0
 40
16.0
 40
17.0
 40
17.0
 40
17.0
 40
18.0
 40
18.0
 40
18.0
 40
19.0
 40
19.0
 40
19.0
 40
20.0
 40
20.0
 40
20.0
 40
21.0
 40
21.0
 40
21.0
 40
22.0
 40
22.0
 40
22.0
 40
23.0
 40
23.0
 40
23.0
 40
24.0
 40
24.0
 40
24.0
 40
24.0
 10
122.1654974737989
 20
-160.1280381544125
 30
0.0
 10
122.118988684748
 20
-160.1535318610033
 30
0.0
 10
121.994276228182
 20
-160.1662787142987
 30
0.0
 10
121.9157280511183
 20
-160.1662787142987
 30
0.0
 10
121.9033257073714
 20
-160.1662787142987
 30
0.0
 10
121.8778320007805
 20
-160.1662787142987
 30
0.0
 10
121.8440700650251
 20
-160.1618000901679
 30
0.0
 10
121.8440700650251
 20
-160.1618000901679
 30
0.0
 10
121.7465738627925
 20
-159.9358018263355
 30
0.0
 10
121.7465738627925
 20
-159.9358018263355
 30
0.0
 10
121.7762016839657
 20
-159.9420029982089
 30
0.0
 10
121.8333902690208
 20
-159.9502712273735
 30
0.0
 10
121.9498344964223
 20
-159.9502712273735
 30
0.0
 10
122.0280381639374
 20
-159.9502712273735
 30
0.0
 10
122.0301052212286
 20
-159.9082410624535
 30
0.0
 10
122.0301052212286
 20
-159.8510524773984
 30
0.0
 10
122.0301052212286
 20
-159.8510524773984
 30
0.0
 10
122.0301052212286
 20
-159.5020643047426
 30
0.0
 10
122.0301052212286
 20
-159.5020643047426
 30
0.0
 10
122.0301052212286
 20
-159.5020643047426
 30
0.0
 10
121.5708739930448
 20
-159.5020643047426
 30
0.0
 10
121.5708739930448
 20
-159.5020643047426
 30
0.0
 10
121.5732855598845
 20
-159.639523614604
 30
0.0
 10
121.5753526171756
 20
-159.8383056241029
 30
0.0
 10
121.5815537890491
 20
-159.9716308193821
 30
0.0
 10
121.5836208463402
 20
-159.9991915832641
 30
0.0
 10
121.5836208463402
 20
-160.0436333150238
 30
0.0
 10
121.5963676996356
 20
-160.1049560146613
 30
0.0
 10
121.5963676996356
 20
-160.1049560146613
 30
0.0
 10
121.3552110156681
 20
-160.1049560146613
 30
0.0
 10
121.3552110156681
 20
-160.1049560146613
 30
0.0
 10
121.380704722259
 20
-159.9798990485467
 30
0.0
 10
121.380704722259
 20
-159.639523614604
 30
0.0
 10
121.380704722259
 20
-159.5020643047426
 30
0.0
 10
121.380704722259
 20
-159.5020643047426
 30
0.0
 10
120.9383544619529
 20
-159.5020643047426
 30
0.0
 10
120.9383544619529
 20
-159.5020643047426
 30
0.0
 10
120.9152723222017
 20
-159.7091145434061
 30
0.0
 10
120.849815507982
 20
-159.9778319912556
 30
0.0
 10
120.6527560462257
 20
-160.1618000901679
 30
0.0
 10
120.6527560462257
 20
-160.1618000901679
 30
0.0
 10
120.4646538327311
 20
-160.039154690893
 30
0.0
 10
120.4646538327311
 20
-160.039154690893
 30
0.0
 10
120.718557369994
 20
-159.8193575989341
 30
0.0
 10
120.7502522484583
 20
-159.487250394156
 30
0.0
 10
120.7502522484583
 20
-159.1551431893779
 30
0.0
 10
120.7502522484583
 20
-159.1551431893779
 30
0.0
 10
120.7502522484583
 20
-158.7193386104938
 30
0.0
 10
120.7502522484583
 20
-158.7193386104938
 30
0.0
 10
120.7502522484583
 20
-158.6831651078987
 30
0.0
 10
120.7481851911671
 20
-158.4506211626443
 30
0.0
 10
120.739572452454
 20
-158.3489908458294
 30
0.0
 10
120.8794433291552
 20
-158.3596706418337
 30
0.0
 10
121.1206000131226
 20
-158.3596706418337
 30
0.0
 10
121.2642604948576
 20
-158.3596706418337
 30
0.0
 10
121.2642604948576
 20
-158.3596706418337
 30
0.0
 10
121.7234917230413
 20
-158.3596706418337
 30
0.0
 10
121.7234917230413
 20
-158.3596706418337
 30
0.0
 10
121.7383056336279
 20
-158.3596706418337
 30
0.0
 10
122.0872938062837
 20
-158.3596706418337
 30
0.0
 10
122.2457681986052
 20
-158.3489908458294
 30
0.0
 10
122.2437011413141
 20
-158.4020453163023
 30
0.0
 10
122.2374999694406
 20
-158.5625867659149
 30
0.0
 10
122.2374999694406
 20
-158.6135741790966
 30
0.0
 10
122.2374999694406
 20
-158.6135741790966
 30
0.0
 10
122.2374999694406
 20
-159.2206000035976
 30
0.0
 10
122.2374999694406
 20
-159.2206000035976
 30
0.0
 10
122.2374999694406
 20
-159.239892538315
 30
0.0
 10
122.2478352558964
 20
-159.8110893697695
 30
0.0
 10
122.2478352558964
 20
-159.9230549730401
 30
0.0
 10
122.2478352558964
 20
-159.9798990485467
 30
0.0
 10
122.2478352558964
 20
-160.0818738749101
 30
0.0
 10
122.1654974737989
 20
-160.1280381544125
 30
0.0
  0
POLYLINE
  5
113
330
FF
100
AcDbEntity
  8
_U+30EC_U+30A4_U+30E4_U+30FC 1
370
     0
100
AcDb2dPolyline
 66
     1
 10
0.0
 20
0.0
 30
0.0
  0
VERTEX
  5
114
330
113
100
AcDbEntity
  8
_U+30EC_U+30A4_U+30E4_U+30FC 1
370
     0
100
AcDbVertex
100
AcDb2dVertex
 10
121.380704722259
 20
-158.5415716834549
 30
0.0
  0
VERTEX
  5
115
330
113
100
AcDbEntity
  8
_U+30EC_U+30A4_U+30E4_U+30FC 1
370
     0
100
AcDbVertex
100
AcDb2dVertex
 10
120.9428330860837
 20
-158.5415716834549
 30
0.0
  0
VERTEX
  5
116
330
113
100
AcDbEntity
  8
_U+30EC_U+30A4_U+30E4_U+30FC 1
370
     0
100
AcDbVertex
100
AcDb2dVertex
 10
120.9428330860837
 20
-158.846118124351
 30
0.0
  0
VERTEX
  5
117
330
113
100
AcDbEntity
  8
_U+30EC_U+30A4_U+30E4_U+30FC 1
370
     0
100
AcDbVertex
100
AcDb2dVertex
 10
121.380704722259
 20
-158.846118124351
 30
0.0
  0
VERTEX
  5
118
330
113
100
AcDbEntity
  8
_U+30EC_U+30A4_U+30E4_U+30FC 1
370
     0
100
AcDbVertex
100
AcDb2dVertex
 10
121.380704722259
 20
-158.5415716834549
 30
0.0
  0
SEQEND
  5
119
330
113
100
AcDbEntity
  8
_U+30EC_U+30A4_U+30E4_U+30FC 1
370
     0
  0
POLYLINE
  5
11A
330
FF
100
AcDbEntity
  8
_U+30EC_U+30A4_U+30E4_U+30FC 1
370
     0
100
AcDb2dPolyline
 66
     1
 10
0.0
 20
0.0
 30
0.0
  0
VERTEX
  5
11B
330
11A
100
AcDbEntity
  8
_U+30EC_U+30A4_U+30E4_U+30FC 1
370
     0
100
AcDbVertex
100
AcDb2dVertex
 10
121.380704722259
 20
-159.0132052553856
 30
0.0
  0
VERTEX
  5
11C
330
11A
100
AcDbEntity
  8
_U+30EC_U+30A4_U+30E4_U+30FC 1
370
     0
100
AcDbVertex
100
AcDb2dVertex
 10
120.9428330860837
 20
-159.0132052553856
 30
0.0
  0
VERTEX
  5
11D
330
11A
100
AcDbEntity
  8
_U+30EC_U+30A4_U+30E4_U+30FC 1
370
     0
100
AcDbVertex
100
AcDb2dVertex
 10
120.9428330860837
 20
-159.3222303204125
 30
0.0
  0
VERTEX
  5
11E
330
11A
100
AcDbEntity
  8
_U+30EC_U+30A4_U+30E4_U+30FC 1
370
     0
100
AcDbVertex
100
AcDb2dVertex
 10
121.380704722259
 20
-159.3222303204125
 30
0.0
  0
VERTEX
  5
11F
330
11A
100
AcDbEntity
  8
_U+30EC_U+30A4_U+30E4_U+30FC 1
370
     0
100
AcDbVertex
100
AcDb2dVertex
 10
121.380704722259
 20
-159.0132052553856
 30
0.0
  0
SEQEND
  5
120
330
11A
100
AcDbEntity
  8
_U+30EC_U+30A4_U+30E4_U+30FC 1
370
     0
  0
POLYLINE
  5
121
330
FF
100
AcDbEntity
  8
_U+30EC_U+30A4_U+30E4_U+30FC 1
370
     0
100
AcDb2dPolyline
 66
     1
 10
0.0
 20
0.0
 30
0.0
  0
VERTEX
  5
122
330
121
100
AcDbEntity
  8
_U+30EC_U+30A4_U+30E4_U+30FC 1
370
     0
100
AcDbVertex
100
AcDb2dVertex
 10
122.0301052212286
 20
-158.5415716834549
 30
0.0
  0
VERTEX
  5
123
330
121
100
AcDbEntity
  8
_U+30EC_U+30A4_U+30E4_U+30FC 1
370
     0
100
AcDbVertex
100
AcDb2dVertex
 10
121.5708739930448
 20
-158.5415716834549
 30
0.0
  0
VERTEX
  5
124
330
121
100
AcDbEntity
  8
_U+30EC_U+30A4_U+30E4_U+30FC 1
370
     0
100
AcDbVertex
100
AcDb2dVertex
 10
121.5708739930448
 20
-158.846118124351
 30
0.0
  0
VERTEX
  5
125
330
121
100
AcDbEntity
  8
_U+30EC_U+30A4_U+30E4_U+30FC 1
370
     0
100
AcDbVertex
100
AcDb2dVertex
 10
122.0301052212286
 20
-158.846118124351
 30
0.0
  0
VERTEX
  5
126
330
121
100
AcDbEntity
  8
_U+30EC_U+30A4_U+30E4_U+30FC 1
370
     0
100
AcDbVertex
100
AcDb2dVertex
 10
122.0301052212286
 20
-158.5415716834549
 30
0.0
  0
SEQEND
  5
127
330
121
100
AcDbEntity
  8
_U+30EC_U+30A4_U+30E4_U+30FC 1
370
     0
  0
POLYLINE
  5
128
330
FF
100
AcDbEntity
  8
_U+30EC_U+30A4_U+30E4_U+30FC 1
370
     0
100
AcDb2dPolyline
 66
     1
 10
0.0
 20
0.0
 30
0.0
  0
VERTEX
  5
129
330
128
100
AcDbEntity
  8
_U+30EC_U+30A4_U+30E4_U+30FC 1
370
     0
100
AcDbVertex
100
AcDb2dVertex
 10
122.0301052212286
 20
-159.0132052553856
 30
0.0
  0
VERTEX
  5
12A
330
128
100
AcDbEntity
  8
_U+30EC_U+30A4_U+30E4_U+30FC 1
370
     0
100
AcDbVertex
100
AcDb2dVertex
 10
121.5708739930448
 20
-159.0132052553856
 30
0.0
  0
VERTEX
  5
12B
330
128
100
AcDbEntity
  8
_U+30EC_U+30A4_U+30E4_U+30FC 1
370
     0
100
AcDbVertex
100
AcDb2dVertex
 10
121.5708739930448
 20
-159.3222303204125
 30
0.0
  0
VERTEX
  5
12C
330
128
100
AcDbEntity
  8
_U+30EC_U+30A4_U+30E4_U+30FC 1
370
     0
100
AcDbVertex
100
AcDb2dVertex
 10
122.0301052212286
 20
-159.3222303204125
 30
0.0
  0
VERTEX
  5
12D
330
128
100
AcDbEntity
  8
_U+30EC_U+30A4_U+30E4_U+30FC 1
370
     0
100
AcDbVertex
100
AcDb2dVertex
 10
122.0301052212286
 20
-159.0132052553856
 30
0.0
  0
SEQEND
  5
12E
330
128
100
AcDbEntity
  8
_U+30EC_U+30A4_U+30E4_U+30FC 1
370
     0
  0
HATCH
  5
12F
330
FF
100
AcDbEntity
  8
_U+30EC_U+30A4_U+30E4_U+30FC 1
 62
     7
420
 16777215
100
AcDbHatch
 10
0.0
 20
0.0
 30
0.0
210
0.0
220
0.0
230
1.0
  2
SOLID
 70
     1
 71
     0
 91
        5
 92
        1
 93
        1
 72
     4
 94
        3
 73
     0
 74
     1
 95
       77
 96
       73
 40
0.0
 40
0.0
 40
0.0
 40
0.0
 40
1.0
 40
1.0
 40
1.0
 40
2.0
 40
2.0
 40
2.0
 40
3.0
 40
3.0
 40
3.0
 40
4.0
 40
4.0
 40
4.0
 40
5.0
 40
5.0
 40
5.0
 40
6.0
 40
6.0
 40
6.0
 40
7.0
 40
7.0
 40
7.0
 40
8.0
 40
8.0
 40
8.0
 40
9.0
 40
9.0
 40
9.0
 40
10.0
 40
10.0
 40
10.0
 40
11.0
 40
11.0
 40
11.0
 40
12.0
 40
12.0
 40
12.0
 40
13.0
 40
13.0
 40
13.0
 40
14.0
 40
14.0
 40
14.0
 40
15.0
 40
15.0
 40
15.0
 40
16.0
 40
16.0
 40
16.0
 40
17.0
 40
17.0
 40
17.0
 40
18.0
 40
18.0
 40
18.0
 40
19.0
 40
19.0
 40
19.0
 40
20.0
 40
20.0
 40
20.0
 40
21.0
 40
21.0
 40
21.0
 40
22.0
 40
22.0
 40
22.0
 40
23.0
 40
23.0
 40
23.0
 40
24.0
 40
24.0
 40
24.0
 40
24.0
 10
122.1654974737989
 20
-160.1280381544125
 10
122.118988684748
 20
-160.1535318610033
 10
121.994276228182
 20
-160.1662787142987
 10
121.9157280511183
 20
-160.1662787142987
 10
121.9033257073714
 20
-160.1662787142987
 10
121.8778320007805
 20
-160.1662787142987
 10
121.8440700650251
 20
-160.1618000901679
 10
121.8440700650251
 20
-160.1618000901679
 10
121.7465738627925
 20
-159.9358018263355
 10
121.7465738627925
 20
-159.9358018263355
 10
121.7762016839657
 20
-159.9420029982089
 10
121.8333902690208
 20
-159.9502712273735
 10
121.9498344964223
 20
-159.9502712273735
 10
122.0280381639374
 20
-159.9502712273735
 10
122.0301052212286
 20
-159.9082410624535
 10
122.0301052212286
 20
-159.8510524773984
 10
122.0301052212286
 20
-159.8510524773984
 10
122.0301052212286
 20
-159.5020643047426
 10
122.0301052212286
 20
-159.5020643047426
 10
122.0301052212286
 20
-159.5020643047426
 10
121.5708739930448
 20
-159.5020643047426
 10
121.5708739930448
 20
-159.5020643047426
 10
121.5732855598845
 20
-159.639523614604
 10
121.5753526171756
 20
-159.8383056241029
 10
121.5815537890491
 20
-159.9716308193821
 10
121.5836208463402
 20
-159.9991915832641
 10
121.5836208463402
 20
-160.0436333150238
 10
121.5963676996356
 20
-160.1049560146613
 10
121.5963676996356
 20
-160.1049560146613
 10
121.3552110156681
 20
-160.1049560146613
 10
121.3552110156681
 20
-160.1049560146613
 10
121.380704722259
 20
-159.9798990485467
 10
121.380704722259
 20
-159.639523614604
 10
121.380704722259
 20
-159.5020643047426
 10
121.380704722259
 20
-159.5020643047426
 10
120.9383544619529
 20
-159.5020643047426
 10
120.9383544619529
 20
-159.5020643047426
 10
120.9152723222017
 20
-159.7091145434061
 10
120.849815507982
 20
-159.9778319912556
 10
120.6527560462257
 20
-160.1618000901679
 10
120.6527560462257
 20
-160.1618000901679
 10
120.4646538327311
 20
-160.039154690893
 10
120.4646538327311
 20
-160.039154690893
 10
120.718557369994
 20
-159.8193575989341
 10
120.7502522484583
 20
-159.487250394156
 10
120.7502522484583
 20
-159.1551431893779
 10
120.7502522484583
 20
-159.1551431893779
 10
120.7502522484583
 20
-158.7193386104938
 10
120.7502522484583
 20
-158.7193386104938
 10
120.7502522484583
 20
-158.6831651078987
 10
120.7481851911671
 20
-158.4506211626443
 10
120.739572452454
 20
-158.3489908458294
 10
120.8794433291552
 20
-158.3596706418337
 10
121.1206000131226
 20
-158.3596706418337
 10
121.2642604948576
 20
-158.3596706418337
 10
121.2642604948576
 20
-158.3596706418337
 10
121.7234917230413
 20
-158.3596706418337
 10
121.7234917230413
 20
-158.3596706418337
 10
121.7383056336279
 20
-158.3596706418337
 10
122.0872938062837
 20
-158.3596706418337
 10
122.2457681986052
 20
-158.3489908458294
 10
122.2437011413141
 20
-158.4020453163023
 10
122.2374999694406
 20
-158.5625867659149
 10
122.2374999694406
 20
-158.6135741790966
 10
122.2374999694406
 20
-158.6135741790966
 10
122.2374999694406
 20
-159.2206000035976
 10
122.2374999694406
 20
-159.2206000035976
 10
122.2374999694406
 20
-159.239892538315
 10
122.2478352558964
 20
-159.8110893697695
 10
122.2478352558964
 20
-159.9230549730401
 10
122.2478352558964
 20
-159.9798990485467
 10
122.2478352558964
 20
-160.0818738749101
 10
122.1654974737989
 20
-160.1280381544125
 97
        0
 97
        0
 92
        1
 93
        4
 72
     1
 10
121.380704722259
 20
-158.5415716834549
 11
120.9428330860837
 21
-158.5415716834549
 72
     1
 10
120.9428330860837
 20
-158.5415716834549
 11
120.9428330860837
 21
-158.846118124351
 72
     1
 10
120.9428330860837
 20
-158.846118124351
 11
121.380704722259
 21
-158.846118124351
 72
     1
 10
121.380704722259
 20
-158.846118124351
 11
121.380704722259
 21
-158.5415716834549
 97
        0
 92
        1
 93
        4
 72
     1
 10
121.380704722259
 20
-159.0132052553856
 11
120.9428330860837
 21
-159.0132052553856
 72
     1
 10
120.9428330860837
 20
-159.0132052553856
 11
120.9428330860837
 21
-159.3222303204125
 72
     1
 10
120.9428330860837
 20
-159.3222303204125
 11
121.380704722259
 21
-159.3222303204125
 72
     1
 10
121.380704722259
 20
-159.3222303204125
 11
121.380704722259
 21
-159.0132052553856
 97
        0
 92
        1
 93
        4
 72
     1
 10
122.0301052212286
 20
-158.5415716834549
 11
121.5708739930448
 21
-158.5415716834549
 72
     1
 10
121.5708739930448
 20
-158.5415716834549
 11
121.5708739930448
 21
-158.846118124351
 72
     1
 10
121.5708739930448
 20
-158.846118124351
 11
122.0301052212286
 21
-158.846118124351
 72
     1
 10
122.0301052212286
 20
-158.846118124351
 11
122.0301052212286
 21
-158.5415716834549
 97
        0
 92
        1
 93
        4
 72
     1
 10
122.0301052212286
 20
-159.0132052553856
 11
121.5708739930448
 21
-159.0132052553856
 72
     1
 10
121.5708739930448
 20
-159.0132052553856
 11
121.5708739930448
 21
-159.3222303204125
 72
     1
 10
121.5708739930448
 20
-159.3222303204125
 11
122.0301052212286
 21
-159.3222303204125
 72
     1
 10
122.0301052212286
 20
-159.3222303204125
 11
122.0301052212286
 21
-159.0132052553856
 97
        0
 75
     2
 76
     1
 98
        0
  0
SPLINE
  5
130
330
FF
100
AcDbEntity
  8
_U+30EC_U+30A4_U+30E4_U+30FC 1
370
     0
100
AcDbSpline
210
0.0
220
0.0
230
1.0
 70
    11
 71
     3
 72
    44
 73
    40
 74
     0
 42
0.0000000001
 43
0.0000000001
 12
1.0
 22
0.0
 32
0.0
 13
1.0
 23
0.0
 33
0.0
 40
0.0
 40
0.0
 40
0.0
 40
0.0
 40
1.0
 40
1.0
 40
1.0
 40
2.0
 40
2.0
 40
2.0
 40
3.0
 40
3.0
 40
3.0
 40
4.0
 40
4.0
 40
4.0
 40
5.0
 40
5.0
 40
5.0
 40
6.0
 40
6.0
 40
6.0
 40
7.0
 40
7.0
 40
7.0
 40
8.0
 40
8.0
 40
8.0
 40
9.0
 40
9.0
 40
9.0
 40
10.0
 40
10.0
 40
10.0
 40
11.0
 40
11.0
 40
11.0
 40
12.0
 40
12.0
 40
12.0
 40
13.0
 40
13.0
 40
13.0
 40
13.0
 10
117.7140895973076
 20
-161.41788190409
 30
0.0
 10
117.602123994037
 20
-161.7861626114632
 30
0.0
 10
117.5514810904038
 20
-161.9449815133332
 30
0.0
 10
117.354766138196
 20
-162.1944064264653
 30
0.0
 10
117.1704535297352
 20
-162.425227823977
 30
0.0
 10
116.9337754698985
 20
-162.6112629801805
 30
0.0
 10
116.6543782260447
 20
-162.7042805582823
 30
0.0
 10
116.6543782260447
 20
-162.7042805582823
 30
0.0
 10
116.4617973884193
 20
-162.5244465739522
 30
0.0
 10
116.4617973884193
 20
-162.5244465739522
 30
0.0
 10
117.1029296582243
 20
-162.3721733535042
 30
0.0
 10
117.4329698057112
 20
-161.8157904326363
 30
0.0
 10
117.4963595626398
 20
-161.3758517391699
 30
0.0
 10
117.4963595626398
 20
-161.3758517391699
 30
0.0
 10
116.7305148362688
 20
-161.3758517391699
 30
0.0
 10
116.7305148362688
 20
-161.3758517391699
 30
0.0
 10
116.637497258167
 20
-161.3758517391699
 30
0.0
 10
116.4535291592547
 20
-161.3799858537522
 30
0.0
 10
116.2967773146758
 20
-161.3989338789211
 30
0.0
 10
116.2967773146758
 20
-161.3989338789211
 30
0.0
 10
116.2967773146758
 20
-161.1787922774136
 30
0.0
 10
116.2967773146758
 20
-161.1787922774136
 30
0.0
 10
116.3835937209041
 20
-161.2001518694222
 30
0.0
 10
116.6354302008759
 20
-161.2001518694222
 30
0.0
 10
116.7346489508511
 20
-161.2001518694222
 30
0.0
 10
116.7346489508511
 20
-161.2001518694222
 30
0.0
 10
117.1663194151529
 20
-161.2001518694222
 30
0.0
 10
117.1663194151529
 20
-161.2001518694222
 30
0.0
 10
117.2086940896214
 20
-161.2001518694222
 30
0.0
 10
117.443305092167
 20
-161.198084812131
 30
0.0
 10
117.4815456520532
 20
-161.1918836402576
 30
0.0
 10
117.5239203265218
 20
-161.1853379588356
 30
0.0
 10
117.5259873838129
 20
-161.1832709015445
 30
0.0
 10
117.5873100834504
 20
-161.1429632843671
 30
0.0
 10
117.5873100834504
 20
-161.1429632843671
 30
0.0
 10
117.775412296945
 20
-161.2973035621062
 30
0.0
 10
117.775412296945
 20
-161.2973035621062
 30
0.0
 10
117.7461289853204
 20
-161.3269313832794
 30
0.0
 10
117.7313150747338
 20
-161.3586262617437
 30
0.0
 10
117.7140895973076
 20
-161.41788190409
 30
0.0
  0
SPLINE
  5
131
330
FF
100
AcDbEntity
  8
_U+30EC_U+30A4_U+30E4_U+30FC 1
370
     0
100
AcDbSpline
210
0.0
220
0.0
230
1.0
 70
    11
 71
     3
 72
    17
 73
    13
 74
     0
 42
0.0000000001
 43
0.0000000001
 12
1.0
 22
0.0
 32
0.0
 13
1.0
 23
0.0
 33
0.0
 40
0.0
 40
0.0
 40
0.0
 40
0.0
 40
1.0
 40
1.0
 40
1.0
 40
2.0
 40
2.0
 40
2.0
 40
3.0
 40
3.0
 40
3.0
 40
4.0
 40
4.0
 40
4.0
 40
4.0
 10
117.9235514028108
 20
-161.2190998945911
 30
0.0
 10
117.7967718889536
 20
-161.2190998945911
 30
0.0
 10
117.6951415721387
 20
-161.1174695777762
 30
0.0
 10
117.6951415721387
 20
-160.990690063919
 30
0.0
 10
117.6951415721387
 20
-160.8639105500618
 30
0.0
 10
117.7967718889536
 20
-160.7598686664073
 30
0.0
 10
117.9235514028108
 20
-160.7598686664073
 30
0.0
 10
118.0506754262165
 20
-160.7598686664073
 30
0.0
 10
118.1543728003225
 20
-160.8639105500618
 30
0.0
 10
118.1543728003225
 20
-160.990690063919
 30
0.0
 10
118.1543728003225
 20
-161.1174695777762
 30
0.0
 10
118.0506754262165
 20
-161.2190998945911
 30
0.0
 10
117.9235514028108
 20
-161.2190998945911
 30
0.0
  0
SPLINE
  5
132
330
FF
100
AcDbEntity
  8
_U+30EC_U+30A4_U+30E4_U+30FC 1
370
     0
100
AcDbSpline
210
0.0
220
0.0
230
1.0
 70
    11
 71
     3
 72
    17
 73
    13
 74
     0
 42
0.0000000001
 43
0.0000000001
 12
1.0
 22
0.0
 32
0.0
 13
1.0
 23
0.0
 33
0.0
 40
0.0
 40
0.0
 40
0.0
 40
0.0
 40
1.0
 40
1.0
 40
1.0
 40
2.0
 40
2.0
 40
2.0
 40
3.0
 40
3.0
 40
3.0
 40
4.0
 40
4.0
 40
4.0
 40
4.0
 10
117.9214843455196
 20
-160.8890597471041
 30
0.0
 10
117.8667073273042
 20
-160.8890597471041
 30
0.0
 10
117.8222655955444
 20
-160.9335014788639
 30
0.0
 10
117.8222655955444
 20
-160.9886230066278
 30
0.0
 10
117.8222655955444
 20
-161.045811591683
 30
0.0
 10
117.8667073273042
 20
-161.094387438025
 30
0.0
 10
117.9256184601019
 20
-161.094387438025
 30
0.0
 10
117.9848741024482
 20
-161.094387438025
 30
0.0
 10
118.0251817196256
 20
-161.0437445343919
 30
0.0
 10
118.0251817196256
 20
-160.990690063919
 30
0.0
 10
118.0251817196256
 20
-160.9335014788639
 30
0.0
 10
117.9786729305748
 20
-160.8890597471041
 30
0.0
 10
117.9214843455196
 20
-160.8890597471041
 30
0.0
  0
HATCH
  5
133
330
FF
100
AcDbEntity
  8
_U+30EC_U+30A4_U+30E4_U+30FC 1
 62
     7
420
 16777215
100
AcDbHatch
 10
0.0
 20
0.0
 30
0.0
210
0.0
220
0.0
230
1.0
  2
SOLID
 70
     1
 71
     0
 91
        3
 92
        1
 93
        1
 72
     4
 94
        3
 73
     0
 74
     1
 95
       44
 96
       40
 40
0.0
 40
0.0
 40
0.0
 40
0.0
 40
1.0
 40
1.0
 40
1.0
 40
2.0
 40
2.0
 40
2.0
 40
3.0
 40
3.0
 40
3.0
 40
4.0
 40
4.0
 40
4.0
 40
5.0
 40
5.0
 40
5.0
 40
6.0
 40
6.0
 40
6.0
 40
7.0
 40
7.0
 40
7.0
 40
8.0
 40
8.0
 40
8.0
 40
9.0
 40
9.0
 40
9.0
 40
10.0
 40
10.0
 40
10.0
 40
11.0
 40
11.0
 40
11.0
 40
12.0
 40
12.0
 40
12.0
 40
13.0
 40
13.0
 40
13.0
 40
13.0
 10
117.7140895973076
 20
-161.41788190409
 10
117.602123994037
 20
-161.7861626114632
 10
117.5514810904038
 20
-161.9449815133332
 10
117.354766138196
 20
-162.1944064264653
 10
117.1704535297352
 20
-162.425227823977
 10
116.9337754698985
 20
-162.6112629801805
 10
116.6543782260447
 20
-162.7042805582823
 10
116.6543782260447
 20
-162.7042805582823
 10
116.4617973884193
 20
-162.5244465739522
 10
116.4617973884193
 20
-162.5244465739522
 10
117.1029296582243
 20
-162.3721733535042
 10
117.4329698057112
 20
-161.8157904326363
 10
117.4963595626398
 20
-161.3758517391699
 10
117.4963595626398
 20
-161.3758517391699
 10
116.7305148362688
 20
-161.3758517391699
 10
116.7305148362688
 20
-161.3758517391699
 10
116.637497258167
 20
-161.3758517391699
 10
116.4535291592547
 20
-161.3799858537522
 10
116.2967773146758
 20
-161.3989338789211
 10
116.2967773146758
 20
-161.3989338789211
 10
116.2967773146758
 20
-161.1787922774136
 10
116.2967773146758
 20
-161.1787922774136
 10
116.3835937209041
 20
-161.2001518694222
 10
116.6354302008759
 20
-161.2001518694222
 10
116.7346489508511
 20
-161.2001518694222
 10
116.7346489508511
 20
-161.2001518694222
 10
117.1663194151529
 20
-161.2001518694222
 10
117.1663194151529
 20
-161.2001518694222
 10
117.2086940896214
 20
-161.2001518694222
 10
117.443305092167
 20
-161.198084812131
 10
117.4815456520532
 20
-161.1918836402576
 10
117.5239203265218
 20
-161.1853379588356
 10
117.5259873838129
 20
-161.1832709015445
 10
117.5873100834504
 20
-161.1429632843671
 10
117.5873100834504
 20
-161.1429632843671
 10
117.775412296945
 20
-161.2973035621062
 10
117.775412296945
 20
-161.2973035621062
 10
117.7461289853204
 20
-161.3269313832794
 10
117.7313150747338
 20
-161.3586262617437
 10
117.7140895973076
 20
-161.41788190409
 97
        0
 97
        0
 92
        1
 93
        1
 72
     4
 94
        3
 73
     0
 74
     1
 95
       17
 96
       13
 40
0.0
 40
0.0
 40
0.0
 40
0.0
 40
1.0
 40
1.0
 40
1.0
 40
2.0
 40
2.0
 40
2.0
 40
3.0
 40
3.0
 40
3.0
 40
4.0
 40
4.0
 40
4.0
 40
4.0
 10
117.9235514028108
 20
-161.2190998945911
 10
117.7967718889536
 20
-161.2190998945911
 10
117.6951415721387
 20
-161.1174695777762
 10
117.6951415721387
 20
-160.990690063919
 10
117.6951415721387
 20
-160.8639105500618
 10
117.7967718889536
 20
-160.7598686664073
 10
117.9235514028108
 20
-160.7598686664073
 10
118.0506754262165
 20
-160.7598686664073
 10
118.1543728003225
 20
-160.8639105500618
 10
118.1543728003225
 20
-160.990690063919
 10
118.1543728003225
 20
-161.1174695777762
 10
118.0506754262165
 20
-161.2190998945911
 10
117.9235514028108
 20
-161.2190998945911
 97
        0
 97
        0
 92
        1
 93
        1
 72
     4
 94
        3
 73
     0
 74
     1
 95
       17
 96
       13
 40
0.0
 40
0.0
 40
0.0
 40
0.0
 40
1.0
 40
1.0
 40
1.0
 40
2.0
 40
2.0
 40
2.0
 40
3.0
 40
3.0
 40
3.0
 40
4.0
 40
4.0
 40
4.0
 40
4.0
 10
117.9214843455196
 20
-160.8890597471041
 10
117.8667073273042
 20
-160.8890597471041
 10
117.8222655955444
 20
-160.9335014788639
 10
117.8222655955444
 20
-160.9886230066278
 10
117.8222655955444
 20
-161.045811591683
 10
117.8667073273042
 20
-161.094387438025
 10
117.9256184601019
 20
-161.094387438025
 10
117.9848741024482
 20
-161.094387438025
 10
118.0251817196256
 20
-161.0437445343919
 10
118.0251817196256
 20
-160.990690063919
 10
118.0251817196256
 20
-160.9335014788639
 10
117.9786729305748
 20
-160.8890597471041
 10
117.9214843455196
 20
-160.8890597471041
 97
        0
 97
        0
 75
     2
 76
     1
 98
        0
  0
SPLINE
  5
134
330
FF
100
AcDbEntity
  8
_U+30EC_U+30A4_U+30E4_U+30FC 1
370
     0
100
AcDbSpline
210
0.0
220
0.0
230
1.0
 70
    11
 71
     3
 72
    50
 73
    46
 74
     0
 42
0.0000000001
 43
0.0000000001
 12
1.0
 22
0.0
 32
0.0
 13
1.0
 23
0.0
 33
0.0
 40
0.0
 40
0.0
 40
0.0
 40
0.0
 40
1.0
 40
1.0
 40
1.0
 40
2.0
 40
2.0
 40
2.0
 40
3.0
 40
3.0
 40
3.0
 40
4.0
 40
4.0
 40
4.0
 40
5.0
 40
5.0
 40
5.0
 40
6.0
 40
6.0
 40
6.0
 40
7.0
 40
7.0
 40
7.0
 40
8.0
 40
8.0
 40
8.0
 40
9.0
 40
9.0
 40
9.0
 40
10.0
 40
10.0
 40
10.0
 40
11.0
 40
11.0
 40
11.0
 40
12.0
 40
12.0
 40
12.0
 40
13.0
 40
13.0
 40
13.0
 40
14.0
 40
14.0
 40
14.0
 40
15.0
 40
15.0
 40
15.0
 40
15.0
 10
119.7187906601745
 20
-161.7269069691169
 30
0.0
 10
119.6402424831108
 20
-161.9043293866073
 30
0.0
 10
119.5048502305405
 20
-162.1117241348193
 30
0.0
 10
119.367390920679
 20
-162.2515950115204
 30
0.0
 10
119.1982367323532
 20
-162.4228162571374
 30
0.0
 10
119.0352837159009
 20
-162.5116997206568
 30
0.0
 10
118.7159233644182
 20
-162.6532931451006
 30
0.0
 10
118.7159233644182
 20
-162.6532931451006
 30
0.0
 10
118.5467691760925
 20
-162.4651909316059
 30
0.0
 10
118.5467691760925
 20
-162.4651909316059
 30
0.0
 10
118.732804332296
 20
-162.4417642823062
 30
0.0
 10
118.9040255779129
 20
-162.3549478760779
 30
0.0
 10
119.0566433079095
 20
-162.2495279542293
 30
0.0
 10
119.318815074337
 20
-162.0676269126081
 30
0.0
 10
119.5093288546713
 20
-161.7541232234504
 30
0.0
 10
119.5579047010133
 20
-161.5722221818292
 30
0.0
 10
119.5579047010133
 20
-161.5722221818292
 30
0.0
 10
118.8871446100352
 20
-161.5722221818292
 30
0.0
 10
118.8871446100352
 20
-161.5722221818292
 30
0.0
 10
118.7286702177137
 20
-161.5722221818292
 30
0.0
 10
118.4365261205645
 20
-161.5808349205423
 30
0.0
 10
118.2842529001164
 20
-161.59771588842
 30
0.0
 10
118.2842529001164
 20
-161.59771588842
 30
0.0
 10
118.2842529001164
 20
-161.369306057748
 30
0.0
 10
118.2842529001164
 20
-161.369306057748
 30
0.0
 10
118.3183593454204
 20
-161.3758517391699
 30
0.0
 10
118.3435085424627
 20
-161.3820529110434
 30
0.0
 10
118.3965630129356
 20
-161.3861870256257
 30
0.0
 10
118.4978488202019
 20
-161.3923881974991
 30
0.0
 10
118.6949082819582
 20
-161.3947997643388
 30
0.0
 10
118.7793131213468
 20
-161.3947997643388
 30
0.0
 10
118.7793131213468
 20
-161.3947997643388
 30
0.0
 10
119.2850531385815
 20
-161.3947997643388
 30
0.0
 10
119.2850531385815
 20
-161.3947997643388
 30
0.0
 10
119.3525770100924
 20
-161.3947997643388
 30
0.0
 10
119.498649058667
 20
-161.390321140208
 30
0.0
 10
119.5599717583045
 20
-161.3841199683345
 30
0.0
 10
119.6319742539462
 20
-161.3758517391699
 30
0.0
 10
119.6595350178282
 20
-161.3606933190348
 30
0.0
 10
119.6932969535836
 20
-161.3376111792837
 30
0.0
 10
119.6932969535836
 20
-161.3376111792837
 30
0.0
 10
119.8583170273271
 20
-161.5046983103183
 30
0.0
 10
119.8583170273271
 20
-161.5046983103183
 30
0.0
 10
119.7883815889765
 20
-161.5722221818292
 30
0.0
 10
119.7418727999256
 20
-161.6762640654837
 30
0.0
 10
119.7187906601745
 20
-161.7269069691169
 30
0.0
  0
SPLINE
  5
135
330
FF
100
AcDbEntity
  8
_U+30EC_U+30A4_U+30E4_U+30FC 1
370
     0
100
AcDbSpline
210
0.0
220
0.0
230
1.0
 70
    11
 71
     3
 72
    29
 73
    25
 74
     0
 42
0.0000000001
 43
0.0000000001
 12
1.0
 22
0.0
 32
0.0
 13
1.0
 23
0.0
 33
0.0
 40
0.0
 40
0.0
 40
0.0
 40
0.0
 40
1.0
 40
1.0
 40
1.0
 40
2.0
 40
2.0
 40
2.0
 40
3.0
 40
3.0
 40
3.0
 40
4.0
 40
4.0
 40
4.0
 40
5.0
 40
5.0
 40
5.0
 40
6.0
 40
6.0
 40
6.0
 40
7.0
 40
7.0
 40
7.0
 40
8.0
 40
8.0
 40
8.0
 40
8.0
 10
119.2257974962352
 20
-161.100933119447
 30
0.0
 10
119.2257974962352
 20
-161.100933119447
 30
0.0
 10
118.885077552744
 20
-161.100933119447
 30
0.0
 10
118.885077552744
 20
-161.100933119447
 30
0.0
 10
118.7710448921822
 20
-161.100933119447
 30
0.0
 10
118.6546006647808
 20
-161.1050672340293
 30
0.0
 10
118.5402234946705
 20
-161.1195366350673
 30
0.0
 10
118.5402234946705
 20
-161.1195366350673
 30
0.0
 10
118.5402234946705
 20
-160.9100748295642
 30
0.0
 10
118.5402234946705
 20
-160.9100748295642
 30
0.0
 10
118.6587347793631
 20
-160.9252332496993
 30
0.0
 10
118.8323675918197
 20
-160.9293673642815
 30
0.0
 10
118.885077552744
 20
-160.9293673642815
 30
0.0
 10
118.885077552744
 20
-160.9293673642815
 30
0.0
 10
119.2257974962352
 20
-160.9293673642815
 30
0.0
 10
119.2257974962352
 20
-160.9293673642815
 30
0.0
 10
119.3422417236367
 20
-160.9293673642815
 30
0.0
 10
119.4583414414896
 20
-160.9252332496993
 30
0.0
 10
119.574785668891
 20
-160.9100748295642
 30
0.0
 10
119.574785668891
 20
-160.9100748295642
 30
0.0
 10
119.574785668891
 20
-161.1195366350673
 30
0.0
 10
119.574785668891
 20
-161.1195366350673
 30
0.0
 10
119.4245795057341
 20
-161.100933119447
 30
0.0
 10
119.2406114068218
 20
-161.100933119447
 30
0.0
 10
119.2257974962352
 20
-161.100933119447
 30
0.0
  0
HATCH
  5
136
330
FF
100
AcDbEntity
  8
_U+30EC_U+30A4_U+30E4_U+30FC 1
 62
     7
420
 16777215
100
AcDbHatch
 10
0.0
 20
0.0
 30
0.0
210
0.0
220
0.0
230
1.0
  2
SOLID
 70
     1
 71
     0
 91
        2
 92
        1
 93
        1
 72
     4
 94
        3
 73
     0
 74
     1
 95
       50
 96
       46
 40
0.0
 40
0.0
 40
0.0
 40
0.0
 40
1.0
 40
1.0
 40
1.0
 40
2.0
 40
2.0
 40
2.0
 40
3.0
 40
3.0
 40
3.0
 40
4.0
 40
4.0
 40
4.0
 40
5.0
 40
5.0
 40
5.0
 40
6.0
 40
6.0
 40
6.0
 40
7.0
 40
7.0
 40
7.0
 40
8.0
 40
8.0
 40
8.0
 40
9.0
 40
9.0
 40
9.0
 40
10.0
 40
10.0
 40
10.0
 40
11.0
 40
11.0
 40
11.0
 40
12.0
 40
12.0
 40
12.0
 40
13.0
 40
13.0
 40
13.0
 40
14.0
 40
14.0
 40
14.0
 40
15.0
 40
15.0
 40
15.0
 40
15.0
 10
119.7187906601745
 20
-161.7269069691169
 10
119.6402424831108
 20
-161.9043293866073
 10
119.5048502305405
 20
-162.1117241348193
 10
119.367390920679
 20
-162.2515950115204
 10
119.1982367323532
 20
-162.4228162571374
 10
119.0352837159009
 20
-162.5116997206568
 10
118.7159233644182
 20
-162.6532931451006
 10
118.7159233644182
 20
-162.6532931451006
 10
118.5467691760925
 20
-162.4651909316059
 10
118.5467691760925
 20
-162.4651909316059
 10
118.732804332296
 20
-162.4417642823062
 10
118.9040255779129
 20
-162.3549478760779
 10
119.0566433079095
 20
-162.2495279542293
 10
119.318815074337
 20
-162.0676269126081
 10
119.5093288546713
 20
-161.7541232234504
 10
119.5579047010133
 20
-161.5722221818292
 10
119.5579047010133
 20
-161.5722221818292
 10
118.8871446100352
 20
-161.5722221818292
 10
118.8871446100352
 20
-161.5722221818292
 10
118.7286702177137
 20
-161.5722221818292
 10
118.4365261205645
 20
-161.5808349205423
 10
118.2842529001164
 20
-161.59771588842
 10
118.2842529001164
 20
-161.59771588842
 10
118.2842529001164
 20
-161.369306057748
 10
118.2842529001164
 20
-161.369306057748
 10
118.3183593454204
 20
-161.3758517391699
 10
118.3435085424627
 20
-161.3820529110434
 10
118.3965630129356
 20
-161.3861870256257
 10
118.4978488202019
 20
-161.3923881974991
 10
118.6949082819582
 20
-161.3947997643388
 10
118.7793131213468
 20
-161.3947997643388
 10
118.7793131213468
 20
-161.3947997643388
 10
119.2850531385815
 20
-161.3947997643388
 10
119.2850531385815
 20
-161.3947997643388
 10
119.3525770100924
 20
-161.3947997643388
 10
119.498649058667
 20
-161.390321140208
 10
119.5599717583045
 20
-161.3841199683345
 10
119.6319742539462
 20
-161.3758517391699
 10
119.6595350178282
 20
-161.3606933190348
 10
119.6932969535836
 20
-161.3376111792837
 10
119.6932969535836
 20
-161.3376111792837
 10
119.8583170273271
 20
-161.5046983103183
 10
119.8583170273271
 20
-161.5046983103183
 10
119.7883815889765
 20
-161.5722221818292
 10
119.7418727999256
 20
-161.6762640654837
 10
119.7187906601745
 20
-161.7269069691169
 97
        0
 97
        0
 92
        1
 93
        1
 72
     4
 94
        3
 73
     0
 74
     1
 95
       29
 96
       25
 40
0.0
 40
0.0
 40
0.0
 40
0.0
 40
1.0
 40
1.0
 40
1.0
 40
2.0
 40
2.0
 40
2.0
 40
3.0
 40
3.0
 40
3.0
 40
4.0
 40
4.0
 40
4.0
 40
5.0
 40
5.0
 40
5.0
 40
6.0
 40
6.0
 40
6.0
 40
7.0
 40
7.0
 40
7.0
 40
8.0
 40
8.0
 40
8.0
 40
8.0
 10
119.2257974962352
 20
-161.100933119447
 10
119.2257974962352
 20
-161.100933119447
 10
118.885077552744
 20
-161.100933119447
 10
118.885077552744
 20
-161.100933119447
 10
118.7710448921822
 20
-161.100933119447
 10
118.6546006647808
 20
-161.1050672340293
 10
118.5402234946705
 20
-161.1195366350673
 10
118.5402234946705
 20
-161.1195366350673
 10
118.5402234946705
 20
-160.9100748295642
 10
118.5402234946705
 20
-160.9100748295642
 10
118.6587347793631
 20
-160.9252332496993
 10
118.8323675918197
 20
-160.9293673642815
 10
118.885077552744
 20
-160.9293673642815
 10
118.885077552744
 20
-160.9293673642815
 10
119.2257974962352
 20
-160.9293673642815
 10
119.2257974962352
 20
-160.9293673642815
 10
119.3422417236367
 20
-160.9293673642815
 10
119.4583414414896
 20
-160.9252332496993
 10
119.574785668891
 20
-160.9100748295642
 10
119.574785668891
 20
-160.9100748295642
 10
119.574785668891
 20
-161.1195366350673
 10
119.574785668891
 20
-161.1195366350673
 10
119.4245795057341
 20
-161.100933119447
 10
119.2406114068218
 20
-161.100933119447
 10
119.2257974962352
 20
-161.100933119447
 97
        0
 97
        0
 75
     2
 76
     1
 98
        0
  0
SPLINE
  5
137
330
FF
100
AcDbEntity
  8
_U+30EC_U+30A4_U+30E4_U+30FC 1
370
     0
100
AcDbSpline
210
0.0
220
0.0
230
1.0
 70
    11
 71
     3
 72
    50
 73
    46
 74
     0
 42
0.0000000001
 43
0.0000000001
 12
1.0
 22
0.0
 32
0.0
 13
1.0
 23
0.0
 33
0.0
 40
0.0
 40
0.0
 40
0.0
 40
0.0
 40
1.0
 40
1.0
 40
1.0
 40
2.0
 40
2.0
 40
2.0
 40
3.0
 40
3.0
 40
3.0
 40
4.0
 40
4.0
 40
4.0
 40
5.0
 40
5.0
 40
5.0
 40
6.0
 40
6.0
 40
6.0
 40
7.0
 40
7.0
 40
7.0
 40
8.0
 40
8.0
 40
8.0
 40
9.0
 40
9.0
 40
9.0
 40
10.0
 40
10.0
 40
10.0
 40
11.0
 40
11.0
 40
11.0
 40
12.0
 40
12.0
 40
12.0
 40
13.0
 40
13.0
 40
13.0
 40
14.0
 40
14.0
 40
14.0
 40
15.0
 40
15.0
 40
15.0
 40
15.0
 10
121.4289360590525
 20
-161.0857746993119
 30
0.0
 10
121.2194742535493
 20
-161.2993706193974
 30
0.0
 10
121.1478162674561
 20
-161.3717176245876
 30
0.0
 10
121.0058783334638
 20
-161.4898843997317
 30
0.0
 10
121.0058783334638
 20
-161.4898843997317
 30
0.0
 10
121.0058783334638
 20
-162.0569471166038
 30
0.0
 10
121.0058783334638
 20
-162.0569471166038
 30
0.0
 10
121.0058783334638
 20
-162.2071532797607
 30
0.0
 10
121.0124240148858
 20
-162.2261013049296
 30
0.0
 10
121.0165581294681
 20
-162.4038682319685
 30
0.0
 10
121.0186251867592
 20
-162.534781860408
 30
0.0
 10
121.0248263586327
 20
-162.5837022162985
 30
0.0
 10
121.0313720400547
 20
-162.6429578586448
 30
0.0
 10
121.0313720400547
 20
-162.6429578586448
 30
0.0
 10
120.8050292666737
 20
-162.6429578586448
 30
0.0
 10
120.8050292666737
 20
-162.6429578586448
 30
0.0
 10
120.809163381256
 20
-162.5985161268851
 30
0.0
 10
120.8132974958383
 20
-162.5520073378342
 30
0.0
 10
120.8132974958383
 20
-162.5433945991211
 30
0.0
 10
120.8132974958383
 20
-162.4631238743148
 30
0.0
 10
120.8177761199692
 20
-162.1117241348193
 30
0.0
 10
120.8177761199692
 20
-162.0400661487261
 30
0.0
 10
120.8177761199692
 20
-162.0400661487261
 30
0.0
 10
120.8177761199692
 20
-161.6335448814666
 30
0.0
 10
120.8177761199692
 20
-161.6335448814666
 30
0.0
 10
120.635875078348
 20
-161.7586018475812
 30
0.0
 10
120.4412271834314
 20
-161.8685003935607
 30
0.0
 10
120.2379665498016
 20
-161.955316799789
 30
0.0
 10
120.2379665498016
 20
-161.955316799789
 30
0.0
 10
120.0350504257204
 20
-161.7923637833366
 30
0.0
 10
120.0350504257204
 20
-161.7923637833366
 30
0.0
 10
120.1576958249953
 20
-161.75653479029
 30
0.0
 10
120.4136664195494
 20
-161.6824652373572
 30
0.0
 10
120.7585204776229
 20
-161.4264946428031
 30
0.0
 10
120.9741834549995
 20
-161.2676757409331
 30
0.0
 10
121.166764292625
 20
-161.0795735274384
 30
0.0
 10
121.319037513073
 20
-160.859431925931
 30
0.0
 10
121.319037513073
 20
-160.859431925931
 30
0.0
 10
121.5116183506985
 20
-161.0034369172144
 30
0.0
 10
121.5116183506985
 20
-161.0034369172144
 30
0.0
 10
121.5243652039939
 20
-161.0141167132187
 30
0.0
 10
121.5326334331585
 20
-161.0285861142567
 30
0.0
 10
121.5326334331585
 20
-161.0416774771007
 30
0.0
 10
121.5326334331585
 20
-161.0816405847296
 30
0.0
 10
121.4947373828208
 20
-161.0816405847296
 30
0.0
 10
121.4289360590525
 20
-161.0857746993119
 30
0.0
  0
HATCH
  5
138
330
FF
100
AcDbEntity
  8
_U+30EC_U+30A4_U+30E4_U+30FC 1
 62
     7
420
 16777215
100
AcDbHatch
 10
0.0
 20
0.0
 30
0.0
210
0.0
220
0.0
230
1.0
  2
SOLID
 70
     1
 71
     0
 91
        1
 92
        1
 93
        1
 72
     4
 94
        3
 73
     0
 74
     1
 95
       50
 96
       46
 40
0.0
 40
0.0
 40
0.0
 40
0.0
 40
1.0
 40
1.0
 40
1.0
 40
2.0
 40
2.0
 40
2.0
 40
3.0
 40
3.0
 40
3.0
 40
4.0
 40
4.0
 40
4.0
 40
5.0
 40
5.0
 40
5.0
 40
6.0
 40
6.0
 40
6.0
 40
7.0
 40
7.0
 40
7.0
 40
8.0
 40
8.0
 40
8.0
 40
9.0
 40
9.0
 40
9.0
 40
10.0
 40
10.0
 40
10.0
 40
11.0
 40
11.0
 40
11.0
 40
12.0
 40
12.0
 40
12.0
 40
13.0
 40
13.0
 40
13.0
 40
14.0
 40
14.0
 40
14.0
 40
15.0
 40
15.0
 40
15.0
 40
15.0
 10
121.4289360590525
 20
-161.0857746993119
 10
121.2194742535493
 20
-161.2993706193974
 10
121.1478162674561
 20
-161.3717176245876
 10
121.0058783334638
 20
-161.4898843997317
 10
121.0058783334638
 20
-161.4898843997317
 10
121.0058783334638
 20
-162.0569471166038
 10
121.0058783334638
 20
-162.0569471166038
 10
121.0058783334638
 20
-162.2071532797607
 10
121.0124240148858
 20
-162.2261013049296
 10
121.0165581294681
 20
-162.4038682319685
 10
121.0186251867592
 20
-162.534781860408
 10
121.0248263586327
 20
-162.5837022162985
 10
121.0313720400547
 20
-162.6429578586448
 10
121.0313720400547
 20
-162.6429578586448
 10
120.8050292666737
 20
-162.6429578586448
 10
120.8050292666737
 20
-162.6429578586448
 10
120.809163381256
 20
-162.5985161268851
 10
120.8132974958383
 20
-162.5520073378342
 10
120.8132974958383
 20
-162.5433945991211
 10
120.8132974958383
 20
-162.4631238743148
 10
120.8177761199692
 20
-162.1117241348193
 10
120.8177761199692
 20
-162.0400661487261
 10
120.8177761199692
 20
-162.0400661487261
 10
120.8177761199692
 20
-161.6335448814666
 10
120.8177761199692
 20
-161.6335448814666
 10
120.635875078348
 20
-161.7586018475812
 10
120.4412271834314
 20
-161.8685003935607
 10
120.2379665498016
 20
-161.955316799789
 10
120.2379665498016
 20
-161.955316799789
 10
120.0350504257204
 20
-161.7923637833366
 10
120.0350504257204
 20
-161.7923637833366
 10
120.1576958249953
 20
-161.75653479029
 10
120.4136664195494
 20
-161.6824652373572
 10
120.7585204776229
 20
-161.4264946428031
 10
120.9741834549995
 20
-161.2676757409331
 10
121.166764292625
 20
-161.0795735274384
 10
121.319037513073
 20
-160.859431925931
 10
121.319037513073
 20
-160.859431925931
 10
121.5116183506985
 20
-161.0034369172144
 10
121.5116183506985
 20
-161.0034369172144
 10
121.5243652039939
 20
-161.0141167132187
 10
121.5326334331585
 20
-161.0285861142567
 10
121.5326334331585
 20
-161.0416774771007
 10
121.5326334331585
 20
-161.0816405847296
 10
121.4947373828208
 20
-161.0816405847296
 10
121.4289360590525
 20
-161.0857746993119
 97
        0
 97
        0
 75
     2
 76
     1
 98
        0
  0
SPLINE
  5
139
330
FF
100
AcDbEntity
  8
_U+30EC_U+30A4_U+30E4_U+30FC 1
370
     0
100
AcDbSpline
210
0.0
220
0.0
230
1.0
 70
    11
 71
     3
 72
    50
 73
    46
 74
     0
 42
0.0000000001
 43
0.0000000001
 12
1.0
 22
0.0
 32
0.0
 13
1.0
 23
0.0
 33
0.0
 40
0.0
 40
0.0
 40
0.0
 40
0.0
 40
1.0
 40
1.0
 40
1.0
 40
2.0
 40
2.0
 40
2.0
 40
3.0
 40
3.0
 40
3.0
 40
4.0
 40
4.0
 40
4.0
 40
5.0
 40
5.0
 40
5.0
 40
6.0
 40
6.0
 40
6.0
 40
7.0
 40
7.0
 40
7.0
 40
8.0
 40
8.0
 40
8.0
 40
9.0
 40
9.0
 40
9.0
 40
10.0
 40
10.0
 40
10.0
 40
11.0
 40
11.0
 40
11.0
 40
12.0
 40
12.0
 40
12.0
 40
13.0
 40
13.0
 40
13.0
 40
14.0
 40
14.0
 40
14.0
 40
15.0
 40
15.0
 40
15.0
 40
15.0
 10
123.1373589101879
 20
-161.6128743085551
 30
0.0
 10
123.0760362105504
 20
-161.6845322946483
 30
0.0
 10
122.8155869918656
 20
-162.0018255888398
 30
0.0
 10
122.7587429163589
 20
-162.065559855317
 30
0.0
 10
122.8431477557476
 20
-162.162711548001
 30
0.0
 10
122.8941351689293
 20
-162.2261013049296
 30
0.0
 10
122.959591983149
 20
-162.3170518257402
 30
0.0
 10
122.959591983149
 20
-162.3170518257402
 30
0.0
 10
122.7756238842367
 20
-162.4548556451502
 30
0.0
 10
122.7756238842367
 20
-162.4548556451502
 30
0.0
 10
122.6402316316663
 20
-162.2429822728073
 30
0.0
 10
122.4686658765009
 20
-162.0187065567175
 30
0.0
 10
122.1747992316091
 20
-161.8199245472186
 30
0.0
 10
122.1747992316091
 20
-161.8199245472186
 30
0.0
 10
122.3229383374748
 20
-161.6655842694794
 30
0.0
 10
122.3229383374748
 20
-161.6655842694794
 30
0.0
 10
122.4328368834543
 20
-161.7458549942858
 30
0.0
 10
122.5365342575603
 20
-161.8347384578052
 30
0.0
 10
122.6336859502444
 20
-161.9298230931981
 30
0.0
 10
122.7015543313038
 20
-161.8540309925226
 30
0.0
 10
122.904470455385
 20
-161.6104627417155
 30
0.0
 10
123.0377956506642
 20
-161.3820529110434
 30
0.0
 10
123.0377956506642
 20
-161.3820529110434
 30
0.0
 10
122.3649685023949
 20
-161.3820529110434
 30
0.0
 10
122.3649685023949
 20
-161.3820529110434
 30
0.0
 10
122.2402560458288
 20
-161.3820529110434
 30
0.0
 10
121.9884195658571
 20
-161.390321140208
 30
0.0
 10
121.7789577603539
 20
-161.4010009362123
 30
0.0
 10
121.7789577603539
 20
-161.4010009362123
 30
0.0
 10
121.7789577603539
 20
-161.1808593347048
 30
0.0
 10
121.7789577603539
 20
-161.1808593347048
 30
0.0
 10
121.9632703688147
 20
-161.2001518694222
 30
0.0
 10
122.1682535501871
 20
-161.2042859840045
 30
0.0
 10
122.3567002732303
 20
-161.2042859840045
 30
0.0
 10
122.3567002732303
 20
-161.2042859840045
 30
0.0
 10
122.8600287236253
 20
-161.2042859840045
 30
0.0
 10
122.8600287236253
 20
-161.2042859840045
 30
0.0
 10
123.1986816098253
 20
-161.2042859840045
 30
0.0
 10
123.2431233415851
 20
-161.1894720734179
 30
0.0
 10
123.3254611236825
 20
-161.1491644562405
 30
0.0
 10
123.3254611236825
 20
-161.1491644562405
 30
0.0
 10
123.4925482547171
 20
-161.3079833581105
 30
0.0
 10
123.4925482547171
 20
-161.3079833581105
 30
0.0
 10
123.3402750342691
 20
-161.3799858537522
 30
0.0
 10
123.1966145525342
 20
-161.542594360656
 30
0.0
 10
123.1373589101879
 20
-161.6128743085551
 30
0.0
  0
HATCH
  5
13A
330
FF
100
AcDbEntity
  8
_U+30EC_U+30A4_U+30E4_U+30FC 1
 62
     7
420
 16777215
100
AcDbHatch
 10
0.0
 20
0.0
 30
0.0
210
0.0
220
0.0
230
1.0
  2
SOLID
 70
     1
 71
     0
 91
        1
 92
        1
 93
        1
 72
     4
 94
        3
 73
     0
 74
     1
 95
       50
 96
       46
 40
0.0
 40
0.0
 40
0.0
 40
0.0
 40
1.0
 40
1.0
 40
1.0
 40
2.0
 40
2.0
 40
2.0
 40
3.0
 40
3.0
 40
3.0
 40
4.0
 40
4.0
 40
4.0
 40
5.0
 40
5.0
 40
5.0
 40
6.0
 40
6.0
 40
6.0
 40
7.0
 40
7.0
 40
7.0
 40
8.0
 40
8.0
 40
8.0
 40
9.0
 40
9.0
 40
9.0
 40
10.0
 40
10.0
 40
10.0
 40
11.0
 40
11.0
 40
11.0
 40
12.0
 40
12.0
 40
12.0
 40
13.0
 40
13.0
 40
13.0
 40
14.0
 40
14.0
 40
14.0
 40
15.0
 40
15.0
 40
15.0
 40
15.0
 10
123.1373589101879
 20
-161.6128743085551
 10
123.0760362105504
 20
-161.6845322946483
 10
122.8155869918656
 20
-162.0018255888398
 10
122.7587429163589
 20
-162.065559855317
 10
122.8431477557476
 20
-162.162711548001
 10
122.8941351689293
 20
-162.2261013049296
 10
122.959591983149
 20
-162.3170518257402
 10
122.959591983149
 20
-162.3170518257402
 10
122.7756238842367
 20
-162.4548556451502
 10
122.7756238842367
 20
-162.4548556451502
 10
122.6402316316663
 20
-162.2429822728073
 10
122.4686658765009
 20
-162.0187065567175
 10
122.1747992316091
 20
-161.8199245472186
 10
122.1747992316091
 20
-161.8199245472186
 10
122.3229383374748
 20
-161.6655842694794
 10
122.3229383374748
 20
-161.6655842694794
 10
122.4328368834543
 20
-161.7458549942858
 10
122.5365342575603
 20
-161.8347384578052
 10
122.6336859502444
 20
-161.9298230931981
 10
122.7015543313038
 20
-161.8540309925226
 10
122.904470455385
 20
-161.6104627417155
 10
123.0377956506642
 20
-161.3820529110434
 10
123.0377956506642
 20
-161.3820529110434
 10
122.3649685023949
 20
-161.3820529110434
 10
122.3649685023949
 20
-161.3820529110434
 10
122.2402560458288
 20
-161.3820529110434
 10
121.9884195658571
 20
-161.390321140208
 10
121.7789577603539
 20
-161.4010009362123
 10
121.7789577603539
 20
-161.4010009362123
 10
121.7789577603539
 20
-161.1808593347048
 10
121.7789577603539
 20
-161.1808593347048
 10
121.9632703688147
 20
-161.2001518694222
 10
122.1682535501871
 20
-161.2042859840045
 10
122.3567002732303
 20
-161.2042859840045
 10
122.3567002732303
 20
-161.2042859840045
 10
122.8600287236253
 20
-161.2042859840045
 10
122.8600287236253
 20
-161.2042859840045
 10
123.1986816098253
 20
-161.2042859840045
 10
123.2431233415851
 20
-161.1894720734179
 10
123.3254611236825
 20
-161.1491644562405
 10
123.3254611236825
 20
-161.1491644562405
 10
123.4925482547171
 20
-161.3079833581105
 10
123.4925482547171
 20
-161.3079833581105
 10
123.3402750342691
 20
-161.3799858537522
 10
123.1966145525342
 20
-161.542594360656
 10
123.1373589101879
 20
-161.6128743085551
 97
        0
 97
        0
 75
     2
 76
     1
 98
        0
  0
SPLINE
  5
13B
330
FF
100
AcDbEntity
  8
_U+30EC_U+30A4_U+30E4_U+30FC 1
370
     0
100
AcDbSpline
210
0.0
220
0.0
230
1.0
 70
    11
 71
     3
 72
    29
 73
    25
 74
     0
 42
0.0000000001
 43
0.0000000001
 12
1.0
 22
0.0
 32
0.0
 13
1.0
 23
0.0
 33
0.0
 40
0.0
 40
0.0
 40
0.0
 40
0.0
 40
1.0
 40
1.0
 40
1.0
 40
2.0
 40
2.0
 40
2.0
 40
3.0
 40
3.0
 40
3.0
 40
4.0
 40
4.0
 40
4.0
 40
5.0
 40
5.0
 40
5.0
 40
6.0
 40
6.0
 40
6.0
 40
7.0
 40
7.0
 40
7.0
 40
8.0
 40
8.0
 40
8.0
 40
8.0
 10
124.7610324123861
 20
-161.8560980498138
 30
0.0
 10
124.7610324123861
 20
-161.8560980498138
 30
0.0
 10
124.27665198716
 20
-161.8560980498138
 30
0.0
 10
124.27665198716
 20
-161.8560980498138
 30
0.0
 10
124.249091223278
 20
-161.8560980498138
 30
0.0
 10
123.9317979290865
 20
-161.8560980498138
 30
0.0
 10
123.7202690662922
 20
-161.8812472468561
 30
0.0
 10
123.7202690662922
 20
-161.8812472468561
 30
0.0
 10
123.7202690662922
 20
-161.6507703588929
 30
0.0
 10
123.7202690662922
 20
-161.6507703588929
 30
0.0
 10
123.8787434586137
 20
-161.6741970081926
 30
0.0
 10
124.069257238948
 20
-161.6762640654837
 30
0.0
 10
124.27665198716
 20
-161.6762640654837
 30
0.0
 10
124.27665198716
 20
-161.6762640654837
 30
0.0
 10
124.7610324123861
 20
-161.6762640654837
 30
0.0
 10
124.7610324123861
 20
-161.6762640654837
 30
0.0
 10
124.9470675685896
 20
-161.6762640654837
 30
0.0
 10
125.1334472343416
 20
-161.6741970081926
 30
0.0
 10
125.317415333254
 20
-161.6507703588929
 30
0.0
 10
125.317415333254
 20
-161.6507703588929
 30
0.0
 10
125.317415333254
 20
-161.8812472468561
 30
0.0
 10
125.317415333254
 20
-161.8812472468561
 30
0.0
 10
125.1334472343416
 20
-161.8581651071049
 30
0.0
 10
124.8857448689522
 20
-161.8560980498138
 30
0.0
 10
124.7610324123861
 20
-161.8560980498138
 30
0.0
  0
HATCH
  5
13C
330
FF
100
AcDbEntity
  8
_U+30EC_U+30A4_U+30E4_U+30FC 1
 62
     7
420
 16777215
100
AcDbHatch
 10
0.0
 20
0.0
 30
0.0
210
0.0
220
0.0
230
1.0
  2
SOLID
 70
     1
 71
     0
 91
        1
 92
        1
 93
        1
 72
     4
 94
        3
 73
     0
 74
     1
 95
       29
 96
       25
 40
0.0
 40
0.0
 40
0.0
 40
0.0
 40
1.0
 40
1.0
 40
1.0
 40
2.0
 40
2.0
 40
2.0
 40
3.0
 40
3.0
 40
3.0
 40
4.0
 40
4.0
 40
4.0
 40
5.0
 40
5.0
 40
5.0
 40
6.0
 40
6.0
 40
6.0
 40
7.0
 40
7.0
 40
7.0
 40
8.0
 40
8.0
 40
8.0
 40
8.0
 10
124.7610324123861
 20
-161.8560980498138
 10
124.7610324123861
 20
-161.8560980498138
 10
124.27665198716
 20
-161.8560980498138
 10
124.27665198716
 20
-161.8560980498138
 10
124.249091223278
 20
-161.8560980498138
 10
123.9317979290865
 20
-161.8560980498138
 10
123.7202690662922
 20
-161.8812472468561
 10
123.7202690662922
 20
-161.8812472468561
 10
123.7202690662922
 20
-161.6507703588929
 10
123.7202690662922
 20
-161.6507703588929
 10
123.8787434586137
 20
-161.6741970081926
 10
124.069257238948
 20
-161.6762640654837
 10
124.27665198716
 20
-161.6762640654837
 10
124.27665198716
 20
-161.6762640654837
 10
124.7610324123861
 20
-161.6762640654837
 10
124.7610324123861
 20
-161.6762640654837
 10
124.9470675685896
 20
-161.6762640654837
 10
125.1334472343416
 20
-161.6741970081926
 10
125.317415333254
 20
-161.6507703588929
 10
125.317415333254
 20
-161.6507703588929
 10
125.317415333254
 20
-161.8812472468561
 10
125.317415333254
 20
-161.8812472468561
 10
125.1334472343416
 20
-161.8581651071049
 10
124.8857448689522
 20
-161.8560980498138
 10
124.7610324123861
 20
-161.8560980498138
 97
        0
 97
        0
 75
     2
 76
     1
 98
        0
  0
ENDBLK
  5
102
330
FF
100
AcDbEntity
  8
0
100
AcDbBlockEnd
  0
ENDSEC
  0
SECTION
  2
ENTITIES
  0
POLYLINE
  5
41
330
1F
100
AcDbEntity
  8
_U+30EC_U+30A4_U+30E4_U+30FC 1
 62
     7
420
 16777215
370
    25
100
AcDb2dPolyline
 66
     1
 10
0.0
 20
0.0
 30
0.0
  0
VERTEX
  5
42
330
41
100
AcDbEntity
  8
_U+30EC_U+30A4_U+30E4_U+30FC 1
 62
     7
420
 16777215
370
    25
100
AcDbVertex
100
AcDb2dVertex
 10
90.23049908691708
 20
-141.493169409071
 30
0.0
  0
VERTEX
  5
43
330
41
100
AcDbEntity
  8
_U+30EC_U+30A4_U+30E4_U+30FC 1
 62
     7
420
 16777215
370
    25
100
AcDbVertex
100
AcDb2dVertex
 10
97.33015168356764
 20
-141.493169409071
 30
0.0
  0
SEQEND
  5
44
330
41
100
AcDbEntity
  8
_U+30EC_U+30A4_U+30E4_U+30FC 1
 62
     7
420
 16777215
370
    25
  0
POLYLINE
  5
45
330
1F
100
AcDbEntity
  8
_U+30EC_U+30A4_U+30E4_U+30FC 1
 62
     7
420
 16777215
370
    25
100
AcDb2dPolyline
 66
     1
 10
0.0
 20
0.0
 30
0.0
  0
VERTEX
  5
46
330
45
100
AcDbEntity
  8
_U+30EC_U+30A4_U+30E4_U+30FC 1
 62
     7
420
 16777215
370
    25
100
AcDbVertex
100
AcDb2dVertex
 10
96.23047282273389
 20
-142.4929416310436
 30
0.0
  0
VERTEX
  5
47
330
45
100
AcDbEntity
  8
_U+30EC_U+30A4_U+30E4_U+30FC 1
 62
     7
420
 16777215
370
    25
100
AcDbVertex
100
AcDb2dVertex
 10
96.23047282273389
 20
-154.993128294585
 30
0.0
  0
SEQEND
  5
48
330
45
100
AcDbEntity
  8
_U+30EC_U+30A4_U+30E4_U+30FC 1
 62
     7
420
 16777215
370
    25
  0
POLYLINE
  5
49
330
1F
100
AcDbEntity
  8
_U+30EC_U+30A4_U+30E4_U+30FC 1
 62
     7
420
 16777215
370
    25
100
AcDb2dPolyline
 66
     1
 10
0.0
 20
0.0
 30
0.0
  0
VERTEX
  5
4A
330
49
100
AcDbEntity
  8
_U+30EC_U+30A4_U+30E4_U+30FC 1
 62
     7
420
 16777215
370
    25
100
AcDbVertex
100
AcDb2dVertex
 10
90.23049908691708
 20
-141.493169409071
 30
0.0
  0
VERTEX
  5
4B
330
49
100
AcDbEntity
  8
_U+30EC_U+30A4_U+30E4_U+30FC 1
 62
     7
420
 16777215
370
    25
100
AcDbVertex
100
AcDb2dVertex
 10
90.23049908691708
 20
-142.4929416310436
 30
0.0
  0
SEQEND
  5
4C
330
49
100
AcDbEntity
  8
_U+30EC_U+30A4_U+30E4_U+30FC 1
 62
     7
420
 16777215
370
    25
  0
POLYLINE
  5
4D
330
1F
100
AcDbEntity
  8
_U+30EC_U+30A4_U+30E4_U+30FC 1
 62
     7
420
 16777215
370
    25
100
AcDb2dPolyline
 66
     1
 10
0.0
 20
0.0
 30
0.0
  0
VERTEX
  5
4E
330
4D
100
AcDbEntity
  8
_U+30EC_U+30A4_U+30E4_U+30FC 1
 62
     7
420
 16777215
370
    25
100
AcDbVertex
100
AcDb2dVertex
 10
97.33015168356764
 20
-141.493169409071
 30
0.0
  0
VERTEX
  5
4F
330
4D
100
AcDbEntity
  8
_U+30EC_U+30A4_U+30E4_U+30FC 1
 62
     7
420
 16777215
370
    25
100
AcDbVertex
100
AcDb2dVertex
 10
97.33015168356764
 20
-153.8934494059708
 30
0.0
  0
SEQEND
  5
50
330
4D
100
AcDbEntity
  8
_U+30EC_U+30A4_U+30E4_U+30FC 1
 62
     7
420
 16777215
370
    25
  0
POLYLINE
  5
51
330
1F
100
AcDbEntity
  8
_U+30EC_U+30A4_U+30E4_U+30FC 1
 62
     7
420
 16777215
370
    25
100
AcDb2dPolyline
 66
     1
 10
0.0
 20
0.0
 30
0.0
  0
VERTEX
  5
52
330
51
100
AcDbEntity
  8
_U+30EC_U+30A4_U+30E4_U+30FC 1
 62
     7
420
 16777215
370
    25
100
AcDbVertex
100
AcDb2dVertex
 10
113.2306571112453
 20
-153.8934494059708
 30
0.0
  0
VERTEX
  5
53
330
51
100
AcDbEntity
  8
_U+30EC_U+30A4_U+30E4_U+30FC 1
 62
     7
420
 16777215
370
    25
100
AcDbVertex
100
AcDb2dVertex
 10
113.2306571112453
 20
-154.293076072538
 30
0.0
  0
SEQEND
  5
54
330
51
100
AcDbEntity
  8
_U+30EC_U+30A4_U+30E4_U+30FC 1
 62
     7
420
 16777215
370
    25
  0
POLYLINE
  5
55
330
1F
100
AcDbEntity
  8
_U+30EC_U+30A4_U+30E4_U+30FC 1
 62
     7
420
 16777215
370
    25
100
AcDb2dPolyline
 66
     1
 10
0.0
 20
0.0
 30
0.0
  0
VERTEX
  5
56
330
55
100
AcDbEntity
  8
_U+30EC_U+30A4_U+30E4_U+30FC 1
 62
     7
420
 16777215
370
    25
100
AcDbVertex
100
AcDb2dVertex
 10
97.33015168356764
 20
-153.8934494059708
 30
0.0
  0
VERTEX
  5
57
330
55
100
AcDbEntity
  8
_U+30EC_U+30A4_U+30E4_U+30FC 1
 62
     7
420
 16777215
370
    25
100
AcDbVertex
100
AcDb2dVertex
 10
113.2306571112453
 20
-153.8934494059708
 30
0.0
  0
SEQEND
  5
58
330
55
100
AcDbEntity
  8
_U+30EC_U+30A4_U+30E4_U+30FC 1
 62
     7
420
 16777215
370
    25
  0
POLYLINE
  5
59
330
1F
100
AcDbEntity
  8
_U+30EC_U+30A4_U+30E4_U+30FC 1
 62
     7
420
 16777215
370
    25
100
AcDb2dPolyline
 66
     1
 10
0.0
 20
0.0
 30
0.0
  0
VERTEX
  5
5A
330
59
100
AcDbEntity
  8
_U+30EC_U+30A4_U+30E4_U+30FC 1
 62
     7
420
 16777215
370
    25
100
AcDbVertex
100
AcDb2dVertex
 10
113.2306571112453
 20
-154.293076072538
 30
0.0
  0
VERTEX
  5
5B
330
59
100
AcDbEntity
  8
_U+30EC_U+30A4_U+30E4_U+30FC 1
 62
     7
420
 16777215
370
    25
100
AcDbVertex
100
AcDb2dVertex
 10
96.23047282273389
 20
-154.993128294585
 30
0.0
  0
SEQEND
  5
5C
330
59
100
AcDbEntity
  8
_U+30EC_U+30A4_U+30E4_U+30FC 1
 62
     7
420
 16777215
370
    25
  0
POLYLINE
  5
5D
330
1F
100
AcDbEntity
  8
_U+30EC_U+30A4_U+30E4_U+30FC 1
 62
     7
420
 16777215
370
    25
100
AcDb2dPolyline
 66
     1
 10
0.0
 20
0.0
 30
0.0
  0
VERTEX
  5
5E
330
5D
100
AcDbEntity
  8
_U+30EC_U+30A4_U+30E4_U+30FC 1
 62
     7
420
 16777215
370
    25
100
AcDbVertex
100
AcDb2dVertex
 10
90.23049908691708
 20
-142.4929416310436
 30
0.0
  0
VERTEX
  5
5F
330
5D
100
AcDbEntity
  8
_U+30EC_U+30A4_U+30E4_U+30FC 1
 62
     7
420
 16777215
370
    25
100
AcDbVertex
100
AcDb2dVertex
 10
96.23047282273389
 20
-142.4929416310436
 30
0.0
  0
SEQEND
  5
60
330
5D
100
AcDbEntity
  8
_U+30EC_U+30A4_U+30E4_U+30FC 1
 62
     7
420
 16777215
370
    25
  0
SPLINE
  5
61
330
1F
100
AcDbEntity
  8
_U+30EC_U+30A4_U+30E4_U+30FC 1
 62
     7
420
 16777215
370
     9
100
AcDbSpline
210
0.0
220
0.0
230
1.0
 70
    11
 71
     3
 72
    17
 73
    13
 74
     0
 42
0.0000000001
 43
0.0000000001
 12
1.0
 22
0.0
 32
0.0
 13
1.0
 23
0.0
 33
0.0
 40
0.0
 40
0.0
 40
0.0
 40
0.0
 40
1.0
 40
1.0
 40
1.0
 40
2.0
 40
2.0
 40
2.0
 40
3.0
 40
3.0
 40
3.0
 40
4.0
 40
4.0
 40
4.0
 40
4.0
 10
117.3302875622105
 20
-141.493169409071
 30
0.0
 10
117.3302875622105
 20
-141.4373599646406
 30
0.0
 10
117.2855200633526
 20
-141.3932627424294
 30
0.0
 10
117.2303808980927
 20
-141.3932627424294
 30
0.0
 10
117.1752770106096
 20
-141.3932627424294
 30
0.0
 10
117.1304742339749
 20
-141.4373599646406
 30
0.0
 10
117.1304742339749
 20
-141.493169409071
 30
0.0
 10
117.1304742339749
 20
-141.5483085757241
 30
0.0
 10
117.1752770106096
 20
-141.593076075713
 30
0.0
 10
117.2303808980927
 20
-141.593076075713
 30
0.0
 10
117.2855200633526
 20
-141.593076075713
 30
0.0
 10
117.3302875622105
 20
-141.5483085757241
 30
0.0
 10
117.3302875622105
 20
-141.493169409071
 30
0.0
  0
SPLINE
  5
62
330
1F
100
AcDbEntity
  8
_U+30EC_U+30A4_U+30E4_U+30FC 1
 62
     7
420
 16777215
370
     9
100
AcDbSpline
210
0.0
220
0.0
230
1.0
 70
    11
 71
     3
 72
    17
 73
    13
 74
     0
 42
0.0000000001
 43
0.0000000001
 12
1.0
 22
0.0
 32
0.0
 13
1.0
 23
0.0
 33
0.0
 40
0.0
 40
0.0
 40
0.0
 40
0.0
 40
1.0
 40
1.0
 40
1.0
 40
2.0
 40
2.0
 40
2.0
 40
3.0
 40
3.0
 40
3.0
 40
4.0
 40
4.0
 40
4.0
 40
4.0
 10
117.3302875622105
 20
-153.8934494059708
 30
0.0
 10
117.3302875622105
 20
-153.8376399615404
 30
0.0
 10
117.2855200633526
 20
-153.7928371837743
 30
0.0
 10
117.2303808980927
 20
-153.7928371837743
 30
0.0
 10
117.1752770106096
 20
-153.7928371837743
 30
0.0
 10
117.1304742339749
 20
-153.8376399615404
 30
0.0
 10
117.1304742339749
 20
-153.8934494059708
 30
0.0
 10
117.1304742339749
 20
-153.9485532948464
 30
0.0
 10
117.1752770106096
 20
-153.9933560726131
 30
0.0
 10
117.2303808980927
 20
-153.9933560726131
 30
0.0
 10
117.2855200633526
 20
-153.9933560726131
 30
0.0
 10
117.3302875622105
 20
-153.9485532948464
 30
0.0
 10
117.3302875622105
 20
-153.8934494059708
 30
0.0
  0
SPLINE
  5
63
330
1F
100
AcDbEntity
  8
_U+30EC_U+30A4_U+30E4_U+30FC 1
 62
     7
420
 16777215
370
     9
100
AcDbSpline
210
0.0
220
0.0
230
1.0
 70
    11
 71
     3
 72
    17
 73
    13
 74
     0
 42
0.0000000001
 43
0.0000000001
 12
1.0
 22
0.0
 32
0.0
 13
1.0
 23
0.0
 33
0.0
 40
0.0
 40
0.0
 40
0.0
 40
0.0
 40
1.0
 40
1.0
 40
1.0
 40
2.0
 40
2.0
 40
2.0
 40
3.0
 40
3.0
 40
3.0
 40
4.0
 40
4.0
 40
4.0
 40
4.0
 10
117.3302875622105
 20
-154.293076072538
 30
0.0
 10
117.3302875622105
 20
-154.2379721836624
 30
0.0
 10
117.2855200633526
 20
-154.1931694058964
 30
0.0
 10
117.2303808980927
 20
-154.1931694058964
 30
0.0
 10
117.1752770106096
 20
-154.1931694058964
 30
0.0
 10
117.1304742339749
 20
-154.2379721836624
 30
0.0
 10
117.1304742339749
 20
-154.293076072538
 30
0.0
 10
117.1304742339749
 20
-154.3482152391904
 30
0.0
 10
117.1752770106096
 20
-154.3929827391796
 30
0.0
 10
117.2303808980927
 20
-154.3929827391796
 30
0.0
 10
117.2855200633526
 20
-154.3929827391796
 30
0.0
 10
117.3302875622105
 20
-154.3482152391904
 30
0.0
 10
117.3302875622105
 20
-154.293076072538
 30
0.0
  0
SPLINE
  5
64
330
1F
100
AcDbEntity
  8
_U+30EC_U+30A4_U+30E4_U+30FC 1
 62
     7
420
 16777215
370
     9
100
AcDbSpline
210
0.0
220
0.0
230
1.0
 70
    11
 71
     3
 72
    17
 73
    13
 74
     0
 42
0.0000000001
 43
0.0000000001
 12
1.0
 22
0.0
 32
0.0
 13
1.0
 23
0.0
 33
0.0
 40
0.0
 40
0.0
 40
0.0
 40
0.0
 40
1.0
 40
1.0
 40
1.0
 40
2.0
 40
2.0
 40
2.0
 40
3.0
 40
3.0
 40
3.0
 40
4.0
 40
4.0
 40
4.0
 40
4.0
 10
113.3305666383342
 20
-158.9928874602519
 30
0.0
 10
113.3305666383342
 20
-158.9377482935988
 30
0.0
 10
113.2857638605675
 20
-158.8929807936102
 30
0.0
 10
113.2306571112453
 20
-158.8929807936102
 30
0.0
 10
113.1748123904478
 20
-158.8929807936102
 30
0.0
 10
113.1300448915899
 20
-158.9377482935988
 30
0.0
 10
113.1300448915899
 20
-158.9928874602519
 30
0.0
 10
113.1300448915899
 20
-159.0479913491268
 30
0.0
 10
113.1748123904478
 20
-159.0927941268935
 30
0.0
 10
113.2306571112453
 20
-159.0927941268935
 30
0.0
 10
113.2857638605675
 20
-159.0927941268935
 30
0.0
 10
113.3305666383342
 20
-159.0479913491268
 30
0.0
 10
113.3305666383342
 20
-158.9928874602519
 30
0.0
  0
SPLINE
  5
65
330
1F
100
AcDbEntity
  8
_U+30EC_U+30A4_U+30E4_U+30FC 1
 62
     7
420
 16777215
370
     9
100
AcDbSpline
210
0.0
220
0.0
230
1.0
 70
    11
 71
     3
 72
    17
 73
    13
 74
     0
 42
0.0000000001
 43
0.0000000001
 12
1.0
 22
0.0
 32
0.0
 13
1.0
 23
0.0
 33
0.0
 40
0.0
 40
0.0
 40
0.0
 40
0.0
 40
1.0
 40
1.0
 40
1.0
 40
2.0
 40
2.0
 40
2.0
 40
3.0
 40
3.0
 40
3.0
 40
4.0
 40
4.0
 40
4.0
 40
4.0
 10
90.33040575103492
 20
-158.9928874602519
 30
0.0
 10
90.33040575103492
 20
-158.9377482935988
 30
0.0
 10
90.28560297440015
 20
-158.8929807936102
 30
0.0
 10
90.23049908691708
 20
-158.8929807936102
 30
0.0
 10
90.17468964389646
 20
-158.8929807936102
 30
0.0
 10
90.13059242279924
 20
-158.9377482935988
 30
0.0
 10
90.13059242279924
 20
-158.9928874602519
 30
0.0
 10
90.13059242279924
 20
-159.0479913491268
 30
0.0
 10
90.17468964389646
 20
-159.0927941268935
 30
0.0
 10
90.23049908691708
 20
-159.0927941268935
 30
0.0
 10
90.28560297440015
 20
-159.0927941268935
 30
0.0
 10
90.33040575103492
 20
-159.0479913491268
 30
0.0
 10
90.33040575103492
 20
-158.9928874602519
 30
0.0
  0
SPLINE
  5
66
330
1F
100
AcDbEntity
  8
_U+30EC_U+30A4_U+30E4_U+30FC 1
 62
     7
420
 16777215
370
     9
100
AcDbSpline
210
0.0
220
0.0
230
1.0
 70
    11
 71
     3
 72
    17
 73
    13
 74
     0
 42
0.0000000001
 43
0.0000000001
 12
1.0
 22
0.0
 32
0.0
 13
1.0
 23
0.0
 33
0.0
 40
0.0
 40
0.0
 40
0.0
 40
0.0
 40
1.0
 40
1.0
 40
1.0
 40
2.0
 40
2.0
 40
2.0
 40
3.0
 40
3.0
 40
3.0
 40
4.0
 40
4.0
 40
4.0
 40
4.0
 10
88.10212025232765
 20
-141.493169409071
 30
0.0
 10
88.10212025232765
 20
-141.4373599646406
 30
0.0
 10
88.0573174756929
 20
-141.3932627424294
 30
0.0
 10
88.00221358820983
 20
-141.3932627424294
 30
0.0
 10
87.94640414518919
 20
-141.3932627424294
 30
0.0
 10
87.90160136855444
 20
-141.4373599646406
 30
0.0
 10
87.90160136855444
 20
-141.493169409071
 30
0.0
 10
87.90160136855444
 20
-141.5483085757241
 30
0.0
 10
87.94640414518919
 20
-141.593076075713
 30
0.0
 10
88.00221358820983
 20
-141.593076075713
 30
0.0
 10
88.0573174756929
 20
-141.593076075713
 30
0.0
 10
88.10212025232765
 20
-141.5483085757241
 30
0.0
 10
88.10212025232765
 20
-141.493169409071
 30
0.0
  0
SPLINE
  5
67
330
1F
100
AcDbEntity
  8
_U+30EC_U+30A4_U+30E4_U+30FC 1
 62
     7
420
 16777215
370
     9
100
AcDbSpline
210
0.0
220
0.0
230
1.0
 70
    11
 71
     3
 72
    17
 73
    13
 74
     0
 42
0.0000000001
 43
0.0000000001
 12
1.0
 22
0.0
 32
0.0
 13
1.0
 23
0.0
 33
0.0
 40
0.0
 40
0.0
 40
0.0
 40
0.0
 40
1.0
 40
1.0
 40
1.0
 40
2.0
 40
2.0
 40
2.0
 40
3.0
 40
3.0
 40
3.0
 40
4.0
 40
4.0
 40
4.0
 40
4.0
 10
88.10212025232765
 20
-142.4929416310436
 30
0.0
 10
88.10212025232765
 20
-142.4378024643905
 30
0.0
 10
88.0573174756929
 20
-142.3930349644016
 30
0.0
 10
88.00221358820983
 20
-142.3930349644016
 30
0.0
 10
87.94640414518919
 20
-142.3930349644016
 30
0.0
 10
87.90160136855444
 20
-142.4378024643905
 30
0.0
 10
87.90160136855444
 20
-142.4929416310436
 30
0.0
 10
87.90160136855444
 20
-142.5480455199185
 30
0.0
 10
87.94640414518919
 20
-142.5928482976852
 30
0.0
 10
88.00221358820983
 20
-142.5928482976852
 30
0.0
 10
88.0573174756929
 20
-142.5928482976852
 30
0.0
 10
88.10212025232765
 20
-142.5480455199185
 30
0.0
 10
88.10212025232765
 20
-142.4929416310436
 30
0.0
  0
SPLINE
  5
68
330
1F
100
AcDbEntity
  8
_U+30EC_U+30A4_U+30E4_U+30FC 1
 62
     7
420
 16777215
370
     9
100
AcDbSpline
210
0.0
220
0.0
230
1.0
 70
    11
 71
     3
 72
    17
 73
    13
 74
     0
 42
0.0000000001
 43
0.0000000001
 12
1.0
 22
0.0
 32
0.0
 13
1.0
 23
0.0
 33
0.0
 40
0.0
 40
0.0
 40
0.0
 40
0.0
 40
1.0
 40
1.0
 40
1.0
 40
2.0
 40
2.0
 40
2.0
 40
3.0
 40
3.0
 40
3.0
 40
4.0
 40
4.0
 40
4.0
 40
4.0
 10
96.33037948685173
 20
-158.9928874602519
 30
0.0
 10
96.33037948685173
 20
-158.9377482935988
 30
0.0
 10
96.28557671021696
 20
-158.8929807936102
 30
0.0
 10
96.23047282273389
 20
-158.8929807936102
 30
0.0
 10
96.17533608706714
 20
-158.8929807936102
 30
0.0
 10
96.13056615861605
 20
-158.9377482935988
 30
0.0
 10
96.13056615861605
 20
-158.9928874602519
 30
0.0
 10
96.13056615861605
 20
-159.0479913491268
 30
0.0
 10
96.17533608706714
 20
-159.0927941268935
 30
0.0
 10
96.23047282273389
 20
-159.0927941268935
 30
0.0
 10
96.28557671021696
 20
-159.0927941268935
 30
0.0
 10
96.33037948685173
 20
-159.0479913491268
 30
0.0
 10
96.33037948685173
 20
-158.9928874602519
 30
0.0
  0
POLYLINE
  5
69
330
1F
100
AcDbEntity
  8
_U+30EC_U+30A4_U+30E4_U+30FC 1
 62
     7
420
 16777215
370
     9
100
AcDb2dPolyline
 66
     1
 10
0.0
 20
0.0
 30
0.0
  0
VERTEX
  5
6A
330
69
100
AcDbEntity
  8
_U+30EC_U+30A4_U+30E4_U+30FC 1
 62
     7
420
 16777215
370
     9
100
AcDbVertex
100
AcDb2dVertex
 10
90.23049908691708
 20
-158.9928874602519
 30
0.0
  0
VERTEX
  5
6B
330
69
100
AcDbEntity
  8
_U+30EC_U+30A4_U+30E4_U+30FC 1
 62
     7
420
 16777215
370
     9
100
AcDbVertex
100
AcDb2dVertex
 10
96.23047282273389
 20
-158.9928874602519
 30
0.0
  0
SEQEND
  5
6C
330
69
100
AcDbEntity
  8
_U+30EC_U+30A4_U+30E4_U+30FC 1
 62
     7
420
 16777215
370
     9
  0
POLYLINE
  5
6D
330
1F
100
AcDbEntity
  8
_U+30EC_U+30A4_U+30E4_U+30FC 1
 62
     7
420
 16777215
370
     9
100
AcDb2dPolyline
 66
     1
 10
0.0
 20
0.0
 30
0.0
  0
VERTEX
  5
6E
330
6D
100
AcDbEntity
  8
_U+30EC_U+30A4_U+30E4_U+30FC 1
 62
     7
420
 16777215
370
     9
100
AcDbVertex
100
AcDb2dVertex
 10
90.23049908691708
 20
-145.0333649637416
 30
0.0
  0
VERTEX
  5
6F
330
6D
100
AcDbEntity
  8
_U+30EC_U+30A4_U+30E4_U+30FC 1
 62
     7
420
 16777215
370
     9
100
AcDbVertex
100
AcDb2dVertex
 10
90.23049908691708
 20
-159.9933299600018
 30
0.0
  0
SEQEND
  5
70
330
6D
100
AcDbEntity
  8
_U+30EC_U+30A4_U+30E4_U+30FC 1
 62
     7
420
 16777215
370
     9
  0
POLYLINE
  5
71
330
1F
100
AcDbEntity
  8
_U+30EC_U+30A4_U+30E4_U+30FC 1
 62
     7
420
 16777215
370
     9
100
AcDb2dPolyline
 66
     1
 10
0.0
 20
0.0
 30
0.0
  0
VERTEX
  5
72
330
71
100
AcDbEntity
  8
_U+30EC_U+30A4_U+30E4_U+30FC 1
 62
     7
420
 16777215
370
     9
100
AcDbVertex
100
AcDb2dVertex
 10
96.23047282273389
 20
-157.5328460717282
 30
0.0
  0
VERTEX
  5
73
330
71
100
AcDbEntity
  8
_U+30EC_U+30A4_U+30E4_U+30FC 1
 62
     7
420
 16777215
370
     9
100
AcDbVertex
100
AcDb2dVertex
 10
96.23047282273389
 20
-159.9933299600018
 30
0.0
  0
SEQEND
  5
74
330
71
100
AcDbEntity
  8
_U+30EC_U+30A4_U+30E4_U+30FC 1
 62
     7
420
 16777215
370
     9
  0
INSERT
  5
76
330
1F
100
AcDbEntity
  8
_U+30EC_U+30A4_U+30E4_U+30FC 1
100
AcDbBlockReference
  2
block 2
 10
0.0
 20
0.0
 30
0.0
  0
POLYLINE
  5
7C
330
1F
100
AcDbEntity
  8
_U+30EC_U+30A4_U+30E4_U+30FC 1
 62
     7
420
 16777215
370
     9
100
AcDb2dPolyline
 66
     1
 10
0.0
 20
0.0
 30
0.0
  0
VERTEX
  5
7D
330
7C
100
AcDbEntity
  8
_U+30EC_U+30A4_U+30E4_U+30FC 1
 62
     7
420
 16777215
370
     9
100
AcDbVertex
100
AcDb2dVertex
 10
96.23047282273389
 20
-158.9928874602519
 30
0.0
  0
VERTEX
  5
7E
330
7C
100
AcDbEntity
  8
_U+30EC_U+30A4_U+30E4_U+30FC 1
 62
     7
420
 16777215
370
     9
100
AcDbVertex
100
AcDb2dVertex
 10
113.2306571112453
 20
-158.9928874602519
 30
0.0
  0
SEQEND
  5
7F
330
7C
100
AcDbEntity
  8
_U+30EC_U+30A4_U+30E4_U+30FC 1
 62
     7
420
 16777215
370
     9
  0
POLYLINE
  5
80
330
1F
100
AcDbEntity
  8
_U+30EC_U+30A4_U+30E4_U+30FC 1
 62
     7
420
 16777215
370
     9
100
AcDb2dPolyline
 66
     1
 10
0.0
 20
0.0
 30
0.0
  0
VERTEX
  5
81
330
80
100
AcDbEntity
  8
_U+30EC_U+30A4_U+30E4_U+30FC 1
 62
     7
420
 16777215
370
     9
100
AcDbVertex
100
AcDb2dVertex
 10
113.2306571112453
 20
-156.8327938496805
 30
0.0
  0
VERTEX
  5
82
330
80
100
AcDbEntity
  8
_U+30EC_U+30A4_U+30E4_U+30FC 1
 62
     7
420
 16777215
370
     9
100
AcDbVertex
100
AcDb2dVertex
 10
113.2306571112453
 20
-159.9933299600018
 30
0.0
  0
SEQEND
  5
83
330
80
100
AcDbEntity
  8
_U+30EC_U+30A4_U+30E4_U+30FC 1
 62
     7
420
 16777215
370
     9
  0
INSERT
  5
85
330
1F
100
AcDbEntity
  8
_U+30EC_U+30A4_U+30E4_U+30FC 1
100
AcDbBlockReference
  2
block 3
 10
0.0
 20
0.0
 30
0.0
  0
POLYLINE
  5
8C
330
1F
100
AcDbEntity
  8
_U+30EC_U+30A4_U+30E4_U+30FC 1
 62
     7
420
 16777215
370
     9
100
AcDb2dPolyline
 66
     1
 10
0.0
 20
0.0
 30
0.0
  0
VERTEX
  5
8D
330
8C
100
AcDbEntity
  8
_U+30EC_U+30A4_U+30E4_U+30FC 1
 62
     7
420
 16777215
370
     9
100
AcDbVertex
100
AcDb2dVertex
 10
88.00221358820983
 20
-141.493169409071
 30
0.0
  0
VERTEX
  5
8E
330
8C
100
AcDbEntity
  8
_U+30EC_U+30A4_U+30E4_U+30FC 1
 62
     7
420
 16777215
370
     9
100
AcDbVertex
100
AcDb2dVertex
 10
88.00221358820983
 20
-140.4927269093214
 30
0.0
  0
SEQEND
  5
8F
330
8C
100
AcDbEntity
  8
_U+30EC_U+30A4_U+30E4_U+30FC 1
 62
     7
420
 16777215
370
     9
  0
POLYLINE
  5
90
330
1F
100
AcDbEntity
  8
_U+30EC_U+30A4_U+30E4_U+30FC 1
 62
     7
420
 16777215
370
     9
100
AcDb2dPolyline
 66
     1
 10
0.0
 20
0.0
 30
0.0
  0
VERTEX
  5
91
330
90
100
AcDbEntity
  8
_U+30EC_U+30A4_U+30E4_U+30FC 1
 62
     7
420
 16777215
370
     9
100
AcDbVertex
100
AcDb2dVertex
 10
88.00221358820983
 20
-141.493169409071
 30
0.0
  0
VERTEX
  5
92
330
90
100
AcDbEntity
  8
_U+30EC_U+30A4_U+30E4_U+30FC 1
 62
     7
420
 16777215
370
     9
100
AcDbVertex
100
AcDb2dVertex
 10
88.00221358820983
 20
-143.4927138530158
 30
0.0
  0
SEQEND
  5
93
330
90
100
AcDbEntity
  8
_U+30EC_U+30A4_U+30E4_U+30FC 1
 62
     7
420
 16777215
370
     9
  0
POLYLINE
  5
94
330
1F
100
AcDbEntity
  8
_U+30EC_U+30A4_U+30E4_U+30FC 1
 62
     7
420
 16777215
370
     9
100
AcDb2dPolyline
 66
     1
 10
0.0
 20
0.0
 30
0.0
  0
VERTEX
  5
95
330
94
100
AcDbEntity
  8
_U+30EC_U+30A4_U+30E4_U+30FC 1
 62
     7
420
 16777215
370
     9
100
AcDbVertex
100
AcDb2dVertex
 10
89.46154938431239
 20
-141.493169409071
 30
0.0
  0
VERTEX
  5
96
330
94
100
AcDbEntity
  8
_U+30EC_U+30A4_U+30E4_U+30FC 1
 62
     7
420
 16777215
370
     9
100
AcDbVertex
100
AcDb2dVertex
 10
87.00173583595635
 20
-141.493169409071
 30
0.0
  0
SEQEND
  5
97
330
94
100
AcDbEntity
  8
_U+30EC_U+30A4_U+30E4_U+30FC 1
 62
     7
420
 16777215
370
     9
  0
POLYLINE
  5
98
330
1F
100
AcDbEntity
  8
_U+30EC_U+30A4_U+30E4_U+30FC 1
 62
     7
420
 16777215
370
     9
100
AcDb2dPolyline
 66
     1
 10
0.0
 20
0.0
 30
0.0
  0
VERTEX
  5
99
330
98
100
AcDbEntity
  8
_U+30EC_U+30A4_U+30E4_U+30FC 1
 62
     7
420
 16777215
370
     9
100
AcDbVertex
100
AcDb2dVertex
 10
89.46154938431239
 20
-142.4929416310436
 30
0.0
  0
VERTEX
  5
9A
330
98
100
AcDbEntity
  8
_U+30EC_U+30A4_U+30E4_U+30FC 1
 62
     7
420
 16777215
370
     9
100
AcDbVertex
100
AcDb2dVertex
 10
87.00173583595635
 20
-142.4929416310436
 30
0.0
  0
SEQEND
  5
9B
330
98
100
AcDbEntity
  8
_U+30EC_U+30A4_U+30E4_U+30FC 1
 62
     7
420
 16777215
370
     9
  0
INSERT
  5
9D
330
1F
100
AcDbEntity
  8
_U+30EC_U+30A4_U+30E4_U+30FC 1
100
AcDbBlockReference
  2
block 4
 10
0.0
 20
0.0
 30
0.0
  0
POLYLINE
  5
AD
330
1F
100
AcDbEntity
  8
_U+30EC_U+30A4_U+30E4_U+30FC 1
 62
     7
420
 16777215
370
     9
100
AcDb2dPolyline
 66
     1
 10
0.0
 20
0.0
 30
0.0
  0
VERTEX
  5
AE
330
AD
100
AcDbEntity
  8
_U+30EC_U+30A4_U+30E4_U+30FC 1
 62
     7
420
 16777215
370
     9
100
AcDbVertex
100
AcDb2dVertex
 10
117.2303808980927
 20
-141.493169409071
 30
0.0
  0
VERTEX
  5
AF
330
AD
100
AcDbEntity
  8
_U+30EC_U+30A4_U+30E4_U+30FC 1
 62
     7
420
 16777215
370
     9
100
AcDbVertex
100
AcDb2dVertex
 10
117.2303808980927
 20
-153.8934494059708
 30
0.0
  0
SEQEND
  5
B0
330
AD
100
AcDbEntity
  8
_U+30EC_U+30A4_U+30E4_U+30FC 1
 62
     7
420
 16777215
370
     9
  0
POLYLINE
  5
B1
330
1F
100
AcDbEntity
  8
_U+30EC_U+30A4_U+30E4_U+30FC 1
 62
     7
420
 16777215
370
     9
100
AcDb2dPolyline
 66
     1
 10
0.0
 20
0.0
 30
0.0
  0
VERTEX
  5
B2
330
B1
100
AcDbEntity
  8
_U+30EC_U+30A4_U+30E4_U+30FC 1
 62
     7
420
 16777215
370
     9
100
AcDbVertex
100
AcDb2dVertex
 10
99.87057495208937
 20
-141.493169409071
 30
0.0
  0
VERTEX
  5
B3
330
B1
100
AcDbEntity
  8
_U+30EC_U+30A4_U+30E4_U+30FC 1
 62
     7
420
 16777215
370
     9
100
AcDbVertex
100
AcDb2dVertex
 10
118.2301530948086
 20
-141.493169409071
 30
0.0
  0
SEQEND
  5
B4
330
B1
100
AcDbEntity
  8
_U+30EC_U+30A4_U+30E4_U+30FC 1
 62
     7
420
 16777215
370
     9
  0
POLYLINE
  5
B5
330
1F
100
AcDbEntity
  8
_U+30EC_U+30A4_U+30E4_U+30FC 1
 62
     7
420
 16777215
370
     9
100
AcDb2dPolyline
 66
     1
 10
0.0
 20
0.0
 30
0.0
  0
VERTEX
  5
B6
330
B5
100
AcDbEntity
  8
_U+30EC_U+30A4_U+30E4_U+30FC 1
 62
     7
420
 16777215
370
     9
100
AcDbVertex
100
AcDb2dVertex
 10
115.7703777488351
 20
-153.8934494059708
 30
0.0
  0
VERTEX
  5
B7
330
B5
100
AcDbEntity
  8
_U+30EC_U+30A4_U+30E4_U+30FC 1
 62
     7
420
 16777215
370
     9
100
AcDbVertex
100
AcDb2dVertex
 10
118.2301530948086
 20
-153.8934494059708
 30
0.0
  0
SEQEND
  5
B8
330
B5
100
AcDbEntity
  8
_U+30EC_U+30A4_U+30E4_U+30FC 1
 62
     7
420
 16777215
370
     9
  0
INSERT
  5
BA
330
1F
100
AcDbEntity
  8
_U+30EC_U+30A4_U+30E4_U+30FC 1
100
AcDbBlockReference
  2
block 5
 10
0.0
 20
0.0
 30
0.0
  0
POLYLINE
  5
CB
330
1F
100
AcDbEntity
  8
_U+30EC_U+30A4_U+30E4_U+30FC 1
 62
     7
420
 16777215
370
     9
100
AcDb2dPolyline
 66
     1
 10
0.0
 20
0.0
 30
0.0
  0
VERTEX
  5
CC
330
CB
100
AcDbEntity
  8
_U+30EC_U+30A4_U+30E4_U+30FC 1
 62
     7
420
 16777215
370
     9
100
AcDbVertex
100
AcDb2dVertex
 10
117.2303808980927
 20
-154.293076072538
 30
0.0
  0
VERTEX
  5
CD
330
CB
100
AcDbEntity
  8
_U+30EC_U+30A4_U+30E4_U+30FC 1
 62
     7
420
 16777215
370
     9
100
AcDbVertex
100
AcDb2dVertex
 10
117.2303808980927
 20
-155.2928482945099
 30
0.0
  0
SEQEND
  5
CE
330
CB
100
AcDbEntity
  8
_U+30EC_U+30A4_U+30E4_U+30FC 1
 62
     7
420
 16777215
370
     9
  0
POLYLINE
  5
CF
330
1F
100
AcDbEntity
  8
_U+30EC_U+30A4_U+30E4_U+30FC 1
 62
     7
420
 16777215
370
     9
100
AcDb2dPolyline
 66
     1
 10
0.0
 20
0.0
 30
0.0
  0
VERTEX
  5
D0
330
CF
100
AcDbEntity
  8
_U+30EC_U+30A4_U+30E4_U+30FC 1
 62
     7
420
 16777215
370
     9
100
AcDbVertex
100
AcDb2dVertex
 10
117.2303808980927
 20
-153.8934494059708
 30
0.0
  0
VERTEX
  5
D1
330
CF
100
AcDbEntity
  8
_U+30EC_U+30A4_U+30E4_U+30FC 1
 62
     7
420
 16777215
370
     9
100
AcDbVertex
100
AcDb2dVertex
 10
117.2303808980927
 20
-154.293076072538
 30
0.0
  0
SEQEND
  5
D2
330
CF
100
AcDbEntity
  8
_U+30EC_U+30A4_U+30E4_U+30FC 1
 62
     7
420
 16777215
370
     9
  0
POLYLINE
  5
D3
330
1F
100
AcDbEntity
  8
_U+30EC_U+30A4_U+30E4_U+30FC 1
 62
     7
420
 16777215
370
     9
100
AcDb2dPolyline
 66
     1
 10
0.0
 20
0.0
 30
0.0
  0
VERTEX
  5
D4
330
D3
100
AcDbEntity
  8
_U+30EC_U+30A4_U+30E4_U+30FC 1
 62
     7
420
 16777215
370
     9
100
AcDbVertex
100
AcDb2dVertex
 10
115.7703777488351
 20
-154.293076072538
 30
0.0
  0
VERTEX
  5
D5
330
D3
100
AcDbEntity
  8
_U+30EC_U+30A4_U+30E4_U+30FC 1
 62
     7
420
 16777215
370
     9
100
AcDbVertex
100
AcDb2dVertex
 10
118.2301530948086
 20
-154.293076072538
 30
0.0
  0
SEQEND
  5
D6
330
D3
100
AcDbEntity
  8
_U+30EC_U+30A4_U+30E4_U+30FC 1
 62
     7
420
 16777215
370
     9
  0
INSERT
  5
D8
330
1F
100
AcDbEntity
  8
_U+30EC_U+30A4_U+30E4_U+30FC 1
100
AcDbBlockReference
  2
block 6
 10
0.0
 20
0.0
 30
0.0
  0
POLYLINE
  5
FB
330
1F
100
AcDbEntity
  8
_U+30EC_U+30A4_U+30E4_U+30FC 1
 62
     7
420
 16777215
370
     9
100
AcDb2dPolyline
 66
     1
 10
0.0
 20
0.0
 30
0.0
  0
VERTEX
  5
FC
330
FB
100
AcDbEntity
  8
_U+30EC_U+30A4_U+30E4_U+30FC 1
 62
     7
420
 16777215
370
     9
100
AcDbVertex
100
AcDb2dVertex
 10
113.2657937770155
 20
-154.7929621835239
 30
0.0
  0
VERTEX
  5
FD
330
FB
100
AcDbEntity
  8
_U+30EC_U+30A4_U+30E4_U+30FC 1
 62
     7
420
 16777215
370
     9
100
AcDbVertex
100
AcDb2dVertex
 10
116.9230761837105
 20
-157.8411738494288
 30
0.0
  0
SEQEND
  5
FE
330
FB
100
AcDbEntity
  8
_U+30EC_U+30A4_U+30E4_U+30FC 1
 62
     7
420
 16777215
370
     9
  0
INSERT
  5
100
330
1F
100
AcDbEntity
  8
_U+30EC_U+30A4_U+30E4_U+30FC 1
100
AcDbBlockReference
  2
block 7
 10
0.0
 20
0.0
 30
0.0
  0
POLYLINE
  5
13D
330
1F
100
AcDbEntity
  8
_U+30EC_U+30A4_U+30E4_U+30FC 1
  6
AI-Linetype-1
 62
   154
420
    23468
370
    25
100
AcDb2dPolyline
 66
     1
 10
0.0
 20
0.0
 30
0.0
  0
VERTEX
  5
13E
330
13D
100
AcDbEntity
  8
_U+30EC_U+30A4_U+30E4_U+30FC 1
  6
AI-Linetype-1
 62
   154
420
    23468
370
    25
100
AcDbVertex
100
AcDb2dVertex
 10
90.23049908691708
 20
-142.9931805198073
 30
0.0
  0
VERTEX
  5
13F
330
13D
100
AcDbEntity
  8
_U+30EC_U+30A4_U+30E4_U+30FC 1
  6
AI-Linetype-1
 62
   154
420
    23468
370
    25
100
AcDbVertex
100
AcDb2dVertex
 10
95.73058672437593
 20
-142.9931805198073
 30
0.0
  0
VERTEX
  5
140
330
13D
100
AcDbEntity
  8
_U+30EC_U+30A4_U+30E4_U+30FC 1
  6
AI-Linetype-1
 62
   154
420
    23468
370
    25
100
AcDbVertex
100
AcDb2dVertex
 10
95.73058672437593
 20
-155.4933671833487
 30
0.0
  0
VERTEX
  5
141
330
13D
100
AcDbEntity
  8
_U+30EC_U+30A4_U+30E4_U+30FC 1
  6
AI-Linetype-1
 62
   154
420
    23468
370
    25
100
AcDbVertex
100
AcDb2dVertex
 10
113.2306571112453
 20
-154.7933149613017
 30
0.0
  0
SEQEND
  5
143
330
13D
100
AcDbEntity
  8
_U+30EC_U+30A4_U+30E4_U+30FC 1
  6
AI-Linetype-1
 62
   154
420
    23468
370
    25
  0
ENDSEC
  0
SECTION
  2
OBJECTS
  0
DICTIONARY
  5
C
330
0
100
AcDbDictionary
281
     1
  3
ACAD_GROUP
350
D
  3
ACAD_LAYOUT
350
1A
  3
ACAD_MATERIAL
350
3B
  3
ACAD_MLEADERSTYLE
350
145
  3
ACAD_MLINESTYLE
350
17
  3
ACAD_PLOTSETTINGS
350
19
  3
ACAD_PLOTSTYLENAME
350
E
  3
ACAD_TABLESTYLE
350
144
  3
ACAD_VISUALSTYLE
350
2A
  0
SUN
  5
3F
330
29
100
AcDbSun
 90
        1
290
     0
 63
     7
421
 16777215
 40
1.0
291
     1
 91
  2455826
 92
 54000000
292
     0
 70
     2
 71
   256
280
     1
  0
DICTIONARY
  5
D
102
{ACAD_REACTORS
330
C
102
}
330
C
100
AcDbDictionary
281
     1
  0
DICTIONARY
  5
1A
102
{ACAD_REACTORS
330
C
102
}
330
C
100
AcDbDictionary
281
     1
  3
Layout1
350
1E
  3
Layout2
350
26
  3
Model
350
22
  0
DICTIONARY
  5
3B
102
{ACAD_REACTORS
330
C
102
}
330
C
100
AcDbDictionary
281
     1
  3
ByBlock
350
3D
  3
ByLayer
350
3C
  3
Global
350
3E
  0
DICTIONARY
  5
145
102
{ACAD_REACTORS
330
C
102
}
330
C
100
AcDbDictionary
281
     1
  0
DICTIONARY
  5
17
102
{ACAD_REACTORS
330
C
102
}
330
C
100
AcDbDictionary
281
     1
  3
Standard
350
18
  0
DICTIONARY
  5
19
102
{ACAD_REACTORS
330
C
102
}
330
C
100
AcDbDictionary
281
     1
  0
ACDBDICTIONARYWDFLT
  5
E
102
{ACAD_REACTORS
330
C
102
}
330
C
100
AcDbDictionary
281
     1
  3
Normal
350
F
100
AcDbDictionaryWithDefault
340
F
  0
DICTIONARY
  5
144
102
{ACAD_REACTORS
330
C
102
}
330
C
100
AcDbDictionary
281
     1
  0
DICTIONARY
  5
2A
102
{ACAD_REACTORS
330
C
102
}
330
C
100
AcDbDictionary
281
     1
  3
2dWireframe
350
2F
  3
3D Hidden
350
31
  3
3dWireframe
350
30
  3
Basic
350
32
  3
Brighten
350
36
  3
ColorChange
350
3A
  3
Conceptual
350
34
  3
Dim
350
35
  3
Facepattern
350
39
  3
Flat
350
2B
  3
FlatWithEdges
350
2C
  3
Gouraud
350
2D
  3
GouraudWithEdges
350
2E
  3
Linepattern
350
38
  3
Realistic
350
33
  3
Thicken
350
37
  0
LAYOUT
  5
1E
102
{ACAD_REACTORS
330
1A
102
}
330
1A
100
AcDbPlotSettings
  1

  2
none_device
  4

  6

 40
0.0
 41
0.0
 42
0.0
 43
0.0
 44
0.0
 45
0.0
 46
0.0
 47
0.0
 48
0.0
 49
0.0
140
0.0
141
0.0
142
1.0
143
1.0
 70
   688
 72
     0
 73
     0
 74
     5
  7

 75
    16
 76
     0
 77
     2
 78
   300
147
1.0
148
0.0
149
0.0
100
AcDbLayout
  1
Layout1
 70
     1
 71
     1
 10
0.0
 20
0.0
 11
12.0
 21
9.0
 12
0.0
 22
0.0
 32
0.0
 14
1.000000000000000E+20
 24
1.000000000000000E+20
 34
1.000000000000000E+20
 15
-1.000000000000000E+20
 25
-1.000000000000000E+20
 35
-1.000000000000000E+20
146
0.0
 13
0.0
 23
0.0
 33
0.0
 16
1.0
 26
0.0
 36
0.0
 17
0.0
 27
1.0
 37
0.0
 76
     0
330
1B
  0
LAYOUT
  5
26
102
{ACAD_REACTORS
330
1A
102
}
330
1A
100
AcDbPlotSettings
  1

  2
none_device
  4

  6

 40
0.0
 41
0.0
 42
0.0
 43
0.0
 44
0.0
 45
0.0
 46
0.0
 47
0.0
 48
0.0
 49
0.0
140
0.0
141
0.0
142
1.0
143
1.0
 70
   688
 72
     0
 73
     0
 74
     5
  7

 75
    16
 76
     0
 77
     2
 78
   300
147
1.0
148
0.0
149
0.0
100
AcDbLayout
  1
Layout2
 70
     1
 71
     2
 10
0.0
 20
0.0
 11
0.0
 21
0.0
 12
0.0
 22
0.0
 32
0.0
 14
0.0
 24
0.0
 34
0.0
 15
0.0
 25
0.0
 35
0.0
146
0.0
 13
0.0
 23
0.0
 33
0.0
 16
1.0
 26
0.0
 36
0.0
 17
0.0
 27
1.0
 37
0.0
 76
     0
330
23
  0
LAYOUT
  5
22
102
{ACAD_REACTORS
330
1A
102
}
330
1A
100
AcDbPlotSettings
  1

  2
none_device
  4

  6

 40
0.0
 41
0.0
 42
0.0
 43
0.0
 44
0.0
 45
0.0
 46
0.0
 47
0.0
 48
0.0
 49
0.0
140
0.0
141
0.0
142
1.0
143
1.0
 70
  1712
 72
     0
 73
     0
 74
     0
  7

 75
     0
 76
     0
 77
     2
 78
   300
147
1.0
148
0.0
149
0.0
100
AcDbLayout
  1
Model
 70
     1
 71
     0
 10
0.0
 20
0.0
 11
12.0
 21
9.0
 12
0.0
 22
0.0
 32
0.0
 14
1.000000000000000E+20
 24
1.000000000000000E+20
 34
1.000000000000000E+20
 15
-1.000000000000000E+20
 25
-1.000000000000000E+20
 35
-1.000000000000000E+20
146
0.0
 13
0.0
 23
0.0
 33
0.0
 16
1.0
 26
0.0
 36
0.0
 17
0.0
 27
1.0
 37
0.0
 76
     0
330
1F
331
29
  0
MATERIAL
  5
3D
102
{ACAD_REACTORS
330
3B
102
}
330
3B
100
AcDbMaterial
  1
ByBlock
 72
     1
 94
      127
  0
MATERIAL
  5
3C
102
{ACAD_REACTORS
330
3B
102
}
330
3B
100
AcDbMaterial
  1
ByLayer
 72
     1
 94
      127
  0
MATERIAL
  5
3E
102
{ACAD_REACTORS
330
3B
102
}
330
3B
100
AcDbMaterial
  1
Global
 72
     1
 94
      127
  0
MLINESTYLE
  5
18
102
{ACAD_REACTORS
330
17
102
}
330
17
100
AcDbMlineStyle
  2
Standard
 70
     0
  3

 62
   256
 51
90.0
 52
90.0
 71
     2
 49
0.5
 62
   256
  6
BYLAYER
 49
-0.5
 62
   256
  6
BYLAYER
  0
ACDBPLACEHOLDER
  5
F
102
{ACAD_REACTORS
330
E
102
}
330
E
  0
VISUALSTYLE
  5
2F
102
{ACAD_REACTORS
330
2A
102
}
330
2A
100
AcDbVisualStyle
  2
2dWireframe
 70
     4
177
     2
291
     0
 71
     0
176
     1
 72
     2
176
     1
 73
     0
176
     1
 90
        0
176
     1
 40
-0.6
176
     1
 41
-30.0
176
     1
 62
     5
 63
     7
421
 16777215
176
     1
 74
     1
176
     1
 91
        4
176
     1
 64
     7
176
     1
 65
   257
176
     1
 75
     1
176
     1
175
     1
176
     1
 42
1.0
176
     1
 92
        0
176
     1
 66
   257
176
     1
 43
1.0
176
     1
 76
     1
176
     1
 77
     6
176
     1
 78
     2
176
     1
 67
     7
176
     1
 79
     5
176
     1
170
     0
176
     1
171
     0
176
     1
290
     0
176
     1
 93
        1
176
     1
 44
0.0
176
     1
173
     0
176
     1
  0
VISUALSTYLE
  5
31
102
{ACAD_REACTORS
330
2A
102
}
330
2A
100
AcDbVisualStyle
  2
3D Hidden
 70
     6
177
     2
291
     0
 71
     1
176
     1
 72
     2
176
     1
 73
     2
176
     1
 90
        0
176
     1
 40
-0.6
176
     1
 41
-30.0
176
     1
 62
     5
 63
     7
421
 16777215
176
     1
 74
     2
176
     1
 91
        2
176
     1
 64
     7
176
     1
 65
   257
176
     1
 75
     2
176
     1
175
     1
176
     1
 42
40.0
176
     1
 92
        0
176
     1
 66
   257
176
     1
 43
1.0
176
     1
 76
     1
176
     1
 77
     6
176
     1
 78
     2
176
     1
 67
     7
176
     1
 79
     3
176
     1
170
     0
176
     1
171
     0
176
     1
290
     0
176
     1
 93
        1
176
     1
 44
0.0
176
     1
173
     0
176
     1
  0
VISUALSTYLE
  5
30
102
{ACAD_REACTORS
330
2A
102
}
330
2A
100
AcDbVisualStyle
  2
3dWireframe
 70
     5
177
     2
291
     0
 71
     0
176
     1
 72
     2
176
     1
 73
     0
176
     1
 90
        0
176
     1
 40
-0.6
176
     1
 41
-30.0
176
     1
 62
     5
 63
     7
421
 16777215
176
     1
 74
     1
176
     1
 91
        4
176
     1
 64
     7
176
     1
 65
   257
176
     1
 75
     1
176
     1
175
     1
176
     1
 42
1.0
176
     1
 92
        0
176
     1
 66
   257
176
     1
 43
1.0
176
     1
 76
     1
176
     1
 77
     6
176
     1
 78
     2
176
     1
 67
     7
176
     1
 79
     5
176
     1
170
     0
176
     1
171
     0
176
     1
290
     0
176
     1
 93
        1
176
     1
 44
0.0
176
     1
173
     0
176
     1
  0
VISUALSTYLE
  5
32
102
{ACAD_REACTORS
330
2A
102
}
330
2A
100
AcDbVisualStyle
  2
Basic
 70
     7
177
     2
291
     1
 71
     1
176
     1
 72
     0
176
     1
 73
     1
176
     1
 90
        0
176
     1
 40
-0.6
176
     1
 41
-30.0
176
     1
 62
     5
 63
     7
421
 16777215
176
     1
 74
     0
176
     1
 91
        4
176
     1
 64
     7
176
     1
 65
   257
176
     1
 75
     1
176
     1
175
     1
176
     1
 42
1.0
176
     1
 92
        8
176
     1
 66
     7
176
     1
 43
1.0
176
     1
 76
     1
176
     1
 77
     6
176
     1
 78
     2
176
     1
 67
     7
176
     1
 79
     5
176
     1
170
     0
176
     1
171
     0
176
     1
290
     0
176
     1
 93
        1
176
     1
 44
0.0
176
     1
173
     0
176
     1
  0
VISUALSTYLE
  5
36
102
{ACAD_REACTORS
330
2A
102
}
330
2A
100
AcDbVisualStyle
  2
Brighten
 70
    12
177
     2
291
     1
 71
     2
176
     1
 72
     2
176
     1
 73
     0
176
     1
 90
        0
176
     1
 40
-0.6
176
     1
 41
-30.0
176
     1
 62
     5
 63
     7
421
 16777215
176
     1
 74
     1
176
     1
 91
        4
176
     1
 64
     7
176
     1
 65
   257
176
     1
 75
     1
176
     1
175
     1
176
     1
 42
1.0
176
     1
 92
        8
176
     1
 66
     7
176
     1
 43
1.0
176
     1
 76
     1
176
     1
 77
     6
176
     1
 78
     2
176
     1
 67
     7
176
     1
 79
     5
176
     1
170
     0
176
     1
171
     0
176
     1
290
     0
176
     1
 93
        1
176
     1
 44
50.0
176
     1
173
     0
176
     1
  0
VISUALSTYLE
  5
3A
102
{ACAD_REACTORS
330
2A
102
}
330
2A
100
AcDbVisualStyle
  2
ColorChange
 70
    16
177
     2
291
     1
 71
     2
176
     1
 72
     2
176
     1
 73
     3
176
     1
 90
        0
176
     1
 40
-0.6
176
     1
 41
-30.0
176
     1
 62
     5
 63
     8
421
  8421504
176
     1
 74
     1
176
     1
 91
        4
176
     1
 64
     7
176
     1
 65
   257
176
     1
 75
     1
176
     1
175
     1
176
     1
 42
1.0
176
     1
 92
        8
176
     1
 66
     8
424
  8421504
176
     1
 43
1.0
176
     1
 76
     1
176
     1
 77
     6
176
     1
 78
     2
176
     1
 67
     7
176
     1
 79
     5
176
     1
170
     0
176
     1
171
     0
176
     1
290
     0
176
     1
 93
        1
176
     1
 44
0.0
176
     1
173
     0
176
     1
  0
VISUALSTYLE
  5
34
102
{ACAD_REACTORS
330
2A
102
}
330
2A
100
AcDbVisualStyle
  2
Conceptual
 70
     9
177
     2
291
     0
 71
     3
176
     1
 72
     2
176
     1
 73
     0
176
     1
 90
        0
176
     1
 40
-0.6
176
     1
 41
-30.0
176
     1
 62
     5
 63
     7
421
 16777215
176
     1
 74
     2
176
     1
 91
        2
176
     1
 64
     7
176
     1
 65
   257
176
     1
 75
     1
176
     1
175
     1
176
     1
 42
40.0
176
     1
 92
        8
176
     1
 66
     7
176
     1
 43
1.0
176
     1
 76
     1
176
     1
 77
     6
176
     1
 78
     2
176
     1
 67
     7
176
     1
 79
     3
176
     1
170
     0
176
     1
171
     0
176
     1
290
     0
176
     1
 93
        1
176
     1
 44
0.0
176
     1
173
     0
176
     1
  0
VISUALSTYLE
  5
35
102
{ACAD_REACTORS
330
2A
102
}
330
2A
100
AcDbVisualStyle
  2
Dim
 70
    11
177
     2
291
     1
 71
     2
176
     1
 72
     2
176
     1
 73
     0
176
     1
 90
        0
176
     1
 40
-0.6
176
     1
 41
-30.0
176
     1
 62
     5
 63
     7
421
 16777215
176
     1
 74
     1
176
     1
 91
        4
176
     1
 64
     7
176
     1
 65
   257
176
     1
 75
     1
176
     1
175
     1
176
     1
 42
1.0
176
     1
 92
        8
176
     1
 66
     7
176
     1
 43
1.0
176
     1
 76
     1
176
     1
 77
     6
176
     1
 78
     2
176
     1
 67
     7
176
     1
 79
     5
176
     1
170
     0
176
     1
171
     0
176
     1
290
     0
176
     1
 93
        1
176
     1
 44
-50.0
176
     1
173
     0
176
     1
  0
VISUALSTYLE
  5
39
102
{ACAD_REACTORS
330
2A
102
}
330
2A
100
AcDbVisualStyle
  2
Facepattern
 70
    15
177
     2
291
     1
 71
     2
176
     1
 72
     2
176
     1
 73
     0
176
     1
 90
        0
176
     1
 40
-0.6
176
     1
 41
-30.0
176
     1
 62
     5
 63
     7
421
 16777215
176
     1
 74
     1
176
     1
 91
        4
176
     1
 64
     7
176
     1
 65
   257
176
     1
 75
     1
176
     1
175
     1
176
     1
 42
1.0
176
     1
 92
        8
176
     1
 66
     7
176
     1
 43
1.0
176
     1
 76
     1
176
     1
 77
     6
176
     1
 78
     2
176
     1
 67
     7
176
     1
 79
     5
176
     1
170
     0
176
     1
171
     0
176
     1
290
     0
176
     1
 93
        1
176
     1
 44
0.0
176
     1
173
     0
176
     1
  0
VISUALSTYLE
  5
2B
102
{ACAD_REACTORS
330
2A
102
}
330
2A
100
AcDbVisualStyle
  2
Flat
 70
     0
177
     2
291
     1
 71
     2
176
     1
 72
     1
176
     1
 73
     1
176
     1
 90
        2
176
     1
 40
-0.6
176
     1
 41
30.0
176
     1
 62
     5
 63
     7
421
 16777215
176
     1
 74
     0
176
     1
 91
        4
176
     1
 64
     7
176
     1
 65
   257
176
     1
 75
     1
176
     1
175
     1
176
     1
 42
1.0
176
     1
 92
        8
176
     1
 66
     7
176
     1
 43
1.0
176
     1
 76
     1
176
     1
 77
     6
176
     1
 78
     2
176
     1
 67
     7
176
     1
 79
     5
176
     1
170
     0
176
     1
171
     0
176
     1
290
     0
176
     1
 93
       13
176
     1
 44
0.0
176
     1
173
     0
176
     1
  0
VISUALSTYLE
  5
2C
102
{ACAD_REACTORS
330
2A
102
}
330
2A
100
AcDbVisualStyle
  2
FlatWithEdges
 70
     1
177
     2
291
     1
 71
     2
176
     1
 72
     1
176
     1
 73
     1
176
     1
 90
        2
176
     1
 40
-0.6
176
     1
 41
30.0
176
     1
 62
     5
 63
     7
421
 16777215
176
     1
 74
     1
176
     1
 91
        4
176
     1
 64
     7
176
     1
 65
   257
176
     1
 75
     1
176
     1
175
     1
176
     1
 42
1.0
176
     1
 92
        0
176
     1
 66
   257
176
     1
 43
1.0
176
     1
 76
     1
176
     1
 77
     6
176
     1
 78
     2
176
     1
 67
     7
176
     1
 79
     5
176
     1
170
     0
176
     1
171
     0
176
     1
290
     0
176
     1
 93
       13
176
     1
 44
0.0
176
     1
173
     0
176
     1
  0
VISUALSTYLE
  5
2D
102
{ACAD_REACTORS
330
2A
102
}
330
2A
100
AcDbVisualStyle
  2
Gouraud
 70
     2
177
     2
291
     1
 71
     2
176
     1
 72
     2
176
     1
 73
     1
176
     1
 90
        2
176
     1
 40
-0.6
176
     1
 41
30.0
176
     1
 62
     5
 63
     7
421
 16777215
176
     1
 74
     0
176
     1
 91
        4
176
     1
 64
     7
176
     1
 65
   257
176
     1
 75
     1
176
     1
175
     1
176
     1
 42
1.0
176
     1
 92
        0
176
     1
 66
     7
176
     1
 43
1.0
176
     1
 76
     1
176
     1
 77
     6
176
     1
 78
     2
176
     1
 67
     7
176
     1
 79
     5
176
     1
170
     0
176
     1
171
     0
176
     1
290
     0
176
     1
 93
       13
176
     1
 44
0.0
176
     1
173
     0
176
     1
  0
VISUALSTYLE
  5
2E
102
{ACAD_REACTORS
330
2A
102
}
330
2A
100
AcDbVisualStyle
  2
GouraudWithEdges
 70
     3
177
     2
291
     1
 71
     2
176
     1
 72
     2
176
     1
 73
     1
176
     1
 90
        2
176
     1
 40
-0.6
176
     1
 41
30.0
176
     1
 62
     5
 63
     7
421
 16777215
176
     1
 74
     1
176
     1
 91
        4
176
     1
 64
     7
176
     1
 65
   257
176
     1
 75
     1
176
     1
175
     1
176
     1
 42
1.0
176
     1
 92
        0
176
     1
 66
   257
176
     1
 43
1.0
176
     1
 76
     1
176
     1
 77
     6
176
     1
 78
     2
176
     1
 67
     7
176
     1
 79
     5
176
     1
170
     0
176
     1
171
     0
176
     1
290
     0
176
     1
 93
       13
176
     1
 44
0.0
176
     1
173
     0
176
     1
  0
VISUALSTYLE
  5
38
102
{ACAD_REACTORS
330
2A
102
}
330
2A
100
AcDbVisualStyle
  2
Linepattern
 70
    14
177
     2
291
     1
 71
     2
176
     1
 72
     2
176
     1
 73
     0
176
     1
 90
        0
176
     1
 40
-0.6
176
     1
 41
-30.0
176
     1
 62
     5
 63
     7
421
 16777215
176
     1
 74
     1
176
     1
 91
        4
176
     1
 64
     7
176
     1
 65
   257
176
     1
 75
     7
176
     1
175
     7
176
     1
 42
1.0
176
     1
 92
        8
176
     1
 66
     7
176
     1
 43
1.0
176
     1
 76
     1
176
     1
 77
     6
176
     1
 78
     2
176
     1
 67
     7
176
     1
 79
     5
176
     1
170
     0
176
     1
171
     0
176
     1
290
     0
176
     1
 93
        1
176
     1
 44
0.0
176
     1
173
     0
176
     1
  0
VISUALSTYLE
  5
33
102
{ACAD_REACTORS
330
2A
102
}
330
2A
100
AcDbVisualStyle
  2
Realistic
 70
     8
177
     2
291
     0
 71
     2
176
     1
 72
     2
176
     1
 73
     0
176
     1
 90
        0
176
     1
 40
-0.6
176
     1
 41
-30.0
176
     1
 62
     5
 63
     7
421
 16777215
176
     1
 74
     1
176
     1
 91
        0
176
     1
 64
     7
176
     1
 65
   257
176
     1
 75
     1
176
     1
175
     1
176
     1
 42
1.0
176
     1
 92
        8
176
     1
 66
     8
424
  7895160
176
     1
 43
1.0
176
     1
 76
     1
176
     1
 77
     6
176
     1
 78
     2
176
     1
 67
     7
176
     1
 79
     5
176
     1
170
     0
176
     1
171
     0
176
     1
290
     0
176
     1
 93
       13
176
     1
 44
0.0
176
     1
173
     0
176
     1
  0
VISUALSTYLE
  5
37
102
{ACAD_REACTORS
330
2A
102
}
330
2A
100
AcDbVisualStyle
  2
Thicken
 70
    13
177
     2
291
     1
 71
     2
176
     1
 72
     2
176
     1
 73
     0
176
     1
 90
        0
176
     1
 40
-0.6
176
     1
 41
-30.0
176
     1
 62
     5
 63
     7
421
 16777215
176
     1
 74
     1
176
     1
 91
        4
176
     1
 64
     7
176
     1
 65
   257
176
     1
 75
     1
176
     1
175
     1
176
     1
 42
1.0
176
     1
 92
       12
176
     1
 66
     7
176
     1
 43
1.0
176
     1
 76
     1
176
     1
 77
     6
176
     1
 78
     2
176
     1
 67
     7
176
     1
 79
     5
176
     1
170
     0
176
     1
171
     0
176
     1
290
     0
176
     1
 93
        1
176
     1
 44
0.0
176
     1
173
     0
176
     1
  0
ENDSEC
  0
EOF
