  0
SECTION
  2
HEADER
  9
$ACADVER
  1
AC1024
  9
$ACADMAINTVER
 70
     6
  9
$DWGCODEPAGE
  3
UNDEFINED
  9
$INSBASE
 10
0.0
 20
0.0
 30
0.0
  9
$EXTMIN
 10
1.000000000000000E+20
 20
1.000000000000000E+20
 30
1.000000000000000E+20
  9
$EXTMAX
 10
-1.000000000000000E+20
 20
-1.000000000000000E+20
 30
-1.000000000000000E+20
  9
$LIMMIN
 10
0.0
 20
0.0
  9
$LIMMAX
 10
12.0
 20
9.0
  9
$ORTHOMODE
 70
     0
  9
$REGENMODE
 70
     1
  9
$FILLMODE
 70
     1
  9
$QTEXTMODE
 70
     0
  9
$MIRRTEXT
 70
     1
  9
$LTSCALE
 40
1.0
  9
$ATTMODE
 70
     1
  9
$TEXTSIZE
 40
0.2
  9
$TRACEWID
 40
0.05
  9
$TEXTSTYLE
  7
Standard
  9
$CLAYER
  8
0
  9
$CELTYPE
  6
ByLayer
  9
$CECOLOR
 62
   256
  9
$CELTSCALE
 40
1.0
  9
$DISPSILH
 70
     0
  9
$DIMSCALE
 40
1.0
  9
$DIMASZ
 40
0.18
  9
$DIMEXO
 40
0.0625
  9
$DIMDLI
 40
0.38
  9
$DIMRND
 40
0.0
  9
$DIMDLE
 40
0.0
  9
$DIMEXE
 40
0.18
  9
$DIMTP
 40
0.0
  9
$DIMTM
 40
0.0
  9
$DIMTXT
 40
0.18
  9
$DIMCEN
 40
0.09
  9
$DIMTSZ
 40
0.0
  9
$DIMTOL
 70
     0
  9
$DIMLIM
 70
     0
  9
$DIMTIH
 70
     1
  9
$DIMTOH
 70
     1
  9
$DIMSE1
 70
     0
  9
$DIMSE2
 70
     0
  9
$DIMTAD
 70
     0
  9
$DIMZIN
 70
     0
  9
$DIMBLK
  1

  9
$DIMASO
 70
     1
  9
$DIMSHO
 70
     1
  9
$DIMPOST
  1

  9
$DIMAPOST
  1

  9
$DIMALT
 70
     0
  9
$DIMALTD
 70
     2
  9
$DIMALTF
 40
25.4
  9
$DIMLFAC
 40
1.0
  9
$DIMTOFL
 70
     0
  9
$DIMTVP
 40
0.0
  9
$DIMTIX
 70
     0
  9
$DIMSOXD
 70
     0
  9
$DIMSAH
 70
     0
  9
$DIMBLK1
  1

  9
$DIMBLK2
  1

  9
$DIMSTYLE
  2
Standard
  9
$DIMCLRD
 70
     0
  9
$DIMCLRE
 70
     0
  9
$DIMCLRT
 70
     0
  9
$DIMTFAC
 40
1.0
  9
$DIMGAP
 40
0.09
  9
$DIMJUST
 70
     0
  9
$DIMSD1
 70
     0
  9
$DIMSD2
 70
     0
  9
$DIMTOLJ
 70
     1
  9
$DIMTZIN
 70
     0
  9
$DIMALTZ
 70
     0
  9
$DIMALTTZ
 70
     0
  9
$DIMUPT
 70
     0
  9
$DIMDEC
 70
     4
  9
$DIMTDEC
 70
     4
  9
$DIMALTU
 70
     2
  9
$DIMALTTD
 70
     2
  9
$DIMTXSTY
  7
Standard
  9
$DIMAUNIT
 70
     0
  9
$DIMADEC
 70
     0
  9
$DIMALTRND
 40
0.0
  9
$DIMAZIN
 70
     0
  9
$DIMDSEP
 70
    46
  9
$DIMATFIT
 70
     3
  9
$DIMFRAC
 70
     0
  9
$DIMLDRBLK
  1

  9
$DIMLUNIT
 70
     2
  9
$DIMLWD
 70
    -2
  9
$DIMLWE
 70
    -2
  9
$DIMTMOVE
 70
     0
  9
$DIMFXL
 40
1.0
  9
$DIMFXLON
 70
     0
  9
$DIMJOGANG
 40
0.7853981633974483
  9
$DIMTFILL
 70
     0
  9
$DIMTFILLCLR
 70
     0
  9
$DIMARCSYM
 70
     0
  9
$DIMLTYPE
  6

  9
$DIMLTEX1
  6

  9
$DIMLTEX2
  6

  9
$DIMTXTDIRECTION
 70
     0
  9
$LUNITS
 70
     2
  9
$LUPREC
 70
     4
  9
$SKETCHINC
 40
0.1
  9
$FILLETRAD
 40
0.5
  9
$AUNITS
 70
     0
  9
$AUPREC
 70
     0
  9
$MENU
  1
.
  9
$ELEVATION
 40
0.0
  9
$PELEVATION
 40
0.0
  9
$THICKNESS
 40
0.0
  9
$LIMCHECK
 70
     0
  9
$CHAMFERA
 40
0.5
  9
$CHAMFERB
 40
0.5
  9
$CHAMFERC
 40
1.0
  9
$CHAMFERD
 40
0.0
  9
$SKPOLY
 70
     0
  9
$TDCREATE
 40
2457917.610300926
  9
$TDUCREATE
 40
2457917.235300926
  9
$TDUPDATE
 40
2457917.610300926
  9
$TDUUPDATE
 40
2457917.235300926
  9
$TDINDWG
 40
0.0000000116
  9
$TDUSRTIMER
 40
0.0000000116
  9
$USRTIMER
 70
     1
  9
$ANGBASE
 50
0.0
  9
$ANGDIR
 70
     0
  9
$PDMODE
 70
     0
  9
$PDSIZE
 40
0.0
  9
$PLINEWID
 40
0.0
  9
$SPLFRAME
 70
     0
  9
$SPLINETYPE
 70
     6
  9
$SPLINESEGS
 70
     8
  9
$HANDSEED
  5
145
  9
$SURFTAB1
 70
     6
  9
$SURFTAB2
 70
     6
  9
$SURFTYPE
 70
     6
  9
$SURFU
 70
     6
  9
$SURFV
 70
     6
  9
$UCSBASE
  2

  9
$UCSNAME
  2

  9
$UCSORG
 10
0.0
 20
0.0
 30
0.0
  9
$UCSXDIR
 10
1.0
 20
0.0
 30
0.0
  9
$UCSYDIR
 10
0.0
 20
1.0
 30
0.0
  9
$UCSORTHOREF
  2

  9
$UCSORTHOVIEW
 70
     0
  9
$UCSORGTOP
 10
0.0
 20
0.0
 30
0.0
  9
$UCSORGBOTTOM
 10
0.0
 20
0.0
 30
0.0
  9
$UCSORGLEFT
 10
0.0
 20
0.0
 30
0.0
  9
$UCSORGRIGHT
 10
0.0
 20
0.0
 30
0.0
  9
$UCSORGFRONT
 10
0.0
 20
0.0
 30
0.0
  9
$UCSORGBACK
 10
0.0
 20
0.0
 30
0.0
  9
$PUCSBASE
  2

  9
$PUCSNAME
  2

  9
$PUCSORG
 10
0.0
 20
0.0
 30
0.0
  9
$PUCSXDIR
 10
1.0
 20
0.0
 30
0.0
  9
$PUCSYDIR
 10
0.0
 20
1.0
 30
0.0
  9
$PUCSORTHOREF
  2

  9
$PUCSORTHOVIEW
 70
     0
  9
$PUCSORGTOP
 10
0.0
 20
0.0
 30
0.0
  9
$PUCSORGBOTTOM
 10
0.0
 20
0.0
 30
0.0
  9
$PUCSORGLEFT
 10
0.0
 20
0.0
 30
0.0
  9
$PUCSORGRIGHT
 10
0.0
 20
0.0
 30
0.0
  9
$PUCSORGFRONT
 10
0.0
 20
0.0
 30
0.0
  9
$PUCSORGBACK
 10
0.0
 20
0.0
 30
0.0
  9
$USERI1
 70
     0
  9
$USERI2
 70
     0
  9
$USERI3
 70
     0
  9
$USERI4
 70
     0
  9
$USERI5
 70
     0
  9
$USERR1
 40
0.0
  9
$USERR2
 40
0.0
  9
$USERR3
 40
0.0
  9
$USERR4
 40
0.0
  9
$USERR5
 40
0.0
  9
$WORLDVIEW
 70
     1
  9
$SHADEDGE
 70
     3
  9
$SHADEDIF
 70
    70
  9
$TILEMODE
 70
     1
  9
$MAXACTVP
 70
    64
  9
$PINSBASE
 10
0.0
 20
0.0
 30
0.0
  9
$PLIMCHECK
 70
     0
  9
$PEXTMIN
 10
1.000000000000000E+20
 20
1.000000000000000E+20
 30
1.000000000000000E+20
  9
$PEXTMAX
 10
-1.000000000000000E+20
 20
-1.000000000000000E+20
 30
-1.000000000000000E+20
  9
$PLIMMIN
 10
0.0
 20
0.0
  9
$PLIMMAX
 10
12.0
 20
9.0
  9
$UNITMODE
 70
     0
  9
$VISRETAIN
 70
     1
  9
$PLINEGEN
 70
     0
  9
$PSLTSCALE
 70
     1
  9
$TREEDEPTH
 70
  3020
  9
$CMLSTYLE
  2
Standard
  9
$CMLJUST
 70
     0
  9
$CMLSCALE
 40
1.0
  9
$PROXYGRAPHICS
 70
     1
  9
$MEASUREMENT
 70
     0
  9
$CELWEIGHT
370
    -1
  9
$ENDCAPS
280
     0
  9
$JOINSTYLE
280
     0
  9
$LWDISPLAY
290
     1
  9
$INSUNITS
 70
     1
  9
$HYPERLINKBASE
  1

  9
$STYLESHEET
  1

  9
$XEDIT
290
     1
  9
$CEPSNTYPE
380
     0
  9
$PSTYLEMODE
290
     1
  9
$FINGERPRINTGUID
  2
{39E75AB8-E8D9-BFB7-02DC-DDAA11350757}
  9
$VERSIONGUID
  2
{FAEB1C32-E019-11D5-929B-00C0DF256EC4}
  9
$EXTNAMES
290
     1
  9
$PSVPSCALE
 40
0.0
  9
$OLESTARTUP
290
     0
  9
$SORTENTS
280
   127
  9
$INDEXCTL
280
     0
  9
$HIDETEXT
280
     1
  9
$XCLIPFRAME
280
     2
  9
$HALOGAP
280
     0
  9
$OBSCOLOR
 70
   257
  9
$OBSLTYPE
280
     0
  9
$INTERSECTIONDISPLAY
280
     0
  9
$INTERSECTIONCOLOR
 70
   257
  9
$DIMASSOC
280
     2
  9
$PROJECTNAME
  1

  9
$CAMERADISPLAY
290
     0
  9
$LENSLENGTH
 40
50.0
  9
$CAMERAHEIGHT
 40
0.0
  9
$STEPSPERSEC
 40
2.0
  9
$STEPSIZE
 40
6.0
  9
$3DDWFPREC
 40
2.0
  9
$PSOLWIDTH
 40
0.25
  9
$PSOLHEIGHT
 40
4.0
  9
$LOFTANG1
 40
1.570796326794897
  9
$LOFTANG2
 40
1.570796326794897
  9
$LOFTMAG1
 40
0.0
  9
$LOFTMAG2
 40
0.0
  9
$LOFTPARAM
 70
     7
  9
$LOFTNORMALS
280
     1
  9
$LATITUDE
 40
37.795
  9
$LONGITUDE
 40
-122.394
  9
$NORTHDIRECTION
 40
0.0
  9
$TIMEZONE
 70
 -8000
  9
$LIGHTGLYPHDISPLAY
280
     1
  9
$TILEMODELIGHTSYNCH
280
     1
  9
$CMATERIAL
347
3C
  9
$SOLIDHIST
280
     1
  9
$SHOWHIST
280
     1
  9
$DWFFRAME
280
     2
  9
$DGNFRAME
280
     2
  9
$REALWORLDSCALE
290
     1
  9
$INTERFERECOLOR
 62
   256
  9
$CSHADOW
280
     0
  9
$SHADOWPLANELOCATION
 40
0.0
  0
ENDSEC
  0
SECTION
  2
CLASSES
  0
CLASS
  1
ACDBDICTIONARYWDFLT
  2
AcDbDictionaryWithDefault
  3
ObjectDBX Classes
 90
        0
 91
        4
280
     0
281
     0
  0
CLASS
  1
VISUALSTYLE
  2
AcDbVisualStyle
  3
ObjectDBX Classes
 90
     4095
 91
        4
280
     0
281
     0
  0
CLASS
  1
MATERIAL
  2
AcDbMaterial
  3
ObjectDBX Classes
 90
     1153
 91
        4
280
     0
281
     0
  0
CLASS
  1
SUN
  2
AcDbSun
  3
SCENEOE
 90
     1024
 91
        4
280
     0
281
     0
  0
ENDSEC
  0
SECTION
  2
TABLES
  0
TABLE
  2
VPORT
  5
8
330
0
100
AcDbSymbolTable
 70
     1
  0
VPORT
  5
29
330
8
100
AcDbSymbolTableRecord
100
AcDbViewportTableRecord
  2
*Active
 70
     0
 10
0.0
 20
0.0
 11
1.0
 21
1.0
 12
0.0
 22
0.0
 13
0.0
 23
0.0
 14
0.5
 24
0.5
 15
0.5
 25
0.5
 16
0.0
 26
0.0
 36
1.0
 17
105.0008280156501
 27
-148.4999710739862
 37
0.0
 40
296.9999421479724
 41
0.7070764206636528
 42
50.0
 43
0.0
 44
0.0
 50
0.0
 51
0.0
 71
     0
 72
   100
 73
     1
 74
     3
 75
     0
 76
     0
 77
     0
 78
     0
281
     0
 65
     1
110
0.0
120
0.0
130
0.0
111
1.0
121
0.0
131
0.0
112
0.0
122
1.0
132
0.0
 79
     0
146
0.0
 60
     3
 61
     5
292
     1
282
     1
141
0.0
142
0.0
 63
   250
361
3F
  0
ENDTAB
  0
TABLE
  2
LTYPE
  5
5
330
0
100
AcDbSymbolTable
 70
     2
  0
LTYPE
  5
14
330
5
100
AcDbSymbolTableRecord
100
AcDbLinetypeTableRecord
  2
ByBlock
 70
     0
  3

 72
    65
 73
     0
 40
0.0
  0
LTYPE
  5
15
330
5
100
AcDbSymbolTableRecord
100
AcDbLinetypeTableRecord
  2
ByLayer
 70
     0
  3

 72
    65
 73
     0
 40
0.0
  0
LTYPE
  5
16
330
5
100
AcDbSymbolTableRecord
100
AcDbLinetypeTableRecord
  2
Continuous
 70
     0
  3
Solid line
 72
    65
 73
     0
 40
0.0
  0
LTYPE
  5
141
330
5
100
AcDbSymbolTableRecord
100
AcDbLinetypeTableRecord
  2
AI-Linetype-1
 70
     0
  3
Adobe Illustrator Linetype No. 1
 72
    65
 73
     2
 40
1.411111110758333
 49
0.7055555553791667
 74
     0
 49
-0.7055555553791667
 74
     0
  0
ENDTAB
  0
TABLE
  2
LAYER
  5
2
330
0
100
AcDbSymbolTable
 70
     2
  0
LAYER
  5
10
330
2
100
AcDbSymbolTableRecord
100
AcDbLayerTableRecord
  2
0
 70
     0
 62
     7
  6
Continuous
370
    -3
390
F
347
3E
  0
LAYER
  5
40
330
2
100
AcDbSymbolTableRecord
100
AcDbLayerTableRecord
  2
_U+30EC_U+30A4_U+30E4_U+30FC 1
 70
     0
 62
     7
  6
Continuous
370
    -3
390
F
347
3E
  0
ENDTAB
  0
TABLE
  2
STYLE
  5
3
330
0
100
AcDbSymbolTable
 70
     1
  0
STYLE
  5
11
330
3
100
AcDbSymbolTableRecord
100
AcDbTextStyleTableRecord
  2
Standard
 70
     0
 40
0.0
 41
1.0
 50
0.0
 71
     0
 42
0.2
  3
txt
  4

  0
ENDTAB
  0
TABLE
  2
VIEW
  5
6
330
0
100
AcDbSymbolTable
 70
     0
  0
ENDTAB
  0
TABLE
  2
UCS
  5
7
330
0
100
AcDbSymbolTable
 70
     0
  0
ENDTAB
  0
TABLE
  2
APPID
  5
9
330
0
100
AcDbSymbolTable
 70
     1
  0
APPID
  5
12
330
9
100
AcDbSymbolTableRecord
100
AcDbRegAppTableRecord
  2
ACAD
 70
     0
  0
ENDTAB
  0
TABLE
  2
DIMSTYLE
  5
A
330
0
100
AcDbSymbolTable
 70
     1
100
AcDbDimStyleTable
  0
DIMSTYLE
105
27
330
A
100
AcDbSymbolTableRecord
100
AcDbDimStyleTableRecord
  2
Standard
 70
     0
178
     0
340
11
  0
ENDTAB
  0
TABLE
  2
BLOCK_RECORD
  5
1
330
0
100
AcDbSymbolTable
 70
     7
  0
BLOCK_RECORD
  5
1F
330
1
100
AcDbSymbolTableRecord
100
AcDbBlockTableRecord
  2
*Model_Space
340
22
 70
     0
280
     1
281
     0
  0
BLOCK_RECORD
  5
1B
330
1
100
AcDbSymbolTableRecord
100
AcDbBlockTableRecord
  2
*Paper_Space
340
1E
 70
     0
280
     1
281
     0
  0
BLOCK_RECORD
  5
23
330
1
100
AcDbSymbolTableRecord
100
AcDbBlockTableRecord
  2
*Paper_Space0
340
26
 70
     0
280
     1
281
     0
  0
BLOCK_RECORD
  5
75
330
1
100
AcDbSymbolTableRecord
100
AcDbBlockTableRecord
  2
block 2
340
0
102
{BLKREFS
331
76
102
}
 70
     0
280
     1
281
     0
  0
BLOCK_RECORD
  5
84
330
1
100
AcDbSymbolTableRecord
100
AcDbBlockTableRecord
  2
block 3
340
0
102
{BLKREFS
331
85
102
}
 70
     0
280
     1
281
     0
  0
BLOCK_RECORD
  5
9C
330
1
100
AcDbSymbolTableRecord
100
AcDbBlockTableRecord
  2
block 4
340
0
102
{BLKREFS
331
9D
102
}
 70
     0
280
     1
281
     0
  0
BLOCK_RECORD
  5
B9
330
1
100
AcDbSymbolTableRecord
100
AcDbBlockTableRecord
  2
block 5
340
0
102
{BLKREFS
331
BA
102
}
 70
     0
280
     1
281
     0
  0
BLOCK_RECORD
  5
D6
330
1
100
AcDbSymbolTableRecord
100
AcDbBlockTableRecord
  2
block 6
340
0
102
{BLKREFS
331
D7
102
}
 70
     0
280
     1
281
     0
  0
BLOCK_RECORD
  5
FE
330
1
100
AcDbSymbolTableRecord
100
AcDbBlockTableRecord
  2
block 7
340
0
102
{BLKREFS
331
FF
102
}
 70
     0
280
     1
281
     0
  0
ENDTAB
  0
ENDSEC
  0
SECTION
  2
BLOCKS
  0
BLOCK
  5
20
330
1F
100
AcDbEntity
  8
0
100
AcDbBlockBegin
  2
*Model_Space
 70
     0
 10
0.0
 20
0.0
 30
0.0
  3
*Model_Space
  1

  0
ENDBLK
  5
21
330
1F
100
AcDbEntity
  8
0
100
AcDbBlockEnd
  0
BLOCK
  5
1C
330
1B
100
AcDbEntity
 67
     1
  8
0
100
AcDbBlockBegin
  2
*Paper_Space
 70
     0
 10
0.0
 20
0.0
 30
0.0
  3
*Paper_Space
  1

  0
ENDBLK
  5
1D
330
1B
100
AcDbEntity
 67
     1
  8
0
100
AcDbBlockEnd
  0
BLOCK
  5
24
330
23
100
AcDbEntity
  8
0
100
AcDbBlockBegin
  2
*Paper_Space0
 70
     0
 10
0.0
 20
0.0
 30
0.0
  3
*Paper_Space0
  1

  0
ENDBLK
  5
25
330
23
100
AcDbEntity
  8
0
100
AcDbBlockEnd
  0
BLOCK
  5
77
330
75
100
AcDbEntity
  8
0
100
AcDbBlockBegin
  2
block 2
 70
     0
 10
0.0
 20
0.0
 30
0.0
  3
block 2
  1

  0
SPLINE
  5
79
330
75
100
AcDbEntity
  8
_U+30EC_U+30A4_U+30E4_U+30FC 1
370
     0
100
AcDbSpline
210
0.0
220
0.0
230
1.0
 70
    11
 71
     3
 72
    32
 73
    28
 74
     0
 42
0.0000000001
 43
0.0000000001
 12
1.0
 22
0.0
 32
0.0
 13
1.0
 23
0.0
 33
0.0
 40
0.0
 40
0.0
 40
0.0
 40
0.0
 40
1.0
 40
1.0
 40
1.0
 40
2.0
 40
2.0
 40
2.0
 40
3.0
 40
3.0
 40
3.0
 40
4.0
 40
4.0
 40
4.0
 40
5.0
 40
5.0
 40
5.0
 40
6.0
 40
6.0
 40
6.0
 40
7.0
 40
7.0
 40
7.0
 40
8.0
 40
8.0
 40
8.0
 40
9.0
 40
9.0
 40
9.0
 40
9.0
 10
93.01602780877725
 20
-156.8975721178937
 30
0.0
 10
92.49978025031255
 20
-156.8975721178937
 30
0.0
 10
92.4913397663737
 20
-156.3436007638655
 30
0.0
 10
92.4913397663737
 20
-156.1296603342315
 30
0.0
 10
92.4913397663737
 20
-155.8991834462683
 30
0.0
 10
92.51046004631684
 20
-155.2518500045898
 30
0.0
 10
93.05409611388926
 20
-155.2518500045898
 30
0.0
 10
93.22755667157159
 20
-155.2518500045898
 30
0.0
 10
93.47301972489564
 20
-155.3217854429404
 30
0.0
 10
93.51108803000766
 20
-155.6538926477185
 30
0.0
 10
93.51108803000766
 20
-155.6538926477185
 30
0.0
 10
93.29731985514789
 20
-155.6538926477185
 30
0.0
 10
93.29731985514789
 20
-155.6538926477185
 30
0.0
 10
93.28681231391788
 20
-155.5967040626633
 30
0.0
 10
93.25511743545358
 20
-155.4485649567976
 30
0.0
 10
93.0520290565981
 20
-155.4485649567976
 30
0.0
 10
92.76005721422318
 20
-155.4485649567976
 30
0.0
 10
92.71974959704576
 20
-155.7765380469934
 30
0.0
 10
92.7071749985246
 20
-155.9815212283658
 30
0.0
 10
92.80019257662634
 20
-155.9033175608506
 30
0.0
 10
92.8678887029115
 20
-155.8440619185043
 30
0.0
 10
93.0497897445327
 20
-155.8440619185043
 30
0.0
 10
93.22962372886273
 20
-155.8440619185043
 30
0.0
 10
93.53210311246767
 20
-155.9522379167411
 30
0.0
 10
93.53210311246767
 20
-156.3584146744521
 30
0.0
 10
93.53210311246767
 20
-156.6777750259347
 30
0.0
 10
93.33332110296875
 20
-156.8975721178937
 30
0.0
 10
93.01602780877725
 20
-156.8975721178937
 30
0.0
  0
SPLINE
  5
7A
330
75
100
AcDbEntity
  8
_U+30EC_U+30A4_U+30E4_U+30FC 1
370
     0
100
AcDbSpline
210
0.0
220
0.0
230
1.0
 70
    11
 71
     3
 72
    17
 73
    13
 74
     0
 42
0.0000000001
 43
0.0000000001
 12
1.0
 22
0.0
 32
0.0
 13
1.0
 23
0.0
 33
0.0
 40
0.0
 40
0.0
 40
0.0
 40
0.0
 40
1.0
 40
1.0
 40
1.0
 40
2.0
 40
2.0
 40
2.0
 40
3.0
 40
3.0
 40
3.0
 40
4.0
 40
4.0
 40
4.0
 40
4.0
 10
93.03290877665498
 20
-156.0387098134209
 30
0.0
 10
92.7705647554532
 20
-156.0387098134209
 30
0.0
 10
92.73249645034119
 20
-156.2502386762152
 30
0.0
 10
92.73249645034119
 20
-156.3666829036167
 30
0.0
 10
92.73249645034119
 20
-156.5423827733644
 30
0.0
 10
92.82775334050834
 20
-156.7053357898167
 30
0.0
 10
93.01172143942068
 20
-156.7053357898167
 30
0.0
 10
93.13229978140443
 20
-156.7053357898167
 30
0.0
 10
93.30799965115217
 20
-156.6460801474704
 30
0.0
 10
93.30799965115217
 20
-156.3604817317432
 30
0.0
 10
93.30799965115217
 20
-156.1362060156534
 30
0.0
 10
93.16830102922529
 20
-156.0387098134209
 30
0.0
 10
93.03290877665498
 20
-156.0387098134209
 30
0.0
  0
HATCH
  5
7B
330
75
100
AcDbEntity
  8
_U+30EC_U+30A4_U+30E4_U+30FC 1
 62
     7
420
 16777215
100
AcDbHatch
 10
0.0
 20
0.0
 30
0.0
210
0.0
220
0.0
230
1.0
  2
SOLID
 70
     1
 71
     0
 91
        2
 92
        1
 93
        1
 72
     4
 94
        3
 73
     0
 74
     1
 95
       32
 96
       28
 40
0.0
 40
0.0
 40
0.0
 40
0.0
 40
1.0
 40
1.0
 40
1.0
 40
2.0
 40
2.0
 40
2.0
 40
3.0
 40
3.0
 40
3.0
 40
4.0
 40
4.0
 40
4.0
 40
5.0
 40
5.0
 40
5.0
 40
6.0
 40
6.0
 40
6.0
 40
7.0
 40
7.0
 40
7.0
 40
8.0
 40
8.0
 40
8.0
 40
9.0
 40
9.0
 40
9.0
 40
9.0
 10
93.01602780877725
 20
-156.8975721178937
 10
92.49978025031255
 20
-156.8975721178937
 10
92.4913397663737
 20
-156.3436007638655
 10
92.4913397663737
 20
-156.1296603342315
 10
92.4913397663737
 20
-155.8991834462683
 10
92.51046004631684
 20
-155.2518500045898
 10
93.05409611388926
 20
-155.2518500045898
 10
93.22755667157159
 20
-155.2518500045898
 10
93.47301972489564
 20
-155.3217854429404
 10
93.51108803000766
 20
-155.6538926477185
 10
93.51108803000766
 20
-155.6538926477185
 10
93.29731985514789
 20
-155.6538926477185
 10
93.29731985514789
 20
-155.6538926477185
 10
93.28681231391788
 20
-155.5967040626633
 10
93.25511743545358
 20
-155.4485649567976
 10
93.0520290565981
 20
-155.4485649567976
 10
92.76005721422318
 20
-155.4485649567976
 10
92.71974959704576
 20
-155.7765380469934
 10
92.7071749985246
 20
-155.9815212283658
 10
92.80019257662634
 20
-155.9033175608506
 10
92.8678887029115
 20
-155.8440619185043
 10
93.0497897445327
 20
-155.8440619185043
 10
93.22962372886273
 20
-155.8440619185043
 10
93.53210311246767
 20
-155.9522379167411
 10
93.53210311246767
 20
-156.3584146744521
 10
93.53210311246767
 20
-156.6777750259347
 10
93.33332110296875
 20
-156.8975721178937
 10
93.01602780877725
 20
-156.8975721178937
 97
        0
 97
        0
 92
        1
 93
        1
 72
     4
 94
        3
 73
     0
 74
     1
 95
       17
 96
       13
 40
0.0
 40
0.0
 40
0.0
 40
0.0
 40
1.0
 40
1.0
 40
1.0
 40
2.0
 40
2.0
 40
2.0
 40
3.0
 40
3.0
 40
3.0
 40
4.0
 40
4.0
 40
4.0
 40
4.0
 10
93.03290877665498
 20
-156.0387098134209
 10
92.7705647554532
 20
-156.0387098134209
 10
92.73249645034119
 20
-156.2502386762152
 10
92.73249645034119
 20
-156.3666829036167
 10
92.73249645034119
 20
-156.5423827733644
 10
92.82775334050834
 20
-156.7053357898167
 10
93.01172143942068
 20
-156.7053357898167
 10
93.13229978140443
 20
-156.7053357898167
 10
93.30799965115217
 20
-156.6460801474704
 10
93.30799965115217
 20
-156.3604817317432
 10
93.30799965115217
 20
-156.1362060156534
 10
93.16830102922529
 20
-156.0387098134209
 10
93.03290877665498
 20
-156.0387098134209
 97
        0
 97
        0
 75
     2
 76
     1
 98
        0
  0
ENDBLK
  5
78
330
75
100
AcDbEntity
  8
0
100
AcDbBlockEnd
  0
BLOCK
  5
86
330
84
100
AcDbEntity
  8
0
100
AcDbBlockBegin
  2
block 3
 70
     0
 10
0.0
 20
0.0
 30
0.0
  3
block 3
  1

  0
SPLINE
  5
88
330
84
100
AcDbEntity
  8
_U+30EC_U+30A4_U+30E4_U+30FC 1
370
     0
100
AcDbSpline
210
0.0
220
0.0
230
1.0
 70
    11
 71
     3
 72
    26
 73
    22
 74
     0
 42
0.0000000001
 43
0.0000000001
 12
1.0
 22
0.0
 32
0.0
 13
1.0
 23
0.0
 33
0.0
 40
0.0
 40
0.0
 40
0.0
 40
0.0
 40
1.0
 40
1.0
 40
1.0
 40
2.0
 40
2.0
 40
2.0
 40
3.0
 40
3.0
 40
3.0
 40
4.0
 40
4.0
 40
4.0
 40
5.0
 40
5.0
 40
5.0
 40
6.0
 40
6.0
 40
6.0
 40
7.0
 40
7.0
 40
7.0
 40
7.0
 10
103.8744520139619
 20
-156.8469292142605
 30
0.0
 10
103.8744520139619
 20
-156.8469292142605
 30
0.0
 10
103.8744520139619
 20
-155.7427761112379
 30
0.0
 10
103.8744520139619
 20
-155.7427761112379
 30
0.0
 10
103.8744520139619
 20
-155.7427761112379
 30
0.0
 10
103.544411866475
 20
-155.7427761112379
 30
0.0
 10
103.544411866475
 20
-155.7427761112379
 30
0.0
 10
103.544411866475
 20
-155.7427761112379
 30
0.0
 10
103.544411866475
 20
-155.5946370053722
 30
0.0
 10
103.544411866475
 20
-155.5946370053722
 30
0.0
 10
103.8765190712531
 20
-155.5798230947856
 30
0.0
 10
103.923027860304
 20
-155.4168700783333
 30
0.0
 10
103.9526556814771
 20
-155.302492908223
 30
0.0
 10
103.9526556814771
 20
-155.302492908223
 30
0.0
 10
104.0987277300517
 20
-155.302492908223
 30
0.0
 10
104.0987277300517
 20
-155.302492908223
 30
0.0
 10
104.0987277300517
 20
-155.302492908223
 30
0.0
 10
104.0987277300517
 20
-156.8469292142605
 30
0.0
 10
104.0987277300517
 20
-156.8469292142605
 30
0.0
 10
104.0987277300517
 20
-156.8469292142605
 30
0.0
 10
103.8744520139619
 20
-156.8469292142605
 30
0.0
 10
103.8744520139619
 20
-156.8469292142605
 30
0.0
  0
HATCH
  5
89
330
84
100
AcDbEntity
  8
_U+30EC_U+30A4_U+30E4_U+30FC 1
 62
     7
420
 16777215
100
AcDbHatch
 10
0.0
 20
0.0
 30
0.0
210
0.0
220
0.0
230
1.0
  2
SOLID
 70
     1
 71
     0
 91
        1
 92
        1
 93
        1
 72
     4
 94
        3
 73
     0
 74
     1
 95
       26
 96
       22
 40
0.0
 40
0.0
 40
0.0
 40
0.0
 40
1.0
 40
1.0
 40
1.0
 40
2.0
 40
2.0
 40
2.0
 40
3.0
 40
3.0
 40
3.0
 40
4.0
 40
4.0
 40
4.0
 40
5.0
 40
5.0
 40
5.0
 40
6.0
 40
6.0
 40
6.0
 40
7.0
 40
7.0
 40
7.0
 40
7.0
 10
103.8744520139619
 20
-156.8469292142605
 10
103.8744520139619
 20
-156.8469292142605
 10
103.8744520139619
 20
-155.7427761112379
 10
103.8744520139619
 20
-155.7427761112379
 10
103.8744520139619
 20
-155.7427761112379
 10
103.544411866475
 20
-155.7427761112379
 10
103.544411866475
 20
-155.7427761112379
 10
103.544411866475
 20
-155.7427761112379
 10
103.544411866475
 20
-155.5946370053722
 10
103.544411866475
 20
-155.5946370053722
 10
103.8765190712531
 20
-155.5798230947856
 10
103.923027860304
 20
-155.4168700783333
 10
103.9526556814771
 20
-155.302492908223
 10
103.9526556814771
 20
-155.302492908223
 10
104.0987277300517
 20
-155.302492908223
 10
104.0987277300517
 20
-155.302492908223
 10
104.0987277300517
 20
-155.302492908223
 10
104.0987277300517
 20
-156.8469292142605
 10
104.0987277300517
 20
-156.8469292142605
 10
104.0987277300517
 20
-156.8469292142605
 10
103.8744520139619
 20
-156.8469292142605
 10
103.8744520139619
 20
-156.8469292142605
 97
        0
 97
        0
 75
     2
 76
     1
 98
        0
  0
SPLINE
  5
8A
330
84
100
AcDbEntity
  8
_U+30EC_U+30A4_U+30E4_U+30FC 1
370
     0
100
AcDbSpline
210
0.0
220
0.0
230
1.0
 70
    11
 71
     3
 72
    26
 73
    22
 74
     0
 42
0.0000000001
 43
0.0000000001
 12
1.0
 22
0.0
 32
0.0
 13
1.0
 23
0.0
 33
0.0
 40
0.0
 40
0.0
 40
0.0
 40
0.0
 40
1.0
 40
1.0
 40
1.0
 40
2.0
 40
2.0
 40
2.0
 40
3.0
 40
3.0
 40
3.0
 40
4.0
 40
4.0
 40
4.0
 40
5.0
 40
5.0
 40
5.0
 40
6.0
 40
6.0
 40
6.0
 40
7.0
 40
7.0
 40
7.0
 40
7.0
 10
105.0109890145459
 20
-156.8469292142605
 30
0.0
 10
105.0109890145459
 20
-156.8469292142605
 30
0.0
 10
104.7739664451607
 20
-156.8469292142605
 30
0.0
 10
104.7739664451607
 20
-156.8469292142605
 30
0.0
 10
104.7994601517515
 20
-156.5379041492336
 30
0.0
 10
104.992040989377
 20
-156.019761788252
 30
0.0
 10
105.398217747088
 20
-155.5140217710173
 30
0.0
 10
105.398217747088
 20
-155.5140217710173
 30
0.0
 10
104.5603705250752
 20
-155.5140217710173
 30
0.0
 10
104.5603705250752
 20
-155.5140217710173
 30
0.0
 10
104.5603705250752
 20
-155.5140217710173
 30
0.0
 10
104.5603705250752
 20
-155.302492908223
 30
0.0
 10
104.5603705250752
 20
-155.302492908223
 30
0.0
 10
104.5603705250752
 20
-155.302492908223
 30
0.0
 10
105.6352403164731
 20
-155.302492908223
 30
0.0
 10
105.6352403164731
 20
-155.302492908223
 30
0.0
 10
105.6352403164731
 20
-155.302492908223
 30
0.0
 10
105.6352403164731
 20
-155.5140217710173
 30
0.0
 10
105.6352403164731
 20
-155.5140217710173
 30
0.0
 10
105.3114013408597
 20
-155.8040988108754
 30
0.0
 10
105.0447509503013
 20
-156.3963107247898
 30
0.0
 10
105.0109890145459
 20
-156.8469292142605
 30
0.0
  0
HATCH
  5
8B
330
84
100
AcDbEntity
  8
_U+30EC_U+30A4_U+30E4_U+30FC 1
 62
     7
420
 16777215
100
AcDbHatch
 10
0.0
 20
0.0
 30
0.0
210
0.0
220
0.0
230
1.0
  2
SOLID
 70
     1
 71
     0
 91
        1
 92
        1
 93
        1
 72
     4
 94
        3
 73
     0
 74
     1
 95
       26
 96
       22
 40
0.0
 40
0.0
 40
0.0
 40
0.0
 40
1.0
 40
1.0
 40
1.0
 40
2.0
 40
2.0
 40
2.0
 40
3.0
 40
3.0
 40
3.0
 40
4.0
 40
4.0
 40
4.0
 40
5.0
 40
5.0
 40
5.0
 40
6.0
 40
6.0
 40
6.0
 40
7.0
 40
7.0
 40
7.0
 40
7.0
 10
105.0109890145459
 20
-156.8469292142605
 10
105.0109890145459
 20
-156.8469292142605
 10
104.7739664451607
 20
-156.8469292142605
 10
104.7739664451607
 20
-156.8469292142605
 10
104.7994601517515
 20
-156.5379041492336
 10
104.992040989377
 20
-156.019761788252
 10
105.398217747088
 20
-155.5140217710173
 10
105.398217747088
 20
-155.5140217710173
 10
104.5603705250752
 20
-155.5140217710173
 10
104.5603705250752
 20
-155.5140217710173
 10
104.5603705250752
 20
-155.5140217710173
 10
104.5603705250752
 20
-155.302492908223
 10
104.5603705250752
 20
-155.302492908223
 10
104.5603705250752
 20
-155.302492908223
 10
105.6352403164731
 20
-155.302492908223
 10
105.6352403164731
 20
-155.302492908223
 10
105.6352403164731
 20
-155.302492908223
 10
105.6352403164731
 20
-155.5140217710173
 10
105.6352403164731
 20
-155.5140217710173
 10
105.3114013408597
 20
-155.8040988108754
 10
105.0447509503013
 20
-156.3963107247898
 10
105.0109890145459
 20
-156.8469292142605
 97
        0
 97
        0
 75
     2
 76
     1
 98
        0
  0
ENDBLK
  5
87
330
84
100
AcDbEntity
  8
0
100
AcDbBlockEnd
  0
BLOCK
  5
9E
330
9C
100
AcDbEntity
  8
0
100
AcDbBlockBegin
  2
block 4
 70
     0
 10
0.0
 20
0.0
 30
0.0
  3
block 4
  1

  0
SPLINE
  5
A0
330
9C
100
AcDbEntity
  8
_U+30EC_U+30A4_U+30E4_U+30FC 1
370
     0
100
AcDbSpline
210
0.0
220
0.0
230
1.0
 70
    11
 71
     3
 72
    26
 73
    22
 74
     0
 42
0.0000000001
 43
0.0000000001
 12
1.0
 22
0.0
 32
0.0
 13
1.0
 23
0.0
 33
0.0
 40
0.0
 40
0.0
 40
0.0
 40
0.0
 40
1.0
 40
1.0
 40
1.0
 40
2.0
 40
2.0
 40
2.0
 40
3.0
 40
3.0
 40
3.0
 40
4.0
 40
4.0
 40
4.0
 40
5.0
 40
5.0
 40
5.0
 40
6.0
 40
6.0
 40
6.0
 40
7.0
 40
7.0
 40
7.0
 40
7.0
 10
87.13748912752119
 20
-140.9023382894272
 30
0.0
 10
87.13748912752119
 20
-140.9023382894272
 30
0.0
 10
86.03333602449861
 20
-140.9023382894272
 30
0.0
 10
86.03333602449861
 20
-140.9023382894272
 30
0.0
 10
86.03333602449861
 20
-140.9023382894272
 30
0.0
 10
86.03333602449861
 20
-141.2323784369141
 30
0.0
 10
86.03333602449861
 20
-141.2323784369141
 30
0.0
 10
86.03333602449861
 20
-141.2323784369141
 30
0.0
 10
85.88519691863287
 20
-141.2323784369141
 30
0.0
 10
85.88519691863287
 20
-141.2323784369141
 30
0.0
 10
85.8703830080463
 20
-140.900271232136
 30
0.0
 10
85.70742999159398
 20
-140.8537624430852
 30
0.0
 10
85.59305282148368
 20
-140.824134621912
 30
0.0
 10
85.59305282148368
 20
-140.824134621912
 30
0.0
 10
85.59305282148368
 20
-140.6780625733374
 30
0.0
 10
85.59305282148368
 20
-140.6780625733374
 30
0.0
 10
85.59305282148368
 20
-140.6780625733374
 30
0.0
 10
87.13748912752119
 20
-140.6780625733374
 30
0.0
 10
87.13748912752119
 20
-140.6780625733374
 30
0.0
 10
87.13748912752119
 20
-140.6780625733374
 30
0.0
 10
87.13748912752119
 20
-140.9023382894272
 30
0.0
 10
87.13748912752119
 20
-140.9023382894272
 30
0.0
  0
HATCH
  5
A1
330
9C
100
AcDbEntity
  8
_U+30EC_U+30A4_U+30E4_U+30FC 1
 62
     7
420
 16777215
100
AcDbHatch
 10
0.0
 20
0.0
 30
0.0
210
0.0
220
0.0
230
1.0
  2
SOLID
 70
     1
 71
     0
 91
        1
 92
        1
 93
        1
 72
     4
 94
        3
 73
     0
 74
     1
 95
       26
 96
       22
 40
0.0
 40
0.0
 40
0.0
 40
0.0
 40
1.0
 40
1.0
 40
1.0
 40
2.0
 40
2.0
 40
2.0
 40
3.0
 40
3.0
 40
3.0
 40
4.0
 40
4.0
 40
4.0
 40
5.0
 40
5.0
 40
5.0
 40
6.0
 40
6.0
 40
6.0
 40
7.0
 40
7.0
 40
7.0
 40
7.0
 10
87.13748912752119
 20
-140.9023382894272
 10
87.13748912752119
 20
-140.9023382894272
 10
86.03333602449861
 20
-140.9023382894272
 10
86.03333602449861
 20
-140.9023382894272
 10
86.03333602449861
 20
-140.9023382894272
 10
86.03333602449861
 20
-141.2323784369141
 10
86.03333602449861
 20
-141.2323784369141
 10
86.03333602449861
 20
-141.2323784369141
 10
85.88519691863287
 20
-141.2323784369141
 10
85.88519691863287
 20
-141.2323784369141
 10
85.8703830080463
 20
-140.900271232136
 10
85.70742999159398
 20
-140.8537624430852
 10
85.59305282148368
 20
-140.824134621912
 10
85.59305282148368
 20
-140.824134621912
 10
85.59305282148368
 20
-140.6780625733374
 10
85.59305282148368
 20
-140.6780625733374
 10
85.59305282148368
 20
-140.6780625733374
 10
87.13748912752119
 20
-140.6780625733374
 10
87.13748912752119
 20
-140.6780625733374
 10
87.13748912752119
 20
-140.6780625733374
 10
87.13748912752119
 20
-140.9023382894272
 10
87.13748912752119
 20
-140.9023382894272
 97
        0
 97
        0
 75
     2
 76
     1
 98
        0
  0
POLYLINE
  5
A2
330
9C
100
AcDbEntity
  8
_U+30EC_U+30A4_U+30E4_U+30FC 1
370
     0
100
AcDb2dPolyline
 66
     1
 10
0.0
 20
0.0
 30
0.0
  0
VERTEX
  5
A3
330
A2
100
AcDbEntity
  8
_U+30EC_U+30A4_U+30E4_U+30FC 1
370
     0
100
AcDbVertex
100
AcDb2dVertex
 10
87.13748912752119
 20
-140.1168565187902
 30
0.0
  0
VERTEX
  5
A4
330
A2
100
AcDbEntity
  8
_U+30EC_U+30A4_U+30E4_U+30FC 1
370
     0
100
AcDbVertex
100
AcDb2dVertex
 10
86.88565264754942
 20
-140.1168565187902
 30
0.0
  0
VERTEX
  5
A5
330
A2
100
AcDbEntity
  8
_U+30EC_U+30A4_U+30E4_U+30FC 1
370
     0
100
AcDbVertex
100
AcDb2dVertex
 10
86.88565264754942
 20
-139.8650200388185
 30
0.0
  0
VERTEX
  5
A6
330
A2
100
AcDbEntity
  8
_U+30EC_U+30A4_U+30E4_U+30FC 1
370
     0
100
AcDbVertex
100
AcDb2dVertex
 10
87.13748912752119
 20
-139.8650200388185
 30
0.0
  0
VERTEX
  5
A7
330
A2
100
AcDbEntity
  8
_U+30EC_U+30A4_U+30E4_U+30FC 1
370
     0
100
AcDbVertex
100
AcDb2dVertex
 10
87.13748912752119
 20
-140.1168565187902
 30
0.0
  0
SEQEND
  5
A8
330
A2
100
AcDbEntity
  8
_U+30EC_U+30A4_U+30E4_U+30FC 1
370
     0
  0
HATCH
  5
A9
330
9C
100
AcDbEntity
  8
_U+30EC_U+30A4_U+30E4_U+30FC 1
 62
     7
420
 16777215
100
AcDbHatch
 10
0.0
 20
0.0
 30
0.0
210
0.0
220
0.0
230
1.0
  2
SOLID
 70
     1
 71
     0
 91
        1
 92
        1
 93
        4
 72
     1
 10
87.13748912752119
 20
-140.1168565187902
 11
86.88565264754942
 21
-140.1168565187902
 72
     1
 10
86.88565264754942
 20
-140.1168565187902
 11
86.88565264754942
 21
-139.8650200388185
 72
     1
 10
86.88565264754942
 20
-139.8650200388185
 11
87.13748912752119
 21
-139.8650200388185
 72
     1
 10
87.13748912752119
 20
-139.8650200388185
 11
87.13748912752119
 21
-140.1168565187902
 97
        0
 75
     2
 76
     1
 98
        0
  0
SPLINE
  5
AA
330
9C
100
AcDbEntity
  8
_U+30EC_U+30A4_U+30E4_U+30FC 1
370
     0
100
AcDbSpline
210
0.0
220
0.0
230
1.0
 70
    11
 71
     3
 72
    29
 73
    25
 74
     0
 42
0.0000000001
 43
0.0000000001
 12
1.0
 22
0.0
 32
0.0
 13
1.0
 23
0.0
 33
0.0
 40
0.0
 40
0.0
 40
0.0
 40
0.0
 40
1.0
 40
1.0
 40
1.0
 40
2.0
 40
2.0
 40
2.0
 40
3.0
 40
3.0
 40
3.0
 40
4.0
 40
4.0
 40
4.0
 40
5.0
 40
5.0
 40
5.0
 40
6.0
 40
6.0
 40
6.0
 40
7.0
 40
7.0
 40
7.0
 40
8.0
 40
8.0
 40
8.0
 40
8.0
 10
86.95972220048229
 20
-138.7308946050742
 30
0.0
 10
87.16918400598549
 20
-138.8390706033111
 30
0.0
 10
87.18813203115435
 20
-139.0123589062191
 30
0.0
 10
87.18813203115435
 20
-139.1288031336206
 30
0.0
 10
87.18813203115435
 20
-139.2896890927817
 30
0.0
 10
87.14162324210349
 20
-139.4312825172255
 30
0.0
 10
86.95972220048229
 20
-139.5263671526184
 30
0.0
 10
86.76507430556568
 20
-139.6300645267244
 30
0.0
 10
86.52839624572901
 20
-139.6490125518933
 30
0.0
 10
86.36544322927669
 20
-139.6490125518933
 30
0.0
 10
86.22143823799325
 20
-139.6490125518933
 30
0.0
 10
85.9696017580215
 20
-139.6321315840156
 30
0.0
 10
85.77081974852258
 20
-139.5263671526184
 30
0.0
 10
85.56790362444136
 20
-139.4185356639301
 30
0.0
 10
85.54447697514166
 20
-139.2576497047689
 30
0.0
 10
85.54447697514166
 20
-139.1288031336206
 30
0.0
 10
85.54447697514166
 20
-138.9699842317506
 30
0.0
 10
85.58891870690138
 20
-138.8263237500157
 30
0.0
 10
85.77081974852258
 20
-138.7308946050742
 30
0.0
 10
85.96340058614804
 20
-138.631675855099
 30
0.0
 10
86.1918104168201
 20
-138.6082492057993
 30
0.0
 10
86.36544322927669
 20
-138.6082492057993
 30
0.0
 10
86.53666447489361
 20
-138.6082492057993
 30
0.0
 10
86.76714136285683
 20
-138.6296087978079
 30
0.0
 10
86.95972220048229
 20
-138.7308946050742
 30
0.0
  0
SPLINE
  5
AB
330
9C
100
AcDbEntity
  8
_U+30EC_U+30A4_U+30E4_U+30FC 1
370
     0
100
AcDbSpline
210
0.0
220
0.0
230
1.0
 70
    11
 71
     3
 72
    17
 73
    13
 74
     0
 42
0.0000000001
 43
0.0000000001
 12
1.0
 22
0.0
 32
0.0
 13
1.0
 23
0.0
 33
0.0
 40
0.0
 40
0.0
 40
0.0
 40
0.0
 40
1.0
 40
1.0
 40
1.0
 40
2.0
 40
2.0
 40
2.0
 40
3.0
 40
3.0
 40
3.0
 40
4.0
 40
4.0
 40
4.0
 40
4.0
 10
85.73705781276713
 20
-139.1288031336206
 30
0.0
 10
85.73705781276713
 20
-139.3782280467527
 30
0.0
 10
86.02058917120318
 20
-139.4250813453521
 30
0.0
 10
86.36544322927669
 20
-139.4250813453521
 30
0.0
 10
86.68480358075936
 20
-139.4250813453521
 30
0.0
 10
86.99348413623774
 20
-139.3889078427569
 30
0.0
 10
86.99348413623774
 20
-139.1288031336206
 30
0.0
 10
86.99348413623774
 20
-138.8811007682311
 30
0.0
 10
86.71236434464136
 20
-138.8325249218891
 30
0.0
 10
86.36544322927669
 20
-138.8325249218891
 30
0.0
 10
86.04573836824551
 20
-138.8325249218891
 30
0.0
 10
85.73705781276713
 20
-138.8707654817754
 30
0.0
 10
85.73705781276713
 20
-139.1288031336206
 30
0.0
  0
HATCH
  5
AC
330
9C
100
AcDbEntity
  8
_U+30EC_U+30A4_U+30E4_U+30FC 1
 62
     7
420
 16777215
100
AcDbHatch
 10
0.0
 20
0.0
 30
0.0
210
0.0
220
0.0
230
1.0
  2
SOLID
 70
     1
 71
     0
 91
        2
 92
        1
 93
        1
 72
     4
 94
        3
 73
     0
 74
     1
 95
       29
 96
       25
 40
0.0
 40
0.0
 40
0.0
 40
0.0
 40
1.0
 40
1.0
 40
1.0
 40
2.0
 40
2.0
 40
2.0
 40
3.0
 40
3.0
 40
3.0
 40
4.0
 40
4.0
 40
4.0
 40
5.0
 40
5.0
 40
5.0
 40
6.0
 40
6.0
 40
6.0
 40
7.0
 40
7.0
 40
7.0
 40
8.0
 40
8.0
 40
8.0
 40
8.0
 10
86.95972220048229
 20
-138.7308946050742
 10
87.16918400598549
 20
-138.8390706033111
 10
87.18813203115435
 20
-139.0123589062191
 10
87.18813203115435
 20
-139.1288031336206
 10
87.18813203115435
 20
-139.2896890927817
 10
87.14162324210349
 20
-139.4312825172255
 10
86.95972220048229
 20
-139.5263671526184
 10
86.76507430556568
 20
-139.6300645267244
 10
86.52839624572901
 20
-139.6490125518933
 10
86.36544322927669
 20
-139.6490125518933
 10
86.22143823799325
 20
-139.6490125518933
 10
85.9696017580215
 20
-139.6321315840156
 10
85.77081974852258
 20
-139.5263671526184
 10
85.56790362444136
 20
-139.4185356639301
 10
85.54447697514166
 20
-139.2576497047689
 10
85.54447697514166
 20
-139.1288031336206
 10
85.54447697514166
 20
-138.9699842317506
 10
85.58891870690138
 20
-138.8263237500157
 10
85.77081974852258
 20
-138.7308946050742
 10
85.96340058614804
 20
-138.631675855099
 10
86.1918104168201
 20
-138.6082492057993
 10
86.36544322927669
 20
-138.6082492057993
 10
86.53666447489361
 20
-138.6082492057993
 10
86.76714136285683
 20
-138.6296087978079
 10
86.95972220048229
 20
-138.7308946050742
 97
        0
 97
        0
 92
        1
 93
        1
 72
     4
 94
        3
 73
     0
 74
     1
 95
       17
 96
       13
 40
0.0
 40
0.0
 40
0.0
 40
0.0
 40
1.0
 40
1.0
 40
1.0
 40
2.0
 40
2.0
 40
2.0
 40
3.0
 40
3.0
 40
3.0
 40
4.0
 40
4.0
 40
4.0
 40
4.0
 10
85.73705781276713
 20
-139.1288031336206
 10
85.73705781276713
 20
-139.3782280467527
 10
86.02058917120318
 20
-139.4250813453521
 10
86.36544322927669
 20
-139.4250813453521
 10
86.68480358075936
 20
-139.4250813453521
 10
86.99348413623774
 20
-139.3889078427569
 10
86.99348413623774
 20
-139.1288031336206
 10
86.99348413623774
 20
-138.8811007682311
 10
86.71236434464136
 20
-138.8325249218891
 10
86.36544322927669
 20
-138.8325249218891
 10
86.04573836824551
 20
-138.8325249218891
 10
85.73705781276713
 20
-138.8707654817754
 10
85.73705781276713
 20
-139.1288031336206
 97
        0
 97
        0
 75
     2
 76
     1
 98
        0
  0
ENDBLK
  5
9F
330
9C
100
AcDbEntity
  8
0
100
AcDbBlockEnd
  0
BLOCK
  5
BB
330
B9
100
AcDbEntity
  8
0
100
AcDbBlockBegin
  2
block 5
 70
     0
 10
0.0
 20
0.0
 30
0.0
  3
block 5
  1

  0
SPLINE
  5
BD
330
B9
100
AcDbEntity
  8
_U+30EC_U+30A4_U+30E4_U+30FC 1
370
     0
100
AcDbSpline
210
0.0
220
0.0
230
1.0
 70
    11
 71
     3
 72
    32
 73
    28
 74
     0
 42
0.0000000001
 43
0.0000000001
 12
1.0
 22
0.0
 32
0.0
 13
1.0
 23
0.0
 33
0.0
 40
0.0
 40
0.0
 40
0.0
 40
0.0
 40
1.0
 40
1.0
 40
1.0
 40
2.0
 40
2.0
 40
2.0
 40
3.0
 40
3.0
 40
3.0
 40
4.0
 40
4.0
 40
4.0
 40
5.0
 40
5.0
 40
5.0
 40
6.0
 40
6.0
 40
6.0
 40
7.0
 40
7.0
 40
7.0
 40
8.0
 40
8.0
 40
8.0
 40
9.0
 40
9.0
 40
9.0
 40
9.0
 10
116.4166666375625
 20
-148.5966145461842
 30
0.0
 10
116.4166666375625
 20
-148.7699028490923
 30
0.0
 10
116.3470757087605
 20
-149.0155381571906
 30
0.0
 10
116.0149685039824
 20
-149.0534342075283
 30
0.0
 10
116.0149685039824
 20
-149.0534342075283
 30
0.0
 10
116.0149685039824
 20
-148.8398382874428
 30
0.0
 10
116.0149685039824
 20
-148.8398382874428
 30
0.0
 10
116.0742241463287
 20
-148.8291584914386
 30
0.0
 10
116.2220187426459
 20
-148.7974636129742
 30
0.0
 10
116.2220187426459
 20
-148.594547488893
 30
0.0
 10
116.2220187426459
 20
-148.3024033917438
 30
0.0
 10
115.8923231047075
 20
-148.2645073414061
 30
0.0
 10
115.6869954137866
 20
-148.2517604881107
 30
0.0
 10
115.7672661385929
 20
-148.3427110089213
 30
0.0
 10
115.8244547236481
 20
-148.4102348804322
 30
0.0
 10
115.8244547236481
 20
-148.5921359220534
 30
0.0
 10
115.8244547236481
 20
-148.7719699063834
 30
0.0
 10
115.7186902922509
 20
-149.0747937995369
 30
0.0
 10
115.3125135345399
 20
-149.0747937995369
 30
0.0
 10
114.9931531830573
 20
-149.0747937995369
 30
0.0
 10
114.7730115815498
 20
-148.8756672804894
 30
0.0
 10
114.7730115815498
 20
-148.5583739862979
 30
0.0
 10
114.7730115815498
 20
-148.0443657398986
 30
0.0
 10
115.3273274451265
 20
-148.0336859438944
 30
0.0
 10
115.540923365212
 20
-148.0336859438944
 30
0.0
 10
115.7714002531752
 20
-148.0336859438944
 30
0.0
 10
116.4166666375625
 20
-148.0529784786117
 30
0.0
 10
116.4166666375625
 20
-148.5966145461842
 30
0.0
  0
SPLINE
  5
BE
330
B9
100
AcDbEntity
  8
_U+30EC_U+30A4_U+30E4_U+30FC 1
370
     0
100
AcDbSpline
210
0.0
220
0.0
230
1.0
 70
    11
 71
     3
 72
    17
 73
    13
 74
     0
 42
0.0000000001
 43
0.0000000001
 12
1.0
 22
0.0
 32
0.0
 13
1.0
 23
0.0
 33
0.0
 40
0.0
 40
0.0
 40
0.0
 40
0.0
 40
1.0
 40
1.0
 40
1.0
 40
2.0
 40
2.0
 40
2.0
 40
3.0
 40
3.0
 40
3.0
 40
4.0
 40
4.0
 40
4.0
 40
4.0
 10
114.9655924191753
 20
-148.5563069290068
 30
0.0
 10
114.9655924191753
 20
-148.6748182136994
 30
0.0
 10
115.0227810042304
 20
-148.8505180834471
 30
0.0
 10
115.3083794199576
 20
-148.8505180834471
 30
0.0
 10
115.5347221933386
 20
-148.8505180834471
 30
0.0
 10
115.6298068287314
 20
-148.710647206746
 30
0.0
 10
115.6298068287314
 20
-148.5752549541756
 30
0.0
 10
115.6298068287314
 20
-148.3130831877481
 30
0.0
 10
115.4203450232283
 20
-148.2748426278619
 30
0.0
 10
115.3039007958268
 20
-148.2748426278619
 30
0.0
 10
115.1285454356276
 20
-148.2748426278619
 30
0.0
 10
114.9655924191753
 20
-148.3702717728033
 30
0.0
 10
114.9655924191753
 20
-148.5563069290068
 30
0.0
  0
HATCH
  5
BF
330
B9
100
AcDbEntity
  8
_U+30EC_U+30A4_U+30E4_U+30FC 1
 62
     7
420
 16777215
100
AcDbHatch
 10
0.0
 20
0.0
 30
0.0
210
0.0
220
0.0
230
1.0
  2
SOLID
 70
     1
 71
     0
 91
        2
 92
        1
 93
        1
 72
     4
 94
        3
 73
     0
 74
     1
 95
       32
 96
       28
 40
0.0
 40
0.0
 40
0.0
 40
0.0
 40
1.0
 40
1.0
 40
1.0
 40
2.0
 40
2.0
 40
2.0
 40
3.0
 40
3.0
 40
3.0
 40
4.0
 40
4.0
 40
4.0
 40
5.0
 40
5.0
 40
5.0
 40
6.0
 40
6.0
 40
6.0
 40
7.0
 40
7.0
 40
7.0
 40
8.0
 40
8.0
 40
8.0
 40
9.0
 40
9.0
 40
9.0
 40
9.0
 10
116.4166666375625
 20
-148.5966145461842
 10
116.4166666375625
 20
-148.7699028490923
 10
116.3470757087605
 20
-149.0155381571906
 10
116.0149685039824
 20
-149.0534342075283
 10
116.0149685039824
 20
-149.0534342075283
 10
116.0149685039824
 20
-148.8398382874428
 10
116.0149685039824
 20
-148.8398382874428
 10
116.0742241463287
 20
-148.8291584914386
 10
116.2220187426459
 20
-148.7974636129742
 10
116.2220187426459
 20
-148.594547488893
 10
116.2220187426459
 20
-148.3024033917438
 10
115.8923231047075
 20
-148.2645073414061
 10
115.6869954137866
 20
-148.2517604881107
 10
115.7672661385929
 20
-148.3427110089213
 10
115.8244547236481
 20
-148.4102348804322
 10
115.8244547236481
 20
-148.5921359220534
 10
115.8244547236481
 20
-148.7719699063834
 10
115.7186902922509
 20
-149.0747937995369
 10
115.3125135345399
 20
-149.0747937995369
 10
114.9931531830573
 20
-149.0747937995369
 10
114.7730115815498
 20
-148.8756672804894
 10
114.7730115815498
 20
-148.5583739862979
 10
114.7730115815498
 20
-148.0443657398986
 10
115.3273274451265
 20
-148.0336859438944
 10
115.540923365212
 20
-148.0336859438944
 10
115.7714002531752
 20
-148.0336859438944
 10
116.4166666375625
 20
-148.0529784786117
 10
116.4166666375625
 20
-148.5966145461842
 97
        0
 97
        0
 92
        1
 93
        1
 72
     4
 94
        3
 73
     0
 74
     1
 95
       17
 96
       13
 40
0.0
 40
0.0
 40
0.0
 40
0.0
 40
1.0
 40
1.0
 40
1.0
 40
2.0
 40
2.0
 40
2.0
 40
3.0
 40
3.0
 40
3.0
 40
4.0
 40
4.0
 40
4.0
 40
4.0
 10
114.9655924191753
 20
-148.5563069290068
 10
114.9655924191753
 20
-148.6748182136994
 10
115.0227810042304
 20
-148.8505180834471
 10
115.3083794199576
 20
-148.8505180834471
 10
115.5347221933386
 20
-148.8505180834471
 10
115.6298068287314
 20
-148.710647206746
 10
115.6298068287314
 20
-148.5752549541756
 10
115.6298068287314
 20
-148.3130831877481
 10
115.4203450232283
 20
-148.2748426278619
 10
115.3039007958268
 20
-148.2748426278619
 10
115.1285454356276
 20
-148.2748426278619
 10
114.9655924191753
 20
-148.3702717728033
 10
114.9655924191753
 20
-148.5563069290068
 97
        0
 97
        0
 75
     2
 76
     1
 98
        0
  0
POLYLINE
  5
C0
330
B9
100
AcDbEntity
  8
_U+30EC_U+30A4_U+30E4_U+30FC 1
370
     0
100
AcDb2dPolyline
 66
     1
 10
0.0
 20
0.0
 30
0.0
  0
VERTEX
  5
C1
330
C0
100
AcDbEntity
  8
_U+30EC_U+30A4_U+30E4_U+30FC 1
370
     0
100
AcDbVertex
100
AcDb2dVertex
 10
116.3660237339293
 20
-147.8173339474207
 30
0.0
  0
VERTEX
  5
C2
330
C0
100
AcDbEntity
  8
_U+30EC_U+30A4_U+30E4_U+30FC 1
370
     0
100
AcDbVertex
100
AcDb2dVertex
 10
116.1141872539576
 20
-147.8173339474207
 30
0.0
  0
VERTEX
  5
C3
330
C0
100
AcDbEntity
  8
_U+30EC_U+30A4_U+30E4_U+30FC 1
370
     0
100
AcDbVertex
100
AcDb2dVertex
 10
116.1141872539576
 20
-147.5654974674489
 30
0.0
  0
VERTEX
  5
C4
330
C0
100
AcDbEntity
  8
_U+30EC_U+30A4_U+30E4_U+30FC 1
370
     0
100
AcDbVertex
100
AcDb2dVertex
 10
116.3660237339293
 20
-147.5654974674489
 30
0.0
  0
VERTEX
  5
C5
330
C0
100
AcDbEntity
  8
_U+30EC_U+30A4_U+30E4_U+30FC 1
370
     0
100
AcDbVertex
100
AcDb2dVertex
 10
116.3660237339293
 20
-147.8173339474207
 30
0.0
  0
SEQEND
  5
C6
330
C0
100
AcDbEntity
  8
_U+30EC_U+30A4_U+30E4_U+30FC 1
370
     0
  0
HATCH
  5
C7
330
B9
100
AcDbEntity
  8
_U+30EC_U+30A4_U+30E4_U+30FC 1
 62
     7
420
 16777215
100
AcDbHatch
 10
0.0
 20
0.0
 30
0.0
210
0.0
220
0.0
230
1.0
  2
SOLID
 70
     1
 71
     0
 91
        1
 92
        1
 93
        4
 72
     1
 10
116.3660237339293
 20
-147.8173339474207
 11
116.1141872539576
 21
-147.8173339474207
 72
     1
 10
116.1141872539576
 20
-147.8173339474207
 11
116.1141872539576
 21
-147.5654974674489
 72
     1
 10
116.1141872539576
 20
-147.5654974674489
 11
116.3660237339293
 21
-147.5654974674489
 72
     1
 10
116.3660237339293
 20
-147.5654974674489
 11
116.3660237339293
 21
-147.8173339474207
 97
        0
 75
     2
 76
     1
 98
        0
  0
SPLINE
  5
C8
330
B9
100
AcDbEntity
  8
_U+30EC_U+30A4_U+30E4_U+30FC 1
370
     0
100
AcDbSpline
210
0.0
220
0.0
230
1.0
 70
    11
 71
     3
 72
    53
 73
    49
 74
     0
 42
0.0000000001
 43
0.0000000001
 12
1.0
 22
0.0
 32
0.0
 13
1.0
 23
0.0
 33
0.0
 40
0.0
 40
0.0
 40
0.0
 40
0.0
 40
1.0
 40
1.0
 40
1.0
 40
2.0
 40
2.0
 40
2.0
 40
3.0
 40
3.0
 40
3.0
 40
4.0
 40
4.0
 40
4.0
 40
5.0
 40
5.0
 40
5.0
 40
6.0
 40
6.0
 40
6.0
 40
7.0
 40
7.0
 40
7.0
 40
8.0
 40
8.0
 40
8.0
 40
9.0
 40
9.0
 40
9.0
 40
10.0
 40
10.0
 40
10.0
 40
11.0
 40
11.0
 40
11.0
 40
12.0
 40
12.0
 40
12.0
 40
13.0
 40
13.0
 40
13.0
 40
14.0
 40
14.0
 40
14.0
 40
15.0
 40
15.0
 40
15.0
 40
16.0
 40
16.0
 40
16.0
 40
16.0
 10
116.4166666375625
 20
-146.8482285874199
 30
0.0
 10
116.4166666375625
 20
-146.9264322549351
 30
0.0
 10
116.3997856696848
 20
-147.0280625717499
 30
0.0
 10
116.3363959127562
 20
-147.1296928885648
 30
0.0
 10
116.2264973667767
 20
-147.3029811914729
 30
0.0
 10
116.0952392287887
 20
-147.3243407834814
 30
0.0
 10
115.9874077401004
 20
-147.3432888086503
 30
0.0
 10
115.9874077401004
 20
-147.3432888086503
 30
0.0
 10
115.9874077401004
 20
-147.1210801498517
 30
0.0
 10
115.9874077401004
 20
-147.1210801498517
 30
0.0
 10
116.1861897495993
 20
-147.0663031316362
 30
0.0
 10
116.2158175707724
 20
-146.9391791082305
 30
0.0
 10
116.2158175707724
 20
-146.8461615301287
 30
0.0
 10
116.2158175707724
 20
-146.7066351629761
 30
0.0
 10
116.1162543112487
 20
-146.5543619425281
 30
0.0
 10
115.8837103659944
 20
-146.5543619425281
 30
0.0
 10
115.6277397714403
 20
-146.5543619425281
 30
0.0
 10
115.5578043330897
 20
-146.7341959268581
 30
0.0
 10
115.5578043330897
 20
-146.8547742688419
 30
0.0
 10
115.5578043330897
 20
-146.8864691473062
 30
0.0
 10
115.5578043330897
 20
-147.0280625717499
 30
0.0
 10
115.6869954137866
 20
-147.1169460352694
 30
0.0
 10
115.6869954137866
 20
-147.1169460352694
 30
0.0
 10
115.6680473886177
 20
-147.2926459050171
 30
0.0
 10
115.6680473886177
 20
-147.2926459050171
 30
0.0
 10
115.6680473886177
 20
-147.2926459050171
 30
0.0
 10
114.8215874278918
 20
-147.1720675630334
 30
0.0
 10
114.8215874278918
 20
-147.1720675630334
 30
0.0
 10
114.8215874278918
 20
-147.1720675630334
 30
0.0
 10
114.8215874278918
 20
-146.3934759833669
 30
0.0
 10
114.8215874278918
 20
-146.3934759833669
 30
0.0
 10
114.8215874278918
 20
-146.3934759833669
 30
0.0
 10
115.0162353228084
 20
-146.3934759833669
 30
0.0
 10
115.0162353228084
 20
-146.3934759833669
 30
0.0
 10
115.0162353228084
 20
-146.3934759833669
 30
0.0
 10
115.0162353228084
 20
-147.0091145465811
 30
0.0
 10
115.0162353228084
 20
-147.0091145465811
 30
0.0
 10
115.0162353228084
 20
-147.0091145465811
 30
0.0
 10
115.4392930483971
 20
-147.0745713608008
 30
0.0
 10
115.4392930483971
 20
-147.0745713608008
 30
0.0
 10
115.4055311126417
 20
-147.0132486611634
 30
0.0
 10
115.3652234954642
 20
-146.9309108790659
 30
0.0
 10
115.3652234954642
 20
-146.8123995943733
 30
0.0
 10
115.3652234954642
 20
-146.5584960571104
 30
0.0
 10
115.5516031612163
 20
-146.3214734877252
 30
0.0
 10
115.8647623408255
 20
-146.3214734877252
 30
0.0
 10
116.182055635017
 20
-146.3214734877252
 30
0.0
 10
116.4166666375625
 20
-146.5457492038149
 30
0.0
 10
116.4166666375625
 20
-146.8482285874199
 30
0.0
  0
HATCH
  5
C9
330
B9
100
AcDbEntity
  8
_U+30EC_U+30A4_U+30E4_U+30FC 1
 62
     7
420
 16777215
100
AcDbHatch
 10
0.0
 20
0.0
 30
0.0
210
0.0
220
0.0
230
1.0
  2
SOLID
 70
     1
 71
     0
 91
        1
 92
        1
 93
        1
 72
     4
 94
        3
 73
     0
 74
     1
 95
       53
 96
       49
 40
0.0
 40
0.0
 40
0.0
 40
0.0
 40
1.0
 40
1.0
 40
1.0
 40
2.0
 40
2.0
 40
2.0
 40
3.0
 40
3.0
 40
3.0
 40
4.0
 40
4.0
 40
4.0
 40
5.0
 40
5.0
 40
5.0
 40
6.0
 40
6.0
 40
6.0
 40
7.0
 40
7.0
 40
7.0
 40
8.0
 40
8.0
 40
8.0
 40
9.0
 40
9.0
 40
9.0
 40
10.0
 40
10.0
 40
10.0
 40
11.0
 40
11.0
 40
11.0
 40
12.0
 40
12.0
 40
12.0
 40
13.0
 40
13.0
 40
13.0
 40
14.0
 40
14.0
 40
14.0
 40
15.0
 40
15.0
 40
15.0
 40
16.0
 40
16.0
 40
16.0
 40
16.0
 10
116.4166666375625
 20
-146.8482285874199
 10
116.4166666375625
 20
-146.9264322549351
 10
116.3997856696848
 20
-147.0280625717499
 10
116.3363959127562
 20
-147.1296928885648
 10
116.2264973667767
 20
-147.3029811914729
 10
116.0952392287887
 20
-147.3243407834814
 10
115.9874077401004
 20
-147.3432888086503
 10
115.9874077401004
 20
-147.3432888086503
 10
115.9874077401004
 20
-147.1210801498517
 10
115.9874077401004
 20
-147.1210801498517
 10
116.1861897495993
 20
-147.0663031316362
 10
116.2158175707724
 20
-146.9391791082305
 10
116.2158175707724
 20
-146.8461615301287
 10
116.2158175707724
 20
-146.7066351629761
 10
116.1162543112487
 20
-146.5543619425281
 10
115.8837103659944
 20
-146.5543619425281
 10
115.6277397714403
 20
-146.5543619425281
 10
115.5578043330897
 20
-146.7341959268581
 10
115.5578043330897
 20
-146.8547742688419
 10
115.5578043330897
 20
-146.8864691473062
 10
115.5578043330897
 20
-147.0280625717499
 10
115.6869954137866
 20
-147.1169460352694
 10
115.6869954137866
 20
-147.1169460352694
 10
115.6680473886177
 20
-147.2926459050171
 10
115.6680473886177
 20
-147.2926459050171
 10
115.6680473886177
 20
-147.2926459050171
 10
114.8215874278918
 20
-147.1720675630334
 10
114.8215874278918
 20
-147.1720675630334
 10
114.8215874278918
 20
-147.1720675630334
 10
114.8215874278918
 20
-146.3934759833669
 10
114.8215874278918
 20
-146.3934759833669
 10
114.8215874278918
 20
-146.3934759833669
 10
115.0162353228084
 20
-146.3934759833669
 10
115.0162353228084
 20
-146.3934759833669
 10
115.0162353228084
 20
-146.3934759833669
 10
115.0162353228084
 20
-147.0091145465811
 10
115.0162353228084
 20
-147.0091145465811
 10
115.0162353228084
 20
-147.0091145465811
 10
115.4392930483971
 20
-147.0745713608008
 10
115.4392930483971
 20
-147.0745713608008
 10
115.4055311126417
 20
-147.0132486611634
 10
115.3652234954642
 20
-146.9309108790659
 10
115.3652234954642
 20
-146.8123995943733
 10
115.3652234954642
 20
-146.5584960571104
 10
115.5516031612163
 20
-146.3214734877252
 10
115.8647623408255
 20
-146.3214734877252
 10
116.182055635017
 20
-146.3214734877252
 10
116.4166666375625
 20
-146.5457492038149
 10
116.4166666375625
 20
-146.8482285874199
 97
        0
 97
        0
 75
     2
 76
     1
 98
        0
  0
ENDBLK
  5
BC
330
B9
100
AcDbEntity
  8
0
100
AcDbBlockEnd
  0
BLOCK
  5
D8
330
D6
100
AcDbEntity
  8
0
100
AcDbBlockBegin
  2
block 6
 70
     0
 10
0.0
 20
0.0
 30
0.0
  3
block 6
  1

  0
SPLINE
  5
DA
330
D6
100
AcDbEntity
  8
_U+30EC_U+30A4_U+30E4_U+30FC 1
370
     0
100
AcDbSpline
210
0.0
220
0.0
230
1.0
 70
    11
 71
     3
 72
    29
 73
    25
 74
     0
 42
0.0000000001
 43
0.0000000001
 12
1.0
 22
0.0
 32
0.0
 13
1.0
 23
0.0
 33
0.0
 40
0.0
 40
0.0
 40
0.0
 40
0.0
 40
1.0
 40
1.0
 40
1.0
 40
2.0
 40
2.0
 40
2.0
 40
3.0
 40
3.0
 40
3.0
 40
4.0
 40
4.0
 40
4.0
 40
5.0
 40
5.0
 40
5.0
 40
6.0
 40
6.0
 40
6.0
 40
7.0
 40
7.0
 40
7.0
 40
8.0
 40
8.0
 40
8.0
 40
8.0
 10
119.8927679821796
 20
-153.0814398488824
 30
0.0
 10
120.1022297876828
 20
-153.1896158471193
 30
0.0
 10
120.1211778128517
 20
-153.3629041500273
 30
0.0
 10
120.1211778128517
 20
-153.4793483774288
 30
0.0
 10
120.1211778128517
 20
-153.6402343365899
 30
0.0
 10
120.0746690238008
 20
-153.7818277610337
 30
0.0
 10
119.8927679821796
 20
-153.8769123964266
 30
0.0
 10
119.698120087263
 20
-153.9806097705326
 30
0.0
 10
119.4614420274263
 20
-153.99990230525
 30
0.0
 10
119.298489010974
 20
-153.99990230525
 30
0.0
 10
119.1544840196906
 20
-153.99990230525
 30
0.0
 10
118.9026475397188
 20
-153.9826768278238
 30
0.0
 10
118.7038655302199
 20
-153.8769123964266
 30
0.0
 10
118.5009494061387
 20
-153.7690809077383
 30
0.0
 10
118.477522756839
 20
-153.6081949485771
 30
0.0
 10
118.477522756839
 20
-153.4793483774288
 30
0.0
 10
118.477522756839
 20
-153.3205294755588
 30
0.0
 10
118.5219644885987
 20
-153.1768689938239
 30
0.0
 10
118.7038655302199
 20
-153.0814398488824
 30
0.0
 10
118.8964463678453
 20
-152.9822210989072
 30
0.0
 10
119.1248561985174
 20
-152.9587944496075
 30
0.0
 10
119.298489010974
 20
-152.9587944496075
 30
0.0
 10
119.4697102565909
 20
-152.9587944496075
 30
0.0
 10
119.7001871445541
 20
-152.9801540416161
 30
0.0
 10
119.8927679821796
 20
-153.0814398488824
 30
0.0
  0
SPLINE
  5
DB
330
D6
100
AcDbEntity
  8
_U+30EC_U+30A4_U+30E4_U+30FC 1
370
     0
100
AcDbSpline
210
0.0
220
0.0
230
1.0
 70
    11
 71
     3
 72
    17
 73
    13
 74
     0
 42
0.0000000001
 43
0.0000000001
 12
1.0
 22
0.0
 32
0.0
 13
1.0
 23
0.0
 33
0.0
 40
0.0
 40
0.0
 40
0.0
 40
0.0
 40
1.0
 40
1.0
 40
1.0
 40
2.0
 40
2.0
 40
2.0
 40
3.0
 40
3.0
 40
3.0
 40
4.0
 40
4.0
 40
4.0
 40
4.0
 10
118.6701035944644
 20
-153.4793483774288
 30
0.0
 10
118.6701035944644
 20
-153.7291178001094
 30
0.0
 10
118.9536349529005
 20
-153.7756265891603
 30
0.0
 10
119.298489010974
 20
-153.7756265891603
 30
0.0
 10
119.6178493624567
 20
-153.7756265891603
 30
0.0
 10
119.926529917935
 20
-153.7394530865651
 30
0.0
 10
119.926529917935
 20
-153.4793483774288
 30
0.0
 10
119.926529917935
 20
-153.2316460120393
 30
0.0
 10
119.6454101263386
 20
-153.1830701656973
 30
0.0
 10
119.298489010974
 20
-153.1830701656973
 30
0.0
 10
118.9787841499428
 20
-153.1830701656973
 30
0.0
 10
118.6701035944644
 20
-153.2213107255836
 30
0.0
 10
118.6701035944644
 20
-153.4793483774288
 30
0.0
  0
HATCH
  5
DC
330
D6
100
AcDbEntity
  8
_U+30EC_U+30A4_U+30E4_U+30FC 1
 62
     7
420
 16777215
100
AcDbHatch
 10
0.0
 20
0.0
 30
0.0
210
0.0
220
0.0
230
1.0
  2
SOLID
 70
     1
 71
     0
 91
        2
 92
        1
 93
        1
 72
     4
 94
        3
 73
     0
 74
     1
 95
       29
 96
       25
 40
0.0
 40
0.0
 40
0.0
 40
0.0
 40
1.0
 40
1.0
 40
1.0
 40
2.0
 40
2.0
 40
2.0
 40
3.0
 40
3.0
 40
3.0
 40
4.0
 40
4.0
 40
4.0
 40
5.0
 40
5.0
 40
5.0
 40
6.0
 40
6.0
 40
6.0
 40
7.0
 40
7.0
 40
7.0
 40
8.0
 40
8.0
 40
8.0
 40
8.0
 10
119.8927679821796
 20
-153.0814398488824
 10
120.1022297876828
 20
-153.1896158471193
 10
120.1211778128517
 20
-153.3629041500273
 10
120.1211778128517
 20
-153.4793483774288
 10
120.1211778128517
 20
-153.6402343365899
 10
120.0746690238008
 20
-153.7818277610337
 10
119.8927679821796
 20
-153.8769123964266
 10
119.698120087263
 20
-153.9806097705326
 10
119.4614420274263
 20
-153.99990230525
 10
119.298489010974
 20
-153.99990230525
 10
119.1544840196906
 20
-153.99990230525
 10
118.9026475397188
 20
-153.9826768278238
 10
118.7038655302199
 20
-153.8769123964266
 10
118.5009494061387
 20
-153.7690809077383
 10
118.477522756839
 20
-153.6081949485771
 10
118.477522756839
 20
-153.4793483774288
 10
118.477522756839
 20
-153.3205294755588
 10
118.5219644885987
 20
-153.1768689938239
 10
118.7038655302199
 20
-153.0814398488824
 10
118.8964463678453
 20
-152.9822210989072
 10
119.1248561985174
 20
-152.9587944496075
 10
119.298489010974
 20
-152.9587944496075
 10
119.4697102565909
 20
-152.9587944496075
 10
119.7001871445541
 20
-152.9801540416161
 10
119.8927679821796
 20
-153.0814398488824
 97
        0
 97
        0
 92
        1
 93
        1
 72
     4
 94
        3
 73
     0
 74
     1
 95
       17
 96
       13
 40
0.0
 40
0.0
 40
0.0
 40
0.0
 40
1.0
 40
1.0
 40
1.0
 40
2.0
 40
2.0
 40
2.0
 40
3.0
 40
3.0
 40
3.0
 40
4.0
 40
4.0
 40
4.0
 40
4.0
 10
118.6701035944644
 20
-153.4793483774288
 10
118.6701035944644
 20
-153.7291178001094
 10
118.9536349529005
 20
-153.7756265891603
 10
119.298489010974
 20
-153.7756265891603
 10
119.6178493624567
 20
-153.7756265891603
 10
119.926529917935
 20
-153.7394530865651
 10
119.926529917935
 20
-153.4793483774288
 10
119.926529917935
 20
-153.2316460120393
 10
119.6454101263386
 20
-153.1830701656973
 10
119.298489010974
 20
-153.1830701656973
 10
118.9787841499428
 20
-153.1830701656973
 10
118.6701035944644
 20
-153.2213107255836
 10
118.6701035944644
 20
-153.4793483774288
 97
        0
 97
        0
 75
     2
 76
     1
 98
        0
  0
POLYLINE
  5
DD
330
D6
100
AcDbEntity
  8
_U+30EC_U+30A4_U+30E4_U+30FC 1
370
     0
100
AcDb2dPolyline
 66
     1
 10
0.0
 20
0.0
 30
0.0
  0
VERTEX
  5
DE
330
DD
100
AcDbEntity
  8
_U+30EC_U+30A4_U+30E4_U+30FC 1
370
     0
100
AcDbVertex
100
AcDb2dVertex
 10
120.0705349092185
 20
-152.7424424531338
 30
0.0
  0
VERTEX
  5
DF
330
DD
100
AcDbEntity
  8
_U+30EC_U+30A4_U+30E4_U+30FC 1
370
     0
100
AcDbVertex
100
AcDb2dVertex
 10
119.8186984292467
 20
-152.7424424531338
 30
0.0
  0
VERTEX
  5
E0
330
DD
100
AcDbEntity
  8
_U+30EC_U+30A4_U+30E4_U+30FC 1
370
     0
100
AcDbVertex
100
AcDb2dVertex
 10
119.8186984292467
 20
-152.4906059731621
 30
0.0
  0
VERTEX
  5
E1
330
DD
100
AcDbEntity
  8
_U+30EC_U+30A4_U+30E4_U+30FC 1
370
     0
100
AcDbVertex
100
AcDb2dVertex
 10
120.0705349092185
 20
-152.4906059731621
 30
0.0
  0
VERTEX
  5
E2
330
DD
100
AcDbEntity
  8
_U+30EC_U+30A4_U+30E4_U+30FC 1
370
     0
100
AcDbVertex
100
AcDb2dVertex
 10
120.0705349092185
 20
-152.7424424531338
 30
0.0
  0
SEQEND
  5
E3
330
DD
100
AcDbEntity
  8
_U+30EC_U+30A4_U+30E4_U+30FC 1
370
     0
  0
HATCH
  5
E4
330
D6
100
AcDbEntity
  8
_U+30EC_U+30A4_U+30E4_U+30FC 1
 62
     7
420
 16777215
100
AcDbHatch
 10
0.0
 20
0.0
 30
0.0
210
0.0
220
0.0
230
1.0
  2
SOLID
 70
     1
 71
     0
 91
        1
 92
        1
 93
        4
 72
     1
 10
120.0705349092185
 20
-152.7424424531338
 11
119.8186984292467
 21
-152.7424424531338
 72
     1
 10
119.8186984292467
 20
-152.7424424531338
 11
119.8186984292467
 21
-152.4906059731621
 72
     1
 10
119.8186984292467
 20
-152.4906059731621
 11
120.0705349092185
 21
-152.4906059731621
 72
     1
 10
120.0705349092185
 20
-152.4906059731621
 11
120.0705349092185
 21
-152.7424424531338
 97
        0
 75
     2
 76
     1
 98
        0
  0
POLYLINE
  5
E5
330
D6
100
AcDbEntity
  8
_U+30EC_U+30A4_U+30E4_U+30FC 1
370
     0
100
AcDb2dPolyline
 66
     1
 10
0.0
 20
0.0
 30
0.0
  0
VERTEX
  5
E6
330
E5
100
AcDbEntity
  8
_U+30EC_U+30A4_U+30E4_U+30FC 1
370
     0
100
AcDbVertex
100
AcDb2dVertex
 10
119.7236137938538
 20
-151.4222818631861
 30
0.0
  0
VERTEX
  5
E7
330
E5
100
AcDbEntity
  8
_U+30EC_U+30A4_U+30E4_U+30FC 1
370
     0
100
AcDbVertex
100
AcDb2dVertex
 10
120.0705349092185
 20
-151.4222818631861
 30
0.0
  0
VERTEX
  5
E8
330
E5
100
AcDbEntity
  8
_U+30EC_U+30A4_U+30E4_U+30FC 1
370
     0
100
AcDbVertex
100
AcDb2dVertex
 10
120.0705349092185
 20
-151.6400118978539
 30
0.0
  0
VERTEX
  5
E9
330
E5
100
AcDbEntity
  8
_U+30EC_U+30A4_U+30E4_U+30FC 1
370
     0
100
AcDbVertex
100
AcDb2dVertex
 10
119.7236137938538
 20
-151.6400118978539
 30
0.0
  0
VERTEX
  5
EA
330
E5
100
AcDbEntity
  8
_U+30EC_U+30A4_U+30E4_U+30FC 1
370
     0
100
AcDbVertex
100
AcDb2dVertex
 10
119.7236137938538
 20
-152.2959580782455
 30
0.0
  0
VERTEX
  5
EB
330
E5
100
AcDbEntity
  8
_U+30EC_U+30A4_U+30E4_U+30FC 1
370
     0
100
AcDbVertex
100
AcDb2dVertex
 10
119.4993380777641
 20
-152.2959580782455
 30
0.0
  0
VERTEX
  5
EC
330
E5
100
AcDbEntity
  8
_U+30EC_U+30A4_U+30E4_U+30FC 1
370
     0
100
AcDbVertex
100
AcDb2dVertex
 10
118.526098603181
 20
-151.6169297581027
 30
0.0
  0
VERTEX
  5
ED
330
E5
100
AcDbEntity
  8
_U+30EC_U+30A4_U+30E4_U+30FC 1
370
     0
100
AcDbVertex
100
AcDb2dVertex
 10
118.526098603181
 20
-151.4222818631861
 30
0.0
  0
VERTEX
  5
EE
330
E5
100
AcDbEntity
  8
_U+30EC_U+30A4_U+30E4_U+30FC 1
370
     0
100
AcDbVertex
100
AcDb2dVertex
 10
119.5248317843549
 20
-151.4222818631861
 30
0.0
  0
VERTEX
  5
EF
330
E5
100
AcDbEntity
  8
_U+30EC_U+30A4_U+30E4_U+30FC 1
370
     0
100
AcDbVertex
100
AcDb2dVertex
 10
119.5248317843549
 20
-151.2148871149741
 30
0.0
  0
VERTEX
  5
F0
330
E5
100
AcDbEntity
  8
_U+30EC_U+30A4_U+30E4_U+30FC 1
370
     0
100
AcDbVertex
100
AcDb2dVertex
 10
119.7236137938538
 20
-151.2148871149741
 30
0.0
  0
VERTEX
  5
F1
330
E5
100
AcDbEntity
  8
_U+30EC_U+30A4_U+30E4_U+30FC 1
370
     0
100
AcDbVertex
100
AcDb2dVertex
 10
119.7236137938538
 20
-151.4222818631861
 30
0.0
  0
SEQEND
  5
F2
330
E5
100
AcDbEntity
  8
_U+30EC_U+30A4_U+30E4_U+30FC 1
370
     0
  0
POLYLINE
  5
F3
330
D6
100
AcDbEntity
  8
_U+30EC_U+30A4_U+30E4_U+30FC 1
370
     0
100
AcDb2dPolyline
 66
     1
 10
0.0
 20
0.0
 30
0.0
  0
VERTEX
  5
F4
330
F3
100
AcDbEntity
  8
_U+30EC_U+30A4_U+30E4_U+30FC 1
370
     0
100
AcDbVertex
100
AcDb2dVertex
 10
118.8688856039633
 20
-151.6400118978539
 30
0.0
  0
VERTEX
  5
F5
330
F3
100
AcDbEntity
  8
_U+30EC_U+30A4_U+30E4_U+30FC 1
370
     0
100
AcDbVertex
100
AcDb2dVertex
 10
119.5248317843549
 20
-152.0971760687465
 30
0.0
  0
VERTEX
  5
F6
330
F3
100
AcDbEntity
  8
_U+30EC_U+30A4_U+30E4_U+30FC 1
370
     0
100
AcDbVertex
100
AcDb2dVertex
 10
119.5248317843549
 20
-151.6400118978539
 30
0.0
  0
VERTEX
  5
F7
330
F3
100
AcDbEntity
  8
_U+30EC_U+30A4_U+30E4_U+30FC 1
370
     0
100
AcDbVertex
100
AcDb2dVertex
 10
118.8688856039633
 20
-151.6400118978539
 30
0.0
  0
SEQEND
  5
F8
330
F3
100
AcDbEntity
  8
_U+30EC_U+30A4_U+30E4_U+30FC 1
370
     0
  0
HATCH
  5
F9
330
D6
100
AcDbEntity
  8
_U+30EC_U+30A4_U+30E4_U+30FC 1
 62
     7
420
 16777215
100
AcDbHatch
 10
0.0
 20
0.0
 30
0.0
210
0.0
220
0.0
230
1.0
  2
SOLID
 70
     1
 71
     0
 91
        2
 92
        1
 93
       11
 72
     1
 10
119.7236137938538
 20
-151.4222818631861
 11
120.0705349092185
 21
-151.4222818631861
 72
     1
 10
120.0705349092185
 20
-151.4222818631861
 11
120.0705349092185
 21
-151.6400118978539
 72
     1
 10
120.0705349092185
 20
-151.6400118978539
 11
119.7236137938538
 21
-151.6400118978539
 72
     1
 10
119.7236137938538
 20
-151.6400118978539
 11
119.7236137938538
 21
-152.2959580782455
 72
     1
 10
119.7236137938538
 20
-152.2959580782455
 11
119.4993380777641
 21
-152.2959580782455
 72
     1
 10
119.4993380777641
 20
-152.2959580782455
 11
118.526098603181
 21
-151.6169297581027
 72
     1
 10
118.526098603181
 20
-151.6169297581027
 11
118.526098603181
 21
-151.4222818631861
 72
     1
 10
118.526098603181
 20
-151.4222818631861
 11
119.5248317843549
 21
-151.4222818631861
 72
     1
 10
119.5248317843549
 20
-151.4222818631861
 11
119.5248317843549
 21
-151.2148871149741
 72
     1
 10
119.5248317843549
 20
-151.2148871149741
 11
119.7236137938538
 21
-151.2148871149741
 72
     1
 10
119.7236137938538
 20
-151.2148871149741
 11
119.7236137938538
 21
-151.4222818631861
 97
        0
 92
        1
 93
        3
 72
     1
 10
118.8688856039633
 20
-151.6400118978539
 11
119.5248317843549
 21
-152.0971760687465
 72
     1
 10
119.5248317843549
 20
-152.0971760687465
 11
119.5248317843549
 21
-151.6400118978539
 72
     1
 10
119.5248317843549
 20
-151.6400118978539
 11
118.8688856039633
 21
-151.6400118978539
 97
        0
 75
     2
 76
     1
 98
        0
  0
ENDBLK
  5
D9
330
D6
100
AcDbEntity
  8
0
100
AcDbBlockEnd
  0
BLOCK
  5
100
330
FE
100
AcDbEntity
  8
0
100
AcDbBlockBegin
  2
block 7
 70
     0
 10
0.0
 20
0.0
 30
0.0
  3
block 7
  1

  0
SPLINE
  5
102
330
FE
100
AcDbEntity
  8
_U+30EC_U+30A4_U+30E4_U+30FC 1
370
     0
100
AcDbSpline
210
0.0
220
0.0
230
1.0
 70
    11
 71
     3
 72
    17
 73
    13
 74
     0
 42
0.0000000001
 43
0.0000000001
 12
1.0
 22
0.0
 32
0.0
 13
1.0
 23
0.0
 33
0.0
 40
0.0
 40
0.0
 40
0.0
 40
0.0
 40
1.0
 40
1.0
 40
1.0
 40
2.0
 40
2.0
 40
2.0
 40
3.0
 40
3.0
 40
3.0
 40
4.0
 40
4.0
 40
4.0
 40
4.0
 10
116.257503226144
 20
-157.4508544528248
 30
0.0
 10
116.1517387947468
 20
-157.3450900214276
 30
0.0
 10
116.071123560392
 20
-157.3071939710899
 30
0.0
 10
115.9781059822902
 20
-157.2754990926256
 30
0.0
 10
115.9781059822902
 20
-157.2754990926256
 30
0.0
 10
116.0883490378182
 20
-157.1104790188821
 30
0.0
 10
116.0883490378182
 20
-157.1104790188821
 30
0.0
 10
116.1855007305022
 20
-157.1528536933507
 30
0.0
 10
116.306079072486
 20
-157.2310573608659
 30
0.0
 10
116.3591335429588
 20
-157.2858343790813
 30
0.0
 10
116.3591335429588
 20
-157.2858343790813
 30
0.0
 10
116.257503226144
 20
-157.4508544528248
 30
0.0
 10
116.257503226144
 20
-157.4508544528248
 30
0.0
  0
SPLINE
  5
103
330
FE
100
AcDbEntity
  8
_U+30EC_U+30A4_U+30E4_U+30FC 1
370
     0
100
AcDbSpline
210
0.0
220
0.0
230
1.0
 70
    11
 71
     3
 72
   182
 73
   178
 74
     0
 42
0.0000000001
 43
0.0000000001
 12
1.0
 22
0.0
 32
0.0
 13
1.0
 23
0.0
 33
0.0
 40
0.0
 40
0.0
 40
0.0
 40
0.0
 40
1.0
 40
1.0
 40
1.0
 40
2.0
 40
2.0
 40
2.0
 40
3.0
 40
3.0
 40
3.0
 40
4.0
 40
4.0
 40
4.0
 40
5.0
 40
5.0
 40
5.0
 40
6.0
 40
6.0
 40
6.0
 40
7.0
 40
7.0
 40
7.0
 40
8.0
 40
8.0
 40
8.0
 40
9.0
 40
9.0
 40
9.0
 40
10.0
 40
10.0
 40
10.0
 40
11.0
 40
11.0
 40
11.0
 40
12.0
 40
12.0
 40
12.0
 40
13.0
 40
13.0
 40
13.0
 40
14.0
 40
14.0
 40
14.0
 40
15.0
 40
15.0
 40
15.0
 40
16.0
 40
16.0
 40
16.0
 40
17.0
 40
17.0
 40
17.0
 40
18.0
 40
18.0
 40
18.0
 40
19.0
 40
19.0
 40
19.0
 40
20.0
 40
20.0
 40
20.0
 40
21.0
 40
21.0
 40
21.0
 40
22.0
 40
22.0
 40
22.0
 40
23.0
 40
23.0
 40
23.0
 40
24.0
 40
24.0
 40
24.0
 40
25.0
 40
25.0
 40
25.0
 40
26.0
 40
26.0
 40
26.0
 40
27.0
 40
27.0
 40
27.0
 40
28.0
 40
28.0
 40
28.0
 40
29.0
 40
29.0
 40
29.0
 40
30.0
 40
30.0
 40
30.0
 40
31.0
 40
31.0
 40
31.0
 40
32.0
 40
32.0
 40
32.0
 40
33.0
 40
33.0
 40
33.0
 40
34.0
 40
34.0
 40
34.0
 40
35.0
 40
35.0
 40
35.0
 40
36.0
 40
36.0
 40
36.0
 40
37.0
 40
37.0
 40
37.0
 40
38.0
 40
38.0
 40
38.0
 40
39.0
 40
39.0
 40
39.0
 40
40.0
 40
40.0
 40
40.0
 40
41.0
 40
41.0
 40
41.0
 40
42.0
 40
42.0
 40
42.0
 40
43.0
 40
43.0
 40
43.0
 40
44.0
 40
44.0
 40
44.0
 40
45.0
 40
45.0
 40
45.0
 40
46.0
 40
46.0
 40
46.0
 40
47.0
 40
47.0
 40
47.0
 40
48.0
 40
48.0
 40
48.0
 40
49.0
 40
49.0
 40
49.0
 40
50.0
 40
50.0
 40
50.0
 40
51.0
 40
51.0
 40
51.0
 40
52.0
 40
52.0
 40
52.0
 40
53.0
 40
53.0
 40
53.0
 40
54.0
 40
54.0
 40
54.0
 40
55.0
 40
55.0
 40
55.0
 40
56.0
 40
56.0
 40
56.0
 40
57.0
 40
57.0
 40
57.0
 40
58.0
 40
58.0
 40
58.0
 40
59.0
 40
59.0
 40
59.0
 40
59.0
 10
117.3024006868202
 20
-158.6294216183288
 30
0.0
 10
117.3024006868202
 20
-158.6294216183288
 30
0.0
 10
116.6657470411461
 20
-158.6294216183288
 30
0.0
 10
116.6657470411461
 20
-158.6294216183288
 30
0.0
 10
116.4521511210606
 20
-158.6294216183288
 30
0.0
 10
116.2361436341354
 20
-158.633555732911
 30
0.0
 10
116.0225477140499
 20
-158.6463025862065
 30
0.0
 10
116.0225477140499
 20
-158.6463025862065
 30
0.0
 10
116.0225477140499
 20
-158.4389078379944
 30
0.0
 10
116.0225477140499
 20
-158.4389078379944
 30
0.0
 10
116.2447563728485
 20
-158.4516546912899
 30
0.0
 10
116.5682508389135
 20
-158.4557888058722
 30
0.0
 10
116.6657470411461
 20
-158.4557888058722
 30
0.0
 10
116.6657470411461
 20
-158.4557888058722
 30
0.0
 10
116.8858886426535
 20
-158.4557888058722
 30
0.0
 10
116.8858886426535
 20
-158.4557888058722
 30
0.0
 10
116.8858886426535
 20
-158.4557888058722
 30
0.0
 10
116.8858886426535
 20
-158.3141953814284
 30
0.0
 10
116.8858886426535
 20
-158.3141953814284
 30
0.0
 10
116.8858886426535
 20
-158.3141953814284
 30
0.0
 10
116.7250026834924
 20
-158.3141953814284
 30
0.0
 10
116.7250026834924
 20
-158.3141953814284
 30
0.0
 10
116.5599826097489
 20
-158.3141953814284
 30
0.0
 10
116.3949625360054
 20
-158.3183294960107
 30
0.0
 10
116.229942462262
 20
-158.3331434065973
 30
0.0
 10
116.229942462262
 20
-158.3331434065973
 30
0.0
 10
116.229942462262
 20
-158.1236816010941
 30
0.0
 10
116.229942462262
 20
-158.1236816010941
 30
0.0
 10
116.4011637078789
 20
-158.1384955116807
 30
0.0
 10
116.6488660732684
 20
-158.142629626263
 30
0.0
 10
116.7250026834924
 20
-158.142629626263
 30
0.0
 10
116.7250026834924
 20
-158.142629626263
 30
0.0
 10
116.8858886426535
 20
-158.142629626263
 30
0.0
 10
116.8858886426535
 20
-158.142629626263
 30
0.0
 10
116.8814100185227
 20
-158.0709716401698
 30
0.0
 10
116.8814100185227
 20
-158.0644259587478
 30
0.0
 10
116.8752088466493
 20
-158.0117159978235
 30
0.0
 10
116.8752088466493
 20
-158.0117159978235
 30
0.0
 10
117.0147352138019
 20
-158.0265299084101
 30
0.0
 10
117.0147352138019
 20
-158.0265299084101
 30
0.0
 10
117.0147352138019
 20
-158.0265299084101
 30
0.0
 10
116.9155164638267
 20
-157.8549641532446
 30
0.0
 10
116.9155164638267
 20
-157.8549641532446
 30
0.0
 10
116.9620252528776
 20
-157.8615098346666
 30
0.0
 10
117.0360948058104
 20
-157.8697780638312
 30
0.0
 10
117.0529757736881
 20
-157.8697780638312
 30
0.0
 10
117.1036186773213
 20
-157.8697780638312
 30
0.0
 10
117.120499645199
 20
-157.8487629813712
 30
0.0
 10
117.120499645199
 20
-157.791574396316
 30
0.0
 10
117.120499645199
 20
-157.791574396316
 30
0.0
 10
117.120499645199
 20
-157.6541150864545
 30
0.0
 10
117.120499645199
 20
-157.6541150864545
 30
0.0
 10
117.120499645199
 20
-157.6541150864545
 30
0.0
 10
117.0147352138019
 20
-157.6541150864545
 30
0.0
 10
117.0147352138019
 20
-157.6541150864545
 30
0.0
 10
116.8814100185227
 20
-157.6541150864545
 30
0.0
 10
116.7250026834924
 20
-157.6541150864545
 30
0.0
 10
116.6023572842175
 20
-157.66686193975
 30
0.0
 10
116.6023572842175
 20
-157.66686193975
 30
0.0
 10
116.6023572842175
 20
-157.4763481594156
 30
0.0
 10
116.6023572842175
 20
-157.4763481594156
 30
0.0
 10
116.7694444152521
 20
-157.4932291272934
 30
0.0
 10
116.9999213032153
 20
-157.4952961845845
 30
0.0
 10
117.0147352138019
 20
-157.4952961845845
 30
0.0
 10
117.0147352138019
 20
-157.4952961845845
 30
0.0
 10
117.120499645199
 20
-157.4952961845845
 30
0.0
 10
117.120499645199
 20
-157.4952961845845
 30
0.0
 10
117.120499645199
 20
-157.4952961845845
 30
0.0
 10
117.120499645199
 20
-157.364382556145
 30
0.0
 10
117.120499645199
 20
-157.364382556145
 30
0.0
 10
117.120499645199
 20
-157.364382556145
 30
0.0
 10
117.0826035948613
 20
-157.364382556145
 30
0.0
 10
117.0826035948613
 20
-157.364382556145
 30
0.0
 10
117.0381618631016
 20
-157.364382556145
 30
0.0
 10
116.913104896987
 20
-157.3685166707273
 30
0.0
 10
116.8242214334676
 20
-157.3767848998919
 30
0.0
 10
116.8242214334676
 20
-157.3767848998919
 30
0.0
 10
116.8242214334676
 20
-157.2965141750856
 30
0.0
 10
116.8242214334676
 20
-157.2965141750856
 30
0.0
 10
116.7715114725432
 20
-157.3347547349719
 30
0.0
 10
116.7460177659524
 20
-157.3495686455584
 30
0.0
 10
116.7036430914838
 20
-157.3726507853096
 30
0.0
 10
116.7036430914838
 20
-157.3726507853096
 30
0.0
 10
116.5155408779892
 20
-157.2438042141613
 30
0.0
 10
116.5155408779892
 20
-157.2438042141613
 30
0.0
 10
116.5937445455044
 20
-157.2096977688573
 30
0.0
 10
116.7504963900832
 20
-157.1463080119287
 30
0.0
 10
116.9069037251136
 20
-157.0026475301938
 30
0.0
 10
116.989241507211
 20
-156.9240993531301
 30
0.0
 10
117.0677896842747
 20
-156.8396945137415
 30
0.0
 10
117.120499645199
 20
-156.7380641969266
 30
0.0
 10
117.120499645199
 20
-156.7380641969266
 30
0.0
 10
117.3320285079934
 20
-156.799386896564
 30
0.0
 10
117.3320285079934
 20
-156.799386896564
 30
0.0
 10
117.3513210427108
 20
-156.8055880684375
 30
0.0
 10
117.3616563291665
 20
-156.8142008071506
 30
0.0
 10
117.3616563291665
 20
-156.8269476604461
 30
0.0
 10
117.3616563291665
 20
-156.8438286283238
 30
0.0
 10
117.3489094758711
 20
-156.8500298001972
 30
0.0
 10
117.3237602788288
 20
-156.8627766534927
 30
0.0
 10
117.4040310036351
 20
-156.9602728557252
 30
0.0
 10
117.5669840200874
 20
-157.0574245484093
 30
0.0
 10
117.6007459558429
 20
-157.0763725735781
 30
0.0
 10
117.7509521189998
 20
-157.1652560370976
 30
0.0
 10
117.8653292891101
 20
-157.1928168009796
 30
0.0
 10
117.9435329566252
 20
-157.2117648261485
 30
0.0
 10
117.9435329566252
 20
-157.2117648261485
 30
0.0
 10
117.8250216719326
 20
-157.3812635240228
 30
0.0
 10
117.8250216719326
 20
-157.3812635240228
 30
0.0
 10
117.7402723229955
 20
-157.3516357028496
 30
0.0
 10
117.6896294193623
 20
-157.3326876776807
 30
0.0
 10
117.5711181346697
 20
-157.2668863539124
 30
0.0
 10
117.5711181346697
 20
-157.2668863539124
 30
0.0
 10
117.5711181346697
 20
-157.3767848998919
 30
0.0
 10
117.5711181346697
 20
-157.3767848998919
 30
0.0
 10
117.4887803525722
 20
-157.3685166707273
 30
0.0
 10
117.3616563291665
 20
-157.364382556145
 30
0.0
 10
117.3089463682422
 20
-157.364382556145
 30
0.0
 10
117.3089463682422
 20
-157.364382556145
 30
0.0
 10
117.3089463682422
 20
-157.4952961845845
 30
0.0
 10
117.3089463682422
 20
-157.4952961845845
 30
0.0
 10
117.3089463682422
 20
-157.4952961845845
 30
0.0
 10
117.429524710226
 20
-157.4952961845845
 30
0.0
 10
117.429524710226
 20
-157.4952961845845
 30
0.0
 10
117.4315917675171
 20
-157.4952961845845
 30
0.0
 10
117.6641357127715
 20
-157.4932291272934
 30
0.0
 10
117.8419026398104
 20
-157.4763481594156
 30
0.0
 10
117.8419026398104
 20
-157.4763481594156
 30
0.0
 10
117.8419026398104
 20
-157.66686193975
 30
0.0
 10
117.8419026398104
 20
-157.66686193975
 30
0.0
 10
117.713056068662
 20
-157.6541150864545
 30
0.0
 10
117.5563042240831
 20
-157.6541150864545
 30
0.0
 10
117.429524710226
 20
-157.6541150864545
 30
0.0
 10
117.429524710226
 20
-157.6541150864545
 30
0.0
 10
117.3089463682422
 20
-157.6541150864545
 30
0.0
 10
117.3089463682422
 20
-157.6541150864545
 30
0.0
 10
117.3089463682422
 20
-157.6541150864545
 30
0.0
 10
117.3089463682422
 20
-157.8804578598354
 30
0.0
 10
117.3089463682422
 20
-157.8804578598354
 30
0.0
 10
117.3089463682422
 20
-157.998969144528
 30
0.0
 10
117.2834526616514
 20
-158.0347981375747
 30
0.0
 10
117.1225667024902
 20
-158.0496120481612
 30
0.0
 10
117.127045326621
 20
-158.0685600733301
 30
0.0
 10
117.120499645199
 20
-158.0792398693344
 30
0.0
 10
117.0826035948613
 20
-158.1026665186341
 30
0.0
 10
117.0805365375702
 20
-158.1216145438029
 30
0.0
 10
117.0805365375702
 20
-158.1278157156764
 30
0.0
 10
117.0781249707305
 20
-158.142629626263
 30
0.0
 10
117.0781249707305
 20
-158.142629626263
 30
0.0
 10
117.2155842805919
 20
-158.142629626263
 30
0.0
 10
117.2155842805919
 20
-158.142629626263
 30
0.0
 10
117.3806043543354
 20
-158.142629626263
 30
0.0
 10
117.5480359949185
 20
-158.1384955116807
 30
0.0
 10
117.7151231259532
 20
-158.1236816010941
 30
0.0
 10
117.7151231259532
 20
-158.1236816010941
 30
0.0
 10
117.7151231259532
 20
-158.3310763493061
 30
0.0
 10
117.7151231259532
 20
-158.3310763493061
 30
0.0
 10
117.499115639028
 20
-158.3141953814284
 30
0.0
 10
117.2348768153093
 20
-158.3141953814284
 30
0.0
 10
117.2155842805919
 20
-158.3141953814284
 30
0.0
 10
117.2155842805919
 20
-158.3141953814284
 30
0.0
 10
117.0760579134393
 20
-158.3141953814284
 30
0.0
 10
117.0760579134393
 20
-158.3141953814284
 30
0.0
 10
117.0760579134393
 20
-158.3141953814284
 30
0.0
 10
117.0760579134393
 20
-158.4557888058722
 30
0.0
 10
117.0760579134393
 20
-158.4557888058722
 30
0.0
 10
117.0760579134393
 20
-158.4557888058722
 30
0.0
 10
117.3024006868202
 20
-158.4557888058722
 30
0.0
 10
117.3024006868202
 20
-158.4557888058722
 30
0.0
 10
117.5184081737454
 20
-158.4557888058722
 30
0.0
 10
117.7361382084132
 20
-158.4516546912899
 30
0.0
 10
117.9518011857898
 20
-158.4389078379944
 30
0.0
 10
117.9518011857898
 20
-158.4389078379944
 30
0.0
 10
117.9518011857898
 20
-158.6463025862065
 30
0.0
 10
117.9518011857898
 20
-158.6463025862065
 30
0.0
 10
117.6706813941935
 20
-158.6294216183288
 30
0.0
 10
117.3258273361199
 20
-158.6294216183288
 30
0.0
 10
117.3024006868202
 20
-158.6294216183288
 30
0.0
  0
SPLINE
  5
104
330
FE
100
AcDbEntity
  8
_U+30EC_U+30A4_U+30E4_U+30FC 1
370
     0
100
AcDbSpline
210
0.0
220
0.0
230
1.0
 70
    11
 71
     3
 72
    23
 73
    19
 74
     0
 42
0.0000000001
 43
0.0000000001
 12
1.0
 22
0.0
 32
0.0
 13
1.0
 23
0.0
 33
0.0
 40
0.0
 40
0.0
 40
0.0
 40
0.0
 40
1.0
 40
1.0
 40
1.0
 40
2.0
 40
2.0
 40
2.0
 40
3.0
 40
3.0
 40
3.0
 40
4.0
 40
4.0
 40
4.0
 40
5.0
 40
5.0
 40
5.0
 40
6.0
 40
6.0
 40
6.0
 40
6.0
 10
116.1834336732111
 20
-158.0010362018192
 30
0.0
 10
116.1834336732111
 20
-158.0220512842792
 30
0.0
 10
116.1855007305022
 20
-158.0602918441655
 30
0.0
 10
116.1600070239114
 20
-158.0602918441655
 30
0.0
 10
116.1496717374556
 20
-158.0602918441655
 30
0.0
 10
116.1410589987425
 20
-158.0537461627435
 30
0.0
 10
116.1303792027382
 20
-158.0368651948658
 30
0.0
 10
116.1303792027382
 20
-158.0368651948658
 30
0.0
 10
116.0266818286322
 20
-157.8549641532446
 30
0.0
 10
116.0266818286322
 20
-157.8549641532446
 30
0.0
 10
116.2426893155574
 20
-157.7261175820963
 30
0.0
 10
116.4394042677652
 20
-157.4487873955337
 30
0.0
 10
116.485913056816
 20
-157.3767848998919
 30
0.0
 10
116.485913056816
 20
-157.3767848998919
 30
0.0
 10
116.5579155524577
 20
-157.556618884222
 30
0.0
 10
116.5579155524577
 20
-157.556618884222
 30
0.0
 10
116.4245903571786
 20
-157.7533338364297
 30
0.0
 10
116.2488904874308
 20
-157.9376464448906
 30
0.0
 10
116.1834336732111
 20
-158.0010362018192
 30
0.0
  0
SPLINE
  5
105
330
FE
100
AcDbEntity
  8
_U+30EC_U+30A4_U+30E4_U+30FC 1
370
     0
100
AcDbSpline
210
0.0
220
0.0
230
1.0
 70
    11
 71
     3
 72
    17
 73
    13
 74
     0
 42
0.0000000001
 43
0.0000000001
 12
1.0
 22
0.0
 32
0.0
 13
1.0
 23
0.0
 33
0.0
 40
0.0
 40
0.0
 40
0.0
 40
0.0
 40
1.0
 40
1.0
 40
1.0
 40
2.0
 40
2.0
 40
2.0
 40
3.0
 40
3.0
 40
3.0
 40
4.0
 40
4.0
 40
4.0
 40
4.0
 10
116.437337210474
 20
-157.1060003947513
 30
0.0
 10
116.3760145108366
 20
-157.0298637845273
 30
0.0
 10
116.2468234301397
 20
-156.9537271743033
 30
0.0
 10
116.1431260560337
 20
-156.9240993531301
 30
0.0
 10
116.1431260560337
 20
-156.9240993531301
 30
0.0
 10
116.2385552009751
 20
-156.7590792793866
 30
0.0
 10
116.2385552009751
 20
-156.7590792793866
 30
0.0
 10
116.3398410082414
 20
-156.7952527819818
 30
0.0
 10
116.4456054396386
 20
-156.8524413670369
 30
0.0
 10
116.534488903158
 20
-156.9327120918432
 30
0.0
 10
116.534488903158
 20
-156.9327120918432
 30
0.0
 10
116.437337210474
 20
-157.1060003947513
 30
0.0
 10
116.437337210474
 20
-157.1060003947513
 30
0.0
  0
SPLINE
  5
106
330
FE
100
AcDbEntity
  8
_U+30EC_U+30A4_U+30E4_U+30FC 1
370
     0
100
AcDbSpline
210
0.0
220
0.0
230
1.0
 70
    11
 71
     3
 72
    23
 73
    19
 74
     0
 42
0.0000000001
 43
0.0000000001
 12
1.0
 22
0.0
 32
0.0
 13
1.0
 23
0.0
 33
0.0
 40
0.0
 40
0.0
 40
0.0
 40
0.0
 40
1.0
 40
1.0
 40
1.0
 40
2.0
 40
2.0
 40
2.0
 40
3.0
 40
3.0
 40
3.0
 40
4.0
 40
4.0
 40
4.0
 40
5.0
 40
5.0
 40
5.0
 40
6.0
 40
6.0
 40
6.0
 40
6.0
 10
116.8900227572358
 20
-157.8105224214849
 30
0.0
 10
116.8686631652273
 20
-157.8339490707846
 30
0.0
 10
116.7715114725432
 20
-157.9459146740552
 30
0.0
 10
116.6319851053906
 20
-158.0265299084101
 30
0.0
 10
116.6319851053906
 20
-158.0265299084101
 30
0.0
 10
116.464897974356
 20
-157.9059515664263
 30
0.0
 10
116.464897974356
 20
-157.9059515664263
 30
0.0
 10
116.6151041375129
 20
-157.8298149562023
 30
0.0
 10
116.7143228874881
 20
-157.7343858112609
 30
0.0
 10
116.7628987338301
 20
-157.6816758503365
 30
0.0
 10
116.7628987338301
 20
-157.6816758503365
 30
0.0
 10
116.9365315462867
 20
-157.764013632434
 30
0.0
 10
116.9365315462867
 20
-157.764013632434
 30
0.0
 10
116.9447997754513
 20
-157.7681477470163
 30
0.0
 10
116.9534125141644
 20
-157.7746934284383
 30
0.0
 10
116.9534125141644
 20
-157.7853732244426
 30
0.0
 10
116.9534125141644
 20
-157.8105224214849
 30
0.0
 10
116.9175835211178
 20
-157.8105224214849
 30
0.0
 10
116.8900227572358
 20
-157.8105224214849
 30
0.0
  0
SPLINE
  5
107
330
FE
100
AcDbEntity
  8
_U+30EC_U+30A4_U+30E4_U+30FC 1
370
     0
100
AcDbSpline
210
0.0
220
0.0
230
1.0
 70
    11
 71
     3
 72
    20
 73
    16
 74
     0
 42
0.0000000001
 43
0.0000000001
 12
1.0
 22
0.0
 32
0.0
 13
1.0
 23
0.0
 33
0.0
 40
0.0
 40
0.0
 40
0.0
 40
0.0
 40
1.0
 40
1.0
 40
1.0
 40
2.0
 40
2.0
 40
2.0
 40
3.0
 40
3.0
 40
3.0
 40
4.0
 40
4.0
 40
4.0
 40
5.0
 40
5.0
 40
5.0
 40
5.0
 10
117.1883680262585
 20
-156.9685410848898
 30
0.0
 10
117.1501274663722
 20
-157.0174614407804
 30
0.0
 10
117.0888047667348
 20
-157.0956651082955
 30
0.0
 10
116.9492783995821
 20
-157.205563654275
 30
0.0
 10
117.0295491243885
 20
-157.2096977688573
 30
0.0
 10
117.0591769455616
 20
-157.2096977688573
 30
0.0
 10
117.0826035948613
 20
-157.2096977688573
 30
0.0
 10
117.0826035948613
 20
-157.2096977688573
 30
0.0
 10
117.3110134255334
 20
-157.2096977688573
 30
0.0
 10
117.3110134255334
 20
-157.2096977688573
 30
0.0
 10
117.3427083039977
 20
-157.2096977688573
 30
0.0
 10
117.3912841503397
 20
-157.2076307115662
 30
0.0
 10
117.4653537032726
 20
-157.205563654275
 30
0.0
 10
117.3533881000019
 20
-157.1314941013421
 30
0.0
 10
117.3044677441114
 20
-157.0849853122913
 30
0.0
 10
117.1883680262585
 20
-156.9685410848898
 30
0.0
  0
SPLINE
  5
108
330
FE
100
AcDbEntity
  8
_U+30EC_U+30A4_U+30E4_U+30FC 1
370
     0
100
AcDbSpline
210
0.0
220
0.0
230
1.0
 70
    11
 71
     3
 72
    17
 73
    13
 74
     0
 42
0.0000000001
 43
0.0000000001
 12
1.0
 22
0.0
 32
0.0
 13
1.0
 23
0.0
 33
0.0
 40
0.0
 40
0.0
 40
0.0
 40
0.0
 40
1.0
 40
1.0
 40
1.0
 40
2.0
 40
2.0
 40
2.0
 40
3.0
 40
3.0
 40
3.0
 40
4.0
 40
4.0
 40
4.0
 40
4.0
 10
117.7488850617086
 20
-158.0241183415704
 30
0.0
 10
117.6134928091383
 20
-157.9121527382997
 30
0.0
 10
117.5077283777411
 20
-157.8487629813712
 30
0.0
 10
117.3892170930485
 20
-157.7853732244426
 30
0.0
 10
117.3892170930485
 20
-157.7853732244426
 30
0.0
 10
117.5159966069057
 20
-157.6730631116234
 30
0.0
 10
117.5159966069057
 20
-157.6730631116234
 30
0.0
 10
117.6472547448937
 20
-157.7195719006743
 30
0.0
 10
117.7571532908732
 20
-157.7767604857294
 30
0.0
 10
117.8822102569878
 20
-157.8783908025443
 30
0.0
 10
117.8822102569878
 20
-157.8783908025443
 30
0.0
 10
117.7488850617086
 20
-158.0241183415704
 30
0.0
 10
117.7488850617086
 20
-158.0241183415704
 30
0.0
  0
HATCH
  5
109
330
FE
100
AcDbEntity
  8
_U+30EC_U+30A4_U+30E4_U+30FC 1
 62
     7
420
 16777215
100
AcDbHatch
 10
0.0
 20
0.0
 30
0.0
210
0.0
220
0.0
230
1.0
  2
SOLID
 70
     1
 71
     0
 91
        7
 92
        1
 93
        1
 72
     4
 94
        3
 73
     0
 74
     1
 95
       17
 96
       13
 40
0.0
 40
0.0
 40
0.0
 40
0.0
 40
1.0
 40
1.0
 40
1.0
 40
2.0
 40
2.0
 40
2.0
 40
3.0
 40
3.0
 40
3.0
 40
4.0
 40
4.0
 40
4.0
 40
4.0
 10
116.257503226144
 20
-157.4508544528248
 10
116.1517387947468
 20
-157.3450900214276
 10
116.071123560392
 20
-157.3071939710899
 10
115.9781059822902
 20
-157.2754990926256
 10
115.9781059822902
 20
-157.2754990926256
 10
116.0883490378182
 20
-157.1104790188821
 10
116.0883490378182
 20
-157.1104790188821
 10
116.1855007305022
 20
-157.1528536933507
 10
116.306079072486
 20
-157.2310573608659
 10
116.3591335429588
 20
-157.2858343790813
 10
116.3591335429588
 20
-157.2858343790813
 10
116.257503226144
 20
-157.4508544528248
 10
116.257503226144
 20
-157.4508544528248
 97
        0
 97
        0
 92
        1
 93
        1
 72
     4
 94
        3
 73
     0
 74
     1
 95
      182
 96
      178
 40
0.0
 40
0.0
 40
0.0
 40
0.0
 40
1.0
 40
1.0
 40
1.0
 40
2.0
 40
2.0
 40
2.0
 40
3.0
 40
3.0
 40
3.0
 40
4.0
 40
4.0
 40
4.0
 40
5.0
 40
5.0
 40
5.0
 40
6.0
 40
6.0
 40
6.0
 40
7.0
 40
7.0
 40
7.0
 40
8.0
 40
8.0
 40
8.0
 40
9.0
 40
9.0
 40
9.0
 40
10.0
 40
10.0
 40
10.0
 40
11.0
 40
11.0
 40
11.0
 40
12.0
 40
12.0
 40
12.0
 40
13.0
 40
13.0
 40
13.0
 40
14.0
 40
14.0
 40
14.0
 40
15.0
 40
15.0
 40
15.0
 40
16.0
 40
16.0
 40
16.0
 40
17.0
 40
17.0
 40
17.0
 40
18.0
 40
18.0
 40
18.0
 40
19.0
 40
19.0
 40
19.0
 40
20.0
 40
20.0
 40
20.0
 40
21.0
 40
21.0
 40
21.0
 40
22.0
 40
22.0
 40
22.0
 40
23.0
 40
23.0
 40
23.0
 40
24.0
 40
24.0
 40
24.0
 40
25.0
 40
25.0
 40
25.0
 40
26.0
 40
26.0
 40
26.0
 40
27.0
 40
27.0
 40
27.0
 40
28.0
 40
28.0
 40
28.0
 40
29.0
 40
29.0
 40
29.0
 40
30.0
 40
30.0
 40
30.0
 40
31.0
 40
31.0
 40
31.0
 40
32.0
 40
32.0
 40
32.0
 40
33.0
 40
33.0
 40
33.0
 40
34.0
 40
34.0
 40
34.0
 40
35.0
 40
35.0
 40
35.0
 40
36.0
 40
36.0
 40
36.0
 40
37.0
 40
37.0
 40
37.0
 40
38.0
 40
38.0
 40
38.0
 40
39.0
 40
39.0
 40
39.0
 40
40.0
 40
40.0
 40
40.0
 40
41.0
 40
41.0
 40
41.0
 40
42.0
 40
42.0
 40
42.0
 40
43.0
 40
43.0
 40
43.0
 40
44.0
 40
44.0
 40
44.0
 40
45.0
 40
45.0
 40
45.0
 40
46.0
 40
46.0
 40
46.0
 40
47.0
 40
47.0
 40
47.0
 40
48.0
 40
48.0
 40
48.0
 40
49.0
 40
49.0
 40
49.0
 40
50.0
 40
50.0
 40
50.0
 40
51.0
 40
51.0
 40
51.0
 40
52.0
 40
52.0
 40
52.0
 40
53.0
 40
53.0
 40
53.0
 40
54.0
 40
54.0
 40
54.0
 40
55.0
 40
55.0
 40
55.0
 40
56.0
 40
56.0
 40
56.0
 40
57.0
 40
57.0
 40
57.0
 40
58.0
 40
58.0
 40
58.0
 40
59.0
 40
59.0
 40
59.0
 40
59.0
 10
117.3024006868202
 20
-158.6294216183288
 10
117.3024006868202
 20
-158.6294216183288
 10
116.6657470411461
 20
-158.6294216183288
 10
116.6657470411461
 20
-158.6294216183288
 10
116.4521511210606
 20
-158.6294216183288
 10
116.2361436341354
 20
-158.633555732911
 10
116.0225477140499
 20
-158.6463025862065
 10
116.0225477140499
 20
-158.6463025862065
 10
116.0225477140499
 20
-158.4389078379944
 10
116.0225477140499
 20
-158.4389078379944
 10
116.2447563728485
 20
-158.4516546912899
 10
116.5682508389135
 20
-158.4557888058722
 10
116.6657470411461
 20
-158.4557888058722
 10
116.6657470411461
 20
-158.4557888058722
 10
116.8858886426535
 20
-158.4557888058722
 10
116.8858886426535
 20
-158.4557888058722
 10
116.8858886426535
 20
-158.4557888058722
 10
116.8858886426535
 20
-158.3141953814284
 10
116.8858886426535
 20
-158.3141953814284
 10
116.8858886426535
 20
-158.3141953814284
 10
116.7250026834924
 20
-158.3141953814284
 10
116.7250026834924
 20
-158.3141953814284
 10
116.5599826097489
 20
-158.3141953814284
 10
116.3949625360054
 20
-158.3183294960107
 10
116.229942462262
 20
-158.3331434065973
 10
116.229942462262
 20
-158.3331434065973
 10
116.229942462262
 20
-158.1236816010941
 10
116.229942462262
 20
-158.1236816010941
 10
116.4011637078789
 20
-158.1384955116807
 10
116.6488660732684
 20
-158.142629626263
 10
116.7250026834924
 20
-158.142629626263
 10
116.7250026834924
 20
-158.142629626263
 10
116.8858886426535
 20
-158.142629626263
 10
116.8858886426535
 20
-158.142629626263
 10
116.8814100185227
 20
-158.0709716401698
 10
116.8814100185227
 20
-158.0644259587478
 10
116.8752088466493
 20
-158.0117159978235
 10
116.8752088466493
 20
-158.0117159978235
 10
117.0147352138019
 20
-158.0265299084101
 10
117.0147352138019
 20
-158.0265299084101
 10
117.0147352138019
 20
-158.0265299084101
 10
116.9155164638267
 20
-157.8549641532446
 10
116.9155164638267
 20
-157.8549641532446
 10
116.9620252528776
 20
-157.8615098346666
 10
117.0360948058104
 20
-157.8697780638312
 10
117.0529757736881
 20
-157.8697780638312
 10
117.1036186773213
 20
-157.8697780638312
 10
117.120499645199
 20
-157.8487629813712
 10
117.120499645199
 20
-157.791574396316
 10
117.120499645199
 20
-157.791574396316
 10
117.120499645199
 20
-157.6541150864545
 10
117.120499645199
 20
-157.6541150864545
 10
117.120499645199
 20
-157.6541150864545
 10
117.0147352138019
 20
-157.6541150864545
 10
117.0147352138019
 20
-157.6541150864545
 10
116.8814100185227
 20
-157.6541150864545
 10
116.7250026834924
 20
-157.6541150864545
 10
116.6023572842175
 20
-157.66686193975
 10
116.6023572842175
 20
-157.66686193975
 10
116.6023572842175
 20
-157.4763481594156
 10
116.6023572842175
 20
-157.4763481594156
 10
116.7694444152521
 20
-157.4932291272934
 10
116.9999213032153
 20
-157.4952961845845
 10
117.0147352138019
 20
-157.4952961845845
 10
117.0147352138019
 20
-157.4952961845845
 10
117.120499645199
 20
-157.4952961845845
 10
117.120499645199
 20
-157.4952961845845
 10
117.120499645199
 20
-157.4952961845845
 10
117.120499645199
 20
-157.364382556145
 10
117.120499645199
 20
-157.364382556145
 10
117.120499645199
 20
-157.364382556145
 10
117.0826035948613
 20
-157.364382556145
 10
117.0826035948613
 20
-157.364382556145
 10
117.0381618631016
 20
-157.364382556145
 10
116.913104896987
 20
-157.3685166707273
 10
116.8242214334676
 20
-157.3767848998919
 10
116.8242214334676
 20
-157.3767848998919
 10
116.8242214334676
 20
-157.2965141750856
 10
116.8242214334676
 20
-157.2965141750856
 10
116.7715114725432
 20
-157.3347547349719
 10
116.7460177659524
 20
-157.3495686455584
 10
116.7036430914838
 20
-157.3726507853096
 10
116.7036430914838
 20
-157.3726507853096
 10
116.5155408779892
 20
-157.2438042141613
 10
116.5155408779892
 20
-157.2438042141613
 10
116.5937445455044
 20
-157.2096977688573
 10
116.7504963900832
 20
-157.1463080119287
 10
116.9069037251136
 20
-157.0026475301938
 10
116.989241507211
 20
-156.9240993531301
 10
117.0677896842747
 20
-156.8396945137415
 10
117.120499645199
 20
-156.7380641969266
 10
117.120499645199
 20
-156.7380641969266
 10
117.3320285079934
 20
-156.799386896564
 10
117.3320285079934
 20
-156.799386896564
 10
117.3513210427108
 20
-156.8055880684375
 10
117.3616563291665
 20
-156.8142008071506
 10
117.3616563291665
 20
-156.8269476604461
 10
117.3616563291665
 20
-156.8438286283238
 10
117.3489094758711
 20
-156.8500298001972
 10
117.3237602788288
 20
-156.8627766534927
 10
117.4040310036351
 20
-156.9602728557252
 10
117.5669840200874
 20
-157.0574245484093
 10
117.6007459558429
 20
-157.0763725735781
 10
117.7509521189998
 20
-157.1652560370976
 10
117.8653292891101
 20
-157.1928168009796
 10
117.9435329566252
 20
-157.2117648261485
 10
117.9435329566252
 20
-157.2117648261485
 10
117.8250216719326
 20
-157.3812635240228
 10
117.8250216719326
 20
-157.3812635240228
 10
117.7402723229955
 20
-157.3516357028496
 10
117.6896294193623
 20
-157.3326876776807
 10
117.5711181346697
 20
-157.2668863539124
 10
117.5711181346697
 20
-157.2668863539124
 10
117.5711181346697
 20
-157.3767848998919
 10
117.5711181346697
 20
-157.3767848998919
 10
117.4887803525722
 20
-157.3685166707273
 10
117.3616563291665
 20
-157.364382556145
 10
117.3089463682422
 20
-157.364382556145
 10
117.3089463682422
 20
-157.364382556145
 10
117.3089463682422
 20
-157.4952961845845
 10
117.3089463682422
 20
-157.4952961845845
 10
117.3089463682422
 20
-157.4952961845845
 10
117.429524710226
 20
-157.4952961845845
 10
117.429524710226
 20
-157.4952961845845
 10
117.4315917675171
 20
-157.4952961845845
 10
117.6641357127715
 20
-157.4932291272934
 10
117.8419026398104
 20
-157.4763481594156
 10
117.8419026398104
 20
-157.4763481594156
 10
117.8419026398104
 20
-157.66686193975
 10
117.8419026398104
 20
-157.66686193975
 10
117.713056068662
 20
-157.6541150864545
 10
117.5563042240831
 20
-157.6541150864545
 10
117.429524710226
 20
-157.6541150864545
 10
117.429524710226
 20
-157.6541150864545
 10
117.3089463682422
 20
-157.6541150864545
 10
117.3089463682422
 20
-157.6541150864545
 10
117.3089463682422
 20
-157.6541150864545
 10
117.3089463682422
 20
-157.8804578598354
 10
117.3089463682422
 20
-157.8804578598354
 10
117.3089463682422
 20
-157.998969144528
 10
117.2834526616514
 20
-158.0347981375747
 10
117.1225667024902
 20
-158.0496120481612
 10
117.127045326621
 20
-158.0685600733301
 10
117.120499645199
 20
-158.0792398693344
 10
117.0826035948613
 20
-158.1026665186341
 10
117.0805365375702
 20
-158.1216145438029
 10
117.0805365375702
 20
-158.1278157156764
 10
117.0781249707305
 20
-158.142629626263
 10
117.0781249707305
 20
-158.142629626263
 10
117.2155842805919
 20
-158.142629626263
 10
117.2155842805919
 20
-158.142629626263
 10
117.3806043543354
 20
-158.142629626263
 10
117.5480359949185
 20
-158.1384955116807
 10
117.7151231259532
 20
-158.1236816010941
 10
117.7151231259532
 20
-158.1236816010941
 10
117.7151231259532
 20
-158.3310763493061
 10
117.7151231259532
 20
-158.3310763493061
 10
117.499115639028
 20
-158.3141953814284
 10
117.2348768153093
 20
-158.3141953814284
 10
117.2155842805919
 20
-158.3141953814284
 10
117.2155842805919
 20
-158.3141953814284
 10
117.0760579134393
 20
-158.3141953814284
 10
117.0760579134393
 20
-158.3141953814284
 10
117.0760579134393
 20
-158.3141953814284
 10
117.0760579134393
 20
-158.4557888058722
 10
117.0760579134393
 20
-158.4557888058722
 10
117.0760579134393
 20
-158.4557888058722
 10
117.3024006868202
 20
-158.4557888058722
 10
117.3024006868202
 20
-158.4557888058722
 10
117.5184081737454
 20
-158.4557888058722
 10
117.7361382084132
 20
-158.4516546912899
 10
117.9518011857898
 20
-158.4389078379944
 10
117.9518011857898
 20
-158.4389078379944
 10
117.9518011857898
 20
-158.6463025862065
 10
117.9518011857898
 20
-158.6463025862065
 10
117.6706813941935
 20
-158.6294216183288
 10
117.3258273361199
 20
-158.6294216183288
 10
117.3024006868202
 20
-158.6294216183288
 97
        0
 97
        0
 92
        1
 93
        1
 72
     4
 94
        3
 73
     0
 74
     1
 95
       23
 96
       19
 40
0.0
 40
0.0
 40
0.0
 40
0.0
 40
1.0
 40
1.0
 40
1.0
 40
2.0
 40
2.0
 40
2.0
 40
3.0
 40
3.0
 40
3.0
 40
4.0
 40
4.0
 40
4.0
 40
5.0
 40
5.0
 40
5.0
 40
6.0
 40
6.0
 40
6.0
 40
6.0
 10
116.1834336732111
 20
-158.0010362018192
 10
116.1834336732111
 20
-158.0220512842792
 10
116.1855007305022
 20
-158.0602918441655
 10
116.1600070239114
 20
-158.0602918441655
 10
116.1496717374556
 20
-158.0602918441655
 10
116.1410589987425
 20
-158.0537461627435
 10
116.1303792027382
 20
-158.0368651948658
 10
116.1303792027382
 20
-158.0368651948658
 10
116.0266818286322
 20
-157.8549641532446
 10
116.0266818286322
 20
-157.8549641532446
 10
116.2426893155574
 20
-157.7261175820963
 10
116.4394042677652
 20
-157.4487873955337
 10
116.485913056816
 20
-157.3767848998919
 10
116.485913056816
 20
-157.3767848998919
 10
116.5579155524577
 20
-157.556618884222
 10
116.5579155524577
 20
-157.556618884222
 10
116.4245903571786
 20
-157.7533338364297
 10
116.2488904874308
 20
-157.9376464448906
 10
116.1834336732111
 20
-158.0010362018192
 97
        0
 97
        0
 92
        1
 93
        1
 72
     4
 94
        3
 73
     0
 74
     1
 95
       17
 96
       13
 40
0.0
 40
0.0
 40
0.0
 40
0.0
 40
1.0
 40
1.0
 40
1.0
 40
2.0
 40
2.0
 40
2.0
 40
3.0
 40
3.0
 40
3.0
 40
4.0
 40
4.0
 40
4.0
 40
4.0
 10
116.437337210474
 20
-157.1060003947513
 10
116.3760145108366
 20
-157.0298637845273
 10
116.2468234301397
 20
-156.9537271743033
 10
116.1431260560337
 20
-156.9240993531301
 10
116.1431260560337
 20
-156.9240993531301
 10
116.2385552009751
 20
-156.7590792793866
 10
116.2385552009751
 20
-156.7590792793866
 10
116.3398410082414
 20
-156.7952527819818
 10
116.4456054396386
 20
-156.8524413670369
 10
116.534488903158
 20
-156.9327120918432
 10
116.534488903158
 20
-156.9327120918432
 10
116.437337210474
 20
-157.1060003947513
 10
116.437337210474
 20
-157.1060003947513
 97
        0
 97
        0
 92
        1
 93
        1
 72
     4
 94
        3
 73
     0
 74
     1
 95
       23
 96
       19
 40
0.0
 40
0.0
 40
0.0
 40
0.0
 40
1.0
 40
1.0
 40
1.0
 40
2.0
 40
2.0
 40
2.0
 40
3.0
 40
3.0
 40
3.0
 40
4.0
 40
4.0
 40
4.0
 40
5.0
 40
5.0
 40
5.0
 40
6.0
 40
6.0
 40
6.0
 40
6.0
 10
116.8900227572358
 20
-157.8105224214849
 10
116.8686631652273
 20
-157.8339490707846
 10
116.7715114725432
 20
-157.9459146740552
 10
116.6319851053906
 20
-158.0265299084101
 10
116.6319851053906
 20
-158.0265299084101
 10
116.464897974356
 20
-157.9059515664263
 10
116.464897974356
 20
-157.9059515664263
 10
116.6151041375129
 20
-157.8298149562023
 10
116.7143228874881
 20
-157.7343858112609
 10
116.7628987338301
 20
-157.6816758503365
 10
116.7628987338301
 20
-157.6816758503365
 10
116.9365315462867
 20
-157.764013632434
 10
116.9365315462867
 20
-157.764013632434
 10
116.9447997754513
 20
-157.7681477470163
 10
116.9534125141644
 20
-157.7746934284383
 10
116.9534125141644
 20
-157.7853732244426
 10
116.9534125141644
 20
-157.8105224214849
 10
116.9175835211178
 20
-157.8105224214849
 10
116.8900227572358
 20
-157.8105224214849
 97
        0
 97
        0
 92
        1
 93
        1
 72
     4
 94
        3
 73
     0
 74
     1
 95
       20
 96
       16
 40
0.0
 40
0.0
 40
0.0
 40
0.0
 40
1.0
 40
1.0
 40
1.0
 40
2.0
 40
2.0
 40
2.0
 40
3.0
 40
3.0
 40
3.0
 40
4.0
 40
4.0
 40
4.0
 40
5.0
 40
5.0
 40
5.0
 40
5.0
 10
117.1883680262585
 20
-156.9685410848898
 10
117.1501274663722
 20
-157.0174614407804
 10
117.0888047667348
 20
-157.0956651082955
 10
116.9492783995821
 20
-157.205563654275
 10
117.0295491243885
 20
-157.2096977688573
 10
117.0591769455616
 20
-157.2096977688573
 10
117.0826035948613
 20
-157.2096977688573
 10
117.0826035948613
 20
-157.2096977688573
 10
117.3110134255334
 20
-157.2096977688573
 10
117.3110134255334
 20
-157.2096977688573
 10
117.3427083039977
 20
-157.2096977688573
 10
117.3912841503397
 20
-157.2076307115662
 10
117.4653537032726
 20
-157.205563654275
 10
117.3533881000019
 20
-157.1314941013421
 10
117.3044677441114
 20
-157.0849853122913
 10
117.1883680262585
 20
-156.9685410848898
 97
        0
 97
        0
 92
        1
 93
        1
 72
     4
 94
        3
 73
     0
 74
     1
 95
       17
 96
       13
 40
0.0
 40
0.0
 40
0.0
 40
0.0
 40
1.0
 40
1.0
 40
1.0
 40
2.0
 40
2.0
 40
2.0
 40
3.0
 40
3.0
 40
3.0
 40
4.0
 40
4.0
 40
4.0
 40
4.0
 10
117.7488850617086
 20
-158.0241183415704
 10
117.6134928091383
 20
-157.9121527382997
 10
117.5077283777411
 20
-157.8487629813712
 10
117.3892170930485
 20
-157.7853732244426
 10
117.3892170930485
 20
-157.7853732244426
 10
117.5159966069057
 20
-157.6730631116234
 10
117.5159966069057
 20
-157.6730631116234
 10
117.6472547448937
 20
-157.7195719006743
 10
117.7571532908732
 20
-157.7767604857294
 10
117.8822102569878
 20
-157.8783908025443
 10
117.8822102569878
 20
-157.8783908025443
 10
117.7488850617086
 20
-158.0241183415704
 10
117.7488850617086
 20
-158.0241183415704
 97
        0
 97
        0
 75
     2
 76
     1
 98
        0
  0
SPLINE
  5
10A
330
FE
100
AcDbEntity
  8
_U+30EC_U+30A4_U+30E4_U+30FC 1
370
     0
100
AcDbSpline
210
0.0
220
0.0
230
1.0
 70
    11
 71
     3
 72
   113
 73
   109
 74
     0
 42
0.0000000001
 43
0.0000000001
 12
1.0
 22
0.0
 32
0.0
 13
1.0
 23
0.0
 33
0.0
 40
0.0
 40
0.0
 40
0.0
 40
0.0
 40
1.0
 40
1.0
 40
1.0
 40
2.0
 40
2.0
 40
2.0
 40
3.0
 40
3.0
 40
3.0
 40
4.0
 40
4.0
 40
4.0
 40
5.0
 40
5.0
 40
5.0
 40
6.0
 40
6.0
 40
6.0
 40
7.0
 40
7.0
 40
7.0
 40
8.0
 40
8.0
 40
8.0
 40
9.0
 40
9.0
 40
9.0
 40
10.0
 40
10.0
 40
10.0
 40
11.0
 40
11.0
 40
11.0
 40
12.0
 40
12.0
 40
12.0
 40
13.0
 40
13.0
 40
13.0
 40
14.0
 40
14.0
 40
14.0
 40
15.0
 40
15.0
 40
15.0
 40
16.0
 40
16.0
 40
16.0
 40
17.0
 40
17.0
 40
17.0
 40
18.0
 40
18.0
 40
18.0
 40
19.0
 40
19.0
 40
19.0
 40
20.0
 40
20.0
 40
20.0
 40
21.0
 40
21.0
 40
21.0
 40
22.0
 40
22.0
 40
22.0
 40
23.0
 40
23.0
 40
23.0
 40
24.0
 40
24.0
 40
24.0
 40
25.0
 40
25.0
 40
25.0
 40
26.0
 40
26.0
 40
26.0
 40
27.0
 40
27.0
 40
27.0
 40
28.0
 40
28.0
 40
28.0
 40
29.0
 40
29.0
 40
29.0
 40
30.0
 40
30.0
 40
30.0
 40
31.0
 40
31.0
 40
31.0
 40
32.0
 40
32.0
 40
32.0
 40
33.0
 40
33.0
 40
33.0
 40
34.0
 40
34.0
 40
34.0
 40
35.0
 40
35.0
 40
35.0
 40
36.0
 40
36.0
 40
36.0
 40
36.0
 10
119.6285291584609
 20
-158.0010362018192
 30
0.0
 10
119.6285291584609
 20
-158.0010362018192
 30
0.0
 10
119.7280924179847
 20
-158.1005994613429
 30
0.0
 10
119.7280924179847
 20
-158.1005994613429
 30
0.0
 10
119.7387722139889
 20
-158.1109347477987
 30
0.0
 10
119.7491075004447
 20
-158.1236816010941
 30
0.0
 10
119.7491075004447
 20
-158.1384955116807
 30
0.0
 10
119.7491075004447
 20
-158.1405625689718
 30
0.0
 10
119.7491075004447
 20
-158.170190390145
 30
0.0
 10
119.7112114501069
 20
-158.170190390145
 30
0.0
 10
119.7025987113938
 20
-158.170190390145
 30
0.0
 10
119.6622910942164
 20
-158.1660562755627
 30
0.0
 10
119.6560899223429
 20
-158.1660562755627
 30
0.0
 10
119.6157823051655
 20
-158.1977511540269
 30
0.0
 10
119.5692735161146
 20
-158.2315130897824
 30
0.0
 10
119.4700547661394
 20
-158.2887016748375
 30
0.0
 10
119.6157823051655
 20
-158.3965331635259
 30
0.0
 10
119.7746012070355
 20
-158.453721748581
 30
0.0
 10
120.0474527694673
 20
-158.4919623084673
 30
0.0
 10
120.0474527694673
 20
-158.4919623084673
 30
0.0
 10
119.8972466063104
 20
-158.6673176686665
 30
0.0
 10
119.8972466063104
 20
-158.6673176686665
 30
0.0
 10
119.6350748398829
 20
-158.5953151730248
 30
0.0
 10
119.478322995304
 20
-158.5067762190539
 30
0.0
 10
119.40218638508
 20
-158.453721748581
 30
0.0
 10
119.2519802219231
 20
-158.3520914317662
 30
0.0
 10
119.1083197401882
 20
-158.1891384153138
 30
0.0
 10
119.0321831299642
 20
-158.0241183415704
 30
0.0
 10
118.9643147489048
 20
-158.0899196653386
 30
0.0
 10
118.8902451959719
 20
-158.142629626263
 30
0.0
 10
118.8120415284567
 20
-158.1915499821535
 30
0.0
 10
118.8120415284567
 20
-158.1915499821535
 30
0.0
 10
118.8120415284567
 20
-158.4430419525767
 30
0.0
 10
118.8120415284567
 20
-158.4430419525767
 30
0.0
 10
118.974994544909
 20
-158.4178927555344
 30
0.0
 10
119.1610297011125
 20
-158.3734510237747
 30
0.0
 10
119.2244194580411
 20
-158.3586371131881
 30
0.0
 10
119.2244194580411
 20
-158.3586371131881
 30
0.0
 10
119.194791636868
 20
-158.5277913015139
 30
0.0
 10
119.194791636868
 20
-158.5277913015139
 30
0.0
 10
119.1927245795768
 20
-158.5277913015139
 30
0.0
 10
119.173776554408
 20
-158.5339924733873
 30
0.0
 10
119.1717094971168
 20
-158.5339924733873
 30
0.0
 10
118.9729274876179
 20
-158.5722330332736
 30
0.0
 10
118.6556341934264
 20
-158.6376898474934
 30
0.0
 10
118.4585747316701
 20
-158.6738633500885
 30
0.0
 10
118.4482394452143
 20
-158.6907443179662
 30
0.0
 10
118.4248127959146
 20
-158.7224391964305
 30
0.0
 10
118.4017306561635
 20
-158.7224391964305
 30
0.0
 10
118.3741698922815
 20
-158.7224391964305
 30
0.0
 10
118.3700357776992
 20
-158.7034911712616
 30
0.0
 10
118.3676242108595
 20
-158.6841986365442
 30
0.0
 10
118.3676242108595
 20
-158.6841986365442
 30
0.0
 10
118.3424750138172
 20
-158.5109103336362
 30
0.0
 10
118.3424750138172
 20
-158.5109103336362
 30
0.0
 10
118.41654456675
 20
-158.502297594923
 30
0.0
 10
118.5243760554384
 20
-158.4895507416276
 30
0.0
 10
118.6322075441267
 20
-158.4685356591676
 30
0.0
 10
118.6322075441267
 20
-158.4685356591676
 30
0.0
 10
118.6322075441267
 20
-158.2907687321287
 30
0.0
 10
118.6322075441267
 20
-158.2907687321287
 30
0.0
 10
118.4882025528432
 20
-158.3627712277704
 30
0.0
 10
118.3931179174503
 20
-158.3923990489436
 30
0.0
 10
118.2280978437069
 20
-158.4220268701167
 30
0.0
 10
118.2280978437069
 20
-158.4220268701167
 30
0.0
 10
118.1075195017231
 20
-158.252872681791
 30
0.0
 10
118.1075195017231
 20
-158.252872681791
 30
0.0
 10
118.4248127959146
 20
-158.225311917909
 30
0.0
 10
118.6173936335401
 20
-158.1322943398072
 30
0.0
 10
118.795160560579
 20
-157.998969144528
 30
0.0
 10
118.6490885120044
 20
-157.998969144528
 30
0.0
 10
118.3486761856906
 20
-158.0031032591103
 30
0.0
 10
118.1519612334829
 20
-158.0096489405323
 30
0.0
 10
118.1519612334829
 20
-158.0096489405323
 30
0.0
 10
118.1519612334829
 20
-157.8318820134934
 30
0.0
 10
118.1519612334829
 20
-157.8318820134934
 30
0.0
 10
118.306301511222
 20
-157.8380831853669
 30
0.0
 10
118.6025797229535
 20
-157.8446288667888
 30
0.0
 10
118.7865478218659
 20
-157.8446288667888
 30
0.0
 10
118.7865478218659
 20
-157.8446288667888
 30
0.0
 10
118.9980766846602
 20
-157.8446288667888
 30
0.0
 10
118.9980766846602
 20
-157.8446288667888
 30
0.0
 10
118.9980766846602
 20
-157.7491997218474
 30
0.0
 10
118.9960096273691
 20
-157.6985568182143
 30
0.0
 10
118.9898084554956
 20
-157.6520480291634
 30
0.0
 10
118.9898084554956
 20
-157.6520480291634
 30
0.0
 10
119.2054714328722
 20
-157.6689289970411
 30
0.0
 10
119.2054714328722
 20
-157.6689289970411
 30
0.0
 10
119.2540472792143
 20
-157.6730631116234
 30
0.0
 10
119.2626600179274
 20
-157.68787702221
 30
0.0
 10
119.2626600179274
 20
-157.7026909327965
 30
0.0
 10
119.2626600179274
 20
-157.7281846393874
 30
0.0
 10
119.2457790500497
 20
-157.736452868552
 30
0.0
 10
119.194791636868
 20
-157.7619465751428
 30
0.0
 10
119.1927245795768
 20
-157.7874402817337
 30
0.0
 10
119.1927245795768
 20
-157.7936414536072
 30
0.0
 10
119.1906575222857
 20
-157.8446288667888
 30
0.0
 10
119.1906575222857
 20
-157.8446288667888
 30
0.0
 10
119.4211344102489
 20
-157.8446288667888
 30
0.0
 10
119.4211344102489
 20
-157.8446288667888
 30
0.0
 10
119.5861544839924
 20
-157.8446288667888
 30
0.0
 10
119.8782985811415
 20
-157.8380831853669
 30
0.0
 10
120.0581325654716
 20
-157.8318820134934
 30
0.0
 10
120.0581325654716
 20
-157.8318820134934
 30
0.0
 10
120.0581325654716
 20
-158.0096489405323
 30
0.0
 10
120.0581325654716
 20
-158.0096489405323
 30
0.0
 10
119.9289414847747
 20
-158.0051703164015
 30
0.0
 10
119.9058593450235
 20
-158.0051703164015
 30
0.0
 10
119.6285291584609
 20
-158.0010362018192
 30
0.0
  0
SPLINE
  5
10B
330
FE
100
AcDbEntity
  8
_U+30EC_U+30A4_U+30E4_U+30FC 1
370
     0
100
AcDbSpline
210
0.0
220
0.0
230
1.0
 70
    11
 71
     3
 72
    23
 73
    19
 74
     0
 42
0.0000000001
 43
0.0000000001
 12
1.0
 22
0.0
 32
0.0
 13
1.0
 23
0.0
 33
0.0
 40
0.0
 40
0.0
 40
0.0
 40
0.0
 40
1.0
 40
1.0
 40
1.0
 40
2.0
 40
2.0
 40
2.0
 40
3.0
 40
3.0
 40
3.0
 40
4.0
 40
4.0
 40
4.0
 40
5.0
 40
5.0
 40
5.0
 40
6.0
 40
6.0
 40
6.0
 40
6.0
 10
118.3445420711083
 20
-157.6499809718722
 30
0.0
 10
118.3276611032306
 20
-157.6899440795011
 30
0.0
 10
118.3211154218086
 20
-157.7068250473789
 30
0.0
 10
118.3001003393486
 20
-157.7068250473789
 30
0.0
 10
118.285286428762
 20
-157.7068250473789
 30
0.0
 10
118.2746066327577
 20
-157.6899440795011
 30
0.0
 10
118.2684054608843
 20
-157.6771972262057
 30
0.0
 10
118.2684054608843
 20
-157.6771972262057
 30
0.0
 10
118.1688422013606
 20
-157.5121771524622
 30
0.0
 10
118.1688422013606
 20
-157.5121771524622
 30
0.0
 10
118.2704725181754
 20
-157.4804822739979
 30
0.0
 10
118.4206786813323
 20
-157.4257052557825
 30
0.0
 10
118.6194606908312
 20
-157.2627522393302
 30
0.0
 10
118.6194606908312
 20
-157.2627522393302
 30
0.0
 10
118.6766492758864
 20
-157.4360405422382
 30
0.0
 10
118.6766492758864
 20
-157.4360405422382
 30
0.0
 10
118.5836316977847
 20
-157.5187228338842
 30
0.0
 10
118.4947482342652
 20
-157.5759114189394
 30
0.0
 10
118.3445420711083
 20
-157.6499809718722
 30
0.0
  0
SPLINE
  5
10C
330
FE
100
AcDbEntity
  8
_U+30EC_U+30A4_U+30E4_U+30FC 1
370
     0
100
AcDbSpline
210
0.0
220
0.0
230
1.0
 70
    11
 71
     3
 72
    17
 73
    13
 74
     0
 42
0.0000000001
 43
0.0000000001
 12
1.0
 22
0.0
 32
0.0
 13
1.0
 23
0.0
 33
0.0
 40
0.0
 40
0.0
 40
0.0
 40
0.0
 40
1.0
 40
1.0
 40
1.0
 40
2.0
 40
2.0
 40
2.0
 40
3.0
 40
3.0
 40
3.0
 40
4.0
 40
4.0
 40
4.0
 40
4.0
 10
118.4968152915564
 20
-157.184548571815
 30
0.0
 10
118.4671874703832
 20
-157.1442409546376
 30
0.0
 10
118.3993190893238
 20
-157.0470892619535
 30
0.0
 10
118.2174180477026
 20
-156.9368462064255
 30
0.0
 10
118.2174180477026
 20
-156.9368462064255
 30
0.0
 10
118.3445420711083
 20
-156.8035210111464
 30
0.0
 10
118.3445420711083
 20
-156.8035210111464
 30
0.0
 10
118.5305772273118
 20
-156.9051513279612
 30
0.0
 10
118.587765812367
 20
-156.9940347914807
 30
0.0
 10
118.6153265762489
 20
-157.0364094659492
 30
0.0
 10
118.6153265762489
 20
-157.0364094659492
 30
0.0
 10
118.4968152915564
 20
-157.184548571815
 30
0.0
 10
118.4968152915564
 20
-157.184548571815
 30
0.0
  0
SPLINE
  5
10D
330
FE
100
AcDbEntity
  8
_U+30EC_U+30A4_U+30E4_U+30FC 1
370
     0
100
AcDbSpline
210
0.0
220
0.0
230
1.0
 70
    11
 71
     3
 72
    38
 73
    34
 74
     0
 42
0.0000000001
 43
0.0000000001
 12
1.0
 22
0.0
 32
0.0
 13
1.0
 23
0.0
 33
0.0
 40
0.0
 40
0.0
 40
0.0
 40
0.0
 40
1.0
 40
1.0
 40
1.0
 40
2.0
 40
2.0
 40
2.0
 40
3.0
 40
3.0
 40
3.0
 40
4.0
 40
4.0
 40
4.0
 40
5.0
 40
5.0
 40
5.0
 40
6.0
 40
6.0
 40
6.0
 40
7.0
 40
7.0
 40
7.0
 40
8.0
 40
8.0
 40
8.0
 40
9.0
 40
9.0
 40
9.0
 40
10.0
 40
10.0
 40
10.0
 40
11.0
 40
11.0
 40
11.0
 40
11.0
 10
118.864751489381
 20
-156.8796576213704
 30
0.0
 10
118.8626844320899
 20
-156.9265109199698
 30
0.0
 10
118.8606173747987
 20
-157.0426106378227
 30
0.0
 10
118.8606173747987
 20
-157.0870523695824
 30
0.0
 10
118.8606173747987
 20
-157.0870523695824
 30
0.0
 10
118.8606173747987
 20
-157.4339734849471
 30
0.0
 10
118.8606173747987
 20
-157.4339734849471
 30
0.0
 10
118.8606173747987
 20
-157.5207898911754
 30
0.0
 10
118.8626844320899
 20
-157.6623833156191
 30
0.0
 10
118.8733642280942
 20
-157.7829616576029
 30
0.0
 10
118.8733642280942
 20
-157.7829616576029
 30
0.0
 10
118.6828504477598
 20
-157.7829616576029
 30
0.0
 10
118.6828504477598
 20
-157.7829616576029
 30
0.0
 10
118.6873290718907
 20
-157.7195719006743
 30
0.0
 10
118.691463186473
 20
-157.66686193975
 30
0.0
 10
118.6935302437641
 20
-157.6117404119859
 30
0.0
 10
118.6955973010553
 20
-157.4890950127111
 30
0.0
 10
118.6976643583464
 20
-157.4742811021245
 30
0.0
 10
118.6976643583464
 20
-157.4298393703648
 30
0.0
 10
118.6976643583464
 20
-157.4298393703648
 30
0.0
 10
118.6976643583464
 20
-157.1084119615909
 30
0.0
 10
118.6976643583464
 20
-157.1084119615909
 30
0.0
 10
118.6976643583464
 20
-157.053290433827
 30
0.0
 10
118.684917505051
 20
-156.8142008071506
 30
0.0
 10
118.6828504477598
 20
-156.7635579035174
 30
0.0
 10
118.6828504477598
 20
-156.7635579035174
 30
0.0
 10
118.8840440240984
 20
-156.7911186673994
 30
0.0
 10
118.8840440240984
 20
-156.7911186673994
 30
0.0
 10
118.9050591065585
 20
-156.7931857246906
 30
0.0
 10
118.9367539850228
 20
-156.7973198392729
 30
0.0
 10
118.9367539850228
 20
-156.8228135458637
 30
0.0
 10
118.9367539850228
 20
-156.8500298001972
 30
0.0
 10
118.8861110813896
 20
-156.8713893922058
 30
0.0
 10
118.864751489381
 20
-156.8796576213704
 30
0.0
  0
SPLINE
  5
10E
330
FE
100
AcDbEntity
  8
_U+30EC_U+30A4_U+30E4_U+30FC 1
370
     0
100
AcDbSpline
210
0.0
220
0.0
230
1.0
 70
    11
 71
     3
 72
    83
 73
    79
 74
     0
 42
0.0000000001
 43
0.0000000001
 12
1.0
 22
0.0
 32
0.0
 13
1.0
 23
0.0
 33
0.0
 40
0.0
 40
0.0
 40
0.0
 40
0.0
 40
1.0
 40
1.0
 40
1.0
 40
2.0
 40
2.0
 40
2.0
 40
3.0
 40
3.0
 40
3.0
 40
4.0
 40
4.0
 40
4.0
 40
5.0
 40
5.0
 40
5.0
 40
6.0
 40
6.0
 40
6.0
 40
7.0
 40
7.0
 40
7.0
 40
8.0
 40
8.0
 40
8.0
 40
9.0
 40
9.0
 40
9.0
 40
10.0
 40
10.0
 40
10.0
 40
11.0
 40
11.0
 40
11.0
 40
12.0
 40
12.0
 40
12.0
 40
13.0
 40
13.0
 40
13.0
 40
14.0
 40
14.0
 40
14.0
 40
15.0
 40
15.0
 40
15.0
 40
16.0
 40
16.0
 40
16.0
 40
17.0
 40
17.0
 40
17.0
 40
18.0
 40
18.0
 40
18.0
 40
19.0
 40
19.0
 40
19.0
 40
20.0
 40
20.0
 40
20.0
 40
21.0
 40
21.0
 40
21.0
 40
22.0
 40
22.0
 40
22.0
 40
23.0
 40
23.0
 40
23.0
 40
24.0
 40
24.0
 40
24.0
 40
25.0
 40
25.0
 40
25.0
 40
26.0
 40
26.0
 40
26.0
 40
26.0
 10
119.6667697183472
 20
-157.2014295396927
 30
0.0
 10
119.6667697183472
 20
-157.2014295396927
 30
0.0
 10
119.5692735161146
 20
-157.2014295396927
 30
0.0
 10
119.5692735161146
 20
-157.2014295396927
 30
0.0
 10
119.5692735161146
 20
-157.2014295396927
 30
0.0
 10
119.5692735161146
 20
-157.4487873955337
 30
0.0
 10
119.5692735161146
 20
-157.4487873955337
 30
0.0
 10
119.5692735161146
 20
-157.4487873955337
 30
0.0
 10
119.6519558077606
 20
-157.4487873955337
 30
0.0
 10
119.6519558077606
 20
-157.4487873955337
 30
0.0
 10
119.7174126219804
 20
-157.4487873955337
 30
0.0
 10
119.856938989133
 20
-157.4446532809513
 30
0.0
 10
119.9565022486567
 20
-157.4360405422382
 30
0.0
 10
119.9565022486567
 20
-157.4360405422382
 30
0.0
 10
119.9565022486567
 20
-157.6158745265683
 30
0.0
 10
119.9565022486567
 20
-157.6158745265683
 30
0.0
 10
119.863484670555
 20
-157.6076062974037
 30
0.0
 10
119.7132785073981
 20
-157.6034721828213
 30
0.0
 10
119.6519558077606
 20
-157.6034721828213
 30
0.0
 10
119.6519558077606
 20
-157.6034721828213
 30
0.0
 10
119.347064857316
 20
-157.6034721828213
 30
0.0
 10
119.347064857316
 20
-157.6034721828213
 30
0.0
 10
119.2943548963917
 20
-157.6034721828213
 30
0.0
 10
119.1482828478171
 20
-157.6076062974037
 30
0.0
 10
119.0425184164199
 20
-157.6158745265683
 30
0.0
 10
119.0425184164199
 20
-157.6158745265683
 30
0.0
 10
119.0425184164199
 20
-157.4360405422382
 30
0.0
 10
119.0425184164199
 20
-157.4360405422382
 30
0.0
 10
119.1420816759437
 20
-157.4446532809513
 30
0.0
 10
119.2816080430963
 20
-157.4487873955337
 30
0.0
 10
119.347064857316
 20
-157.4487873955337
 30
0.0
 10
119.347064857316
 20
-157.4487873955337
 30
0.0
 10
119.3915065890757
 20
-157.4487873955337
 30
0.0
 10
119.3915065890757
 20
-157.4487873955337
 30
0.0
 10
119.3915065890757
 20
-157.4487873955337
 30
0.0
 10
119.3915065890757
 20
-157.2014295396927
 30
0.0
 10
119.3915065890757
 20
-157.2014295396927
 30
0.0
 10
119.3915065890757
 20
-157.2014295396927
 30
0.0
 10
119.3177815456914
 20
-157.2014295396927
 30
0.0
 10
119.3177815456914
 20
-157.2014295396927
 30
0.0
 10
119.2561143365054
 20
-157.2014295396927
 30
0.0
 10
119.0890272054708
 20
-157.205563654275
 30
0.0
 10
118.9684488634871
 20
-157.2141763929881
 30
0.0
 10
118.9684488634871
 20
-157.2141763929881
 30
0.0
 10
118.9684488634871
 20
-157.0364094659492
 30
0.0
 10
118.9684488634871
 20
-157.0364094659492
 30
0.0
 10
119.0828260335974
 20
-157.0426106378227
 30
0.0
 10
119.2413004259189
 20
-157.0470892619535
 30
0.0
 10
119.3177815456914
 20
-157.0470892619535
 30
0.0
 10
119.3177815456914
 20
-157.0470892619535
 30
0.0
 10
119.3894395317846
 20
-157.0470892619535
 30
0.0
 10
119.3894395317846
 20
-157.0470892619535
 30
0.0
 10
119.3853054172023
 20
-156.894471531957
 30
0.0
 10
119.3832383599111
 20
-156.8607095962015
 30
0.0
 10
119.3766926784892
 20
-156.7676920180998
 30
0.0
 10
119.3766926784892
 20
-156.7676920180998
 30
0.0
 10
119.588566050832
 20
-156.7911186673994
 30
0.0
 10
119.588566050832
 20
-156.7911186673994
 30
0.0
 10
119.6137152478744
 20
-156.7931857246906
 30
0.0
 10
119.637141897174
 20
-156.7973198392729
 30
0.0
 10
119.637141897174
 20
-156.8204019790241
 30
0.0
 10
119.637141897174
 20
-156.8524413670369
 30
0.0
 10
119.5927001654143
 20
-156.8693223349146
 30
0.0
 10
119.5692735161146
 20
-156.8775905640792
 30
0.0
 10
119.5692735161146
 20
-156.8775905640792
 30
0.0
 10
119.5692735161146
 20
-157.0470892619535
 30
0.0
 10
119.5692735161146
 20
-157.0470892619535
 30
0.0
 10
119.5692735161146
 20
-157.0470892619535
 30
0.0
 10
119.6667697183472
 20
-157.0470892619535
 30
0.0
 10
119.6667697183472
 20
-157.0470892619535
 30
0.0
 10
119.7429063285712
 20
-157.0470892619535
 30
0.0
 10
119.9013807208927
 20
-157.0426106378227
 30
0.0
 10
120.0178249482942
 20
-157.0364094659492
 30
0.0
 10
120.0178249482942
 20
-157.0364094659492
 30
0.0
 10
120.0178249482942
 20
-157.2141763929881
 30
0.0
 10
120.0178249482942
 20
-157.2141763929881
 30
0.0
 10
119.9099934596058
 20
-157.2076307115662
 30
0.0
 10
119.7363606471493
 20
-157.2014295396927
 30
0.0
 10
119.6667697183472
 20
-157.2014295396927
 30
0.0
  0
SPLINE
  5
10F
330
FE
100
AcDbEntity
  8
_U+30EC_U+30A4_U+30E4_U+30FC 1
370
     0
100
AcDbSpline
210
0.0
220
0.0
230
1.0
 70
    11
 71
     3
 72
    17
 73
    13
 74
     0
 42
0.0000000001
 43
0.0000000001
 12
1.0
 22
0.0
 32
0.0
 13
1.0
 23
0.0
 33
0.0
 40
0.0
 40
0.0
 40
0.0
 40
0.0
 40
1.0
 40
1.0
 40
1.0
 40
2.0
 40
2.0
 40
2.0
 40
3.0
 40
3.0
 40
3.0
 40
4.0
 40
4.0
 40
4.0
 40
4.0
 10
119.4211344102489
 20
-157.998969144528
 30
0.0
 10
119.4211344102489
 20
-157.998969144528
 30
0.0
 10
119.2182182861677
 20
-157.998969144528
 30
0.0
 10
119.2182182861677
 20
-157.998969144528
 30
0.0
 10
119.2457790500497
 20
-158.0582247868743
 30
0.0
 10
119.3005560682651
 20
-158.1302272825161
 30
0.0
 10
119.3281168321471
 20
-158.1595105941407
 30
0.0
 10
119.3556775960291
 20
-158.1450411931026
 30
0.0
 10
119.4700547661394
 20
-158.0813069266255
 30
0.0
 10
119.56100528695
 20
-157.998969144528
 30
0.0
 10
119.56100528695
 20
-157.998969144528
 30
0.0
 10
119.4211344102489
 20
-157.998969144528
 30
0.0
 10
119.4211344102489
 20
-157.998969144528
 30
0.0
  0
HATCH
  5
110
330
FE
100
AcDbEntity
  8
_U+30EC_U+30A4_U+30E4_U+30FC 1
 62
     7
420
 16777215
100
AcDbHatch
 10
0.0
 20
0.0
 30
0.0
210
0.0
220
0.0
230
1.0
  2
SOLID
 70
     1
 71
     0
 91
        6
 92
        1
 93
        1
 72
     4
 94
        3
 73
     0
 74
     1
 95
      113
 96
      109
 40
0.0
 40
0.0
 40
0.0
 40
0.0
 40
1.0
 40
1.0
 40
1.0
 40
2.0
 40
2.0
 40
2.0
 40
3.0
 40
3.0
 40
3.0
 40
4.0
 40
4.0
 40
4.0
 40
5.0
 40
5.0
 40
5.0
 40
6.0
 40
6.0
 40
6.0
 40
7.0
 40
7.0
 40
7.0
 40
8.0
 40
8.0
 40
8.0
 40
9.0
 40
9.0
 40
9.0
 40
10.0
 40
10.0
 40
10.0
 40
11.0
 40
11.0
 40
11.0
 40
12.0
 40
12.0
 40
12.0
 40
13.0
 40
13.0
 40
13.0
 40
14.0
 40
14.0
 40
14.0
 40
15.0
 40
15.0
 40
15.0
 40
16.0
 40
16.0
 40
16.0
 40
17.0
 40
17.0
 40
17.0
 40
18.0
 40
18.0
 40
18.0
 40
19.0
 40
19.0
 40
19.0
 40
20.0
 40
20.0
 40
20.0
 40
21.0
 40
21.0
 40
21.0
 40
22.0
 40
22.0
 40
22.0
 40
23.0
 40
23.0
 40
23.0
 40
24.0
 40
24.0
 40
24.0
 40
25.0
 40
25.0
 40
25.0
 40
26.0
 40
26.0
 40
26.0
 40
27.0
 40
27.0
 40
27.0
 40
28.0
 40
28.0
 40
28.0
 40
29.0
 40
29.0
 40
29.0
 40
30.0
 40
30.0
 40
30.0
 40
31.0
 40
31.0
 40
31.0
 40
32.0
 40
32.0
 40
32.0
 40
33.0
 40
33.0
 40
33.0
 40
34.0
 40
34.0
 40
34.0
 40
35.0
 40
35.0
 40
35.0
 40
36.0
 40
36.0
 40
36.0
 40
36.0
 10
119.6285291584609
 20
-158.0010362018192
 10
119.6285291584609
 20
-158.0010362018192
 10
119.7280924179847
 20
-158.1005994613429
 10
119.7280924179847
 20
-158.1005994613429
 10
119.7387722139889
 20
-158.1109347477987
 10
119.7491075004447
 20
-158.1236816010941
 10
119.7491075004447
 20
-158.1384955116807
 10
119.7491075004447
 20
-158.1405625689718
 10
119.7491075004447
 20
-158.170190390145
 10
119.7112114501069
 20
-158.170190390145
 10
119.7025987113938
 20
-158.170190390145
 10
119.6622910942164
 20
-158.1660562755627
 10
119.6560899223429
 20
-158.1660562755627
 10
119.6157823051655
 20
-158.1977511540269
 10
119.5692735161146
 20
-158.2315130897824
 10
119.4700547661394
 20
-158.2887016748375
 10
119.6157823051655
 20
-158.3965331635259
 10
119.7746012070355
 20
-158.453721748581
 10
120.0474527694673
 20
-158.4919623084673
 10
120.0474527694673
 20
-158.4919623084673
 10
119.8972466063104
 20
-158.6673176686665
 10
119.8972466063104
 20
-158.6673176686665
 10
119.6350748398829
 20
-158.5953151730248
 10
119.478322995304
 20
-158.5067762190539
 10
119.40218638508
 20
-158.453721748581
 10
119.2519802219231
 20
-158.3520914317662
 10
119.1083197401882
 20
-158.1891384153138
 10
119.0321831299642
 20
-158.0241183415704
 10
118.9643147489048
 20
-158.0899196653386
 10
118.8902451959719
 20
-158.142629626263
 10
118.8120415284567
 20
-158.1915499821535
 10
118.8120415284567
 20
-158.1915499821535
 10
118.8120415284567
 20
-158.4430419525767
 10
118.8120415284567
 20
-158.4430419525767
 10
118.974994544909
 20
-158.4178927555344
 10
119.1610297011125
 20
-158.3734510237747
 10
119.2244194580411
 20
-158.3586371131881
 10
119.2244194580411
 20
-158.3586371131881
 10
119.194791636868
 20
-158.5277913015139
 10
119.194791636868
 20
-158.5277913015139
 10
119.1927245795768
 20
-158.5277913015139
 10
119.173776554408
 20
-158.5339924733873
 10
119.1717094971168
 20
-158.5339924733873
 10
118.9729274876179
 20
-158.5722330332736
 10
118.6556341934264
 20
-158.6376898474934
 10
118.4585747316701
 20
-158.6738633500885
 10
118.4482394452143
 20
-158.6907443179662
 10
118.4248127959146
 20
-158.7224391964305
 10
118.4017306561635
 20
-158.7224391964305
 10
118.3741698922815
 20
-158.7224391964305
 10
118.3700357776992
 20
-158.7034911712616
 10
118.3676242108595
 20
-158.6841986365442
 10
118.3676242108595
 20
-158.6841986365442
 10
118.3424750138172
 20
-158.5109103336362
 10
118.3424750138172
 20
-158.5109103336362
 10
118.41654456675
 20
-158.502297594923
 10
118.5243760554384
 20
-158.4895507416276
 10
118.6322075441267
 20
-158.4685356591676
 10
118.6322075441267
 20
-158.4685356591676
 10
118.6322075441267
 20
-158.2907687321287
 10
118.6322075441267
 20
-158.2907687321287
 10
118.4882025528432
 20
-158.3627712277704
 10
118.3931179174503
 20
-158.3923990489436
 10
118.2280978437069
 20
-158.4220268701167
 10
118.2280978437069
 20
-158.4220268701167
 10
118.1075195017231
 20
-158.252872681791
 10
118.1075195017231
 20
-158.252872681791
 10
118.4248127959146
 20
-158.225311917909
 10
118.6173936335401
 20
-158.1322943398072
 10
118.795160560579
 20
-157.998969144528
 10
118.6490885120044
 20
-157.998969144528
 10
118.3486761856906
 20
-158.0031032591103
 10
118.1519612334829
 20
-158.0096489405323
 10
118.1519612334829
 20
-158.0096489405323
 10
118.1519612334829
 20
-157.8318820134934
 10
118.1519612334829
 20
-157.8318820134934
 10
118.306301511222
 20
-157.8380831853669
 10
118.6025797229535
 20
-157.8446288667888
 10
118.7865478218659
 20
-157.8446288667888
 10
118.7865478218659
 20
-157.8446288667888
 10
118.9980766846602
 20
-157.8446288667888
 10
118.9980766846602
 20
-157.8446288667888
 10
118.9980766846602
 20
-157.7491997218474
 10
118.9960096273691
 20
-157.6985568182143
 10
118.9898084554956
 20
-157.6520480291634
 10
118.9898084554956
 20
-157.6520480291634
 10
119.2054714328722
 20
-157.6689289970411
 10
119.2054714328722
 20
-157.6689289970411
 10
119.2540472792143
 20
-157.6730631116234
 10
119.2626600179274
 20
-157.68787702221
 10
119.2626600179274
 20
-157.7026909327965
 10
119.2626600179274
 20
-157.7281846393874
 10
119.2457790500497
 20
-157.736452868552
 10
119.194791636868
 20
-157.7619465751428
 10
119.1927245795768
 20
-157.7874402817337
 10
119.1927245795768
 20
-157.7936414536072
 10
119.1906575222857
 20
-157.8446288667888
 10
119.1906575222857
 20
-157.8446288667888
 10
119.4211344102489
 20
-157.8446288667888
 10
119.4211344102489
 20
-157.8446288667888
 10
119.5861544839924
 20
-157.8446288667888
 10
119.8782985811415
 20
-157.8380831853669
 10
120.0581325654716
 20
-157.8318820134934
 10
120.0581325654716
 20
-157.8318820134934
 10
120.0581325654716
 20
-158.0096489405323
 10
120.0581325654716
 20
-158.0096489405323
 10
119.9289414847747
 20
-158.0051703164015
 10
119.9058593450235
 20
-158.0051703164015
 10
119.6285291584609
 20
-158.0010362018192
 97
        0
 97
        0
 92
        1
 93
        1
 72
     4
 94
        3
 73
     0
 74
     1
 95
       23
 96
       19
 40
0.0
 40
0.0
 40
0.0
 40
0.0
 40
1.0
 40
1.0
 40
1.0
 40
2.0
 40
2.0
 40
2.0
 40
3.0
 40
3.0
 40
3.0
 40
4.0
 40
4.0
 40
4.0
 40
5.0
 40
5.0
 40
5.0
 40
6.0
 40
6.0
 40
6.0
 40
6.0
 10
118.3445420711083
 20
-157.6499809718722
 10
118.3276611032306
 20
-157.6899440795011
 10
118.3211154218086
 20
-157.7068250473789
 10
118.3001003393486
 20
-157.7068250473789
 10
118.285286428762
 20
-157.7068250473789
 10
118.2746066327577
 20
-157.6899440795011
 10
118.2684054608843
 20
-157.6771972262057
 10
118.2684054608843
 20
-157.6771972262057
 10
118.1688422013606
 20
-157.5121771524622
 10
118.1688422013606
 20
-157.5121771524622
 10
118.2704725181754
 20
-157.4804822739979
 10
118.4206786813323
 20
-157.4257052557825
 10
118.6194606908312
 20
-157.2627522393302
 10
118.6194606908312
 20
-157.2627522393302
 10
118.6766492758864
 20
-157.4360405422382
 10
118.6766492758864
 20
-157.4360405422382
 10
118.5836316977847
 20
-157.5187228338842
 10
118.4947482342652
 20
-157.5759114189394
 10
118.3445420711083
 20
-157.6499809718722
 97
        0
 97
        0
 92
        1
 93
        1
 72
     4
 94
        3
 73
     0
 74
     1
 95
       17
 96
       13
 40
0.0
 40
0.0
 40
0.0
 40
0.0
 40
1.0
 40
1.0
 40
1.0
 40
2.0
 40
2.0
 40
2.0
 40
3.0
 40
3.0
 40
3.0
 40
4.0
 40
4.0
 40
4.0
 40
4.0
 10
118.4968152915564
 20
-157.184548571815
 10
118.4671874703832
 20
-157.1442409546376
 10
118.3993190893238
 20
-157.0470892619535
 10
118.2174180477026
 20
-156.9368462064255
 10
118.2174180477026
 20
-156.9368462064255
 10
118.3445420711083
 20
-156.8035210111464
 10
118.3445420711083
 20
-156.8035210111464
 10
118.5305772273118
 20
-156.9051513279612
 10
118.587765812367
 20
-156.9940347914807
 10
118.6153265762489
 20
-157.0364094659492
 10
118.6153265762489
 20
-157.0364094659492
 10
118.4968152915564
 20
-157.184548571815
 10
118.4968152915564
 20
-157.184548571815
 97
        0
 97
        0
 92
        1
 93
        1
 72
     4
 94
        3
 73
     0
 74
     1
 95
       38
 96
       34
 40
0.0
 40
0.0
 40
0.0
 40
0.0
 40
1.0
 40
1.0
 40
1.0
 40
2.0
 40
2.0
 40
2.0
 40
3.0
 40
3.0
 40
3.0
 40
4.0
 40
4.0
 40
4.0
 40
5.0
 40
5.0
 40
5.0
 40
6.0
 40
6.0
 40
6.0
 40
7.0
 40
7.0
 40
7.0
 40
8.0
 40
8.0
 40
8.0
 40
9.0
 40
9.0
 40
9.0
 40
10.0
 40
10.0
 40
10.0
 40
11.0
 40
11.0
 40
11.0
 40
11.0
 10
118.864751489381
 20
-156.8796576213704
 10
118.8626844320899
 20
-156.9265109199698
 10
118.8606173747987
 20
-157.0426106378227
 10
118.8606173747987
 20
-157.0870523695824
 10
118.8606173747987
 20
-157.0870523695824
 10
118.8606173747987
 20
-157.4339734849471
 10
118.8606173747987
 20
-157.4339734849471
 10
118.8606173747987
 20
-157.5207898911754
 10
118.8626844320899
 20
-157.6623833156191
 10
118.8733642280942
 20
-157.7829616576029
 10
118.8733642280942
 20
-157.7829616576029
 10
118.6828504477598
 20
-157.7829616576029
 10
118.6828504477598
 20
-157.7829616576029
 10
118.6873290718907
 20
-157.7195719006743
 10
118.691463186473
 20
-157.66686193975
 10
118.6935302437641
 20
-157.6117404119859
 10
118.6955973010553
 20
-157.4890950127111
 10
118.6976643583464
 20
-157.4742811021245
 10
118.6976643583464
 20
-157.4298393703648
 10
118.6976643583464
 20
-157.4298393703648
 10
118.6976643583464
 20
-157.1084119615909
 10
118.6976643583464
 20
-157.1084119615909
 10
118.6976643583464
 20
-157.053290433827
 10
118.684917505051
 20
-156.8142008071506
 10
118.6828504477598
 20
-156.7635579035174
 10
118.6828504477598
 20
-156.7635579035174
 10
118.8840440240984
 20
-156.7911186673994
 10
118.8840440240984
 20
-156.7911186673994
 10
118.9050591065585
 20
-156.7931857246906
 10
118.9367539850228
 20
-156.7973198392729
 10
118.9367539850228
 20
-156.8228135458637
 10
118.9367539850228
 20
-156.8500298001972
 10
118.8861110813896
 20
-156.8713893922058
 10
118.864751489381
 20
-156.8796576213704
 97
        0
 97
        0
 92
        1
 93
        1
 72
     4
 94
        3
 73
     0
 74
     1
 95
       83
 96
       79
 40
0.0
 40
0.0
 40
0.0
 40
0.0
 40
1.0
 40
1.0
 40
1.0
 40
2.0
 40
2.0
 40
2.0
 40
3.0
 40
3.0
 40
3.0
 40
4.0
 40
4.0
 40
4.0
 40
5.0
 40
5.0
 40
5.0
 40
6.0
 40
6.0
 40
6.0
 40
7.0
 40
7.0
 40
7.0
 40
8.0
 40
8.0
 40
8.0
 40
9.0
 40
9.0
 40
9.0
 40
10.0
 40
10.0
 40
10.0
 40
11.0
 40
11.0
 40
11.0
 40
12.0
 40
12.0
 40
12.0
 40
13.0
 40
13.0
 40
13.0
 40
14.0
 40
14.0
 40
14.0
 40
15.0
 40
15.0
 40
15.0
 40
16.0
 40
16.0
 40
16.0
 40
17.0
 40
17.0
 40
17.0
 40
18.0
 40
18.0
 40
18.0
 40
19.0
 40
19.0
 40
19.0
 40
20.0
 40
20.0
 40
20.0
 40
21.0
 40
21.0
 40
21.0
 40
22.0
 40
22.0
 40
22.0
 40
23.0
 40
23.0
 40
23.0
 40
24.0
 40
24.0
 40
24.0
 40
25.0
 40
25.0
 40
25.0
 40
26.0
 40
26.0
 40
26.0
 40
26.0
 10
119.6667697183472
 20
-157.2014295396927
 10
119.6667697183472
 20
-157.2014295396927
 10
119.5692735161146
 20
-157.2014295396927
 10
119.5692735161146
 20
-157.2014295396927
 10
119.5692735161146
 20
-157.2014295396927
 10
119.5692735161146
 20
-157.4487873955337
 10
119.5692735161146
 20
-157.4487873955337
 10
119.5692735161146
 20
-157.4487873955337
 10
119.6519558077606
 20
-157.4487873955337
 10
119.6519558077606
 20
-157.4487873955337
 10
119.7174126219804
 20
-157.4487873955337
 10
119.856938989133
 20
-157.4446532809513
 10
119.9565022486567
 20
-157.4360405422382
 10
119.9565022486567
 20
-157.4360405422382
 10
119.9565022486567
 20
-157.6158745265683
 10
119.9565022486567
 20
-157.6158745265683
 10
119.863484670555
 20
-157.6076062974037
 10
119.7132785073981
 20
-157.6034721828213
 10
119.6519558077606
 20
-157.6034721828213
 10
119.6519558077606
 20
-157.6034721828213
 10
119.347064857316
 20
-157.6034721828213
 10
119.347064857316
 20
-157.6034721828213
 10
119.2943548963917
 20
-157.6034721828213
 10
119.1482828478171
 20
-157.6076062974037
 10
119.0425184164199
 20
-157.6158745265683
 10
119.0425184164199
 20
-157.6158745265683
 10
119.0425184164199
 20
-157.4360405422382
 10
119.0425184164199
 20
-157.4360405422382
 10
119.1420816759437
 20
-157.4446532809513
 10
119.2816080430963
 20
-157.4487873955337
 10
119.347064857316
 20
-157.4487873955337
 10
119.347064857316
 20
-157.4487873955337
 10
119.3915065890757
 20
-157.4487873955337
 10
119.3915065890757
 20
-157.4487873955337
 10
119.3915065890757
 20
-157.4487873955337
 10
119.3915065890757
 20
-157.2014295396927
 10
119.3915065890757
 20
-157.2014295396927
 10
119.3915065890757
 20
-157.2014295396927
 10
119.3177815456914
 20
-157.2014295396927
 10
119.3177815456914
 20
-157.2014295396927
 10
119.2561143365054
 20
-157.2014295396927
 10
119.0890272054708
 20
-157.205563654275
 10
118.9684488634871
 20
-157.2141763929881
 10
118.9684488634871
 20
-157.2141763929881
 10
118.9684488634871
 20
-157.0364094659492
 10
118.9684488634871
 20
-157.0364094659492
 10
119.0828260335974
 20
-157.0426106378227
 10
119.2413004259189
 20
-157.0470892619535
 10
119.3177815456914
 20
-157.0470892619535
 10
119.3177815456914
 20
-157.0470892619535
 10
119.3894395317846
 20
-157.0470892619535
 10
119.3894395317846
 20
-157.0470892619535
 10
119.3853054172023
 20
-156.894471531957
 10
119.3832383599111
 20
-156.8607095962015
 10
119.3766926784892
 20
-156.7676920180998
 10
119.3766926784892
 20
-156.7676920180998
 10
119.588566050832
 20
-156.7911186673994
 10
119.588566050832
 20
-156.7911186673994
 10
119.6137152478744
 20
-156.7931857246906
 10
119.637141897174
 20
-156.7973198392729
 10
119.637141897174
 20
-156.8204019790241
 10
119.637141897174
 20
-156.8524413670369
 10
119.5927001654143
 20
-156.8693223349146
 10
119.5692735161146
 20
-156.8775905640792
 10
119.5692735161146
 20
-156.8775905640792
 10
119.5692735161146
 20
-157.0470892619535
 10
119.5692735161146
 20
-157.0470892619535
 10
119.5692735161146
 20
-157.0470892619535
 10
119.6667697183472
 20
-157.0470892619535
 10
119.6667697183472
 20
-157.0470892619535
 10
119.7429063285712
 20
-157.0470892619535
 10
119.9013807208927
 20
-157.0426106378227
 10
120.0178249482942
 20
-157.0364094659492
 10
120.0178249482942
 20
-157.0364094659492
 10
120.0178249482942
 20
-157.2141763929881
 10
120.0178249482942
 20
-157.2141763929881
 10
119.9099934596058
 20
-157.2076307115662
 10
119.7363606471493
 20
-157.2014295396927
 10
119.6667697183472
 20
-157.2014295396927
 97
        0
 97
        0
 92
        1
 93
        1
 72
     4
 94
        3
 73
     0
 74
     1
 95
       17
 96
       13
 40
0.0
 40
0.0
 40
0.0
 40
0.0
 40
1.0
 40
1.0
 40
1.0
 40
2.0
 40
2.0
 40
2.0
 40
3.0
 40
3.0
 40
3.0
 40
4.0
 40
4.0
 40
4.0
 40
4.0
 10
119.4211344102489
 20
-157.998969144528
 10
119.4211344102489
 20
-157.998969144528
 10
119.2182182861677
 20
-157.998969144528
 10
119.2182182861677
 20
-157.998969144528
 10
119.2457790500497
 20
-158.0582247868743
 10
119.3005560682651
 20
-158.1302272825161
 10
119.3281168321471
 20
-158.1595105941407
 10
119.3556775960291
 20
-158.1450411931026
 10
119.4700547661394
 20
-158.0813069266255
 10
119.56100528695
 20
-157.998969144528
 10
119.56100528695
 20
-157.998969144528
 10
119.4211344102489
 20
-157.998969144528
 10
119.4211344102489
 20
-157.998969144528
 97
        0
 97
        0
 75
     2
 76
     1
 98
        0
  0
SPLINE
  5
111
330
FE
100
AcDbEntity
  8
_U+30EC_U+30A4_U+30E4_U+30FC 1
370
     0
100
AcDbSpline
210
0.0
220
0.0
230
1.0
 70
    11
 71
     3
 72
    77
 73
    73
 74
     0
 42
0.0000000001
 43
0.0000000001
 12
1.0
 22
0.0
 32
0.0
 13
1.0
 23
0.0
 33
0.0
 40
0.0
 40
0.0
 40
0.0
 40
0.0
 40
1.0
 40
1.0
 40
1.0
 40
2.0
 40
2.0
 40
2.0
 40
3.0
 40
3.0
 40
3.0
 40
4.0
 40
4.0
 40
4.0
 40
5.0
 40
5.0
 40
5.0
 40
6.0
 40
6.0
 40
6.0
 40
7.0
 40
7.0
 40
7.0
 40
8.0
 40
8.0
 40
8.0
 40
9.0
 40
9.0
 40
9.0
 40
10.0
 40
10.0
 40
10.0
 40
11.0
 40
11.0
 40
11.0
 40
12.0
 40
12.0
 40
12.0
 40
13.0
 40
13.0
 40
13.0
 40
14.0
 40
14.0
 40
14.0
 40
15.0
 40
15.0
 40
15.0
 40
16.0
 40
16.0
 40
16.0
 40
17.0
 40
17.0
 40
17.0
 40
18.0
 40
18.0
 40
18.0
 40
19.0
 40
19.0
 40
19.0
 40
20.0
 40
20.0
 40
20.0
 40
21.0
 40
21.0
 40
21.0
 40
22.0
 40
22.0
 40
22.0
 40
23.0
 40
23.0
 40
23.0
 40
24.0
 40
24.0
 40
24.0
 40
24.0
 10
121.912282955633
 20
-158.6294216183288
 30
0.0
 10
121.8657741665822
 20
-158.6545708153711
 30
0.0
 10
121.7410617100161
 20
-158.6673176686665
 30
0.0
 10
121.6625135329524
 20
-158.6673176686665
 30
0.0
 10
121.6501111892055
 20
-158.6673176686665
 30
0.0
 10
121.6246174826147
 20
-158.6673176686665
 30
0.0
 10
121.5908555468592
 20
-158.6631835540842
 30
0.0
 10
121.5908555468592
 20
-158.6631835540842
 30
0.0
 10
121.4933593446267
 20
-158.4368407807033
 30
0.0
 10
121.4933593446267
 20
-158.4368407807033
 30
0.0
 10
121.5229871657998
 20
-158.4430419525767
 30
0.0
 10
121.580175750855
 20
-158.4516546912899
 30
0.0
 10
121.6966199782564
 20
-158.4516546912899
 30
0.0
 10
121.7748236457716
 20
-158.4516546912899
 30
0.0
 10
121.7768907030627
 20
-158.4092800168213
 30
0.0
 10
121.7768907030627
 20
-158.3520914317662
 30
0.0
 10
121.7768907030627
 20
-158.3520914317662
 30
0.0
 10
121.7768907030627
 20
-158.0031032591103
 30
0.0
 10
121.7768907030627
 20
-158.0031032591103
 30
0.0
 10
121.7768907030627
 20
-158.0031032591103
 30
0.0
 10
121.3176594748789
 20
-158.0031032591103
 30
0.0
 10
121.3176594748789
 20
-158.0031032591103
 30
0.0
 10
121.3200710417186
 20
-158.1405625689718
 30
0.0
 10
121.3221380990097
 20
-158.3393445784707
 30
0.0
 10
121.3283392708832
 20
-158.4726697737499
 30
0.0
 10
121.3304063281743
 20
-158.5002305376319
 30
0.0
 10
121.3304063281743
 20
-158.5446722693916
 30
0.0
 10
121.3431531814698
 20
-158.6059949690291
 30
0.0
 10
121.3431531814698
 20
-158.6059949690291
 30
0.0
 10
121.1019964975023
 20
-158.6059949690291
 30
0.0
 10
121.1019964975023
 20
-158.6059949690291
 30
0.0
 10
121.1274902040931
 20
-158.481282512463
 30
0.0
 10
121.1274902040931
 20
-158.1405625689718
 30
0.0
 10
121.1274902040931
 20
-158.0031032591103
 30
0.0
 10
121.1274902040931
 20
-158.0031032591103
 30
0.0
 10
120.685139943787
 20
-158.0031032591103
 30
0.0
 10
120.685139943787
 20
-158.0031032591103
 30
0.0
 10
120.6620578040359
 20
-158.2104980073224
 30
0.0
 10
120.5966009898161
 20
-158.4792154551719
 30
0.0
 10
120.3995415280598
 20
-158.6631835540842
 30
0.0
 10
120.3995415280598
 20
-158.6631835540842
 30
0.0
 10
120.2114393145652
 20
-158.5405381548093
 30
0.0
 10
120.2114393145652
 20
-158.5405381548093
 30
0.0
 10
120.4653428518281
 20
-158.3203965533019
 30
0.0
 10
120.4970377302924
 20
-157.9882893485238
 30
0.0
 10
120.4970377302924
 20
-157.6561821437457
 30
0.0
 10
120.4970377302924
 20
-157.6561821437457
 30
0.0
 10
120.4970377302924
 20
-157.2203775648616
 30
0.0
 10
120.4970377302924
 20
-157.2203775648616
 30
0.0
 10
120.4970377302924
 20
-157.184548571815
 30
0.0
 10
120.4949706730013
 20
-156.9516601170121
 30
0.0
 10
120.4863579342881
 20
-156.8500298001972
 30
0.0
 10
120.6262288109893
 20
-156.8607095962015
 30
0.0
 10
120.8673854949568
 20
-156.8607095962015
 30
0.0
 10
121.0110459766917
 20
-156.8607095962015
 30
0.0
 10
121.0110459766917
 20
-156.8607095962015
 30
0.0
 10
121.4702772048755
 20
-156.8607095962015
 30
0.0
 10
121.4702772048755
 20
-156.8607095962015
 30
0.0
 10
121.4850911154621
 20
-156.8607095962015
 30
0.0
 10
121.8340792881179
 20
-156.8607095962015
 30
0.0
 10
121.9925536804394
 20
-156.8500298001972
 30
0.0
 10
121.9904866231482
 20
-156.9030842706701
 30
0.0
 10
121.9842854512748
 20
-157.0639702298312
 30
0.0
 10
121.9842854512748
 20
-157.1146131334644
 30
0.0
 10
121.9842854512748
 20
-157.1146131334644
 30
0.0
 10
121.9842854512748
 20
-157.7216389579654
 30
0.0
 10
121.9842854512748
 20
-157.7216389579654
 30
0.0
 10
121.9842854512748
 20
-157.7409314926828
 30
0.0
 10
121.9946207377305
 20
-158.3121283241373
 30
0.0
 10
121.9946207377305
 20
-158.4240939274079
 30
0.0
 10
121.9946207377305
 20
-158.481282512463
 30
0.0
 10
121.9946207377305
 20
-158.5829128292779
 30
0.0
 10
121.912282955633
 20
-158.6294216183288
 30
0.0
  0
POLYLINE
  5
112
330
FE
100
AcDbEntity
  8
_U+30EC_U+30A4_U+30E4_U+30FC 1
370
     0
100
AcDb2dPolyline
 66
     1
 10
0.0
 20
0.0
 30
0.0
  0
VERTEX
  5
113
330
112
100
AcDbEntity
  8
_U+30EC_U+30A4_U+30E4_U+30FC 1
370
     0
100
AcDbVertex
100
AcDb2dVertex
 10
121.1274902040931
 20
-157.0426106378227
 30
0.0
  0
VERTEX
  5
114
330
112
100
AcDbEntity
  8
_U+30EC_U+30A4_U+30E4_U+30FC 1
370
     0
100
AcDbVertex
100
AcDb2dVertex
 10
120.6896185679179
 20
-157.0426106378227
 30
0.0
  0
VERTEX
  5
115
330
112
100
AcDbEntity
  8
_U+30EC_U+30A4_U+30E4_U+30FC 1
370
     0
100
AcDbVertex
100
AcDb2dVertex
 10
120.6896185679179
 20
-157.3471570787188
 30
0.0
  0
VERTEX
  5
116
330
112
100
AcDbEntity
  8
_U+30EC_U+30A4_U+30E4_U+30FC 1
370
     0
100
AcDbVertex
100
AcDb2dVertex
 10
121.1274902040931
 20
-157.3471570787188
 30
0.0
  0
VERTEX
  5
117
330
112
100
AcDbEntity
  8
_U+30EC_U+30A4_U+30E4_U+30FC 1
370
     0
100
AcDbVertex
100
AcDb2dVertex
 10
121.1274902040931
 20
-157.0426106378227
 30
0.0
  0
SEQEND
  5
118
330
112
100
AcDbEntity
  8
_U+30EC_U+30A4_U+30E4_U+30FC 1
370
     0
  0
POLYLINE
  5
119
330
FE
100
AcDbEntity
  8
_U+30EC_U+30A4_U+30E4_U+30FC 1
370
     0
100
AcDb2dPolyline
 66
     1
 10
0.0
 20
0.0
 30
0.0
  0
VERTEX
  5
11A
330
119
100
AcDbEntity
  8
_U+30EC_U+30A4_U+30E4_U+30FC 1
370
     0
100
AcDbVertex
100
AcDb2dVertex
 10
121.1274902040931
 20
-157.5145887193019
 30
0.0
  0
VERTEX
  5
11B
330
119
100
AcDbEntity
  8
_U+30EC_U+30A4_U+30E4_U+30FC 1
370
     0
100
AcDbVertex
100
AcDb2dVertex
 10
120.6896185679179
 20
-157.5145887193019
 30
0.0
  0
VERTEX
  5
11C
330
119
100
AcDbEntity
  8
_U+30EC_U+30A4_U+30E4_U+30FC 1
370
     0
100
AcDbVertex
100
AcDb2dVertex
 10
120.6896185679179
 20
-157.8232692747803
 30
0.0
  0
VERTEX
  5
11D
330
119
100
AcDbEntity
  8
_U+30EC_U+30A4_U+30E4_U+30FC 1
370
     0
100
AcDbVertex
100
AcDb2dVertex
 10
121.1274902040931
 20
-157.8232692747803
 30
0.0
  0
VERTEX
  5
11E
330
119
100
AcDbEntity
  8
_U+30EC_U+30A4_U+30E4_U+30FC 1
370
     0
100
AcDbVertex
100
AcDb2dVertex
 10
121.1274902040931
 20
-157.5145887193019
 30
0.0
  0
SEQEND
  5
11F
330
119
100
AcDbEntity
  8
_U+30EC_U+30A4_U+30E4_U+30FC 1
370
     0
  0
POLYLINE
  5
120
330
FE
100
AcDbEntity
  8
_U+30EC_U+30A4_U+30E4_U+30FC 1
370
     0
100
AcDb2dPolyline
 66
     1
 10
0.0
 20
0.0
 30
0.0
  0
VERTEX
  5
121
330
120
100
AcDbEntity
  8
_U+30EC_U+30A4_U+30E4_U+30FC 1
370
     0
100
AcDbVertex
100
AcDb2dVertex
 10
121.7768907030627
 20
-157.0426106378227
 30
0.0
  0
VERTEX
  5
122
330
120
100
AcDbEntity
  8
_U+30EC_U+30A4_U+30E4_U+30FC 1
370
     0
100
AcDbVertex
100
AcDb2dVertex
 10
121.3176594748789
 20
-157.0426106378227
 30
0.0
  0
VERTEX
  5
123
330
120
100
AcDbEntity
  8
_U+30EC_U+30A4_U+30E4_U+30FC 1
370
     0
100
AcDbVertex
100
AcDb2dVertex
 10
121.3176594748789
 20
-157.3471570787188
 30
0.0
  0
VERTEX
  5
124
330
120
100
AcDbEntity
  8
_U+30EC_U+30A4_U+30E4_U+30FC 1
370
     0
100
AcDbVertex
100
AcDb2dVertex
 10
121.7768907030627
 20
-157.3471570787188
 30
0.0
  0
VERTEX
  5
125
330
120
100
AcDbEntity
  8
_U+30EC_U+30A4_U+30E4_U+30FC 1
370
     0
100
AcDbVertex
100
AcDb2dVertex
 10
121.7768907030627
 20
-157.0426106378227
 30
0.0
  0
SEQEND
  5
126
330
120
100
AcDbEntity
  8
_U+30EC_U+30A4_U+30E4_U+30FC 1
370
     0
  0
POLYLINE
  5
127
330
FE
100
AcDbEntity
  8
_U+30EC_U+30A4_U+30E4_U+30FC 1
370
     0
100
AcDb2dPolyline
 66
     1
 10
0.0
 20
0.0
 30
0.0
  0
VERTEX
  5
128
330
127
100
AcDbEntity
  8
_U+30EC_U+30A4_U+30E4_U+30FC 1
370
     0
100
AcDbVertex
100
AcDb2dVertex
 10
121.7768907030627
 20
-157.5145887193019
 30
0.0
  0
VERTEX
  5
129
330
127
100
AcDbEntity
  8
_U+30EC_U+30A4_U+30E4_U+30FC 1
370
     0
100
AcDbVertex
100
AcDb2dVertex
 10
121.3176594748789
 20
-157.5145887193019
 30
0.0
  0
VERTEX
  5
12A
330
127
100
AcDbEntity
  8
_U+30EC_U+30A4_U+30E4_U+30FC 1
370
     0
100
AcDbVertex
100
AcDb2dVertex
 10
121.3176594748789
 20
-157.8232692747803
 30
0.0
  0
VERTEX
  5
12B
330
127
100
AcDbEntity
  8
_U+30EC_U+30A4_U+30E4_U+30FC 1
370
     0
100
AcDbVertex
100
AcDb2dVertex
 10
121.7768907030627
 20
-157.8232692747803
 30
0.0
  0
VERTEX
  5
12C
330
127
100
AcDbEntity
  8
_U+30EC_U+30A4_U+30E4_U+30FC 1
370
     0
100
AcDbVertex
100
AcDb2dVertex
 10
121.7768907030627
 20
-157.5145887193019
 30
0.0
  0
SEQEND
  5
12D
330
127
100
AcDbEntity
  8
_U+30EC_U+30A4_U+30E4_U+30FC 1
370
     0
  0
HATCH
  5
12E
330
FE
100
AcDbEntity
  8
_U+30EC_U+30A4_U+30E4_U+30FC 1
 62
     7
420
 16777215
100
AcDbHatch
 10
0.0
 20
0.0
 30
0.0
210
0.0
220
0.0
230
1.0
  2
SOLID
 70
     1
 71
     0
 91
        5
 92
        1
 93
        1
 72
     4
 94
        3
 73
     0
 74
     1
 95
       77
 96
       73
 40
0.0
 40
0.0
 40
0.0
 40
0.0
 40
1.0
 40
1.0
 40
1.0
 40
2.0
 40
2.0
 40
2.0
 40
3.0
 40
3.0
 40
3.0
 40
4.0
 40
4.0
 40
4.0
 40
5.0
 40
5.0
 40
5.0
 40
6.0
 40
6.0
 40
6.0
 40
7.0
 40
7.0
 40
7.0
 40
8.0
 40
8.0
 40
8.0
 40
9.0
 40
9.0
 40
9.0
 40
10.0
 40
10.0
 40
10.0
 40
11.0
 40
11.0
 40
11.0
 40
12.0
 40
12.0
 40
12.0
 40
13.0
 40
13.0
 40
13.0
 40
14.0
 40
14.0
 40
14.0
 40
15.0
 40
15.0
 40
15.0
 40
16.0
 40
16.0
 40
16.0
 40
17.0
 40
17.0
 40
17.0
 40
18.0
 40
18.0
 40
18.0
 40
19.0
 40
19.0
 40
19.0
 40
20.0
 40
20.0
 40
20.0
 40
21.0
 40
21.0
 40
21.0
 40
22.0
 40
22.0
 40
22.0
 40
23.0
 40
23.0
 40
23.0
 40
24.0
 40
24.0
 40
24.0
 40
24.0
 10
121.912282955633
 20
-158.6294216183288
 10
121.8657741665822
 20
-158.6545708153711
 10
121.7410617100161
 20
-158.6673176686665
 10
121.6625135329524
 20
-158.6673176686665
 10
121.6501111892055
 20
-158.6673176686665
 10
121.6246174826147
 20
-158.6673176686665
 10
121.5908555468592
 20
-158.6631835540842
 10
121.5908555468592
 20
-158.6631835540842
 10
121.4933593446267
 20
-158.4368407807033
 10
121.4933593446267
 20
-158.4368407807033
 10
121.5229871657998
 20
-158.4430419525767
 10
121.580175750855
 20
-158.4516546912899
 10
121.6966199782564
 20
-158.4516546912899
 10
121.7748236457716
 20
-158.4516546912899
 10
121.7768907030627
 20
-158.4092800168213
 10
121.7768907030627
 20
-158.3520914317662
 10
121.7768907030627
 20
-158.3520914317662
 10
121.7768907030627
 20
-158.0031032591103
 10
121.7768907030627
 20
-158.0031032591103
 10
121.7768907030627
 20
-158.0031032591103
 10
121.3176594748789
 20
-158.0031032591103
 10
121.3176594748789
 20
-158.0031032591103
 10
121.3200710417186
 20
-158.1405625689718
 10
121.3221380990097
 20
-158.3393445784707
 10
121.3283392708832
 20
-158.4726697737499
 10
121.3304063281743
 20
-158.5002305376319
 10
121.3304063281743
 20
-158.5446722693916
 10
121.3431531814698
 20
-158.6059949690291
 10
121.3431531814698
 20
-158.6059949690291
 10
121.1019964975023
 20
-158.6059949690291
 10
121.1019964975023
 20
-158.6059949690291
 10
121.1274902040931
 20
-158.481282512463
 10
121.1274902040931
 20
-158.1405625689718
 10
121.1274902040931
 20
-158.0031032591103
 10
121.1274902040931
 20
-158.0031032591103
 10
120.685139943787
 20
-158.0031032591103
 10
120.685139943787
 20
-158.0031032591103
 10
120.6620578040359
 20
-158.2104980073224
 10
120.5966009898161
 20
-158.4792154551719
 10
120.3995415280598
 20
-158.6631835540842
 10
120.3995415280598
 20
-158.6631835540842
 10
120.2114393145652
 20
-158.5405381548093
 10
120.2114393145652
 20
-158.5405381548093
 10
120.4653428518281
 20
-158.3203965533019
 10
120.4970377302924
 20
-157.9882893485238
 10
120.4970377302924
 20
-157.6561821437457
 10
120.4970377302924
 20
-157.6561821437457
 10
120.4970377302924
 20
-157.2203775648616
 10
120.4970377302924
 20
-157.2203775648616
 10
120.4970377302924
 20
-157.184548571815
 10
120.4949706730013
 20
-156.9516601170121
 10
120.4863579342881
 20
-156.8500298001972
 10
120.6262288109893
 20
-156.8607095962015
 10
120.8673854949568
 20
-156.8607095962015
 10
121.0110459766917
 20
-156.8607095962015
 10
121.0110459766917
 20
-156.8607095962015
 10
121.4702772048755
 20
-156.8607095962015
 10
121.4702772048755
 20
-156.8607095962015
 10
121.4850911154621
 20
-156.8607095962015
 10
121.8340792881179
 20
-156.8607095962015
 10
121.9925536804394
 20
-156.8500298001972
 10
121.9904866231482
 20
-156.9030842706701
 10
121.9842854512748
 20
-157.0639702298312
 10
121.9842854512748
 20
-157.1146131334644
 10
121.9842854512748
 20
-157.1146131334644
 10
121.9842854512748
 20
-157.7216389579654
 10
121.9842854512748
 20
-157.7216389579654
 10
121.9842854512748
 20
-157.7409314926828
 10
121.9946207377305
 20
-158.3121283241373
 10
121.9946207377305
 20
-158.4240939274079
 10
121.9946207377305
 20
-158.481282512463
 10
121.9946207377305
 20
-158.5829128292779
 10
121.912282955633
 20
-158.6294216183288
 97
        0
 97
        0
 92
        1
 93
        4
 72
     1
 10
121.1274902040931
 20
-157.0426106378227
 11
120.6896185679179
 21
-157.0426106378227
 72
     1
 10
120.6896185679179
 20
-157.0426106378227
 11
120.6896185679179
 21
-157.3471570787188
 72
     1
 10
120.6896185679179
 20
-157.3471570787188
 11
121.1274902040931
 21
-157.3471570787188
 72
     1
 10
121.1274902040931
 20
-157.3471570787188
 11
121.1274902040931
 21
-157.0426106378227
 97
        0
 92
        1
 93
        4
 72
     1
 10
121.1274902040931
 20
-157.5145887193019
 11
120.6896185679179
 21
-157.5145887193019
 72
     1
 10
120.6896185679179
 20
-157.5145887193019
 11
120.6896185679179
 21
-157.8232692747803
 72
     1
 10
120.6896185679179
 20
-157.8232692747803
 11
121.1274902040931
 21
-157.8232692747803
 72
     1
 10
121.1274902040931
 20
-157.8232692747803
 11
121.1274902040931
 21
-157.5145887193019
 97
        0
 92
        1
 93
        4
 72
     1
 10
121.7768907030627
 20
-157.0426106378227
 11
121.3176594748789
 21
-157.0426106378227
 72
     1
 10
121.3176594748789
 20
-157.0426106378227
 11
121.3176594748789
 21
-157.3471570787188
 72
     1
 10
121.3176594748789
 20
-157.3471570787188
 11
121.7768907030627
 21
-157.3471570787188
 72
     1
 10
121.7768907030627
 20
-157.3471570787188
 11
121.7768907030627
 21
-157.0426106378227
 97
        0
 92
        1
 93
        4
 72
     1
 10
121.7768907030627
 20
-157.5145887193019
 11
121.3176594748789
 21
-157.5145887193019
 72
     1
 10
121.3176594748789
 20
-157.5145887193019
 11
121.3176594748789
 21
-157.8232692747803
 72
     1
 10
121.3176594748789
 20
-157.8232692747803
 11
121.7768907030627
 21
-157.8232692747803
 72
     1
 10
121.7768907030627
 20
-157.8232692747803
 11
121.7768907030627
 21
-157.5145887193019
 97
        0
 75
     2
 76
     1
 98
        0
  0
SPLINE
  5
12F
330
FE
100
AcDbEntity
  8
_U+30EC_U+30A4_U+30E4_U+30FC 1
370
     0
100
AcDbSpline
210
0.0
220
0.0
230
1.0
 70
    11
 71
     3
 72
    44
 73
    40
 74
     0
 42
0.0000000001
 43
0.0000000001
 12
1.0
 22
0.0
 32
0.0
 13
1.0
 23
0.0
 33
0.0
 40
0.0
 40
0.0
 40
0.0
 40
0.0
 40
1.0
 40
1.0
 40
1.0
 40
2.0
 40
2.0
 40
2.0
 40
3.0
 40
3.0
 40
3.0
 40
4.0
 40
4.0
 40
4.0
 40
5.0
 40
5.0
 40
5.0
 40
6.0
 40
6.0
 40
6.0
 40
7.0
 40
7.0
 40
7.0
 40
8.0
 40
8.0
 40
8.0
 40
9.0
 40
9.0
 40
9.0
 40
10.0
 40
10.0
 40
10.0
 40
11.0
 40
11.0
 40
11.0
 40
12.0
 40
12.0
 40
12.0
 40
13.0
 40
13.0
 40
13.0
 40
13.0
 10
117.4608750791417
 20
-159.9192653680063
 30
0.0
 10
117.3489094758711
 20
-160.287201565831
 30
0.0
 10
117.2982665722379
 20
-160.446020467701
 30
0.0
 10
117.1015516200302
 20
-160.6954453808331
 30
0.0
 10
116.9172390115693
 20
-160.9262667783448
 30
0.0
 10
116.6805609517326
 20
-161.1123019345483
 30
0.0
 10
116.4011637078789
 20
-161.2053195126501
 30
0.0
 10
116.4011637078789
 20
-161.2053195126501
 30
0.0
 10
116.2085828702534
 20
-161.02548552832
 30
0.0
 10
116.2085828702534
 20
-161.02548552832
 30
0.0
 10
116.8497151400584
 20
-160.873212307872
 30
0.0
 10
117.1797552875453
 20
-160.3168293870041
 30
0.0
 10
117.2431450444739
 20
-159.8768906935377
 30
0.0
 10
117.2431450444739
 20
-159.8768906935377
 30
0.0
 10
116.4773003181029
 20
-159.8768906935377
 30
0.0
 10
116.4773003181029
 20
-159.8768906935377
 30
0.0
 10
116.3842827400012
 20
-159.8768906935377
 30
0.0
 10
116.2003146410888
 20
-159.88102480812
 30
0.0
 10
116.0435627965099
 20
-159.8999728332889
 30
0.0
 10
116.0435627965099
 20
-159.8999728332889
 30
0.0
 10
116.0435627965099
 20
-159.68017574133
 30
0.0
 10
116.0435627965099
 20
-159.68017574133
 30
0.0
 10
116.1303792027382
 20
-159.70119082379
 30
0.0
 10
116.38221568271
 20
-159.70119082379
 30
0.0
 10
116.4814344326852
 20
-159.70119082379
 30
0.0
 10
116.4814344326852
 20
-159.70119082379
 30
0.0
 10
116.913104896987
 20
-159.70119082379
 30
0.0
 10
116.913104896987
 20
-159.70119082379
 30
0.0
 10
116.9554795714556
 20
-159.70119082379
 30
0.0
 10
117.1900905740011
 20
-159.6991237664988
 30
0.0
 10
117.2283311338874
 20
-159.6929225946254
 30
0.0
 10
117.2707058083559
 20
-159.6863769132034
 30
0.0
 10
117.2727728656471
 20
-159.6843098559123
 30
0.0
 10
117.3340955652845
 20
-159.6440022387348
 30
0.0
 10
117.3340955652845
 20
-159.6440022387348
 30
0.0
 10
117.5221977787792
 20
-159.7986870260225
 30
0.0
 10
117.5221977787792
 20
-159.7986870260225
 30
0.0
 10
117.4929144671545
 20
-159.8283148471957
 30
0.0
 10
117.478100556568
 20
-159.86000972566
 30
0.0
 10
117.4608750791417
 20
-159.9192653680063
 30
0.0
  0
SPLINE
  5
130
330
FE
100
AcDbEntity
  8
_U+30EC_U+30A4_U+30E4_U+30FC 1
370
     0
100
AcDbSpline
210
0.0
220
0.0
230
1.0
 70
    11
 71
     3
 72
    17
 73
    13
 74
     0
 42
0.0000000001
 43
0.0000000001
 12
1.0
 22
0.0
 32
0.0
 13
1.0
 23
0.0
 33
0.0
 40
0.0
 40
0.0
 40
0.0
 40
0.0
 40
1.0
 40
1.0
 40
1.0
 40
2.0
 40
2.0
 40
2.0
 40
3.0
 40
3.0
 40
3.0
 40
4.0
 40
4.0
 40
4.0
 40
4.0
 10
117.6703368846449
 20
-159.7201388489589
 30
0.0
 10
117.5435573707877
 20
-159.7201388489589
 30
0.0
 10
117.4419270539729
 20
-159.6188530416925
 30
0.0
 10
117.4419270539729
 20
-159.4917290182868
 30
0.0
 10
117.4419270539729
 20
-159.3649495044296
 30
0.0
 10
117.5435573707877
 20
-159.2612521303236
 30
0.0
 10
117.6703368846449
 20
-159.2612521303236
 30
0.0
 10
117.7974609080506
 20
-159.2612521303236
 30
0.0
 10
117.9011582821567
 20
-159.3649495044296
 30
0.0
 10
117.9011582821567
 20
-159.4917290182868
 30
0.0
 10
117.9011582821567
 20
-159.6188530416925
 30
0.0
 10
117.7974609080506
 20
-159.7201388489589
 30
0.0
 10
117.6703368846449
 20
-159.7201388489589
 30
0.0
  0
SPLINE
  5
131
330
FE
100
AcDbEntity
  8
_U+30EC_U+30A4_U+30E4_U+30FC 1
370
     0
100
AcDbSpline
210
0.0
220
0.0
230
1.0
 70
    11
 71
     3
 72
    17
 73
    13
 74
     0
 42
0.0000000001
 43
0.0000000001
 12
1.0
 22
0.0
 32
0.0
 13
1.0
 23
0.0
 33
0.0
 40
0.0
 40
0.0
 40
0.0
 40
0.0
 40
1.0
 40
1.0
 40
1.0
 40
2.0
 40
2.0
 40
2.0
 40
3.0
 40
3.0
 40
3.0
 40
4.0
 40
4.0
 40
4.0
 40
4.0
 10
117.6682698273538
 20
-159.3900987014719
 30
0.0
 10
117.6134928091383
 20
-159.3900987014719
 30
0.0
 10
117.5690510773786
 20
-159.4345404332317
 30
0.0
 10
117.5690510773786
 20
-159.4896619609956
 30
0.0
 10
117.5690510773786
 20
-159.5468505460508
 30
0.0
 10
117.6134928091383
 20
-159.5954263923928
 30
0.0
 10
117.6724039419361
 20
-159.5954263923928
 30
0.0
 10
117.7316595842824
 20
-159.5954263923928
 30
0.0
 10
117.7719672014598
 20
-159.5447834887596
 30
0.0
 10
117.7719672014598
 20
-159.4917290182868
 30
0.0
 10
117.7719672014598
 20
-159.4345404332317
 30
0.0
 10
117.7254584124089
 20
-159.3900987014719
 30
0.0
 10
117.6682698273538
 20
-159.3900987014719
 30
0.0
  0
HATCH
  5
132
330
FE
100
AcDbEntity
  8
_U+30EC_U+30A4_U+30E4_U+30FC 1
 62
     7
420
 16777215
100
AcDbHatch
 10
0.0
 20
0.0
 30
0.0
210
0.0
220
0.0
230
1.0
  2
SOLID
 70
     1
 71
     0
 91
        3
 92
        1
 93
        1
 72
     4
 94
        3
 73
     0
 74
     1
 95
       44
 96
       40
 40
0.0
 40
0.0
 40
0.0
 40
0.0
 40
1.0
 40
1.0
 40
1.0
 40
2.0
 40
2.0
 40
2.0
 40
3.0
 40
3.0
 40
3.0
 40
4.0
 40
4.0
 40
4.0
 40
5.0
 40
5.0
 40
5.0
 40
6.0
 40
6.0
 40
6.0
 40
7.0
 40
7.0
 40
7.0
 40
8.0
 40
8.0
 40
8.0
 40
9.0
 40
9.0
 40
9.0
 40
10.0
 40
10.0
 40
10.0
 40
11.0
 40
11.0
 40
11.0
 40
12.0
 40
12.0
 40
12.0
 40
13.0
 40
13.0
 40
13.0
 40
13.0
 10
117.4608750791417
 20
-159.9192653680063
 10
117.3489094758711
 20
-160.287201565831
 10
117.2982665722379
 20
-160.446020467701
 10
117.1015516200302
 20
-160.6954453808331
 10
116.9172390115693
 20
-160.9262667783448
 10
116.6805609517326
 20
-161.1123019345483
 10
116.4011637078789
 20
-161.2053195126501
 10
116.4011637078789
 20
-161.2053195126501
 10
116.2085828702534
 20
-161.02548552832
 10
116.2085828702534
 20
-161.02548552832
 10
116.8497151400584
 20
-160.873212307872
 10
117.1797552875453
 20
-160.3168293870041
 10
117.2431450444739
 20
-159.8768906935377
 10
117.2431450444739
 20
-159.8768906935377
 10
116.4773003181029
 20
-159.8768906935377
 10
116.4773003181029
 20
-159.8768906935377
 10
116.3842827400012
 20
-159.8768906935377
 10
116.2003146410888
 20
-159.88102480812
 10
116.0435627965099
 20
-159.8999728332889
 10
116.0435627965099
 20
-159.8999728332889
 10
116.0435627965099
 20
-159.68017574133
 10
116.0435627965099
 20
-159.68017574133
 10
116.1303792027382
 20
-159.70119082379
 10
116.38221568271
 20
-159.70119082379
 10
116.4814344326852
 20
-159.70119082379
 10
116.4814344326852
 20
-159.70119082379
 10
116.913104896987
 20
-159.70119082379
 10
116.913104896987
 20
-159.70119082379
 10
116.9554795714556
 20
-159.70119082379
 10
117.1900905740011
 20
-159.6991237664988
 10
117.2283311338874
 20
-159.6929225946254
 10
117.2707058083559
 20
-159.6863769132034
 10
117.2727728656471
 20
-159.6843098559123
 10
117.3340955652845
 20
-159.6440022387348
 10
117.3340955652845
 20
-159.6440022387348
 10
117.5221977787792
 20
-159.7986870260225
 10
117.5221977787792
 20
-159.7986870260225
 10
117.4929144671545
 20
-159.8283148471957
 10
117.478100556568
 20
-159.86000972566
 10
117.4608750791417
 20
-159.9192653680063
 97
        0
 97
        0
 92
        1
 93
        1
 72
     4
 94
        3
 73
     0
 74
     1
 95
       17
 96
       13
 40
0.0
 40
0.0
 40
0.0
 40
0.0
 40
1.0
 40
1.0
 40
1.0
 40
2.0
 40
2.0
 40
2.0
 40
3.0
 40
3.0
 40
3.0
 40
4.0
 40
4.0
 40
4.0
 40
4.0
 10
117.6703368846449
 20
-159.7201388489589
 10
117.5435573707877
 20
-159.7201388489589
 10
117.4419270539729
 20
-159.6188530416925
 10
117.4419270539729
 20
-159.4917290182868
 10
117.4419270539729
 20
-159.3649495044296
 10
117.5435573707877
 20
-159.2612521303236
 10
117.6703368846449
 20
-159.2612521303236
 10
117.7974609080506
 20
-159.2612521303236
 10
117.9011582821567
 20
-159.3649495044296
 10
117.9011582821567
 20
-159.4917290182868
 10
117.9011582821567
 20
-159.6188530416925
 10
117.7974609080506
 20
-159.7201388489589
 10
117.6703368846449
 20
-159.7201388489589
 97
        0
 97
        0
 92
        1
 93
        1
 72
     4
 94
        3
 73
     0
 74
     1
 95
       17
 96
       13
 40
0.0
 40
0.0
 40
0.0
 40
0.0
 40
1.0
 40
1.0
 40
1.0
 40
2.0
 40
2.0
 40
2.0
 40
3.0
 40
3.0
 40
3.0
 40
4.0
 40
4.0
 40
4.0
 40
4.0
 10
117.6682698273538
 20
-159.3900987014719
 10
117.6134928091383
 20
-159.3900987014719
 10
117.5690510773786
 20
-159.4345404332317
 10
117.5690510773786
 20
-159.4896619609956
 10
117.5690510773786
 20
-159.5468505460508
 10
117.6134928091383
 20
-159.5954263923928
 10
117.6724039419361
 20
-159.5954263923928
 10
117.7316595842824
 20
-159.5954263923928
 10
117.7719672014598
 20
-159.5447834887596
 10
117.7719672014598
 20
-159.4917290182868
 10
117.7719672014598
 20
-159.4345404332317
 10
117.7254584124089
 20
-159.3900987014719
 10
117.6682698273538
 20
-159.3900987014719
 97
        0
 97
        0
 75
     2
 76
     1
 98
        0
  0
SPLINE
  5
133
330
FE
100
AcDbEntity
  8
_U+30EC_U+30A4_U+30E4_U+30FC 1
370
     0
100
AcDbSpline
210
0.0
220
0.0
230
1.0
 70
    11
 71
     3
 72
    50
 73
    46
 74
     0
 42
0.0000000001
 43
0.0000000001
 12
1.0
 22
0.0
 32
0.0
 13
1.0
 23
0.0
 33
0.0
 40
0.0
 40
0.0
 40
0.0
 40
0.0
 40
1.0
 40
1.0
 40
1.0
 40
2.0
 40
2.0
 40
2.0
 40
3.0
 40
3.0
 40
3.0
 40
4.0
 40
4.0
 40
4.0
 40
5.0
 40
5.0
 40
5.0
 40
6.0
 40
6.0
 40
6.0
 40
7.0
 40
7.0
 40
7.0
 40
8.0
 40
8.0
 40
8.0
 40
9.0
 40
9.0
 40
9.0
 40
10.0
 40
10.0
 40
10.0
 40
11.0
 40
11.0
 40
11.0
 40
12.0
 40
12.0
 40
12.0
 40
13.0
 40
13.0
 40
13.0
 40
14.0
 40
14.0
 40
14.0
 40
15.0
 40
15.0
 40
15.0
 40
15.0
 10
119.4655761420086
 20
-160.2279459234847
 30
0.0
 10
119.3870279649449
 20
-160.4057128505236
 30
0.0
 10
119.2516357123746
 20
-160.6131075987356
 30
0.0
 10
119.1141764025131
 20
-160.7526339658882
 30
0.0
 10
118.9450222141874
 20
-160.9238552115052
 30
0.0
 10
118.782069197735
 20
-161.0127386750246
 30
0.0
 10
118.4627088462524
 20
-161.1546766090169
 30
0.0
 10
118.4627088462524
 20
-161.1546766090169
 30
0.0
 10
118.2935546579266
 20
-160.9662298859737
 30
0.0
 10
118.2935546579266
 20
-160.9662298859737
 30
0.0
 10
118.4795898141301
 20
-160.9431477462226
 30
0.0
 10
118.650811059747
 20
-160.8563313399943
 30
0.0
 10
118.8034287897436
 20
-160.7505669085971
 30
0.0
 10
119.0656005561711
 20
-160.5686658669759
 30
0.0
 10
119.2561143365054
 20
-160.2555066873667
 30
0.0
 10
119.3046901828474
 20
-160.0736056457455
 30
0.0
 10
119.3046901828474
 20
-160.0736056457455
 30
0.0
 10
118.6339300918693
 20
-160.0736056457455
 30
0.0
 10
118.6339300918693
 20
-160.0736056457455
 30
0.0
 10
118.4754556995478
 20
-160.0736056457455
 30
0.0
 10
118.1833116023986
 20
-160.0818738749101
 30
0.0
 10
118.0310383819506
 20
-160.0990993523363
 30
0.0
 10
118.0310383819506
 20
-160.0990993523363
 30
0.0
 10
118.0310383819506
 20
-159.8703450121158
 30
0.0
 10
118.0310383819506
 20
-159.8703450121158
 30
0.0
 10
118.0651448272546
 20
-159.8768906935377
 30
0.0
 10
118.0902940242969
 20
-159.8830918654112
 30
0.0
 10
118.1433484947697
 20
-159.8872259799935
 30
0.0
 10
118.2446343020361
 20
-159.8937716614155
 30
0.0
 10
118.4416937637924
 20
-159.8958387187066
 30
0.0
 10
118.526098603181
 20
-159.8958387187066
 30
0.0
 10
118.526098603181
 20
-159.8958387187066
 30
0.0
 10
119.0318386204157
 20
-159.8958387187066
 30
0.0
 10
119.0318386204157
 20
-159.8958387187066
 30
0.0
 10
119.0993624919266
 20
-159.8958387187066
 30
0.0
 10
119.2454345405012
 20
-159.8917046041243
 30
0.0
 10
119.3067572401386
 20
-159.8851589227023
 30
0.0
 10
119.3787597357803
 20
-159.8768906935377
 30
0.0
 10
119.4063204996623
 20
-159.8620767829512
 30
0.0
 10
119.4400824354178
 20
-159.8386501336515
 30
0.0
 10
119.4400824354178
 20
-159.8386501336515
 30
0.0
 10
119.6051025091612
 20
-160.0057372646861
 30
0.0
 10
119.6051025091612
 20
-160.0057372646861
 30
0.0
 10
119.5351670708107
 20
-160.0736056457455
 30
0.0
 10
119.4886582817598
 20
-160.1773030198515
 30
0.0
 10
119.4655761420086
 20
-160.2279459234847
 30
0.0
  0
SPLINE
  5
134
330
FE
100
AcDbEntity
  8
_U+30EC_U+30A4_U+30E4_U+30FC 1
370
     0
100
AcDbSpline
210
0.0
220
0.0
230
1.0
 70
    11
 71
     3
 72
    29
 73
    25
 74
     0
 42
0.0000000001
 43
0.0000000001
 12
1.0
 22
0.0
 32
0.0
 13
1.0
 23
0.0
 33
0.0
 40
0.0
 40
0.0
 40
0.0
 40
0.0
 40
1.0
 40
1.0
 40
1.0
 40
2.0
 40
2.0
 40
2.0
 40
3.0
 40
3.0
 40
3.0
 40
4.0
 40
4.0
 40
4.0
 40
5.0
 40
5.0
 40
5.0
 40
6.0
 40
6.0
 40
6.0
 40
7.0
 40
7.0
 40
7.0
 40
8.0
 40
8.0
 40
8.0
 40
8.0
 10
118.9725829780694
 20
-159.6019720738148
 30
0.0
 10
118.9725829780694
 20
-159.6019720738148
 30
0.0
 10
118.6318630345781
 20
-159.6019720738148
 30
0.0
 10
118.6318630345781
 20
-159.6019720738148
 30
0.0
 10
118.5178303740164
 20
-159.6019720738148
 30
0.0
 10
118.4013861466149
 20
-159.6061061883971
 30
0.0
 10
118.2870089765046
 20
-159.6209200989837
 30
0.0
 10
118.2870089765046
 20
-159.6209200989837
 30
0.0
 10
118.2870089765046
 20
-159.4114582934805
 30
0.0
 10
118.2870089765046
 20
-159.4114582934805
 30
0.0
 10
118.4055202611972
 20
-159.4262722040671
 30
0.0
 10
118.5791530736538
 20
-159.4304063186493
 30
0.0
 10
118.6318630345781
 20
-159.4304063186493
 30
0.0
 10
118.6318630345781
 20
-159.4304063186493
 30
0.0
 10
118.9725829780694
 20
-159.4304063186493
 30
0.0
 10
118.9725829780694
 20
-159.4304063186493
 30
0.0
 10
119.0890272054708
 20
-159.4304063186493
 30
0.0
 10
119.2051269233237
 20
-159.4262722040671
 30
0.0
 10
119.3215711507252
 20
-159.4114582934805
 30
0.0
 10
119.3215711507252
 20
-159.4114582934805
 30
0.0
 10
119.3215711507252
 20
-159.6209200989837
 30
0.0
 10
119.3215711507252
 20
-159.6209200989837
 30
0.0
 10
119.1713649875683
 20
-159.6019720738148
 30
0.0
 10
118.9873968886559
 20
-159.6019720738148
 30
0.0
 10
118.9725829780694
 20
-159.6019720738148
 30
0.0
  0
HATCH
  5
135
330
FE
100
AcDbEntity
  8
_U+30EC_U+30A4_U+30E4_U+30FC 1
 62
     7
420
 16777215
100
AcDbHatch
 10
0.0
 20
0.0
 30
0.0
210
0.0
220
0.0
230
1.0
  2
SOLID
 70
     1
 71
     0
 91
        2
 92
        1
 93
        1
 72
     4
 94
        3
 73
     0
 74
     1
 95
       50
 96
       46
 40
0.0
 40
0.0
 40
0.0
 40
0.0
 40
1.0
 40
1.0
 40
1.0
 40
2.0
 40
2.0
 40
2.0
 40
3.0
 40
3.0
 40
3.0
 40
4.0
 40
4.0
 40
4.0
 40
5.0
 40
5.0
 40
5.0
 40
6.0
 40
6.0
 40
6.0
 40
7.0
 40
7.0
 40
7.0
 40
8.0
 40
8.0
 40
8.0
 40
9.0
 40
9.0
 40
9.0
 40
10.0
 40
10.0
 40
10.0
 40
11.0
 40
11.0
 40
11.0
 40
12.0
 40
12.0
 40
12.0
 40
13.0
 40
13.0
 40
13.0
 40
14.0
 40
14.0
 40
14.0
 40
15.0
 40
15.0
 40
15.0
 40
15.0
 10
119.4655761420086
 20
-160.2279459234847
 10
119.3870279649449
 20
-160.4057128505236
 10
119.2516357123746
 20
-160.6131075987356
 10
119.1141764025131
 20
-160.7526339658882
 10
118.9450222141874
 20
-160.9238552115052
 10
118.782069197735
 20
-161.0127386750246
 10
118.4627088462524
 20
-161.1546766090169
 10
118.4627088462524
 20
-161.1546766090169
 10
118.2935546579266
 20
-160.9662298859737
 10
118.2935546579266
 20
-160.9662298859737
 10
118.4795898141301
 20
-160.9431477462226
 10
118.650811059747
 20
-160.8563313399943
 10
118.8034287897436
 20
-160.7505669085971
 10
119.0656005561711
 20
-160.5686658669759
 10
119.2561143365054
 20
-160.2555066873667
 10
119.3046901828474
 20
-160.0736056457455
 10
119.3046901828474
 20
-160.0736056457455
 10
118.6339300918693
 20
-160.0736056457455
 10
118.6339300918693
 20
-160.0736056457455
 10
118.4754556995478
 20
-160.0736056457455
 10
118.1833116023986
 20
-160.0818738749101
 10
118.0310383819506
 20
-160.0990993523363
 10
118.0310383819506
 20
-160.0990993523363
 10
118.0310383819506
 20
-159.8703450121158
 10
118.0310383819506
 20
-159.8703450121158
 10
118.0651448272546
 20
-159.8768906935377
 10
118.0902940242969
 20
-159.8830918654112
 10
118.1433484947697
 20
-159.8872259799935
 10
118.2446343020361
 20
-159.8937716614155
 10
118.4416937637924
 20
-159.8958387187066
 10
118.526098603181
 20
-159.8958387187066
 10
118.526098603181
 20
-159.8958387187066
 10
119.0318386204157
 20
-159.8958387187066
 10
119.0318386204157
 20
-159.8958387187066
 10
119.0993624919266
 20
-159.8958387187066
 10
119.2454345405012
 20
-159.8917046041243
 10
119.3067572401386
 20
-159.8851589227023
 10
119.3787597357803
 20
-159.8768906935377
 10
119.4063204996623
 20
-159.8620767829512
 10
119.4400824354178
 20
-159.8386501336515
 10
119.4400824354178
 20
-159.8386501336515
 10
119.6051025091612
 20
-160.0057372646861
 10
119.6051025091612
 20
-160.0057372646861
 10
119.5351670708107
 20
-160.0736056457455
 10
119.4886582817598
 20
-160.1773030198515
 10
119.4655761420086
 20
-160.2279459234847
 97
        0
 97
        0
 92
        1
 93
        1
 72
     4
 94
        3
 73
     0
 74
     1
 95
       29
 96
       25
 40
0.0
 40
0.0
 40
0.0
 40
0.0
 40
1.0
 40
1.0
 40
1.0
 40
2.0
 40
2.0
 40
2.0
 40
3.0
 40
3.0
 40
3.0
 40
4.0
 40
4.0
 40
4.0
 40
5.0
 40
5.0
 40
5.0
 40
6.0
 40
6.0
 40
6.0
 40
7.0
 40
7.0
 40
7.0
 40
8.0
 40
8.0
 40
8.0
 40
8.0
 10
118.9725829780694
 20
-159.6019720738148
 10
118.9725829780694
 20
-159.6019720738148
 10
118.6318630345781
 20
-159.6019720738148
 10
118.6318630345781
 20
-159.6019720738148
 10
118.5178303740164
 20
-159.6019720738148
 10
118.4013861466149
 20
-159.6061061883971
 10
118.2870089765046
 20
-159.6209200989837
 10
118.2870089765046
 20
-159.6209200989837
 10
118.2870089765046
 20
-159.4114582934805
 10
118.2870089765046
 20
-159.4114582934805
 10
118.4055202611972
 20
-159.4262722040671
 10
118.5791530736538
 20
-159.4304063186493
 10
118.6318630345781
 20
-159.4304063186493
 10
118.6318630345781
 20
-159.4304063186493
 10
118.9725829780694
 20
-159.4304063186493
 10
118.9725829780694
 20
-159.4304063186493
 10
119.0890272054708
 20
-159.4304063186493
 10
119.2051269233237
 20
-159.4262722040671
 10
119.3215711507252
 20
-159.4114582934805
 10
119.3215711507252
 20
-159.4114582934805
 10
119.3215711507252
 20
-159.6209200989837
 10
119.3215711507252
 20
-159.6209200989837
 10
119.1713649875683
 20
-159.6019720738148
 10
118.9873968886559
 20
-159.6019720738148
 10
118.9725829780694
 20
-159.6019720738148
 97
        0
 97
        0
 75
     2
 76
     1
 98
        0
  0
SPLINE
  5
136
330
FE
100
AcDbEntity
  8
_U+30EC_U+30A4_U+30E4_U+30FC 1
370
     0
100
AcDbSpline
210
0.0
220
0.0
230
1.0
 70
    11
 71
     3
 72
    50
 73
    46
 74
     0
 42
0.0000000001
 43
0.0000000001
 12
1.0
 22
0.0
 32
0.0
 13
1.0
 23
0.0
 33
0.0
 40
0.0
 40
0.0
 40
0.0
 40
0.0
 40
1.0
 40
1.0
 40
1.0
 40
2.0
 40
2.0
 40
2.0
 40
3.0
 40
3.0
 40
3.0
 40
4.0
 40
4.0
 40
4.0
 40
5.0
 40
5.0
 40
5.0
 40
6.0
 40
6.0
 40
6.0
 40
7.0
 40
7.0
 40
7.0
 40
8.0
 40
8.0
 40
8.0
 40
9.0
 40
9.0
 40
9.0
 40
10.0
 40
10.0
 40
10.0
 40
11.0
 40
11.0
 40
11.0
 40
12.0
 40
12.0
 40
12.0
 40
13.0
 40
13.0
 40
13.0
 40
14.0
 40
14.0
 40
14.0
 40
15.0
 40
15.0
 40
15.0
 40
15.0
 10
121.1757215408866
 20
-159.5871581632282
 30
0.0
 10
120.9662597353834
 20
-159.8007540833137
 30
0.0
 10
120.8946017492902
 20
-159.8727565789554
 30
0.0
 10
120.752663815298
 20
-159.9909233540995
 30
0.0
 10
120.752663815298
 20
-159.9909233540995
 30
0.0
 10
120.752663815298
 20
-160.5579860709716
 30
0.0
 10
120.752663815298
 20
-160.5579860709716
 30
0.0
 10
120.752663815298
 20
-160.7081922341285
 30
0.0
 10
120.7592094967199
 20
-160.7271402592974
 30
0.0
 10
120.7633436113022
 20
-160.9049071863363
 30
0.0
 10
120.7654106685934
 20
-161.0361653243243
 30
0.0
 10
120.7716118404668
 20
-161.0847411706663
 30
0.0
 10
120.7781575218888
 20
-161.1439968130126
 30
0.0
 10
120.7781575218888
 20
-161.1439968130126
 30
0.0
 10
120.5518147485079
 20
-161.1439968130126
 30
0.0
 10
120.5518147485079
 20
-161.1439968130126
 30
0.0
 10
120.5559488630902
 20
-161.0995550812529
 30
0.0
 10
120.5600829776725
 20
-161.053046292202
 30
0.0
 10
120.5600829776725
 20
-161.0444335534889
 30
0.0
 10
120.5600829776725
 20
-160.9641628286826
 30
0.0
 10
120.5645616018033
 20
-160.6131075987356
 30
0.0
 10
120.5645616018033
 20
-160.5411051030939
 30
0.0
 10
120.5645616018033
 20
-160.5411051030939
 30
0.0
 10
120.5645616018033
 20
-160.1349283453829
 30
0.0
 10
120.5645616018033
 20
-160.1349283453829
 30
0.0
 10
120.3826605601821
 20
-160.259640801949
 30
0.0
 10
120.1880126652655
 20
-160.369883857477
 30
0.0
 10
119.9847520316358
 20
-160.4563557541568
 30
0.0
 10
119.9847520316358
 20
-160.4563557541568
 30
0.0
 10
119.7818359075546
 20
-160.2934027377044
 30
0.0
 10
119.7818359075546
 20
-160.2934027377044
 30
0.0
 10
119.9044813068294
 20
-160.2575737446578
 30
0.0
 10
120.1604519013835
 20
-160.183504191725
 30
0.0
 10
120.505305959457
 20
-159.9275335971709
 30
0.0
 10
120.7209689368337
 20
-159.7690592048494
 30
0.0
 10
120.9135497744591
 20
-159.5806124818062
 30
0.0
 10
121.0658229949072
 20
-159.3604708802988
 30
0.0
 10
121.0658229949072
 20
-159.3604708802988
 30
0.0
 10
121.2584038325326
 20
-159.5044758715822
 30
0.0
 10
121.2584038325326
 20
-159.5044758715822
 30
0.0
 10
121.271150685828
 20
-159.5151556675865
 30
0.0
 10
121.2794189149926
 20
-159.5299695781731
 30
0.0
 10
121.2794189149926
 20
-159.5427164314685
 30
0.0
 10
121.2794189149926
 20
-159.5826795390974
 30
0.0
 10
121.2415228646549
 20
-159.5826795390974
 30
0.0
 10
121.1757215408866
 20
-159.5871581632282
 30
0.0
  0
HATCH
  5
137
330
FE
100
AcDbEntity
  8
_U+30EC_U+30A4_U+30E4_U+30FC 1
 62
     7
420
 16777215
100
AcDbHatch
 10
0.0
 20
0.0
 30
0.0
210
0.0
220
0.0
230
1.0
  2
SOLID
 70
     1
 71
     0
 91
        1
 92
        1
 93
        1
 72
     4
 94
        3
 73
     0
 74
     1
 95
       50
 96
       46
 40
0.0
 40
0.0
 40
0.0
 40
0.0
 40
1.0
 40
1.0
 40
1.0
 40
2.0
 40
2.0
 40
2.0
 40
3.0
 40
3.0
 40
3.0
 40
4.0
 40
4.0
 40
4.0
 40
5.0
 40
5.0
 40
5.0
 40
6.0
 40
6.0
 40
6.0
 40
7.0
 40
7.0
 40
7.0
 40
8.0
 40
8.0
 40
8.0
 40
9.0
 40
9.0
 40
9.0
 40
10.0
 40
10.0
 40
10.0
 40
11.0
 40
11.0
 40
11.0
 40
12.0
 40
12.0
 40
12.0
 40
13.0
 40
13.0
 40
13.0
 40
14.0
 40
14.0
 40
14.0
 40
15.0
 40
15.0
 40
15.0
 40
15.0
 10
121.1757215408866
 20
-159.5871581632282
 10
120.9662597353834
 20
-159.8007540833137
 10
120.8946017492902
 20
-159.8727565789554
 10
120.752663815298
 20
-159.9909233540995
 10
120.752663815298
 20
-159.9909233540995
 10
120.752663815298
 20
-160.5579860709716
 10
120.752663815298
 20
-160.5579860709716
 10
120.752663815298
 20
-160.7081922341285
 10
120.7592094967199
 20
-160.7271402592974
 10
120.7633436113022
 20
-160.9049071863363
 10
120.7654106685934
 20
-161.0361653243243
 10
120.7716118404668
 20
-161.0847411706663
 10
120.7781575218888
 20
-161.1439968130126
 10
120.7781575218888
 20
-161.1439968130126
 10
120.5518147485079
 20
-161.1439968130126
 10
120.5518147485079
 20
-161.1439968130126
 10
120.5559488630902
 20
-161.0995550812529
 10
120.5600829776725
 20
-161.053046292202
 10
120.5600829776725
 20
-161.0444335534889
 10
120.5600829776725
 20
-160.9641628286826
 10
120.5645616018033
 20
-160.6131075987356
 10
120.5645616018033
 20
-160.5411051030939
 10
120.5645616018033
 20
-160.5411051030939
 10
120.5645616018033
 20
-160.1349283453829
 10
120.5645616018033
 20
-160.1349283453829
 10
120.3826605601821
 20
-160.259640801949
 10
120.1880126652655
 20
-160.369883857477
 10
119.9847520316358
 20
-160.4563557541568
 10
119.9847520316358
 20
-160.4563557541568
 10
119.7818359075546
 20
-160.2934027377044
 10
119.7818359075546
 20
-160.2934027377044
 10
119.9044813068294
 20
-160.2575737446578
 10
120.1604519013835
 20
-160.183504191725
 10
120.505305959457
 20
-159.9275335971709
 10
120.7209689368337
 20
-159.7690592048494
 10
120.9135497744591
 20
-159.5806124818062
 10
121.0658229949072
 20
-159.3604708802988
 10
121.0658229949072
 20
-159.3604708802988
 10
121.2584038325326
 20
-159.5044758715822
 10
121.2584038325326
 20
-159.5044758715822
 10
121.271150685828
 20
-159.5151556675865
 10
121.2794189149926
 20
-159.5299695781731
 10
121.2794189149926
 20
-159.5427164314685
 10
121.2794189149926
 20
-159.5826795390974
 10
121.2415228646549
 20
-159.5826795390974
 10
121.1757215408866
 20
-159.5871581632282
 97
        0
 97
        0
 75
     2
 76
     1
 98
        0
  0
SPLINE
  5
138
330
FE
100
AcDbEntity
  8
_U+30EC_U+30A4_U+30E4_U+30FC 1
370
     0
100
AcDbSpline
210
0.0
220
0.0
230
1.0
 70
    11
 71
     3
 72
    50
 73
    46
 74
     0
 42
0.0000000001
 43
0.0000000001
 12
1.0
 22
0.0
 32
0.0
 13
1.0
 23
0.0
 33
0.0
 40
0.0
 40
0.0
 40
0.0
 40
0.0
 40
1.0
 40
1.0
 40
1.0
 40
2.0
 40
2.0
 40
2.0
 40
3.0
 40
3.0
 40
3.0
 40
4.0
 40
4.0
 40
4.0
 40
5.0
 40
5.0
 40
5.0
 40
6.0
 40
6.0
 40
6.0
 40
7.0
 40
7.0
 40
7.0
 40
8.0
 40
8.0
 40
8.0
 40
9.0
 40
9.0
 40
9.0
 40
10.0
 40
10.0
 40
10.0
 40
11.0
 40
11.0
 40
11.0
 40
12.0
 40
12.0
 40
12.0
 40
13.0
 40
13.0
 40
13.0
 40
14.0
 40
14.0
 40
14.0
 40
15.0
 40
15.0
 40
15.0
 40
15.0
 10
122.884144392022
 20
-160.1139132629229
 30
0.0
 10
122.8228216923846
 20
-160.1855712490161
 30
0.0
 10
122.5623724736997
 20
-160.5028645432076
 30
0.0
 10
122.5055283981931
 20
-160.5665988096847
 30
0.0
 10
122.5899332375817
 20
-160.6637505023688
 30
0.0
 10
122.6409206507634
 20
-160.7271402592974
 30
0.0
 10
122.7063774649831
 20
-160.818090780108
 30
0.0
 10
122.7063774649831
 20
-160.818090780108
 30
0.0
 10
122.5224093660708
 20
-160.955894599518
 30
0.0
 10
122.5224093660708
 20
-160.955894599518
 30
0.0
 10
122.3870171135005
 20
-160.7440212271751
 30
0.0
 10
122.215451358335
 20
-160.5200900206339
 30
0.0
 10
121.9215847134432
 20
-160.3209635015864
 30
0.0
 10
121.9215847134432
 20
-160.3209635015864
 30
0.0
 10
122.069723819309
 20
-160.1666232238472
 30
0.0
 10
122.069723819309
 20
-160.1666232238472
 30
0.0
 10
122.1796223652884
 20
-160.2468939486536
 30
0.0
 10
122.2833197393945
 20
-160.335777412173
 30
0.0
 10
122.3804714320785
 20
-160.4312065571144
 30
0.0
 10
122.4483398131379
 20
-160.3550699468904
 30
0.0
 10
122.6512559372191
 20
-160.1115016960833
 30
0.0
 10
122.7845811324983
 20
-159.8830918654112
 30
0.0
 10
122.7845811324983
 20
-159.8830918654112
 30
0.0
 10
122.111753984229
 20
-159.8830918654112
 30
0.0
 10
122.111753984229
 20
-159.8830918654112
 30
0.0
 10
121.987041527663
 20
-159.8830918654112
 30
0.0
 10
121.7352050476912
 20
-159.8917046041243
 30
0.0
 10
121.525743242188
 20
-159.9020398905801
 30
0.0
 10
121.525743242188
 20
-159.9020398905801
 30
0.0
 10
121.525743242188
 20
-159.6822427986211
 30
0.0
 10
121.525743242188
 20
-159.6822427986211
 30
0.0
 10
121.7100558506489
 20
-159.70119082379
 30
0.0
 10
121.9150390320212
 20
-159.7053249383723
 30
0.0
 10
122.1034857550644
 20
-159.7053249383723
 30
0.0
 10
122.1034857550644
 20
-159.7053249383723
 30
0.0
 10
122.6068142054594
 20
-159.7053249383723
 30
0.0
 10
122.6068142054594
 20
-159.7053249383723
 30
0.0
 10
122.9454670916595
 20
-159.7053249383723
 30
0.0
 10
122.9899088234192
 20
-159.6905110277857
 30
0.0
 10
123.0722466055167
 20
-159.6505479201568
 30
0.0
 10
123.0722466055167
 20
-159.6505479201568
 30
0.0
 10
123.2393337365513
 20
-159.8090223124783
 30
0.0
 10
123.2393337365513
 20
-159.8090223124783
 30
0.0
 10
123.0870605161032
 20
-159.88102480812
 30
0.0
 10
122.9434000343683
 20
-160.0439778245724
 30
0.0
 10
122.884144392022
 20
-160.1139132629229
 30
0.0
  0
HATCH
  5
139
330
FE
100
AcDbEntity
  8
_U+30EC_U+30A4_U+30E4_U+30FC 1
 62
     7
420
 16777215
100
AcDbHatch
 10
0.0
 20
0.0
 30
0.0
210
0.0
220
0.0
230
1.0
  2
SOLID
 70
     1
 71
     0
 91
        1
 92
        1
 93
        1
 72
     4
 94
        3
 73
     0
 74
     1
 95
       50
 96
       46
 40
0.0
 40
0.0
 40
0.0
 40
0.0
 40
1.0
 40
1.0
 40
1.0
 40
2.0
 40
2.0
 40
2.0
 40
3.0
 40
3.0
 40
3.0
 40
4.0
 40
4.0
 40
4.0
 40
5.0
 40
5.0
 40
5.0
 40
6.0
 40
6.0
 40
6.0
 40
7.0
 40
7.0
 40
7.0
 40
8.0
 40
8.0
 40
8.0
 40
9.0
 40
9.0
 40
9.0
 40
10.0
 40
10.0
 40
10.0
 40
11.0
 40
11.0
 40
11.0
 40
12.0
 40
12.0
 40
12.0
 40
13.0
 40
13.0
 40
13.0
 40
14.0
 40
14.0
 40
14.0
 40
15.0
 40
15.0
 40
15.0
 40
15.0
 10
122.884144392022
 20
-160.1139132629229
 10
122.8228216923846
 20
-160.1855712490161
 10
122.5623724736997
 20
-160.5028645432076
 10
122.5055283981931
 20
-160.5665988096847
 10
122.5899332375817
 20
-160.6637505023688
 10
122.6409206507634
 20
-160.7271402592974
 10
122.7063774649831
 20
-160.818090780108
 10
122.7063774649831
 20
-160.818090780108
 10
122.5224093660708
 20
-160.955894599518
 10
122.5224093660708
 20
-160.955894599518
 10
122.3870171135005
 20
-160.7440212271751
 10
122.215451358335
 20
-160.5200900206339
 10
121.9215847134432
 20
-160.3209635015864
 10
121.9215847134432
 20
-160.3209635015864
 10
122.069723819309
 20
-160.1666232238472
 10
122.069723819309
 20
-160.1666232238472
 10
122.1796223652884
 20
-160.2468939486536
 10
122.2833197393945
 20
-160.335777412173
 10
122.3804714320785
 20
-160.4312065571144
 10
122.4483398131379
 20
-160.3550699468904
 10
122.6512559372191
 20
-160.1115016960833
 10
122.7845811324983
 20
-159.8830918654112
 10
122.7845811324983
 20
-159.8830918654112
 10
122.111753984229
 20
-159.8830918654112
 10
122.111753984229
 20
-159.8830918654112
 10
121.987041527663
 20
-159.8830918654112
 10
121.7352050476912
 20
-159.8917046041243
 10
121.525743242188
 20
-159.9020398905801
 10
121.525743242188
 20
-159.9020398905801
 10
121.525743242188
 20
-159.6822427986211
 10
121.525743242188
 20
-159.6822427986211
 10
121.7100558506489
 20
-159.70119082379
 10
121.9150390320212
 20
-159.7053249383723
 10
122.1034857550644
 20
-159.7053249383723
 10
122.1034857550644
 20
-159.7053249383723
 10
122.6068142054594
 20
-159.7053249383723
 10
122.6068142054594
 20
-159.7053249383723
 10
122.9454670916595
 20
-159.7053249383723
 10
122.9899088234192
 20
-159.6905110277857
 10
123.0722466055167
 20
-159.6505479201568
 10
123.0722466055167
 20
-159.6505479201568
 10
123.2393337365513
 20
-159.8090223124783
 10
123.2393337365513
 20
-159.8090223124783
 10
123.0870605161032
 20
-159.88102480812
 10
122.9434000343683
 20
-160.0439778245724
 10
122.884144392022
 20
-160.1139132629229
 97
        0
 97
        0
 75
     2
 76
     1
 98
        0
  0
SPLINE
  5
13A
330
FE
100
AcDbEntity
  8
_U+30EC_U+30A4_U+30E4_U+30FC 1
370
     0
100
AcDbSpline
210
0.0
220
0.0
230
1.0
 70
    11
 71
     3
 72
    29
 73
    25
 74
     0
 42
0.0000000001
 43
0.0000000001
 12
1.0
 22
0.0
 32
0.0
 13
1.0
 23
0.0
 33
0.0
 40
0.0
 40
0.0
 40
0.0
 40
0.0
 40
1.0
 40
1.0
 40
1.0
 40
2.0
 40
2.0
 40
2.0
 40
3.0
 40
3.0
 40
3.0
 40
4.0
 40
4.0
 40
4.0
 40
5.0
 40
5.0
 40
5.0
 40
6.0
 40
6.0
 40
6.0
 40
7.0
 40
7.0
 40
7.0
 40
8.0
 40
8.0
 40
8.0
 40
8.0
 10
124.5078178942203
 20
-160.3571370041816
 30
0.0
 10
124.5078178942203
 20
-160.3571370041816
 30
0.0
 10
124.0234374689941
 20
-160.3571370041816
 30
0.0
 10
124.0234374689941
 20
-160.3571370041816
 30
0.0
 10
123.9958767051122
 20
-160.3571370041816
 30
0.0
 10
123.6785834109206
 20
-160.3571370041816
 30
0.0
 10
123.4670545481263
 20
-160.3822862012239
 30
0.0
 10
123.4670545481263
 20
-160.3822862012239
 30
0.0
 10
123.4670545481263
 20
-160.1518093132607
 30
0.0
 10
123.4670545481263
 20
-160.1518093132607
 30
0.0
 10
123.6255289404478
 20
-160.1752359625604
 30
0.0
 10
123.8160427207821
 20
-160.1773030198515
 30
0.0
 10
124.0234374689941
 20
-160.1773030198515
 30
0.0
 10
124.0234374689941
 20
-160.1773030198515
 30
0.0
 10
124.5078178942203
 20
-160.1773030198515
 30
0.0
 10
124.5078178942203
 20
-160.1773030198515
 30
0.0
 10
124.6938530504238
 20
-160.1773030198515
 30
0.0
 10
124.8802327161758
 20
-160.1752359625604
 30
0.0
 10
125.0642008150881
 20
-160.1518093132607
 30
0.0
 10
125.0642008150881
 20
-160.1518093132607
 30
0.0
 10
125.0642008150881
 20
-160.3822862012239
 30
0.0
 10
125.0642008150881
 20
-160.3822862012239
 30
0.0
 10
124.8802327161758
 20
-160.3592040614727
 30
0.0
 10
124.6325303507863
 20
-160.3571370041816
 30
0.0
 10
124.5078178942203
 20
-160.3571370041816
 30
0.0
  0
HATCH
  5
13B
330
FE
100
AcDbEntity
  8
_U+30EC_U+30A4_U+30E4_U+30FC 1
 62
     7
420
 16777215
100
AcDbHatch
 10
0.0
 20
0.0
 30
0.0
210
0.0
220
0.0
230
1.0
  2
SOLID
 70
     1
 71
     0
 91
        1
 92
        1
 93
        1
 72
     4
 94
        3
 73
     0
 74
     1
 95
       29
 96
       25
 40
0.0
 40
0.0
 40
0.0
 40
0.0
 40
1.0
 40
1.0
 40
1.0
 40
2.0
 40
2.0
 40
2.0
 40
3.0
 40
3.0
 40
3.0
 40
4.0
 40
4.0
 40
4.0
 40
5.0
 40
5.0
 40
5.0
 40
6.0
 40
6.0
 40
6.0
 40
7.0
 40
7.0
 40
7.0
 40
8.0
 40
8.0
 40
8.0
 40
8.0
 10
124.5078178942203
 20
-160.3571370041816
 10
124.5078178942203
 20
-160.3571370041816
 10
124.0234374689941
 20
-160.3571370041816
 10
124.0234374689941
 20
-160.3571370041816
 10
123.9958767051122
 20
-160.3571370041816
 10
123.6785834109206
 20
-160.3571370041816
 10
123.4670545481263
 20
-160.3822862012239
 10
123.4670545481263
 20
-160.3822862012239
 10
123.4670545481263
 20
-160.1518093132607
 10
123.4670545481263
 20
-160.1518093132607
 10
123.6255289404478
 20
-160.1752359625604
 10
123.8160427207821
 20
-160.1773030198515
 10
124.0234374689941
 20
-160.1773030198515
 10
124.0234374689941
 20
-160.1773030198515
 10
124.5078178942203
 20
-160.1773030198515
 10
124.5078178942203
 20
-160.1773030198515
 10
124.6938530504238
 20
-160.1773030198515
 10
124.8802327161758
 20
-160.1752359625604
 10
125.0642008150881
 20
-160.1518093132607
 10
125.0642008150881
 20
-160.1518093132607
 10
125.0642008150881
 20
-160.3822862012239
 10
125.0642008150881
 20
-160.3822862012239
 10
124.8802327161758
 20
-160.3592040614727
 10
124.6325303507863
 20
-160.3571370041816
 10
124.5078178942203
 20
-160.3571370041816
 97
        0
 97
        0
 75
     2
 76
     1
 98
        0
  0
ENDBLK
  5
101
330
FE
100
AcDbEntity
  8
0
100
AcDbBlockEnd
  0
ENDSEC
  0
SECTION
  2
ENTITIES
  0
POLYLINE
  5
41
330
1F
100
AcDbEntity
  8
_U+30EC_U+30A4_U+30E4_U+30FC 1
 62
     7
420
 16777215
370
    25
100
AcDb2dPolyline
 66
     1
 10
0.0
 20
0.0
 30
0.0
  0
VERTEX
  5
42
330
41
100
AcDbEntity
  8
_U+30EC_U+30A4_U+30E4_U+30FC 1
 62
     7
420
 16777215
370
    25
100
AcDbVertex
100
AcDb2dVertex
 10
90.01205909248995
 20
-142.993850797585
 30
0.0
  0
VERTEX
  5
43
330
41
100
AcDbEntity
  8
_U+30EC_U+30A4_U+30E4_U+30FC 1
 62
     7
420
 16777215
370
    25
100
AcDbVertex
100
AcDb2dVertex
 10
97.11171168914049
 20
-142.993850797585
 30
0.0
  0
SEQEND
  5
44
330
41
100
AcDbEntity
  8
_U+30EC_U+30A4_U+30E4_U+30FC 1
 62
     7
420
 16777215
370
    25
  0
POLYLINE
  5
45
330
1F
100
AcDbEntity
  8
_U+30EC_U+30A4_U+30E4_U+30FC 1
 62
     7
420
 16777215
370
    25
100
AcDb2dPolyline
 66
     1
 10
0.0
 20
0.0
 30
0.0
  0
VERTEX
  5
46
330
45
100
AcDbEntity
  8
_U+30EC_U+30A4_U+30E4_U+30FC 1
 62
     7
420
 16777215
370
    25
100
AcDbVertex
100
AcDb2dVertex
 10
96.01206810608363
 20
-143.9936230195572
 30
0.0
  0
VERTEX
  5
47
330
45
100
AcDbEntity
  8
_U+30EC_U+30A4_U+30E4_U+30FC 1
 62
     7
420
 16777215
370
    25
100
AcDbVertex
100
AcDb2dVertex
 10
96.01206810608363
 20
-153.4938227394042
 30
0.0
  0
SEQEND
  5
48
330
45
100
AcDbEntity
  8
_U+30EC_U+30A4_U+30E4_U+30FC 1
 62
     7
420
 16777215
370
    25
  0
POLYLINE
  5
49
330
1F
100
AcDbEntity
  8
_U+30EC_U+30A4_U+30E4_U+30FC 1
 62
     7
420
 16777215
370
    25
100
AcDb2dPolyline
 66
     1
 10
0.0
 20
0.0
 30
0.0
  0
VERTEX
  5
4A
330
49
100
AcDbEntity
  8
_U+30EC_U+30A4_U+30E4_U+30FC 1
 62
     7
420
 16777215
370
    25
100
AcDbVertex
100
AcDb2dVertex
 10
90.01205909248995
 20
-143.9936230195572
 30
0.0
  0
VERTEX
  5
4B
330
49
100
AcDbEntity
  8
_U+30EC_U+30A4_U+30E4_U+30FC 1
 62
     7
420
 16777215
370
    25
100
AcDbVertex
100
AcDb2dVertex
 10
96.01206810608363
 20
-143.9936230195572
 30
0.0
  0
SEQEND
  5
4C
330
49
100
AcDbEntity
  8
_U+30EC_U+30A4_U+30E4_U+30FC 1
 62
     7
420
 16777215
370
    25
  0
POLYLINE
  5
4D
330
1F
100
AcDbEntity
  8
_U+30EC_U+30A4_U+30E4_U+30FC 1
 62
     7
420
 16777215
370
    25
100
AcDb2dPolyline
 66
     1
 10
0.0
 20
0.0
 30
0.0
  0
VERTEX
  5
4E
330
4D
100
AcDbEntity
  8
_U+30EC_U+30A4_U+30E4_U+30FC 1
 62
     7
420
 16777215
370
    25
100
AcDbVertex
100
AcDb2dVertex
 10
90.01205909248995
 20
-142.993850797585
 30
0.0
  0
VERTEX
  5
4F
330
4D
100
AcDbEntity
  8
_U+30EC_U+30A4_U+30E4_U+30FC 1
 62
     7
420
 16777215
370
    25
100
AcDbVertex
100
AcDb2dVertex
 10
90.01205909248995
 20
-143.9936230195572
 30
0.0
  0
SEQEND
  5
50
330
4D
100
AcDbEntity
  8
_U+30EC_U+30A4_U+30E4_U+30FC 1
 62
     7
420
 16777215
370
    25
  0
POLYLINE
  5
51
330
1F
100
AcDbEntity
  8
_U+30EC_U+30A4_U+30E4_U+30FC 1
 62
     7
420
 16777215
370
    25
100
AcDb2dPolyline
 66
     1
 10
0.0
 20
0.0
 30
0.0
  0
VERTEX
  5
52
330
51
100
AcDbEntity
  8
_U+30EC_U+30A4_U+30E4_U+30FC 1
 62
     7
420
 16777215
370
    25
100
AcDbVertex
100
AcDb2dVertex
 10
97.11171168914049
 20
-142.993850797585
 30
0.0
  0
VERTEX
  5
53
330
51
100
AcDbEntity
  8
_U+30EC_U+30A4_U+30E4_U+30FC 1
 62
     7
420
 16777215
370
    25
100
AcDbVertex
100
AcDb2dVertex
 10
97.11171168914049
 20
-152.3941438507901
 30
0.0
  0
SEQEND
  5
54
330
51
100
AcDbEntity
  8
_U+30EC_U+30A4_U+30E4_U+30FC 1
 62
     7
420
 16777215
370
    25
  0
POLYLINE
  5
55
330
1F
100
AcDbEntity
  8
_U+30EC_U+30A4_U+30E4_U+30FC 1
 62
     7
420
 16777215
370
    25
100
AcDb2dPolyline
 66
     1
 10
0.0
 20
0.0
 30
0.0
  0
VERTEX
  5
56
330
55
100
AcDbEntity
  8
_U+30EC_U+30A4_U+30E4_U+30FC 1
 62
     7
420
 16777215
370
    25
100
AcDbVertex
100
AcDb2dVertex
 10
113.0122171168181
 20
-152.3941438507901
 30
0.0
  0
VERTEX
  5
57
330
55
100
AcDbEntity
  8
_U+30EC_U+30A4_U+30E4_U+30FC 1
 62
     7
420
 16777215
370
    25
100
AcDbVertex
100
AcDb2dVertex
 10
113.0122171168181
 20
-152.7937705173572
 30
0.0
  0
SEQEND
  5
58
330
55
100
AcDbEntity
  8
_U+30EC_U+30A4_U+30E4_U+30FC 1
 62
     7
420
 16777215
370
    25
  0
POLYLINE
  5
59
330
1F
100
AcDbEntity
  8
_U+30EC_U+30A4_U+30E4_U+30FC 1
 62
     7
420
 16777215
370
    25
100
AcDb2dPolyline
 66
     1
 10
0.0
 20
0.0
 30
0.0
  0
VERTEX
  5
5A
330
59
100
AcDbEntity
  8
_U+30EC_U+30A4_U+30E4_U+30FC 1
 62
     7
420
 16777215
370
    25
100
AcDbVertex
100
AcDb2dVertex
 10
97.11171168914049
 20
-152.3941438507901
 30
0.0
  0
VERTEX
  5
5B
330
59
100
AcDbEntity
  8
_U+30EC_U+30A4_U+30E4_U+30FC 1
 62
     7
420
 16777215
370
    25
100
AcDbVertex
100
AcDb2dVertex
 10
113.0122171168181
 20
-152.3941438507901
 30
0.0
  0
SEQEND
  5
5C
330
59
100
AcDbEntity
  8
_U+30EC_U+30A4_U+30E4_U+30FC 1
 62
     7
420
 16777215
370
    25
  0
POLYLINE
  5
5D
330
1F
100
AcDbEntity
  8
_U+30EC_U+30A4_U+30E4_U+30FC 1
 62
     7
420
 16777215
370
    25
100
AcDb2dPolyline
 66
     1
 10
0.0
 20
0.0
 30
0.0
  0
VERTEX
  5
5E
330
5D
100
AcDbEntity
  8
_U+30EC_U+30A4_U+30E4_U+30FC 1
 62
     7
420
 16777215
370
    25
100
AcDbVertex
100
AcDb2dVertex
 10
113.0122171168181
 20
-152.7937705173572
 30
0.0
  0
VERTEX
  5
5F
330
5D
100
AcDbEntity
  8
_U+30EC_U+30A4_U+30E4_U+30FC 1
 62
     7
420
 16777215
370
    25
100
AcDbVertex
100
AcDb2dVertex
 10
96.01206810608363
 20
-153.4938227394042
 30
0.0
  0
SEQEND
  5
60
330
5D
100
AcDbEntity
  8
_U+30EC_U+30A4_U+30E4_U+30FC 1
 62
     7
420
 16777215
370
    25
  0
SPLINE
  5
61
330
1F
100
AcDbEntity
  8
_U+30EC_U+30A4_U+30E4_U+30FC 1
 62
     7
420
 16777215
370
     9
100
AcDbSpline
210
0.0
220
0.0
230
1.0
 70
    11
 71
     3
 72
    17
 73
    13
 74
     0
 42
0.0000000001
 43
0.0000000001
 12
1.0
 22
0.0
 32
0.0
 13
1.0
 23
0.0
 33
0.0
 40
0.0
 40
0.0
 40
0.0
 40
0.0
 40
1.0
 40
1.0
 40
1.0
 40
2.0
 40
2.0
 40
2.0
 40
3.0
 40
3.0
 40
3.0
 40
4.0
 40
4.0
 40
4.0
 40
4.0
 10
117.1118828455603
 20
-142.993850797585
 30
0.0
 10
117.1118828455603
 20
-142.9387469087097
 30
0.0
 10
117.0671153467024
 20
-142.8939441309433
 30
0.0
 10
117.0119761814424
 20
-142.8939441309433
 30
0.0
 10
116.9568722939594
 20
-142.8939441309433
 30
0.0
 10
116.9120695173246
 20
-142.9387469087097
 30
0.0
 10
116.9120695173246
 20
-142.993850797585
 30
0.0
 10
116.9120695173246
 20
-143.0489899642377
 30
0.0
 10
116.9568722939594
 20
-143.0937574642266
 30
0.0
 10
117.0119761814424
 20
-143.0937574642266
 30
0.0
 10
117.0671153467024
 20
-143.0937574642266
 30
0.0
 10
117.1118828455603
 20
-143.0489899642377
 30
0.0
 10
117.1118828455603
 20
-142.993850797585
 30
0.0
  0
SPLINE
  5
62
330
1F
100
AcDbEntity
  8
_U+30EC_U+30A4_U+30E4_U+30FC 1
 62
     7
420
 16777215
370
     9
100
AcDbSpline
210
0.0
220
0.0
230
1.0
 70
    11
 71
     3
 72
    17
 73
    13
 74
     0
 42
0.0000000001
 43
0.0000000001
 12
1.0
 22
0.0
 32
0.0
 13
1.0
 23
0.0
 33
0.0
 40
0.0
 40
0.0
 40
0.0
 40
0.0
 40
1.0
 40
1.0
 40
1.0
 40
2.0
 40
2.0
 40
2.0
 40
3.0
 40
3.0
 40
3.0
 40
4.0
 40
4.0
 40
4.0
 40
4.0
 10
117.1118828455603
 20
-152.3941438507901
 30
0.0
 10
117.1118828455603
 20
-152.3383344063596
 30
0.0
 10
117.0671153467024
 20
-152.2935316285935
 30
0.0
 10
117.0119761814424
 20
-152.2935316285935
 30
0.0
 10
116.9568722939594
 20
-152.2935316285935
 30
0.0
 10
116.9120695173246
 20
-152.3383344063596
 30
0.0
 10
116.9120695173246
 20
-152.3941438507901
 30
0.0
 10
116.9120695173246
 20
-152.4492477396656
 30
0.0
 10
116.9568722939594
 20
-152.4940505174324
 30
0.0
 10
117.0119761814424
 20
-152.4940505174324
 30
0.0
 10
117.0671153467024
 20
-152.4940505174324
 30
0.0
 10
117.1118828455603
 20
-152.4492477396656
 30
0.0
 10
117.1118828455603
 20
-152.3941438507901
 30
0.0
  0
SPLINE
  5
63
330
1F
100
AcDbEntity
  8
_U+30EC_U+30A4_U+30E4_U+30FC 1
 62
     7
420
 16777215
370
     9
100
AcDbSpline
210
0.0
220
0.0
230
1.0
 70
    11
 71
     3
 72
    17
 73
    13
 74
     0
 42
0.0000000001
 43
0.0000000001
 12
1.0
 22
0.0
 32
0.0
 13
1.0
 23
0.0
 33
0.0
 40
0.0
 40
0.0
 40
0.0
 40
0.0
 40
1.0
 40
1.0
 40
1.0
 40
2.0
 40
2.0
 40
2.0
 40
3.0
 40
3.0
 40
3.0
 40
4.0
 40
4.0
 40
4.0
 40
4.0
 10
117.1118828455603
 20
-152.7937705173572
 30
0.0
 10
117.1118828455603
 20
-152.7386666284817
 30
0.0
 10
117.0671153467024
 20
-152.6938638507156
 30
0.0
 10
117.0119761814424
 20
-152.6938638507156
 30
0.0
 10
116.9568722939594
 20
-152.6938638507156
 30
0.0
 10
116.9120695173246
 20
-152.7386666284817
 30
0.0
 10
116.9120695173246
 20
-152.7937705173572
 30
0.0
 10
116.9120695173246
 20
-152.8489096840097
 30
0.0
 10
116.9568722939594
 20
-152.8936771839989
 30
0.0
 10
117.0119761814424
 20
-152.8936771839989
 30
0.0
 10
117.0671153467024
 20
-152.8936771839989
 30
0.0
 10
117.1118828455603
 20
-152.8489096840097
 30
0.0
 10
117.1118828455603
 20
-152.7937705173572
 30
0.0
  0
SPLINE
  5
64
330
1F
100
AcDbEntity
  8
_U+30EC_U+30A4_U+30E4_U+30FC 1
 62
     7
420
 16777215
370
     9
100
AcDbSpline
210
0.0
220
0.0
230
1.0
 70
    11
 71
     3
 72
    17
 73
    13
 74
     0
 42
0.0000000001
 43
0.0000000001
 12
1.0
 22
0.0
 32
0.0
 13
1.0
 23
0.0
 33
0.0
 40
0.0
 40
0.0
 40
0.0
 40
0.0
 40
1.0
 40
1.0
 40
1.0
 40
2.0
 40
2.0
 40
2.0
 40
3.0
 40
3.0
 40
3.0
 40
4.0
 40
4.0
 40
4.0
 40
4.0
 10
113.112123780936
 20
-157.4935819050711
 30
0.0
 10
113.112123780936
 20
-157.438442738418
 30
0.0
 10
113.0673562820781
 20
-157.3936752384295
 30
0.0
 10
113.0122171168181
 20
-157.3936752384295
 30
0.0
 10
112.9564076737975
 20
-157.3936752384295
 30
0.0
 10
112.9116401749396
 20
-157.438442738418
 30
0.0
 10
112.9116401749396
 20
-157.4935819050711
 30
0.0
 10
112.9116401749396
 20
-157.548685793946
 30
0.0
 10
112.9564076737975
 20
-157.5934885717128
 30
0.0
 10
113.0122171168181
 20
-157.5934885717128
 30
0.0
 10
113.0673562820781
 20
-157.5934885717128
 30
0.0
 10
113.112123780936
 20
-157.548685793946
 30
0.0
 10
113.112123780936
 20
-157.4935819050711
 30
0.0
  0
SPLINE
  5
65
330
1F
100
AcDbEntity
  8
_U+30EC_U+30A4_U+30E4_U+30FC 1
 62
     7
420
 16777215
370
     9
100
AcDbSpline
210
0.0
220
0.0
230
1.0
 70
    11
 71
     3
 72
    17
 73
    13
 74
     0
 42
0.0000000001
 43
0.0000000001
 12
1.0
 22
0.0
 32
0.0
 13
1.0
 23
0.0
 33
0.0
 40
0.0
 40
0.0
 40
0.0
 40
0.0
 40
1.0
 40
1.0
 40
1.0
 40
2.0
 40
2.0
 40
2.0
 40
3.0
 40
3.0
 40
3.0
 40
4.0
 40
4.0
 40
4.0
 40
4.0
 10
90.11196575660779
 20
-157.4935819050711
 30
0.0
 10
90.11196575660779
 20
-157.438442738418
 30
0.0
 10
90.0671982577499
 20
-157.3936752384295
 30
0.0
 10
90.01205909248995
 20
-157.3936752384295
 30
0.0
 10
89.95624964946931
 20
-157.3936752384295
 30
0.0
 10
89.91215242837211
 20
-157.438442738418
 30
0.0
 10
89.91215242837211
 20
-157.4935819050711
 30
0.0
 10
89.91215242837211
 20
-157.548685793946
 30
0.0
 10
89.95624964946931
 20
-157.5934885717128
 30
0.0
 10
90.01205909248995
 20
-157.5934885717128
 30
0.0
 10
90.0671982577499
 20
-157.5934885717128
 30
0.0
 10
90.11196575660779
 20
-157.548685793946
 30
0.0
 10
90.11196575660779
 20
-157.4935819050711
 30
0.0
  0
SPLINE
  5
66
330
1F
100
AcDbEntity
  8
_U+30EC_U+30A4_U+30E4_U+30FC 1
 62
     7
420
 16777215
370
     9
100
AcDbSpline
210
0.0
220
0.0
230
1.0
 70
    11
 71
     3
 72
    17
 73
    13
 74
     0
 42
0.0000000001
 43
0.0000000001
 12
1.0
 22
0.0
 32
0.0
 13
1.0
 23
0.0
 33
0.0
 40
0.0
 40
0.0
 40
0.0
 40
0.0
 40
1.0
 40
1.0
 40
1.0
 40
2.0
 40
2.0
 40
2.0
 40
3.0
 40
3.0
 40
3.0
 40
4.0
 40
4.0
 40
4.0
 40
4.0
 10
87.88368025790052
 20
-142.993850797585
 30
0.0
 10
87.88368025790052
 20
-142.9387469087097
 30
0.0
 10
87.83891275904264
 20
-142.8939441309433
 30
0.0
 10
87.78377359378268
 20
-142.8939441309433
 30
0.0
 10
87.72796415076206
 20
-142.8939441309433
 30
0.0
 10
87.68319665190418
 20
-142.9387469087097
 30
0.0
 10
87.68319665190418
 20
-142.993850797585
 30
0.0
 10
87.68319665190418
 20
-143.0489899642377
 30
0.0
 10
87.72796415076206
 20
-143.0937574642266
 30
0.0
 10
87.78377359378268
 20
-143.0937574642266
 30
0.0
 10
87.83891275904264
 20
-143.0937574642266
 30
0.0
 10
87.88368025790052
 20
-143.0489899642377
 30
0.0
 10
87.88368025790052
 20
-142.993850797585
 30
0.0
  0
SPLINE
  5
67
330
1F
100
AcDbEntity
  8
_U+30EC_U+30A4_U+30E4_U+30FC 1
 62
     7
420
 16777215
370
     9
100
AcDbSpline
210
0.0
220
0.0
230
1.0
 70
    11
 71
     3
 72
    17
 73
    13
 74
     0
 42
0.0000000001
 43
0.0000000001
 12
1.0
 22
0.0
 32
0.0
 13
1.0
 23
0.0
 33
0.0
 40
0.0
 40
0.0
 40
0.0
 40
0.0
 40
1.0
 40
1.0
 40
1.0
 40
2.0
 40
2.0
 40
2.0
 40
3.0
 40
3.0
 40
3.0
 40
4.0
 40
4.0
 40
4.0
 40
4.0
 10
87.88368025790052
 20
-143.9936230195572
 30
0.0
 10
87.88368025790052
 20
-143.9384838529044
 30
0.0
 10
87.83891275904264
 20
-143.8937163529155
 30
0.0
 10
87.78377359378268
 20
-143.8937163529155
 30
0.0
 10
87.72796415076206
 20
-143.8937163529155
 30
0.0
 10
87.68319665190418
 20
-143.9384838529044
 30
0.0
 10
87.68319665190418
 20
-143.9936230195572
 30
0.0
 10
87.68319665190418
 20
-144.0487269084324
 30
0.0
 10
87.72796415076206
 20
-144.0935296861988
 30
0.0
 10
87.78377359378268
 20
-144.0935296861988
 30
0.0
 10
87.83891275904264
 20
-144.0935296861988
 30
0.0
 10
87.88368025790052
 20
-144.0487269084324
 30
0.0
 10
87.88368025790052
 20
-143.9936230195572
 30
0.0
  0
SPLINE
  5
68
330
1F
100
AcDbEntity
  8
_U+30EC_U+30A4_U+30E4_U+30FC 1
 62
     7
420
 16777215
370
     9
100
AcDbSpline
210
0.0
220
0.0
230
1.0
 70
    11
 71
     3
 72
    17
 73
    13
 74
     0
 42
0.0000000001
 43
0.0000000001
 12
1.0
 22
0.0
 32
0.0
 13
1.0
 23
0.0
 33
0.0
 40
0.0
 40
0.0
 40
0.0
 40
0.0
 40
1.0
 40
1.0
 40
1.0
 40
2.0
 40
2.0
 40
2.0
 40
3.0
 40
3.0
 40
3.0
 40
4.0
 40
4.0
 40
4.0
 40
4.0
 10
96.11197477020147
 20
-157.4935819050711
 30
0.0
 10
96.11197477020147
 20
-157.438442738418
 30
0.0
 10
96.0671719935667
 20
-157.3936752384295
 30
0.0
 10
96.01206810608363
 20
-157.3936752384295
 30
0.0
 10
95.95692894082369
 20
-157.3936752384295
 30
0.0
 10
95.912163864911
 20
-157.438442738418
 30
0.0
 10
95.912163864911
 20
-157.4935819050711
 30
0.0
 10
95.912163864911
 20
-157.548685793946
 30
0.0
 10
95.95692894082369
 20
-157.5934885717128
 30
0.0
 10
96.01206810608363
 20
-157.5934885717128
 30
0.0
 10
96.0671719935667
 20
-157.5934885717128
 30
0.0
 10
96.11197477020147
 20
-157.548685793946
 30
0.0
 10
96.11197477020147
 20
-157.4935819050711
 30
0.0
  0
POLYLINE
  5
69
330
1F
100
AcDbEntity
  8
_U+30EC_U+30A4_U+30E4_U+30FC 1
 62
     7
420
 16777215
370
     9
100
AcDb2dPolyline
 66
     1
 10
0.0
 20
0.0
 30
0.0
  0
VERTEX
  5
6A
330
69
100
AcDbEntity
  8
_U+30EC_U+30A4_U+30E4_U+30FC 1
 62
     7
420
 16777215
370
     9
100
AcDbVertex
100
AcDb2dVertex
 10
90.01205909248995
 20
-157.4935819050711
 30
0.0
  0
VERTEX
  5
6B
330
69
100
AcDbEntity
  8
_U+30EC_U+30A4_U+30E4_U+30FC 1
 62
     7
420
 16777215
370
     9
100
AcDbVertex
100
AcDb2dVertex
 10
96.01206810608363
 20
-157.4935819050711
 30
0.0
  0
SEQEND
  5
6C
330
69
100
AcDbEntity
  8
_U+30EC_U+30A4_U+30E4_U+30FC 1
 62
     7
420
 16777215
370
     9
  0
POLYLINE
  5
6D
330
1F
100
AcDbEntity
  8
_U+30EC_U+30A4_U+30E4_U+30FC 1
 62
     7
420
 16777215
370
     9
100
AcDb2dPolyline
 66
     1
 10
0.0
 20
0.0
 30
0.0
  0
VERTEX
  5
6E
330
6D
100
AcDbEntity
  8
_U+30EC_U+30A4_U+30E4_U+30FC 1
 62
     7
420
 16777215
370
     9
100
AcDbVertex
100
AcDb2dVertex
 10
90.01205909248995
 20
-146.5340463522556
 30
0.0
  0
VERTEX
  5
6F
330
6D
100
AcDbEntity
  8
_U+30EC_U+30A4_U+30E4_U+30FC 1
 62
     7
420
 16777215
370
     9
100
AcDbVertex
100
AcDb2dVertex
 10
90.01205909248995
 20
-158.494024404821
 30
0.0
  0
SEQEND
  5
70
330
6D
100
AcDbEntity
  8
_U+30EC_U+30A4_U+30E4_U+30FC 1
 62
     7
420
 16777215
370
     9
  0
POLYLINE
  5
71
330
1F
100
AcDbEntity
  8
_U+30EC_U+30A4_U+30E4_U+30FC 1
 62
     7
420
 16777215
370
     9
100
AcDb2dPolyline
 66
     1
 10
0.0
 20
0.0
 30
0.0
  0
VERTEX
  5
72
330
71
100
AcDbEntity
  8
_U+30EC_U+30A4_U+30E4_U+30FC 1
 62
     7
420
 16777215
370
     9
100
AcDbVertex
100
AcDb2dVertex
 10
96.01206810608363
 20
-156.0335405165474
 30
0.0
  0
VERTEX
  5
73
330
71
100
AcDbEntity
  8
_U+30EC_U+30A4_U+30E4_U+30FC 1
 62
     7
420
 16777215
370
     9
100
AcDbVertex
100
AcDb2dVertex
 10
96.01206810608363
 20
-158.494024404821
 30
0.0
  0
SEQEND
  5
74
330
71
100
AcDbEntity
  8
_U+30EC_U+30A4_U+30E4_U+30FC 1
 62
     7
420
 16777215
370
     9
  0
INSERT
  5
76
330
1F
100
AcDbEntity
  8
_U+30EC_U+30A4_U+30E4_U+30FC 1
100
AcDbBlockReference
  2
block 2
 10
0.0
 20
0.0
 30
0.0
  0
POLYLINE
  5
7C
330
1F
100
AcDbEntity
  8
_U+30EC_U+30A4_U+30E4_U+30FC 1
 62
     7
420
 16777215
370
     9
100
AcDb2dPolyline
 66
     1
 10
0.0
 20
0.0
 30
0.0
  0
VERTEX
  5
7D
330
7C
100
AcDbEntity
  8
_U+30EC_U+30A4_U+30E4_U+30FC 1
 62
     7
420
 16777215
370
     9
100
AcDbVertex
100
AcDb2dVertex
 10
96.01206810608363
 20
-157.4935819050711
 30
0.0
  0
VERTEX
  5
7E
330
7C
100
AcDbEntity
  8
_U+30EC_U+30A4_U+30E4_U+30FC 1
 62
     7
420
 16777215
370
     9
100
AcDbVertex
100
AcDb2dVertex
 10
113.0122171168181
 20
-157.4935819050711
 30
0.0
  0
SEQEND
  5
7F
330
7C
100
AcDbEntity
  8
_U+30EC_U+30A4_U+30E4_U+30FC 1
 62
     7
420
 16777215
370
     9
  0
POLYLINE
  5
80
330
1F
100
AcDbEntity
  8
_U+30EC_U+30A4_U+30E4_U+30FC 1
 62
     7
420
 16777215
370
     9
100
AcDb2dPolyline
 66
     1
 10
0.0
 20
0.0
 30
0.0
  0
VERTEX
  5
81
330
80
100
AcDbEntity
  8
_U+30EC_U+30A4_U+30E4_U+30FC 1
 62
     7
420
 16777215
370
     9
100
AcDbVertex
100
AcDb2dVertex
 10
113.0122171168181
 20
-155.3334882944998
 30
0.0
  0
VERTEX
  5
82
330
80
100
AcDbEntity
  8
_U+30EC_U+30A4_U+30E4_U+30FC 1
 62
     7
420
 16777215
370
     9
100
AcDbVertex
100
AcDb2dVertex
 10
113.0122171168181
 20
-158.494024404821
 30
0.0
  0
SEQEND
  5
83
330
80
100
AcDbEntity
  8
_U+30EC_U+30A4_U+30E4_U+30FC 1
 62
     7
420
 16777215
370
     9
  0
INSERT
  5
85
330
1F
100
AcDbEntity
  8
_U+30EC_U+30A4_U+30E4_U+30FC 1
100
AcDbBlockReference
  2
block 3
 10
0.0
 20
0.0
 30
0.0
  0
POLYLINE
  5
8C
330
1F
100
AcDbEntity
  8
_U+30EC_U+30A4_U+30E4_U+30FC 1
 62
     7
420
 16777215
370
     9
100
AcDb2dPolyline
 66
     1
 10
0.0
 20
0.0
 30
0.0
  0
VERTEX
  5
8D
330
8C
100
AcDbEntity
  8
_U+30EC_U+30A4_U+30E4_U+30FC 1
 62
     7
420
 16777215
370
     9
100
AcDbVertex
100
AcDb2dVertex
 10
87.78377359378268
 20
-142.993850797585
 30
0.0
  0
VERTEX
  5
8E
330
8C
100
AcDbEntity
  8
_U+30EC_U+30A4_U+30E4_U+30FC 1
 62
     7
420
 16777215
370
     9
100
AcDbVertex
100
AcDb2dVertex
 10
87.78377359378268
 20
-141.9934082978351
 30
0.0
  0
SEQEND
  5
8F
330
8C
100
AcDbEntity
  8
_U+30EC_U+30A4_U+30E4_U+30FC 1
 62
     7
420
 16777215
370
     9
  0
POLYLINE
  5
90
330
1F
100
AcDbEntity
  8
_U+30EC_U+30A4_U+30E4_U+30FC 1
 62
     7
420
 16777215
370
     9
100
AcDb2dPolyline
 66
     1
 10
0.0
 20
0.0
 30
0.0
  0
VERTEX
  5
91
330
90
100
AcDbEntity
  8
_U+30EC_U+30A4_U+30E4_U+30FC 1
 62
     7
420
 16777215
370
     9
100
AcDbVertex
100
AcDb2dVertex
 10
87.78377359378268
 20
-142.993850797585
 30
0.0
  0
VERTEX
  5
92
330
90
100
AcDbEntity
  8
_U+30EC_U+30A4_U+30E4_U+30FC 1
 62
     7
420
 16777215
370
     9
100
AcDbVertex
100
AcDb2dVertex
 10
87.78377359378268
 20
-144.9933952415294
 30
0.0
  0
SEQEND
  5
93
330
90
100
AcDbEntity
  8
_U+30EC_U+30A4_U+30E4_U+30FC 1
 62
     7
420
 16777215
370
     9
  0
POLYLINE
  5
94
330
1F
100
AcDbEntity
  8
_U+30EC_U+30A4_U+30E4_U+30FC 1
 62
     7
420
 16777215
370
     9
100
AcDb2dPolyline
 66
     1
 10
0.0
 20
0.0
 30
0.0
  0
VERTEX
  5
95
330
94
100
AcDbEntity
  8
_U+30EC_U+30A4_U+30E4_U+30FC 1
 62
     7
420
 16777215
370
     9
100
AcDbVertex
100
AcDb2dVertex
 10
89.24314466766215
 20
-142.993850797585
 30
0.0
  0
VERTEX
  5
96
330
94
100
AcDbEntity
  8
_U+30EC_U+30A4_U+30E4_U+30FC 1
 62
     7
420
 16777215
370
     9
100
AcDbVertex
100
AcDb2dVertex
 10
86.7833333116375
 20
-142.993850797585
 30
0.0
  0
SEQEND
  5
97
330
94
100
AcDbEntity
  8
_U+30EC_U+30A4_U+30E4_U+30FC 1
 62
     7
420
 16777215
370
     9
  0
POLYLINE
  5
98
330
1F
100
AcDbEntity
  8
_U+30EC_U+30A4_U+30E4_U+30FC 1
 62
     7
420
 16777215
370
     9
100
AcDb2dPolyline
 66
     1
 10
0.0
 20
0.0
 30
0.0
  0
VERTEX
  5
99
330
98
100
AcDbEntity
  8
_U+30EC_U+30A4_U+30E4_U+30FC 1
 62
     7
420
 16777215
370
     9
100
AcDbVertex
100
AcDb2dVertex
 10
89.24314466766215
 20
-143.9936230195572
 30
0.0
  0
VERTEX
  5
9A
330
98
100
AcDbEntity
  8
_U+30EC_U+30A4_U+30E4_U+30FC 1
 62
     7
420
 16777215
370
     9
100
AcDbVertex
100
AcDb2dVertex
 10
86.7833333116375
 20
-143.9936230195572
 30
0.0
  0
SEQEND
  5
9B
330
98
100
AcDbEntity
  8
_U+30EC_U+30A4_U+30E4_U+30FC 1
 62
     7
420
 16777215
370
     9
  0
INSERT
  5
9D
330
1F
100
AcDbEntity
  8
_U+30EC_U+30A4_U+30E4_U+30FC 1
100
AcDbBlockReference
  2
block 4
 10
0.0
 20
0.0
 30
0.0
  0
POLYLINE
  5
AD
330
1F
100
AcDbEntity
  8
_U+30EC_U+30A4_U+30E4_U+30FC 1
 62
     7
420
 16777215
370
     9
100
AcDb2dPolyline
 66
     1
 10
0.0
 20
0.0
 30
0.0
  0
VERTEX
  5
AE
330
AD
100
AcDbEntity
  8
_U+30EC_U+30A4_U+30E4_U+30FC 1
 62
     7
420
 16777215
370
     9
100
AcDbVertex
100
AcDb2dVertex
 10
117.0119761814424
 20
-142.993850797585
 30
0.0
  0
VERTEX
  5
AF
330
AD
100
AcDbEntity
  8
_U+30EC_U+30A4_U+30E4_U+30FC 1
 62
     7
420
 16777215
370
     9
100
AcDbVertex
100
AcDb2dVertex
 10
117.0119761814424
 20
-152.3941438507901
 30
0.0
  0
SEQEND
  5
B0
330
AD
100
AcDbEntity
  8
_U+30EC_U+30A4_U+30E4_U+30FC 1
 62
     7
420
 16777215
370
     9
  0
POLYLINE
  5
B1
330
1F
100
AcDbEntity
  8
_U+30EC_U+30A4_U+30E4_U+30FC 1
 62
     7
420
 16777215
370
     9
100
AcDb2dPolyline
 66
     1
 10
0.0
 20
0.0
 30
0.0
  0
VERTEX
  5
B2
330
B1
100
AcDbEntity
  8
_U+30EC_U+30A4_U+30E4_U+30FC 1
 62
     7
420
 16777215
370
     9
100
AcDbVertex
100
AcDb2dVertex
 10
99.65213495766223
 20
-142.993850797585
 30
0.0
  0
VERTEX
  5
B3
330
B1
100
AcDbEntity
  8
_U+30EC_U+30A4_U+30E4_U+30FC 1
 62
     7
420
 16777215
370
     9
100
AcDbVertex
100
AcDb2dVertex
 10
118.0117483781584
 20
-142.993850797585
 30
0.0
  0
SEQEND
  5
B4
330
B1
100
AcDbEntity
  8
_U+30EC_U+30A4_U+30E4_U+30FC 1
 62
     7
420
 16777215
370
     9
  0
POLYLINE
  5
B5
330
1F
100
AcDbEntity
  8
_U+30EC_U+30A4_U+30E4_U+30FC 1
 62
     7
420
 16777215
370
     9
100
AcDb2dPolyline
 66
     1
 10
0.0
 20
0.0
 30
0.0
  0
VERTEX
  5
B6
330
B5
100
AcDbEntity
  8
_U+30EC_U+30A4_U+30E4_U+30FC 1
 62
     7
420
 16777215
370
     9
100
AcDbVertex
100
AcDb2dVertex
 10
115.5519348298023
 20
-152.3941438507901
 30
0.0
  0
VERTEX
  5
B7
330
B5
100
AcDbEntity
  8
_U+30EC_U+30A4_U+30E4_U+30FC 1
 62
     7
420
 16777215
370
     9
100
AcDbVertex
100
AcDb2dVertex
 10
118.0117483781584
 20
-152.3941438507901
 30
0.0
  0
SEQEND
  5
B8
330
B5
100
AcDbEntity
  8
_U+30EC_U+30A4_U+30E4_U+30FC 1
 62
     7
420
 16777215
370
     9
  0
INSERT
  5
BA
330
1F
100
AcDbEntity
  8
_U+30EC_U+30A4_U+30E4_U+30FC 1
100
AcDbBlockReference
  2
block 5
 10
0.0
 20
0.0
 30
0.0
  0
POLYLINE
  5
CA
330
1F
100
AcDbEntity
  8
_U+30EC_U+30A4_U+30E4_U+30FC 1
 62
     7
420
 16777215
370
     9
100
AcDb2dPolyline
 66
     1
 10
0.0
 20
0.0
 30
0.0
  0
VERTEX
  5
CB
330
CA
100
AcDbEntity
  8
_U+30EC_U+30A4_U+30E4_U+30FC 1
 62
     7
420
 16777215
370
     9
100
AcDbVertex
100
AcDb2dVertex
 10
117.0119761814424
 20
-152.7937705173572
 30
0.0
  0
VERTEX
  5
CC
330
CA
100
AcDbEntity
  8
_U+30EC_U+30A4_U+30E4_U+30FC 1
 62
     7
420
 16777215
370
     9
100
AcDbVertex
100
AcDb2dVertex
 10
117.0119761814424
 20
-153.7935427393292
 30
0.0
  0
SEQEND
  5
CD
330
CA
100
AcDbEntity
  8
_U+30EC_U+30A4_U+30E4_U+30FC 1
 62
     7
420
 16777215
370
     9
  0
POLYLINE
  5
CE
330
1F
100
AcDbEntity
  8
_U+30EC_U+30A4_U+30E4_U+30FC 1
 62
     7
420
 16777215
370
     9
100
AcDb2dPolyline
 66
     1
 10
0.0
 20
0.0
 30
0.0
  0
VERTEX
  5
CF
330
CE
100
AcDbEntity
  8
_U+30EC_U+30A4_U+30E4_U+30FC 1
 62
     7
420
 16777215
370
     9
100
AcDbVertex
100
AcDb2dVertex
 10
117.0119761814424
 20
-152.3941438507901
 30
0.0
  0
VERTEX
  5
D0
330
CE
100
AcDbEntity
  8
_U+30EC_U+30A4_U+30E4_U+30FC 1
 62
     7
420
 16777215
370
     9
100
AcDbVertex
100
AcDb2dVertex
 10
117.0119761814424
 20
-152.7937705173572
 30
0.0
  0
SEQEND
  5
D1
330
CE
100
AcDbEntity
  8
_U+30EC_U+30A4_U+30E4_U+30FC 1
 62
     7
420
 16777215
370
     9
  0
POLYLINE
  5
D2
330
1F
100
AcDbEntity
  8
_U+30EC_U+30A4_U+30E4_U+30FC 1
 62
     7
420
 16777215
370
     9
100
AcDb2dPolyline
 66
     1
 10
0.0
 20
0.0
 30
0.0
  0
VERTEX
  5
D3
330
D2
100
AcDbEntity
  8
_U+30EC_U+30A4_U+30E4_U+30FC 1
 62
     7
420
 16777215
370
     9
100
AcDbVertex
100
AcDb2dVertex
 10
115.5519348298023
 20
-152.7937705173572
 30
0.0
  0
VERTEX
  5
D4
330
D2
100
AcDbEntity
  8
_U+30EC_U+30A4_U+30E4_U+30FC 1
 62
     7
420
 16777215
370
     9
100
AcDbVertex
100
AcDb2dVertex
 10
118.0117483781584
 20
-152.7937705173572
 30
0.0
  0
SEQEND
  5
D5
330
D2
100
AcDbEntity
  8
_U+30EC_U+30A4_U+30E4_U+30FC 1
 62
     7
420
 16777215
370
     9
  0
INSERT
  5
D7
330
1F
100
AcDbEntity
  8
_U+30EC_U+30A4_U+30E4_U+30FC 1
100
AcDbBlockReference
  2
block 6
 10
0.0
 20
0.0
 30
0.0
  0
POLYLINE
  5
FA
330
1F
100
AcDbEntity
  8
_U+30EC_U+30A4_U+30E4_U+30FC 1
 62
     7
420
 16777215
370
     9
100
AcDb2dPolyline
 66
     1
 10
0.0
 20
0.0
 30
0.0
  0
VERTEX
  5
FB
330
FA
100
AcDbEntity
  8
_U+30EC_U+30A4_U+30E4_U+30FC 1
 62
     7
420
 16777215
370
     9
100
AcDbVertex
100
AcDb2dVertex
 10
113.0122171168181
 20
-153.294009406121
 30
0.0
  0
VERTEX
  5
FC
330
FA
100
AcDbEntity
  8
_U+30EC_U+30A4_U+30E4_U+30FC 1
 62
     7
420
 16777215
370
     9
100
AcDbVertex
100
AcDb2dVertex
 10
116.66953480129
 20
-156.3422210720258
 30
0.0
  0
SEQEND
  5
FD
330
FA
100
AcDbEntity
  8
_U+30EC_U+30A4_U+30E4_U+30FC 1
 62
     7
420
 16777215
370
     9
  0
INSERT
  5
FF
330
1F
100
AcDbEntity
  8
_U+30EC_U+30A4_U+30E4_U+30FC 1
100
AcDbBlockReference
  2
block 7
 10
0.0
 20
0.0
 30
0.0
  0
POLYLINE
  5
13C
330
1F
100
AcDbEntity
  8
_U+30EC_U+30A4_U+30E4_U+30FC 1
  6
AI-Linetype-1
 62
   154
420
    23468
370
    25
100
AcDb2dPolyline
 66
     1
 10
0.0
 20
0.0
 30
0.0
  0
VERTEX
  5
13D
330
13C
100
AcDbEntity
  8
_U+30EC_U+30A4_U+30E4_U+30FC 1
  6
AI-Linetype-1
 62
   154
420
    23468
370
    25
100
AcDbVertex
100
AcDb2dVertex
 10
113.0122171168181
 20
-153.294009406121
 30
0.0
  0
VERTEX
  5
13E
330
13C
100
AcDbEntity
  8
_U+30EC_U+30A4_U+30E4_U+30FC 1
  6
AI-Linetype-1
 62
   154
420
    23468
370
    25
100
AcDbVertex
100
AcDb2dVertex
 10
95.51218200772567
 20
-153.9940616281679
 30
0.0
  0
VERTEX
  5
13F
330
13C
100
AcDbEntity
  8
_U+30EC_U+30A4_U+30E4_U+30FC 1
  6
AI-Linetype-1
 62
   154
420
    23468
370
    25
100
AcDbVertex
100
AcDb2dVertex
 10
95.51218200772567
 20
-144.4938619083209
 30
0.0
  0
VERTEX
  5
140
330
13C
100
AcDbEntity
  8
_U+30EC_U+30A4_U+30E4_U+30FC 1
  6
AI-Linetype-1
 62
   154
420
    23468
370
    25
100
AcDbVertex
100
AcDb2dVertex
 10
90.01205909248995
 20
-144.4938619083209
 30
0.0
  0
SEQEND
  5
142
330
13C
100
AcDbEntity
  8
_U+30EC_U+30A4_U+30E4_U+30FC 1
  6
AI-Linetype-1
 62
   154
420
    23468
370
    25
  0
ENDSEC
  0
SECTION
  2
OBJECTS
  0
DICTIONARY
  5
C
330
0
100
AcDbDictionary
281
     1
  3
ACAD_GROUP
350
D
  3
ACAD_LAYOUT
350
1A
  3
ACAD_MATERIAL
350
3B
  3
ACAD_MLEADERSTYLE
350
144
  3
ACAD_MLINESTYLE
350
17
  3
ACAD_PLOTSETTINGS
350
19
  3
ACAD_PLOTSTYLENAME
350
E
  3
ACAD_TABLESTYLE
350
143
  3
ACAD_VISUALSTYLE
350
2A
  0
SUN
  5
3F
330
29
100
AcDbSun
 90
        1
290
     0
 63
     7
421
 16777215
 40
1.0
291
     1
 91
  2455826
 92
 54000000
292
     0
 70
     2
 71
   256
280
     1
  0
DICTIONARY
  5
D
102
{ACAD_REACTORS
330
C
102
}
330
C
100
AcDbDictionary
281
     1
  0
DICTIONARY
  5
1A
102
{ACAD_REACTORS
330
C
102
}
330
C
100
AcDbDictionary
281
     1
  3
Layout1
350
1E
  3
Layout2
350
26
  3
Model
350
22
  0
DICTIONARY
  5
3B
102
{ACAD_REACTORS
330
C
102
}
330
C
100
AcDbDictionary
281
     1
  3
ByBlock
350
3D
  3
ByLayer
350
3C
  3
Global
350
3E
  0
DICTIONARY
  5
144
102
{ACAD_REACTORS
330
C
102
}
330
C
100
AcDbDictionary
281
     1
  0
DICTIONARY
  5
17
102
{ACAD_REACTORS
330
C
102
}
330
C
100
AcDbDictionary
281
     1
  3
Standard
350
18
  0
DICTIONARY
  5
19
102
{ACAD_REACTORS
330
C
102
}
330
C
100
AcDbDictionary
281
     1
  0
ACDBDICTIONARYWDFLT
  5
E
102
{ACAD_REACTORS
330
C
102
}
330
C
100
AcDbDictionary
281
     1
  3
Normal
350
F
100
AcDbDictionaryWithDefault
340
F
  0
DICTIONARY
  5
143
102
{ACAD_REACTORS
330
C
102
}
330
C
100
AcDbDictionary
281
     1
  0
DICTIONARY
  5
2A
102
{ACAD_REACTORS
330
C
102
}
330
C
100
AcDbDictionary
281
     1
  3
2dWireframe
350
2F
  3
3D Hidden
350
31
  3
3dWireframe
350
30
  3
Basic
350
32
  3
Brighten
350
36
  3
ColorChange
350
3A
  3
Conceptual
350
34
  3
Dim
350
35
  3
Facepattern
350
39
  3
Flat
350
2B
  3
FlatWithEdges
350
2C
  3
Gouraud
350
2D
  3
GouraudWithEdges
350
2E
  3
Linepattern
350
38
  3
Realistic
350
33
  3
Thicken
350
37
  0
LAYOUT
  5
1E
102
{ACAD_REACTORS
330
1A
102
}
330
1A
100
AcDbPlotSettings
  1

  2
none_device
  4

  6

 40
0.0
 41
0.0
 42
0.0
 43
0.0
 44
0.0
 45
0.0
 46
0.0
 47
0.0
 48
0.0
 49
0.0
140
0.0
141
0.0
142
1.0
143
1.0
 70
   688
 72
     0
 73
     0
 74
     5
  7

 75
    16
 76
     0
 77
     2
 78
   300
147
1.0
148
0.0
149
0.0
100
AcDbLayout
  1
Layout1
 70
     1
 71
     1
 10
0.0
 20
0.0
 11
12.0
 21
9.0
 12
0.0
 22
0.0
 32
0.0
 14
1.000000000000000E+20
 24
1.000000000000000E+20
 34
1.000000000000000E+20
 15
-1.000000000000000E+20
 25
-1.000000000000000E+20
 35
-1.000000000000000E+20
146
0.0
 13
0.0
 23
0.0
 33
0.0
 16
1.0
 26
0.0
 36
0.0
 17
0.0
 27
1.0
 37
0.0
 76
     0
330
1B
  0
LAYOUT
  5
26
102
{ACAD_REACTORS
330
1A
102
}
330
1A
100
AcDbPlotSettings
  1

  2
none_device
  4

  6

 40
0.0
 41
0.0
 42
0.0
 43
0.0
 44
0.0
 45
0.0
 46
0.0
 47
0.0
 48
0.0
 49
0.0
140
0.0
141
0.0
142
1.0
143
1.0
 70
   688
 72
     0
 73
     0
 74
     5
  7

 75
    16
 76
     0
 77
     2
 78
   300
147
1.0
148
0.0
149
0.0
100
AcDbLayout
  1
Layout2
 70
     1
 71
     2
 10
0.0
 20
0.0
 11
0.0
 21
0.0
 12
0.0
 22
0.0
 32
0.0
 14
0.0
 24
0.0
 34
0.0
 15
0.0
 25
0.0
 35
0.0
146
0.0
 13
0.0
 23
0.0
 33
0.0
 16
1.0
 26
0.0
 36
0.0
 17
0.0
 27
1.0
 37
0.0
 76
     0
330
23
  0
LAYOUT
  5
22
102
{ACAD_REACTORS
330
1A
102
}
330
1A
100
AcDbPlotSettings
  1

  2
none_device
  4

  6

 40
0.0
 41
0.0
 42
0.0
 43
0.0
 44
0.0
 45
0.0
 46
0.0
 47
0.0
 48
0.0
 49
0.0
140
0.0
141
0.0
142
1.0
143
1.0
 70
  1712
 72
     0
 73
     0
 74
     0
  7

 75
     0
 76
     0
 77
     2
 78
   300
147
1.0
148
0.0
149
0.0
100
AcDbLayout
  1
Model
 70
     1
 71
     0
 10
0.0
 20
0.0
 11
12.0
 21
9.0
 12
0.0
 22
0.0
 32
0.0
 14
1.000000000000000E+20
 24
1.000000000000000E+20
 34
1.000000000000000E+20
 15
-1.000000000000000E+20
 25
-1.000000000000000E+20
 35
-1.000000000000000E+20
146
0.0
 13
0.0
 23
0.0
 33
0.0
 16
1.0
 26
0.0
 36
0.0
 17
0.0
 27
1.0
 37
0.0
 76
     0
330
1F
331
29
  0
MATERIAL
  5
3D
102
{ACAD_REACTORS
330
3B
102
}
330
3B
100
AcDbMaterial
  1
ByBlock
 72
     1
 94
      127
  0
MATERIAL
  5
3C
102
{ACAD_REACTORS
330
3B
102
}
330
3B
100
AcDbMaterial
  1
ByLayer
 72
     1
 94
      127
  0
MATERIAL
  5
3E
102
{ACAD_REACTORS
330
3B
102
}
330
3B
100
AcDbMaterial
  1
Global
 72
     1
 94
      127
  0
MLINESTYLE
  5
18
102
{ACAD_REACTORS
330
17
102
}
330
17
100
AcDbMlineStyle
  2
Standard
 70
     0
  3

 62
   256
 51
90.0
 52
90.0
 71
     2
 49
0.5
 62
   256
  6
BYLAYER
 49
-0.5
 62
   256
  6
BYLAYER
  0
ACDBPLACEHOLDER
  5
F
102
{ACAD_REACTORS
330
E
102
}
330
E
  0
VISUALSTYLE
  5
2F
102
{ACAD_REACTORS
330
2A
102
}
330
2A
100
AcDbVisualStyle
  2
2dWireframe
 70
     4
177
     2
291
     0
 71
     0
176
     1
 72
     2
176
     1
 73
     0
176
     1
 90
        0
176
     1
 40
-0.6
176
     1
 41
-30.0
176
     1
 62
     5
 63
     7
421
 16777215
176
     1
 74
     1
176
     1
 91
        4
176
     1
 64
     7
176
     1
 65
   257
176
     1
 75
     1
176
     1
175
     1
176
     1
 42
1.0
176
     1
 92
        0
176
     1
 66
   257
176
     1
 43
1.0
176
     1
 76
     1
176
     1
 77
     6
176
     1
 78
     2
176
     1
 67
     7
176
     1
 79
     5
176
     1
170
     0
176
     1
171
     0
176
     1
290
     0
176
     1
 93
        1
176
     1
 44
0.0
176
     1
173
     0
176
     1
  0
VISUALSTYLE
  5
31
102
{ACAD_REACTORS
330
2A
102
}
330
2A
100
AcDbVisualStyle
  2
3D Hidden
 70
     6
177
     2
291
     0
 71
     1
176
     1
 72
     2
176
     1
 73
     2
176
     1
 90
        0
176
     1
 40
-0.6
176
     1
 41
-30.0
176
     1
 62
     5
 63
     7
421
 16777215
176
     1
 74
     2
176
     1
 91
        2
176
     1
 64
     7
176
     1
 65
   257
176
     1
 75
     2
176
     1
175
     1
176
     1
 42
40.0
176
     1
 92
        0
176
     1
 66
   257
176
     1
 43
1.0
176
     1
 76
     1
176
     1
 77
     6
176
     1
 78
     2
176
     1
 67
     7
176
     1
 79
     3
176
     1
170
     0
176
     1
171
     0
176
     1
290
     0
176
     1
 93
        1
176
     1
 44
0.0
176
     1
173
     0
176
     1
  0
VISUALSTYLE
  5
30
102
{ACAD_REACTORS
330
2A
102
}
330
2A
100
AcDbVisualStyle
  2
3dWireframe
 70
     5
177
     2
291
     0
 71
     0
176
     1
 72
     2
176
     1
 73
     0
176
     1
 90
        0
176
     1
 40
-0.6
176
     1
 41
-30.0
176
     1
 62
     5
 63
     7
421
 16777215
176
     1
 74
     1
176
     1
 91
        4
176
     1
 64
     7
176
     1
 65
   257
176
     1
 75
     1
176
     1
175
     1
176
     1
 42
1.0
176
     1
 92
        0
176
     1
 66
   257
176
     1
 43
1.0
176
     1
 76
     1
176
     1
 77
     6
176
     1
 78
     2
176
     1
 67
     7
176
     1
 79
     5
176
     1
170
     0
176
     1
171
     0
176
     1
290
     0
176
     1
 93
        1
176
     1
 44
0.0
176
     1
173
     0
176
     1
  0
VISUALSTYLE
  5
32
102
{ACAD_REACTORS
330
2A
102
}
330
2A
100
AcDbVisualStyle
  2
Basic
 70
     7
177
     2
291
     1
 71
     1
176
     1
 72
     0
176
     1
 73
     1
176
     1
 90
        0
176
     1
 40
-0.6
176
     1
 41
-30.0
176
     1
 62
     5
 63
     7
421
 16777215
176
     1
 74
     0
176
     1
 91
        4
176
     1
 64
     7
176
     1
 65
   257
176
     1
 75
     1
176
     1
175
     1
176
     1
 42
1.0
176
     1
 92
        8
176
     1
 66
     7
176
     1
 43
1.0
176
     1
 76
     1
176
     1
 77
     6
176
     1
 78
     2
176
     1
 67
     7
176
     1
 79
     5
176
     1
170
     0
176
     1
171
     0
176
     1
290
     0
176
     1
 93
        1
176
     1
 44
0.0
176
     1
173
     0
176
     1
  0
VISUALSTYLE
  5
36
102
{ACAD_REACTORS
330
2A
102
}
330
2A
100
AcDbVisualStyle
  2
Brighten
 70
    12
177
     2
291
     1
 71
     2
176
     1
 72
     2
176
     1
 73
     0
176
     1
 90
        0
176
     1
 40
-0.6
176
     1
 41
-30.0
176
     1
 62
     5
 63
     7
421
 16777215
176
     1
 74
     1
176
     1
 91
        4
176
     1
 64
     7
176
     1
 65
   257
176
     1
 75
     1
176
     1
175
     1
176
     1
 42
1.0
176
     1
 92
        8
176
     1
 66
     7
176
     1
 43
1.0
176
     1
 76
     1
176
     1
 77
     6
176
     1
 78
     2
176
     1
 67
     7
176
     1
 79
     5
176
     1
170
     0
176
     1
171
     0
176
     1
290
     0
176
     1
 93
        1
176
     1
 44
50.0
176
     1
173
     0
176
     1
  0
VISUALSTYLE
  5
3A
102
{ACAD_REACTORS
330
2A
102
}
330
2A
100
AcDbVisualStyle
  2
ColorChange
 70
    16
177
     2
291
     1
 71
     2
176
     1
 72
     2
176
     1
 73
     3
176
     1
 90
        0
176
     1
 40
-0.6
176
     1
 41
-30.0
176
     1
 62
     5
 63
     8
421
  8421504
176
     1
 74
     1
176
     1
 91
        4
176
     1
 64
     7
176
     1
 65
   257
176
     1
 75
     1
176
     1
175
     1
176
     1
 42
1.0
176
     1
 92
        8
176
     1
 66
     8
424
  8421504
176
     1
 43
1.0
176
     1
 76
     1
176
     1
 77
     6
176
     1
 78
     2
176
     1
 67
     7
176
     1
 79
     5
176
     1
170
     0
176
     1
171
     0
176
     1
290
     0
176
     1
 93
        1
176
     1
 44
0.0
176
     1
173
     0
176
     1
  0
VISUALSTYLE
  5
34
102
{ACAD_REACTORS
330
2A
102
}
330
2A
100
AcDbVisualStyle
  2
Conceptual
 70
     9
177
     2
291
     0
 71
     3
176
     1
 72
     2
176
     1
 73
     0
176
     1
 90
        0
176
     1
 40
-0.6
176
     1
 41
-30.0
176
     1
 62
     5
 63
     7
421
 16777215
176
     1
 74
     2
176
     1
 91
        2
176
     1
 64
     7
176
     1
 65
   257
176
     1
 75
     1
176
     1
175
     1
176
     1
 42
40.0
176
     1
 92
        8
176
     1
 66
     7
176
     1
 43
1.0
176
     1
 76
     1
176
     1
 77
     6
176
     1
 78
     2
176
     1
 67
     7
176
     1
 79
     3
176
     1
170
     0
176
     1
171
     0
176
     1
290
     0
176
     1
 93
        1
176
     1
 44
0.0
176
     1
173
     0
176
     1
  0
VISUALSTYLE
  5
35
102
{ACAD_REACTORS
330
2A
102
}
330
2A
100
AcDbVisualStyle
  2
Dim
 70
    11
177
     2
291
     1
 71
     2
176
     1
 72
     2
176
     1
 73
     0
176
     1
 90
        0
176
     1
 40
-0.6
176
     1
 41
-30.0
176
     1
 62
     5
 63
     7
421
 16777215
176
     1
 74
     1
176
     1
 91
        4
176
     1
 64
     7
176
     1
 65
   257
176
     1
 75
     1
176
     1
175
     1
176
     1
 42
1.0
176
     1
 92
        8
176
     1
 66
     7
176
     1
 43
1.0
176
     1
 76
     1
176
     1
 77
     6
176
     1
 78
     2
176
     1
 67
     7
176
     1
 79
     5
176
     1
170
     0
176
     1
171
     0
176
     1
290
     0
176
     1
 93
        1
176
     1
 44
-50.0
176
     1
173
     0
176
     1
  0
VISUALSTYLE
  5
39
102
{ACAD_REACTORS
330
2A
102
}
330
2A
100
AcDbVisualStyle
  2
Facepattern
 70
    15
177
     2
291
     1
 71
     2
176
     1
 72
     2
176
     1
 73
     0
176
     1
 90
        0
176
     1
 40
-0.6
176
     1
 41
-30.0
176
     1
 62
     5
 63
     7
421
 16777215
176
     1
 74
     1
176
     1
 91
        4
176
     1
 64
     7
176
     1
 65
   257
176
     1
 75
     1
176
     1
175
     1
176
     1
 42
1.0
176
     1
 92
        8
176
     1
 66
     7
176
     1
 43
1.0
176
     1
 76
     1
176
     1
 77
     6
176
     1
 78
     2
176
     1
 67
     7
176
     1
 79
     5
176
     1
170
     0
176
     1
171
     0
176
     1
290
     0
176
     1
 93
        1
176
     1
 44
0.0
176
     1
173
     0
176
     1
  0
VISUALSTYLE
  5
2B
102
{ACAD_REACTORS
330
2A
102
}
330
2A
100
AcDbVisualStyle
  2
Flat
 70
     0
177
     2
291
     1
 71
     2
176
     1
 72
     1
176
     1
 73
     1
176
     1
 90
        2
176
     1
 40
-0.6
176
     1
 41
30.0
176
     1
 62
     5
 63
     7
421
 16777215
176
     1
 74
     0
176
     1
 91
        4
176
     1
 64
     7
176
     1
 65
   257
176
     1
 75
     1
176
     1
175
     1
176
     1
 42
1.0
176
     1
 92
        8
176
     1
 66
     7
176
     1
 43
1.0
176
     1
 76
     1
176
     1
 77
     6
176
     1
 78
     2
176
     1
 67
     7
176
     1
 79
     5
176
     1
170
     0
176
     1
171
     0
176
     1
290
     0
176
     1
 93
       13
176
     1
 44
0.0
176
     1
173
     0
176
     1
  0
VISUALSTYLE
  5
2C
102
{ACAD_REACTORS
330
2A
102
}
330
2A
100
AcDbVisualStyle
  2
FlatWithEdges
 70
     1
177
     2
291
     1
 71
     2
176
     1
 72
     1
176
     1
 73
     1
176
     1
 90
        2
176
     1
 40
-0.6
176
     1
 41
30.0
176
     1
 62
     5
 63
     7
421
 16777215
176
     1
 74
     1
176
     1
 91
        4
176
     1
 64
     7
176
     1
 65
   257
176
     1
 75
     1
176
     1
175
     1
176
     1
 42
1.0
176
     1
 92
        0
176
     1
 66
   257
176
     1
 43
1.0
176
     1
 76
     1
176
     1
 77
     6
176
     1
 78
     2
176
     1
 67
     7
176
     1
 79
     5
176
     1
170
     0
176
     1
171
     0
176
     1
290
     0
176
     1
 93
       13
176
     1
 44
0.0
176
     1
173
     0
176
     1
  0
VISUALSTYLE
  5
2D
102
{ACAD_REACTORS
330
2A
102
}
330
2A
100
AcDbVisualStyle
  2
Gouraud
 70
     2
177
     2
291
     1
 71
     2
176
     1
 72
     2
176
     1
 73
     1
176
     1
 90
        2
176
     1
 40
-0.6
176
     1
 41
30.0
176
     1
 62
     5
 63
     7
421
 16777215
176
     1
 74
     0
176
     1
 91
        4
176
     1
 64
     7
176
     1
 65
   257
176
     1
 75
     1
176
     1
175
     1
176
     1
 42
1.0
176
     1
 92
        0
176
     1
 66
     7
176
     1
 43
1.0
176
     1
 76
     1
176
     1
 77
     6
176
     1
 78
     2
176
     1
 67
     7
176
     1
 79
     5
176
     1
170
     0
176
     1
171
     0
176
     1
290
     0
176
     1
 93
       13
176
     1
 44
0.0
176
     1
173
     0
176
     1
  0
VISUALSTYLE
  5
2E
102
{ACAD_REACTORS
330
2A
102
}
330
2A
100
AcDbVisualStyle
  2
GouraudWithEdges
 70
     3
177
     2
291
     1
 71
     2
176
     1
 72
     2
176
     1
 73
     1
176
     1
 90
        2
176
     1
 40
-0.6
176
     1
 41
30.0
176
     1
 62
     5
 63
     7
421
 16777215
176
     1
 74
     1
176
     1
 91
        4
176
     1
 64
     7
176
     1
 65
   257
176
     1
 75
     1
176
     1
175
     1
176
     1
 42
1.0
176
     1
 92
        0
176
     1
 66
   257
176
     1
 43
1.0
176
     1
 76
     1
176
     1
 77
     6
176
     1
 78
     2
176
     1
 67
     7
176
     1
 79
     5
176
     1
170
     0
176
     1
171
     0
176
     1
290
     0
176
     1
 93
       13
176
     1
 44
0.0
176
     1
173
     0
176
     1
  0
VISUALSTYLE
  5
38
102
{ACAD_REACTORS
330
2A
102
}
330
2A
100
AcDbVisualStyle
  2
Linepattern
 70
    14
177
     2
291
     1
 71
     2
176
     1
 72
     2
176
     1
 73
     0
176
     1
 90
        0
176
     1
 40
-0.6
176
     1
 41
-30.0
176
     1
 62
     5
 63
     7
421
 16777215
176
     1
 74
     1
176
     1
 91
        4
176
     1
 64
     7
176
     1
 65
   257
176
     1
 75
     7
176
     1
175
     7
176
     1
 42
1.0
176
     1
 92
        8
176
     1
 66
     7
176
     1
 43
1.0
176
     1
 76
     1
176
     1
 77
     6
176
     1
 78
     2
176
     1
 67
     7
176
     1
 79
     5
176
     1
170
     0
176
     1
171
     0
176
     1
290
     0
176
     1
 93
        1
176
     1
 44
0.0
176
     1
173
     0
176
     1
  0
VISUALSTYLE
  5
33
102
{ACAD_REACTORS
330
2A
102
}
330
2A
100
AcDbVisualStyle
  2
Realistic
 70
     8
177
     2
291
     0
 71
     2
176
     1
 72
     2
176
     1
 73
     0
176
     1
 90
        0
176
     1
 40
-0.6
176
     1
 41
-30.0
176
     1
 62
     5
 63
     7
421
 16777215
176
     1
 74
     1
176
     1
 91
        0
176
     1
 64
     7
176
     1
 65
   257
176
     1
 75
     1
176
     1
175
     1
176
     1
 42
1.0
176
     1
 92
        8
176
     1
 66
     8
424
  7895160
176
     1
 43
1.0
176
     1
 76
     1
176
     1
 77
     6
176
     1
 78
     2
176
     1
 67
     7
176
     1
 79
     5
176
     1
170
     0
176
     1
171
     0
176
     1
290
     0
176
     1
 93
       13
176
     1
 44
0.0
176
     1
173
     0
176
     1
  0
VISUALSTYLE
  5
37
102
{ACAD_REACTORS
330
2A
102
}
330
2A
100
AcDbVisualStyle
  2
Thicken
 70
    13
177
     2
291
     1
 71
     2
176
     1
 72
     2
176
     1
 73
     0
176
     1
 90
        0
176
     1
 40
-0.6
176
     1
 41
-30.0
176
     1
 62
     5
 63
     7
421
 16777215
176
     1
 74
     1
176
     1
 91
        4
176
     1
 64
     7
176
     1
 65
   257
176
     1
 75
     1
176
     1
175
     1
176
     1
 42
1.0
176
     1
 92
       12
176
     1
 66
     7
176
     1
 43
1.0
176
     1
 76
     1
176
     1
 77
     6
176
     1
 78
     2
176
     1
 67
     7
176
     1
 79
     5
176
     1
170
     0
176
     1
171
     0
176
     1
290
     0
176
     1
 93
        1
176
     1
 44
0.0
176
     1
173
     0
176
     1
  0
ENDSEC
  0
EOF
