  0
SECTION
  2
HEADER
  9
$ACADVER
  1
AC1024
  9
$ACADMAINTVER
 70
     6
  9
$DWGCODEPAGE
  3
UNDEFINED
  9
$INSBASE
 10
0.0
 20
0.0
 30
0.0
  9
$EXTMIN
 10
1.000000000000000E+20
 20
1.000000000000000E+20
 30
1.000000000000000E+20
  9
$EXTMAX
 10
-1.000000000000000E+20
 20
-1.000000000000000E+20
 30
-1.000000000000000E+20
  9
$LIMMIN
 10
0.0
 20
0.0
  9
$LIMMAX
 10
12.0
 20
9.0
  9
$ORTHOMODE
 70
     0
  9
$REGENMODE
 70
     1
  9
$FILLMODE
 70
     1
  9
$QTEXTMODE
 70
     0
  9
$MIRRTEXT
 70
     1
  9
$LTSCALE
 40
1.0
  9
$ATTMODE
 70
     1
  9
$TEXTSIZE
 40
0.2
  9
$TRACEWID
 40
0.05
  9
$TEXTSTYLE
  7
Standard
  9
$CLAYER
  8
0
  9
$CELTYPE
  6
ByLayer
  9
$CECOLOR
 62
   256
  9
$CELTSCALE
 40
1.0
  9
$DISPSILH
 70
     0
  9
$DIMSCALE
 40
1.0
  9
$DIMASZ
 40
0.18
  9
$DIMEXO
 40
0.0625
  9
$DIMDLI
 40
0.38
  9
$DIMRND
 40
0.0
  9
$DIMDLE
 40
0.0
  9
$DIMEXE
 40
0.18
  9
$DIMTP
 40
0.0
  9
$DIMTM
 40
0.0
  9
$DIMTXT
 40
0.18
  9
$DIMCEN
 40
0.09
  9
$DIMTSZ
 40
0.0
  9
$DIMTOL
 70
     0
  9
$DIMLIM
 70
     0
  9
$DIMTIH
 70
     1
  9
$DIMTOH
 70
     1
  9
$DIMSE1
 70
     0
  9
$DIMSE2
 70
     0
  9
$DIMTAD
 70
     0
  9
$DIMZIN
 70
     0
  9
$DIMBLK
  1

  9
$DIMASO
 70
     1
  9
$DIMSHO
 70
     1
  9
$DIMPOST
  1

  9
$DIMAPOST
  1

  9
$DIMALT
 70
     0
  9
$DIMALTD
 70
     2
  9
$DIMALTF
 40
25.4
  9
$DIMLFAC
 40
1.0
  9
$DIMTOFL
 70
     0
  9
$DIMTVP
 40
0.0
  9
$DIMTIX
 70
     0
  9
$DIMSOXD
 70
     0
  9
$DIMSAH
 70
     0
  9
$DIMBLK1
  1

  9
$DIMBLK2
  1

  9
$DIMSTYLE
  2
Standard
  9
$DIMCLRD
 70
     0
  9
$DIMCLRE
 70
     0
  9
$DIMCLRT
 70
     0
  9
$DIMTFAC
 40
1.0
  9
$DIMGAP
 40
0.09
  9
$DIMJUST
 70
     0
  9
$DIMSD1
 70
     0
  9
$DIMSD2
 70
     0
  9
$DIMTOLJ
 70
     1
  9
$DIMTZIN
 70
     0
  9
$DIMALTZ
 70
     0
  9
$DIMALTTZ
 70
     0
  9
$DIMUPT
 70
     0
  9
$DIMDEC
 70
     4
  9
$DIMTDEC
 70
     4
  9
$DIMALTU
 70
     2
  9
$DIMALTTD
 70
     2
  9
$DIMTXSTY
  7
Standard
  9
$DIMAUNIT
 70
     0
  9
$DIMADEC
 70
     0
  9
$DIMALTRND
 40
0.0
  9
$DIMAZIN
 70
     0
  9
$DIMDSEP
 70
    46
  9
$DIMATFIT
 70
     3
  9
$DIMFRAC
 70
     0
  9
$DIMLDRBLK
  1

  9
$DIMLUNIT
 70
     2
  9
$DIMLWD
 70
    -2
  9
$DIMLWE
 70
    -2
  9
$DIMTMOVE
 70
     0
  9
$DIMFXL
 40
1.0
  9
$DIMFXLON
 70
     0
  9
$DIMJOGANG
 40
0.7853981633974483
  9
$DIMTFILL
 70
     0
  9
$DIMTFILLCLR
 70
     0
  9
$DIMARCSYM
 70
     0
  9
$DIMLTYPE
  6

  9
$DIMLTEX1
  6

  9
$DIMLTEX2
  6

  9
$DIMTXTDIRECTION
 70
     0
  9
$LUNITS
 70
     2
  9
$LUPREC
 70
     4
  9
$SKETCHINC
 40
0.1
  9
$FILLETRAD
 40
0.5
  9
$AUNITS
 70
     0
  9
$AUPREC
 70
     0
  9
$MENU
  1
.
  9
$ELEVATION
 40
0.0
  9
$PELEVATION
 40
0.0
  9
$THICKNESS
 40
0.0
  9
$LIMCHECK
 70
     0
  9
$CHAMFERA
 40
0.5
  9
$CHAMFERB
 40
0.5
  9
$CHAMFERC
 40
1.0
  9
$CHAMFERD
 40
0.0
  9
$SKPOLY
 70
     0
  9
$TDCREATE
 40
2457917.610243044
  9
$TDUCREATE
 40
2457917.235243056
  9
$TDUPDATE
 40
2457917.610243044
  9
$TDUUPDATE
 40
2457917.235243056
  9
$TDINDWG
 40
0.0000000116
  9
$TDUSRTIMER
 40
0.0000000116
  9
$USRTIMER
 70
     1
  9
$ANGBASE
 50
0.0
  9
$ANGDIR
 70
     0
  9
$PDMODE
 70
     0
  9
$PDSIZE
 40
0.0
  9
$PLINEWID
 40
0.0
  9
$SPLFRAME
 70
     0
  9
$SPLINETYPE
 70
     6
  9
$SPLINESEGS
 70
     8
  9
$HANDSEED
  5
14F
  9
$SURFTAB1
 70
     6
  9
$SURFTAB2
 70
     6
  9
$SURFTYPE
 70
     6
  9
$SURFU
 70
     6
  9
$SURFV
 70
     6
  9
$UCSBASE
  2

  9
$UCSNAME
  2

  9
$UCSORG
 10
0.0
 20
0.0
 30
0.0
  9
$UCSXDIR
 10
1.0
 20
0.0
 30
0.0
  9
$UCSYDIR
 10
0.0
 20
1.0
 30
0.0
  9
$UCSORTHOREF
  2

  9
$UCSORTHOVIEW
 70
     0
  9
$UCSORGTOP
 10
0.0
 20
0.0
 30
0.0
  9
$UCSORGBOTTOM
 10
0.0
 20
0.0
 30
0.0
  9
$UCSORGLEFT
 10
0.0
 20
0.0
 30
0.0
  9
$UCSORGRIGHT
 10
0.0
 20
0.0
 30
0.0
  9
$UCSORGFRONT
 10
0.0
 20
0.0
 30
0.0
  9
$UCSORGBACK
 10
0.0
 20
0.0
 30
0.0
  9
$PUCSBASE
  2

  9
$PUCSNAME
  2

  9
$PUCSORG
 10
0.0
 20
0.0
 30
0.0
  9
$PUCSXDIR
 10
1.0
 20
0.0
 30
0.0
  9
$PUCSYDIR
 10
0.0
 20
1.0
 30
0.0
  9
$PUCSORTHOREF
  2

  9
$PUCSORTHOVIEW
 70
     0
  9
$PUCSORGTOP
 10
0.0
 20
0.0
 30
0.0
  9
$PUCSORGBOTTOM
 10
0.0
 20
0.0
 30
0.0
  9
$PUCSORGLEFT
 10
0.0
 20
0.0
 30
0.0
  9
$PUCSORGRIGHT
 10
0.0
 20
0.0
 30
0.0
  9
$PUCSORGFRONT
 10
0.0
 20
0.0
 30
0.0
  9
$PUCSORGBACK
 10
0.0
 20
0.0
 30
0.0
  9
$USERI1
 70
     0
  9
$USERI2
 70
     0
  9
$USERI3
 70
     0
  9
$USERI4
 70
     0
  9
$USERI5
 70
     0
  9
$USERR1
 40
0.0
  9
$USERR2
 40
0.0
  9
$USERR3
 40
0.0
  9
$USERR4
 40
0.0
  9
$USERR5
 40
0.0
  9
$WORLDVIEW
 70
     1
  9
$SHADEDGE
 70
     3
  9
$SHADEDIF
 70
    70
  9
$TILEMODE
 70
     1
  9
$MAXACTVP
 70
    64
  9
$PINSBASE
 10
0.0
 20
0.0
 30
0.0
  9
$PLIMCHECK
 70
     0
  9
$PEXTMIN
 10
1.000000000000000E+20
 20
1.000000000000000E+20
 30
1.000000000000000E+20
  9
$PEXTMAX
 10
-1.000000000000000E+20
 20
-1.000000000000000E+20
 30
-1.000000000000000E+20
  9
$PLIMMIN
 10
0.0
 20
0.0
  9
$PLIMMAX
 10
12.0
 20
9.0
  9
$UNITMODE
 70
     0
  9
$VISRETAIN
 70
     1
  9
$PLINEGEN
 70
     0
  9
$PSLTSCALE
 70
     1
  9
$TREEDEPTH
 70
  3020
  9
$CMLSTYLE
  2
Standard
  9
$CMLJUST
 70
     0
  9
$CMLSCALE
 40
1.0
  9
$PROXYGRAPHICS
 70
     1
  9
$MEASUREMENT
 70
     0
  9
$CELWEIGHT
370
    -1
  9
$ENDCAPS
280
     0
  9
$JOINSTYLE
280
     0
  9
$LWDISPLAY
290
     1
  9
$INSUNITS
 70
     1
  9
$HYPERLINKBASE
  1

  9
$STYLESHEET
  1

  9
$XEDIT
290
     1
  9
$CEPSNTYPE
380
     0
  9
$PSTYLEMODE
290
     1
  9
$FINGERPRINTGUID
  2
{7B398EA6-1071-B3CB-F2D4-59C9277C4598}
  9
$VERSIONGUID
  2
{FAEB1C32-E019-11D5-929B-00C0DF256EC4}
  9
$EXTNAMES
290
     1
  9
$PSVPSCALE
 40
0.0
  9
$OLESTARTUP
290
     0
  9
$SORTENTS
280
   127
  9
$INDEXCTL
280
     0
  9
$HIDETEXT
280
     1
  9
$XCLIPFRAME
280
     2
  9
$HALOGAP
280
     0
  9
$OBSCOLOR
 70
   257
  9
$OBSLTYPE
280
     0
  9
$INTERSECTIONDISPLAY
280
     0
  9
$INTERSECTIONCOLOR
 70
   257
  9
$DIMASSOC
280
     2
  9
$PROJECTNAME
  1

  9
$CAMERADISPLAY
290
     0
  9
$LENSLENGTH
 40
50.0
  9
$CAMERAHEIGHT
 40
0.0
  9
$STEPSPERSEC
 40
2.0
  9
$STEPSIZE
 40
6.0
  9
$3DDWFPREC
 40
2.0
  9
$PSOLWIDTH
 40
0.25
  9
$PSOLHEIGHT
 40
4.0
  9
$LOFTANG1
 40
1.570796326794897
  9
$LOFTANG2
 40
1.570796326794897
  9
$LOFTMAG1
 40
0.0
  9
$LOFTMAG2
 40
0.0
  9
$LOFTPARAM
 70
     7
  9
$LOFTNORMALS
280
     1
  9
$LATITUDE
 40
37.795
  9
$LONGITUDE
 40
-122.394
  9
$NORTHDIRECTION
 40
0.0
  9
$TIMEZONE
 70
 -8000
  9
$LIGHTGLYPHDISPLAY
280
     1
  9
$TILEMODELIGHTSYNCH
280
     1
  9
$CMATERIAL
347
3C
  9
$SOLIDHIST
280
     1
  9
$SHOWHIST
280
     1
  9
$DWFFRAME
280
     2
  9
$DGNFRAME
280
     2
  9
$REALWORLDSCALE
290
     1
  9
$INTERFERECOLOR
 62
   256
  9
$CSHADOW
280
     0
  9
$SHADOWPLANELOCATION
 40
0.0
  0
ENDSEC
  0
SECTION
  2
CLASSES
  0
CLASS
  1
ACDBDICTIONARYWDFLT
  2
AcDbDictionaryWithDefault
  3
ObjectDBX Classes
 90
        0
 91
        4
280
     0
281
     0
  0
CLASS
  1
VISUALSTYLE
  2
AcDbVisualStyle
  3
ObjectDBX Classes
 90
     4095
 91
        4
280
     0
281
     0
  0
CLASS
  1
MATERIAL
  2
AcDbMaterial
  3
ObjectDBX Classes
 90
     1153
 91
        4
280
     0
281
     0
  0
CLASS
  1
SUN
  2
AcDbSun
  3
SCENEOE
 90
     1024
 91
        4
280
     0
281
     0
  0
ENDSEC
  0
SECTION
  2
TABLES
  0
TABLE
  2
VPORT
  5
8
330
0
100
AcDbSymbolTable
 70
     1
  0
VPORT
  5
29
330
8
100
AcDbSymbolTableRecord
100
AcDbViewportTableRecord
  2
*Active
 70
     0
 10
0.0
 20
0.0
 11
1.0
 21
1.0
 12
0.0
 22
0.0
 13
0.0
 23
0.0
 14
0.5
 24
0.5
 15
0.5
 25
0.5
 16
0.0
 26
0.0
 36
1.0
 17
105.0008280156501
 27
-148.4999710739862
 37
0.0
 40
296.9999421479724
 41
0.7070764206636528
 42
50.0
 43
0.0
 44
0.0
 50
0.0
 51
0.0
 71
     0
 72
   100
 73
     1
 74
     3
 75
     0
 76
     0
 77
     0
 78
     0
281
     0
 65
     1
110
0.0
120
0.0
130
0.0
111
1.0
121
0.0
131
0.0
112
0.0
122
1.0
132
0.0
 79
     0
146
0.0
 60
     3
 61
     5
292
     1
282
     1
141
0.0
142
0.0
 63
   250
361
3F
  0
ENDTAB
  0
TABLE
  2
LTYPE
  5
5
330
0
100
AcDbSymbolTable
 70
     2
  0
LTYPE
  5
14
330
5
100
AcDbSymbolTableRecord
100
AcDbLinetypeTableRecord
  2
ByBlock
 70
     0
  3

 72
    65
 73
     0
 40
0.0
  0
LTYPE
  5
15
330
5
100
AcDbSymbolTableRecord
100
AcDbLinetypeTableRecord
  2
ByLayer
 70
     0
  3

 72
    65
 73
     0
 40
0.0
  0
LTYPE
  5
16
330
5
100
AcDbSymbolTableRecord
100
AcDbLinetypeTableRecord
  2
Continuous
 70
     0
  3
Solid line
 72
    65
 73
     0
 40
0.0
  0
LTYPE
  5
14B
330
5
100
AcDbSymbolTableRecord
100
AcDbLinetypeTableRecord
  2
AI-Linetype-1
 70
     0
  3
Adobe Illustrator Linetype No. 1
 72
    65
 73
     2
 40
1.411111110758333
 49
0.7055555553791667
 74
     0
 49
-0.7055555553791667
 74
     0
  0
ENDTAB
  0
TABLE
  2
LAYER
  5
2
330
0
100
AcDbSymbolTable
 70
     2
  0
LAYER
  5
10
330
2
100
AcDbSymbolTableRecord
100
AcDbLayerTableRecord
  2
0
 70
     0
 62
     7
  6
Continuous
370
    -3
390
F
347
3E
  0
LAYER
  5
40
330
2
100
AcDbSymbolTableRecord
100
AcDbLayerTableRecord
  2
_U+30EC_U+30A4_U+30E4_U+30FC 1
 70
     0
 62
     7
  6
Continuous
370
    -3
390
F
347
3E
  0
ENDTAB
  0
TABLE
  2
STYLE
  5
3
330
0
100
AcDbSymbolTable
 70
     1
  0
STYLE
  5
11
330
3
100
AcDbSymbolTableRecord
100
AcDbTextStyleTableRecord
  2
Standard
 70
     0
 40
0.0
 41
1.0
 50
0.0
 71
     0
 42
0.2
  3
txt
  4

  0
ENDTAB
  0
TABLE
  2
VIEW
  5
6
330
0
100
AcDbSymbolTable
 70
     0
  0
ENDTAB
  0
TABLE
  2
UCS
  5
7
330
0
100
AcDbSymbolTable
 70
     0
  0
ENDTAB
  0
TABLE
  2
APPID
  5
9
330
0
100
AcDbSymbolTable
 70
     1
  0
APPID
  5
12
330
9
100
AcDbSymbolTableRecord
100
AcDbRegAppTableRecord
  2
ACAD
 70
     0
  0
ENDTAB
  0
TABLE
  2
DIMSTYLE
  5
A
330
0
100
AcDbSymbolTable
 70
     1
100
AcDbDimStyleTable
  0
DIMSTYLE
105
27
330
A
100
AcDbSymbolTableRecord
100
AcDbDimStyleTableRecord
  2
Standard
 70
     0
178
     0
340
11
  0
ENDTAB
  0
TABLE
  2
BLOCK_RECORD
  5
1
330
0
100
AcDbSymbolTable
 70
     8
  0
BLOCK_RECORD
  5
1F
330
1
100
AcDbSymbolTableRecord
100
AcDbBlockTableRecord
  2
*Model_Space
340
22
 70
     0
280
     1
281
     0
  0
BLOCK_RECORD
  5
1B
330
1
100
AcDbSymbolTableRecord
100
AcDbBlockTableRecord
  2
*Paper_Space
340
1E
 70
     0
280
     1
281
     0
  0
BLOCK_RECORD
  5
23
330
1
100
AcDbSymbolTableRecord
100
AcDbBlockTableRecord
  2
*Paper_Space0
340
26
 70
     0
280
     1
281
     0
  0
BLOCK_RECORD
  5
81
330
1
100
AcDbSymbolTableRecord
100
AcDbBlockTableRecord
  2
block 2
340
0
102
{BLKREFS
331
82
102
}
 70
     0
280
     1
281
     0
  0
BLOCK_RECORD
  5
97
330
1
100
AcDbSymbolTableRecord
100
AcDbBlockTableRecord
  2
block 3
340
0
102
{BLKREFS
331
98
102
}
 70
     0
280
     1
281
     0
  0
BLOCK_RECORD
  5
B4
330
1
100
AcDbSymbolTableRecord
100
AcDbBlockTableRecord
  2
block 4
340
0
102
{BLKREFS
331
B5
102
}
 70
     0
280
     1
281
     0
  0
BLOCK_RECORD
  5
C9
330
1
100
AcDbSymbolTableRecord
100
AcDbBlockTableRecord
  2
block 5
340
0
102
{BLKREFS
331
CA
102
}
 70
     0
280
     1
281
     0
  0
BLOCK_RECORD
  5
D9
330
1
100
AcDbSymbolTableRecord
100
AcDbBlockTableRecord
  2
block 6
340
0
102
{BLKREFS
331
DA
102
}
 70
     0
280
     1
281
     0
  0
BLOCK_RECORD
  5
FC
330
1
100
AcDbSymbolTableRecord
100
AcDbBlockTableRecord
  2
block 7
340
0
102
{BLKREFS
331
FD
102
}
 70
     0
280
     1
281
     0
  0
BLOCK_RECORD
  5
108
330
1
100
AcDbSymbolTableRecord
100
AcDbBlockTableRecord
  2
block 8
340
0
102
{BLKREFS
331
109
102
}
 70
     0
280
     1
281
     0
  0
ENDTAB
  0
ENDSEC
  0
SECTION
  2
BLOCKS
  0
BLOCK
  5
20
330
1F
100
AcDbEntity
  8
0
100
AcDbBlockBegin
  2
*Model_Space
 70
     0
 10
0.0
 20
0.0
 30
0.0
  3
*Model_Space
  1

  0
ENDBLK
  5
21
330
1F
100
AcDbEntity
  8
0
100
AcDbBlockEnd
  0
BLOCK
  5
1C
330
1B
100
AcDbEntity
 67
     1
  8
0
100
AcDbBlockBegin
  2
*Paper_Space
 70
     0
 10
0.0
 20
0.0
 30
0.0
  3
*Paper_Space
  1

  0
ENDBLK
  5
1D
330
1B
100
AcDbEntity
 67
     1
  8
0
100
AcDbBlockEnd
  0
BLOCK
  5
24
330
23
100
AcDbEntity
  8
0
100
AcDbBlockBegin
  2
*Paper_Space0
 70
     0
 10
0.0
 20
0.0
 30
0.0
  3
*Paper_Space0
  1

  0
ENDBLK
  5
25
330
23
100
AcDbEntity
  8
0
100
AcDbBlockEnd
  0
BLOCK
  5
83
330
81
100
AcDbEntity
  8
0
100
AcDbBlockBegin
  2
block 2
 70
     0
 10
0.0
 20
0.0
 30
0.0
  3
block 2
  1

  0
SPLINE
  5
85
330
81
100
AcDbEntity
  8
_U+30EC_U+30A4_U+30E4_U+30FC 1
370
     0
100
AcDbSpline
210
0.0
220
0.0
230
1.0
 70
    11
 71
     3
 72
    26
 73
    22
 74
     0
 42
0.0000000001
 43
0.0000000001
 12
1.0
 22
0.0
 32
0.0
 13
1.0
 23
0.0
 33
0.0
 40
0.0
 40
0.0
 40
0.0
 40
0.0
 40
1.0
 40
1.0
 40
1.0
 40
2.0
 40
2.0
 40
2.0
 40
3.0
 40
3.0
 40
3.0
 40
4.0
 40
4.0
 40
4.0
 40
5.0
 40
5.0
 40
5.0
 40
6.0
 40
6.0
 40
6.0
 40
7.0
 40
7.0
 40
7.0
 40
7.0
 10
122.8066297436039
 20
-137.59676917133
 30
0.0
 10
122.8066297436039
 20
-137.59676917133
 30
0.0
 10
121.7024766405813
 20
-137.59676917133
 30
0.0
 10
121.7024766405813
 20
-137.59676917133
 30
0.0
 10
121.7024766405813
 20
-137.59676917133
 30
0.0
 10
121.7024766405813
 20
-137.9268093188169
 30
0.0
 10
121.7024766405813
 20
-137.9268093188169
 30
0.0
 10
121.7024766405813
 20
-137.9268093188169
 30
0.0
 10
121.5543375347156
 20
-137.9268093188169
 30
0.0
 10
121.5543375347156
 20
-137.9268093188169
 30
0.0
 10
121.539523624129
 20
-137.5947021140388
 30
0.0
 10
121.3765706076767
 20
-137.5481933249879
 30
0.0
 10
121.2621934375664
 20
-137.5185655038148
 30
0.0
 10
121.2621934375664
 20
-137.5185655038148
 30
0.0
 10
121.2621934375664
 20
-137.3724934552402
 30
0.0
 10
121.2621934375664
 20
-137.3724934552402
 30
0.0
 10
121.2621934375664
 20
-137.3724934552402
 30
0.0
 10
122.8066297436039
 20
-137.3724934552402
 30
0.0
 10
122.8066297436039
 20
-137.3724934552402
 30
0.0
 10
122.8066297436039
 20
-137.3724934552402
 30
0.0
 10
122.8066297436039
 20
-137.59676917133
 30
0.0
 10
122.8066297436039
 20
-137.59676917133
 30
0.0
  0
HATCH
  5
86
330
81
100
AcDbEntity
  8
_U+30EC_U+30A4_U+30E4_U+30FC 1
 62
     7
420
 16777215
100
AcDbHatch
 10
0.0
 20
0.0
 30
0.0
210
0.0
220
0.0
230
1.0
  2
SOLID
 70
     1
 71
     0
 91
        1
 92
        1
 93
        1
 72
     4
 94
        3
 73
     0
 74
     1
 95
       26
 96
       22
 40
0.0
 40
0.0
 40
0.0
 40
0.0
 40
1.0
 40
1.0
 40
1.0
 40
2.0
 40
2.0
 40
2.0
 40
3.0
 40
3.0
 40
3.0
 40
4.0
 40
4.0
 40
4.0
 40
5.0
 40
5.0
 40
5.0
 40
6.0
 40
6.0
 40
6.0
 40
7.0
 40
7.0
 40
7.0
 40
7.0
 10
122.8066297436039
 20
-137.59676917133
 10
122.8066297436039
 20
-137.59676917133
 10
121.7024766405813
 20
-137.59676917133
 10
121.7024766405813
 20
-137.59676917133
 10
121.7024766405813
 20
-137.59676917133
 10
121.7024766405813
 20
-137.9268093188169
 10
121.7024766405813
 20
-137.9268093188169
 10
121.7024766405813
 20
-137.9268093188169
 10
121.5543375347156
 20
-137.9268093188169
 10
121.5543375347156
 20
-137.9268093188169
 10
121.539523624129
 20
-137.5947021140388
 10
121.3765706076767
 20
-137.5481933249879
 10
121.2621934375664
 20
-137.5185655038148
 10
121.2621934375664
 20
-137.5185655038148
 10
121.2621934375664
 20
-137.3724934552402
 10
121.2621934375664
 20
-137.3724934552402
 10
121.2621934375664
 20
-137.3724934552402
 10
122.8066297436039
 20
-137.3724934552402
 10
122.8066297436039
 20
-137.3724934552402
 10
122.8066297436039
 20
-137.3724934552402
 10
122.8066297436039
 20
-137.59676917133
 10
122.8066297436039
 20
-137.59676917133
 97
        0
 97
        0
 75
     2
 76
     1
 98
        0
  0
ENDBLK
  5
84
330
81
100
AcDbEntity
  8
0
100
AcDbBlockEnd
  0
BLOCK
  5
99
330
97
100
AcDbEntity
  8
0
100
AcDbBlockBegin
  2
block 3
 70
     0
 10
0.0
 20
0.0
 30
0.0
  3
block 3
  1

  0
SPLINE
  5
9B
330
97
100
AcDbEntity
  8
_U+30EC_U+30A4_U+30E4_U+30FC 1
370
     0
100
AcDbSpline
210
0.0
220
0.0
230
1.0
 70
    11
 71
     3
 72
    29
 73
    25
 74
     0
 42
0.0000000001
 43
0.0000000001
 12
1.0
 22
0.0
 32
0.0
 13
1.0
 23
0.0
 33
0.0
 40
0.0
 40
0.0
 40
0.0
 40
0.0
 40
1.0
 40
1.0
 40
1.0
 40
2.0
 40
2.0
 40
2.0
 40
3.0
 40
3.0
 40
3.0
 40
4.0
 40
4.0
 40
4.0
 40
5.0
 40
5.0
 40
5.0
 40
6.0
 40
6.0
 40
6.0
 40
7.0
 40
7.0
 40
7.0
 40
8.0
 40
8.0
 40
8.0
 40
8.0
 10
107.6278835451416
 20
-151.9676404785012
 30
0.0
 10
107.8373453506448
 20
-152.075816476738
 30
0.0
 10
107.8562933758137
 20
-152.2491047796461
 30
0.0
 10
107.8562933758137
 20
-152.3655490070475
 30
0.0
 10
107.8562933758137
 20
-152.5264349662087
 30
0.0
 10
107.8097845867628
 20
-152.6680283906524
 30
0.0
 10
107.6278835451416
 20
-152.7631130260453
 30
0.0
 10
107.433235650225
 20
-152.8668104001514
 30
0.0
 10
107.1965575903884
 20
-152.8861029348687
 30
0.0
 10
107.033604573936
 20
-152.8861029348687
 30
0.0
 10
106.8895995826526
 20
-152.8861029348687
 30
0.0
 10
106.6377631026808
 20
-152.8688774574425
 30
0.0
 10
106.4389810931819
 20
-152.7631130260453
 30
0.0
 10
106.2360649691007
 20
-152.655281537357
 30
0.0
 10
106.212638319801
 20
-152.4943955781958
 30
0.0
 10
106.212638319801
 20
-152.3655490070475
 30
0.0
 10
106.212638319801
 20
-152.2067301051775
 30
0.0
 10
106.2570800515607
 20
-152.0630696234426
 30
0.0
 10
106.4389810931819
 20
-151.9676404785012
 30
0.0
 10
106.6315619308074
 20
-151.868421728526
 30
0.0
 10
106.8599717614795
 20
-151.8449950792263
 30
0.0
 10
107.033604573936
 20
-151.8449950792263
 30
0.0
 10
107.204825819553
 20
-151.8449950792263
 30
0.0
 10
107.4353027075162
 20
-151.8663546712348
 30
0.0
 10
107.6278835451416
 20
-151.9676404785012
 30
0.0
  0
SPLINE
  5
9C
330
97
100
AcDbEntity
  8
_U+30EC_U+30A4_U+30E4_U+30FC 1
370
     0
100
AcDbSpline
210
0.0
220
0.0
230
1.0
 70
    11
 71
     3
 72
    17
 73
    13
 74
     0
 42
0.0000000001
 43
0.0000000001
 12
1.0
 22
0.0
 32
0.0
 13
1.0
 23
0.0
 33
0.0
 40
0.0
 40
0.0
 40
0.0
 40
0.0
 40
1.0
 40
1.0
 40
1.0
 40
2.0
 40
2.0
 40
2.0
 40
3.0
 40
3.0
 40
3.0
 40
4.0
 40
4.0
 40
4.0
 40
4.0
 10
106.4052191574265
 20
-152.3655490070475
 30
0.0
 10
106.4052191574265
 20
-152.6153184297281
 30
0.0
 10
106.6887505158625
 20
-152.661827218779
 30
0.0
 10
107.033604573936
 20
-152.661827218779
 30
0.0
 10
107.3529649254187
 20
-152.661827218779
 30
0.0
 10
107.6616454808971
 20
-152.6256537161839
 30
0.0
 10
107.6616454808971
 20
-152.3655490070475
 30
0.0
 10
107.6616454808971
 20
-152.117846641658
 30
0.0
 10
107.3805256893007
 20
-152.069270795316
 30
0.0
 10
107.033604573936
 20
-152.069270795316
 30
0.0
 10
106.7138997129049
 20
-152.069270795316
 30
0.0
 10
106.4052191574265
 20
-152.1075113552023
 30
0.0
 10
106.4052191574265
 20
-152.3655490070475
 30
0.0
  0
HATCH
  5
9D
330
97
100
AcDbEntity
  8
_U+30EC_U+30A4_U+30E4_U+30FC 1
 62
     7
420
 16777215
100
AcDbHatch
 10
0.0
 20
0.0
 30
0.0
210
0.0
220
0.0
230
1.0
  2
SOLID
 70
     1
 71
     0
 91
        2
 92
        1
 93
        1
 72
     4
 94
        3
 73
     0
 74
     1
 95
       29
 96
       25
 40
0.0
 40
0.0
 40
0.0
 40
0.0
 40
1.0
 40
1.0
 40
1.0
 40
2.0
 40
2.0
 40
2.0
 40
3.0
 40
3.0
 40
3.0
 40
4.0
 40
4.0
 40
4.0
 40
5.0
 40
5.0
 40
5.0
 40
6.0
 40
6.0
 40
6.0
 40
7.0
 40
7.0
 40
7.0
 40
8.0
 40
8.0
 40
8.0
 40
8.0
 10
107.6278835451416
 20
-151.9676404785012
 10
107.8373453506448
 20
-152.075816476738
 10
107.8562933758137
 20
-152.2491047796461
 10
107.8562933758137
 20
-152.3655490070475
 10
107.8562933758137
 20
-152.5264349662087
 10
107.8097845867628
 20
-152.6680283906524
 10
107.6278835451416
 20
-152.7631130260453
 10
107.433235650225
 20
-152.8668104001514
 10
107.1965575903884
 20
-152.8861029348687
 10
107.033604573936
 20
-152.8861029348687
 10
106.8895995826526
 20
-152.8861029348687
 10
106.6377631026808
 20
-152.8688774574425
 10
106.4389810931819
 20
-152.7631130260453
 10
106.2360649691007
 20
-152.655281537357
 10
106.212638319801
 20
-152.4943955781958
 10
106.212638319801
 20
-152.3655490070475
 10
106.212638319801
 20
-152.2067301051775
 10
106.2570800515607
 20
-152.0630696234426
 10
106.4389810931819
 20
-151.9676404785012
 10
106.6315619308074
 20
-151.868421728526
 10
106.8599717614795
 20
-151.8449950792263
 10
107.033604573936
 20
-151.8449950792263
 10
107.204825819553
 20
-151.8449950792263
 10
107.4353027075162
 20
-151.8663546712348
 10
107.6278835451416
 20
-151.9676404785012
 97
        0
 97
        0
 92
        1
 93
        1
 72
     4
 94
        3
 73
     0
 74
     1
 95
       17
 96
       13
 40
0.0
 40
0.0
 40
0.0
 40
0.0
 40
1.0
 40
1.0
 40
1.0
 40
2.0
 40
2.0
 40
2.0
 40
3.0
 40
3.0
 40
3.0
 40
4.0
 40
4.0
 40
4.0
 40
4.0
 10
106.4052191574265
 20
-152.3655490070475
 10
106.4052191574265
 20
-152.6153184297281
 10
106.6887505158625
 20
-152.661827218779
 10
107.033604573936
 20
-152.661827218779
 10
107.3529649254187
 20
-152.661827218779
 10
107.6616454808971
 20
-152.6256537161839
 10
107.6616454808971
 20
-152.3655490070475
 10
107.6616454808971
 20
-152.117846641658
 10
107.3805256893007
 20
-152.069270795316
 10
107.033604573936
 20
-152.069270795316
 10
106.7138997129049
 20
-152.069270795316
 10
106.4052191574265
 20
-152.1075113552023
 10
106.4052191574265
 20
-152.3655490070475
 97
        0
 97
        0
 75
     2
 76
     1
 98
        0
  0
POLYLINE
  5
9E
330
97
100
AcDbEntity
  8
_U+30EC_U+30A4_U+30E4_U+30FC 1
370
     0
100
AcDb2dPolyline
 66
     1
 10
0.0
 20
0.0
 30
0.0
  0
VERTEX
  5
9F
330
9E
100
AcDbEntity
  8
_U+30EC_U+30A4_U+30E4_U+30FC 1
370
     0
100
AcDbVertex
100
AcDb2dVertex
 10
107.8056504721805
 20
-151.6286430827526
 30
0.0
  0
VERTEX
  5
A0
330
9E
100
AcDbEntity
  8
_U+30EC_U+30A4_U+30E4_U+30FC 1
370
     0
100
AcDbVertex
100
AcDb2dVertex
 10
107.5538139922088
 20
-151.6286430827526
 30
0.0
  0
VERTEX
  5
A1
330
9E
100
AcDbEntity
  8
_U+30EC_U+30A4_U+30E4_U+30FC 1
370
     0
100
AcDbVertex
100
AcDb2dVertex
 10
107.5538139922088
 20
-151.3768066027808
 30
0.0
  0
VERTEX
  5
A2
330
9E
100
AcDbEntity
  8
_U+30EC_U+30A4_U+30E4_U+30FC 1
370
     0
100
AcDbVertex
100
AcDb2dVertex
 10
107.8056504721805
 20
-151.3768066027808
 30
0.0
  0
VERTEX
  5
A3
330
9E
100
AcDbEntity
  8
_U+30EC_U+30A4_U+30E4_U+30FC 1
370
     0
100
AcDbVertex
100
AcDb2dVertex
 10
107.8056504721805
 20
-151.6286430827526
 30
0.0
  0
SEQEND
  5
A4
330
9E
100
AcDbEntity
  8
_U+30EC_U+30A4_U+30E4_U+30FC 1
370
     0
  0
HATCH
  5
A5
330
97
100
AcDbEntity
  8
_U+30EC_U+30A4_U+30E4_U+30FC 1
 62
     7
420
 16777215
100
AcDbHatch
 10
0.0
 20
0.0
 30
0.0
210
0.0
220
0.0
230
1.0
  2
SOLID
 70
     1
 71
     0
 91
        1
 92
        1
 93
        4
 72
     1
 10
107.8056504721805
 20
-151.6286430827526
 11
107.5538139922088
 21
-151.6286430827526
 72
     1
 10
107.5538139922088
 20
-151.6286430827526
 11
107.5538139922088
 21
-151.3768066027808
 72
     1
 10
107.5538139922088
 20
-151.3768066027808
 11
107.8056504721805
 21
-151.3768066027808
 72
     1
 10
107.8056504721805
 20
-151.3768066027808
 11
107.8056504721805
 21
-151.6286430827526
 97
        0
 75
     2
 76
     1
 98
        0
  0
SPLINE
  5
A6
330
97
100
AcDbEntity
  8
_U+30EC_U+30A4_U+30E4_U+30FC 1
370
     0
100
AcDbSpline
210
0.0
220
0.0
230
1.0
 70
    11
 71
     3
 72
    53
 73
    49
 74
     0
 42
0.0000000001
 43
0.0000000001
 12
1.0
 22
0.0
 32
0.0
 13
1.0
 23
0.0
 33
0.0
 40
0.0
 40
0.0
 40
0.0
 40
0.0
 40
1.0
 40
1.0
 40
1.0
 40
2.0
 40
2.0
 40
2.0
 40
3.0
 40
3.0
 40
3.0
 40
4.0
 40
4.0
 40
4.0
 40
5.0
 40
5.0
 40
5.0
 40
6.0
 40
6.0
 40
6.0
 40
7.0
 40
7.0
 40
7.0
 40
8.0
 40
8.0
 40
8.0
 40
9.0
 40
9.0
 40
9.0
 40
10.0
 40
10.0
 40
10.0
 40
11.0
 40
11.0
 40
11.0
 40
12.0
 40
12.0
 40
12.0
 40
13.0
 40
13.0
 40
13.0
 40
14.0
 40
14.0
 40
14.0
 40
15.0
 40
15.0
 40
15.0
 40
16.0
 40
16.0
 40
16.0
 40
16.0
 10
107.8562933758137
 20
-150.6595377227518
 30
0.0
 10
107.8562933758137
 20
-150.737741390267
 30
0.0
 10
107.839412407936
 20
-150.8393717070818
 30
0.0
 10
107.7760226510074
 20
-150.9410020238967
 30
0.0
 10
107.6661241050279
 20
-151.1142903268048
 30
0.0
 10
107.5348659670399
 20
-151.1356499188133
 30
0.0
 10
107.4270344783516
 20
-151.1545979439822
 30
0.0
 10
107.4270344783516
 20
-151.1545979439822
 30
0.0
 10
107.4270344783516
 20
-150.9323892851836
 30
0.0
 10
107.4270344783516
 20
-150.9323892851836
 30
0.0
 10
107.6258164878505
 20
-150.8776122669681
 30
0.0
 10
107.6554443090237
 20
-150.7504882435624
 30
0.0
 10
107.6554443090237
 20
-150.6574706654606
 30
0.0
 10
107.6554443090237
 20
-150.517944298308
 30
0.0
 10
107.5558810494999
 20
-150.36567107786
 30
0.0
 10
107.3233371042456
 20
-150.36567107786
 30
0.0
 10
107.0673665096915
 20
-150.36567107786
 30
0.0
 10
106.9974310713409
 20
-150.54550506219
 30
0.0
 10
106.9974310713409
 20
-150.6660834041738
 30
0.0
 10
106.9974310713409
 20
-150.6977782826381
 30
0.0
 10
106.9974310713409
 20
-150.8393717070818
 30
0.0
 10
107.1266221520378
 20
-150.9282551706013
 30
0.0
 10
107.1266221520378
 20
-150.9282551706013
 30
0.0
 10
107.1076741268689
 20
-151.103955040349
 30
0.0
 10
107.1076741268689
 20
-151.103955040349
 30
0.0
 10
107.1076741268689
 20
-151.103955040349
 30
0.0
 10
106.261214166143
 20
-150.9833766983653
 30
0.0
 10
106.261214166143
 20
-150.9833766983653
 30
0.0
 10
106.261214166143
 20
-150.9833766983653
 30
0.0
 10
106.261214166143
 20
-150.2047851186988
 30
0.0
 10
106.261214166143
 20
-150.2047851186988
 30
0.0
 10
106.261214166143
 20
-150.2047851186988
 30
0.0
 10
106.4558620610596
 20
-150.2047851186988
 30
0.0
 10
106.4558620610596
 20
-150.2047851186988
 30
0.0
 10
106.4558620610596
 20
-150.2047851186988
 30
0.0
 10
106.4558620610596
 20
-150.820423681913
 30
0.0
 10
106.4558620610596
 20
-150.820423681913
 30
0.0
 10
106.4558620610596
 20
-150.820423681913
 30
0.0
 10
106.8789197866483
 20
-150.8858804961327
 30
0.0
 10
106.8789197866483
 20
-150.8858804961327
 30
0.0
 10
106.8451578508929
 20
-150.8245577964953
 30
0.0
 10
106.8048502337155
 20
-150.7422200143978
 30
0.0
 10
106.8048502337155
 20
-150.6237087297052
 30
0.0
 10
106.8048502337155
 20
-150.3698051924423
 30
0.0
 10
106.9912298994675
 20
-150.1327826230571
 30
0.0
 10
107.3043890790767
 20
-150.1327826230571
 30
0.0
 10
107.6216823732682
 20
-150.1327826230571
 30
0.0
 10
107.8562933758137
 20
-150.3570583391468
 30
0.0
 10
107.8562933758137
 20
-150.6595377227518
 30
0.0
  0
HATCH
  5
A7
330
97
100
AcDbEntity
  8
_U+30EC_U+30A4_U+30E4_U+30FC 1
 62
     7
420
 16777215
100
AcDbHatch
 10
0.0
 20
0.0
 30
0.0
210
0.0
220
0.0
230
1.0
  2
SOLID
 70
     1
 71
     0
 91
        1
 92
        1
 93
        1
 72
     4
 94
        3
 73
     0
 74
     1
 95
       53
 96
       49
 40
0.0
 40
0.0
 40
0.0
 40
0.0
 40
1.0
 40
1.0
 40
1.0
 40
2.0
 40
2.0
 40
2.0
 40
3.0
 40
3.0
 40
3.0
 40
4.0
 40
4.0
 40
4.0
 40
5.0
 40
5.0
 40
5.0
 40
6.0
 40
6.0
 40
6.0
 40
7.0
 40
7.0
 40
7.0
 40
8.0
 40
8.0
 40
8.0
 40
9.0
 40
9.0
 40
9.0
 40
10.0
 40
10.0
 40
10.0
 40
11.0
 40
11.0
 40
11.0
 40
12.0
 40
12.0
 40
12.0
 40
13.0
 40
13.0
 40
13.0
 40
14.0
 40
14.0
 40
14.0
 40
15.0
 40
15.0
 40
15.0
 40
16.0
 40
16.0
 40
16.0
 40
16.0
 10
107.8562933758137
 20
-150.6595377227518
 10
107.8562933758137
 20
-150.737741390267
 10
107.839412407936
 20
-150.8393717070818
 10
107.7760226510074
 20
-150.9410020238967
 10
107.6661241050279
 20
-151.1142903268048
 10
107.5348659670399
 20
-151.1356499188133
 10
107.4270344783516
 20
-151.1545979439822
 10
107.4270344783516
 20
-151.1545979439822
 10
107.4270344783516
 20
-150.9323892851836
 10
107.4270344783516
 20
-150.9323892851836
 10
107.6258164878505
 20
-150.8776122669681
 10
107.6554443090237
 20
-150.7504882435624
 10
107.6554443090237
 20
-150.6574706654606
 10
107.6554443090237
 20
-150.517944298308
 10
107.5558810494999
 20
-150.36567107786
 10
107.3233371042456
 20
-150.36567107786
 10
107.0673665096915
 20
-150.36567107786
 10
106.9974310713409
 20
-150.54550506219
 10
106.9974310713409
 20
-150.6660834041738
 10
106.9974310713409
 20
-150.6977782826381
 10
106.9974310713409
 20
-150.8393717070818
 10
107.1266221520378
 20
-150.9282551706013
 10
107.1266221520378
 20
-150.9282551706013
 10
107.1076741268689
 20
-151.103955040349
 10
107.1076741268689
 20
-151.103955040349
 10
107.1076741268689
 20
-151.103955040349
 10
106.261214166143
 20
-150.9833766983653
 10
106.261214166143
 20
-150.9833766983653
 10
106.261214166143
 20
-150.9833766983653
 10
106.261214166143
 20
-150.2047851186988
 10
106.261214166143
 20
-150.2047851186988
 10
106.261214166143
 20
-150.2047851186988
 10
106.4558620610596
 20
-150.2047851186988
 10
106.4558620610596
 20
-150.2047851186988
 10
106.4558620610596
 20
-150.2047851186988
 10
106.4558620610596
 20
-150.820423681913
 10
106.4558620610596
 20
-150.820423681913
 10
106.4558620610596
 20
-150.820423681913
 10
106.8789197866483
 20
-150.8858804961327
 10
106.8789197866483
 20
-150.8858804961327
 10
106.8451578508929
 20
-150.8245577964953
 10
106.8048502337155
 20
-150.7422200143978
 10
106.8048502337155
 20
-150.6237087297052
 10
106.8048502337155
 20
-150.3698051924423
 10
106.9912298994675
 20
-150.1327826230571
 10
107.3043890790767
 20
-150.1327826230571
 10
107.6216823732682
 20
-150.1327826230571
 10
107.8562933758137
 20
-150.3570583391468
 10
107.8562933758137
 20
-150.6595377227518
 97
        0
 97
        0
 75
     2
 76
     1
 98
        0
  0
ENDBLK
  5
9A
330
97
100
AcDbEntity
  8
0
100
AcDbBlockEnd
  0
BLOCK
  5
B6
330
B4
100
AcDbEntity
  8
0
100
AcDbBlockBegin
  2
block 4
 70
     0
 10
0.0
 20
0.0
 30
0.0
  3
block 4
  1

  0
SPLINE
  5
B8
330
B4
100
AcDbEntity
  8
_U+30EC_U+30A4_U+30E4_U+30FC 1
370
     0
100
AcDbSpline
210
0.0
220
0.0
230
1.0
 70
    11
 71
     3
 72
    26
 73
    22
 74
     0
 42
0.0000000001
 43
0.0000000001
 12
1.0
 22
0.0
 32
0.0
 13
1.0
 23
0.0
 33
0.0
 40
0.0
 40
0.0
 40
0.0
 40
0.0
 40
1.0
 40
1.0
 40
1.0
 40
2.0
 40
2.0
 40
2.0
 40
3.0
 40
3.0
 40
3.0
 40
4.0
 40
4.0
 40
4.0
 40
5.0
 40
5.0
 40
5.0
 40
6.0
 40
6.0
 40
6.0
 40
7.0
 40
7.0
 40
7.0
 40
7.0
 10
99.39479435449158
 20
-158.2487385672086
 30
0.0
 10
99.39479435449158
 20
-158.2487385672086
 30
0.0
 10
99.39479435449158
 20
-157.1445854641861
 30
0.0
 10
99.39479435449158
 20
-157.1445854641861
 30
0.0
 10
99.39479435449158
 20
-157.1445854641861
 30
0.0
 10
99.06475420700465
 20
-157.1445854641861
 30
0.0
 10
99.06475420700465
 20
-157.1445854641861
 30
0.0
 10
99.06475420700465
 20
-157.1445854641861
 30
0.0
 10
99.06475420700465
 20
-156.9964463583203
 30
0.0
 10
99.06475420700465
 20
-156.9964463583203
 30
0.0
 10
99.39686141178274
 20
-156.9816324477338
 30
0.0
 10
99.44337020083361
 20
-156.8186794312815
 30
0.0
 10
99.47299802200675
 20
-156.7043022611712
 30
0.0
 10
99.47299802200675
 20
-156.7043022611712
 30
0.0
 10
99.61907007058134
 20
-156.7043022611712
 30
0.0
 10
99.61907007058134
 20
-156.7043022611712
 30
0.0
 10
99.61907007058134
 20
-156.7043022611712
 30
0.0
 10
99.61907007058134
 20
-158.2487385672086
 30
0.0
 10
99.61907007058134
 20
-158.2487385672086
 30
0.0
 10
99.61907007058134
 20
-158.2487385672086
 30
0.0
 10
99.39479435449158
 20
-158.2487385672086
 30
0.0
 10
99.39479435449158
 20
-158.2487385672086
 30
0.0
  0
HATCH
  5
B9
330
B4
100
AcDbEntity
  8
_U+30EC_U+30A4_U+30E4_U+30FC 1
 62
     7
420
 16777215
100
AcDbHatch
 10
0.0
 20
0.0
 30
0.0
210
0.0
220
0.0
230
1.0
  2
SOLID
 70
     1
 71
     0
 91
        1
 92
        1
 93
        1
 72
     4
 94
        3
 73
     0
 74
     1
 95
       26
 96
       22
 40
0.0
 40
0.0
 40
0.0
 40
0.0
 40
1.0
 40
1.0
 40
1.0
 40
2.0
 40
2.0
 40
2.0
 40
3.0
 40
3.0
 40
3.0
 40
4.0
 40
4.0
 40
4.0
 40
5.0
 40
5.0
 40
5.0
 40
6.0
 40
6.0
 40
6.0
 40
7.0
 40
7.0
 40
7.0
 40
7.0
 10
99.39479435449158
 20
-158.2487385672086
 10
99.39479435449158
 20
-158.2487385672086
 10
99.39479435449158
 20
-157.1445854641861
 10
99.39479435449158
 20
-157.1445854641861
 10
99.39479435449158
 20
-157.1445854641861
 10
99.06475420700465
 20
-157.1445854641861
 10
99.06475420700465
 20
-157.1445854641861
 10
99.06475420700465
 20
-157.1445854641861
 10
99.06475420700465
 20
-156.9964463583203
 10
99.06475420700465
 20
-156.9964463583203
 10
99.39686141178274
 20
-156.9816324477338
 10
99.44337020083361
 20
-156.8186794312815
 10
99.47299802200675
 20
-156.7043022611712
 10
99.47299802200675
 20
-156.7043022611712
 10
99.61907007058134
 20
-156.7043022611712
 10
99.61907007058134
 20
-156.7043022611712
 10
99.61907007058134
 20
-156.7043022611712
 10
99.61907007058134
 20
-158.2487385672086
 10
99.61907007058134
 20
-158.2487385672086
 10
99.61907007058134
 20
-158.2487385672086
 10
99.39479435449158
 20
-158.2487385672086
 10
99.39479435449158
 20
-158.2487385672086
 97
        0
 97
        0
 75
     2
 76
     1
 98
        0
  0
SPLINE
  5
BA
330
B4
100
AcDbEntity
  8
_U+30EC_U+30A4_U+30E4_U+30FC 1
370
     0
100
AcDbSpline
210
0.0
220
0.0
230
1.0
 70
    11
 71
     3
 72
    29
 73
    25
 74
     0
 42
0.0000000001
 43
0.0000000001
 12
1.0
 22
0.0
 32
0.0
 13
1.0
 23
0.0
 33
0.0
 40
0.0
 40
0.0
 40
0.0
 40
0.0
 40
1.0
 40
1.0
 40
1.0
 40
2.0
 40
2.0
 40
2.0
 40
3.0
 40
3.0
 40
3.0
 40
4.0
 40
4.0
 40
4.0
 40
5.0
 40
5.0
 40
5.0
 40
6.0
 40
6.0
 40
6.0
 40
7.0
 40
7.0
 40
7.0
 40
8.0
 40
8.0
 40
8.0
 40
8.0
 10
101.0181233471413
 20
-158.0709716401698
 30
0.0
 10
100.9099473489045
 20
-158.2804334456729
 30
0.0
 10
100.7366590459964
 20
-158.2993814708418
 30
0.0
 10
100.6202148185949
 20
-158.2993814708418
 30
0.0
 10
100.4593288594338
 20
-158.2993814708418
 30
0.0
 10
100.31773543499
 20
-158.252872681791
 30
0.0
 10
100.2226507995971
 20
-158.0709716401698
 30
0.0
 10
100.1189534254911
 20
-157.8763237452532
 30
0.0
 10
100.0996608907737
 20
-157.6396456854165
 30
0.0
 10
100.0996608907737
 20
-157.4766926689642
 30
0.0
 10
100.0996608907737
 20
-157.3326876776807
 30
0.0
 10
100.1168863681999
 20
-157.080851197709
 30
0.0
 10
100.2226507995971
 20
-156.88206918821
 30
0.0
 10
100.3304822882854
 20
-156.6791530641288
 30
0.0
 10
100.4913682474466
 20
-156.6557264148291
 30
0.0
 10
100.6202148185949
 20
-156.6557264148291
 30
0.0
 10
100.779033720465
 20
-156.6557264148291
 30
0.0
 10
100.9226942021999
 20
-156.7001681465889
 30
0.0
 10
101.0181233471413
 20
-156.88206918821
 30
0.0
 10
101.1173420971165
 20
-157.0746500258355
 30
0.0
 10
101.1407687464162
 20
-157.3030598565076
 30
0.0
 10
101.1407687464162
 20
-157.4766926689642
 30
0.0
 10
101.1407687464162
 20
-157.6479139145811
 30
0.0
 10
101.1194091544076
 20
-157.8783908025443
 30
0.0
 10
101.0181233471413
 20
-158.0709716401698
 30
0.0
  0
SPLINE
  5
BB
330
B4
100
AcDbEntity
  8
_U+30EC_U+30A4_U+30E4_U+30FC 1
370
     0
100
AcDbSpline
210
0.0
220
0.0
230
1.0
 70
    11
 71
     3
 72
    17
 73
    13
 74
     0
 42
0.0000000001
 43
0.0000000001
 12
1.0
 22
0.0
 32
0.0
 13
1.0
 23
0.0
 33
0.0
 40
0.0
 40
0.0
 40
0.0
 40
0.0
 40
1.0
 40
1.0
 40
1.0
 40
2.0
 40
2.0
 40
2.0
 40
3.0
 40
3.0
 40
3.0
 40
4.0
 40
4.0
 40
4.0
 40
4.0
 10
100.6202148185949
 20
-156.8483072524546
 30
0.0
 10
100.3704453959143
 20
-156.8483072524546
 30
0.0
 10
100.3239366068635
 20
-157.1318386108907
 30
0.0
 10
100.3239366068635
 20
-157.4766926689642
 30
0.0
 10
100.3239366068635
 20
-157.7960530204468
 30
0.0
 10
100.3601101094586
 20
-158.1047335759252
 30
0.0
 10
100.6202148185949
 20
-158.1047335759252
 30
0.0
 10
100.8679171839844
 20
-158.1047335759252
 30
0.0
 10
100.9164930303264
 20
-157.8236137843288
 30
0.0
 10
100.9164930303264
 20
-157.4766926689642
 30
0.0
 10
100.9164930303264
 20
-157.156987807933
 30
0.0
 10
100.8782524704402
 20
-156.8483072524546
 30
0.0
 10
100.6202148185949
 20
-156.8483072524546
 30
0.0
  0
HATCH
  5
BC
330
B4
100
AcDbEntity
  8
_U+30EC_U+30A4_U+30E4_U+30FC 1
 62
     7
420
 16777215
100
AcDbHatch
 10
0.0
 20
0.0
 30
0.0
210
0.0
220
0.0
230
1.0
  2
SOLID
 70
     1
 71
     0
 91
        2
 92
        1
 93
        1
 72
     4
 94
        3
 73
     0
 74
     1
 95
       29
 96
       25
 40
0.0
 40
0.0
 40
0.0
 40
0.0
 40
1.0
 40
1.0
 40
1.0
 40
2.0
 40
2.0
 40
2.0
 40
3.0
 40
3.0
 40
3.0
 40
4.0
 40
4.0
 40
4.0
 40
5.0
 40
5.0
 40
5.0
 40
6.0
 40
6.0
 40
6.0
 40
7.0
 40
7.0
 40
7.0
 40
8.0
 40
8.0
 40
8.0
 40
8.0
 10
101.0181233471413
 20
-158.0709716401698
 10
100.9099473489045
 20
-158.2804334456729
 10
100.7366590459964
 20
-158.2993814708418
 10
100.6202148185949
 20
-158.2993814708418
 10
100.4593288594338
 20
-158.2993814708418
 10
100.31773543499
 20
-158.252872681791
 10
100.2226507995971
 20
-158.0709716401698
 10
100.1189534254911
 20
-157.8763237452532
 10
100.0996608907737
 20
-157.6396456854165
 10
100.0996608907737
 20
-157.4766926689642
 10
100.0996608907737
 20
-157.3326876776807
 10
100.1168863681999
 20
-157.080851197709
 10
100.2226507995971
 20
-156.88206918821
 10
100.3304822882854
 20
-156.6791530641288
 10
100.4913682474466
 20
-156.6557264148291
 10
100.6202148185949
 20
-156.6557264148291
 10
100.779033720465
 20
-156.6557264148291
 10
100.9226942021999
 20
-156.7001681465889
 10
101.0181233471413
 20
-156.88206918821
 10
101.1173420971165
 20
-157.0746500258355
 10
101.1407687464162
 20
-157.3030598565076
 10
101.1407687464162
 20
-157.4766926689642
 10
101.1407687464162
 20
-157.6479139145811
 10
101.1194091544076
 20
-157.8783908025443
 10
101.0181233471413
 20
-158.0709716401698
 97
        0
 97
        0
 92
        1
 93
        1
 72
     4
 94
        3
 73
     0
 74
     1
 95
       17
 96
       13
 40
0.0
 40
0.0
 40
0.0
 40
0.0
 40
1.0
 40
1.0
 40
1.0
 40
2.0
 40
2.0
 40
2.0
 40
3.0
 40
3.0
 40
3.0
 40
4.0
 40
4.0
 40
4.0
 40
4.0
 10
100.6202148185949
 20
-156.8483072524546
 10
100.3704453959143
 20
-156.8483072524546
 10
100.3239366068635
 20
-157.1318386108907
 10
100.3239366068635
 20
-157.4766926689642
 10
100.3239366068635
 20
-157.7960530204468
 10
100.3601101094586
 20
-158.1047335759252
 10
100.6202148185949
 20
-158.1047335759252
 10
100.8679171839844
 20
-158.1047335759252
 10
100.9164930303264
 20
-157.8236137843288
 10
100.9164930303264
 20
-157.4766926689642
 10
100.9164930303264
 20
-157.156987807933
 10
100.8782524704402
 20
-156.8483072524546
 10
100.6202148185949
 20
-156.8483072524546
 97
        0
 97
        0
 75
     2
 76
     1
 98
        0
  0
ENDBLK
  5
B7
330
B4
100
AcDbEntity
  8
0
100
AcDbBlockEnd
  0
BLOCK
  5
CB
330
C9
100
AcDbEntity
  8
0
100
AcDbBlockBegin
  2
block 5
 70
     0
 10
0.0
 20
0.0
 30
0.0
  3
block 5
  1

  0
SPLINE
  5
CD
330
C9
100
AcDbEntity
  8
_U+30EC_U+30A4_U+30E4_U+30FC 1
370
     0
100
AcDbSpline
210
0.0
220
0.0
230
1.0
 70
    11
 71
     3
 72
    62
 73
    58
 74
     0
 42
0.0000000001
 43
0.0000000001
 12
1.0
 22
0.0
 32
0.0
 13
1.0
 23
0.0
 33
0.0
 40
0.0
 40
0.0
 40
0.0
 40
0.0
 40
1.0
 40
1.0
 40
1.0
 40
2.0
 40
2.0
 40
2.0
 40
3.0
 40
3.0
 40
3.0
 40
4.0
 40
4.0
 40
4.0
 40
5.0
 40
5.0
 40
5.0
 40
6.0
 40
6.0
 40
6.0
 40
7.0
 40
7.0
 40
7.0
 40
8.0
 40
8.0
 40
8.0
 40
9.0
 40
9.0
 40
9.0
 40
10.0
 40
10.0
 40
10.0
 40
11.0
 40
11.0
 40
11.0
 40
12.0
 40
12.0
 40
12.0
 40
13.0
 40
13.0
 40
13.0
 40
14.0
 40
14.0
 40
14.0
 40
15.0
 40
15.0
 40
15.0
 40
16.0
 40
16.0
 40
16.0
 40
17.0
 40
17.0
 40
17.0
 40
18.0
 40
18.0
 40
18.0
 40
19.0
 40
19.0
 40
19.0
 40
19.0
 10
101.9352077653148
 20
-135.0995917088466
 30
0.0
 10
101.8397786203734
 20
-135.0995917088466
 30
0.0
 10
101.6220485857056
 20
-135.0784043716124
 30
0.0
 10
101.496991619591
 20
-134.8921969606346
 30
0.0
 10
101.4232665762067
 20
-134.7800591025897
 30
0.0
 10
101.4187879520759
 20
-134.6806680978403
 30
0.0
 10
101.4146538374936
 20
-134.5960910036774
 30
0.0
 10
101.4146538374936
 20
-134.5960910036774
 30
0.0
 10
101.634795439001
 20
-134.5960910036774
 30
0.0
 10
101.634795439001
 20
-134.5960910036774
 30
0.0
 10
101.6368624962922
 20
-134.6701605566103
 30
0.0
 10
101.6471977827479
 20
-134.90494381393
 30
0.0
 10
101.930729141184
 20
-134.90494381393
 30
0.0
 10
102.0681884510455
 20
-134.90494381393
 30
0.0
 10
102.220806181042
 20
-134.8351806303537
 30
0.0
 10
102.220806181042
 20
-134.6065985449074
 30
0.0
 10
102.220806181042
 20
-134.4903265722802
 30
0.0
 10
102.1825656211557
 20
-134.4415784711639
 30
0.0
 10
102.1508707426915
 20
-134.4098835926996
 30
0.0
 10
102.0768011897586
 20
-134.3358140397667
 30
0.0
 10
101.9603569623571
 20
-134.3232394412456
 30
0.0
 10
101.9055799441417
 20
-134.3232394412456
 30
0.0
 10
101.8862874094243
 20
-134.3232394412456
 30
0.0
 10
101.8504584163777
 20
-134.3253064985367
 30
0.0
 10
101.8228976524957
 20
-134.329440613119
 30
0.0
 10
101.8228976524957
 20
-134.329440613119
 30
0.0
 10
101.8228976524957
 20
-134.1347927182024
 30
0.0
 10
101.8228976524957
 20
-134.1347927182024
 30
0.0
 10
101.8611382123819
 20
-134.1411661448501
 30
0.0
 10
101.903168377302
 20
-134.1434054569155
 30
0.0
 10
101.909714058724
 20
-134.1434054569155
 30
0.0
 10
101.9751708729437
 20
-134.1434054569155
 30
0.0
 10
102.1739528824426
 20
-134.1222181196813
 30
0.0
 10
102.1739528824426
 20
-133.8851955502961
 30
0.0
 10
102.1739528824426
 20
-133.7076008780314
 30
0.0
 10
102.0430392540031
 20
-133.6524793502674
 30
0.0
 10
101.9327961984751
 20
-133.6524793502674
 30
0.0
 10
101.6685573747565
 20
-133.6524793502674
 30
0.0
 10
101.6599446360433
 20
-133.8851955502961
 30
0.0
 10
101.655810521461
 20
-133.9571980459378
 30
0.0
 10
101.655810521461
 20
-133.9571980459378
 30
0.0
 10
101.4525498878313
 20
-133.9571980459378
 30
0.0
 10
101.4525498878313
 20
-133.9571980459378
 30
0.0
 10
101.4611626265444
 20
-133.8323133345975
 30
0.0
 10
101.4887233904264
 20
-133.4557643980597
 30
0.0
 10
101.9455430517706
 20
-133.4557643980597
 30
0.0
 10
102.1698187678603
 20
-133.4557643980597
 30
0.0
 10
102.4109754518278
 20
-133.5827161666911
 30
0.0
 10
102.4109754518278
 20
-133.8788221236483
 30
0.0
 10
102.4109754518278
 20
-134.0650295346261
 30
0.0
 10
102.3158908164349
 20
-134.1475395714978
 30
0.0
 10
102.2163275569112
 20
-134.2088622711353
 30
0.0
 10
102.2776502565487
 20
-134.2364230350173
 30
0.0
 10
102.4595512981698
 20
-134.3168660145979
 30
0.0
 10
102.4595512981698
 20
-134.5940239463862
 30
0.0
 10
102.4595512981698
 20
-134.932504577812
 30
0.0
 10
102.2121934423289
 20
-135.0995917088466
 30
0.0
 10
101.9352077653148
 20
-135.0995917088466
 30
0.0
  0
HATCH
  5
CE
330
C9
100
AcDbEntity
  8
_U+30EC_U+30A4_U+30E4_U+30FC 1
 62
     7
420
 16777215
100
AcDbHatch
 10
0.0
 20
0.0
 30
0.0
210
0.0
220
0.0
230
1.0
  2
SOLID
 70
     1
 71
     0
 91
        1
 92
        1
 93
        1
 72
     4
 94
        3
 73
     0
 74
     1
 95
       62
 96
       58
 40
0.0
 40
0.0
 40
0.0
 40
0.0
 40
1.0
 40
1.0
 40
1.0
 40
2.0
 40
2.0
 40
2.0
 40
3.0
 40
3.0
 40
3.0
 40
4.0
 40
4.0
 40
4.0
 40
5.0
 40
5.0
 40
5.0
 40
6.0
 40
6.0
 40
6.0
 40
7.0
 40
7.0
 40
7.0
 40
8.0
 40
8.0
 40
8.0
 40
9.0
 40
9.0
 40
9.0
 40
10.0
 40
10.0
 40
10.0
 40
11.0
 40
11.0
 40
11.0
 40
12.0
 40
12.0
 40
12.0
 40
13.0
 40
13.0
 40
13.0
 40
14.0
 40
14.0
 40
14.0
 40
15.0
 40
15.0
 40
15.0
 40
16.0
 40
16.0
 40
16.0
 40
17.0
 40
17.0
 40
17.0
 40
18.0
 40
18.0
 40
18.0
 40
19.0
 40
19.0
 40
19.0
 40
19.0
 10
101.9352077653148
 20
-135.0995917088466
 10
101.8397786203734
 20
-135.0995917088466
 10
101.6220485857056
 20
-135.0784043716124
 10
101.496991619591
 20
-134.8921969606346
 10
101.4232665762067
 20
-134.7800591025897
 10
101.4187879520759
 20
-134.6806680978403
 10
101.4146538374936
 20
-134.5960910036774
 10
101.4146538374936
 20
-134.5960910036774
 10
101.634795439001
 20
-134.5960910036774
 10
101.634795439001
 20
-134.5960910036774
 10
101.6368624962922
 20
-134.6701605566103
 10
101.6471977827479
 20
-134.90494381393
 10
101.930729141184
 20
-134.90494381393
 10
102.0681884510455
 20
-134.90494381393
 10
102.220806181042
 20
-134.8351806303537
 10
102.220806181042
 20
-134.6065985449074
 10
102.220806181042
 20
-134.4903265722802
 10
102.1825656211557
 20
-134.4415784711639
 10
102.1508707426915
 20
-134.4098835926996
 10
102.0768011897586
 20
-134.3358140397667
 10
101.9603569623571
 20
-134.3232394412456
 10
101.9055799441417
 20
-134.3232394412456
 10
101.8862874094243
 20
-134.3232394412456
 10
101.8504584163777
 20
-134.3253064985367
 10
101.8228976524957
 20
-134.329440613119
 10
101.8228976524957
 20
-134.329440613119
 10
101.8228976524957
 20
-134.1347927182024
 10
101.8228976524957
 20
-134.1347927182024
 10
101.8611382123819
 20
-134.1411661448501
 10
101.903168377302
 20
-134.1434054569155
 10
101.909714058724
 20
-134.1434054569155
 10
101.9751708729437
 20
-134.1434054569155
 10
102.1739528824426
 20
-134.1222181196813
 10
102.1739528824426
 20
-133.8851955502961
 10
102.1739528824426
 20
-133.7076008780314
 10
102.0430392540031
 20
-133.6524793502674
 10
101.9327961984751
 20
-133.6524793502674
 10
101.6685573747565
 20
-133.6524793502674
 10
101.6599446360433
 20
-133.8851955502961
 10
101.655810521461
 20
-133.9571980459378
 10
101.655810521461
 20
-133.9571980459378
 10
101.4525498878313
 20
-133.9571980459378
 10
101.4525498878313
 20
-133.9571980459378
 10
101.4611626265444
 20
-133.8323133345975
 10
101.4887233904264
 20
-133.4557643980597
 10
101.9455430517706
 20
-133.4557643980597
 10
102.1698187678603
 20
-133.4557643980597
 10
102.4109754518278
 20
-133.5827161666911
 10
102.4109754518278
 20
-133.8788221236483
 10
102.4109754518278
 20
-134.0650295346261
 10
102.3158908164349
 20
-134.1475395714978
 10
102.2163275569112
 20
-134.2088622711353
 10
102.2776502565487
 20
-134.2364230350173
 10
102.4595512981698
 20
-134.3168660145979
 10
102.4595512981698
 20
-134.5940239463862
 10
102.4595512981698
 20
-134.932504577812
 10
102.2121934423289
 20
-135.0995917088466
 10
101.9352077653148
 20
-135.0995917088466
 97
        0
 97
        0
 75
     2
 76
     1
 98
        0
  0
SPLINE
  5
CF
330
C9
100
AcDbEntity
  8
_U+30EC_U+30A4_U+30E4_U+30FC 1
370
     0
100
AcDbSpline
210
0.0
220
0.0
230
1.0
 70
    11
 71
     3
 72
    53
 73
    49
 74
     0
 42
0.0000000001
 43
0.0000000001
 12
1.0
 22
0.0
 32
0.0
 13
1.0
 23
0.0
 33
0.0
 40
0.0
 40
0.0
 40
0.0
 40
0.0
 40
1.0
 40
1.0
 40
1.0
 40
2.0
 40
2.0
 40
2.0
 40
3.0
 40
3.0
 40
3.0
 40
4.0
 40
4.0
 40
4.0
 40
5.0
 40
5.0
 40
5.0
 40
6.0
 40
6.0
 40
6.0
 40
7.0
 40
7.0
 40
7.0
 40
8.0
 40
8.0
 40
8.0
 40
9.0
 40
9.0
 40
9.0
 40
10.0
 40
10.0
 40
10.0
 40
11.0
 40
11.0
 40
11.0
 40
12.0
 40
12.0
 40
12.0
 40
13.0
 40
13.0
 40
13.0
 40
14.0
 40
14.0
 40
14.0
 40
15.0
 40
15.0
 40
15.0
 40
16.0
 40
16.0
 40
16.0
 40
16.0
 10
103.1013725870719
 20
-135.0995917088466
 30
0.0
 10
103.0231689195567
 20
-135.0995917088466
 30
0.0
 10
102.9215386027418
 20
-135.0825384861946
 30
0.0
 10
102.819908285927
 20
-135.019148729266
 30
0.0
 10
102.6466199830189
 20
-134.9090779285123
 30
0.0
 10
102.6252603910104
 20
-134.7779920452986
 30
0.0
 10
102.6063123658415
 20
-134.6701605566103
 30
0.0
 10
102.6063123658415
 20
-134.6701605566103
 30
0.0
 10
102.8285210246401
 20
-134.6701605566103
 30
0.0
 10
102.8285210246401
 20
-134.6701605566103
 30
0.0
 10
102.8832980428556
 20
-134.8689425661092
 30
0.0
 10
103.0104220662613
 20
-134.8985703872823
 30
0.0
 10
103.103439644363
 20
-134.8985703872823
 30
0.0
 10
103.2429660115156
 20
-134.8985703872823
 30
0.0
 10
103.3952392319637
 20
-134.7991793825329
 30
0.0
 10
103.3952392319637
 20
-134.5664631825042
 30
0.0
 10
103.3952392319637
 20
-134.3104925879502
 30
0.0
 10
103.2154052476337
 20
-134.2407294043738
 30
0.0
 10
103.0948269056499
 20
-134.2407294043738
 30
0.0
 10
103.0631320271856
 20
-134.2407294043738
 30
0.0
 10
102.9215386027418
 20
-134.2407294043738
 30
0.0
 10
102.8326551392224
 20
-134.3697482302965
 30
0.0
 10
102.8326551392224
 20
-134.3697482302965
 30
0.0
 10
102.6569552694747
 20
-134.3506279503533
 30
0.0
 10
102.6569552694747
 20
-134.3506279503533
 30
0.0
 10
102.6569552694747
 20
-134.3506279503533
 30
0.0
 10
102.7775336114584
 20
-133.504512499176
 30
0.0
 10
102.7775336114584
 20
-133.504512499176
 30
0.0
 10
102.7775336114584
 20
-133.504512499176
 30
0.0
 10
103.5561251911249
 20
-133.504512499176
 30
0.0
 10
103.5561251911249
 20
-133.504512499176
 30
0.0
 10
103.5561251911249
 20
-133.504512499176
 30
0.0
 10
103.5561251911249
 20
-133.6991603940926
 30
0.0
 10
103.5561251911249
 20
-133.6991603940926
 30
0.0
 10
103.5561251911249
 20
-133.6991603940926
 30
0.0
 10
102.9404866279107
 20
-133.6991603940926
 30
0.0
 10
102.9404866279107
 20
-133.6991603940926
 30
0.0
 10
102.9404866279107
 20
-133.6991603940926
 30
0.0
 10
102.875029813691
 20
-134.1222181196813
 30
0.0
 10
102.875029813691
 20
-134.1222181196813
 30
0.0
 10
102.9363525133284
 20
-134.0882839291515
 30
0.0
 10
103.0186902954259
 20
-134.0481485667484
 30
0.0
 10
103.1372015801185
 20
-134.0481485667484
 30
0.0
 10
103.3911051173814
 20
-134.0481485667484
 30
0.0
 10
103.6281276867666
 20
-134.2343559777262
 30
0.0
 10
103.6281276867666
 20
-134.5473429025611
 30
0.0
 10
103.6281276867666
 20
-134.8648084515269
 30
0.0
 10
103.4038519706768
 20
-135.0995917088466
 30
0.0
 10
103.1013725870719
 20
-135.0995917088466
 30
0.0
  0
HATCH
  5
D0
330
C9
100
AcDbEntity
  8
_U+30EC_U+30A4_U+30E4_U+30FC 1
 62
     7
420
 16777215
100
AcDbHatch
 10
0.0
 20
0.0
 30
0.0
210
0.0
220
0.0
230
1.0
  2
SOLID
 70
     1
 71
     0
 91
        1
 92
        1
 93
        1
 72
     4
 94
        3
 73
     0
 74
     1
 95
       53
 96
       49
 40
0.0
 40
0.0
 40
0.0
 40
0.0
 40
1.0
 40
1.0
 40
1.0
 40
2.0
 40
2.0
 40
2.0
 40
3.0
 40
3.0
 40
3.0
 40
4.0
 40
4.0
 40
4.0
 40
5.0
 40
5.0
 40
5.0
 40
6.0
 40
6.0
 40
6.0
 40
7.0
 40
7.0
 40
7.0
 40
8.0
 40
8.0
 40
8.0
 40
9.0
 40
9.0
 40
9.0
 40
10.0
 40
10.0
 40
10.0
 40
11.0
 40
11.0
 40
11.0
 40
12.0
 40
12.0
 40
12.0
 40
13.0
 40
13.0
 40
13.0
 40
14.0
 40
14.0
 40
14.0
 40
15.0
 40
15.0
 40
15.0
 40
16.0
 40
16.0
 40
16.0
 40
16.0
 10
103.1013725870719
 20
-135.0995917088466
 10
103.0231689195567
 20
-135.0995917088466
 10
102.9215386027418
 20
-135.0825384861946
 10
102.819908285927
 20
-135.019148729266
 10
102.6466199830189
 20
-134.9090779285123
 10
102.6252603910104
 20
-134.7779920452986
 10
102.6063123658415
 20
-134.6701605566103
 10
102.6063123658415
 20
-134.6701605566103
 10
102.8285210246401
 20
-134.6701605566103
 10
102.8285210246401
 20
-134.6701605566103
 10
102.8832980428556
 20
-134.8689425661092
 10
103.0104220662613
 20
-134.8985703872823
 10
103.103439644363
 20
-134.8985703872823
 10
103.2429660115156
 20
-134.8985703872823
 10
103.3952392319637
 20
-134.7991793825329
 10
103.3952392319637
 20
-134.5664631825042
 10
103.3952392319637
 20
-134.3104925879502
 10
103.2154052476337
 20
-134.2407294043738
 10
103.0948269056499
 20
-134.2407294043738
 10
103.0631320271856
 20
-134.2407294043738
 10
102.9215386027418
 20
-134.2407294043738
 10
102.8326551392224
 20
-134.3697482302965
 10
102.8326551392224
 20
-134.3697482302965
 10
102.6569552694747
 20
-134.3506279503533
 10
102.6569552694747
 20
-134.3506279503533
 10
102.6569552694747
 20
-134.3506279503533
 10
102.7775336114584
 20
-133.504512499176
 10
102.7775336114584
 20
-133.504512499176
 10
102.7775336114584
 20
-133.504512499176
 10
103.5561251911249
 20
-133.504512499176
 10
103.5561251911249
 20
-133.504512499176
 10
103.5561251911249
 20
-133.504512499176
 10
103.5561251911249
 20
-133.6991603940926
 10
103.5561251911249
 20
-133.6991603940926
 10
103.5561251911249
 20
-133.6991603940926
 10
102.9404866279107
 20
-133.6991603940926
 10
102.9404866279107
 20
-133.6991603940926
 10
102.9404866279107
 20
-133.6991603940926
 10
102.875029813691
 20
-134.1222181196813
 10
102.875029813691
 20
-134.1222181196813
 10
102.9363525133284
 20
-134.0882839291515
 10
103.0186902954259
 20
-134.0481485667484
 10
103.1372015801185
 20
-134.0481485667484
 10
103.3911051173814
 20
-134.0481485667484
 10
103.6281276867666
 20
-134.2343559777262
 10
103.6281276867666
 20
-134.5473429025611
 10
103.6281276867666
 20
-134.8648084515269
 10
103.4038519706768
 20
-135.0995917088466
 10
103.1013725870719
 20
-135.0995917088466
 97
        0
 97
        0
 75
     2
 76
     1
 98
        0
  0
ENDBLK
  5
CC
330
C9
100
AcDbEntity
  8
0
100
AcDbBlockEnd
  0
BLOCK
  5
DB
330
D9
100
AcDbEntity
  8
0
100
AcDbBlockBegin
  2
block 6
 70
     0
 10
0.0
 20
0.0
 30
0.0
  3
block 6
  1

  0
SPLINE
  5
DD
330
D9
100
AcDbEntity
  8
_U+30EC_U+30A4_U+30E4_U+30FC 1
370
     0
100
AcDbSpline
210
0.0
220
0.0
230
1.0
 70
    11
 71
     3
 72
    26
 73
    22
 74
     0
 42
0.0000000001
 43
0.0000000001
 12
1.0
 22
0.0
 32
0.0
 13
1.0
 23
0.0
 33
0.0
 40
0.0
 40
0.0
 40
0.0
 40
0.0
 40
1.0
 40
1.0
 40
1.0
 40
2.0
 40
2.0
 40
2.0
 40
3.0
 40
3.0
 40
3.0
 40
4.0
 40
4.0
 40
4.0
 40
5.0
 40
5.0
 40
5.0
 40
6.0
 40
6.0
 40
6.0
 40
7.0
 40
7.0
 40
7.0
 40
7.0
 10
89.39488794423114
 20
-158.2487385672086
 30
0.0
 10
89.39488794423114
 20
-158.2487385672086
 30
0.0
 10
89.39488794423114
 20
-157.1445854641861
 30
0.0
 10
89.39488794423114
 20
-157.1445854641861
 30
0.0
 10
89.39488794423114
 20
-157.1445854641861
 30
0.0
 10
89.0648477967442
 20
-157.1445854641861
 30
0.0
 10
89.0648477967442
 20
-157.1445854641861
 30
0.0
 10
89.0648477967442
 20
-157.1445854641861
 30
0.0
 10
89.0648477967442
 20
-156.9964463583203
 30
0.0
 10
89.0648477967442
 20
-156.9964463583203
 30
0.0
 10
89.39695500152229
 20
-156.9816324477338
 30
0.0
 10
89.44346379057316
 20
-156.8186794312815
 30
0.0
 10
89.47309161174631
 20
-156.7043022611712
 30
0.0
 10
89.47309161174631
 20
-156.7043022611712
 30
0.0
 10
89.61916366032091
 20
-156.7043022611712
 30
0.0
 10
89.61916366032091
 20
-156.7043022611712
 30
0.0
 10
89.61916366032091
 20
-156.7043022611712
 30
0.0
 10
89.61916366032091
 20
-158.2487385672086
 30
0.0
 10
89.61916366032091
 20
-158.2487385672086
 30
0.0
 10
89.61916366032091
 20
-158.2487385672086
 30
0.0
 10
89.39488794423114
 20
-158.2487385672086
 30
0.0
 10
89.39488794423114
 20
-158.2487385672086
 30
0.0
  0
HATCH
  5
DE
330
D9
100
AcDbEntity
  8
_U+30EC_U+30A4_U+30E4_U+30FC 1
 62
     7
420
 16777215
100
AcDbHatch
 10
0.0
 20
0.0
 30
0.0
210
0.0
220
0.0
230
1.0
  2
SOLID
 70
     1
 71
     0
 91
        1
 92
        1
 93
        1
 72
     4
 94
        3
 73
     0
 74
     1
 95
       26
 96
       22
 40
0.0
 40
0.0
 40
0.0
 40
0.0
 40
1.0
 40
1.0
 40
1.0
 40
2.0
 40
2.0
 40
2.0
 40
3.0
 40
3.0
 40
3.0
 40
4.0
 40
4.0
 40
4.0
 40
5.0
 40
5.0
 40
5.0
 40
6.0
 40
6.0
 40
6.0
 40
7.0
 40
7.0
 40
7.0
 40
7.0
 10
89.39488794423114
 20
-158.2487385672086
 10
89.39488794423114
 20
-158.2487385672086
 10
89.39488794423114
 20
-157.1445854641861
 10
89.39488794423114
 20
-157.1445854641861
 10
89.39488794423114
 20
-157.1445854641861
 10
89.0648477967442
 20
-157.1445854641861
 10
89.0648477967442
 20
-157.1445854641861
 10
89.0648477967442
 20
-157.1445854641861
 10
89.0648477967442
 20
-156.9964463583203
 10
89.0648477967442
 20
-156.9964463583203
 10
89.39695500152229
 20
-156.9816324477338
 10
89.44346379057316
 20
-156.8186794312815
 10
89.47309161174631
 20
-156.7043022611712
 10
89.47309161174631
 20
-156.7043022611712
 10
89.61916366032091
 20
-156.7043022611712
 10
89.61916366032091
 20
-156.7043022611712
 10
89.61916366032091
 20
-156.7043022611712
 10
89.61916366032091
 20
-158.2487385672086
 10
89.61916366032091
 20
-158.2487385672086
 10
89.61916366032091
 20
-158.2487385672086
 10
89.39488794423114
 20
-158.2487385672086
 10
89.39488794423114
 20
-158.2487385672086
 97
        0
 97
        0
 75
     2
 76
     1
 98
        0
  0
SPLINE
  5
DF
330
D9
100
AcDbEntity
  8
_U+30EC_U+30A4_U+30E4_U+30FC 1
370
     0
100
AcDbSpline
210
0.0
220
0.0
230
1.0
 70
    11
 71
     3
 72
    29
 73
    25
 74
     0
 42
0.0000000001
 43
0.0000000001
 12
1.0
 22
0.0
 32
0.0
 13
1.0
 23
0.0
 33
0.0
 40
0.0
 40
0.0
 40
0.0
 40
0.0
 40
1.0
 40
1.0
 40
1.0
 40
2.0
 40
2.0
 40
2.0
 40
3.0
 40
3.0
 40
3.0
 40
4.0
 40
4.0
 40
4.0
 40
5.0
 40
5.0
 40
5.0
 40
6.0
 40
6.0
 40
6.0
 40
7.0
 40
7.0
 40
7.0
 40
8.0
 40
8.0
 40
8.0
 40
8.0
 10
91.0180446821066
 20
-158.0709716401698
 30
0.0
 10
90.91021319341829
 20
-158.2804334456729
 30
0.0
 10
90.73675263573595
 20
-158.2993814708418
 30
0.0
 10
90.62030840833451
 20
-158.2993814708418
 30
0.0
 10
90.4595947039476
 20
-158.2993814708418
 30
0.0
 10
90.31782902472958
 20
-158.252872681791
 30
0.0
 10
90.22257213456241
 20
-158.0709716401698
 30
0.0
 10
90.11904701523066
 20
-157.8763237452532
 30
0.0
 10
90.09992673528753
 20
-157.6396456854165
 30
0.0
 10
90.09992673528753
 20
-157.4766926689642
 30
0.0
 10
90.09992673528753
 20
-157.3326876776807
 30
0.0
 10
90.11680770316525
 20
-157.080851197709
 30
0.0
 10
90.22257213456241
 20
-156.88206918821
 30
0.0
 10
90.330575878025
 20
-156.6791530641288
 30
0.0
 10
90.49128958241191
 20
-156.6557264148291
 30
0.0
 10
90.62030840833451
 20
-156.6557264148291
 30
0.0
 10
90.77895505543026
 20
-156.6557264148291
 30
0.0
 10
90.92278779193944
 20
-156.7001681465889
 30
0.0
 10
91.0180446821066
 20
-156.88206918821
 30
0.0
 10
91.11743568685606
 20
-157.0746500258355
 30
0.0
 10
91.14069008138149
 20
-157.3030598565076
 30
0.0
 10
91.14069008138149
 20
-157.4766926689642
 30
0.0
 10
91.14069008138149
 20
-157.6479139145811
 30
0.0
 10
91.11967499892147
 20
-157.8783908025443
 30
0.0
 10
91.0180446821066
 20
-158.0709716401698
 30
0.0
  0
SPLINE
  5
E0
330
D9
100
AcDbEntity
  8
_U+30EC_U+30A4_U+30E4_U+30FC 1
370
     0
100
AcDbSpline
210
0.0
220
0.0
230
1.0
 70
    11
 71
     3
 72
    17
 73
    13
 74
     0
 42
0.0000000001
 43
0.0000000001
 12
1.0
 22
0.0
 32
0.0
 13
1.0
 23
0.0
 33
0.0
 40
0.0
 40
0.0
 40
0.0
 40
0.0
 40
1.0
 40
1.0
 40
1.0
 40
2.0
 40
2.0
 40
2.0
 40
3.0
 40
3.0
 40
3.0
 40
4.0
 40
4.0
 40
4.0
 40
4.0
 10
90.62030840833451
 20
-156.8483072524546
 30
0.0
 10
90.37071124042816
 20
-156.8483072524546
 30
0.0
 10
90.32420245137729
 20
-157.1318386108907
 30
0.0
 10
90.32420245137729
 20
-157.4766926689642
 30
0.0
 10
90.32420245137729
 20
-157.7960530204468
 30
0.0
 10
90.36020369919815
 20
-158.1047335759252
 30
0.0
 10
90.62030840833451
 20
-158.1047335759252
 30
0.0
 10
90.86783851894971
 20
-158.1047335759252
 30
0.0
 10
90.916586620066
 20
-157.8236137843288
 30
0.0
 10
90.916586620066
 20
-157.4766926689642
 30
0.0
 10
90.916586620066
 20
-157.156987807933
 30
0.0
 10
90.87851831495398
 20
-156.8483072524546
 30
0.0
 10
90.62030840833451
 20
-156.8483072524546
 30
0.0
  0
HATCH
  5
E1
330
D9
100
AcDbEntity
  8
_U+30EC_U+30A4_U+30E4_U+30FC 1
 62
     7
420
 16777215
100
AcDbHatch
 10
0.0
 20
0.0
 30
0.0
210
0.0
220
0.0
230
1.0
  2
SOLID
 70
     1
 71
     0
 91
        2
 92
        1
 93
        1
 72
     4
 94
        3
 73
     0
 74
     1
 95
       29
 96
       25
 40
0.0
 40
0.0
 40
0.0
 40
0.0
 40
1.0
 40
1.0
 40
1.0
 40
2.0
 40
2.0
 40
2.0
 40
3.0
 40
3.0
 40
3.0
 40
4.0
 40
4.0
 40
4.0
 40
5.0
 40
5.0
 40
5.0
 40
6.0
 40
6.0
 40
6.0
 40
7.0
 40
7.0
 40
7.0
 40
8.0
 40
8.0
 40
8.0
 40
8.0
 10
91.0180446821066
 20
-158.0709716401698
 10
90.91021319341829
 20
-158.2804334456729
 10
90.73675263573595
 20
-158.2993814708418
 10
90.62030840833451
 20
-158.2993814708418
 10
90.4595947039476
 20
-158.2993814708418
 10
90.31782902472958
 20
-158.252872681791
 10
90.22257213456241
 20
-158.0709716401698
 10
90.11904701523066
 20
-157.8763237452532
 10
90.09992673528753
 20
-157.6396456854165
 10
90.09992673528753
 20
-157.4766926689642
 10
90.09992673528753
 20
-157.3326876776807
 10
90.11680770316525
 20
-157.080851197709
 10
90.22257213456241
 20
-156.88206918821
 10
90.330575878025
 20
-156.6791530641288
 10
90.49128958241191
 20
-156.6557264148291
 10
90.62030840833451
 20
-156.6557264148291
 10
90.77895505543026
 20
-156.6557264148291
 10
90.92278779193944
 20
-156.7001681465889
 10
91.0180446821066
 20
-156.88206918821
 10
91.11743568685606
 20
-157.0746500258355
 10
91.14069008138149
 20
-157.3030598565076
 10
91.14069008138149
 20
-157.4766926689642
 10
91.14069008138149
 20
-157.6479139145811
 10
91.11967499892147
 20
-157.8783908025443
 10
91.0180446821066
 20
-158.0709716401698
 97
        0
 97
        0
 92
        1
 93
        1
 72
     4
 94
        3
 73
     0
 74
     1
 95
       17
 96
       13
 40
0.0
 40
0.0
 40
0.0
 40
0.0
 40
1.0
 40
1.0
 40
1.0
 40
2.0
 40
2.0
 40
2.0
 40
3.0
 40
3.0
 40
3.0
 40
4.0
 40
4.0
 40
4.0
 40
4.0
 10
90.62030840833451
 20
-156.8483072524546
 10
90.37071124042816
 20
-156.8483072524546
 10
90.32420245137729
 20
-157.1318386108907
 10
90.32420245137729
 20
-157.4766926689642
 10
90.32420245137729
 20
-157.7960530204468
 10
90.36020369919815
 20
-158.1047335759252
 10
90.62030840833451
 20
-158.1047335759252
 10
90.86783851894971
 20
-158.1047335759252
 10
90.916586620066
 20
-157.8236137843288
 10
90.916586620066
 20
-157.4766926689642
 10
90.916586620066
 20
-157.156987807933
 10
90.87851831495398
 20
-156.8483072524546
 10
90.62030840833451
 20
-156.8483072524546
 97
        0
 97
        0
 75
     2
 76
     1
 98
        0
  0
ENDBLK
  5
DC
330
D9
100
AcDbEntity
  8
0
100
AcDbBlockEnd
  0
BLOCK
  5
FE
330
FC
100
AcDbEntity
  8
0
100
AcDbBlockBegin
  2
block 7
 70
     0
 10
0.0
 20
0.0
 30
0.0
  3
block 7
  1

  0
SPLINE
  5
100
330
FC
100
AcDbEntity
  8
_U+30EC_U+30A4_U+30E4_U+30FC 1
370
     0
100
AcDbSpline
210
0.0
220
0.0
230
1.0
 70
    11
 71
     3
 72
    26
 73
    22
 74
     0
 42
0.0000000001
 43
0.0000000001
 12
1.0
 22
0.0
 32
0.0
 13
1.0
 23
0.0
 33
0.0
 40
0.0
 40
0.0
 40
0.0
 40
0.0
 40
1.0
 40
1.0
 40
1.0
 40
2.0
 40
2.0
 40
2.0
 40
3.0
 40
3.0
 40
3.0
 40
4.0
 40
4.0
 40
4.0
 40
5.0
 40
5.0
 40
5.0
 40
6.0
 40
6.0
 40
6.0
 40
7.0
 40
7.0
 40
7.0
 40
7.0
 10
122.8059407245069
 20
-148.5638861390743
 30
0.0
 10
122.8059407245069
 20
-148.5638861390743
 30
0.0
 10
121.7017876214843
 20
-148.5638861390743
 30
0.0
 10
121.7017876214843
 20
-148.5638861390743
 30
0.0
 10
121.7017876214843
 20
-148.5638861390743
 30
0.0
 10
121.7017876214843
 20
-148.8939262865613
 30
0.0
 10
121.7017876214843
 20
-148.8939262865613
 30
0.0
 10
121.7017876214843
 20
-148.8939262865613
 30
0.0
 10
121.5536485156185
 20
-148.8939262865613
 30
0.0
 10
121.5536485156185
 20
-148.8939262865613
 30
0.0
 10
121.538834605032
 20
-148.5618190817832
 30
0.0
 10
121.3758815885796
 20
-148.5153102927323
 30
0.0
 10
121.2615044184694
 20
-148.4856824715591
 30
0.0
 10
121.2615044184694
 20
-148.4856824715591
 30
0.0
 10
121.2615044184694
 20
-148.3396104229845
 30
0.0
 10
121.2615044184694
 20
-148.3396104229845
 30
0.0
 10
121.2615044184694
 20
-148.3396104229845
 30
0.0
 10
122.8059407245069
 20
-148.3396104229845
 30
0.0
 10
122.8059407245069
 20
-148.3396104229845
 30
0.0
 10
122.8059407245069
 20
-148.3396104229845
 30
0.0
 10
122.8059407245069
 20
-148.5638861390743
 30
0.0
 10
122.8059407245069
 20
-148.5638861390743
 30
0.0
  0
HATCH
  5
101
330
FC
100
AcDbEntity
  8
_U+30EC_U+30A4_U+30E4_U+30FC 1
 62
     7
420
 16777215
100
AcDbHatch
 10
0.0
 20
0.0
 30
0.0
210
0.0
220
0.0
230
1.0
  2
SOLID
 70
     1
 71
     0
 91
        1
 92
        1
 93
        1
 72
     4
 94
        3
 73
     0
 74
     1
 95
       26
 96
       22
 40
0.0
 40
0.0
 40
0.0
 40
0.0
 40
1.0
 40
1.0
 40
1.0
 40
2.0
 40
2.0
 40
2.0
 40
3.0
 40
3.0
 40
3.0
 40
4.0
 40
4.0
 40
4.0
 40
5.0
 40
5.0
 40
5.0
 40
6.0
 40
6.0
 40
6.0
 40
7.0
 40
7.0
 40
7.0
 40
7.0
 10
122.8059407245069
 20
-148.5638861390743
 10
122.8059407245069
 20
-148.5638861390743
 10
121.7017876214843
 20
-148.5638861390743
 10
121.7017876214843
 20
-148.5638861390743
 10
121.7017876214843
 20
-148.5638861390743
 10
121.7017876214843
 20
-148.8939262865613
 10
121.7017876214843
 20
-148.8939262865613
 10
121.7017876214843
 20
-148.8939262865613
 10
121.5536485156185
 20
-148.8939262865613
 10
121.5536485156185
 20
-148.8939262865613
 10
121.538834605032
 20
-148.5618190817832
 10
121.3758815885796
 20
-148.5153102927323
 10
121.2615044184694
 20
-148.4856824715591
 10
121.2615044184694
 20
-148.4856824715591
 10
121.2615044184694
 20
-148.3396104229845
 10
121.2615044184694
 20
-148.3396104229845
 10
121.2615044184694
 20
-148.3396104229845
 10
122.8059407245069
 20
-148.3396104229845
 10
122.8059407245069
 20
-148.3396104229845
 10
122.8059407245069
 20
-148.3396104229845
 10
122.8059407245069
 20
-148.5638861390743
 10
122.8059407245069
 20
-148.5638861390743
 97
        0
 97
        0
 75
     2
 76
     1
 98
        0
  0
SPLINE
  5
102
330
FC
100
AcDbEntity
  8
_U+30EC_U+30A4_U+30E4_U+30FC 1
370
     0
100
AcDbSpline
210
0.0
220
0.0
230
1.0
 70
    11
 71
     3
 72
    62
 73
    58
 74
     0
 42
0.0000000001
 43
0.0000000001
 12
1.0
 22
0.0
 32
0.0
 13
1.0
 23
0.0
 33
0.0
 40
0.0
 40
0.0
 40
0.0
 40
0.0
 40
1.0
 40
1.0
 40
1.0
 40
2.0
 40
2.0
 40
2.0
 40
3.0
 40
3.0
 40
3.0
 40
4.0
 40
4.0
 40
4.0
 40
5.0
 40
5.0
 40
5.0
 40
6.0
 40
6.0
 40
6.0
 40
7.0
 40
7.0
 40
7.0
 40
8.0
 40
8.0
 40
8.0
 40
9.0
 40
9.0
 40
9.0
 40
10.0
 40
10.0
 40
10.0
 40
11.0
 40
11.0
 40
11.0
 40
12.0
 40
12.0
 40
12.0
 40
13.0
 40
13.0
 40
13.0
 40
14.0
 40
14.0
 40
14.0
 40
15.0
 40
15.0
 40
15.0
 40
16.0
 40
16.0
 40
16.0
 40
17.0
 40
17.0
 40
17.0
 40
18.0
 40
18.0
 40
18.0
 40
19.0
 40
19.0
 40
19.0
 40
19.0
 10
122.85658362814
 20
-147.3467339041355
 30
0.0
 10
122.85658362814
 20
-147.442163049077
 30
0.0
 10
122.83556854568
 20
-147.6598930837447
 30
0.0
 10
122.6495333894765
 20
-147.7849500498593
 30
0.0
 10
122.5372232766574
 20
-147.8590196027922
 30
0.0
 10
122.4380045266822
 20
-147.8631537173745
 30
0.0
 10
122.353255177745
 20
-147.8672878319568
 30
0.0
 10
122.353255177745
 20
-147.8672878319568
 30
0.0
 10
122.353255177745
 20
-147.6471462304493
 30
0.0
 10
122.353255177745
 20
-147.6471462304493
 30
0.0
 10
122.4273247306779
 20
-147.6450791731582
 30
0.0
 10
122.6619357332234
 20
-147.6347438867024
 30
0.0
 10
122.6619357332234
 20
-147.3512125282664
 30
0.0
 10
122.6619357332234
 20
-147.2137532184049
 30
0.0
 10
122.5923448044214
 20
-147.0611354884083
 30
0.0
 10
122.3639349737493
 20
-147.0611354884083
 30
0.0
 10
122.2474907463479
 20
-147.0611354884083
 30
0.0
 10
122.1989149000058
 20
-147.0993760482946
 30
0.0
 10
122.1672200215415
 20
-147.1310709267589
 30
0.0
 10
122.0931504686087
 20
-147.2051404796918
 30
0.0
 10
122.0804036153132
 20
-147.3215847070932
 30
0.0
 10
122.0804036153132
 20
-147.3763617253087
 30
0.0
 10
122.0804036153132
 20
-147.3956542600261
 30
0.0
 10
122.0824706726044
 20
-147.4314832530727
 30
0.0
 10
122.0866047871867
 20
-147.4590440169547
 30
0.0
 10
122.0866047871867
 20
-147.4590440169547
 30
0.0
 10
121.8919568922701
 20
-147.4590440169547
 30
0.0
 10
121.8919568922701
 20
-147.4590440169547
 30
0.0
 10
121.898502573692
 20
-147.4208034570684
 30
0.0
 10
121.9005696309832
 20
-147.3787732921484
 30
0.0
 10
121.9005696309832
 20
-147.3722276107264
 30
0.0
 10
121.9005696309832
 20
-147.3067707965066
 30
0.0
 10
121.8792100389746
 20
-147.1079887870077
 30
0.0
 10
121.642531979138
 20
-147.1079887870077
 30
0.0
 10
121.4647650520991
 20
-147.1079887870077
 30
0.0
 10
121.4096435243351
 20
-147.2389024154472
 30
0.0
 10
121.4096435243351
 20
-147.3491454709752
 30
0.0
 10
121.4096435243351
 20
-147.6133842946939
 30
0.0
 10
121.642531979138
 20
-147.621997033407
 30
0.0
 10
121.7141899652312
 20
-147.6261311479893
 30
0.0
 10
121.7141899652312
 20
-147.6261311479893
 30
0.0
 10
121.7141899652312
 20
-147.8293917816191
 30
0.0
 10
121.7141899652312
 20
-147.8293917816191
 30
0.0
 10
121.5894775086651
 20
-147.8207790429059
 30
0.0
 10
121.2129285721273
 20
-147.7932182790239
 30
0.0
 10
121.2129285721273
 20
-147.3363986176798
 30
0.0
 10
121.2129285721273
 20
-147.11212290159
 30
0.0
 10
121.3400525955331
 20
-146.8709662176225
 30
0.0
 10
121.635986297716
 20
-146.8709662176225
 30
0.0
 10
121.822365963468
 20
-146.8709662176225
 30
0.0
 10
121.9047037455655
 20
-146.9660508530154
 30
0.0
 10
121.9660264452029
 20
-147.0656141125392
 30
0.0
 10
121.9935872090849
 20
-147.0042914129017
 30
0.0
 10
122.0738579338913
 20
-146.8223903712805
 30
0.0
 10
122.3511881204539
 20
-146.8223903712805
 30
0.0
 10
122.6894964971054
 20
-146.8223903712805
 30
0.0
 10
122.85658362814
 20
-147.0697482271215
 30
0.0
 10
122.85658362814
 20
-147.3467339041355
 30
0.0
  0
HATCH
  5
103
330
FC
100
AcDbEntity
  8
_U+30EC_U+30A4_U+30E4_U+30FC 1
 62
     7
420
 16777215
100
AcDbHatch
 10
0.0
 20
0.0
 30
0.0
210
0.0
220
0.0
230
1.0
  2
SOLID
 70
     1
 71
     0
 91
        1
 92
        1
 93
        1
 72
     4
 94
        3
 73
     0
 74
     1
 95
       62
 96
       58
 40
0.0
 40
0.0
 40
0.0
 40
0.0
 40
1.0
 40
1.0
 40
1.0
 40
2.0
 40
2.0
 40
2.0
 40
3.0
 40
3.0
 40
3.0
 40
4.0
 40
4.0
 40
4.0
 40
5.0
 40
5.0
 40
5.0
 40
6.0
 40
6.0
 40
6.0
 40
7.0
 40
7.0
 40
7.0
 40
8.0
 40
8.0
 40
8.0
 40
9.0
 40
9.0
 40
9.0
 40
10.0
 40
10.0
 40
10.0
 40
11.0
 40
11.0
 40
11.0
 40
12.0
 40
12.0
 40
12.0
 40
13.0
 40
13.0
 40
13.0
 40
14.0
 40
14.0
 40
14.0
 40
15.0
 40
15.0
 40
15.0
 40
16.0
 40
16.0
 40
16.0
 40
17.0
 40
17.0
 40
17.0
 40
18.0
 40
18.0
 40
18.0
 40
19.0
 40
19.0
 40
19.0
 40
19.0
 10
122.85658362814
 20
-147.3467339041355
 10
122.85658362814
 20
-147.442163049077
 10
122.83556854568
 20
-147.6598930837447
 10
122.6495333894765
 20
-147.7849500498593
 10
122.5372232766574
 20
-147.8590196027922
 10
122.4380045266822
 20
-147.8631537173745
 10
122.353255177745
 20
-147.8672878319568
 10
122.353255177745
 20
-147.8672878319568
 10
122.353255177745
 20
-147.6471462304493
 10
122.353255177745
 20
-147.6471462304493
 10
122.4273247306779
 20
-147.6450791731582
 10
122.6619357332234
 20
-147.6347438867024
 10
122.6619357332234
 20
-147.3512125282664
 10
122.6619357332234
 20
-147.2137532184049
 10
122.5923448044214
 20
-147.0611354884083
 10
122.3639349737493
 20
-147.0611354884083
 10
122.2474907463479
 20
-147.0611354884083
 10
122.1989149000058
 20
-147.0993760482946
 10
122.1672200215415
 20
-147.1310709267589
 10
122.0931504686087
 20
-147.2051404796918
 10
122.0804036153132
 20
-147.3215847070932
 10
122.0804036153132
 20
-147.3763617253087
 10
122.0804036153132
 20
-147.3956542600261
 10
122.0824706726044
 20
-147.4314832530727
 10
122.0866047871867
 20
-147.4590440169547
 10
122.0866047871867
 20
-147.4590440169547
 10
121.8919568922701
 20
-147.4590440169547
 10
121.8919568922701
 20
-147.4590440169547
 10
121.898502573692
 20
-147.4208034570684
 10
121.9005696309832
 20
-147.3787732921484
 10
121.9005696309832
 20
-147.3722276107264
 10
121.9005696309832
 20
-147.3067707965066
 10
121.8792100389746
 20
-147.1079887870077
 10
121.642531979138
 20
-147.1079887870077
 10
121.4647650520991
 20
-147.1079887870077
 10
121.4096435243351
 20
-147.2389024154472
 10
121.4096435243351
 20
-147.3491454709752
 10
121.4096435243351
 20
-147.6133842946939
 10
121.642531979138
 20
-147.621997033407
 10
121.7141899652312
 20
-147.6261311479893
 10
121.7141899652312
 20
-147.6261311479893
 10
121.7141899652312
 20
-147.8293917816191
 10
121.7141899652312
 20
-147.8293917816191
 10
121.5894775086651
 20
-147.8207790429059
 10
121.2129285721273
 20
-147.7932182790239
 10
121.2129285721273
 20
-147.3363986176798
 10
121.2129285721273
 20
-147.11212290159
 10
121.3400525955331
 20
-146.8709662176225
 10
121.635986297716
 20
-146.8709662176225
 10
121.822365963468
 20
-146.8709662176225
 10
121.9047037455655
 20
-146.9660508530154
 10
121.9660264452029
 20
-147.0656141125392
 10
121.9935872090849
 20
-147.0042914129017
 10
122.0738579338913
 20
-146.8223903712805
 10
122.3511881204539
 20
-146.8223903712805
 10
122.6894964971054
 20
-146.8223903712805
 10
122.85658362814
 20
-147.0697482271215
 10
122.85658362814
 20
-147.3467339041355
 97
        0
 97
        0
 75
     2
 76
     1
 98
        0
  0
ENDBLK
  5
FF
330
FC
100
AcDbEntity
  8
0
100
AcDbBlockEnd
  0
BLOCK
  5
10A
330
108
100
AcDbEntity
  8
0
100
AcDbBlockBegin
  2
block 8
 70
     0
 10
0.0
 20
0.0
 30
0.0
  3
block 8
  1

  0
SPLINE
  5
10C
330
108
100
AcDbEntity
  8
_U+30EC_U+30A4_U+30E4_U+30FC 1
370
     0
100
AcDbSpline
210
0.0
220
0.0
230
1.0
 70
    11
 71
     3
 72
    17
 73
    13
 74
     0
 42
0.0000000001
 43
0.0000000001
 12
1.0
 22
0.0
 32
0.0
 13
1.0
 23
0.0
 33
0.0
 40
0.0
 40
0.0
 40
0.0
 40
0.0
 40
1.0
 40
1.0
 40
1.0
 40
2.0
 40
2.0
 40
2.0
 40
3.0
 40
3.0
 40
3.0
 40
4.0
 40
4.0
 40
4.0
 40
4.0
 10
108.3530761447867
 20
-159.4751925599576
 30
0.0
 10
108.2473117133896
 20
-159.3694281285604
 30
0.0
 10
108.1666964790347
 20
-159.3315320782227
 30
0.0
 10
108.073678900933
 20
-159.2998371997584
 30
0.0
 10
108.073678900933
 20
-159.2998371997584
 30
0.0
 10
108.183921956461
 20
-159.1348171260149
 30
0.0
 10
108.183921956461
 20
-159.1348171260149
 30
0.0
 10
108.281073649145
 20
-159.1771918004835
 30
0.0
 10
108.4016519911288
 20
-159.2553954679987
 30
0.0
 10
108.4547064616016
 20
-159.3101724862141
 30
0.0
 10
108.4547064616016
 20
-159.3101724862141
 30
0.0
 10
108.3530761447867
 20
-159.4751925599576
 30
0.0
 10
108.3530761447867
 20
-159.4751925599576
 30
0.0
  0
SPLINE
  5
10D
330
108
100
AcDbEntity
  8
_U+30EC_U+30A4_U+30E4_U+30FC 1
370
     0
100
AcDbSpline
210
0.0
220
0.0
230
1.0
 70
    11
 71
     3
 72
   182
 73
   178
 74
     0
 42
0.0000000001
 43
0.0000000001
 12
1.0
 22
0.0
 32
0.0
 13
1.0
 23
0.0
 33
0.0
 40
0.0
 40
0.0
 40
0.0
 40
0.0
 40
1.0
 40
1.0
 40
1.0
 40
2.0
 40
2.0
 40
2.0
 40
3.0
 40
3.0
 40
3.0
 40
4.0
 40
4.0
 40
4.0
 40
5.0
 40
5.0
 40
5.0
 40
6.0
 40
6.0
 40
6.0
 40
7.0
 40
7.0
 40
7.0
 40
8.0
 40
8.0
 40
8.0
 40
9.0
 40
9.0
 40
9.0
 40
10.0
 40
10.0
 40
10.0
 40
11.0
 40
11.0
 40
11.0
 40
12.0
 40
12.0
 40
12.0
 40
13.0
 40
13.0
 40
13.0
 40
14.0
 40
14.0
 40
14.0
 40
15.0
 40
15.0
 40
15.0
 40
16.0
 40
16.0
 40
16.0
 40
17.0
 40
17.0
 40
17.0
 40
18.0
 40
18.0
 40
18.0
 40
19.0
 40
19.0
 40
19.0
 40
20.0
 40
20.0
 40
20.0
 40
21.0
 40
21.0
 40
21.0
 40
22.0
 40
22.0
 40
22.0
 40
23.0
 40
23.0
 40
23.0
 40
24.0
 40
24.0
 40
24.0
 40
25.0
 40
25.0
 40
25.0
 40
26.0
 40
26.0
 40
26.0
 40
27.0
 40
27.0
 40
27.0
 40
28.0
 40
28.0
 40
28.0
 40
29.0
 40
29.0
 40
29.0
 40
30.0
 40
30.0
 40
30.0
 40
31.0
 40
31.0
 40
31.0
 40
32.0
 40
32.0
 40
32.0
 40
33.0
 40
33.0
 40
33.0
 40
34.0
 40
34.0
 40
34.0
 40
35.0
 40
35.0
 40
35.0
 40
36.0
 40
36.0
 40
36.0
 40
37.0
 40
37.0
 40
37.0
 40
38.0
 40
38.0
 40
38.0
 40
39.0
 40
39.0
 40
39.0
 40
40.0
 40
40.0
 40
40.0
 40
41.0
 40
41.0
 40
41.0
 40
42.0
 40
42.0
 40
42.0
 40
43.0
 40
43.0
 40
43.0
 40
44.0
 40
44.0
 40
44.0
 40
45.0
 40
45.0
 40
45.0
 40
46.0
 40
46.0
 40
46.0
 40
47.0
 40
47.0
 40
47.0
 40
48.0
 40
48.0
 40
48.0
 40
49.0
 40
49.0
 40
49.0
 40
50.0
 40
50.0
 40
50.0
 40
51.0
 40
51.0
 40
51.0
 40
52.0
 40
52.0
 40
52.0
 40
53.0
 40
53.0
 40
53.0
 40
54.0
 40
54.0
 40
54.0
 40
55.0
 40
55.0
 40
55.0
 40
56.0
 40
56.0
 40
56.0
 40
57.0
 40
57.0
 40
57.0
 40
58.0
 40
58.0
 40
58.0
 40
59.0
 40
59.0
 40
59.0
 40
59.0
 10
109.397973605463
 20
-160.6537597254616
 30
0.0
 10
109.397973605463
 20
-160.6537597254616
 30
0.0
 10
108.7613199597888
 20
-160.6537597254616
 30
0.0
 10
108.7613199597888
 20
-160.6537597254616
 30
0.0
 10
108.5477240397034
 20
-160.6537597254616
 30
0.0
 10
108.3317165527782
 20
-160.6578938400439
 30
0.0
 10
108.1181206326927
 20
-160.6706406933393
 30
0.0
 10
108.1181206326927
 20
-160.6706406933393
 30
0.0
 10
108.1181206326927
 20
-160.4632459451273
 30
0.0
 10
108.1181206326927
 20
-160.4632459451273
 30
0.0
 10
108.3403292914913
 20
-160.4759927984227
 30
0.0
 10
108.6638237575563
 20
-160.480126913005
 30
0.0
 10
108.7613199597888
 20
-160.480126913005
 30
0.0
 10
108.7613199597888
 20
-160.480126913005
 30
0.0
 10
108.9814615612963
 20
-160.480126913005
 30
0.0
 10
108.9814615612963
 20
-160.480126913005
 30
0.0
 10
108.9814615612963
 20
-160.480126913005
 30
0.0
 10
108.9814615612963
 20
-160.3385334885612
 30
0.0
 10
108.9814615612963
 20
-160.3385334885612
 30
0.0
 10
108.9814615612963
 20
-160.3385334885612
 30
0.0
 10
108.8205756021351
 20
-160.3385334885612
 30
0.0
 10
108.8205756021351
 20
-160.3385334885612
 30
0.0
 10
108.6555555283917
 20
-160.3385334885612
 30
0.0
 10
108.4905354546482
 20
-160.3426676031435
 30
0.0
 10
108.3255153809047
 20
-160.3574815137301
 30
0.0
 10
108.3255153809047
 20
-160.3574815137301
 30
0.0
 10
108.3255153809047
 20
-160.1480197082269
 30
0.0
 10
108.3255153809047
 20
-160.1480197082269
 30
0.0
 10
108.4967366265217
 20
-160.1628336188135
 30
0.0
 10
108.7444389919111
 20
-160.1669677333958
 30
0.0
 10
108.8205756021351
 20
-160.1669677333958
 30
0.0
 10
108.8205756021351
 20
-160.1669677333958
 30
0.0
 10
108.9814615612963
 20
-160.1669677333958
 30
0.0
 10
108.9814615612963
 20
-160.1669677333958
 30
0.0
 10
108.9769829371655
 20
-160.0953097473026
 30
0.0
 10
108.9769829371655
 20
-160.0887640658806
 30
0.0
 10
108.970781765292
 20
-160.0360541049563
 30
0.0
 10
108.970781765292
 20
-160.0360541049563
 30
0.0
 10
109.1103081324446
 20
-160.0508680155428
 30
0.0
 10
109.1103081324446
 20
-160.0508680155428
 30
0.0
 10
109.1103081324446
 20
-160.0508680155428
 30
0.0
 10
109.0110893824695
 20
-159.8793022603774
 30
0.0
 10
109.0110893824695
 20
-159.8793022603774
 30
0.0
 10
109.0575981715203
 20
-159.8858479417994
 30
0.0
 10
109.1316677244532
 20
-159.894116170964
 30
0.0
 10
109.1485486923309
 20
-159.894116170964
 30
0.0
 10
109.1991915959641
 20
-159.894116170964
 30
0.0
 10
109.2160725638418
 20
-159.8731010885039
 30
0.0
 10
109.2160725638418
 20
-159.8159125034488
 30
0.0
 10
109.2160725638418
 20
-159.8159125034488
 30
0.0
 10
109.2160725638418
 20
-159.6784531935873
 30
0.0
 10
109.2160725638418
 20
-159.6784531935873
 30
0.0
 10
109.2160725638418
 20
-159.6784531935873
 30
0.0
 10
109.1103081324446
 20
-159.6784531935873
 30
0.0
 10
109.1103081324446
 20
-159.6784531935873
 30
0.0
 10
108.9769829371655
 20
-159.6784531935873
 30
0.0
 10
108.8205756021351
 20
-159.6784531935873
 30
0.0
 10
108.6979302028602
 20
-159.6912000468828
 30
0.0
 10
108.6979302028602
 20
-159.6912000468828
 30
0.0
 10
108.6979302028602
 20
-159.5006862665485
 30
0.0
 10
108.6979302028602
 20
-159.5006862665485
 30
0.0
 10
108.8650173338949
 20
-159.5175672344262
 30
0.0
 10
109.0954942218581
 20
-159.5196342917173
 30
0.0
 10
109.1103081324446
 20
-159.5196342917173
 30
0.0
 10
109.1103081324446
 20
-159.5196342917173
 30
0.0
 10
109.2160725638418
 20
-159.5196342917173
 30
0.0
 10
109.2160725638418
 20
-159.5196342917173
 30
0.0
 10
109.2160725638418
 20
-159.5196342917173
 30
0.0
 10
109.2160725638418
 20
-159.3887206632778
 30
0.0
 10
109.2160725638418
 20
-159.3887206632778
 30
0.0
 10
109.2160725638418
 20
-159.3887206632778
 30
0.0
 10
109.1781765135041
 20
-159.3887206632778
 30
0.0
 10
109.1781765135041
 20
-159.3887206632778
 30
0.0
 10
109.1337347817444
 20
-159.3887206632778
 30
0.0
 10
109.0086778156298
 20
-159.3928547778601
 30
0.0
 10
108.9197943521103
 20
-159.4011230070247
 30
0.0
 10
108.9197943521103
 20
-159.4011230070247
 30
0.0
 10
108.9197943521103
 20
-159.3208522822184
 30
0.0
 10
108.9197943521103
 20
-159.3208522822184
 30
0.0
 10
108.867084391186
 20
-159.3590928421047
 30
0.0
 10
108.8415906845952
 20
-159.3739067526913
 30
0.0
 10
108.7992160101266
 20
-159.3969888924424
 30
0.0
 10
108.7992160101266
 20
-159.3969888924424
 30
0.0
 10
108.611113796632
 20
-159.2681423212941
 30
0.0
 10
108.611113796632
 20
-159.2681423212941
 30
0.0
 10
108.6893174641471
 20
-159.2340358759901
 30
0.0
 10
108.846069308726
 20
-159.1706461190615
 30
0.0
 10
109.0024766437563
 20
-159.0269856373266
 30
0.0
 10
109.0848144258538
 20
-158.9484374602629
 30
0.0
 10
109.1633626029175
 20
-158.8640326208743
 30
0.0
 10
109.2160725638418
 20
-158.7624023040594
 30
0.0
 10
109.2160725638418
 20
-158.7624023040594
 30
0.0
 10
109.4276014266362
 20
-158.8237250036969
 30
0.0
 10
109.4276014266362
 20
-158.8237250036969
 30
0.0
 10
109.4468939613536
 20
-158.8299261755703
 30
0.0
 10
109.4572292478093
 20
-158.8385389142834
 30
0.0
 10
109.4572292478093
 20
-158.8512857675788
 30
0.0
 10
109.4572292478093
 20
-158.8681667354566
 30
0.0
 10
109.4444823945139
 20
-158.87436790733
 30
0.0
 10
109.4193331974716
 20
-158.8871147606255
 30
0.0
 10
109.4996039222779
 20
-158.984610962858
 30
0.0
 10
109.6625569387302
 20
-159.0817626555421
 30
0.0
 10
109.6963188744856
 20
-159.1007106807109
 30
0.0
 10
109.8465250376425
 20
-159.1895941442304
 30
0.0
 10
109.9609022077528
 20
-159.2171549081124
 30
0.0
 10
110.039105875268
 20
-159.2361029332813
 30
0.0
 10
110.039105875268
 20
-159.2361029332813
 30
0.0
 10
109.9205945905754
 20
-159.4056016311555
 30
0.0
 10
109.9205945905754
 20
-159.4056016311555
 30
0.0
 10
109.8358452416383
 20
-159.3759738099824
 30
0.0
 10
109.7852023380051
 20
-159.3570257848135
 30
0.0
 10
109.6666910533125
 20
-159.2912244610453
 30
0.0
 10
109.6666910533125
 20
-159.2912244610453
 30
0.0
 10
109.6666910533125
 20
-159.4011230070247
 30
0.0
 10
109.6666910533125
 20
-159.4011230070247
 30
0.0
 10
109.584353271215
 20
-159.3928547778601
 30
0.0
 10
109.4572292478093
 20
-159.3887206632778
 30
0.0
 10
109.404519286885
 20
-159.3887206632778
 30
0.0
 10
109.404519286885
 20
-159.3887206632778
 30
0.0
 10
109.404519286885
 20
-159.5196342917173
 30
0.0
 10
109.404519286885
 20
-159.5196342917173
 30
0.0
 10
109.404519286885
 20
-159.5196342917173
 30
0.0
 10
109.5250976288687
 20
-159.5196342917173
 30
0.0
 10
109.5250976288687
 20
-159.5196342917173
 30
0.0
 10
109.5271646861599
 20
-159.5196342917173
 30
0.0
 10
109.7597086314142
 20
-159.5175672344262
 30
0.0
 10
109.9374755584531
 20
-159.5006862665485
 30
0.0
 10
109.9374755584531
 20
-159.5006862665485
 30
0.0
 10
109.9374755584531
 20
-159.6912000468828
 30
0.0
 10
109.9374755584531
 20
-159.6912000468828
 30
0.0
 10
109.8086289873048
 20
-159.6784531935873
 30
0.0
 10
109.6518771427259
 20
-159.6784531935873
 30
0.0
 10
109.5250976288687
 20
-159.6784531935873
 30
0.0
 10
109.5250976288687
 20
-159.6784531935873
 30
0.0
 10
109.404519286885
 20
-159.6784531935873
 30
0.0
 10
109.404519286885
 20
-159.6784531935873
 30
0.0
 10
109.404519286885
 20
-159.6784531935873
 30
0.0
 10
109.404519286885
 20
-159.9047959669683
 30
0.0
 10
109.404519286885
 20
-159.9047959669683
 30
0.0
 10
109.404519286885
 20
-160.0233072516608
 30
0.0
 10
109.3790255802941
 20
-160.0591362447074
 30
0.0
 10
109.218139621133
 20
-160.073950155294
 30
0.0
 10
109.2226182452638
 20
-160.0928981804629
 30
0.0
 10
109.2160725638418
 20
-160.1035779764672
 30
0.0
 10
109.1781765135041
 20
-160.1270046257669
 30
0.0
 10
109.1761094562129
 20
-160.1459526509358
 30
0.0
 10
109.1761094562129
 20
-160.1521538228092
 30
0.0
 10
109.1736978893732
 20
-160.1669677333958
 30
0.0
 10
109.1736978893732
 20
-160.1669677333958
 30
0.0
 10
109.3111571992347
 20
-160.1669677333958
 30
0.0
 10
109.3111571992347
 20
-160.1669677333958
 30
0.0
 10
109.4761772729782
 20
-160.1669677333958
 30
0.0
 10
109.6436089135613
 20
-160.1628336188135
 30
0.0
 10
109.8106960445959
 20
-160.1480197082269
 30
0.0
 10
109.8106960445959
 20
-160.1480197082269
 30
0.0
 10
109.8106960445959
 20
-160.3554144564389
 30
0.0
 10
109.8106960445959
 20
-160.3554144564389
 30
0.0
 10
109.5946885576708
 20
-160.3385334885612
 30
0.0
 10
109.3304497339521
 20
-160.3385334885612
 30
0.0
 10
109.3111571992347
 20
-160.3385334885612
 30
0.0
 10
109.3111571992347
 20
-160.3385334885612
 30
0.0
 10
109.1716308320821
 20
-160.3385334885612
 30
0.0
 10
109.1716308320821
 20
-160.3385334885612
 30
0.0
 10
109.1716308320821
 20
-160.3385334885612
 30
0.0
 10
109.1716308320821
 20
-160.480126913005
 30
0.0
 10
109.1716308320821
 20
-160.480126913005
 30
0.0
 10
109.1716308320821
 20
-160.480126913005
 30
0.0
 10
109.397973605463
 20
-160.480126913005
 30
0.0
 10
109.397973605463
 20
-160.480126913005
 30
0.0
 10
109.6139810923882
 20
-160.480126913005
 30
0.0
 10
109.831711127056
 20
-160.4759927984227
 30
0.0
 10
110.0473741044326
 20
-160.4632459451273
 30
0.0
 10
110.0473741044326
 20
-160.4632459451273
 30
0.0
 10
110.0473741044326
 20
-160.6706406933393
 30
0.0
 10
110.0473741044326
 20
-160.6706406933393
 30
0.0
 10
109.7662543128362
 20
-160.6537597254616
 30
0.0
 10
109.4214002547627
 20
-160.6537597254616
 30
0.0
 10
109.397973605463
 20
-160.6537597254616
 30
0.0
  0
SPLINE
  5
10E
330
108
100
AcDbEntity
  8
_U+30EC_U+30A4_U+30E4_U+30FC 1
370
     0
100
AcDbSpline
210
0.0
220
0.0
230
1.0
 70
    11
 71
     3
 72
    23
 73
    19
 74
     0
 42
0.0000000001
 43
0.0000000001
 12
1.0
 22
0.0
 32
0.0
 13
1.0
 23
0.0
 33
0.0
 40
0.0
 40
0.0
 40
0.0
 40
0.0
 40
1.0
 40
1.0
 40
1.0
 40
2.0
 40
2.0
 40
2.0
 40
3.0
 40
3.0
 40
3.0
 40
4.0
 40
4.0
 40
4.0
 40
5.0
 40
5.0
 40
5.0
 40
6.0
 40
6.0
 40
6.0
 40
6.0
 10
108.2790065918539
 20
-160.025374308952
 30
0.0
 10
108.2790065918539
 20
-160.046389391412
 30
0.0
 10
108.281073649145
 20
-160.0846299512983
 30
0.0
 10
108.2555799425542
 20
-160.0846299512983
 30
0.0
 10
108.2452446560984
 20
-160.0846299512983
 30
0.0
 10
108.2366319173853
 20
-160.0780842698763
 30
0.0
 10
108.225952121381
 20
-160.0612033019986
 30
0.0
 10
108.225952121381
 20
-160.0612033019986
 30
0.0
 10
108.122254747275
 20
-159.8793022603774
 30
0.0
 10
108.122254747275
 20
-159.8793022603774
 30
0.0
 10
108.3382622342002
 20
-159.7504556892291
 30
0.0
 10
108.5349771864079
 20
-159.4731255026664
 30
0.0
 10
108.5814859754588
 20
-159.4011230070247
 30
0.0
 10
108.5814859754588
 20
-159.4011230070247
 30
0.0
 10
108.6534884711005
 20
-159.5809569913548
 30
0.0
 10
108.6534884711005
 20
-159.5809569913548
 30
0.0
 10
108.5201632758213
 20
-159.7776719435625
 30
0.0
 10
108.3444634060736
 20
-159.9619845520234
 30
0.0
 10
108.2790065918539
 20
-160.025374308952
 30
0.0
  0
SPLINE
  5
10F
330
108
100
AcDbEntity
  8
_U+30EC_U+30A4_U+30E4_U+30FC 1
370
     0
100
AcDbSpline
210
0.0
220
0.0
230
1.0
 70
    11
 71
     3
 72
    17
 73
    13
 74
     0
 42
0.0000000001
 43
0.0000000001
 12
1.0
 22
0.0
 32
0.0
 13
1.0
 23
0.0
 33
0.0
 40
0.0
 40
0.0
 40
0.0
 40
0.0
 40
1.0
 40
1.0
 40
1.0
 40
2.0
 40
2.0
 40
2.0
 40
3.0
 40
3.0
 40
3.0
 40
4.0
 40
4.0
 40
4.0
 40
4.0
 10
108.5329101291168
 20
-159.1303385018841
 30
0.0
 10
108.4715874294793
 20
-159.0542018916601
 30
0.0
 10
108.3423963487825
 20
-158.978065281436
 30
0.0
 10
108.2386989746764
 20
-158.9484374602629
 30
0.0
 10
108.2386989746764
 20
-158.9484374602629
 30
0.0
 10
108.3341281196179
 20
-158.7834173865194
 30
0.0
 10
108.3341281196179
 20
-158.7834173865194
 30
0.0
 10
108.4354139268842
 20
-158.8195908891146
 30
0.0
 10
108.5411783582814
 20
-158.8767794741697
 30
0.0
 10
108.6300618218008
 20
-158.957050198976
 30
0.0
 10
108.6300618218008
 20
-158.957050198976
 30
0.0
 10
108.5329101291168
 20
-159.1303385018841
 30
0.0
 10
108.5329101291168
 20
-159.1303385018841
 30
0.0
  0
SPLINE
  5
110
330
108
100
AcDbEntity
  8
_U+30EC_U+30A4_U+30E4_U+30FC 1
370
     0
100
AcDbSpline
210
0.0
220
0.0
230
1.0
 70
    11
 71
     3
 72
    23
 73
    19
 74
     0
 42
0.0000000001
 43
0.0000000001
 12
1.0
 22
0.0
 32
0.0
 13
1.0
 23
0.0
 33
0.0
 40
0.0
 40
0.0
 40
0.0
 40
0.0
 40
1.0
 40
1.0
 40
1.0
 40
2.0
 40
2.0
 40
2.0
 40
3.0
 40
3.0
 40
3.0
 40
4.0
 40
4.0
 40
4.0
 40
5.0
 40
5.0
 40
5.0
 40
6.0
 40
6.0
 40
6.0
 40
6.0
 10
108.9855956758786
 20
-159.8348605286177
 30
0.0
 10
108.9642360838701
 20
-159.8582871779174
 30
0.0
 10
108.867084391186
 20
-159.970252781188
 30
0.0
 10
108.7275580240334
 20
-160.0508680155428
 30
0.0
 10
108.7275580240334
 20
-160.0508680155428
 30
0.0
 10
108.5604708929988
 20
-159.9302896735591
 30
0.0
 10
108.5604708929988
 20
-159.9302896735591
 30
0.0
 10
108.7106770561557
 20
-159.8541530633351
 30
0.0
 10
108.8098958061309
 20
-159.7587239183937
 30
0.0
 10
108.8584716524729
 20
-159.7060139574693
 30
0.0
 10
108.8584716524729
 20
-159.7060139574693
 30
0.0
 10
109.0321044649295
 20
-159.7883517395668
 30
0.0
 10
109.0321044649295
 20
-159.7883517395668
 30
0.0
 10
109.0403726940941
 20
-159.7924858541491
 30
0.0
 10
109.0489854328072
 20
-159.7990315355711
 30
0.0
 10
109.0489854328072
 20
-159.8097113315754
 30
0.0
 10
109.0489854328072
 20
-159.8348605286177
 30
0.0
 10
109.0131564397606
 20
-159.8348605286177
 30
0.0
 10
108.9855956758786
 20
-159.8348605286177
 30
0.0
  0
SPLINE
  5
111
330
108
100
AcDbEntity
  8
_U+30EC_U+30A4_U+30E4_U+30FC 1
370
     0
100
AcDbSpline
210
0.0
220
0.0
230
1.0
 70
    11
 71
     3
 72
    20
 73
    16
 74
     0
 42
0.0000000001
 43
0.0000000001
 12
1.0
 22
0.0
 32
0.0
 13
1.0
 23
0.0
 33
0.0
 40
0.0
 40
0.0
 40
0.0
 40
0.0
 40
1.0
 40
1.0
 40
1.0
 40
2.0
 40
2.0
 40
2.0
 40
3.0
 40
3.0
 40
3.0
 40
4.0
 40
4.0
 40
4.0
 40
5.0
 40
5.0
 40
5.0
 40
5.0
 10
109.2839409449012
 20
-158.9928791920226
 30
0.0
 10
109.245700385015
 20
-159.0417995479132
 30
0.0
 10
109.1843776853775
 20
-159.1200032154283
 30
0.0
 10
109.0448513182249
 20
-159.2299017614078
 30
0.0
 10
109.1251220430312
 20
-159.2340358759901
 30
0.0
 10
109.1547498642044
 20
-159.2340358759901
 30
0.0
 10
109.1781765135041
 20
-159.2340358759901
 30
0.0
 10
109.1781765135041
 20
-159.2340358759901
 30
0.0
 10
109.4065863441761
 20
-159.2340358759901
 30
0.0
 10
109.4065863441761
 20
-159.2340358759901
 30
0.0
 10
109.4382812226404
 20
-159.2340358759901
 30
0.0
 10
109.4868570689825
 20
-159.231968818699
 30
0.0
 10
109.5609266219153
 20
-159.2299017614078
 30
0.0
 10
109.4489610186447
 20
-159.1558322084749
 30
0.0
 10
109.4000406627542
 20
-159.1093234194241
 30
0.0
 10
109.2839409449012
 20
-158.9928791920226
 30
0.0
  0
SPLINE
  5
112
330
108
100
AcDbEntity
  8
_U+30EC_U+30A4_U+30E4_U+30FC 1
370
     0
100
AcDbSpline
210
0.0
220
0.0
230
1.0
 70
    11
 71
     3
 72
    17
 73
    13
 74
     0
 42
0.0000000001
 43
0.0000000001
 12
1.0
 22
0.0
 32
0.0
 13
1.0
 23
0.0
 33
0.0
 40
0.0
 40
0.0
 40
0.0
 40
0.0
 40
1.0
 40
1.0
 40
1.0
 40
2.0
 40
2.0
 40
2.0
 40
3.0
 40
3.0
 40
3.0
 40
4.0
 40
4.0
 40
4.0
 40
4.0
 10
109.8444579803514
 20
-160.0484564487032
 30
0.0
 10
109.7090657277811
 20
-159.9364908454326
 30
0.0
 10
109.6033012963839
 20
-159.8731010885039
 30
0.0
 10
109.4847900116913
 20
-159.8097113315754
 30
0.0
 10
109.4847900116913
 20
-159.8097113315754
 30
0.0
 10
109.6115695255485
 20
-159.6974012187562
 30
0.0
 10
109.6115695255485
 20
-159.6974012187562
 30
0.0
 10
109.7428276635365
 20
-159.7439100078071
 30
0.0
 10
109.852726209516
 20
-159.8010985928622
 30
0.0
 10
109.9777831756306
 20
-159.9027289096771
 30
0.0
 10
109.9777831756306
 20
-159.9027289096771
 30
0.0
 10
109.8444579803514
 20
-160.0484564487032
 30
0.0
 10
109.8444579803514
 20
-160.0484564487032
 30
0.0
  0
HATCH
  5
113
330
108
100
AcDbEntity
  8
_U+30EC_U+30A4_U+30E4_U+30FC 1
 62
     7
420
 16777215
100
AcDbHatch
 10
0.0
 20
0.0
 30
0.0
210
0.0
220
0.0
230
1.0
  2
SOLID
 70
     1
 71
     0
 91
        7
 92
        1
 93
        1
 72
     4
 94
        3
 73
     0
 74
     1
 95
       17
 96
       13
 40
0.0
 40
0.0
 40
0.0
 40
0.0
 40
1.0
 40
1.0
 40
1.0
 40
2.0
 40
2.0
 40
2.0
 40
3.0
 40
3.0
 40
3.0
 40
4.0
 40
4.0
 40
4.0
 40
4.0
 10
108.3530761447867
 20
-159.4751925599576
 10
108.2473117133896
 20
-159.3694281285604
 10
108.1666964790347
 20
-159.3315320782227
 10
108.073678900933
 20
-159.2998371997584
 10
108.073678900933
 20
-159.2998371997584
 10
108.183921956461
 20
-159.1348171260149
 10
108.183921956461
 20
-159.1348171260149
 10
108.281073649145
 20
-159.1771918004835
 10
108.4016519911288
 20
-159.2553954679987
 10
108.4547064616016
 20
-159.3101724862141
 10
108.4547064616016
 20
-159.3101724862141
 10
108.3530761447867
 20
-159.4751925599576
 10
108.3530761447867
 20
-159.4751925599576
 97
        0
 97
        0
 92
        1
 93
        1
 72
     4
 94
        3
 73
     0
 74
     1
 95
      182
 96
      178
 40
0.0
 40
0.0
 40
0.0
 40
0.0
 40
1.0
 40
1.0
 40
1.0
 40
2.0
 40
2.0
 40
2.0
 40
3.0
 40
3.0
 40
3.0
 40
4.0
 40
4.0
 40
4.0
 40
5.0
 40
5.0
 40
5.0
 40
6.0
 40
6.0
 40
6.0
 40
7.0
 40
7.0
 40
7.0
 40
8.0
 40
8.0
 40
8.0
 40
9.0
 40
9.0
 40
9.0
 40
10.0
 40
10.0
 40
10.0
 40
11.0
 40
11.0
 40
11.0
 40
12.0
 40
12.0
 40
12.0
 40
13.0
 40
13.0
 40
13.0
 40
14.0
 40
14.0
 40
14.0
 40
15.0
 40
15.0
 40
15.0
 40
16.0
 40
16.0
 40
16.0
 40
17.0
 40
17.0
 40
17.0
 40
18.0
 40
18.0
 40
18.0
 40
19.0
 40
19.0
 40
19.0
 40
20.0
 40
20.0
 40
20.0
 40
21.0
 40
21.0
 40
21.0
 40
22.0
 40
22.0
 40
22.0
 40
23.0
 40
23.0
 40
23.0
 40
24.0
 40
24.0
 40
24.0
 40
25.0
 40
25.0
 40
25.0
 40
26.0
 40
26.0
 40
26.0
 40
27.0
 40
27.0
 40
27.0
 40
28.0
 40
28.0
 40
28.0
 40
29.0
 40
29.0
 40
29.0
 40
30.0
 40
30.0
 40
30.0
 40
31.0
 40
31.0
 40
31.0
 40
32.0
 40
32.0
 40
32.0
 40
33.0
 40
33.0
 40
33.0
 40
34.0
 40
34.0
 40
34.0
 40
35.0
 40
35.0
 40
35.0
 40
36.0
 40
36.0
 40
36.0
 40
37.0
 40
37.0
 40
37.0
 40
38.0
 40
38.0
 40
38.0
 40
39.0
 40
39.0
 40
39.0
 40
40.0
 40
40.0
 40
40.0
 40
41.0
 40
41.0
 40
41.0
 40
42.0
 40
42.0
 40
42.0
 40
43.0
 40
43.0
 40
43.0
 40
44.0
 40
44.0
 40
44.0
 40
45.0
 40
45.0
 40
45.0
 40
46.0
 40
46.0
 40
46.0
 40
47.0
 40
47.0
 40
47.0
 40
48.0
 40
48.0
 40
48.0
 40
49.0
 40
49.0
 40
49.0
 40
50.0
 40
50.0
 40
50.0
 40
51.0
 40
51.0
 40
51.0
 40
52.0
 40
52.0
 40
52.0
 40
53.0
 40
53.0
 40
53.0
 40
54.0
 40
54.0
 40
54.0
 40
55.0
 40
55.0
 40
55.0
 40
56.0
 40
56.0
 40
56.0
 40
57.0
 40
57.0
 40
57.0
 40
58.0
 40
58.0
 40
58.0
 40
59.0
 40
59.0
 40
59.0
 40
59.0
 10
109.397973605463
 20
-160.6537597254616
 10
109.397973605463
 20
-160.6537597254616
 10
108.7613199597888
 20
-160.6537597254616
 10
108.7613199597888
 20
-160.6537597254616
 10
108.5477240397034
 20
-160.6537597254616
 10
108.3317165527782
 20
-160.6578938400439
 10
108.1181206326927
 20
-160.6706406933393
 10
108.1181206326927
 20
-160.6706406933393
 10
108.1181206326927
 20
-160.4632459451273
 10
108.1181206326927
 20
-160.4632459451273
 10
108.3403292914913
 20
-160.4759927984227
 10
108.6638237575563
 20
-160.480126913005
 10
108.7613199597888
 20
-160.480126913005
 10
108.7613199597888
 20
-160.480126913005
 10
108.9814615612963
 20
-160.480126913005
 10
108.9814615612963
 20
-160.480126913005
 10
108.9814615612963
 20
-160.480126913005
 10
108.9814615612963
 20
-160.3385334885612
 10
108.9814615612963
 20
-160.3385334885612
 10
108.9814615612963
 20
-160.3385334885612
 10
108.8205756021351
 20
-160.3385334885612
 10
108.8205756021351
 20
-160.3385334885612
 10
108.6555555283917
 20
-160.3385334885612
 10
108.4905354546482
 20
-160.3426676031435
 10
108.3255153809047
 20
-160.3574815137301
 10
108.3255153809047
 20
-160.3574815137301
 10
108.3255153809047
 20
-160.1480197082269
 10
108.3255153809047
 20
-160.1480197082269
 10
108.4967366265217
 20
-160.1628336188135
 10
108.7444389919111
 20
-160.1669677333958
 10
108.8205756021351
 20
-160.1669677333958
 10
108.8205756021351
 20
-160.1669677333958
 10
108.9814615612963
 20
-160.1669677333958
 10
108.9814615612963
 20
-160.1669677333958
 10
108.9769829371655
 20
-160.0953097473026
 10
108.9769829371655
 20
-160.0887640658806
 10
108.970781765292
 20
-160.0360541049563
 10
108.970781765292
 20
-160.0360541049563
 10
109.1103081324446
 20
-160.0508680155428
 10
109.1103081324446
 20
-160.0508680155428
 10
109.1103081324446
 20
-160.0508680155428
 10
109.0110893824695
 20
-159.8793022603774
 10
109.0110893824695
 20
-159.8793022603774
 10
109.0575981715203
 20
-159.8858479417994
 10
109.1316677244532
 20
-159.894116170964
 10
109.1485486923309
 20
-159.894116170964
 10
109.1991915959641
 20
-159.894116170964
 10
109.2160725638418
 20
-159.8731010885039
 10
109.2160725638418
 20
-159.8159125034488
 10
109.2160725638418
 20
-159.8159125034488
 10
109.2160725638418
 20
-159.6784531935873
 10
109.2160725638418
 20
-159.6784531935873
 10
109.2160725638418
 20
-159.6784531935873
 10
109.1103081324446
 20
-159.6784531935873
 10
109.1103081324446
 20
-159.6784531935873
 10
108.9769829371655
 20
-159.6784531935873
 10
108.8205756021351
 20
-159.6784531935873
 10
108.6979302028602
 20
-159.6912000468828
 10
108.6979302028602
 20
-159.6912000468828
 10
108.6979302028602
 20
-159.5006862665485
 10
108.6979302028602
 20
-159.5006862665485
 10
108.8650173338949
 20
-159.5175672344262
 10
109.0954942218581
 20
-159.5196342917173
 10
109.1103081324446
 20
-159.5196342917173
 10
109.1103081324446
 20
-159.5196342917173
 10
109.2160725638418
 20
-159.5196342917173
 10
109.2160725638418
 20
-159.5196342917173
 10
109.2160725638418
 20
-159.5196342917173
 10
109.2160725638418
 20
-159.3887206632778
 10
109.2160725638418
 20
-159.3887206632778
 10
109.2160725638418
 20
-159.3887206632778
 10
109.1781765135041
 20
-159.3887206632778
 10
109.1781765135041
 20
-159.3887206632778
 10
109.1337347817444
 20
-159.3887206632778
 10
109.0086778156298
 20
-159.3928547778601
 10
108.9197943521103
 20
-159.4011230070247
 10
108.9197943521103
 20
-159.4011230070247
 10
108.9197943521103
 20
-159.3208522822184
 10
108.9197943521103
 20
-159.3208522822184
 10
108.867084391186
 20
-159.3590928421047
 10
108.8415906845952
 20
-159.3739067526913
 10
108.7992160101266
 20
-159.3969888924424
 10
108.7992160101266
 20
-159.3969888924424
 10
108.611113796632
 20
-159.2681423212941
 10
108.611113796632
 20
-159.2681423212941
 10
108.6893174641471
 20
-159.2340358759901
 10
108.846069308726
 20
-159.1706461190615
 10
109.0024766437563
 20
-159.0269856373266
 10
109.0848144258538
 20
-158.9484374602629
 10
109.1633626029175
 20
-158.8640326208743
 10
109.2160725638418
 20
-158.7624023040594
 10
109.2160725638418
 20
-158.7624023040594
 10
109.4276014266362
 20
-158.8237250036969
 10
109.4276014266362
 20
-158.8237250036969
 10
109.4468939613536
 20
-158.8299261755703
 10
109.4572292478093
 20
-158.8385389142834
 10
109.4572292478093
 20
-158.8512857675788
 10
109.4572292478093
 20
-158.8681667354566
 10
109.4444823945139
 20
-158.87436790733
 10
109.4193331974716
 20
-158.8871147606255
 10
109.4996039222779
 20
-158.984610962858
 10
109.6625569387302
 20
-159.0817626555421
 10
109.6963188744856
 20
-159.1007106807109
 10
109.8465250376425
 20
-159.1895941442304
 10
109.9609022077528
 20
-159.2171549081124
 10
110.039105875268
 20
-159.2361029332813
 10
110.039105875268
 20
-159.2361029332813
 10
109.9205945905754
 20
-159.4056016311555
 10
109.9205945905754
 20
-159.4056016311555
 10
109.8358452416383
 20
-159.3759738099824
 10
109.7852023380051
 20
-159.3570257848135
 10
109.6666910533125
 20
-159.2912244610453
 10
109.6666910533125
 20
-159.2912244610453
 10
109.6666910533125
 20
-159.4011230070247
 10
109.6666910533125
 20
-159.4011230070247
 10
109.584353271215
 20
-159.3928547778601
 10
109.4572292478093
 20
-159.3887206632778
 10
109.404519286885
 20
-159.3887206632778
 10
109.404519286885
 20
-159.3887206632778
 10
109.404519286885
 20
-159.5196342917173
 10
109.404519286885
 20
-159.5196342917173
 10
109.404519286885
 20
-159.5196342917173
 10
109.5250976288687
 20
-159.5196342917173
 10
109.5250976288687
 20
-159.5196342917173
 10
109.5271646861599
 20
-159.5196342917173
 10
109.7597086314142
 20
-159.5175672344262
 10
109.9374755584531
 20
-159.5006862665485
 10
109.9374755584531
 20
-159.5006862665485
 10
109.9374755584531
 20
-159.6912000468828
 10
109.9374755584531
 20
-159.6912000468828
 10
109.8086289873048
 20
-159.6784531935873
 10
109.6518771427259
 20
-159.6784531935873
 10
109.5250976288687
 20
-159.6784531935873
 10
109.5250976288687
 20
-159.6784531935873
 10
109.404519286885
 20
-159.6784531935873
 10
109.404519286885
 20
-159.6784531935873
 10
109.404519286885
 20
-159.6784531935873
 10
109.404519286885
 20
-159.9047959669683
 10
109.404519286885
 20
-159.9047959669683
 10
109.404519286885
 20
-160.0233072516608
 10
109.3790255802941
 20
-160.0591362447074
 10
109.218139621133
 20
-160.073950155294
 10
109.2226182452638
 20
-160.0928981804629
 10
109.2160725638418
 20
-160.1035779764672
 10
109.1781765135041
 20
-160.1270046257669
 10
109.1761094562129
 20
-160.1459526509358
 10
109.1761094562129
 20
-160.1521538228092
 10
109.1736978893732
 20
-160.1669677333958
 10
109.1736978893732
 20
-160.1669677333958
 10
109.3111571992347
 20
-160.1669677333958
 10
109.3111571992347
 20
-160.1669677333958
 10
109.4761772729782
 20
-160.1669677333958
 10
109.6436089135613
 20
-160.1628336188135
 10
109.8106960445959
 20
-160.1480197082269
 10
109.8106960445959
 20
-160.1480197082269
 10
109.8106960445959
 20
-160.3554144564389
 10
109.8106960445959
 20
-160.3554144564389
 10
109.5946885576708
 20
-160.3385334885612
 10
109.3304497339521
 20
-160.3385334885612
 10
109.3111571992347
 20
-160.3385334885612
 10
109.3111571992347
 20
-160.3385334885612
 10
109.1716308320821
 20
-160.3385334885612
 10
109.1716308320821
 20
-160.3385334885612
 10
109.1716308320821
 20
-160.3385334885612
 10
109.1716308320821
 20
-160.480126913005
 10
109.1716308320821
 20
-160.480126913005
 10
109.1716308320821
 20
-160.480126913005
 10
109.397973605463
 20
-160.480126913005
 10
109.397973605463
 20
-160.480126913005
 10
109.6139810923882
 20
-160.480126913005
 10
109.831711127056
 20
-160.4759927984227
 10
110.0473741044326
 20
-160.4632459451273
 10
110.0473741044326
 20
-160.4632459451273
 10
110.0473741044326
 20
-160.6706406933393
 10
110.0473741044326
 20
-160.6706406933393
 10
109.7662543128362
 20
-160.6537597254616
 10
109.4214002547627
 20
-160.6537597254616
 10
109.397973605463
 20
-160.6537597254616
 97
        0
 97
        0
 92
        1
 93
        1
 72
     4
 94
        3
 73
     0
 74
     1
 95
       23
 96
       19
 40
0.0
 40
0.0
 40
0.0
 40
0.0
 40
1.0
 40
1.0
 40
1.0
 40
2.0
 40
2.0
 40
2.0
 40
3.0
 40
3.0
 40
3.0
 40
4.0
 40
4.0
 40
4.0
 40
5.0
 40
5.0
 40
5.0
 40
6.0
 40
6.0
 40
6.0
 40
6.0
 10
108.2790065918539
 20
-160.025374308952
 10
108.2790065918539
 20
-160.046389391412
 10
108.281073649145
 20
-160.0846299512983
 10
108.2555799425542
 20
-160.0846299512983
 10
108.2452446560984
 20
-160.0846299512983
 10
108.2366319173853
 20
-160.0780842698763
 10
108.225952121381
 20
-160.0612033019986
 10
108.225952121381
 20
-160.0612033019986
 10
108.122254747275
 20
-159.8793022603774
 10
108.122254747275
 20
-159.8793022603774
 10
108.3382622342002
 20
-159.7504556892291
 10
108.5349771864079
 20
-159.4731255026664
 10
108.5814859754588
 20
-159.4011230070247
 10
108.5814859754588
 20
-159.4011230070247
 10
108.6534884711005
 20
-159.5809569913548
 10
108.6534884711005
 20
-159.5809569913548
 10
108.5201632758213
 20
-159.7776719435625
 10
108.3444634060736
 20
-159.9619845520234
 10
108.2790065918539
 20
-160.025374308952
 97
        0
 97
        0
 92
        1
 93
        1
 72
     4
 94
        3
 73
     0
 74
     1
 95
       17
 96
       13
 40
0.0
 40
0.0
 40
0.0
 40
0.0
 40
1.0
 40
1.0
 40
1.0
 40
2.0
 40
2.0
 40
2.0
 40
3.0
 40
3.0
 40
3.0
 40
4.0
 40
4.0
 40
4.0
 40
4.0
 10
108.5329101291168
 20
-159.1303385018841
 10
108.4715874294793
 20
-159.0542018916601
 10
108.3423963487825
 20
-158.978065281436
 10
108.2386989746764
 20
-158.9484374602629
 10
108.2386989746764
 20
-158.9484374602629
 10
108.3341281196179
 20
-158.7834173865194
 10
108.3341281196179
 20
-158.7834173865194
 10
108.4354139268842
 20
-158.8195908891146
 10
108.5411783582814
 20
-158.8767794741697
 10
108.6300618218008
 20
-158.957050198976
 10
108.6300618218008
 20
-158.957050198976
 10
108.5329101291168
 20
-159.1303385018841
 10
108.5329101291168
 20
-159.1303385018841
 97
        0
 97
        0
 92
        1
 93
        1
 72
     4
 94
        3
 73
     0
 74
     1
 95
       23
 96
       19
 40
0.0
 40
0.0
 40
0.0
 40
0.0
 40
1.0
 40
1.0
 40
1.0
 40
2.0
 40
2.0
 40
2.0
 40
3.0
 40
3.0
 40
3.0
 40
4.0
 40
4.0
 40
4.0
 40
5.0
 40
5.0
 40
5.0
 40
6.0
 40
6.0
 40
6.0
 40
6.0
 10
108.9855956758786
 20
-159.8348605286177
 10
108.9642360838701
 20
-159.8582871779174
 10
108.867084391186
 20
-159.970252781188
 10
108.7275580240334
 20
-160.0508680155428
 10
108.7275580240334
 20
-160.0508680155428
 10
108.5604708929988
 20
-159.9302896735591
 10
108.5604708929988
 20
-159.9302896735591
 10
108.7106770561557
 20
-159.8541530633351
 10
108.8098958061309
 20
-159.7587239183937
 10
108.8584716524729
 20
-159.7060139574693
 10
108.8584716524729
 20
-159.7060139574693
 10
109.0321044649295
 20
-159.7883517395668
 10
109.0321044649295
 20
-159.7883517395668
 10
109.0403726940941
 20
-159.7924858541491
 10
109.0489854328072
 20
-159.7990315355711
 10
109.0489854328072
 20
-159.8097113315754
 10
109.0489854328072
 20
-159.8348605286177
 10
109.0131564397606
 20
-159.8348605286177
 10
108.9855956758786
 20
-159.8348605286177
 97
        0
 97
        0
 92
        1
 93
        1
 72
     4
 94
        3
 73
     0
 74
     1
 95
       20
 96
       16
 40
0.0
 40
0.0
 40
0.0
 40
0.0
 40
1.0
 40
1.0
 40
1.0
 40
2.0
 40
2.0
 40
2.0
 40
3.0
 40
3.0
 40
3.0
 40
4.0
 40
4.0
 40
4.0
 40
5.0
 40
5.0
 40
5.0
 40
5.0
 10
109.2839409449012
 20
-158.9928791920226
 10
109.245700385015
 20
-159.0417995479132
 10
109.1843776853775
 20
-159.1200032154283
 10
109.0448513182249
 20
-159.2299017614078
 10
109.1251220430312
 20
-159.2340358759901
 10
109.1547498642044
 20
-159.2340358759901
 10
109.1781765135041
 20
-159.2340358759901
 10
109.1781765135041
 20
-159.2340358759901
 10
109.4065863441761
 20
-159.2340358759901
 10
109.4065863441761
 20
-159.2340358759901
 10
109.4382812226404
 20
-159.2340358759901
 10
109.4868570689825
 20
-159.231968818699
 10
109.5609266219153
 20
-159.2299017614078
 10
109.4489610186447
 20
-159.1558322084749
 10
109.4000406627542
 20
-159.1093234194241
 10
109.2839409449012
 20
-158.9928791920226
 97
        0
 97
        0
 92
        1
 93
        1
 72
     4
 94
        3
 73
     0
 74
     1
 95
       17
 96
       13
 40
0.0
 40
0.0
 40
0.0
 40
0.0
 40
1.0
 40
1.0
 40
1.0
 40
2.0
 40
2.0
 40
2.0
 40
3.0
 40
3.0
 40
3.0
 40
4.0
 40
4.0
 40
4.0
 40
4.0
 10
109.8444579803514
 20
-160.0484564487032
 10
109.7090657277811
 20
-159.9364908454326
 10
109.6033012963839
 20
-159.8731010885039
 10
109.4847900116913
 20
-159.8097113315754
 10
109.4847900116913
 20
-159.8097113315754
 10
109.6115695255485
 20
-159.6974012187562
 10
109.6115695255485
 20
-159.6974012187562
 10
109.7428276635365
 20
-159.7439100078071
 10
109.852726209516
 20
-159.8010985928622
 10
109.9777831756306
 20
-159.9027289096771
 10
109.9777831756306
 20
-159.9027289096771
 10
109.8444579803514
 20
-160.0484564487032
 10
109.8444579803514
 20
-160.0484564487032
 97
        0
 97
        0
 75
     2
 76
     1
 98
        0
  0
SPLINE
  5
114
330
108
100
AcDbEntity
  8
_U+30EC_U+30A4_U+30E4_U+30FC 1
370
     0
100
AcDbSpline
210
0.0
220
0.0
230
1.0
 70
    11
 71
     3
 72
   113
 73
   109
 74
     0
 42
0.0000000001
 43
0.0000000001
 12
1.0
 22
0.0
 32
0.0
 13
1.0
 23
0.0
 33
0.0
 40
0.0
 40
0.0
 40
0.0
 40
0.0
 40
1.0
 40
1.0
 40
1.0
 40
2.0
 40
2.0
 40
2.0
 40
3.0
 40
3.0
 40
3.0
 40
4.0
 40
4.0
 40
4.0
 40
5.0
 40
5.0
 40
5.0
 40
6.0
 40
6.0
 40
6.0
 40
7.0
 40
7.0
 40
7.0
 40
8.0
 40
8.0
 40
8.0
 40
9.0
 40
9.0
 40
9.0
 40
10.0
 40
10.0
 40
10.0
 40
11.0
 40
11.0
 40
11.0
 40
12.0
 40
12.0
 40
12.0
 40
13.0
 40
13.0
 40
13.0
 40
14.0
 40
14.0
 40
14.0
 40
15.0
 40
15.0
 40
15.0
 40
16.0
 40
16.0
 40
16.0
 40
17.0
 40
17.0
 40
17.0
 40
18.0
 40
18.0
 40
18.0
 40
19.0
 40
19.0
 40
19.0
 40
20.0
 40
20.0
 40
20.0
 40
21.0
 40
21.0
 40
21.0
 40
22.0
 40
22.0
 40
22.0
 40
23.0
 40
23.0
 40
23.0
 40
24.0
 40
24.0
 40
24.0
 40
25.0
 40
25.0
 40
25.0
 40
26.0
 40
26.0
 40
26.0
 40
27.0
 40
27.0
 40
27.0
 40
28.0
 40
28.0
 40
28.0
 40
29.0
 40
29.0
 40
29.0
 40
30.0
 40
30.0
 40
30.0
 40
31.0
 40
31.0
 40
31.0
 40
32.0
 40
32.0
 40
32.0
 40
33.0
 40
33.0
 40
33.0
 40
34.0
 40
34.0
 40
34.0
 40
35.0
 40
35.0
 40
35.0
 40
36.0
 40
36.0
 40
36.0
 40
36.0
 10
111.7241020771037
 20
-160.025374308952
 30
0.0
 10
111.7241020771037
 20
-160.025374308952
 30
0.0
 10
111.8236653366274
 20
-160.1249375684757
 30
0.0
 10
111.8236653366274
 20
-160.1249375684757
 30
0.0
 10
111.8343451326317
 20
-160.1352728549315
 30
0.0
 10
111.8446804190875
 20
-160.1480197082269
 30
0.0
 10
111.8446804190875
 20
-160.1628336188135
 30
0.0
 10
111.8446804190875
 20
-160.1649006761046
 30
0.0
 10
111.8446804190875
 20
-160.1945284972778
 30
0.0
 10
111.8067843687497
 20
-160.1945284972778
 30
0.0
 10
111.7981716300366
 20
-160.1945284972778
 30
0.0
 10
111.7578640128591
 20
-160.1903943826955
 30
0.0
 10
111.7516628409857
 20
-160.1903943826955
 30
0.0
 10
111.7113552238083
 20
-160.2220892611598
 30
0.0
 10
111.6648464347574
 20
-160.2558511969152
 30
0.0
 10
111.5656276847822
 20
-160.3130397819704
 30
0.0
 10
111.7113552238083
 20
-160.4208712706587
 30
0.0
 10
111.8701741256783
 20
-160.4780598557138
 30
0.0
 10
112.1430256881101
 20
-160.5163004156001
 30
0.0
 10
112.1430256881101
 20
-160.5163004156001
 30
0.0
 10
111.9928195249532
 20
-160.6916557757993
 30
0.0
 10
111.9928195249532
 20
-160.6916557757993
 30
0.0
 10
111.7306477585257
 20
-160.6196532801576
 30
0.0
 10
111.5738959139468
 20
-160.5311143261867
 30
0.0
 10
111.4977593037228
 20
-160.4780598557138
 30
0.0
 10
111.3475531405659
 20
-160.3764295388989
 30
0.0
 10
111.203892658831
 20
-160.2134765224466
 30
0.0
 10
111.127756048607
 20
-160.0484564487032
 30
0.0
 10
111.0598876675475
 20
-160.1142577724714
 30
0.0
 10
110.9858181146147
 20
-160.1669677333958
 30
0.0
 10
110.9076144470995
 20
-160.2158880892863
 30
0.0
 10
110.9076144470995
 20
-160.2158880892863
 30
0.0
 10
110.9076144470995
 20
-160.4673800597095
 30
0.0
 10
110.9076144470995
 20
-160.4673800597095
 30
0.0
 10
111.0705674635518
 20
-160.4422308626672
 30
0.0
 10
111.2566026197553
 20
-160.3977891309075
 30
0.0
 10
111.3199923766839
 20
-160.3829752203209
 30
0.0
 10
111.3199923766839
 20
-160.3829752203209
 30
0.0
 10
111.2903645555107
 20
-160.5521294086467
 30
0.0
 10
111.2903645555107
 20
-160.5521294086467
 30
0.0
 10
111.2882974982196
 20
-160.5521294086467
 30
0.0
 10
111.2693494730507
 20
-160.5583305805201
 30
0.0
 10
111.2672824157596
 20
-160.5583305805201
 30
0.0
 10
111.0685004062607
 20
-160.5965711404064
 30
0.0
 10
110.7512071120692
 20
-160.6620279546262
 30
0.0
 10
110.5541476503129
 20
-160.6982014572213
 30
0.0
 10
110.5438123638571
 20
-160.715082425099
 30
0.0
 10
110.5203857145574
 20
-160.7467773035633
 30
0.0
 10
110.4973035748062
 20
-160.7467773035633
 30
0.0
 10
110.4697428109242
 20
-160.7467773035633
 30
0.0
 10
110.4656086963419
 20
-160.7278292783944
 30
0.0
 10
110.4631971295023
 20
-160.708536743677
 30
0.0
 10
110.4631971295023
 20
-160.708536743677
 30
0.0
 10
110.4380479324599
 20
-160.535248440769
 30
0.0
 10
110.4380479324599
 20
-160.535248440769
 30
0.0
 10
110.5121174853928
 20
-160.5266357020558
 30
0.0
 10
110.6199489740811
 20
-160.5138888487604
 30
0.0
 10
110.7277804627694
 20
-160.4928737663004
 30
0.0
 10
110.7277804627694
 20
-160.4928737663004
 30
0.0
 10
110.7277804627694
 20
-160.3151068392615
 30
0.0
 10
110.7277804627694
 20
-160.3151068392615
 30
0.0
 10
110.583775471486
 20
-160.3871093349032
 30
0.0
 10
110.4886908360931
 20
-160.4167371560764
 30
0.0
 10
110.3236707623496
 20
-160.4463649772495
 30
0.0
 10
110.3236707623496
 20
-160.4463649772495
 30
0.0
 10
110.2030924203659
 20
-160.2772107889238
 30
0.0
 10
110.2030924203659
 20
-160.2772107889238
 30
0.0
 10
110.5203857145574
 20
-160.2496500250418
 30
0.0
 10
110.7129665521829
 20
-160.15663244694
 30
0.0
 10
110.8907334792218
 20
-160.0233072516608
 30
0.0
 10
110.7446614306472
 20
-160.0233072516608
 30
0.0
 10
110.4442491043334
 20
-160.0274413662432
 30
0.0
 10
110.2475341521256
 20
-160.0339870476651
 30
0.0
 10
110.2475341521256
 20
-160.0339870476651
 30
0.0
 10
110.2475341521256
 20
-159.8562201206262
 30
0.0
 10
110.2475341521256
 20
-159.8562201206262
 30
0.0
 10
110.4018744298648
 20
-159.8624212924997
 30
0.0
 10
110.6981526415963
 20
-159.8689669739217
 30
0.0
 10
110.8821207405086
 20
-159.8689669739217
 30
0.0
 10
110.8821207405086
 20
-159.8689669739217
 30
0.0
 10
111.093649603303
 20
-159.8689669739217
 30
0.0
 10
111.093649603303
 20
-159.8689669739217
 30
0.0
 10
111.093649603303
 20
-159.7735378289802
 30
0.0
 10
111.0915825460118
 20
-159.722894925347
 30
0.0
 10
111.0853813741384
 20
-159.6763861362962
 30
0.0
 10
111.0853813741384
 20
-159.6763861362962
 30
0.0
 10
111.301044351515
 20
-159.6932671041739
 30
0.0
 10
111.301044351515
 20
-159.6932671041739
 30
0.0
 10
111.349620197857
 20
-159.6974012187562
 30
0.0
 10
111.3582329365702
 20
-159.7122151293428
 30
0.0
 10
111.3582329365702
 20
-159.7270290399294
 30
0.0
 10
111.3582329365702
 20
-159.7525227465202
 30
0.0
 10
111.3413519686925
 20
-159.7607909756848
 30
0.0
 10
111.2903645555107
 20
-159.7862846822757
 30
0.0
 10
111.2882974982196
 20
-159.8117783888665
 30
0.0
 10
111.2882974982196
 20
-159.81797956074
 30
0.0
 10
111.2862304409284
 20
-159.8689669739217
 30
0.0
 10
111.2862304409284
 20
-159.8689669739217
 30
0.0
 10
111.5167073288917
 20
-159.8689669739217
 30
0.0
 10
111.5167073288917
 20
-159.8689669739217
 30
0.0
 10
111.6817274026351
 20
-159.8689669739217
 30
0.0
 10
111.9738714997843
 20
-159.8624212924997
 30
0.0
 10
112.1537054841144
 20
-159.8562201206262
 30
0.0
 10
112.1537054841144
 20
-159.8562201206262
 30
0.0
 10
112.1537054841144
 20
-160.0339870476651
 30
0.0
 10
112.1537054841144
 20
-160.0339870476651
 30
0.0
 10
112.0245144034175
 20
-160.0295084235343
 30
0.0
 10
112.0014322636663
 20
-160.0295084235343
 30
0.0
 10
111.7241020771037
 20
-160.025374308952
 30
0.0
  0
SPLINE
  5
115
330
108
100
AcDbEntity
  8
_U+30EC_U+30A4_U+30E4_U+30FC 1
370
     0
100
AcDbSpline
210
0.0
220
0.0
230
1.0
 70
    11
 71
     3
 72
    23
 73
    19
 74
     0
 42
0.0000000001
 43
0.0000000001
 12
1.0
 22
0.0
 32
0.0
 13
1.0
 23
0.0
 33
0.0
 40
0.0
 40
0.0
 40
0.0
 40
0.0
 40
1.0
 40
1.0
 40
1.0
 40
2.0
 40
2.0
 40
2.0
 40
3.0
 40
3.0
 40
3.0
 40
4.0
 40
4.0
 40
4.0
 40
5.0
 40
5.0
 40
5.0
 40
6.0
 40
6.0
 40
6.0
 40
6.0
 10
110.4401149897511
 20
-159.674319079005
 30
0.0
 10
110.4232340218734
 20
-159.7142821866339
 30
0.0
 10
110.4166883404514
 20
-159.7311631545116
 30
0.0
 10
110.3956732579914
 20
-159.7311631545116
 30
0.0
 10
110.3808593474048
 20
-159.7311631545116
 30
0.0
 10
110.3701795514005
 20
-159.7142821866339
 30
0.0
 10
110.3639783795271
 20
-159.7015353333385
 30
0.0
 10
110.3639783795271
 20
-159.7015353333385
 30
0.0
 10
110.2644151200033
 20
-159.536515259595
 30
0.0
 10
110.2644151200033
 20
-159.536515259595
 30
0.0
 10
110.3660454368182
 20
-159.5048203811307
 30
0.0
 10
110.5162515999751
 20
-159.4500433629153
 30
0.0
 10
110.715033609474
 20
-159.2870903464629
 30
0.0
 10
110.715033609474
 20
-159.2870903464629
 30
0.0
 10
110.7722221945292
 20
-159.460378649371
 30
0.0
 10
110.7722221945292
 20
-159.460378649371
 30
0.0
 10
110.6792046164274
 20
-159.543060941017
 30
0.0
 10
110.590321152908
 20
-159.6002495260722
 30
0.0
 10
110.4401149897511
 20
-159.674319079005
 30
0.0
  0
SPLINE
  5
116
330
108
100
AcDbEntity
  8
_U+30EC_U+30A4_U+30E4_U+30FC 1
370
     0
100
AcDbSpline
210
0.0
220
0.0
230
1.0
 70
    11
 71
     3
 72
    17
 73
    13
 74
     0
 42
0.0000000001
 43
0.0000000001
 12
1.0
 22
0.0
 32
0.0
 13
1.0
 23
0.0
 33
0.0
 40
0.0
 40
0.0
 40
0.0
 40
0.0
 40
1.0
 40
1.0
 40
1.0
 40
2.0
 40
2.0
 40
2.0
 40
3.0
 40
3.0
 40
3.0
 40
4.0
 40
4.0
 40
4.0
 40
4.0
 10
110.5923882101991
 20
-159.2088866789478
 30
0.0
 10
110.562760389026
 20
-159.1685790617704
 30
0.0
 10
110.4948920079666
 20
-159.0714273690863
 30
0.0
 10
110.3129909663454
 20
-158.9611843135583
 30
0.0
 10
110.3129909663454
 20
-158.9611843135583
 30
0.0
 10
110.4401149897511
 20
-158.8278591182792
 30
0.0
 10
110.4401149897511
 20
-158.8278591182792
 30
0.0
 10
110.6261501459546
 20
-158.929489435094
 30
0.0
 10
110.6833387310097
 20
-159.0183728986135
 30
0.0
 10
110.7108994948917
 20
-159.060747573082
 30
0.0
 10
110.7108994948917
 20
-159.060747573082
 30
0.0
 10
110.5923882101991
 20
-159.2088866789478
 30
0.0
 10
110.5923882101991
 20
-159.2088866789478
 30
0.0
  0
SPLINE
  5
117
330
108
100
AcDbEntity
  8
_U+30EC_U+30A4_U+30E4_U+30FC 1
370
     0
100
AcDbSpline
210
0.0
220
0.0
230
1.0
 70
    11
 71
     3
 72
    38
 73
    34
 74
     0
 42
0.0000000001
 43
0.0000000001
 12
1.0
 22
0.0
 32
0.0
 13
1.0
 23
0.0
 33
0.0
 40
0.0
 40
0.0
 40
0.0
 40
0.0
 40
1.0
 40
1.0
 40
1.0
 40
2.0
 40
2.0
 40
2.0
 40
3.0
 40
3.0
 40
3.0
 40
4.0
 40
4.0
 40
4.0
 40
5.0
 40
5.0
 40
5.0
 40
6.0
 40
6.0
 40
6.0
 40
7.0
 40
7.0
 40
7.0
 40
8.0
 40
8.0
 40
8.0
 40
9.0
 40
9.0
 40
9.0
 40
10.0
 40
10.0
 40
10.0
 40
11.0
 40
11.0
 40
11.0
 40
11.0
 10
110.9603244080238
 20
-158.9039957285032
 30
0.0
 10
110.9582573507327
 20
-158.9508490271026
 30
0.0
 10
110.9561902934415
 20
-159.0669487449555
 30
0.0
 10
110.9561902934415
 20
-159.1113904767152
 30
0.0
 10
110.9561902934415
 20
-159.1113904767152
 30
0.0
 10
110.9561902934415
 20
-159.4583115920799
 30
0.0
 10
110.9561902934415
 20
-159.4583115920799
 30
0.0
 10
110.9561902934415
 20
-159.5451279983082
 30
0.0
 10
110.9582573507327
 20
-159.6867214227519
 30
0.0
 10
110.9689371467369
 20
-159.8072997647357
 30
0.0
 10
110.9689371467369
 20
-159.8072997647357
 30
0.0
 10
110.7784233664026
 20
-159.8072997647357
 30
0.0
 10
110.7784233664026
 20
-159.8072997647357
 30
0.0
 10
110.7829019905334
 20
-159.7439100078071
 30
0.0
 10
110.7870361051157
 20
-159.6912000468828
 30
0.0
 10
110.7891031624069
 20
-159.6360785191188
 30
0.0
 10
110.791170219698
 20
-159.5134331198439
 30
0.0
 10
110.7932372769892
 20
-159.4986192092573
 30
0.0
 10
110.7932372769892
 20
-159.4541774774976
 30
0.0
 10
110.7932372769892
 20
-159.4541774774976
 30
0.0
 10
110.7932372769892
 20
-159.1327500687238
 30
0.0
 10
110.7932372769892
 20
-159.1327500687238
 30
0.0
 10
110.7932372769892
 20
-159.0776285409598
 30
0.0
 10
110.7804904236938
 20
-158.8385389142834
 30
0.0
 10
110.7784233664026
 20
-158.7878960106503
 30
0.0
 10
110.7784233664026
 20
-158.7878960106503
 30
0.0
 10
110.9796169427412
 20
-158.8154567745323
 30
0.0
 10
110.9796169427412
 20
-158.8154567745323
 30
0.0
 10
111.0006320252012
 20
-158.8175238318234
 30
0.0
 10
111.0323269036655
 20
-158.8216579464057
 30
0.0
 10
111.0323269036655
 20
-158.8471516529966
 30
0.0
 10
111.0323269036655
 20
-158.87436790733
 30
0.0
 10
110.9816840000324
 20
-158.8957274993386
 30
0.0
 10
110.9603244080238
 20
-158.9039957285032
 30
0.0
  0
SPLINE
  5
118
330
108
100
AcDbEntity
  8
_U+30EC_U+30A4_U+30E4_U+30FC 1
370
     0
100
AcDbSpline
210
0.0
220
0.0
230
1.0
 70
    11
 71
     3
 72
    83
 73
    79
 74
     0
 42
0.0000000001
 43
0.0000000001
 12
1.0
 22
0.0
 32
0.0
 13
1.0
 23
0.0
 33
0.0
 40
0.0
 40
0.0
 40
0.0
 40
0.0
 40
1.0
 40
1.0
 40
1.0
 40
2.0
 40
2.0
 40
2.0
 40
3.0
 40
3.0
 40
3.0
 40
4.0
 40
4.0
 40
4.0
 40
5.0
 40
5.0
 40
5.0
 40
6.0
 40
6.0
 40
6.0
 40
7.0
 40
7.0
 40
7.0
 40
8.0
 40
8.0
 40
8.0
 40
9.0
 40
9.0
 40
9.0
 40
10.0
 40
10.0
 40
10.0
 40
11.0
 40
11.0
 40
11.0
 40
12.0
 40
12.0
 40
12.0
 40
13.0
 40
13.0
 40
13.0
 40
14.0
 40
14.0
 40
14.0
 40
15.0
 40
15.0
 40
15.0
 40
16.0
 40
16.0
 40
16.0
 40
17.0
 40
17.0
 40
17.0
 40
18.0
 40
18.0
 40
18.0
 40
19.0
 40
19.0
 40
19.0
 40
20.0
 40
20.0
 40
20.0
 40
21.0
 40
21.0
 40
21.0
 40
22.0
 40
22.0
 40
22.0
 40
23.0
 40
23.0
 40
23.0
 40
24.0
 40
24.0
 40
24.0
 40
25.0
 40
25.0
 40
25.0
 40
26.0
 40
26.0
 40
26.0
 40
26.0
 10
111.76234263699
 20
-159.2257676468255
 30
0.0
 10
111.76234263699
 20
-159.2257676468255
 30
0.0
 10
111.6648464347574
 20
-159.2257676468255
 30
0.0
 10
111.6648464347574
 20
-159.2257676468255
 30
0.0
 10
111.6648464347574
 20
-159.2257676468255
 30
0.0
 10
111.6648464347574
 20
-159.4731255026664
 30
0.0
 10
111.6648464347574
 20
-159.4731255026664
 30
0.0
 10
111.6648464347574
 20
-159.4731255026664
 30
0.0
 10
111.7475287264034
 20
-159.4731255026664
 30
0.0
 10
111.7475287264034
 20
-159.4731255026664
 30
0.0
 10
111.8129855406231
 20
-159.4731255026664
 30
0.0
 10
111.9525119077758
 20
-159.4689913880841
 30
0.0
 10
112.0520751672995
 20
-159.460378649371
 30
0.0
 10
112.0520751672995
 20
-159.460378649371
 30
0.0
 10
112.0520751672995
 20
-159.6402126337011
 30
0.0
 10
112.0520751672995
 20
-159.6402126337011
 30
0.0
 10
111.9590575891977
 20
-159.6319444045365
 30
0.0
 10
111.8088514260408
 20
-159.6278102899542
 30
0.0
 10
111.7475287264034
 20
-159.6278102899542
 30
0.0
 10
111.7475287264034
 20
-159.6278102899542
 30
0.0
 10
111.4426377759588
 20
-159.6278102899542
 30
0.0
 10
111.4426377759588
 20
-159.6278102899542
 30
0.0
 10
111.3899278150345
 20
-159.6278102899542
 30
0.0
 10
111.2438557664599
 20
-159.6319444045365
 30
0.0
 10
111.1380913350627
 20
-159.6402126337011
 30
0.0
 10
111.1380913350627
 20
-159.6402126337011
 30
0.0
 10
111.1380913350627
 20
-159.460378649371
 30
0.0
 10
111.1380913350627
 20
-159.460378649371
 30
0.0
 10
111.2376545945864
 20
-159.4689913880841
 30
0.0
 10
111.377180961739
 20
-159.4731255026664
 30
0.0
 10
111.4426377759588
 20
-159.4731255026664
 30
0.0
 10
111.4426377759588
 20
-159.4731255026664
 30
0.0
 10
111.4870795077185
 20
-159.4731255026664
 30
0.0
 10
111.4870795077185
 20
-159.4731255026664
 30
0.0
 10
111.4870795077185
 20
-159.4731255026664
 30
0.0
 10
111.4870795077185
 20
-159.2257676468255
 30
0.0
 10
111.4870795077185
 20
-159.2257676468255
 30
0.0
 10
111.4870795077185
 20
-159.2257676468255
 30
0.0
 10
111.4133544643342
 20
-159.2257676468255
 30
0.0
 10
111.4133544643342
 20
-159.2257676468255
 30
0.0
 10
111.3516872551482
 20
-159.2257676468255
 30
0.0
 10
111.1846001241136
 20
-159.2299017614078
 30
0.0
 10
111.0640217821298
 20
-159.2385145001209
 30
0.0
 10
111.0640217821298
 20
-159.2385145001209
 30
0.0
 10
111.0640217821298
 20
-159.060747573082
 30
0.0
 10
111.0640217821298
 20
-159.060747573082
 30
0.0
 10
111.1783989522401
 20
-159.0669487449555
 30
0.0
 10
111.3368733445616
 20
-159.0714273690863
 30
0.0
 10
111.4133544643342
 20
-159.0714273690863
 30
0.0
 10
111.4133544643342
 20
-159.0714273690863
 30
0.0
 10
111.4850124504274
 20
-159.0714273690863
 30
0.0
 10
111.4850124504274
 20
-159.0714273690863
 30
0.0
 10
111.4808783358451
 20
-158.9188096390897
 30
0.0
 10
111.4788112785539
 20
-158.8850477033343
 30
0.0
 10
111.4722655971319
 20
-158.7920301252325
 30
0.0
 10
111.4722655971319
 20
-158.7920301252325
 30
0.0
 10
111.6841389694748
 20
-158.8154567745323
 30
0.0
 10
111.6841389694748
 20
-158.8154567745323
 30
0.0
 10
111.7092881665171
 20
-158.8175238318234
 30
0.0
 10
111.7327148158168
 20
-158.8216579464057
 30
0.0
 10
111.7327148158168
 20
-158.8447400861569
 30
0.0
 10
111.7327148158168
 20
-158.8767794741697
 30
0.0
 10
111.6882730840571
 20
-158.8936604420474
 30
0.0
 10
111.6648464347574
 20
-158.901928671212
 30
0.0
 10
111.6648464347574
 20
-158.901928671212
 30
0.0
 10
111.6648464347574
 20
-159.0714273690863
 30
0.0
 10
111.6648464347574
 20
-159.0714273690863
 30
0.0
 10
111.6648464347574
 20
-159.0714273690863
 30
0.0
 10
111.76234263699
 20
-159.0714273690863
 30
0.0
 10
111.76234263699
 20
-159.0714273690863
 30
0.0
 10
111.838479247214
 20
-159.0714273690863
 30
0.0
 10
111.9969536395355
 20
-159.0669487449555
 30
0.0
 10
112.1133978669369
 20
-159.060747573082
 30
0.0
 10
112.1133978669369
 20
-159.060747573082
 30
0.0
 10
112.1133978669369
 20
-159.2385145001209
 30
0.0
 10
112.1133978669369
 20
-159.2385145001209
 30
0.0
 10
112.0055663782486
 20
-159.231968818699
 30
0.0
 10
111.831933565792
 20
-159.2257676468255
 30
0.0
 10
111.76234263699
 20
-159.2257676468255
 30
0.0
  0
SPLINE
  5
119
330
108
100
AcDbEntity
  8
_U+30EC_U+30A4_U+30E4_U+30FC 1
370
     0
100
AcDbSpline
210
0.0
220
0.0
230
1.0
 70
    11
 71
     3
 72
    17
 73
    13
 74
     0
 42
0.0000000001
 43
0.0000000001
 12
1.0
 22
0.0
 32
0.0
 13
1.0
 23
0.0
 33
0.0
 40
0.0
 40
0.0
 40
0.0
 40
0.0
 40
1.0
 40
1.0
 40
1.0
 40
2.0
 40
2.0
 40
2.0
 40
3.0
 40
3.0
 40
3.0
 40
4.0
 40
4.0
 40
4.0
 40
4.0
 10
111.5167073288917
 20
-160.0233072516608
 30
0.0
 10
111.5167073288917
 20
-160.0233072516608
 30
0.0
 10
111.3137912048104
 20
-160.0233072516608
 30
0.0
 10
111.3137912048104
 20
-160.0233072516608
 30
0.0
 10
111.3413519686925
 20
-160.0825628940071
 30
0.0
 10
111.3961289869079
 20
-160.1545653896489
 30
0.0
 10
111.4236897507899
 20
-160.1838487012735
 30
0.0
 10
111.4512505146719
 20
-160.1693793002354
 30
0.0
 10
111.5656276847822
 20
-160.1056450337583
 30
0.0
 10
111.6565782055928
 20
-160.0233072516608
 30
0.0
 10
111.6565782055928
 20
-160.0233072516608
 30
0.0
 10
111.5167073288917
 20
-160.0233072516608
 30
0.0
 10
111.5167073288917
 20
-160.0233072516608
 30
0.0
  0
HATCH
  5
11A
330
108
100
AcDbEntity
  8
_U+30EC_U+30A4_U+30E4_U+30FC 1
 62
     7
420
 16777215
100
AcDbHatch
 10
0.0
 20
0.0
 30
0.0
210
0.0
220
0.0
230
1.0
  2
SOLID
 70
     1
 71
     0
 91
        6
 92
        1
 93
        1
 72
     4
 94
        3
 73
     0
 74
     1
 95
      113
 96
      109
 40
0.0
 40
0.0
 40
0.0
 40
0.0
 40
1.0
 40
1.0
 40
1.0
 40
2.0
 40
2.0
 40
2.0
 40
3.0
 40
3.0
 40
3.0
 40
4.0
 40
4.0
 40
4.0
 40
5.0
 40
5.0
 40
5.0
 40
6.0
 40
6.0
 40
6.0
 40
7.0
 40
7.0
 40
7.0
 40
8.0
 40
8.0
 40
8.0
 40
9.0
 40
9.0
 40
9.0
 40
10.0
 40
10.0
 40
10.0
 40
11.0
 40
11.0
 40
11.0
 40
12.0
 40
12.0
 40
12.0
 40
13.0
 40
13.0
 40
13.0
 40
14.0
 40
14.0
 40
14.0
 40
15.0
 40
15.0
 40
15.0
 40
16.0
 40
16.0
 40
16.0
 40
17.0
 40
17.0
 40
17.0
 40
18.0
 40
18.0
 40
18.0
 40
19.0
 40
19.0
 40
19.0
 40
20.0
 40
20.0
 40
20.0
 40
21.0
 40
21.0
 40
21.0
 40
22.0
 40
22.0
 40
22.0
 40
23.0
 40
23.0
 40
23.0
 40
24.0
 40
24.0
 40
24.0
 40
25.0
 40
25.0
 40
25.0
 40
26.0
 40
26.0
 40
26.0
 40
27.0
 40
27.0
 40
27.0
 40
28.0
 40
28.0
 40
28.0
 40
29.0
 40
29.0
 40
29.0
 40
30.0
 40
30.0
 40
30.0
 40
31.0
 40
31.0
 40
31.0
 40
32.0
 40
32.0
 40
32.0
 40
33.0
 40
33.0
 40
33.0
 40
34.0
 40
34.0
 40
34.0
 40
35.0
 40
35.0
 40
35.0
 40
36.0
 40
36.0
 40
36.0
 40
36.0
 10
111.7241020771037
 20
-160.025374308952
 10
111.7241020771037
 20
-160.025374308952
 10
111.8236653366274
 20
-160.1249375684757
 10
111.8236653366274
 20
-160.1249375684757
 10
111.8343451326317
 20
-160.1352728549315
 10
111.8446804190875
 20
-160.1480197082269
 10
111.8446804190875
 20
-160.1628336188135
 10
111.8446804190875
 20
-160.1649006761046
 10
111.8446804190875
 20
-160.1945284972778
 10
111.8067843687497
 20
-160.1945284972778
 10
111.7981716300366
 20
-160.1945284972778
 10
111.7578640128591
 20
-160.1903943826955
 10
111.7516628409857
 20
-160.1903943826955
 10
111.7113552238083
 20
-160.2220892611598
 10
111.6648464347574
 20
-160.2558511969152
 10
111.5656276847822
 20
-160.3130397819704
 10
111.7113552238083
 20
-160.4208712706587
 10
111.8701741256783
 20
-160.4780598557138
 10
112.1430256881101
 20
-160.5163004156001
 10
112.1430256881101
 20
-160.5163004156001
 10
111.9928195249532
 20
-160.6916557757993
 10
111.9928195249532
 20
-160.6916557757993
 10
111.7306477585257
 20
-160.6196532801576
 10
111.5738959139468
 20
-160.5311143261867
 10
111.4977593037228
 20
-160.4780598557138
 10
111.3475531405659
 20
-160.3764295388989
 10
111.203892658831
 20
-160.2134765224466
 10
111.127756048607
 20
-160.0484564487032
 10
111.0598876675475
 20
-160.1142577724714
 10
110.9858181146147
 20
-160.1669677333958
 10
110.9076144470995
 20
-160.2158880892863
 10
110.9076144470995
 20
-160.2158880892863
 10
110.9076144470995
 20
-160.4673800597095
 10
110.9076144470995
 20
-160.4673800597095
 10
111.0705674635518
 20
-160.4422308626672
 10
111.2566026197553
 20
-160.3977891309075
 10
111.3199923766839
 20
-160.3829752203209
 10
111.3199923766839
 20
-160.3829752203209
 10
111.2903645555107
 20
-160.5521294086467
 10
111.2903645555107
 20
-160.5521294086467
 10
111.2882974982196
 20
-160.5521294086467
 10
111.2693494730507
 20
-160.5583305805201
 10
111.2672824157596
 20
-160.5583305805201
 10
111.0685004062607
 20
-160.5965711404064
 10
110.7512071120692
 20
-160.6620279546262
 10
110.5541476503129
 20
-160.6982014572213
 10
110.5438123638571
 20
-160.715082425099
 10
110.5203857145574
 20
-160.7467773035633
 10
110.4973035748062
 20
-160.7467773035633
 10
110.4697428109242
 20
-160.7467773035633
 10
110.4656086963419
 20
-160.7278292783944
 10
110.4631971295023
 20
-160.708536743677
 10
110.4631971295023
 20
-160.708536743677
 10
110.4380479324599
 20
-160.535248440769
 10
110.4380479324599
 20
-160.535248440769
 10
110.5121174853928
 20
-160.5266357020558
 10
110.6199489740811
 20
-160.5138888487604
 10
110.7277804627694
 20
-160.4928737663004
 10
110.7277804627694
 20
-160.4928737663004
 10
110.7277804627694
 20
-160.3151068392615
 10
110.7277804627694
 20
-160.3151068392615
 10
110.583775471486
 20
-160.3871093349032
 10
110.4886908360931
 20
-160.4167371560764
 10
110.3236707623496
 20
-160.4463649772495
 10
110.3236707623496
 20
-160.4463649772495
 10
110.2030924203659
 20
-160.2772107889238
 10
110.2030924203659
 20
-160.2772107889238
 10
110.5203857145574
 20
-160.2496500250418
 10
110.7129665521829
 20
-160.15663244694
 10
110.8907334792218
 20
-160.0233072516608
 10
110.7446614306472
 20
-160.0233072516608
 10
110.4442491043334
 20
-160.0274413662432
 10
110.2475341521256
 20
-160.0339870476651
 10
110.2475341521256
 20
-160.0339870476651
 10
110.2475341521256
 20
-159.8562201206262
 10
110.2475341521256
 20
-159.8562201206262
 10
110.4018744298648
 20
-159.8624212924997
 10
110.6981526415963
 20
-159.8689669739217
 10
110.8821207405086
 20
-159.8689669739217
 10
110.8821207405086
 20
-159.8689669739217
 10
111.093649603303
 20
-159.8689669739217
 10
111.093649603303
 20
-159.8689669739217
 10
111.093649603303
 20
-159.7735378289802
 10
111.0915825460118
 20
-159.722894925347
 10
111.0853813741384
 20
-159.6763861362962
 10
111.0853813741384
 20
-159.6763861362962
 10
111.301044351515
 20
-159.6932671041739
 10
111.301044351515
 20
-159.6932671041739
 10
111.349620197857
 20
-159.6974012187562
 10
111.3582329365702
 20
-159.7122151293428
 10
111.3582329365702
 20
-159.7270290399294
 10
111.3582329365702
 20
-159.7525227465202
 10
111.3413519686925
 20
-159.7607909756848
 10
111.2903645555107
 20
-159.7862846822757
 10
111.2882974982196
 20
-159.8117783888665
 10
111.2882974982196
 20
-159.81797956074
 10
111.2862304409284
 20
-159.8689669739217
 10
111.2862304409284
 20
-159.8689669739217
 10
111.5167073288917
 20
-159.8689669739217
 10
111.5167073288917
 20
-159.8689669739217
 10
111.6817274026351
 20
-159.8689669739217
 10
111.9738714997843
 20
-159.8624212924997
 10
112.1537054841144
 20
-159.8562201206262
 10
112.1537054841144
 20
-159.8562201206262
 10
112.1537054841144
 20
-160.0339870476651
 10
112.1537054841144
 20
-160.0339870476651
 10
112.0245144034175
 20
-160.0295084235343
 10
112.0014322636663
 20
-160.0295084235343
 10
111.7241020771037
 20
-160.025374308952
 97
        0
 97
        0
 92
        1
 93
        1
 72
     4
 94
        3
 73
     0
 74
     1
 95
       23
 96
       19
 40
0.0
 40
0.0
 40
0.0
 40
0.0
 40
1.0
 40
1.0
 40
1.0
 40
2.0
 40
2.0
 40
2.0
 40
3.0
 40
3.0
 40
3.0
 40
4.0
 40
4.0
 40
4.0
 40
5.0
 40
5.0
 40
5.0
 40
6.0
 40
6.0
 40
6.0
 40
6.0
 10
110.4401149897511
 20
-159.674319079005
 10
110.4232340218734
 20
-159.7142821866339
 10
110.4166883404514
 20
-159.7311631545116
 10
110.3956732579914
 20
-159.7311631545116
 10
110.3808593474048
 20
-159.7311631545116
 10
110.3701795514005
 20
-159.7142821866339
 10
110.3639783795271
 20
-159.7015353333385
 10
110.3639783795271
 20
-159.7015353333385
 10
110.2644151200033
 20
-159.536515259595
 10
110.2644151200033
 20
-159.536515259595
 10
110.3660454368182
 20
-159.5048203811307
 10
110.5162515999751
 20
-159.4500433629153
 10
110.715033609474
 20
-159.2870903464629
 10
110.715033609474
 20
-159.2870903464629
 10
110.7722221945292
 20
-159.460378649371
 10
110.7722221945292
 20
-159.460378649371
 10
110.6792046164274
 20
-159.543060941017
 10
110.590321152908
 20
-159.6002495260722
 10
110.4401149897511
 20
-159.674319079005
 97
        0
 97
        0
 92
        1
 93
        1
 72
     4
 94
        3
 73
     0
 74
     1
 95
       17
 96
       13
 40
0.0
 40
0.0
 40
0.0
 40
0.0
 40
1.0
 40
1.0
 40
1.0
 40
2.0
 40
2.0
 40
2.0
 40
3.0
 40
3.0
 40
3.0
 40
4.0
 40
4.0
 40
4.0
 40
4.0
 10
110.5923882101991
 20
-159.2088866789478
 10
110.562760389026
 20
-159.1685790617704
 10
110.4948920079666
 20
-159.0714273690863
 10
110.3129909663454
 20
-158.9611843135583
 10
110.3129909663454
 20
-158.9611843135583
 10
110.4401149897511
 20
-158.8278591182792
 10
110.4401149897511
 20
-158.8278591182792
 10
110.6261501459546
 20
-158.929489435094
 10
110.6833387310097
 20
-159.0183728986135
 10
110.7108994948917
 20
-159.060747573082
 10
110.7108994948917
 20
-159.060747573082
 10
110.5923882101991
 20
-159.2088866789478
 10
110.5923882101991
 20
-159.2088866789478
 97
        0
 97
        0
 92
        1
 93
        1
 72
     4
 94
        3
 73
     0
 74
     1
 95
       38
 96
       34
 40
0.0
 40
0.0
 40
0.0
 40
0.0
 40
1.0
 40
1.0
 40
1.0
 40
2.0
 40
2.0
 40
2.0
 40
3.0
 40
3.0
 40
3.0
 40
4.0
 40
4.0
 40
4.0
 40
5.0
 40
5.0
 40
5.0
 40
6.0
 40
6.0
 40
6.0
 40
7.0
 40
7.0
 40
7.0
 40
8.0
 40
8.0
 40
8.0
 40
9.0
 40
9.0
 40
9.0
 40
10.0
 40
10.0
 40
10.0
 40
11.0
 40
11.0
 40
11.0
 40
11.0
 10
110.9603244080238
 20
-158.9039957285032
 10
110.9582573507327
 20
-158.9508490271026
 10
110.9561902934415
 20
-159.0669487449555
 10
110.9561902934415
 20
-159.1113904767152
 10
110.9561902934415
 20
-159.1113904767152
 10
110.9561902934415
 20
-159.4583115920799
 10
110.9561902934415
 20
-159.4583115920799
 10
110.9561902934415
 20
-159.5451279983082
 10
110.9582573507327
 20
-159.6867214227519
 10
110.9689371467369
 20
-159.8072997647357
 10
110.9689371467369
 20
-159.8072997647357
 10
110.7784233664026
 20
-159.8072997647357
 10
110.7784233664026
 20
-159.8072997647357
 10
110.7829019905334
 20
-159.7439100078071
 10
110.7870361051157
 20
-159.6912000468828
 10
110.7891031624069
 20
-159.6360785191188
 10
110.791170219698
 20
-159.5134331198439
 10
110.7932372769892
 20
-159.4986192092573
 10
110.7932372769892
 20
-159.4541774774976
 10
110.7932372769892
 20
-159.4541774774976
 10
110.7932372769892
 20
-159.1327500687238
 10
110.7932372769892
 20
-159.1327500687238
 10
110.7932372769892
 20
-159.0776285409598
 10
110.7804904236938
 20
-158.8385389142834
 10
110.7784233664026
 20
-158.7878960106503
 10
110.7784233664026
 20
-158.7878960106503
 10
110.9796169427412
 20
-158.8154567745323
 10
110.9796169427412
 20
-158.8154567745323
 10
111.0006320252012
 20
-158.8175238318234
 10
111.0323269036655
 20
-158.8216579464057
 10
111.0323269036655
 20
-158.8471516529966
 10
111.0323269036655
 20
-158.87436790733
 10
110.9816840000324
 20
-158.8957274993386
 10
110.9603244080238
 20
-158.9039957285032
 97
        0
 97
        0
 92
        1
 93
        1
 72
     4
 94
        3
 73
     0
 74
     1
 95
       83
 96
       79
 40
0.0
 40
0.0
 40
0.0
 40
0.0
 40
1.0
 40
1.0
 40
1.0
 40
2.0
 40
2.0
 40
2.0
 40
3.0
 40
3.0
 40
3.0
 40
4.0
 40
4.0
 40
4.0
 40
5.0
 40
5.0
 40
5.0
 40
6.0
 40
6.0
 40
6.0
 40
7.0
 40
7.0
 40
7.0
 40
8.0
 40
8.0
 40
8.0
 40
9.0
 40
9.0
 40
9.0
 40
10.0
 40
10.0
 40
10.0
 40
11.0
 40
11.0
 40
11.0
 40
12.0
 40
12.0
 40
12.0
 40
13.0
 40
13.0
 40
13.0
 40
14.0
 40
14.0
 40
14.0
 40
15.0
 40
15.0
 40
15.0
 40
16.0
 40
16.0
 40
16.0
 40
17.0
 40
17.0
 40
17.0
 40
18.0
 40
18.0
 40
18.0
 40
19.0
 40
19.0
 40
19.0
 40
20.0
 40
20.0
 40
20.0
 40
21.0
 40
21.0
 40
21.0
 40
22.0
 40
22.0
 40
22.0
 40
23.0
 40
23.0
 40
23.0
 40
24.0
 40
24.0
 40
24.0
 40
25.0
 40
25.0
 40
25.0
 40
26.0
 40
26.0
 40
26.0
 40
26.0
 10
111.76234263699
 20
-159.2257676468255
 10
111.76234263699
 20
-159.2257676468255
 10
111.6648464347574
 20
-159.2257676468255
 10
111.6648464347574
 20
-159.2257676468255
 10
111.6648464347574
 20
-159.2257676468255
 10
111.6648464347574
 20
-159.4731255026664
 10
111.6648464347574
 20
-159.4731255026664
 10
111.6648464347574
 20
-159.4731255026664
 10
111.7475287264034
 20
-159.4731255026664
 10
111.7475287264034
 20
-159.4731255026664
 10
111.8129855406231
 20
-159.4731255026664
 10
111.9525119077758
 20
-159.4689913880841
 10
112.0520751672995
 20
-159.460378649371
 10
112.0520751672995
 20
-159.460378649371
 10
112.0520751672995
 20
-159.6402126337011
 10
112.0520751672995
 20
-159.6402126337011
 10
111.9590575891977
 20
-159.6319444045365
 10
111.8088514260408
 20
-159.6278102899542
 10
111.7475287264034
 20
-159.6278102899542
 10
111.7475287264034
 20
-159.6278102899542
 10
111.4426377759588
 20
-159.6278102899542
 10
111.4426377759588
 20
-159.6278102899542
 10
111.3899278150345
 20
-159.6278102899542
 10
111.2438557664599
 20
-159.6319444045365
 10
111.1380913350627
 20
-159.6402126337011
 10
111.1380913350627
 20
-159.6402126337011
 10
111.1380913350627
 20
-159.460378649371
 10
111.1380913350627
 20
-159.460378649371
 10
111.2376545945864
 20
-159.4689913880841
 10
111.377180961739
 20
-159.4731255026664
 10
111.4426377759588
 20
-159.4731255026664
 10
111.4426377759588
 20
-159.4731255026664
 10
111.4870795077185
 20
-159.4731255026664
 10
111.4870795077185
 20
-159.4731255026664
 10
111.4870795077185
 20
-159.4731255026664
 10
111.4870795077185
 20
-159.2257676468255
 10
111.4870795077185
 20
-159.2257676468255
 10
111.4870795077185
 20
-159.2257676468255
 10
111.4133544643342
 20
-159.2257676468255
 10
111.4133544643342
 20
-159.2257676468255
 10
111.3516872551482
 20
-159.2257676468255
 10
111.1846001241136
 20
-159.2299017614078
 10
111.0640217821298
 20
-159.2385145001209
 10
111.0640217821298
 20
-159.2385145001209
 10
111.0640217821298
 20
-159.060747573082
 10
111.0640217821298
 20
-159.060747573082
 10
111.1783989522401
 20
-159.0669487449555
 10
111.3368733445616
 20
-159.0714273690863
 10
111.4133544643342
 20
-159.0714273690863
 10
111.4133544643342
 20
-159.0714273690863
 10
111.4850124504274
 20
-159.0714273690863
 10
111.4850124504274
 20
-159.0714273690863
 10
111.4808783358451
 20
-158.9188096390897
 10
111.4788112785539
 20
-158.8850477033343
 10
111.4722655971319
 20
-158.7920301252325
 10
111.4722655971319
 20
-158.7920301252325
 10
111.6841389694748
 20
-158.8154567745323
 10
111.6841389694748
 20
-158.8154567745323
 10
111.7092881665171
 20
-158.8175238318234
 10
111.7327148158168
 20
-158.8216579464057
 10
111.7327148158168
 20
-158.8447400861569
 10
111.7327148158168
 20
-158.8767794741697
 10
111.6882730840571
 20
-158.8936604420474
 10
111.6648464347574
 20
-158.901928671212
 10
111.6648464347574
 20
-158.901928671212
 10
111.6648464347574
 20
-159.0714273690863
 10
111.6648464347574
 20
-159.0714273690863
 10
111.6648464347574
 20
-159.0714273690863
 10
111.76234263699
 20
-159.0714273690863
 10
111.76234263699
 20
-159.0714273690863
 10
111.838479247214
 20
-159.0714273690863
 10
111.9969536395355
 20
-159.0669487449555
 10
112.1133978669369
 20
-159.060747573082
 10
112.1133978669369
 20
-159.060747573082
 10
112.1133978669369
 20
-159.2385145001209
 10
112.1133978669369
 20
-159.2385145001209
 10
112.0055663782486
 20
-159.231968818699
 10
111.831933565792
 20
-159.2257676468255
 10
111.76234263699
 20
-159.2257676468255
 97
        0
 97
        0
 92
        1
 93
        1
 72
     4
 94
        3
 73
     0
 74
     1
 95
       17
 96
       13
 40
0.0
 40
0.0
 40
0.0
 40
0.0
 40
1.0
 40
1.0
 40
1.0
 40
2.0
 40
2.0
 40
2.0
 40
3.0
 40
3.0
 40
3.0
 40
4.0
 40
4.0
 40
4.0
 40
4.0
 10
111.5167073288917
 20
-160.0233072516608
 10
111.5167073288917
 20
-160.0233072516608
 10
111.3137912048104
 20
-160.0233072516608
 10
111.3137912048104
 20
-160.0233072516608
 10
111.3413519686925
 20
-160.0825628940071
 10
111.3961289869079
 20
-160.1545653896489
 10
111.4236897507899
 20
-160.1838487012735
 10
111.4512505146719
 20
-160.1693793002354
 10
111.5656276847822
 20
-160.1056450337583
 10
111.6565782055928
 20
-160.0233072516608
 10
111.6565782055928
 20
-160.0233072516608
 10
111.5167073288917
 20
-160.0233072516608
 10
111.5167073288917
 20
-160.0233072516608
 97
        0
 97
        0
 75
     2
 76
     1
 98
        0
  0
SPLINE
  5
11B
330
108
100
AcDbEntity
  8
_U+30EC_U+30A4_U+30E4_U+30FC 1
370
     0
100
AcDbSpline
210
0.0
220
0.0
230
1.0
 70
    11
 71
     3
 72
    77
 73
    73
 74
     0
 42
0.0000000001
 43
0.0000000001
 12
1.0
 22
0.0
 32
0.0
 13
1.0
 23
0.0
 33
0.0
 40
0.0
 40
0.0
 40
0.0
 40
0.0
 40
1.0
 40
1.0
 40
1.0
 40
2.0
 40
2.0
 40
2.0
 40
3.0
 40
3.0
 40
3.0
 40
4.0
 40
4.0
 40
4.0
 40
5.0
 40
5.0
 40
5.0
 40
6.0
 40
6.0
 40
6.0
 40
7.0
 40
7.0
 40
7.0
 40
8.0
 40
8.0
 40
8.0
 40
9.0
 40
9.0
 40
9.0
 40
10.0
 40
10.0
 40
10.0
 40
11.0
 40
11.0
 40
11.0
 40
12.0
 40
12.0
 40
12.0
 40
13.0
 40
13.0
 40
13.0
 40
14.0
 40
14.0
 40
14.0
 40
15.0
 40
15.0
 40
15.0
 40
16.0
 40
16.0
 40
16.0
 40
17.0
 40
17.0
 40
17.0
 40
18.0
 40
18.0
 40
18.0
 40
19.0
 40
19.0
 40
19.0
 40
20.0
 40
20.0
 40
20.0
 40
21.0
 40
21.0
 40
21.0
 40
22.0
 40
22.0
 40
22.0
 40
23.0
 40
23.0
 40
23.0
 40
24.0
 40
24.0
 40
24.0
 40
24.0
 10
114.0078558742758
 20
-160.6537597254616
 30
0.0
 10
113.9613470852249
 20
-160.6789089225039
 30
0.0
 10
113.8366346286589
 20
-160.6916557757993
 30
0.0
 10
113.7580864515952
 20
-160.6916557757993
 30
0.0
 10
113.7456841078483
 20
-160.6916557757993
 30
0.0
 10
113.7201904012575
 20
-160.6916557757993
 30
0.0
 10
113.686428465502
 20
-160.687521661217
 30
0.0
 10
113.686428465502
 20
-160.687521661217
 30
0.0
 10
113.5889322632694
 20
-160.4611788878361
 30
0.0
 10
113.5889322632694
 20
-160.4611788878361
 30
0.0
 10
113.6185600844426
 20
-160.4673800597095
 30
0.0
 10
113.6757486694977
 20
-160.4759927984227
 30
0.0
 10
113.7921928968992
 20
-160.4759927984227
 30
0.0
 10
113.8703965644143
 20
-160.4759927984227
 30
0.0
 10
113.8724636217055
 20
-160.4336181239541
 30
0.0
 10
113.8724636217055
 20
-160.3764295388989
 30
0.0
 10
113.8724636217055
 20
-160.3764295388989
 30
0.0
 10
113.8724636217055
 20
-160.0274413662432
 30
0.0
 10
113.8724636217055
 20
-160.0274413662432
 30
0.0
 10
113.8724636217055
 20
-160.0274413662432
 30
0.0
 10
113.4132323935217
 20
-160.0274413662432
 30
0.0
 10
113.4132323935217
 20
-160.0274413662432
 30
0.0
 10
113.4156439603614
 20
-160.1649006761046
 30
0.0
 10
113.4177110176525
 20
-160.3636826856035
 30
0.0
 10
113.423912189526
 20
-160.4970078808827
 30
0.0
 10
113.4259792468171
 20
-160.5245686447647
 30
0.0
 10
113.4259792468171
 20
-160.5690103765244
 30
0.0
 10
113.4387261001125
 20
-160.6303330761619
 30
0.0
 10
113.4387261001125
 20
-160.6303330761619
 30
0.0
 10
113.1975694161451
 20
-160.6303330761619
 30
0.0
 10
113.1975694161451
 20
-160.6303330761619
 30
0.0
 10
113.2230631227359
 20
-160.5056206195958
 30
0.0
 10
113.2230631227359
 20
-160.1649006761046
 30
0.0
 10
113.2230631227359
 20
-160.0274413662432
 30
0.0
 10
113.2230631227359
 20
-160.0274413662432
 30
0.0
 10
112.7807128624298
 20
-160.0274413662432
 30
0.0
 10
112.7807128624298
 20
-160.0274413662432
 30
0.0
 10
112.7576307226787
 20
-160.2348361144552
 30
0.0
 10
112.6921739084589
 20
-160.5035535623047
 30
0.0
 10
112.4951144467026
 20
-160.687521661217
 30
0.0
 10
112.4951144467026
 20
-160.687521661217
 30
0.0
 10
112.307012233208
 20
-160.5648762619421
 30
0.0
 10
112.307012233208
 20
-160.5648762619421
 30
0.0
 10
112.5609157704709
 20
-160.3447346604347
 30
0.0
 10
112.5926106489352
 20
-160.0126274556566
 30
0.0
 10
112.5926106489352
 20
-159.6805202508785
 30
0.0
 10
112.5926106489352
 20
-159.6805202508785
 30
0.0
 10
112.5926106489352
 20
-159.2447156719944
 30
0.0
 10
112.5926106489352
 20
-159.2447156719944
 30
0.0
 10
112.5926106489352
 20
-159.2088866789478
 30
0.0
 10
112.590543591644
 20
-158.9759982241449
 30
0.0
 10
112.5819308529309
 20
-158.87436790733
 30
0.0
 10
112.721801729632
 20
-158.8850477033343
 30
0.0
 10
112.9629584135995
 20
-158.8850477033343
 30
0.0
 10
113.1066188953345
 20
-158.8850477033343
 30
0.0
 10
113.1066188953345
 20
-158.8850477033343
 30
0.0
 10
113.5658501235183
 20
-158.8850477033343
 30
0.0
 10
113.5658501235183
 20
-158.8850477033343
 30
0.0
 10
113.5806640341048
 20
-158.8850477033343
 30
0.0
 10
113.9296522067607
 20
-158.8850477033343
 30
0.0
 10
114.0881265990821
 20
-158.87436790733
 30
0.0
 10
114.086059541791
 20
-158.9274223778029
 30
0.0
 10
114.0798583699175
 20
-159.088308336964
 30
0.0
 10
114.0798583699175
 20
-159.1389512405972
 30
0.0
 10
114.0798583699175
 20
-159.1389512405972
 30
0.0
 10
114.0798583699175
 20
-159.7459770650982
 30
0.0
 10
114.0798583699175
 20
-159.7459770650982
 30
0.0
 10
114.0798583699175
 20
-159.7652695998156
 30
0.0
 10
114.0901936563733
 20
-160.3364664312701
 30
0.0
 10
114.0901936563733
 20
-160.4484320345407
 30
0.0
 10
114.0901936563733
 20
-160.5056206195958
 30
0.0
 10
114.0901936563733
 20
-160.6072509364107
 30
0.0
 10
114.0078558742758
 20
-160.6537597254616
 30
0.0
  0
POLYLINE
  5
11C
330
108
100
AcDbEntity
  8
_U+30EC_U+30A4_U+30E4_U+30FC 1
370
     0
100
AcDb2dPolyline
 66
     1
 10
0.0
 20
0.0
 30
0.0
  0
VERTEX
  5
11D
330
11C
100
AcDbEntity
  8
_U+30EC_U+30A4_U+30E4_U+30FC 1
370
     0
100
AcDbVertex
100
AcDb2dVertex
 10
113.2230631227359
 20
-159.0669487449555
 30
0.0
  0
VERTEX
  5
11E
330
11C
100
AcDbEntity
  8
_U+30EC_U+30A4_U+30E4_U+30FC 1
370
     0
100
AcDbVertex
100
AcDb2dVertex
 10
112.7851914865606
 20
-159.0669487449555
 30
0.0
  0
VERTEX
  5
11F
330
11C
100
AcDbEntity
  8
_U+30EC_U+30A4_U+30E4_U+30FC 1
370
     0
100
AcDbVertex
100
AcDb2dVertex
 10
112.7851914865606
 20
-159.3714951858516
 30
0.0
  0
VERTEX
  5
120
330
11C
100
AcDbEntity
  8
_U+30EC_U+30A4_U+30E4_U+30FC 1
370
     0
100
AcDbVertex
100
AcDb2dVertex
 10
113.2230631227359
 20
-159.3714951858516
 30
0.0
  0
VERTEX
  5
121
330
11C
100
AcDbEntity
  8
_U+30EC_U+30A4_U+30E4_U+30FC 1
370
     0
100
AcDbVertex
100
AcDb2dVertex
 10
113.2230631227359
 20
-159.0669487449555
 30
0.0
  0
SEQEND
  5
122
330
11C
100
AcDbEntity
  8
_U+30EC_U+30A4_U+30E4_U+30FC 1
370
     0
  0
POLYLINE
  5
123
330
108
100
AcDbEntity
  8
_U+30EC_U+30A4_U+30E4_U+30FC 1
370
     0
100
AcDb2dPolyline
 66
     1
 10
0.0
 20
0.0
 30
0.0
  0
VERTEX
  5
124
330
123
100
AcDbEntity
  8
_U+30EC_U+30A4_U+30E4_U+30FC 1
370
     0
100
AcDbVertex
100
AcDb2dVertex
 10
113.2230631227359
 20
-159.5389268264347
 30
0.0
  0
VERTEX
  5
125
330
123
100
AcDbEntity
  8
_U+30EC_U+30A4_U+30E4_U+30FC 1
370
     0
100
AcDbVertex
100
AcDb2dVertex
 10
112.7851914865606
 20
-159.5389268264347
 30
0.0
  0
VERTEX
  5
126
330
123
100
AcDbEntity
  8
_U+30EC_U+30A4_U+30E4_U+30FC 1
370
     0
100
AcDbVertex
100
AcDb2dVertex
 10
112.7851914865606
 20
-159.8476073819131
 30
0.0
  0
VERTEX
  5
127
330
123
100
AcDbEntity
  8
_U+30EC_U+30A4_U+30E4_U+30FC 1
370
     0
100
AcDbVertex
100
AcDb2dVertex
 10
113.2230631227359
 20
-159.8476073819131
 30
0.0
  0
VERTEX
  5
128
330
123
100
AcDbEntity
  8
_U+30EC_U+30A4_U+30E4_U+30FC 1
370
     0
100
AcDbVertex
100
AcDb2dVertex
 10
113.2230631227359
 20
-159.5389268264347
 30
0.0
  0
SEQEND
  5
129
330
123
100
AcDbEntity
  8
_U+30EC_U+30A4_U+30E4_U+30FC 1
370
     0
  0
POLYLINE
  5
12A
330
108
100
AcDbEntity
  8
_U+30EC_U+30A4_U+30E4_U+30FC 1
370
     0
100
AcDb2dPolyline
 66
     1
 10
0.0
 20
0.0
 30
0.0
  0
VERTEX
  5
12B
330
12A
100
AcDbEntity
  8
_U+30EC_U+30A4_U+30E4_U+30FC 1
370
     0
100
AcDbVertex
100
AcDb2dVertex
 10
113.8724636217055
 20
-159.0669487449555
 30
0.0
  0
VERTEX
  5
12C
330
12A
100
AcDbEntity
  8
_U+30EC_U+30A4_U+30E4_U+30FC 1
370
     0
100
AcDbVertex
100
AcDb2dVertex
 10
113.4132323935217
 20
-159.0669487449555
 30
0.0
  0
VERTEX
  5
12D
330
12A
100
AcDbEntity
  8
_U+30EC_U+30A4_U+30E4_U+30FC 1
370
     0
100
AcDbVertex
100
AcDb2dVertex
 10
113.4132323935217
 20
-159.3714951858516
 30
0.0
  0
VERTEX
  5
12E
330
12A
100
AcDbEntity
  8
_U+30EC_U+30A4_U+30E4_U+30FC 1
370
     0
100
AcDbVertex
100
AcDb2dVertex
 10
113.8724636217055
 20
-159.3714951858516
 30
0.0
  0
VERTEX
  5
12F
330
12A
100
AcDbEntity
  8
_U+30EC_U+30A4_U+30E4_U+30FC 1
370
     0
100
AcDbVertex
100
AcDb2dVertex
 10
113.8724636217055
 20
-159.0669487449555
 30
0.0
  0
SEQEND
  5
130
330
12A
100
AcDbEntity
  8
_U+30EC_U+30A4_U+30E4_U+30FC 1
370
     0
  0
POLYLINE
  5
131
330
108
100
AcDbEntity
  8
_U+30EC_U+30A4_U+30E4_U+30FC 1
370
     0
100
AcDb2dPolyline
 66
     1
 10
0.0
 20
0.0
 30
0.0
  0
VERTEX
  5
132
330
131
100
AcDbEntity
  8
_U+30EC_U+30A4_U+30E4_U+30FC 1
370
     0
100
AcDbVertex
100
AcDb2dVertex
 10
113.8724636217055
 20
-159.5389268264347
 30
0.0
  0
VERTEX
  5
133
330
131
100
AcDbEntity
  8
_U+30EC_U+30A4_U+30E4_U+30FC 1
370
     0
100
AcDbVertex
100
AcDb2dVertex
 10
113.4132323935217
 20
-159.5389268264347
 30
0.0
  0
VERTEX
  5
134
330
131
100
AcDbEntity
  8
_U+30EC_U+30A4_U+30E4_U+30FC 1
370
     0
100
AcDbVertex
100
AcDb2dVertex
 10
113.4132323935217
 20
-159.8476073819131
 30
0.0
  0
VERTEX
  5
135
330
131
100
AcDbEntity
  8
_U+30EC_U+30A4_U+30E4_U+30FC 1
370
     0
100
AcDbVertex
100
AcDb2dVertex
 10
113.8724636217055
 20
-159.8476073819131
 30
0.0
  0
VERTEX
  5
136
330
131
100
AcDbEntity
  8
_U+30EC_U+30A4_U+30E4_U+30FC 1
370
     0
100
AcDbVertex
100
AcDb2dVertex
 10
113.8724636217055
 20
-159.5389268264347
 30
0.0
  0
SEQEND
  5
137
330
131
100
AcDbEntity
  8
_U+30EC_U+30A4_U+30E4_U+30FC 1
370
     0
  0
HATCH
  5
138
330
108
100
AcDbEntity
  8
_U+30EC_U+30A4_U+30E4_U+30FC 1
 62
     7
420
 16777215
100
AcDbHatch
 10
0.0
 20
0.0
 30
0.0
210
0.0
220
0.0
230
1.0
  2
SOLID
 70
     1
 71
     0
 91
        5
 92
        1
 93
        1
 72
     4
 94
        3
 73
     0
 74
     1
 95
       77
 96
       73
 40
0.0
 40
0.0
 40
0.0
 40
0.0
 40
1.0
 40
1.0
 40
1.0
 40
2.0
 40
2.0
 40
2.0
 40
3.0
 40
3.0
 40
3.0
 40
4.0
 40
4.0
 40
4.0
 40
5.0
 40
5.0
 40
5.0
 40
6.0
 40
6.0
 40
6.0
 40
7.0
 40
7.0
 40
7.0
 40
8.0
 40
8.0
 40
8.0
 40
9.0
 40
9.0
 40
9.0
 40
10.0
 40
10.0
 40
10.0
 40
11.0
 40
11.0
 40
11.0
 40
12.0
 40
12.0
 40
12.0
 40
13.0
 40
13.0
 40
13.0
 40
14.0
 40
14.0
 40
14.0
 40
15.0
 40
15.0
 40
15.0
 40
16.0
 40
16.0
 40
16.0
 40
17.0
 40
17.0
 40
17.0
 40
18.0
 40
18.0
 40
18.0
 40
19.0
 40
19.0
 40
19.0
 40
20.0
 40
20.0
 40
20.0
 40
21.0
 40
21.0
 40
21.0
 40
22.0
 40
22.0
 40
22.0
 40
23.0
 40
23.0
 40
23.0
 40
24.0
 40
24.0
 40
24.0
 40
24.0
 10
114.0078558742758
 20
-160.6537597254616
 10
113.9613470852249
 20
-160.6789089225039
 10
113.8366346286589
 20
-160.6916557757993
 10
113.7580864515952
 20
-160.6916557757993
 10
113.7456841078483
 20
-160.6916557757993
 10
113.7201904012575
 20
-160.6916557757993
 10
113.686428465502
 20
-160.687521661217
 10
113.686428465502
 20
-160.687521661217
 10
113.5889322632694
 20
-160.4611788878361
 10
113.5889322632694
 20
-160.4611788878361
 10
113.6185600844426
 20
-160.4673800597095
 10
113.6757486694977
 20
-160.4759927984227
 10
113.7921928968992
 20
-160.4759927984227
 10
113.8703965644143
 20
-160.4759927984227
 10
113.8724636217055
 20
-160.4336181239541
 10
113.8724636217055
 20
-160.3764295388989
 10
113.8724636217055
 20
-160.3764295388989
 10
113.8724636217055
 20
-160.0274413662432
 10
113.8724636217055
 20
-160.0274413662432
 10
113.8724636217055
 20
-160.0274413662432
 10
113.4132323935217
 20
-160.0274413662432
 10
113.4132323935217
 20
-160.0274413662432
 10
113.4156439603614
 20
-160.1649006761046
 10
113.4177110176525
 20
-160.3636826856035
 10
113.423912189526
 20
-160.4970078808827
 10
113.4259792468171
 20
-160.5245686447647
 10
113.4259792468171
 20
-160.5690103765244
 10
113.4387261001125
 20
-160.6303330761619
 10
113.4387261001125
 20
-160.6303330761619
 10
113.1975694161451
 20
-160.6303330761619
 10
113.1975694161451
 20
-160.6303330761619
 10
113.2230631227359
 20
-160.5056206195958
 10
113.2230631227359
 20
-160.1649006761046
 10
113.2230631227359
 20
-160.0274413662432
 10
113.2230631227359
 20
-160.0274413662432
 10
112.7807128624298
 20
-160.0274413662432
 10
112.7807128624298
 20
-160.0274413662432
 10
112.7576307226787
 20
-160.2348361144552
 10
112.6921739084589
 20
-160.5035535623047
 10
112.4951144467026
 20
-160.687521661217
 10
112.4951144467026
 20
-160.687521661217
 10
112.307012233208
 20
-160.5648762619421
 10
112.307012233208
 20
-160.5648762619421
 10
112.5609157704709
 20
-160.3447346604347
 10
112.5926106489352
 20
-160.0126274556566
 10
112.5926106489352
 20
-159.6805202508785
 10
112.5926106489352
 20
-159.6805202508785
 10
112.5926106489352
 20
-159.2447156719944
 10
112.5926106489352
 20
-159.2447156719944
 10
112.5926106489352
 20
-159.2088866789478
 10
112.590543591644
 20
-158.9759982241449
 10
112.5819308529309
 20
-158.87436790733
 10
112.721801729632
 20
-158.8850477033343
 10
112.9629584135995
 20
-158.8850477033343
 10
113.1066188953345
 20
-158.8850477033343
 10
113.1066188953345
 20
-158.8850477033343
 10
113.5658501235183
 20
-158.8850477033343
 10
113.5658501235183
 20
-158.8850477033343
 10
113.5806640341048
 20
-158.8850477033343
 10
113.9296522067607
 20
-158.8850477033343
 10
114.0881265990821
 20
-158.87436790733
 10
114.086059541791
 20
-158.9274223778029
 10
114.0798583699175
 20
-159.088308336964
 10
114.0798583699175
 20
-159.1389512405972
 10
114.0798583699175
 20
-159.1389512405972
 10
114.0798583699175
 20
-159.7459770650982
 10
114.0798583699175
 20
-159.7459770650982
 10
114.0798583699175
 20
-159.7652695998156
 10
114.0901936563733
 20
-160.3364664312701
 10
114.0901936563733
 20
-160.4484320345407
 10
114.0901936563733
 20
-160.5056206195958
 10
114.0901936563733
 20
-160.6072509364107
 10
114.0078558742758
 20
-160.6537597254616
 97
        0
 97
        0
 92
        1
 93
        4
 72
     1
 10
113.2230631227359
 20
-159.0669487449555
 11
112.7851914865606
 21
-159.0669487449555
 72
     1
 10
112.7851914865606
 20
-159.0669487449555
 11
112.7851914865606
 21
-159.3714951858516
 72
     1
 10
112.7851914865606
 20
-159.3714951858516
 11
113.2230631227359
 21
-159.3714951858516
 72
     1
 10
113.2230631227359
 20
-159.3714951858516
 11
113.2230631227359
 21
-159.0669487449555
 97
        0
 92
        1
 93
        4
 72
     1
 10
113.2230631227359
 20
-159.5389268264347
 11
112.7851914865606
 21
-159.5389268264347
 72
     1
 10
112.7851914865606
 20
-159.5389268264347
 11
112.7851914865606
 21
-159.8476073819131
 72
     1
 10
112.7851914865606
 20
-159.8476073819131
 11
113.2230631227359
 21
-159.8476073819131
 72
     1
 10
113.2230631227359
 20
-159.8476073819131
 11
113.2230631227359
 21
-159.5389268264347
 97
        0
 92
        1
 93
        4
 72
     1
 10
113.8724636217055
 20
-159.0669487449555
 11
113.4132323935217
 21
-159.0669487449555
 72
     1
 10
113.4132323935217
 20
-159.0669487449555
 11
113.4132323935217
 21
-159.3714951858516
 72
     1
 10
113.4132323935217
 20
-159.3714951858516
 11
113.8724636217055
 21
-159.3714951858516
 72
     1
 10
113.8724636217055
 20
-159.3714951858516
 11
113.8724636217055
 21
-159.0669487449555
 97
        0
 92
        1
 93
        4
 72
     1
 10
113.8724636217055
 20
-159.5389268264347
 11
113.4132323935217
 21
-159.5389268264347
 72
     1
 10
113.4132323935217
 20
-159.5389268264347
 11
113.4132323935217
 21
-159.8476073819131
 72
     1
 10
113.4132323935217
 20
-159.8476073819131
 11
113.8724636217055
 21
-159.8476073819131
 72
     1
 10
113.8724636217055
 20
-159.8476073819131
 11
113.8724636217055
 21
-159.5389268264347
 97
        0
 75
     2
 76
     1
 98
        0
  0
SPLINE
  5
139
330
108
100
AcDbEntity
  8
_U+30EC_U+30A4_U+30E4_U+30FC 1
370
     0
100
AcDbSpline
210
0.0
220
0.0
230
1.0
 70
    11
 71
     3
 72
    44
 73
    40
 74
     0
 42
0.0000000001
 43
0.0000000001
 12
1.0
 22
0.0
 32
0.0
 13
1.0
 23
0.0
 33
0.0
 40
0.0
 40
0.0
 40
0.0
 40
0.0
 40
1.0
 40
1.0
 40
1.0
 40
2.0
 40
2.0
 40
2.0
 40
3.0
 40
3.0
 40
3.0
 40
4.0
 40
4.0
 40
4.0
 40
5.0
 40
5.0
 40
5.0
 40
6.0
 40
6.0
 40
6.0
 40
7.0
 40
7.0
 40
7.0
 40
8.0
 40
8.0
 40
8.0
 40
9.0
 40
9.0
 40
9.0
 40
10.0
 40
10.0
 40
10.0
 40
11.0
 40
11.0
 40
11.0
 40
12.0
 40
12.0
 40
12.0
 40
13.0
 40
13.0
 40
13.0
 40
13.0
 10
109.5564479977845
 20
-161.9436034751391
 30
0.0
 10
109.4444823945139
 20
-162.3115396729638
 30
0.0
 10
109.3938394908807
 20
-162.4703585748338
 30
0.0
 10
109.197124538673
 20
-162.7197834879659
 30
0.0
 10
109.0128119302121
 20
-162.9506048854776
 30
0.0
 10
108.7761338703754
 20
-163.1366400416811
 30
0.0
 10
108.4967366265217
 20
-163.2296576197829
 30
0.0
 10
108.4967366265217
 20
-163.2296576197829
 30
0.0
 10
108.3041557888962
 20
-163.0498236354528
 30
0.0
 10
108.3041557888962
 20
-163.0498236354528
 30
0.0
 10
108.9452880587012
 20
-162.8975504150048
 30
0.0
 10
109.2753282061881
 20
-162.3411674941369
 30
0.0
 10
109.3387179631167
 20
-161.9012288006705
 30
0.0
 10
109.3387179631167
 20
-161.9012288006705
 30
0.0
 10
108.5728732367457
 20
-161.9012288006705
 30
0.0
 10
108.5728732367457
 20
-161.9012288006705
 30
0.0
 10
108.4798556586439
 20
-161.9012288006705
 30
0.0
 10
108.2958875597316
 20
-161.9053629152528
 30
0.0
 10
108.1391357151527
 20
-161.9243109404217
 30
0.0
 10
108.1391357151527
 20
-161.9243109404217
 30
0.0
 10
108.1391357151527
 20
-161.7045138484628
 30
0.0
 10
108.1391357151527
 20
-161.7045138484628
 30
0.0
 10
108.225952121381
 20
-161.7255289309228
 30
0.0
 10
108.4777886013528
 20
-161.7255289309228
 30
0.0
 10
108.577007351328
 20
-161.7255289309228
 30
0.0
 10
108.577007351328
 20
-161.7255289309228
 30
0.0
 10
109.0086778156298
 20
-161.7255289309228
 30
0.0
 10
109.0086778156298
 20
-161.7255289309228
 30
0.0
 10
109.0510524900984
 20
-161.7255289309228
 30
0.0
 10
109.2856634926439
 20
-161.7234618736316
 30
0.0
 10
109.3239040525301
 20
-161.7172607017582
 30
0.0
 10
109.3662787269987
 20
-161.7107150203362
 30
0.0
 10
109.3683457842899
 20
-161.7086479630451
 30
0.0
 10
109.4296684839273
 20
-161.6683403458676
 30
0.0
 10
109.4296684839273
 20
-161.6683403458676
 30
0.0
 10
109.6177706974219
 20
-161.8230251331554
 30
0.0
 10
109.6177706974219
 20
-161.8230251331554
 30
0.0
 10
109.5884873857973
 20
-161.8526529543285
 30
0.0
 10
109.5736734752108
 20
-161.8843478327928
 30
0.0
 10
109.5564479977845
 20
-161.9436034751391
 30
0.0
  0
SPLINE
  5
13A
330
108
100
AcDbEntity
  8
_U+30EC_U+30A4_U+30E4_U+30FC 1
370
     0
100
AcDbSpline
210
0.0
220
0.0
230
1.0
 70
    11
 71
     3
 72
    17
 73
    13
 74
     0
 42
0.0000000001
 43
0.0000000001
 12
1.0
 22
0.0
 32
0.0
 13
1.0
 23
0.0
 33
0.0
 40
0.0
 40
0.0
 40
0.0
 40
0.0
 40
1.0
 40
1.0
 40
1.0
 40
2.0
 40
2.0
 40
2.0
 40
3.0
 40
3.0
 40
3.0
 40
4.0
 40
4.0
 40
4.0
 40
4.0
 10
109.7659098032877
 20
-161.7444769560917
 30
0.0
 10
109.6391302894305
 20
-161.7444769560917
 30
0.0
 10
109.5374999726156
 20
-161.6431911488253
 30
0.0
 10
109.5374999726156
 20
-161.5160671254196
 30
0.0
 10
109.5374999726156
 20
-161.3892876115624
 30
0.0
 10
109.6391302894305
 20
-161.2855902374564
 30
0.0
 10
109.7659098032877
 20
-161.2855902374564
 30
0.0
 10
109.8930338266934
 20
-161.2855902374564
 30
0.0
 10
109.9967312007994
 20
-161.3892876115624
 30
0.0
 10
109.9967312007994
 20
-161.5160671254196
 30
0.0
 10
109.9967312007994
 20
-161.6431911488253
 30
0.0
 10
109.8930338266934
 20
-161.7444769560917
 30
0.0
 10
109.7659098032877
 20
-161.7444769560917
 30
0.0
  0
SPLINE
  5
13B
330
108
100
AcDbEntity
  8
_U+30EC_U+30A4_U+30E4_U+30FC 1
370
     0
100
AcDbSpline
210
0.0
220
0.0
230
1.0
 70
    11
 71
     3
 72
    17
 73
    13
 74
     0
 42
0.0000000001
 43
0.0000000001
 12
1.0
 22
0.0
 32
0.0
 13
1.0
 23
0.0
 33
0.0
 40
0.0
 40
0.0
 40
0.0
 40
0.0
 40
1.0
 40
1.0
 40
1.0
 40
2.0
 40
2.0
 40
2.0
 40
3.0
 40
3.0
 40
3.0
 40
4.0
 40
4.0
 40
4.0
 40
4.0
 10
109.7638427459965
 20
-161.4144368086047
 30
0.0
 10
109.7090657277811
 20
-161.4144368086047
 30
0.0
 10
109.6646239960213
 20
-161.4588785403645
 30
0.0
 10
109.6646239960213
 20
-161.5140000681284
 30
0.0
 10
109.6646239960213
 20
-161.5711886531836
 30
0.0
 10
109.7090657277811
 20
-161.6197644995256
 30
0.0
 10
109.7679768605788
 20
-161.6197644995256
 30
0.0
 10
109.8272325029251
 20
-161.6197644995256
 30
0.0
 10
109.8675401201026
 20
-161.5691215958925
 30
0.0
 10
109.8675401201026
 20
-161.5160671254196
 30
0.0
 10
109.8675401201026
 20
-161.4588785403645
 30
0.0
 10
109.8210313310517
 20
-161.4144368086047
 30
0.0
 10
109.7638427459965
 20
-161.4144368086047
 30
0.0
  0
HATCH
  5
13C
330
108
100
AcDbEntity
  8
_U+30EC_U+30A4_U+30E4_U+30FC 1
 62
     7
420
 16777215
100
AcDbHatch
 10
0.0
 20
0.0
 30
0.0
210
0.0
220
0.0
230
1.0
  2
SOLID
 70
     1
 71
     0
 91
        3
 92
        1
 93
        1
 72
     4
 94
        3
 73
     0
 74
     1
 95
       44
 96
       40
 40
0.0
 40
0.0
 40
0.0
 40
0.0
 40
1.0
 40
1.0
 40
1.0
 40
2.0
 40
2.0
 40
2.0
 40
3.0
 40
3.0
 40
3.0
 40
4.0
 40
4.0
 40
4.0
 40
5.0
 40
5.0
 40
5.0
 40
6.0
 40
6.0
 40
6.0
 40
7.0
 40
7.0
 40
7.0
 40
8.0
 40
8.0
 40
8.0
 40
9.0
 40
9.0
 40
9.0
 40
10.0
 40
10.0
 40
10.0
 40
11.0
 40
11.0
 40
11.0
 40
12.0
 40
12.0
 40
12.0
 40
13.0
 40
13.0
 40
13.0
 40
13.0
 10
109.5564479977845
 20
-161.9436034751391
 10
109.4444823945139
 20
-162.3115396729638
 10
109.3938394908807
 20
-162.4703585748338
 10
109.197124538673
 20
-162.7197834879659
 10
109.0128119302121
 20
-162.9506048854776
 10
108.7761338703754
 20
-163.1366400416811
 10
108.4967366265217
 20
-163.2296576197829
 10
108.4967366265217
 20
-163.2296576197829
 10
108.3041557888962
 20
-163.0498236354528
 10
108.3041557888962
 20
-163.0498236354528
 10
108.9452880587012
 20
-162.8975504150048
 10
109.2753282061881
 20
-162.3411674941369
 10
109.3387179631167
 20
-161.9012288006705
 10
109.3387179631167
 20
-161.9012288006705
 10
108.5728732367457
 20
-161.9012288006705
 10
108.5728732367457
 20
-161.9012288006705
 10
108.4798556586439
 20
-161.9012288006705
 10
108.2958875597316
 20
-161.9053629152528
 10
108.1391357151527
 20
-161.9243109404217
 10
108.1391357151527
 20
-161.9243109404217
 10
108.1391357151527
 20
-161.7045138484628
 10
108.1391357151527
 20
-161.7045138484628
 10
108.225952121381
 20
-161.7255289309228
 10
108.4777886013528
 20
-161.7255289309228
 10
108.577007351328
 20
-161.7255289309228
 10
108.577007351328
 20
-161.7255289309228
 10
109.0086778156298
 20
-161.7255289309228
 10
109.0086778156298
 20
-161.7255289309228
 10
109.0510524900984
 20
-161.7255289309228
 10
109.2856634926439
 20
-161.7234618736316
 10
109.3239040525301
 20
-161.7172607017582
 10
109.3662787269987
 20
-161.7107150203362
 10
109.3683457842899
 20
-161.7086479630451
 10
109.4296684839273
 20
-161.6683403458676
 10
109.4296684839273
 20
-161.6683403458676
 10
109.6177706974219
 20
-161.8230251331554
 10
109.6177706974219
 20
-161.8230251331554
 10
109.5884873857973
 20
-161.8526529543285
 10
109.5736734752108
 20
-161.8843478327928
 10
109.5564479977845
 20
-161.9436034751391
 97
        0
 97
        0
 92
        1
 93
        1
 72
     4
 94
        3
 73
     0
 74
     1
 95
       17
 96
       13
 40
0.0
 40
0.0
 40
0.0
 40
0.0
 40
1.0
 40
1.0
 40
1.0
 40
2.0
 40
2.0
 40
2.0
 40
3.0
 40
3.0
 40
3.0
 40
4.0
 40
4.0
 40
4.0
 40
4.0
 10
109.7659098032877
 20
-161.7444769560917
 10
109.6391302894305
 20
-161.7444769560917
 10
109.5374999726156
 20
-161.6431911488253
 10
109.5374999726156
 20
-161.5160671254196
 10
109.5374999726156
 20
-161.3892876115624
 10
109.6391302894305
 20
-161.2855902374564
 10
109.7659098032877
 20
-161.2855902374564
 10
109.8930338266934
 20
-161.2855902374564
 10
109.9967312007994
 20
-161.3892876115624
 10
109.9967312007994
 20
-161.5160671254196
 10
109.9967312007994
 20
-161.6431911488253
 10
109.8930338266934
 20
-161.7444769560917
 10
109.7659098032877
 20
-161.7444769560917
 97
        0
 97
        0
 92
        1
 93
        1
 72
     4
 94
        3
 73
     0
 74
     1
 95
       17
 96
       13
 40
0.0
 40
0.0
 40
0.0
 40
0.0
 40
1.0
 40
1.0
 40
1.0
 40
2.0
 40
2.0
 40
2.0
 40
3.0
 40
3.0
 40
3.0
 40
4.0
 40
4.0
 40
4.0
 40
4.0
 10
109.7638427459965
 20
-161.4144368086047
 10
109.7090657277811
 20
-161.4144368086047
 10
109.6646239960213
 20
-161.4588785403645
 10
109.6646239960213
 20
-161.5140000681284
 10
109.6646239960213
 20
-161.5711886531836
 10
109.7090657277811
 20
-161.6197644995256
 10
109.7679768605788
 20
-161.6197644995256
 10
109.8272325029251
 20
-161.6197644995256
 10
109.8675401201026
 20
-161.5691215958925
 10
109.8675401201026
 20
-161.5160671254196
 10
109.8675401201026
 20
-161.4588785403645
 10
109.8210313310517
 20
-161.4144368086047
 10
109.7638427459965
 20
-161.4144368086047
 97
        0
 97
        0
 75
     2
 76
     1
 98
        0
  0
SPLINE
  5
13D
330
108
100
AcDbEntity
  8
_U+30EC_U+30A4_U+30E4_U+30FC 1
370
     0
100
AcDbSpline
210
0.0
220
0.0
230
1.0
 70
    11
 71
     3
 72
    50
 73
    46
 74
     0
 42
0.0000000001
 43
0.0000000001
 12
1.0
 22
0.0
 32
0.0
 13
1.0
 23
0.0
 33
0.0
 40
0.0
 40
0.0
 40
0.0
 40
0.0
 40
1.0
 40
1.0
 40
1.0
 40
2.0
 40
2.0
 40
2.0
 40
3.0
 40
3.0
 40
3.0
 40
4.0
 40
4.0
 40
4.0
 40
5.0
 40
5.0
 40
5.0
 40
6.0
 40
6.0
 40
6.0
 40
7.0
 40
7.0
 40
7.0
 40
8.0
 40
8.0
 40
8.0
 40
9.0
 40
9.0
 40
9.0
 40
10.0
 40
10.0
 40
10.0
 40
11.0
 40
11.0
 40
11.0
 40
12.0
 40
12.0
 40
12.0
 40
13.0
 40
13.0
 40
13.0
 40
14.0
 40
14.0
 40
14.0
 40
15.0
 40
15.0
 40
15.0
 40
15.0
 10
111.5611490606514
 20
-162.2522840306175
 30
0.0
 10
111.4826008835877
 20
-162.4300509576564
 30
0.0
 10
111.3472086310174
 20
-162.6374457058684
 30
0.0
 10
111.2097493211559
 20
-162.776972073021
 30
0.0
 10
111.0405951328301
 20
-162.9481933186379
 30
0.0
 10
110.8776421163778
 20
-163.0370767821574
 30
0.0
 10
110.5582817648952
 20
-163.1790147161497
 30
0.0
 10
110.5582817648952
 20
-163.1790147161497
 30
0.0
 10
110.3891275765694
 20
-162.9905679931065
 30
0.0
 10
110.3891275765694
 20
-162.9905679931065
 30
0.0
 10
110.5751627327729
 20
-162.9674858533554
 30
0.0
 10
110.7463839783898
 20
-162.8806694471271
 30
0.0
 10
110.8990017083864
 20
-162.7749050157299
 30
0.0
 10
111.1611734748139
 20
-162.5930039741087
 30
0.0
 10
111.3516872551482
 20
-162.2798447944995
 30
0.0
 10
111.4002631014902
 20
-162.0979437528783
 30
0.0
 10
111.4002631014902
 20
-162.0979437528783
 30
0.0
 10
110.7295030105121
 20
-162.0979437528783
 30
0.0
 10
110.7295030105121
 20
-162.0979437528783
 30
0.0
 10
110.5710286181906
 20
-162.0979437528783
 30
0.0
 10
110.2788845210414
 20
-162.1062119820429
 30
0.0
 10
110.1266113005934
 20
-162.1234374594692
 30
0.0
 10
110.1266113005934
 20
-162.1234374594692
 30
0.0
 10
110.1266113005934
 20
-161.8946831192486
 30
0.0
 10
110.1266113005934
 20
-161.8946831192486
 30
0.0
 10
110.1607177458973
 20
-161.9012288006705
 30
0.0
 10
110.1858669429397
 20
-161.907429972544
 30
0.0
 10
110.2389214134125
 20
-161.9115640871263
 30
0.0
 10
110.3402072206788
 20
-161.9181097685482
 30
0.0
 10
110.5372666824351
 20
-161.9201768258394
 30
0.0
 10
110.6216715218238
 20
-161.9201768258394
 30
0.0
 10
110.6216715218238
 20
-161.9201768258394
 30
0.0
 10
111.1274115390584
 20
-161.9201768258394
 30
0.0
 10
111.1274115390584
 20
-161.9201768258394
 30
0.0
 10
111.1949354105693
 20
-161.9201768258394
 30
0.0
 10
111.3410074591439
 20
-161.9160427112571
 30
0.0
 10
111.4023301587814
 20
-161.9094970298351
 30
0.0
 10
111.4743326544231
 20
-161.9012288006705
 30
0.0
 10
111.5018934183051
 20
-161.886414890084
 30
0.0
 10
111.5356553540605
 20
-161.8629882407843
 30
0.0
 10
111.5356553540605
 20
-161.8629882407843
 30
0.0
 10
111.700675427804
 20
-162.0300753718189
 30
0.0
 10
111.700675427804
 20
-162.0300753718189
 30
0.0
 10
111.6307399894534
 20
-162.0979437528783
 30
0.0
 10
111.5842312004026
 20
-162.2016411269843
 30
0.0
 10
111.5611490606514
 20
-162.2522840306175
 30
0.0
  0
SPLINE
  5
13E
330
108
100
AcDbEntity
  8
_U+30EC_U+30A4_U+30E4_U+30FC 1
370
     0
100
AcDbSpline
210
0.0
220
0.0
230
1.0
 70
    11
 71
     3
 72
    29
 73
    25
 74
     0
 42
0.0000000001
 43
0.0000000001
 12
1.0
 22
0.0
 32
0.0
 13
1.0
 23
0.0
 33
0.0
 40
0.0
 40
0.0
 40
0.0
 40
0.0
 40
1.0
 40
1.0
 40
1.0
 40
2.0
 40
2.0
 40
2.0
 40
3.0
 40
3.0
 40
3.0
 40
4.0
 40
4.0
 40
4.0
 40
5.0
 40
5.0
 40
5.0
 40
6.0
 40
6.0
 40
6.0
 40
7.0
 40
7.0
 40
7.0
 40
8.0
 40
8.0
 40
8.0
 40
8.0
 10
111.0681558967121
 20
-161.6263101809476
 30
0.0
 10
111.0681558967121
 20
-161.6263101809476
 30
0.0
 10
110.7274359532209
 20
-161.6263101809476
 30
0.0
 10
110.7274359532209
 20
-161.6263101809476
 30
0.0
 10
110.6134032926592
 20
-161.6263101809476
 30
0.0
 10
110.4969590652577
 20
-161.6304442955299
 30
0.0
 10
110.3825818951474
 20
-161.6452582061165
 30
0.0
 10
110.3825818951474
 20
-161.6452582061165
 30
0.0
 10
110.3825818951474
 20
-161.4357964006133
 30
0.0
 10
110.3825818951474
 20
-161.4357964006133
 30
0.0
 10
110.50109317984
 20
-161.4506103111999
 30
0.0
 10
110.6747259922966
 20
-161.4547444257822
 30
0.0
 10
110.7274359532209
 20
-161.4547444257822
 30
0.0
 10
110.7274359532209
 20
-161.4547444257822
 30
0.0
 10
111.0681558967121
 20
-161.4547444257822
 30
0.0
 10
111.0681558967121
 20
-161.4547444257822
 30
0.0
 10
111.1846001241136
 20
-161.4547444257822
 30
0.0
 10
111.3006998419665
 20
-161.4506103111999
 30
0.0
 10
111.4171440693679
 20
-161.4357964006133
 30
0.0
 10
111.4171440693679
 20
-161.4357964006133
 30
0.0
 10
111.4171440693679
 20
-161.6452582061165
 30
0.0
 10
111.4171440693679
 20
-161.6452582061165
 30
0.0
 10
111.2669379062111
 20
-161.6263101809476
 30
0.0
 10
111.0829698072987
 20
-161.6263101809476
 30
0.0
 10
111.0681558967121
 20
-161.6263101809476
 30
0.0
  0
HATCH
  5
13F
330
108
100
AcDbEntity
  8
_U+30EC_U+30A4_U+30E4_U+30FC 1
 62
     7
420
 16777215
100
AcDbHatch
 10
0.0
 20
0.0
 30
0.0
210
0.0
220
0.0
230
1.0
  2
SOLID
 70
     1
 71
     0
 91
        2
 92
        1
 93
        1
 72
     4
 94
        3
 73
     0
 74
     1
 95
       50
 96
       46
 40
0.0
 40
0.0
 40
0.0
 40
0.0
 40
1.0
 40
1.0
 40
1.0
 40
2.0
 40
2.0
 40
2.0
 40
3.0
 40
3.0
 40
3.0
 40
4.0
 40
4.0
 40
4.0
 40
5.0
 40
5.0
 40
5.0
 40
6.0
 40
6.0
 40
6.0
 40
7.0
 40
7.0
 40
7.0
 40
8.0
 40
8.0
 40
8.0
 40
9.0
 40
9.0
 40
9.0
 40
10.0
 40
10.0
 40
10.0
 40
11.0
 40
11.0
 40
11.0
 40
12.0
 40
12.0
 40
12.0
 40
13.0
 40
13.0
 40
13.0
 40
14.0
 40
14.0
 40
14.0
 40
15.0
 40
15.0
 40
15.0
 40
15.0
 10
111.5611490606514
 20
-162.2522840306175
 10
111.4826008835877
 20
-162.4300509576564
 10
111.3472086310174
 20
-162.6374457058684
 10
111.2097493211559
 20
-162.776972073021
 10
111.0405951328301
 20
-162.9481933186379
 10
110.8776421163778
 20
-163.0370767821574
 10
110.5582817648952
 20
-163.1790147161497
 10
110.5582817648952
 20
-163.1790147161497
 10
110.3891275765694
 20
-162.9905679931065
 10
110.3891275765694
 20
-162.9905679931065
 10
110.5751627327729
 20
-162.9674858533554
 10
110.7463839783898
 20
-162.8806694471271
 10
110.8990017083864
 20
-162.7749050157299
 10
111.1611734748139
 20
-162.5930039741087
 10
111.3516872551482
 20
-162.2798447944995
 10
111.4002631014902
 20
-162.0979437528783
 10
111.4002631014902
 20
-162.0979437528783
 10
110.7295030105121
 20
-162.0979437528783
 10
110.7295030105121
 20
-162.0979437528783
 10
110.5710286181906
 20
-162.0979437528783
 10
110.2788845210414
 20
-162.1062119820429
 10
110.1266113005934
 20
-162.1234374594692
 10
110.1266113005934
 20
-162.1234374594692
 10
110.1266113005934
 20
-161.8946831192486
 10
110.1266113005934
 20
-161.8946831192486
 10
110.1607177458973
 20
-161.9012288006705
 10
110.1858669429397
 20
-161.907429972544
 10
110.2389214134125
 20
-161.9115640871263
 10
110.3402072206788
 20
-161.9181097685482
 10
110.5372666824351
 20
-161.9201768258394
 10
110.6216715218238
 20
-161.9201768258394
 10
110.6216715218238
 20
-161.9201768258394
 10
111.1274115390584
 20
-161.9201768258394
 10
111.1274115390584
 20
-161.9201768258394
 10
111.1949354105693
 20
-161.9201768258394
 10
111.3410074591439
 20
-161.9160427112571
 10
111.4023301587814
 20
-161.9094970298351
 10
111.4743326544231
 20
-161.9012288006705
 10
111.5018934183051
 20
-161.886414890084
 10
111.5356553540605
 20
-161.8629882407843
 10
111.5356553540605
 20
-161.8629882407843
 10
111.700675427804
 20
-162.0300753718189
 10
111.700675427804
 20
-162.0300753718189
 10
111.6307399894534
 20
-162.0979437528783
 10
111.5842312004026
 20
-162.2016411269843
 10
111.5611490606514
 20
-162.2522840306175
 97
        0
 97
        0
 92
        1
 93
        1
 72
     4
 94
        3
 73
     0
 74
     1
 95
       29
 96
       25
 40
0.0
 40
0.0
 40
0.0
 40
0.0
 40
1.0
 40
1.0
 40
1.0
 40
2.0
 40
2.0
 40
2.0
 40
3.0
 40
3.0
 40
3.0
 40
4.0
 40
4.0
 40
4.0
 40
5.0
 40
5.0
 40
5.0
 40
6.0
 40
6.0
 40
6.0
 40
7.0
 40
7.0
 40
7.0
 40
8.0
 40
8.0
 40
8.0
 40
8.0
 10
111.0681558967121
 20
-161.6263101809476
 10
111.0681558967121
 20
-161.6263101809476
 10
110.7274359532209
 20
-161.6263101809476
 10
110.7274359532209
 20
-161.6263101809476
 10
110.6134032926592
 20
-161.6263101809476
 10
110.4969590652577
 20
-161.6304442955299
 10
110.3825818951474
 20
-161.6452582061165
 10
110.3825818951474
 20
-161.6452582061165
 10
110.3825818951474
 20
-161.4357964006133
 10
110.3825818951474
 20
-161.4357964006133
 10
110.50109317984
 20
-161.4506103111999
 10
110.6747259922966
 20
-161.4547444257822
 10
110.7274359532209
 20
-161.4547444257822
 10
110.7274359532209
 20
-161.4547444257822
 10
111.0681558967121
 20
-161.4547444257822
 10
111.0681558967121
 20
-161.4547444257822
 10
111.1846001241136
 20
-161.4547444257822
 10
111.3006998419665
 20
-161.4506103111999
 10
111.4171440693679
 20
-161.4357964006133
 10
111.4171440693679
 20
-161.4357964006133
 10
111.4171440693679
 20
-161.6452582061165
 10
111.4171440693679
 20
-161.6452582061165
 10
111.2669379062111
 20
-161.6263101809476
 10
111.0829698072987
 20
-161.6263101809476
 10
111.0681558967121
 20
-161.6263101809476
 97
        0
 97
        0
 75
     2
 76
     1
 98
        0
  0
SPLINE
  5
140
330
108
100
AcDbEntity
  8
_U+30EC_U+30A4_U+30E4_U+30FC 1
370
     0
100
AcDbSpline
210
0.0
220
0.0
230
1.0
 70
    11
 71
     3
 72
    50
 73
    46
 74
     0
 42
0.0000000001
 43
0.0000000001
 12
1.0
 22
0.0
 32
0.0
 13
1.0
 23
0.0
 33
0.0
 40
0.0
 40
0.0
 40
0.0
 40
0.0
 40
1.0
 40
1.0
 40
1.0
 40
2.0
 40
2.0
 40
2.0
 40
3.0
 40
3.0
 40
3.0
 40
4.0
 40
4.0
 40
4.0
 40
5.0
 40
5.0
 40
5.0
 40
6.0
 40
6.0
 40
6.0
 40
7.0
 40
7.0
 40
7.0
 40
8.0
 40
8.0
 40
8.0
 40
9.0
 40
9.0
 40
9.0
 40
10.0
 40
10.0
 40
10.0
 40
11.0
 40
11.0
 40
11.0
 40
12.0
 40
12.0
 40
12.0
 40
13.0
 40
13.0
 40
13.0
 40
14.0
 40
14.0
 40
14.0
 40
15.0
 40
15.0
 40
15.0
 40
15.0
 10
113.2712944595294
 20
-161.611496270361
 30
0.0
 10
113.0618326540262
 20
-161.8250921904465
 30
0.0
 10
112.990174667933
 20
-161.8970946860882
 30
0.0
 10
112.8482367339407
 20
-162.0152614612323
 30
0.0
 10
112.8482367339407
 20
-162.0152614612323
 30
0.0
 10
112.8482367339407
 20
-162.5823241781044
 30
0.0
 10
112.8482367339407
 20
-162.5823241781044
 30
0.0
 10
112.8482367339407
 20
-162.7325303412613
 30
0.0
 10
112.8547824153627
 20
-162.7514783664302
 30
0.0
 10
112.858916529945
 20
-162.9292452934691
 30
0.0
 10
112.8609835872361
 20
-163.0605034314571
 30
0.0
 10
112.8671847591096
 20
-163.1090792777991
 30
0.0
 10
112.8737304405316
 20
-163.1683349201454
 30
0.0
 10
112.8737304405316
 20
-163.1683349201454
 30
0.0
 10
112.6473876671507
 20
-163.1683349201454
 30
0.0
 10
112.6473876671507
 20
-163.1683349201454
 30
0.0
 10
112.651521781733
 20
-163.1238931883857
 30
0.0
 10
112.6556558963153
 20
-163.0773843993348
 30
0.0
 10
112.6556558963153
 20
-163.0687716606217
 30
0.0
 10
112.6556558963153
 20
-162.9885009358154
 30
0.0
 10
112.6601345204461
 20
-162.6374457058684
 30
0.0
 10
112.6601345204461
 20
-162.5654432102267
 30
0.0
 10
112.6601345204461
 20
-162.5654432102267
 30
0.0
 10
112.6601345204461
 20
-162.1592664525157
 30
0.0
 10
112.6601345204461
 20
-162.1592664525157
 30
0.0
 10
112.4782334788249
 20
-162.2839789090818
 30
0.0
 10
112.2835855839083
 20
-162.3942219646098
 30
0.0
 10
112.0803249502785
 20
-162.4806938612896
 30
0.0
 10
112.0803249502785
 20
-162.4806938612896
 30
0.0
 10
111.8774088261973
 20
-162.3177408448372
 30
0.0
 10
111.8774088261973
 20
-162.3177408448372
 30
0.0
 10
112.0000542254722
 20
-162.2819118517907
 30
0.0
 10
112.2560248200263
 20
-162.2078422988578
 30
0.0
 10
112.6008788780998
 20
-161.9518717043037
 30
0.0
 10
112.8165418554764
 20
-161.7933973119822
 30
0.0
 10
113.0091226931019
 20
-161.6049505889391
 30
0.0
 10
113.1613959135499
 20
-161.3848089874316
 30
0.0
 10
113.1613959135499
 20
-161.3848089874316
 30
0.0
 10
113.3539767511754
 20
-161.528813978715
 30
0.0
 10
113.3539767511754
 20
-161.528813978715
 30
0.0
 10
113.3667236044708
 20
-161.5394937747193
 30
0.0
 10
113.3749918336354
 20
-161.5543076853059
 30
0.0
 10
113.3749918336354
 20
-161.5670545386013
 30
0.0
 10
113.3749918336354
 20
-161.6070176462302
 30
0.0
 10
113.3370957832977
 20
-161.6070176462302
 30
0.0
 10
113.2712944595294
 20
-161.611496270361
 30
0.0
  0
HATCH
  5
141
330
108
100
AcDbEntity
  8
_U+30EC_U+30A4_U+30E4_U+30FC 1
 62
     7
420
 16777215
100
AcDbHatch
 10
0.0
 20
0.0
 30
0.0
210
0.0
220
0.0
230
1.0
  2
SOLID
 70
     1
 71
     0
 91
        1
 92
        1
 93
        1
 72
     4
 94
        3
 73
     0
 74
     1
 95
       50
 96
       46
 40
0.0
 40
0.0
 40
0.0
 40
0.0
 40
1.0
 40
1.0
 40
1.0
 40
2.0
 40
2.0
 40
2.0
 40
3.0
 40
3.0
 40
3.0
 40
4.0
 40
4.0
 40
4.0
 40
5.0
 40
5.0
 40
5.0
 40
6.0
 40
6.0
 40
6.0
 40
7.0
 40
7.0
 40
7.0
 40
8.0
 40
8.0
 40
8.0
 40
9.0
 40
9.0
 40
9.0
 40
10.0
 40
10.0
 40
10.0
 40
11.0
 40
11.0
 40
11.0
 40
12.0
 40
12.0
 40
12.0
 40
13.0
 40
13.0
 40
13.0
 40
14.0
 40
14.0
 40
14.0
 40
15.0
 40
15.0
 40
15.0
 40
15.0
 10
113.2712944595294
 20
-161.611496270361
 10
113.0618326540262
 20
-161.8250921904465
 10
112.990174667933
 20
-161.8970946860882
 10
112.8482367339407
 20
-162.0152614612323
 10
112.8482367339407
 20
-162.0152614612323
 10
112.8482367339407
 20
-162.5823241781044
 10
112.8482367339407
 20
-162.5823241781044
 10
112.8482367339407
 20
-162.7325303412613
 10
112.8547824153627
 20
-162.7514783664302
 10
112.858916529945
 20
-162.9292452934691
 10
112.8609835872361
 20
-163.0605034314571
 10
112.8671847591096
 20
-163.1090792777991
 10
112.8737304405316
 20
-163.1683349201454
 10
112.8737304405316
 20
-163.1683349201454
 10
112.6473876671507
 20
-163.1683349201454
 10
112.6473876671507
 20
-163.1683349201454
 10
112.651521781733
 20
-163.1238931883857
 10
112.6556558963153
 20
-163.0773843993348
 10
112.6556558963153
 20
-163.0687716606217
 10
112.6556558963153
 20
-162.9885009358154
 10
112.6601345204461
 20
-162.6374457058684
 10
112.6601345204461
 20
-162.5654432102267
 10
112.6601345204461
 20
-162.5654432102267
 10
112.6601345204461
 20
-162.1592664525157
 10
112.6601345204461
 20
-162.1592664525157
 10
112.4782334788249
 20
-162.2839789090818
 10
112.2835855839083
 20
-162.3942219646098
 10
112.0803249502785
 20
-162.4806938612896
 10
112.0803249502785
 20
-162.4806938612896
 10
111.8774088261973
 20
-162.3177408448372
 10
111.8774088261973
 20
-162.3177408448372
 10
112.0000542254722
 20
-162.2819118517907
 10
112.2560248200263
 20
-162.2078422988578
 10
112.6008788780998
 20
-161.9518717043037
 10
112.8165418554764
 20
-161.7933973119822
 10
113.0091226931019
 20
-161.6049505889391
 10
113.1613959135499
 20
-161.3848089874316
 10
113.1613959135499
 20
-161.3848089874316
 10
113.3539767511754
 20
-161.528813978715
 10
113.3539767511754
 20
-161.528813978715
 10
113.3667236044708
 20
-161.5394937747193
 10
113.3749918336354
 20
-161.5543076853059
 10
113.3749918336354
 20
-161.5670545386013
 10
113.3749918336354
 20
-161.6070176462302
 10
113.3370957832977
 20
-161.6070176462302
 10
113.2712944595294
 20
-161.611496270361
 97
        0
 97
        0
 75
     2
 76
     1
 98
        0
  0
SPLINE
  5
142
330
108
100
AcDbEntity
  8
_U+30EC_U+30A4_U+30E4_U+30FC 1
370
     0
100
AcDbSpline
210
0.0
220
0.0
230
1.0
 70
    11
 71
     3
 72
    50
 73
    46
 74
     0
 42
0.0000000001
 43
0.0000000001
 12
1.0
 22
0.0
 32
0.0
 13
1.0
 23
0.0
 33
0.0
 40
0.0
 40
0.0
 40
0.0
 40
0.0
 40
1.0
 40
1.0
 40
1.0
 40
2.0
 40
2.0
 40
2.0
 40
3.0
 40
3.0
 40
3.0
 40
4.0
 40
4.0
 40
4.0
 40
5.0
 40
5.0
 40
5.0
 40
6.0
 40
6.0
 40
6.0
 40
7.0
 40
7.0
 40
7.0
 40
8.0
 40
8.0
 40
8.0
 40
9.0
 40
9.0
 40
9.0
 40
10.0
 40
10.0
 40
10.0
 40
11.0
 40
11.0
 40
11.0
 40
12.0
 40
12.0
 40
12.0
 40
13.0
 40
13.0
 40
13.0
 40
14.0
 40
14.0
 40
14.0
 40
15.0
 40
15.0
 40
15.0
 40
15.0
 10
114.9797173106648
 20
-162.1382513700557
 30
0.0
 10
114.9183946110274
 20
-162.2099093561489
 30
0.0
 10
114.6579453923425
 20
-162.5272026503404
 30
0.0
 10
114.6011013168358
 20
-162.5909369168176
 30
0.0
 10
114.6855061562245
 20
-162.6880886095016
 30
0.0
 10
114.7364935694062
 20
-162.7514783664302
 30
0.0
 10
114.8019503836259
 20
-162.8424288872408
 30
0.0
 10
114.8019503836259
 20
-162.8424288872408
 30
0.0
 10
114.6179822847136
 20
-162.9802327066508
 30
0.0
 10
114.6179822847136
 20
-162.9802327066508
 30
0.0
 10
114.4825900321432
 20
-162.7683593343079
 30
0.0
 10
114.3110242769778
 20
-162.5444281277667
 30
0.0
 10
114.017157632086
 20
-162.3453016087192
 30
0.0
 10
114.017157632086
 20
-162.3453016087192
 30
0.0
 10
114.1652967379517
 20
-162.19096133098
 30
0.0
 10
114.1652967379517
 20
-162.19096133098
 30
0.0
 10
114.2751952839312
 20
-162.2712320557864
 30
0.0
 10
114.3788926580372
 20
-162.3601155193058
 30
0.0
 10
114.4760443507213
 20
-162.4555446642472
 30
0.0
 10
114.5439127317807
 20
-162.3794080540232
 30
0.0
 10
114.7468288558619
 20
-162.135839803216
 30
0.0
 10
114.8801540511411
 20
-161.907429972544
 30
0.0
 10
114.8801540511411
 20
-161.907429972544
 30
0.0
 10
114.2073269028718
 20
-161.907429972544
 30
0.0
 10
114.2073269028718
 20
-161.907429972544
 30
0.0
 10
114.0826144463057
 20
-161.907429972544
 30
0.0
 10
113.830777966334
 20
-161.9160427112571
 30
0.0
 10
113.6213161608308
 20
-161.9263779977128
 30
0.0
 10
113.6213161608308
 20
-161.9263779977128
 30
0.0
 10
113.6213161608308
 20
-161.7065809057539
 30
0.0
 10
113.6213161608308
 20
-161.7065809057539
 30
0.0
 10
113.8056287692917
 20
-161.7255289309228
 30
0.0
 10
114.010611950664
 20
-161.7296630455051
 30
0.0
 10
114.1990586737072
 20
-161.7296630455051
 30
0.0
 10
114.1990586737072
 20
-161.7296630455051
 30
0.0
 10
114.7023871241022
 20
-161.7296630455051
 30
0.0
 10
114.7023871241022
 20
-161.7296630455051
 30
0.0
 10
115.0410400103022
 20
-161.7296630455051
 30
0.0
 10
115.085481742062
 20
-161.7148491349185
 30
0.0
 10
115.1678195241594
 20
-161.6748860272896
 30
0.0
 10
115.1678195241594
 20
-161.6748860272896
 30
0.0
 10
115.3349066551941
 20
-161.8333604196111
 30
0.0
 10
115.3349066551941
 20
-161.8333604196111
 30
0.0
 10
115.182633434746
 20
-161.9053629152528
 30
0.0
 10
115.0389729530111
 20
-162.0683159317051
 30
0.0
 10
114.9797173106648
 20
-162.1382513700557
 30
0.0
  0
HATCH
  5
143
330
108
100
AcDbEntity
  8
_U+30EC_U+30A4_U+30E4_U+30FC 1
 62
     7
420
 16777215
100
AcDbHatch
 10
0.0
 20
0.0
 30
0.0
210
0.0
220
0.0
230
1.0
  2
SOLID
 70
     1
 71
     0
 91
        1
 92
        1
 93
        1
 72
     4
 94
        3
 73
     0
 74
     1
 95
       50
 96
       46
 40
0.0
 40
0.0
 40
0.0
 40
0.0
 40
1.0
 40
1.0
 40
1.0
 40
2.0
 40
2.0
 40
2.0
 40
3.0
 40
3.0
 40
3.0
 40
4.0
 40
4.0
 40
4.0
 40
5.0
 40
5.0
 40
5.0
 40
6.0
 40
6.0
 40
6.0
 40
7.0
 40
7.0
 40
7.0
 40
8.0
 40
8.0
 40
8.0
 40
9.0
 40
9.0
 40
9.0
 40
10.0
 40
10.0
 40
10.0
 40
11.0
 40
11.0
 40
11.0
 40
12.0
 40
12.0
 40
12.0
 40
13.0
 40
13.0
 40
13.0
 40
14.0
 40
14.0
 40
14.0
 40
15.0
 40
15.0
 40
15.0
 40
15.0
 10
114.9797173106648
 20
-162.1382513700557
 10
114.9183946110274
 20
-162.2099093561489
 10
114.6579453923425
 20
-162.5272026503404
 10
114.6011013168358
 20
-162.5909369168176
 10
114.6855061562245
 20
-162.6880886095016
 10
114.7364935694062
 20
-162.7514783664302
 10
114.8019503836259
 20
-162.8424288872408
 10
114.8019503836259
 20
-162.8424288872408
 10
114.6179822847136
 20
-162.9802327066508
 10
114.6179822847136
 20
-162.9802327066508
 10
114.4825900321432
 20
-162.7683593343079
 10
114.3110242769778
 20
-162.5444281277667
 10
114.017157632086
 20
-162.3453016087192
 10
114.017157632086
 20
-162.3453016087192
 10
114.1652967379517
 20
-162.19096133098
 10
114.1652967379517
 20
-162.19096133098
 10
114.2751952839312
 20
-162.2712320557864
 10
114.3788926580372
 20
-162.3601155193058
 10
114.4760443507213
 20
-162.4555446642472
 10
114.5439127317807
 20
-162.3794080540232
 10
114.7468288558619
 20
-162.135839803216
 10
114.8801540511411
 20
-161.907429972544
 10
114.8801540511411
 20
-161.907429972544
 10
114.2073269028718
 20
-161.907429972544
 10
114.2073269028718
 20
-161.907429972544
 10
114.0826144463057
 20
-161.907429972544
 10
113.830777966334
 20
-161.9160427112571
 10
113.6213161608308
 20
-161.9263779977128
 10
113.6213161608308
 20
-161.9263779977128
 10
113.6213161608308
 20
-161.7065809057539
 10
113.6213161608308
 20
-161.7065809057539
 10
113.8056287692917
 20
-161.7255289309228
 10
114.010611950664
 20
-161.7296630455051
 10
114.1990586737072
 20
-161.7296630455051
 10
114.1990586737072
 20
-161.7296630455051
 10
114.7023871241022
 20
-161.7296630455051
 10
114.7023871241022
 20
-161.7296630455051
 10
115.0410400103022
 20
-161.7296630455051
 10
115.085481742062
 20
-161.7148491349185
 10
115.1678195241594
 20
-161.6748860272896
 10
115.1678195241594
 20
-161.6748860272896
 10
115.3349066551941
 20
-161.8333604196111
 10
115.3349066551941
 20
-161.8333604196111
 10
115.182633434746
 20
-161.9053629152528
 10
115.0389729530111
 20
-162.0683159317051
 10
114.9797173106648
 20
-162.1382513700557
 97
        0
 97
        0
 75
     2
 76
     1
 98
        0
  0
SPLINE
  5
144
330
108
100
AcDbEntity
  8
_U+30EC_U+30A4_U+30E4_U+30FC 1
370
     0
100
AcDbSpline
210
0.0
220
0.0
230
1.0
 70
    11
 71
     3
 72
    29
 73
    25
 74
     0
 42
0.0000000001
 43
0.0000000001
 12
1.0
 22
0.0
 32
0.0
 13
1.0
 23
0.0
 33
0.0
 40
0.0
 40
0.0
 40
0.0
 40
0.0
 40
1.0
 40
1.0
 40
1.0
 40
2.0
 40
2.0
 40
2.0
 40
3.0
 40
3.0
 40
3.0
 40
4.0
 40
4.0
 40
4.0
 40
5.0
 40
5.0
 40
5.0
 40
6.0
 40
6.0
 40
6.0
 40
7.0
 40
7.0
 40
7.0
 40
8.0
 40
8.0
 40
8.0
 40
8.0
 10
116.603390812863
 20
-162.3814751113144
 30
0.0
 10
116.603390812863
 20
-162.3814751113144
 30
0.0
 10
116.1190103876369
 20
-162.3814751113144
 30
0.0
 10
116.1190103876369
 20
-162.3814751113144
 30
0.0
 10
116.0914496237549
 20
-162.3814751113144
 30
0.0
 10
115.7741563295634
 20
-162.3814751113144
 30
0.0
 10
115.5626274667691
 20
-162.4066243083567
 30
0.0
 10
115.5626274667691
 20
-162.4066243083567
 30
0.0
 10
115.5626274667691
 20
-162.1761474203935
 30
0.0
 10
115.5626274667691
 20
-162.1761474203935
 30
0.0
 10
115.7211018590906
 20
-162.1995740696932
 30
0.0
 10
115.9116156394249
 20
-162.2016411269843
 30
0.0
 10
116.1190103876369
 20
-162.2016411269843
 30
0.0
 10
116.1190103876369
 20
-162.2016411269843
 30
0.0
 10
116.603390812863
 20
-162.2016411269843
 30
0.0
 10
116.603390812863
 20
-162.2016411269843
 30
0.0
 10
116.7894259690665
 20
-162.2016411269843
 30
0.0
 10
116.9758056348186
 20
-162.1995740696932
 30
0.0
 10
117.1597737337309
 20
-162.1761474203935
 30
0.0
 10
117.1597737337309
 20
-162.1761474203935
 30
0.0
 10
117.1597737337309
 20
-162.4066243083567
 30
0.0
 10
117.1597737337309
 20
-162.4066243083567
 30
0.0
 10
116.9758056348186
 20
-162.3835421686055
 30
0.0
 10
116.7281032694291
 20
-162.3814751113144
 30
0.0
 10
116.603390812863
 20
-162.3814751113144
 30
0.0
  0
HATCH
  5
145
330
108
100
AcDbEntity
  8
_U+30EC_U+30A4_U+30E4_U+30FC 1
 62
     7
420
 16777215
100
AcDbHatch
 10
0.0
 20
0.0
 30
0.0
210
0.0
220
0.0
230
1.0
  2
SOLID
 70
     1
 71
     0
 91
        1
 92
        1
 93
        1
 72
     4
 94
        3
 73
     0
 74
     1
 95
       29
 96
       25
 40
0.0
 40
0.0
 40
0.0
 40
0.0
 40
1.0
 40
1.0
 40
1.0
 40
2.0
 40
2.0
 40
2.0
 40
3.0
 40
3.0
 40
3.0
 40
4.0
 40
4.0
 40
4.0
 40
5.0
 40
5.0
 40
5.0
 40
6.0
 40
6.0
 40
6.0
 40
7.0
 40
7.0
 40
7.0
 40
8.0
 40
8.0
 40
8.0
 40
8.0
 10
116.603390812863
 20
-162.3814751113144
 10
116.603390812863
 20
-162.3814751113144
 10
116.1190103876369
 20
-162.3814751113144
 10
116.1190103876369
 20
-162.3814751113144
 10
116.0914496237549
 20
-162.3814751113144
 10
115.7741563295634
 20
-162.3814751113144
 10
115.5626274667691
 20
-162.4066243083567
 10
115.5626274667691
 20
-162.4066243083567
 10
115.5626274667691
 20
-162.1761474203935
 10
115.5626274667691
 20
-162.1761474203935
 10
115.7211018590906
 20
-162.1995740696932
 10
115.9116156394249
 20
-162.2016411269843
 10
116.1190103876369
 20
-162.2016411269843
 10
116.1190103876369
 20
-162.2016411269843
 10
116.603390812863
 20
-162.2016411269843
 10
116.603390812863
 20
-162.2016411269843
 10
116.7894259690665
 20
-162.2016411269843
 10
116.9758056348186
 20
-162.1995740696932
 10
117.1597737337309
 20
-162.1761474203935
 10
117.1597737337309
 20
-162.1761474203935
 10
117.1597737337309
 20
-162.4066243083567
 10
117.1597737337309
 20
-162.4066243083567
 10
116.9758056348186
 20
-162.3835421686055
 10
116.7281032694291
 20
-162.3814751113144
 10
116.603390812863
 20
-162.3814751113144
 97
        0
 97
        0
 75
     2
 76
     1
 98
        0
  0
ENDBLK
  5
10B
330
108
100
AcDbEntity
  8
0
100
AcDbBlockEnd
  0
ENDSEC
  0
SECTION
  2
ENTITIES
  0
POLYLINE
  5
41
330
1F
100
AcDbEntity
  8
_U+30EC_U+30A4_U+30E4_U+30FC 1
 62
     7
420
 16777215
370
    25
100
AcDb2dPolyline
 66
     1
 10
0.0
 20
0.0
 30
0.0
  0
VERTEX
  5
42
330
41
100
AcDbEntity
  8
_U+30EC_U+30A4_U+30E4_U+30FC 1
 62
     7
420
 16777215
370
    25
100
AcDbVertex
100
AcDb2dVertex
 10
85.10834442316751
 20
-140.3507691315789
 30
0.0
  0
VERTEX
  5
43
330
41
100
AcDbEntity
  8
_U+30EC_U+30A4_U+30E4_U+30FC 1
 62
     7
420
 16777215
370
    25
100
AcDbVertex
100
AcDb2dVertex
 10
96.10851754806744
 20
-140.3507691315789
 30
0.0
  0
SEQEND
  5
44
330
41
100
AcDbEntity
  8
_U+30EC_U+30A4_U+30E4_U+30FC 1
 62
     7
420
 16777215
370
    25
  0
POLYLINE
  5
45
330
1F
100
AcDbEntity
  8
_U+30EC_U+30A4_U+30E4_U+30FC 1
 62
     7
420
 16777215
370
    25
100
AcDb2dPolyline
 66
     1
 10
0.0
 20
0.0
 30
0.0
  0
VERTEX
  5
46
330
45
100
AcDbEntity
  8
_U+30EC_U+30A4_U+30E4_U+30FC 1
 62
     7
420
 16777215
370
    25
100
AcDbVertex
100
AcDb2dVertex
 10
120.1084124913347
 20
-140.3511219093566
 30
0.0
  0
VERTEX
  5
47
330
45
100
AcDbEntity
  8
_U+30EC_U+30A4_U+30E4_U+30FC 1
 62
     7
420
 16777215
370
    25
100
AcDbVertex
100
AcDb2dVertex
 10
120.1084124913347
 20
-141.3508941313288
 30
0.0
  0
SEQEND
  5
48
330
45
100
AcDbEntity
  8
_U+30EC_U+30A4_U+30E4_U+30FC 1
 62
     7
420
 16777215
370
    25
  0
POLYLINE
  5
49
330
1F
100
AcDbEntity
  8
_U+30EC_U+30A4_U+30E4_U+30FC 1
 62
     7
420
 16777215
370
    25
100
AcDb2dPolyline
 66
     1
 10
0.0
 20
0.0
 30
0.0
  0
VERTEX
  5
4A
330
49
100
AcDbEntity
  8
_U+30EC_U+30A4_U+30E4_U+30FC 1
 62
     7
420
 16777215
370
    25
100
AcDbVertex
100
AcDb2dVertex
 10
98.10806194149926
 20
-141.3508941313288
 30
0.0
  0
VERTEX
  5
4B
330
49
100
AcDbEntity
  8
_U+30EC_U+30A4_U+30E4_U+30FC 1
 62
     7
420
 16777215
370
    25
100
AcDbVertex
100
AcDb2dVertex
 10
120.1084124913347
 20
-141.3508941313288
 30
0.0
  0
SEQEND
  5
4C
330
49
100
AcDbEntity
  8
_U+30EC_U+30A4_U+30E4_U+30FC 1
 62
     7
420
 16777215
370
    25
  0
POLYLINE
  5
4D
330
1F
100
AcDbEntity
  8
_U+30EC_U+30A4_U+30E4_U+30FC 1
 62
     7
420
 16777215
370
    25
100
AcDb2dPolyline
 66
     1
 10
0.0
 20
0.0
 30
0.0
  0
VERTEX
  5
4E
330
4D
100
AcDbEntity
  8
_U+30EC_U+30A4_U+30E4_U+30FC 1
 62
     7
420
 16777215
370
    25
100
AcDbVertex
100
AcDb2dVertex
 10
95.10807507359085
 20
-141.3508941313288
 30
0.0
  0
VERTEX
  5
4F
330
4D
100
AcDbEntity
  8
_U+30EC_U+30A4_U+30E4_U+30FC 1
 62
     7
420
 16777215
370
    25
100
AcDbVertex
100
AcDb2dVertex
 10
95.10807507359085
 20
-155.55122273889
 30
0.0
  0
SEQEND
  5
50
330
4D
100
AcDbEntity
  8
_U+30EC_U+30A4_U+30E4_U+30FC 1
 62
     7
420
 16777215
370
    25
  0
POLYLINE
  5
51
330
1F
100
AcDbEntity
  8
_U+30EC_U+30A4_U+30E4_U+30FC 1
 62
     7
420
 16777215
370
    25
100
AcDb2dPolyline
 66
     1
 10
0.0
 20
0.0
 30
0.0
  0
VERTEX
  5
52
330
51
100
AcDbEntity
  8
_U+30EC_U+30A4_U+30E4_U+30FC 1
 62
     7
420
 16777215
370
    25
100
AcDbVertex
100
AcDb2dVertex
 10
105.1084781517927
 20
-154.3509669058568
 30
0.0
  0
VERTEX
  5
53
330
51
100
AcDbEntity
  8
_U+30EC_U+30A4_U+30E4_U+30FC 1
 62
     7
420
 16777215
370
    25
100
AcDbVertex
100
AcDb2dVertex
 10
105.1084781517927
 20
-154.851170516843
 30
0.0
  0
SEQEND
  5
54
330
51
100
AcDbEntity
  8
_U+30EC_U+30A4_U+30E4_U+30FC 1
 62
     7
420
 16777215
370
    25
  0
POLYLINE
  5
55
330
1F
100
AcDbEntity
  8
_U+30EC_U+30A4_U+30E4_U+30FC 1
 62
     7
420
 16777215
370
    25
100
AcDb2dPolyline
 66
     1
 10
0.0
 20
0.0
 30
0.0
  0
VERTEX
  5
56
330
55
100
AcDbEntity
  8
_U+30EC_U+30A4_U+30E4_U+30FC 1
 62
     7
420
 16777215
370
    25
100
AcDbVertex
100
AcDb2dVertex
 10
98.10806194149926
 20
-154.3509669058568
 30
0.0
  0
VERTEX
  5
57
330
55
100
AcDbEntity
  8
_U+30EC_U+30A4_U+30E4_U+30FC 1
 62
     7
420
 16777215
370
    25
100
AcDbVertex
100
AcDb2dVertex
 10
105.1084781517927
 20
-154.3509669058568
 30
0.0
  0
SEQEND
  5
58
330
55
100
AcDbEntity
  8
_U+30EC_U+30A4_U+30E4_U+30FC 1
 62
     7
420
 16777215
370
    25
  0
POLYLINE
  5
59
330
1F
100
AcDbEntity
  8
_U+30EC_U+30A4_U+30E4_U+30FC 1
 62
     7
420
 16777215
370
    25
100
AcDb2dPolyline
 66
     1
 10
0.0
 20
0.0
 30
0.0
  0
VERTEX
  5
5A
330
59
100
AcDbEntity
  8
_U+30EC_U+30A4_U+30E4_U+30FC 1
 62
     7
420
 16777215
370
    25
100
AcDbVertex
100
AcDb2dVertex
 10
97.10828974478335
 20
-140.3507691315789
 30
0.0
  0
VERTEX
  5
5B
330
59
100
AcDbEntity
  8
_U+30EC_U+30A4_U+30E4_U+30FC 1
 62
     7
420
 16777215
370
    25
100
AcDbVertex
100
AcDb2dVertex
 10
120.1084124913347
 20
-140.3507691315789
 30
0.0
  0
SEQEND
  5
5C
330
59
100
AcDbEntity
  8
_U+30EC_U+30A4_U+30E4_U+30FC 1
 62
     7
420
 16777215
370
    25
  0
POLYLINE
  5
5D
330
1F
100
AcDbEntity
  8
_U+30EC_U+30A4_U+30E4_U+30FC 1
 62
     7
420
 16777215
370
    25
100
AcDb2dPolyline
 66
     1
 10
0.0
 20
0.0
 30
0.0
  0
VERTEX
  5
5E
330
5D
100
AcDbEntity
  8
_U+30EC_U+30A4_U+30E4_U+30FC 1
 62
     7
420
 16777215
370
    25
100
AcDbVertex
100
AcDb2dVertex
 10
96.10851754806744
 20
-140.3507691315789
 30
0.0
  0
VERTEX
  5
5F
330
5D
100
AcDbEntity
  8
_U+30EC_U+30A4_U+30E4_U+30FC 1
 62
     7
420
 16777215
370
    25
100
AcDbVertex
100
AcDb2dVertex
 10
96.10851754806744
 20
-154.3509669058568
 30
0.0
  0
SEQEND
  5
60
330
5D
100
AcDbEntity
  8
_U+30EC_U+30A4_U+30E4_U+30FC 1
 62
     7
420
 16777215
370
    25
  0
POLYLINE
  5
61
330
1F
100
AcDbEntity
  8
_U+30EC_U+30A4_U+30E4_U+30FC 1
 62
     7
420
 16777215
370
    25
100
AcDb2dPolyline
 66
     1
 10
0.0
 20
0.0
 30
0.0
  0
VERTEX
  5
62
330
61
100
AcDbEntity
  8
_U+30EC_U+30A4_U+30E4_U+30FC 1
 62
     7
420
 16777215
370
    25
100
AcDbVertex
100
AcDb2dVertex
 10
97.10828974478335
 20
-140.3507691315789
 30
0.0
  0
VERTEX
  5
63
330
61
100
AcDbEntity
  8
_U+30EC_U+30A4_U+30E4_U+30FC 1
 62
     7
420
 16777215
370
    25
100
AcDbVertex
100
AcDb2dVertex
 10
97.10828974478335
 20
-154.3509669058568
 30
0.0
  0
SEQEND
  5
64
330
61
100
AcDbEntity
  8
_U+30EC_U+30A4_U+30E4_U+30FC 1
 62
     7
420
 16777215
370
    25
  0
POLYLINE
  5
65
330
1F
100
AcDbEntity
  8
_U+30EC_U+30A4_U+30E4_U+30FC 1
 62
     7
420
 16777215
370
    25
100
AcDb2dPolyline
 66
     1
 10
0.0
 20
0.0
 30
0.0
  0
VERTEX
  5
66
330
65
100
AcDbEntity
  8
_U+30EC_U+30A4_U+30E4_U+30FC 1
 62
     7
420
 16777215
370
    25
100
AcDbVertex
100
AcDb2dVertex
 10
98.10806194149926
 20
-141.3508941313288
 30
0.0
  0
VERTEX
  5
67
330
65
100
AcDbEntity
  8
_U+30EC_U+30A4_U+30E4_U+30FC 1
 62
     7
420
 16777215
370
    25
100
AcDbVertex
100
AcDb2dVertex
 10
98.10806194149926
 20
-154.3509669058568
 30
0.0
  0
SEQEND
  5
68
330
65
100
AcDbEntity
  8
_U+30EC_U+30A4_U+30E4_U+30FC 1
 62
     7
420
 16777215
370
    25
  0
POLYLINE
  5
69
330
1F
100
AcDbEntity
  8
_U+30EC_U+30A4_U+30E4_U+30FC 1
 62
     7
420
 16777215
370
    25
100
AcDb2dPolyline
 66
     1
 10
0.0
 20
0.0
 30
0.0
  0
VERTEX
  5
6A
330
69
100
AcDbEntity
  8
_U+30EC_U+30A4_U+30E4_U+30FC 1
 62
     7
420
 16777215
370
    25
100
AcDbVertex
100
AcDb2dVertex
 10
96.10851754806744
 20
-154.3509669058568
 30
0.0
  0
VERTEX
  5
6B
330
69
100
AcDbEntity
  8
_U+30EC_U+30A4_U+30E4_U+30FC 1
 62
     7
420
 16777215
370
    25
100
AcDbVertex
100
AcDb2dVertex
 10
97.10828974478335
 20
-154.3509669058568
 30
0.0
  0
SEQEND
  5
6C
330
69
100
AcDbEntity
  8
_U+30EC_U+30A4_U+30E4_U+30FC 1
 62
     7
420
 16777215
370
    25
  0
POLYLINE
  5
6D
330
1F
100
AcDbEntity
  8
_U+30EC_U+30A4_U+30E4_U+30FC 1
 62
     7
420
 16777215
370
    25
100
AcDb2dPolyline
 66
     1
 10
0.0
 20
0.0
 30
0.0
  0
VERTEX
  5
6E
330
6D
100
AcDbEntity
  8
_U+30EC_U+30A4_U+30E4_U+30FC 1
 62
     7
420
 16777215
370
    25
100
AcDbVertex
100
AcDb2dVertex
 10
95.10807507359085
 20
-155.55122273889
 30
0.0
  0
VERTEX
  5
6F
330
6D
100
AcDbEntity
  8
_U+30EC_U+30A4_U+30E4_U+30FC 1
 62
     7
420
 16777215
370
    25
100
AcDbVertex
100
AcDb2dVertex
 10
105.1084781517927
 20
-154.851170516843
 30
0.0
  0
SEQEND
  5
70
330
6D
100
AcDbEntity
  8
_U+30EC_U+30A4_U+30E4_U+30FC 1
 62
     7
420
 16777215
370
    25
  0
POLYLINE
  5
71
330
1F
100
AcDbEntity
  8
_U+30EC_U+30A4_U+30E4_U+30FC 1
 62
     7
420
 16777215
370
    25
100
AcDb2dPolyline
 66
     1
 10
0.0
 20
0.0
 30
0.0
  0
VERTEX
  5
72
330
71
100
AcDbEntity
  8
_U+30EC_U+30A4_U+30E4_U+30FC 1
 62
     7
420
 16777215
370
    25
100
AcDbVertex
100
AcDb2dVertex
 10
85.10834442316751
 20
-140.3511219093566
 30
0.0
  0
VERTEX
  5
73
330
71
100
AcDbEntity
  8
_U+30EC_U+30A4_U+30E4_U+30FC 1
 62
     7
420
 16777215
370
    25
100
AcDbVertex
100
AcDb2dVertex
 10
85.10834442316751
 20
-141.3508941313288
 30
0.0
  0
SEQEND
  5
74
330
71
100
AcDbEntity
  8
_U+30EC_U+30A4_U+30E4_U+30FC 1
 62
     7
420
 16777215
370
    25
  0
POLYLINE
  5
75
330
1F
100
AcDbEntity
  8
_U+30EC_U+30A4_U+30E4_U+30FC 1
 62
     7
420
 16777215
370
    25
100
AcDb2dPolyline
 66
     1
 10
0.0
 20
0.0
 30
0.0
  0
VERTEX
  5
76
330
75
100
AcDbEntity
  8
_U+30EC_U+30A4_U+30E4_U+30FC 1
 62
     7
420
 16777215
370
    25
100
AcDbVertex
100
AcDb2dVertex
 10
85.10834442316751
 20
-141.3508941313288
 30
0.0
  0
VERTEX
  5
77
330
75
100
AcDbEntity
  8
_U+30EC_U+30A4_U+30E4_U+30FC 1
 62
     7
420
 16777215
370
    25
100
AcDbVertex
100
AcDb2dVertex
 10
95.10807507359085
 20
-141.3508941313288
 30
0.0
  0
SEQEND
  5
78
330
75
100
AcDbEntity
  8
_U+30EC_U+30A4_U+30E4_U+30FC 1
 62
     7
420
 16777215
370
    25
  0
SPLINE
  5
79
330
1F
100
AcDbEntity
  8
_U+30EC_U+30A4_U+30E4_U+30FC 1
 62
     7
420
 16777215
370
     9
100
AcDbSpline
210
0.0
220
0.0
230
1.0
 70
    11
 71
     3
 72
    17
 73
    13
 74
     0
 42
0.0000000001
 43
0.0000000001
 12
1.0
 22
0.0
 32
0.0
 13
1.0
 23
0.0
 33
0.0
 40
0.0
 40
0.0
 40
0.0
 40
0.0
 40
1.0
 40
1.0
 40
1.0
 40
2.0
 40
2.0
 40
2.0
 40
3.0
 40
3.0
 40
3.0
 40
4.0
 40
4.0
 40
4.0
 40
4.0
 10
120.20832219217
 20
-136.3510099659123
 30
0.0
 10
120.20832219217
 20
-136.295906077037
 30
0.0
 10
120.1635516565946
 20
-136.2511032992707
 30
0.0
 10
120.1084124913347
 20
-136.2511032992707
 30
0.0
 10
120.0533086038516
 20
-136.2511032992707
 30
0.0
 10
120.0085058272168
 20
-136.295906077037
 30
0.0
 10
120.0085058272168
 20
-136.3510099659123
 30
0.0
 10
120.0085058272168
 20
-136.406149132565
 30
0.0
 10
120.0533086038516
 20
-136.4509166325539
 30
0.0
 10
120.1084124913347
 20
-136.4509166325539
 30
0.0
 10
120.1635516565946
 20
-136.4509166325539
 30
0.0
 10
120.20832219217
 20
-136.406149132565
 30
0.0
 10
120.20832219217
 20
-136.3510099659123
 30
0.0
  0
SPLINE
  5
7A
330
1F
100
AcDbEntity
  8
_U+30EC_U+30A4_U+30E4_U+30FC 1
 62
     7
420
 16777215
370
     9
100
AcDbSpline
210
0.0
220
0.0
230
1.0
 70
    11
 71
     3
 72
    17
 73
    13
 74
     0
 42
0.0000000001
 43
0.0000000001
 12
1.0
 22
0.0
 32
0.0
 13
1.0
 23
0.0
 33
0.0
 40
0.0
 40
0.0
 40
0.0
 40
0.0
 40
1.0
 40
1.0
 40
1.0
 40
2.0
 40
2.0
 40
2.0
 40
3.0
 40
3.0
 40
3.0
 40
4.0
 40
4.0
 40
4.0
 40
4.0
 10
105.2083848159105
 20
-159.5509819045569
 30
0.0
 10
105.2083848159105
 20
-159.4958780156813
 30
0.0
 10
105.1636173170526
 20
-159.4510752379153
 30
0.0
 10
105.1084781517927
 20
-159.4510752379153
 30
0.0
 10
105.0533742643096
 20
-159.4510752379153
 30
0.0
 10
105.0085714876748
 20
-159.4958780156813
 30
0.0
 10
105.0085714876748
 20
-159.5509819045569
 30
0.0
 10
105.0085714876748
 20
-159.6061210712093
 30
0.0
 10
105.0533742643096
 20
-159.6508885711985
 30
0.0
 10
105.1084781517927
 20
-159.6508885711985
 30
0.0
 10
105.1636173170526
 20
-159.6508885711985
 30
0.0
 10
105.2083848159105
 20
-159.6061210712093
 30
0.0
 10
105.2083848159105
 20
-159.5509819045569
 30
0.0
  0
SPLINE
  5
7B
330
1F
100
AcDbEntity
  8
_U+30EC_U+30A4_U+30E4_U+30FC 1
 62
     7
420
 16777215
370
     9
100
AcDbSpline
210
0.0
220
0.0
230
1.0
 70
    11
 71
     3
 72
    17
 73
    13
 74
     0
 42
0.0000000001
 43
0.0000000001
 12
1.0
 22
0.0
 32
0.0
 13
1.0
 23
0.0
 33
0.0
 40
0.0
 40
0.0
 40
0.0
 40
0.0
 40
1.0
 40
1.0
 40
1.0
 40
2.0
 40
2.0
 40
2.0
 40
3.0
 40
3.0
 40
3.0
 40
4.0
 40
4.0
 40
4.0
 40
4.0
 10
95.20798173770869
 20
-159.5509819045569
 30
0.0
 10
95.20798173770869
 20
-159.4958780156813
 30
0.0
 10
95.16317896107392
 20
-159.4510752379153
 30
0.0
 10
95.10807507359085
 20
-159.4510752379153
 30
0.0
 10
95.05293590833091
 20
-159.4510752379153
 30
0.0
 10
95.00816840947303
 20
-159.4958780156813
 30
0.0
 10
95.00816840947303
 20
-159.5509819045569
 30
0.0
 10
95.00816840947303
 20
-159.6061210712093
 30
0.0
 10
95.05293590833091
 20
-159.6508885711985
 30
0.0
 10
95.10807507359085
 20
-159.6508885711985
 30
0.0
 10
95.16317896107392
 20
-159.6508885711985
 30
0.0
 10
95.20798173770869
 20
-159.6061210712093
 30
0.0
 10
95.20798173770869
 20
-159.5509819045569
 30
0.0
  0
SPLINE
  5
7C
330
1F
100
AcDbEntity
  8
_U+30EC_U+30A4_U+30E4_U+30FC 1
 62
     7
420
 16777215
370
     9
100
AcDbSpline
210
0.0
220
0.0
230
1.0
 70
    11
 71
     3
 72
    17
 73
    13
 74
     0
 42
0.0000000001
 43
0.0000000001
 12
1.0
 22
0.0
 32
0.0
 13
1.0
 23
0.0
 33
0.0
 40
0.0
 40
0.0
 40
0.0
 40
0.0
 40
1.0
 40
1.0
 40
1.0
 40
2.0
 40
2.0
 40
2.0
 40
3.0
 40
3.0
 40
3.0
 40
4.0
 40
4.0
 40
4.0
 40
4.0
 10
109.2081438805348
 20
-154.3513196836346
 30
0.0
 10
109.2081438805348
 20
-154.295474961426
 30
0.0
 10
109.1633763816769
 20
-154.2507074614374
 30
0.0
 10
109.108237216417
 20
-154.2507074614374
 30
0.0
 10
109.053136083848
 20
-154.2507074614374
 30
0.0
 10
109.0083333060813
 20
-154.295474961426
 30
0.0
 10
109.0083333060813
 20
-154.3513196836346
 30
0.0
 10
109.0083333060813
 20
-154.4064235725095
 30
0.0
 10
109.053136083848
 20
-154.4512263502762
 30
0.0
 10
109.108237216417
 20
-154.4512263502762
 30
0.0
 10
109.1633763816769
 20
-154.4512263502762
 30
0.0
 10
109.2081438805348
 20
-154.4064235725095
 30
0.0
 10
109.2081438805348
 20
-154.3513196836346
 30
0.0
  0
SPLINE
  5
7D
330
1F
100
AcDbEntity
  8
_U+30EC_U+30A4_U+30E4_U+30FC 1
 62
     7
420
 16777215
370
     9
100
AcDbSpline
210
0.0
220
0.0
230
1.0
 70
    11
 71
     3
 72
    17
 73
    13
 74
     0
 42
0.0000000001
 43
0.0000000001
 12
1.0
 22
0.0
 32
0.0
 13
1.0
 23
0.0
 33
0.0
 40
0.0
 40
0.0
 40
0.0
 40
0.0
 40
1.0
 40
1.0
 40
1.0
 40
2.0
 40
2.0
 40
2.0
 40
3.0
 40
3.0
 40
3.0
 40
4.0
 40
4.0
 40
4.0
 40
4.0
 10
109.2081438805348
 20
-154.851170516843
 30
0.0
 10
109.2081438805348
 20
-154.7960666279675
 30
0.0
 10
109.1633763816769
 20
-154.7512638502014
 30
0.0
 10
109.108237216417
 20
-154.7512638502014
 30
0.0
 10
109.053136083848
 20
-154.7512638502014
 30
0.0
 10
109.0083333060813
 20
-154.7960666279675
 30
0.0
 10
109.0083333060813
 20
-154.851170516843
 30
0.0
 10
109.0083333060813
 20
-154.9063096834955
 30
0.0
 10
109.053136083848
 20
-154.9510771834847
 30
0.0
 10
109.108237216417
 20
-154.9510771834847
 30
0.0
 10
109.1633763816769
 20
-154.9510771834847
 30
0.0
 10
109.2081438805348
 20
-154.9063096834955
 30
0.0
 10
109.2081438805348
 20
-154.851170516843
 30
0.0
  0
SPLINE
  5
7E
330
1F
100
AcDbEntity
  8
_U+30EC_U+30A4_U+30E4_U+30FC 1
 62
     7
420
 16777215
370
     9
100
AcDbSpline
210
0.0
220
0.0
230
1.0
 70
    11
 71
     3
 72
    17
 73
    13
 74
     0
 42
0.0000000001
 43
0.0000000001
 12
1.0
 22
0.0
 32
0.0
 13
1.0
 23
0.0
 33
0.0
 40
0.0
 40
0.0
 40
0.0
 40
0.0
 40
1.0
 40
1.0
 40
1.0
 40
2.0
 40
2.0
 40
2.0
 40
3.0
 40
3.0
 40
3.0
 40
4.0
 40
4.0
 40
4.0
 40
4.0
 10
124.2080782200768
 20
-154.3513196836346
 30
0.0
 10
124.2080782200768
 20
-154.295474961426
 30
0.0
 10
124.1633138578483
 20
-154.2507074614374
 30
0.0
 10
124.108171555959
 20
-154.2507074614374
 30
0.0
 10
124.0530676684759
 20
-154.2507074614374
 30
0.0
 10
124.0082648918412
 20
-154.295474961426
 30
0.0
 10
124.0082648918412
 20
-154.3513196836346
 30
0.0
 10
124.0082648918412
 20
-154.4064235725095
 30
0.0
 10
124.0530676684759
 20
-154.4512263502762
 30
0.0
 10
124.108171555959
 20
-154.4512263502762
 30
0.0
 10
124.1633138578483
 20
-154.4512263502762
 30
0.0
 10
124.2080782200768
 20
-154.4064235725095
 30
0.0
 10
124.2080782200768
 20
-154.3513196836346
 30
0.0
  0
SPLINE
  5
7F
330
1F
100
AcDbEntity
  8
_U+30EC_U+30A4_U+30E4_U+30FC 1
 62
     7
420
 16777215
370
     9
100
AcDbSpline
210
0.0
220
0.0
230
1.0
 70
    11
 71
     3
 72
    17
 73
    13
 74
     0
 42
0.0000000001
 43
0.0000000001
 12
1.0
 22
0.0
 32
0.0
 13
1.0
 23
0.0
 33
0.0
 40
0.0
 40
0.0
 40
0.0
 40
0.0
 40
1.0
 40
1.0
 40
1.0
 40
2.0
 40
2.0
 40
2.0
 40
3.0
 40
3.0
 40
3.0
 40
4.0
 40
4.0
 40
4.0
 40
4.0
 10
85.20824893726757
 20
-136.3510099659123
 30
0.0
 10
85.20824893726757
 20
-136.295906077037
 30
0.0
 10
85.16344616063282
 20
-136.2511032992707
 30
0.0
 10
85.10834442316751
 20
-136.2511032992707
 30
0.0
 10
85.05320310788979
 20
-136.2511032992707
 30
0.0
 10
85.0084356090319
 20
-136.295906077037
 30
0.0
 10
85.0084356090319
 20
-136.3510099659123
 30
0.0
 10
85.0084356090319
 20
-136.406149132565
 30
0.0
 10
85.05320310788979
 20
-136.4509166325539
 30
0.0
 10
85.10834442316751
 20
-136.4509166325539
 30
0.0
 10
85.16344616063282
 20
-136.4509166325539
 30
0.0
 10
85.20824893726757
 20
-136.406149132565
 30
0.0
 10
85.20824893726757
 20
-136.3510099659123
 30
0.0
  0
SPLINE
  5
80
330
1F
100
AcDbEntity
  8
_U+30EC_U+30A4_U+30E4_U+30FC 1
 62
     7
420
 16777215
370
     9
100
AcDbSpline
210
0.0
220
0.0
230
1.0
 70
    11
 71
     3
 72
    17
 73
    13
 74
     0
 42
0.0000000001
 43
0.0000000001
 12
1.0
 22
0.0
 32
0.0
 13
1.0
 23
0.0
 33
0.0
 40
0.0
 40
0.0
 40
0.0
 40
0.0
 40
1.0
 40
1.0
 40
1.0
 40
2.0
 40
2.0
 40
2.0
 40
3.0
 40
3.0
 40
3.0
 40
4.0
 40
4.0
 40
4.0
 40
4.0
 10
85.20824893726757
 20
-159.5509819045569
 30
0.0
 10
85.20824893726757
 20
-159.4958780156813
 30
0.0
 10
85.16344616063282
 20
-159.4510752379153
 30
0.0
 10
85.10834442316751
 20
-159.4510752379153
 30
0.0
 10
85.05320310788979
 20
-159.4510752379153
 30
0.0
 10
85.0084356090319
 20
-159.4958780156813
 30
0.0
 10
85.0084356090319
 20
-159.5509819045569
 30
0.0
 10
85.0084356090319
 20
-159.6061210712093
 30
0.0
 10
85.05320310788979
 20
-159.6508885711985
 30
0.0
 10
85.10834442316751
 20
-159.6508885711985
 30
0.0
 10
85.16344616063282
 20
-159.6508885711985
 30
0.0
 10
85.20824893726757
 20
-159.6061210712093
 30
0.0
 10
85.20824893726757
 20
-159.5509819045569
 30
0.0
  0
INSERT
  5
82
330
1F
100
AcDbEntity
  8
_U+30EC_U+30A4_U+30E4_U+30FC 1
100
AcDbBlockReference
  2
block 2
 10
0.0
 20
0.0
 30
0.0
  0
POLYLINE
  5
87
330
1F
100
AcDbEntity
  8
_U+30EC_U+30A4_U+30E4_U+30FC 1
 62
     7
420
 16777215
370
     9
100
AcDb2dPolyline
 66
     1
 10
0.0
 20
0.0
 30
0.0
  0
VERTEX
  5
88
330
87
100
AcDbEntity
  8
_U+30EC_U+30A4_U+30E4_U+30FC 1
 62
     7
420
 16777215
370
     9
100
AcDbVertex
100
AcDb2dVertex
 10
109.108237216417
 20
-154.5514505169175
 30
0.0
  0
VERTEX
  5
89
330
87
100
AcDbEntity
  8
_U+30EC_U+30A4_U+30E4_U+30FC 1
 62
     7
420
 16777215
370
     9
100
AcDbVertex
100
AcDb2dVertex
 10
109.108237216417
 20
-149.2935446848986
 30
0.0
  0
SEQEND
  5
8A
330
87
100
AcDbEntity
  8
_U+30EC_U+30A4_U+30E4_U+30FC 1
 62
     7
420
 16777215
370
     9
  0
POLYLINE
  5
8B
330
1F
100
AcDbEntity
  8
_U+30EC_U+30A4_U+30E4_U+30FC 1
 62
     7
420
 16777215
370
     9
100
AcDb2dPolyline
 66
     1
 10
0.0
 20
0.0
 30
0.0
  0
VERTEX
  5
8C
330
8B
100
AcDbEntity
  8
_U+30EC_U+30A4_U+30E4_U+30FC 1
 62
     7
420
 16777215
370
     9
100
AcDbVertex
100
AcDb2dVertex
 10
109.108237216417
 20
-154.5514505169175
 30
0.0
  0
VERTEX
  5
8D
330
8B
100
AcDbEntity
  8
_U+30EC_U+30A4_U+30E4_U+30FC 1
 62
     7
420
 16777215
370
     9
100
AcDbVertex
100
AcDb2dVertex
 10
109.108237216417
 20
-155.8509427388149
 30
0.0
  0
SEQEND
  5
8E
330
8B
100
AcDbEntity
  8
_U+30EC_U+30A4_U+30E4_U+30FC 1
 62
     7
420
 16777215
370
     9
  0
POLYLINE
  5
8F
330
1F
100
AcDbEntity
  8
_U+30EC_U+30A4_U+30E4_U+30FC 1
 62
     7
420
 16777215
370
     9
100
AcDb2dPolyline
 66
     1
 10
0.0
 20
0.0
 30
0.0
  0
VERTEX
  5
90
330
8F
100
AcDbEntity
  8
_U+30EC_U+30A4_U+30E4_U+30FC 1
 62
     7
420
 16777215
370
     9
100
AcDbVertex
100
AcDb2dVertex
 10
107.6481958647768
 20
-154.3509669058568
 30
0.0
  0
VERTEX
  5
91
330
8F
100
AcDbEntity
  8
_U+30EC_U+30A4_U+30E4_U+30FC 1
 62
     7
420
 16777215
370
     9
100
AcDbVertex
100
AcDb2dVertex
 10
110.1080094131329
 20
-154.3509669058568
 30
0.0
  0
SEQEND
  5
92
330
8F
100
AcDbEntity
  8
_U+30EC_U+30A4_U+30E4_U+30FC 1
 62
     7
420
 16777215
370
     9
  0
POLYLINE
  5
93
330
1F
100
AcDbEntity
  8
_U+30EC_U+30A4_U+30E4_U+30FC 1
 62
     7
420
 16777215
370
     9
100
AcDb2dPolyline
 66
     1
 10
0.0
 20
0.0
 30
0.0
  0
VERTEX
  5
94
330
93
100
AcDbEntity
  8
_U+30EC_U+30A4_U+30E4_U+30FC 1
 62
     7
420
 16777215
370
     9
100
AcDbVertex
100
AcDb2dVertex
 10
107.6481958647768
 20
-154.851170516843
 30
0.0
  0
VERTEX
  5
95
330
93
100
AcDbEntity
  8
_U+30EC_U+30A4_U+30E4_U+30FC 1
 62
     7
420
 16777215
370
     9
100
AcDbVertex
100
AcDb2dVertex
 10
110.1080094131329
 20
-154.851170516843
 30
0.0
  0
SEQEND
  5
96
330
93
100
AcDbEntity
  8
_U+30EC_U+30A4_U+30E4_U+30FC 1
 62
     7
420
 16777215
370
     9
  0
INSERT
  5
98
330
1F
100
AcDbEntity
  8
_U+30EC_U+30A4_U+30E4_U+30FC 1
100
AcDbBlockReference
  2
block 3
 10
0.0
 20
0.0
 30
0.0
  0
POLYLINE
  5
A8
330
1F
100
AcDbEntity
  8
_U+30EC_U+30A4_U+30E4_U+30FC 1
 62
     7
420
 16777215
370
     9
100
AcDb2dPolyline
 66
     1
 10
0.0
 20
0.0
 30
0.0
  0
VERTEX
  5
A9
330
A8
100
AcDbEntity
  8
_U+30EC_U+30A4_U+30E4_U+30FC 1
 62
     7
420
 16777215
370
     9
100
AcDbVertex
100
AcDb2dVertex
 10
95.10807507359085
 20
-159.5509819045569
 30
0.0
  0
VERTEX
  5
AA
330
A8
100
AcDbEntity
  8
_U+30EC_U+30A4_U+30E4_U+30FC 1
 62
     7
420
 16777215
370
     9
100
AcDbVertex
100
AcDb2dVertex
 10
105.1084781517927
 20
-159.5509819045569
 30
0.0
  0
SEQEND
  5
AB
330
A8
100
AcDbEntity
  8
_U+30EC_U+30A4_U+30E4_U+30FC 1
 62
     7
420
 16777215
370
     9
  0
POLYLINE
  5
AC
330
1F
100
AcDbEntity
  8
_U+30EC_U+30A4_U+30E4_U+30FC 1
 62
     7
420
 16777215
370
     9
100
AcDb2dPolyline
 66
     1
 10
0.0
 20
0.0
 30
0.0
  0
VERTEX
  5
AD
330
AC
100
AcDbEntity
  8
_U+30EC_U+30A4_U+30E4_U+30FC 1
 62
     7
420
 16777215
370
     9
100
AcDbVertex
100
AcDb2dVertex
 10
95.10807507359085
 20
-158.0909405160326
 30
0.0
  0
VERTEX
  5
AE
330
AC
100
AcDbEntity
  8
_U+30EC_U+30A4_U+30E4_U+30FC 1
 62
     7
420
 16777215
370
     9
100
AcDbVertex
100
AcDb2dVertex
 10
95.10807507359085
 20
-160.5514244043068
 30
0.0
  0
SEQEND
  5
AF
330
AC
100
AcDbEntity
  8
_U+30EC_U+30A4_U+30E4_U+30FC 1
 62
     7
420
 16777215
370
     9
  0
POLYLINE
  5
B0
330
1F
100
AcDbEntity
  8
_U+30EC_U+30A4_U+30E4_U+30FC 1
 62
     7
420
 16777215
370
     9
100
AcDb2dPolyline
 66
     1
 10
0.0
 20
0.0
 30
0.0
  0
VERTEX
  5
B1
330
B0
100
AcDbEntity
  8
_U+30EC_U+30A4_U+30E4_U+30FC 1
 62
     7
420
 16777215
370
     9
100
AcDbVertex
100
AcDb2dVertex
 10
105.1084781517927
 20
-157.3909235717631
 30
0.0
  0
VERTEX
  5
B2
330
B0
100
AcDbEntity
  8
_U+30EC_U+30A4_U+30E4_U+30FC 1
 62
     7
420
 16777215
370
     9
100
AcDbVertex
100
AcDb2dVertex
 10
105.1084781517927
 20
-160.5514244043068
 30
0.0
  0
SEQEND
  5
B3
330
B0
100
AcDbEntity
  8
_U+30EC_U+30A4_U+30E4_U+30FC 1
 62
     7
420
 16777215
370
     9
  0
INSERT
  5
B5
330
1F
100
AcDbEntity
  8
_U+30EC_U+30A4_U+30E4_U+30FC 1
100
AcDbBlockReference
  2
block 4
 10
0.0
 20
0.0
 30
0.0
  0
POLYLINE
  5
BD
330
1F
100
AcDbEntity
  8
_U+30EC_U+30A4_U+30E4_U+30FC 1
 62
     7
420
 16777215
370
     9
100
AcDb2dPolyline
 66
     1
 10
0.0
 20
0.0
 30
0.0
  0
VERTEX
  5
BE
330
BD
100
AcDbEntity
  8
_U+30EC_U+30A4_U+30E4_U+30FC 1
 62
     7
420
 16777215
370
     9
100
AcDbVertex
100
AcDb2dVertex
 10
85.10834442316751
 20
-136.3510099659123
 30
0.0
  0
VERTEX
  5
BF
330
BD
100
AcDbEntity
  8
_U+30EC_U+30A4_U+30E4_U+30FC 1
 62
     7
420
 16777215
370
     9
100
AcDbVertex
100
AcDb2dVertex
 10
120.1084124913347
 20
-136.3510099659123
 30
0.0
  0
SEQEND
  5
C0
330
BD
100
AcDbEntity
  8
_U+30EC_U+30A4_U+30E4_U+30FC 1
 62
     7
420
 16777215
370
     9
  0
POLYLINE
  5
C1
330
1F
100
AcDbEntity
  8
_U+30EC_U+30A4_U+30E4_U+30FC 1
 62
     7
420
 16777215
370
     9
100
AcDb2dPolyline
 66
     1
 10
0.0
 20
0.0
 30
0.0
  0
VERTEX
  5
C2
330
C1
100
AcDbEntity
  8
_U+30EC_U+30A4_U+30E4_U+30FC 1
 62
     7
420
 16777215
370
     9
100
AcDbVertex
100
AcDb2dVertex
 10
85.10834442316751
 20
-137.811051354436
 30
0.0
  0
VERTEX
  5
C3
330
C1
100
AcDbEntity
  8
_U+30EC_U+30A4_U+30E4_U+30FC 1
 62
     7
420
 16777215
370
     9
100
AcDbVertex
100
AcDb2dVertex
 10
85.10834442316751
 20
-135.3505674661624
 30
0.0
  0
SEQEND
  5
C4
330
C1
100
AcDbEntity
  8
_U+30EC_U+30A4_U+30E4_U+30FC 1
 62
     7
420
 16777215
370
     9
  0
POLYLINE
  5
C5
330
1F
100
AcDbEntity
  8
_U+30EC_U+30A4_U+30E4_U+30FC 1
 62
     7
420
 16777215
370
     9
100
AcDb2dPolyline
 66
     1
 10
0.0
 20
0.0
 30
0.0
  0
VERTEX
  5
C6
330
C5
100
AcDbEntity
  8
_U+30EC_U+30A4_U+30E4_U+30FC 1
 62
     7
420
 16777215
370
     9
100
AcDbVertex
100
AcDb2dVertex
 10
120.1084124913347
 20
-137.811051354436
 30
0.0
  0
VERTEX
  5
C7
330
C5
100
AcDbEntity
  8
_U+30EC_U+30A4_U+30E4_U+30FC 1
 62
     7
420
 16777215
370
     9
100
AcDbVertex
100
AcDb2dVertex
 10
120.1084124913347
 20
-135.3505674661624
 30
0.0
  0
SEQEND
  5
C8
330
C5
100
AcDbEntity
  8
_U+30EC_U+30A4_U+30E4_U+30FC 1
 62
     7
420
 16777215
370
     9
  0
INSERT
  5
CA
330
1F
100
AcDbEntity
  8
_U+30EC_U+30A4_U+30E4_U+30FC 1
100
AcDbBlockReference
  2
block 5
 10
0.0
 20
0.0
 30
0.0
  0
POLYLINE
  5
D1
330
1F
100
AcDbEntity
  8
_U+30EC_U+30A4_U+30E4_U+30FC 1
 62
     7
420
 16777215
370
     9
100
AcDb2dPolyline
 66
     1
 10
0.0
 20
0.0
 30
0.0
  0
VERTEX
  5
D2
330
D1
100
AcDbEntity
  8
_U+30EC_U+30A4_U+30E4_U+30FC 1
 62
     7
420
 16777215
370
     9
100
AcDbVertex
100
AcDb2dVertex
 10
85.10834442316751
 20
-159.5509819045569
 30
0.0
  0
VERTEX
  5
D3
330
D1
100
AcDbEntity
  8
_U+30EC_U+30A4_U+30E4_U+30FC 1
 62
     7
420
 16777215
370
     9
100
AcDbVertex
100
AcDb2dVertex
 10
95.10807507359085
 20
-159.5509819045569
 30
0.0
  0
SEQEND
  5
D4
330
D1
100
AcDbEntity
  8
_U+30EC_U+30A4_U+30E4_U+30FC 1
 62
     7
420
 16777215
370
     9
  0
POLYLINE
  5
D5
330
1F
100
AcDbEntity
  8
_U+30EC_U+30A4_U+30E4_U+30FC 1
 62
     7
420
 16777215
370
     9
100
AcDb2dPolyline
 66
     1
 10
0.0
 20
0.0
 30
0.0
  0
VERTEX
  5
D6
330
D5
100
AcDbEntity
  8
_U+30EC_U+30A4_U+30E4_U+30FC 1
 62
     7
420
 16777215
370
     9
100
AcDbVertex
100
AcDb2dVertex
 10
85.10834442316751
 20
-144.0907780195327
 30
0.0
  0
VERTEX
  5
D7
330
D5
100
AcDbEntity
  8
_U+30EC_U+30A4_U+30E4_U+30FC 1
 62
     7
420
 16777215
370
     9
100
AcDbVertex
100
AcDb2dVertex
 10
85.10834442316751
 20
-160.5514244043068
 30
0.0
  0
SEQEND
  5
D8
330
D5
100
AcDbEntity
  8
_U+30EC_U+30A4_U+30E4_U+30FC 1
 62
     7
420
 16777215
370
     9
  0
INSERT
  5
DA
330
1F
100
AcDbEntity
  8
_U+30EC_U+30A4_U+30E4_U+30FC 1
100
AcDbBlockReference
  2
block 6
 10
0.0
 20
0.0
 30
0.0
  0
POLYLINE
  5
E2
330
1F
100
AcDbEntity
  8
_U+30EC_U+30A4_U+30E4_U+30FC 1
 62
     7
420
 16777215
370
     9
100
AcDb2dPolyline
 66
     1
 10
0.0
 20
0.0
 30
0.0
  0
VERTEX
  5
E3
330
E2
100
AcDbEntity
  8
_U+30EC_U+30A4_U+30E4_U+30FC 1
 62
     7
420
 16777215
370
     9
100
AcDbVertex
100
AcDb2dVertex
 10
107.6481958647768
 20
-154.3509669058568
 30
0.0
  0
VERTEX
  5
E4
330
E2
100
AcDbEntity
  8
_U+30EC_U+30A4_U+30E4_U+30FC 1
 62
     7
420
 16777215
370
     9
100
AcDbVertex
100
AcDb2dVertex
 10
125.1079437526749
 20
-154.3509669058568
 30
0.0
  0
SEQEND
  5
E5
330
E2
100
AcDbEntity
  8
_U+30EC_U+30A4_U+30E4_U+30FC 1
 62
     7
420
 16777215
370
     9
  0
SPLINE
  5
E6
330
1F
100
AcDbEntity
  8
_U+30EC_U+30A4_U+30E4_U+30FC 1
 62
     7
420
 16777215
370
     9
100
AcDbSpline
210
0.0
220
0.0
230
1.0
 70
    11
 71
     3
 72
    17
 73
    13
 74
     0
 42
0.0000000001
 43
0.0000000001
 12
1.0
 22
0.0
 32
0.0
 13
1.0
 23
0.0
 33
0.0
 40
0.0
 40
0.0
 40
0.0
 40
0.0
 40
1.0
 40
1.0
 40
1.0
 40
2.0
 40
2.0
 40
2.0
 40
3.0
 40
3.0
 40
3.0
 40
4.0
 40
4.0
 40
4.0
 40
4.0
 10
124.2080782200768
 20
-140.3507691315789
 30
0.0
 10
124.2080782200768
 20
-140.2956652427039
 30
0.0
 10
124.1633138578483
 20
-140.2508624649372
 30
0.0
 10
124.108171555959
 20
-140.2508624649372
 30
0.0
 10
124.0530676684759
 20
-140.2508624649372
 30
0.0
 10
124.0082648918412
 20
-140.2956652427039
 30
0.0
 10
124.0082648918412
 20
-140.3507691315789
 30
0.0
 10
124.0082648918412
 20
-140.4059082982319
 30
0.0
 10
124.0530676684759
 20
-140.4506757982208
 30
0.0
 10
124.108171555959
 20
-140.4506757982208
 30
0.0
 10
124.1633138578483
 20
-140.4506757982208
 30
0.0
 10
124.2080782200768
 20
-140.4059082982319
 30
0.0
 10
124.2080782200768
 20
-140.3507691315789
 30
0.0
  0
SPLINE
  5
E7
330
1F
100
AcDbEntity
  8
_U+30EC_U+30A4_U+30E4_U+30FC 1
 62
     7
420
 16777215
370
     9
100
AcDbSpline
210
0.0
220
0.0
230
1.0
 70
    11
 71
     3
 72
    17
 73
    13
 74
     0
 42
0.0000000001
 43
0.0000000001
 12
1.0
 22
0.0
 32
0.0
 13
1.0
 23
0.0
 33
0.0
 40
0.0
 40
0.0
 40
0.0
 40
0.0
 40
1.0
 40
1.0
 40
1.0
 40
2.0
 40
2.0
 40
2.0
 40
3.0
 40
3.0
 40
3.0
 40
4.0
 40
4.0
 40
4.0
 40
4.0
 10
124.2080782200768
 20
-141.3505413535514
 30
0.0
 10
124.2080782200768
 20
-141.2954374646762
 30
0.0
 10
124.1633138578483
 20
-141.2506346869095
 30
0.0
 10
124.108171555959
 20
-141.2506346869095
 30
0.0
 10
124.0530676684759
 20
-141.2506346869095
 30
0.0
 10
124.0082648918412
 20
-141.2954374646762
 30
0.0
 10
124.0082648918412
 20
-141.3505413535514
 30
0.0
 10
124.0082648918412
 20
-141.4059980202041
 30
0.0
 10
124.0530676684759
 20
-141.4508007979708
 30
0.0
 10
124.108171555959
 20
-141.4508007979708
 30
0.0
 10
124.1633138578483
 20
-141.4508007979708
 30
0.0
 10
124.2080782200768
 20
-141.4059980202041
 30
0.0
 10
124.2080782200768
 20
-141.3505413535514
 30
0.0
  0
POLYLINE
  5
E8
330
1F
100
AcDbEntity
  8
_U+30EC_U+30A4_U+30E4_U+30FC 1
 62
     7
420
 16777215
370
     9
100
AcDb2dPolyline
 66
     1
 10
0.0
 20
0.0
 30
0.0
  0
VERTEX
  5
E9
330
E8
100
AcDbEntity
  8
_U+30EC_U+30A4_U+30E4_U+30FC 1
 62
     7
420
 16777215
370
     9
100
AcDbVertex
100
AcDb2dVertex
 10
124.108171555959
 20
-140.3507691315789
 30
0.0
  0
VERTEX
  5
EA
330
E8
100
AcDbEntity
  8
_U+30EC_U+30A4_U+30E4_U+30FC 1
 62
     7
420
 16777215
370
     9
100
AcDbVertex
100
AcDb2dVertex
 10
124.108171555959
 20
-136.5804566325214
 30
0.0
  0
SEQEND
  5
EB
330
E8
100
AcDbEntity
  8
_U+30EC_U+30A4_U+30E4_U+30FC 1
 62
     7
420
 16777215
370
     9
  0
POLYLINE
  5
EC
330
1F
100
AcDbEntity
  8
_U+30EC_U+30A4_U+30E4_U+30FC 1
 62
     7
420
 16777215
370
     9
100
AcDb2dPolyline
 66
     1
 10
0.0
 20
0.0
 30
0.0
  0
VERTEX
  5
ED
330
EC
100
AcDbEntity
  8
_U+30EC_U+30A4_U+30E4_U+30FC 1
 62
     7
420
 16777215
370
     9
100
AcDbVertex
100
AcDb2dVertex
 10
124.108171555959
 20
-140.3507691315789
 30
0.0
  0
VERTEX
  5
EE
330
EC
100
AcDbEntity
  8
_U+30EC_U+30A4_U+30E4_U+30FC 1
 62
     7
420
 16777215
370
     9
100
AcDbVertex
100
AcDb2dVertex
 10
124.108171555959
 20
-141.3505413535514
 30
0.0
  0
SEQEND
  5
EF
330
EC
100
AcDbEntity
  8
_U+30EC_U+30A4_U+30E4_U+30FC 1
 62
     7
420
 16777215
370
     9
  0
POLYLINE
  5
F0
330
1F
100
AcDbEntity
  8
_U+30EC_U+30A4_U+30E4_U+30FC 1
 62
     7
420
 16777215
370
     9
100
AcDb2dPolyline
 66
     1
 10
0.0
 20
0.0
 30
0.0
  0
VERTEX
  5
F1
330
F0
100
AcDbEntity
  8
_U+30EC_U+30A4_U+30E4_U+30FC 1
 62
     7
420
 16777215
370
     9
100
AcDbVertex
100
AcDb2dVertex
 10
122.6481654820957
 20
-140.3507691315789
 30
0.0
  0
VERTEX
  5
F2
330
F0
100
AcDbEntity
  8
_U+30EC_U+30A4_U+30E4_U+30FC 1
 62
     7
420
 16777215
370
     9
100
AcDbVertex
100
AcDb2dVertex
 10
125.1079437526749
 20
-140.3507691315789
 30
0.0
  0
SEQEND
  5
F3
330
F0
100
AcDbEntity
  8
_U+30EC_U+30A4_U+30E4_U+30FC 1
 62
     7
420
 16777215
370
     9
  0
POLYLINE
  5
F4
330
1F
100
AcDbEntity
  8
_U+30EC_U+30A4_U+30E4_U+30FC 1
 62
     7
420
 16777215
370
     9
100
AcDb2dPolyline
 66
     1
 10
0.0
 20
0.0
 30
0.0
  0
VERTEX
  5
F5
330
F4
100
AcDbEntity
  8
_U+30EC_U+30A4_U+30E4_U+30FC 1
 62
     7
420
 16777215
370
     9
100
AcDbVertex
100
AcDb2dVertex
 10
122.6481654820957
 20
-141.3505413535514
 30
0.0
  0
VERTEX
  5
F6
330
F4
100
AcDbEntity
  8
_U+30EC_U+30A4_U+30E4_U+30FC 1
 62
     7
420
 16777215
370
     9
100
AcDbVertex
100
AcDb2dVertex
 10
125.1079437526749
 20
-141.3505413535514
 30
0.0
  0
SEQEND
  5
F7
330
F4
100
AcDbEntity
  8
_U+30EC_U+30A4_U+30E4_U+30FC 1
 62
     7
420
 16777215
370
     9
  0
POLYLINE
  5
F8
330
1F
100
AcDbEntity
  8
_U+30EC_U+30A4_U+30E4_U+30FC 1
 62
     7
420
 16777215
370
     9
100
AcDb2dPolyline
 66
     1
 10
0.0
 20
0.0
 30
0.0
  0
VERTEX
  5
F9
330
F8
100
AcDbEntity
  8
_U+30EC_U+30A4_U+30E4_U+30FC 1
 62
     7
420
 16777215
370
     9
100
AcDbVertex
100
AcDb2dVertex
 10
124.108171555959
 20
-154.3513196836346
 30
0.0
  0
VERTEX
  5
FA
330
F8
100
AcDbEntity
  8
_U+30EC_U+30A4_U+30E4_U+30FC 1
 62
     7
420
 16777215
370
     9
100
AcDbVertex
100
AcDb2dVertex
 10
124.108171555959
 20
-141.3512469091066
 30
0.0
  0
SEQEND
  5
FB
330
F8
100
AcDbEntity
  8
_U+30EC_U+30A4_U+30E4_U+30FC 1
 62
     7
420
 16777215
370
     9
  0
INSERT
  5
FD
330
1F
100
AcDbEntity
  8
_U+30EC_U+30A4_U+30E4_U+30FC 1
100
AcDbBlockReference
  2
block 7
 10
0.0
 20
0.0
 30
0.0
  0
POLYLINE
  5
104
330
1F
100
AcDbEntity
  8
_U+30EC_U+30A4_U+30E4_U+30FC 1
 62
     7
420
 16777215
370
     9
100
AcDb2dPolyline
 66
     1
 10
0.0
 20
0.0
 30
0.0
  0
VERTEX
  5
105
330
104
100
AcDbEntity
  8
_U+30EC_U+30A4_U+30E4_U+30FC 1
 62
     7
420
 16777215
370
     9
100
AcDbVertex
100
AcDb2dVertex
 10
105.1084781517927
 20
-155.3176485722819
 30
0.0
  0
VERTEX
  5
106
330
104
100
AcDbEntity
  8
_U+30EC_U+30A4_U+30E4_U+30FC 1
 62
     7
420
 16777215
370
     9
100
AcDbVertex
100
AcDb2dVertex
 10
108.7657958362645
 20
-158.3658602381861
 30
0.0
  0
SEQEND
  5
107
330
104
100
AcDbEntity
  8
_U+30EC_U+30A4_U+30E4_U+30FC 1
 62
     7
420
 16777215
370
     9
  0
INSERT
  5
109
330
1F
100
AcDbEntity
  8
_U+30EC_U+30A4_U+30E4_U+30FC 1
100
AcDbBlockReference
  2
block 8
 10
0.0
 20
0.0
 30
0.0
  0
POLYLINE
  5
146
330
1F
100
AcDbEntity
  8
_U+30EC_U+30A4_U+30E4_U+30FC 1
  6
AI-Linetype-1
 62
   154
420
    23468
370
    25
100
AcDb2dPolyline
 66
     1
 10
0.0
 20
0.0
 30
0.0
  0
VERTEX
  5
147
330
146
100
AcDbEntity
  8
_U+30EC_U+30A4_U+30E4_U+30FC 1
  6
AI-Linetype-1
 62
   154
420
    23468
370
    25
100
AcDbVertex
100
AcDb2dVertex
 10
85.10834442316751
 20
-141.8500746867596
 30
0.0
  0
VERTEX
  5
148
330
146
100
AcDbEntity
  8
_U+30EC_U+30A4_U+30E4_U+30FC 1
  6
AI-Linetype-1
 62
   154
420
    23468
370
    25
100
AcDbVertex
100
AcDb2dVertex
 10
94.60783619746412
 20
-141.8500746867596
 30
0.0
  0
VERTEX
  5
149
330
146
100
AcDbEntity
  8
_U+30EC_U+30A4_U+30E4_U+30FC 1
  6
AI-Linetype-1
 62
   154
420
    23468
370
    25
100
AcDbVertex
100
AcDb2dVertex
 10
94.60783619746412
 20
-156.0507560720982
 30
0.0
  0
VERTEX
  5
14A
330
146
100
AcDbEntity
  8
_U+30EC_U+30A4_U+30E4_U+30FC 1
  6
AI-Linetype-1
 62
   154
420
    23468
370
    25
100
AcDbVertex
100
AcDb2dVertex
 10
105.1084781517927
 20
-155.3176485722819
 30
0.0
  0
SEQEND
  5
14C
330
146
100
AcDbEntity
  8
_U+30EC_U+30A4_U+30E4_U+30FC 1
  6
AI-Linetype-1
 62
   154
420
    23468
370
    25
  0
ENDSEC
  0
SECTION
  2
OBJECTS
  0
DICTIONARY
  5
C
330
0
100
AcDbDictionary
281
     1
  3
ACAD_GROUP
350
D
  3
ACAD_LAYOUT
350
1A
  3
ACAD_MATERIAL
350
3B
  3
ACAD_MLEADERSTYLE
350
14E
  3
ACAD_MLINESTYLE
350
17
  3
ACAD_PLOTSETTINGS
350
19
  3
ACAD_PLOTSTYLENAME
350
E
  3
ACAD_TABLESTYLE
350
14D
  3
ACAD_VISUALSTYLE
350
2A
  0
SUN
  5
3F
330
29
100
AcDbSun
 90
        1
290
     0
 63
     7
421
 16777215
 40
1.0
291
     1
 91
  2455826
 92
 54000000
292
     0
 70
     2
 71
   256
280
     1
  0
DICTIONARY
  5
D
102
{ACAD_REACTORS
330
C
102
}
330
C
100
AcDbDictionary
281
     1
  0
DICTIONARY
  5
1A
102
{ACAD_REACTORS
330
C
102
}
330
C
100
AcDbDictionary
281
     1
  3
Layout1
350
1E
  3
Layout2
350
26
  3
Model
350
22
  0
DICTIONARY
  5
3B
102
{ACAD_REACTORS
330
C
102
}
330
C
100
AcDbDictionary
281
     1
  3
ByBlock
350
3D
  3
ByLayer
350
3C
  3
Global
350
3E
  0
DICTIONARY
  5
14E
102
{ACAD_REACTORS
330
C
102
}
330
C
100
AcDbDictionary
281
     1
  0
DICTIONARY
  5
17
102
{ACAD_REACTORS
330
C
102
}
330
C
100
AcDbDictionary
281
     1
  3
Standard
350
18
  0
DICTIONARY
  5
19
102
{ACAD_REACTORS
330
C
102
}
330
C
100
AcDbDictionary
281
     1
  0
ACDBDICTIONARYWDFLT
  5
E
102
{ACAD_REACTORS
330
C
102
}
330
C
100
AcDbDictionary
281
     1
  3
Normal
350
F
100
AcDbDictionaryWithDefault
340
F
  0
DICTIONARY
  5
14D
102
{ACAD_REACTORS
330
C
102
}
330
C
100
AcDbDictionary
281
     1
  0
DICTIONARY
  5
2A
102
{ACAD_REACTORS
330
C
102
}
330
C
100
AcDbDictionary
281
     1
  3
2dWireframe
350
2F
  3
3D Hidden
350
31
  3
3dWireframe
350
30
  3
Basic
350
32
  3
Brighten
350
36
  3
ColorChange
350
3A
  3
Conceptual
350
34
  3
Dim
350
35
  3
Facepattern
350
39
  3
Flat
350
2B
  3
FlatWithEdges
350
2C
  3
Gouraud
350
2D
  3
GouraudWithEdges
350
2E
  3
Linepattern
350
38
  3
Realistic
350
33
  3
Thicken
350
37
  0
LAYOUT
  5
1E
102
{ACAD_REACTORS
330
1A
102
}
330
1A
100
AcDbPlotSettings
  1

  2
none_device
  4

  6

 40
0.0
 41
0.0
 42
0.0
 43
0.0
 44
0.0
 45
0.0
 46
0.0
 47
0.0
 48
0.0
 49
0.0
140
0.0
141
0.0
142
1.0
143
1.0
 70
   688
 72
     0
 73
     0
 74
     5
  7

 75
    16
 76
     0
 77
     2
 78
   300
147
1.0
148
0.0
149
0.0
100
AcDbLayout
  1
Layout1
 70
     1
 71
     1
 10
0.0
 20
0.0
 11
12.0
 21
9.0
 12
0.0
 22
0.0
 32
0.0
 14
1.000000000000000E+20
 24
1.000000000000000E+20
 34
1.000000000000000E+20
 15
-1.000000000000000E+20
 25
-1.000000000000000E+20
 35
-1.000000000000000E+20
146
0.0
 13
0.0
 23
0.0
 33
0.0
 16
1.0
 26
0.0
 36
0.0
 17
0.0
 27
1.0
 37
0.0
 76
     0
330
1B
  0
LAYOUT
  5
26
102
{ACAD_REACTORS
330
1A
102
}
330
1A
100
AcDbPlotSettings
  1

  2
none_device
  4

  6

 40
0.0
 41
0.0
 42
0.0
 43
0.0
 44
0.0
 45
0.0
 46
0.0
 47
0.0
 48
0.0
 49
0.0
140
0.0
141
0.0
142
1.0
143
1.0
 70
   688
 72
     0
 73
     0
 74
     5
  7

 75
    16
 76
     0
 77
     2
 78
   300
147
1.0
148
0.0
149
0.0
100
AcDbLayout
  1
Layout2
 70
     1
 71
     2
 10
0.0
 20
0.0
 11
0.0
 21
0.0
 12
0.0
 22
0.0
 32
0.0
 14
0.0
 24
0.0
 34
0.0
 15
0.0
 25
0.0
 35
0.0
146
0.0
 13
0.0
 23
0.0
 33
0.0
 16
1.0
 26
0.0
 36
0.0
 17
0.0
 27
1.0
 37
0.0
 76
     0
330
23
  0
LAYOUT
  5
22
102
{ACAD_REACTORS
330
1A
102
}
330
1A
100
AcDbPlotSettings
  1

  2
none_device
  4

  6

 40
0.0
 41
0.0
 42
0.0
 43
0.0
 44
0.0
 45
0.0
 46
0.0
 47
0.0
 48
0.0
 49
0.0
140
0.0
141
0.0
142
1.0
143
1.0
 70
  1712
 72
     0
 73
     0
 74
     0
  7

 75
     0
 76
     0
 77
     2
 78
   300
147
1.0
148
0.0
149
0.0
100
AcDbLayout
  1
Model
 70
     1
 71
     0
 10
0.0
 20
0.0
 11
12.0
 21
9.0
 12
0.0
 22
0.0
 32
0.0
 14
1.000000000000000E+20
 24
1.000000000000000E+20
 34
1.000000000000000E+20
 15
-1.000000000000000E+20
 25
-1.000000000000000E+20
 35
-1.000000000000000E+20
146
0.0
 13
0.0
 23
0.0
 33
0.0
 16
1.0
 26
0.0
 36
0.0
 17
0.0
 27
1.0
 37
0.0
 76
     0
330
1F
331
29
  0
MATERIAL
  5
3D
102
{ACAD_REACTORS
330
3B
102
}
330
3B
100
AcDbMaterial
  1
ByBlock
 72
     1
 94
      127
  0
MATERIAL
  5
3C
102
{ACAD_REACTORS
330
3B
102
}
330
3B
100
AcDbMaterial
  1
ByLayer
 72
     1
 94
      127
  0
MATERIAL
  5
3E
102
{ACAD_REACTORS
330
3B
102
}
330
3B
100
AcDbMaterial
  1
Global
 72
     1
 94
      127
  0
MLINESTYLE
  5
18
102
{ACAD_REACTORS
330
17
102
}
330
17
100
AcDbMlineStyle
  2
Standard
 70
     0
  3

 62
   256
 51
90.0
 52
90.0
 71
     2
 49
0.5
 62
   256
  6
BYLAYER
 49
-0.5
 62
   256
  6
BYLAYER
  0
ACDBPLACEHOLDER
  5
F
102
{ACAD_REACTORS
330
E
102
}
330
E
  0
VISUALSTYLE
  5
2F
102
{ACAD_REACTORS
330
2A
102
}
330
2A
100
AcDbVisualStyle
  2
2dWireframe
 70
     4
177
     2
291
     0
 71
     0
176
     1
 72
     2
176
     1
 73
     0
176
     1
 90
        0
176
     1
 40
-0.6
176
     1
 41
-30.0
176
     1
 62
     5
 63
     7
421
 16777215
176
     1
 74
     1
176
     1
 91
        4
176
     1
 64
     7
176
     1
 65
   257
176
     1
 75
     1
176
     1
175
     1
176
     1
 42
1.0
176
     1
 92
        0
176
     1
 66
   257
176
     1
 43
1.0
176
     1
 76
     1
176
     1
 77
     6
176
     1
 78
     2
176
     1
 67
     7
176
     1
 79
     5
176
     1
170
     0
176
     1
171
     0
176
     1
290
     0
176
     1
 93
        1
176
     1
 44
0.0
176
     1
173
     0
176
     1
  0
VISUALSTYLE
  5
31
102
{ACAD_REACTORS
330
2A
102
}
330
2A
100
AcDbVisualStyle
  2
3D Hidden
 70
     6
177
     2
291
     0
 71
     1
176
     1
 72
     2
176
     1
 73
     2
176
     1
 90
        0
176
     1
 40
-0.6
176
     1
 41
-30.0
176
     1
 62
     5
 63
     7
421
 16777215
176
     1
 74
     2
176
     1
 91
        2
176
     1
 64
     7
176
     1
 65
   257
176
     1
 75
     2
176
     1
175
     1
176
     1
 42
40.0
176
     1
 92
        0
176
     1
 66
   257
176
     1
 43
1.0
176
     1
 76
     1
176
     1
 77
     6
176
     1
 78
     2
176
     1
 67
     7
176
     1
 79
     3
176
     1
170
     0
176
     1
171
     0
176
     1
290
     0
176
     1
 93
        1
176
     1
 44
0.0
176
     1
173
     0
176
     1
  0
VISUALSTYLE
  5
30
102
{ACAD_REACTORS
330
2A
102
}
330
2A
100
AcDbVisualStyle
  2
3dWireframe
 70
     5
177
     2
291
     0
 71
     0
176
     1
 72
     2
176
     1
 73
     0
176
     1
 90
        0
176
     1
 40
-0.6
176
     1
 41
-30.0
176
     1
 62
     5
 63
     7
421
 16777215
176
     1
 74
     1
176
     1
 91
        4
176
     1
 64
     7
176
     1
 65
   257
176
     1
 75
     1
176
     1
175
     1
176
     1
 42
1.0
176
     1
 92
        0
176
     1
 66
   257
176
     1
 43
1.0
176
     1
 76
     1
176
     1
 77
     6
176
     1
 78
     2
176
     1
 67
     7
176
     1
 79
     5
176
     1
170
     0
176
     1
171
     0
176
     1
290
     0
176
     1
 93
        1
176
     1
 44
0.0
176
     1
173
     0
176
     1
  0
VISUALSTYLE
  5
32
102
{ACAD_REACTORS
330
2A
102
}
330
2A
100
AcDbVisualStyle
  2
Basic
 70
     7
177
     2
291
     1
 71
     1
176
     1
 72
     0
176
     1
 73
     1
176
     1
 90
        0
176
     1
 40
-0.6
176
     1
 41
-30.0
176
     1
 62
     5
 63
     7
421
 16777215
176
     1
 74
     0
176
     1
 91
        4
176
     1
 64
     7
176
     1
 65
   257
176
     1
 75
     1
176
     1
175
     1
176
     1
 42
1.0
176
     1
 92
        8
176
     1
 66
     7
176
     1
 43
1.0
176
     1
 76
     1
176
     1
 77
     6
176
     1
 78
     2
176
     1
 67
     7
176
     1
 79
     5
176
     1
170
     0
176
     1
171
     0
176
     1
290
     0
176
     1
 93
        1
176
     1
 44
0.0
176
     1
173
     0
176
     1
  0
VISUALSTYLE
  5
36
102
{ACAD_REACTORS
330
2A
102
}
330
2A
100
AcDbVisualStyle
  2
Brighten
 70
    12
177
     2
291
     1
 71
     2
176
     1
 72
     2
176
     1
 73
     0
176
     1
 90
        0
176
     1
 40
-0.6
176
     1
 41
-30.0
176
     1
 62
     5
 63
     7
421
 16777215
176
     1
 74
     1
176
     1
 91
        4
176
     1
 64
     7
176
     1
 65
   257
176
     1
 75
     1
176
     1
175
     1
176
     1
 42
1.0
176
     1
 92
        8
176
     1
 66
     7
176
     1
 43
1.0
176
     1
 76
     1
176
     1
 77
     6
176
     1
 78
     2
176
     1
 67
     7
176
     1
 79
     5
176
     1
170
     0
176
     1
171
     0
176
     1
290
     0
176
     1
 93
        1
176
     1
 44
50.0
176
     1
173
     0
176
     1
  0
VISUALSTYLE
  5
3A
102
{ACAD_REACTORS
330
2A
102
}
330
2A
100
AcDbVisualStyle
  2
ColorChange
 70
    16
177
     2
291
     1
 71
     2
176
     1
 72
     2
176
     1
 73
     3
176
     1
 90
        0
176
     1
 40
-0.6
176
     1
 41
-30.0
176
     1
 62
     5
 63
     8
421
  8421504
176
     1
 74
     1
176
     1
 91
        4
176
     1
 64
     7
176
     1
 65
   257
176
     1
 75
     1
176
     1
175
     1
176
     1
 42
1.0
176
     1
 92
        8
176
     1
 66
     8
424
  8421504
176
     1
 43
1.0
176
     1
 76
     1
176
     1
 77
     6
176
     1
 78
     2
176
     1
 67
     7
176
     1
 79
     5
176
     1
170
     0
176
     1
171
     0
176
     1
290
     0
176
     1
 93
        1
176
     1
 44
0.0
176
     1
173
     0
176
     1
  0
VISUALSTYLE
  5
34
102
{ACAD_REACTORS
330
2A
102
}
330
2A
100
AcDbVisualStyle
  2
Conceptual
 70
     9
177
     2
291
     0
 71
     3
176
     1
 72
     2
176
     1
 73
     0
176
     1
 90
        0
176
     1
 40
-0.6
176
     1
 41
-30.0
176
     1
 62
     5
 63
     7
421
 16777215
176
     1
 74
     2
176
     1
 91
        2
176
     1
 64
     7
176
     1
 65
   257
176
     1
 75
     1
176
     1
175
     1
176
     1
 42
40.0
176
     1
 92
        8
176
     1
 66
     7
176
     1
 43
1.0
176
     1
 76
     1
176
     1
 77
     6
176
     1
 78
     2
176
     1
 67
     7
176
     1
 79
     3
176
     1
170
     0
176
     1
171
     0
176
     1
290
     0
176
     1
 93
        1
176
     1
 44
0.0
176
     1
173
     0
176
     1
  0
VISUALSTYLE
  5
35
102
{ACAD_REACTORS
330
2A
102
}
330
2A
100
AcDbVisualStyle
  2
Dim
 70
    11
177
     2
291
     1
 71
     2
176
     1
 72
     2
176
     1
 73
     0
176
     1
 90
        0
176
     1
 40
-0.6
176
     1
 41
-30.0
176
     1
 62
     5
 63
     7
421
 16777215
176
     1
 74
     1
176
     1
 91
        4
176
     1
 64
     7
176
     1
 65
   257
176
     1
 75
     1
176
     1
175
     1
176
     1
 42
1.0
176
     1
 92
        8
176
     1
 66
     7
176
     1
 43
1.0
176
     1
 76
     1
176
     1
 77
     6
176
     1
 78
     2
176
     1
 67
     7
176
     1
 79
     5
176
     1
170
     0
176
     1
171
     0
176
     1
290
     0
176
     1
 93
        1
176
     1
 44
-50.0
176
     1
173
     0
176
     1
  0
VISUALSTYLE
  5
39
102
{ACAD_REACTORS
330
2A
102
}
330
2A
100
AcDbVisualStyle
  2
Facepattern
 70
    15
177
     2
291
     1
 71
     2
176
     1
 72
     2
176
     1
 73
     0
176
     1
 90
        0
176
     1
 40
-0.6
176
     1
 41
-30.0
176
     1
 62
     5
 63
     7
421
 16777215
176
     1
 74
     1
176
     1
 91
        4
176
     1
 64
     7
176
     1
 65
   257
176
     1
 75
     1
176
     1
175
     1
176
     1
 42
1.0
176
     1
 92
        8
176
     1
 66
     7
176
     1
 43
1.0
176
     1
 76
     1
176
     1
 77
     6
176
     1
 78
     2
176
     1
 67
     7
176
     1
 79
     5
176
     1
170
     0
176
     1
171
     0
176
     1
290
     0
176
     1
 93
        1
176
     1
 44
0.0
176
     1
173
     0
176
     1
  0
VISUALSTYLE
  5
2B
102
{ACAD_REACTORS
330
2A
102
}
330
2A
100
AcDbVisualStyle
  2
Flat
 70
     0
177
     2
291
     1
 71
     2
176
     1
 72
     1
176
     1
 73
     1
176
     1
 90
        2
176
     1
 40
-0.6
176
     1
 41
30.0
176
     1
 62
     5
 63
     7
421
 16777215
176
     1
 74
     0
176
     1
 91
        4
176
     1
 64
     7
176
     1
 65
   257
176
     1
 75
     1
176
     1
175
     1
176
     1
 42
1.0
176
     1
 92
        8
176
     1
 66
     7
176
     1
 43
1.0
176
     1
 76
     1
176
     1
 77
     6
176
     1
 78
     2
176
     1
 67
     7
176
     1
 79
     5
176
     1
170
     0
176
     1
171
     0
176
     1
290
     0
176
     1
 93
       13
176
     1
 44
0.0
176
     1
173
     0
176
     1
  0
VISUALSTYLE
  5
2C
102
{ACAD_REACTORS
330
2A
102
}
330
2A
100
AcDbVisualStyle
  2
FlatWithEdges
 70
     1
177
     2
291
     1
 71
     2
176
     1
 72
     1
176
     1
 73
     1
176
     1
 90
        2
176
     1
 40
-0.6
176
     1
 41
30.0
176
     1
 62
     5
 63
     7
421
 16777215
176
     1
 74
     1
176
     1
 91
        4
176
     1
 64
     7
176
     1
 65
   257
176
     1
 75
     1
176
     1
175
     1
176
     1
 42
1.0
176
     1
 92
        0
176
     1
 66
   257
176
     1
 43
1.0
176
     1
 76
     1
176
     1
 77
     6
176
     1
 78
     2
176
     1
 67
     7
176
     1
 79
     5
176
     1
170
     0
176
     1
171
     0
176
     1
290
     0
176
     1
 93
       13
176
     1
 44
0.0
176
     1
173
     0
176
     1
  0
VISUALSTYLE
  5
2D
102
{ACAD_REACTORS
330
2A
102
}
330
2A
100
AcDbVisualStyle
  2
Gouraud
 70
     2
177
     2
291
     1
 71
     2
176
     1
 72
     2
176
     1
 73
     1
176
     1
 90
        2
176
     1
 40
-0.6
176
     1
 41
30.0
176
     1
 62
     5
 63
     7
421
 16777215
176
     1
 74
     0
176
     1
 91
        4
176
     1
 64
     7
176
     1
 65
   257
176
     1
 75
     1
176
     1
175
     1
176
     1
 42
1.0
176
     1
 92
        0
176
     1
 66
     7
176
     1
 43
1.0
176
     1
 76
     1
176
     1
 77
     6
176
     1
 78
     2
176
     1
 67
     7
176
     1
 79
     5
176
     1
170
     0
176
     1
171
     0
176
     1
290
     0
176
     1
 93
       13
176
     1
 44
0.0
176
     1
173
     0
176
     1
  0
VISUALSTYLE
  5
2E
102
{ACAD_REACTORS
330
2A
102
}
330
2A
100
AcDbVisualStyle
  2
GouraudWithEdges
 70
     3
177
     2
291
     1
 71
     2
176
     1
 72
     2
176
     1
 73
     1
176
     1
 90
        2
176
     1
 40
-0.6
176
     1
 41
30.0
176
     1
 62
     5
 63
     7
421
 16777215
176
     1
 74
     1
176
     1
 91
        4
176
     1
 64
     7
176
     1
 65
   257
176
     1
 75
     1
176
     1
175
     1
176
     1
 42
1.0
176
     1
 92
        0
176
     1
 66
   257
176
     1
 43
1.0
176
     1
 76
     1
176
     1
 77
     6
176
     1
 78
     2
176
     1
 67
     7
176
     1
 79
     5
176
     1
170
     0
176
     1
171
     0
176
     1
290
     0
176
     1
 93
       13
176
     1
 44
0.0
176
     1
173
     0
176
     1
  0
VISUALSTYLE
  5
38
102
{ACAD_REACTORS
330
2A
102
}
330
2A
100
AcDbVisualStyle
  2
Linepattern
 70
    14
177
     2
291
     1
 71
     2
176
     1
 72
     2
176
     1
 73
     0
176
     1
 90
        0
176
     1
 40
-0.6
176
     1
 41
-30.0
176
     1
 62
     5
 63
     7
421
 16777215
176
     1
 74
     1
176
     1
 91
        4
176
     1
 64
     7
176
     1
 65
   257
176
     1
 75
     7
176
     1
175
     7
176
     1
 42
1.0
176
     1
 92
        8
176
     1
 66
     7
176
     1
 43
1.0
176
     1
 76
     1
176
     1
 77
     6
176
     1
 78
     2
176
     1
 67
     7
176
     1
 79
     5
176
     1
170
     0
176
     1
171
     0
176
     1
290
     0
176
     1
 93
        1
176
     1
 44
0.0
176
     1
173
     0
176
     1
  0
VISUALSTYLE
  5
33
102
{ACAD_REACTORS
330
2A
102
}
330
2A
100
AcDbVisualStyle
  2
Realistic
 70
     8
177
     2
291
     0
 71
     2
176
     1
 72
     2
176
     1
 73
     0
176
     1
 90
        0
176
     1
 40
-0.6
176
     1
 41
-30.0
176
     1
 62
     5
 63
     7
421
 16777215
176
     1
 74
     1
176
     1
 91
        0
176
     1
 64
     7
176
     1
 65
   257
176
     1
 75
     1
176
     1
175
     1
176
     1
 42
1.0
176
     1
 92
        8
176
     1
 66
     8
424
  7895160
176
     1
 43
1.0
176
     1
 76
     1
176
     1
 77
     6
176
     1
 78
     2
176
     1
 67
     7
176
     1
 79
     5
176
     1
170
     0
176
     1
171
     0
176
     1
290
     0
176
     1
 93
       13
176
     1
 44
0.0
176
     1
173
     0
176
     1
  0
VISUALSTYLE
  5
37
102
{ACAD_REACTORS
330
2A
102
}
330
2A
100
AcDbVisualStyle
  2
Thicken
 70
    13
177
     2
291
     1
 71
     2
176
     1
 72
     2
176
     1
 73
     0
176
     1
 90
        0
176
     1
 40
-0.6
176
     1
 41
-30.0
176
     1
 62
     5
 63
     7
421
 16777215
176
     1
 74
     1
176
     1
 91
        4
176
     1
 64
     7
176
     1
 65
   257
176
     1
 75
     1
176
     1
175
     1
176
     1
 42
1.0
176
     1
 92
       12
176
     1
 66
     7
176
     1
 43
1.0
176
     1
 76
     1
176
     1
 77
     6
176
     1
 78
     2
176
     1
 67
     7
176
     1
 79
     5
176
     1
170
     0
176
     1
171
     0
176
     1
290
     0
176
     1
 93
        1
176
     1
 44
0.0
176
     1
173
     0
176
     1
  0
ENDSEC
  0
EOF
