  0
SECTION
  2
HEADER
  9
$ACADVER
  1
AC1024
  9
$ACADMAINTVER
 70
     6
  9
$DWGCODEPAGE
  3
UNDEFINED
  9
$INSBASE
 10
0.0
 20
0.0
 30
0.0
  9
$EXTMIN
 10
1.000000000000000E+20
 20
1.000000000000000E+20
 30
1.000000000000000E+20
  9
$EXTMAX
 10
-1.000000000000000E+20
 20
-1.000000000000000E+20
 30
-1.000000000000000E+20
  9
$LIMMIN
 10
0.0
 20
0.0
  9
$LIMMAX
 10
12.0
 20
9.0
  9
$ORTHOMODE
 70
     0
  9
$REGENMODE
 70
     1
  9
$FILLMODE
 70
     1
  9
$QTEXTMODE
 70
     0
  9
$MIRRTEXT
 70
     1
  9
$LTSCALE
 40
1.0
  9
$ATTMODE
 70
     1
  9
$TEXTSIZE
 40
0.2
  9
$TRACEWID
 40
0.05
  9
$TEXTSTYLE
  7
Standard
  9
$CLAYER
  8
0
  9
$CELTYPE
  6
ByLayer
  9
$CECOLOR
 62
   256
  9
$CELTSCALE
 40
1.0
  9
$DISPSILH
 70
     0
  9
$DIMSCALE
 40
1.0
  9
$DIMASZ
 40
0.18
  9
$DIMEXO
 40
0.0625
  9
$DIMDLI
 40
0.38
  9
$DIMRND
 40
0.0
  9
$DIMDLE
 40
0.0
  9
$DIMEXE
 40
0.18
  9
$DIMTP
 40
0.0
  9
$DIMTM
 40
0.0
  9
$DIMTXT
 40
0.18
  9
$DIMCEN
 40
0.09
  9
$DIMTSZ
 40
0.0
  9
$DIMTOL
 70
     0
  9
$DIMLIM
 70
     0
  9
$DIMTIH
 70
     1
  9
$DIMTOH
 70
     1
  9
$DIMSE1
 70
     0
  9
$DIMSE2
 70
     0
  9
$DIMTAD
 70
     0
  9
$DIMZIN
 70
     0
  9
$DIMBLK
  1

  9
$DIMASO
 70
     1
  9
$DIMSHO
 70
     1
  9
$DIMPOST
  1

  9
$DIMAPOST
  1

  9
$DIMALT
 70
     0
  9
$DIMALTD
 70
     2
  9
$DIMALTF
 40
25.4
  9
$DIMLFAC
 40
1.0
  9
$DIMTOFL
 70
     0
  9
$DIMTVP
 40
0.0
  9
$DIMTIX
 70
     0
  9
$DIMSOXD
 70
     0
  9
$DIMSAH
 70
     0
  9
$DIMBLK1
  1

  9
$DIMBLK2
  1

  9
$DIMSTYLE
  2
Standard
  9
$DIMCLRD
 70
     0
  9
$DIMCLRE
 70
     0
  9
$DIMCLRT
 70
     0
  9
$DIMTFAC
 40
1.0
  9
$DIMGAP
 40
0.09
  9
$DIMJUST
 70
     0
  9
$DIMSD1
 70
     0
  9
$DIMSD2
 70
     0
  9
$DIMTOLJ
 70
     1
  9
$DIMTZIN
 70
     0
  9
$DIMALTZ
 70
     0
  9
$DIMALTTZ
 70
     0
  9
$DIMUPT
 70
     0
  9
$DIMDEC
 70
     4
  9
$DIMTDEC
 70
     4
  9
$DIMALTU
 70
     2
  9
$DIMALTTD
 70
     2
  9
$DIMTXSTY
  7
Standard
  9
$DIMAUNIT
 70
     0
  9
$DIMADEC
 70
     0
  9
$DIMALTRND
 40
0.0
  9
$DIMAZIN
 70
     0
  9
$DIMDSEP
 70
    46
  9
$DIMATFIT
 70
     3
  9
$DIMFRAC
 70
     0
  9
$DIMLDRBLK
  1

  9
$DIMLUNIT
 70
     2
  9
$DIMLWD
 70
    -2
  9
$DIMLWE
 70
    -2
  9
$DIMTMOVE
 70
     0
  9
$DIMFXL
 40
1.0
  9
$DIMFXLON
 70
     0
  9
$DIMJOGANG
 40
0.7853981633974483
  9
$DIMTFILL
 70
     0
  9
$DIMTFILLCLR
 70
     0
  9
$DIMARCSYM
 70
     0
  9
$DIMLTYPE
  6

  9
$DIMLTEX1
  6

  9
$DIMLTEX2
  6

  9
$DIMTXTDIRECTION
 70
     0
  9
$LUNITS
 70
     2
  9
$LUPREC
 70
     4
  9
$SKETCHINC
 40
0.1
  9
$FILLETRAD
 40
0.5
  9
$AUNITS
 70
     0
  9
$AUPREC
 70
     0
  9
$MENU
  1
.
  9
$ELEVATION
 40
0.0
  9
$PELEVATION
 40
0.0
  9
$THICKNESS
 40
0.0
  9
$LIMCHECK
 70
     0
  9
$CHAMFERA
 40
0.5
  9
$CHAMFERB
 40
0.5
  9
$CHAMFERC
 40
1.0
  9
$CHAMFERD
 40
0.0
  9
$SKPOLY
 70
     0
  9
$TDCREATE
 40
2457917.610219907
  9
$TDUCREATE
 40
2457917.235219907
  9
$TDUPDATE
 40
2457917.610219907
  9
$TDUUPDATE
 40
2457917.235219907
  9
$TDINDWG
 40
0.0000000116
  9
$TDUSRTIMER
 40
0.0000000116
  9
$USRTIMER
 70
     1
  9
$ANGBASE
 50
0.0
  9
$ANGDIR
 70
     0
  9
$PDMODE
 70
     0
  9
$PDSIZE
 40
0.0
  9
$PLINEWID
 40
0.0
  9
$SPLFRAME
 70
     0
  9
$SPLINETYPE
 70
     6
  9
$SPLINESEGS
 70
     8
  9
$HANDSEED
  5
154
  9
$SURFTAB1
 70
     6
  9
$SURFTAB2
 70
     6
  9
$SURFTYPE
 70
     6
  9
$SURFU
 70
     6
  9
$SURFV
 70
     6
  9
$UCSBASE
  2

  9
$UCSNAME
  2

  9
$UCSORG
 10
0.0
 20
0.0
 30
0.0
  9
$UCSXDIR
 10
1.0
 20
0.0
 30
0.0
  9
$UCSYDIR
 10
0.0
 20
1.0
 30
0.0
  9
$UCSORTHOREF
  2

  9
$UCSORTHOVIEW
 70
     0
  9
$UCSORGTOP
 10
0.0
 20
0.0
 30
0.0
  9
$UCSORGBOTTOM
 10
0.0
 20
0.0
 30
0.0
  9
$UCSORGLEFT
 10
0.0
 20
0.0
 30
0.0
  9
$UCSORGRIGHT
 10
0.0
 20
0.0
 30
0.0
  9
$UCSORGFRONT
 10
0.0
 20
0.0
 30
0.0
  9
$UCSORGBACK
 10
0.0
 20
0.0
 30
0.0
  9
$PUCSBASE
  2

  9
$PUCSNAME
  2

  9
$PUCSORG
 10
0.0
 20
0.0
 30
0.0
  9
$PUCSXDIR
 10
1.0
 20
0.0
 30
0.0
  9
$PUCSYDIR
 10
0.0
 20
1.0
 30
0.0
  9
$PUCSORTHOREF
  2

  9
$PUCSORTHOVIEW
 70
     0
  9
$PUCSORGTOP
 10
0.0
 20
0.0
 30
0.0
  9
$PUCSORGBOTTOM
 10
0.0
 20
0.0
 30
0.0
  9
$PUCSORGLEFT
 10
0.0
 20
0.0
 30
0.0
  9
$PUCSORGRIGHT
 10
0.0
 20
0.0
 30
0.0
  9
$PUCSORGFRONT
 10
0.0
 20
0.0
 30
0.0
  9
$PUCSORGBACK
 10
0.0
 20
0.0
 30
0.0
  9
$USERI1
 70
     0
  9
$USERI2
 70
     0
  9
$USERI3
 70
     0
  9
$USERI4
 70
     0
  9
$USERI5
 70
     0
  9
$USERR1
 40
0.0
  9
$USERR2
 40
0.0
  9
$USERR3
 40
0.0
  9
$USERR4
 40
0.0
  9
$USERR5
 40
0.0
  9
$WORLDVIEW
 70
     1
  9
$SHADEDGE
 70
     3
  9
$SHADEDIF
 70
    70
  9
$TILEMODE
 70
     1
  9
$MAXACTVP
 70
    64
  9
$PINSBASE
 10
0.0
 20
0.0
 30
0.0
  9
$PLIMCHECK
 70
     0
  9
$PEXTMIN
 10
1.000000000000000E+20
 20
1.000000000000000E+20
 30
1.000000000000000E+20
  9
$PEXTMAX
 10
-1.000000000000000E+20
 20
-1.000000000000000E+20
 30
-1.000000000000000E+20
  9
$PLIMMIN
 10
0.0
 20
0.0
  9
$PLIMMAX
 10
12.0
 20
9.0
  9
$UNITMODE
 70
     0
  9
$VISRETAIN
 70
     1
  9
$PLINEGEN
 70
     0
  9
$PSLTSCALE
 70
     1
  9
$TREEDEPTH
 70
  3020
  9
$CMLSTYLE
  2
Standard
  9
$CMLJUST
 70
     0
  9
$CMLSCALE
 40
1.0
  9
$PROXYGRAPHICS
 70
     1
  9
$MEASUREMENT
 70
     0
  9
$CELWEIGHT
370
    -1
  9
$ENDCAPS
280
     0
  9
$JOINSTYLE
280
     0
  9
$LWDISPLAY
290
     1
  9
$INSUNITS
 70
     1
  9
$HYPERLINKBASE
  1

  9
$STYLESHEET
  1

  9
$XEDIT
290
     1
  9
$CEPSNTYPE
380
     0
  9
$PSTYLEMODE
290
     1
  9
$FINGERPRINTGUID
  2
{30FF84F5-DE19-5F22-1F04-E316A9766A53}
  9
$VERSIONGUID
  2
{FAEB1C32-E019-11D5-929B-00C0DF256EC4}
  9
$EXTNAMES
290
     1
  9
$PSVPSCALE
 40
0.0
  9
$OLESTARTUP
290
     0
  9
$SORTENTS
280
   127
  9
$INDEXCTL
280
     0
  9
$HIDETEXT
280
     1
  9
$XCLIPFRAME
280
     2
  9
$HALOGAP
280
     0
  9
$OBSCOLOR
 70
   257
  9
$OBSLTYPE
280
     0
  9
$INTERSECTIONDISPLAY
280
     0
  9
$INTERSECTIONCOLOR
 70
   257
  9
$DIMASSOC
280
     2
  9
$PROJECTNAME
  1

  9
$CAMERADISPLAY
290
     0
  9
$LENSLENGTH
 40
50.0
  9
$CAMERAHEIGHT
 40
0.0
  9
$STEPSPERSEC
 40
2.0
  9
$STEPSIZE
 40
6.0
  9
$3DDWFPREC
 40
2.0
  9
$PSOLWIDTH
 40
0.25
  9
$PSOLHEIGHT
 40
4.0
  9
$LOFTANG1
 40
1.570796326794897
  9
$LOFTANG2
 40
1.570796326794897
  9
$LOFTMAG1
 40
0.0
  9
$LOFTMAG2
 40
0.0
  9
$LOFTPARAM
 70
     7
  9
$LOFTNORMALS
280
     1
  9
$LATITUDE
 40
37.795
  9
$LONGITUDE
 40
-122.394
  9
$NORTHDIRECTION
 40
0.0
  9
$TIMEZONE
 70
 -8000
  9
$LIGHTGLYPHDISPLAY
280
     1
  9
$TILEMODELIGHTSYNCH
280
     1
  9
$CMATERIAL
347
3C
  9
$SOLIDHIST
280
     1
  9
$SHOWHIST
280
     1
  9
$DWFFRAME
280
     2
  9
$DGNFRAME
280
     2
  9
$REALWORLDSCALE
290
     1
  9
$INTERFERECOLOR
 62
   256
  9
$CSHADOW
280
     0
  9
$SHADOWPLANELOCATION
 40
0.0
  0
ENDSEC
  0
SECTION
  2
CLASSES
  0
CLASS
  1
ACDBDICTIONARYWDFLT
  2
AcDbDictionaryWithDefault
  3
ObjectDBX Classes
 90
        0
 91
        4
280
     0
281
     0
  0
CLASS
  1
VISUALSTYLE
  2
AcDbVisualStyle
  3
ObjectDBX Classes
 90
     4095
 91
        4
280
     0
281
     0
  0
CLASS
  1
MATERIAL
  2
AcDbMaterial
  3
ObjectDBX Classes
 90
     1153
 91
        4
280
     0
281
     0
  0
CLASS
  1
SUN
  2
AcDbSun
  3
SCENEOE
 90
     1024
 91
        4
280
     0
281
     0
  0
ENDSEC
  0
SECTION
  2
TABLES
  0
TABLE
  2
VPORT
  5
8
330
0
100
AcDbSymbolTable
 70
     1
  0
VPORT
  5
29
330
8
100
AcDbSymbolTableRecord
100
AcDbViewportTableRecord
  2
*Active
 70
     0
 10
0.0
 20
0.0
 11
1.0
 21
1.0
 12
0.0
 22
0.0
 13
0.0
 23
0.0
 14
0.5
 24
0.5
 15
0.5
 25
0.5
 16
0.0
 26
0.0
 36
1.0
 17
105.0008280156501
 27
-148.4999710739862
 37
0.0
 40
296.9999421479724
 41
0.7070764206636528
 42
50.0
 43
0.0
 44
0.0
 50
0.0
 51
0.0
 71
     0
 72
   100
 73
     1
 74
     3
 75
     0
 76
     0
 77
     0
 78
     0
281
     0
 65
     1
110
0.0
120
0.0
130
0.0
111
1.0
121
0.0
131
0.0
112
0.0
122
1.0
132
0.0
 79
     0
146
0.0
 60
     3
 61
     5
292
     1
282
     1
141
0.0
142
0.0
 63
   250
361
3F
  0
ENDTAB
  0
TABLE
  2
LTYPE
  5
5
330
0
100
AcDbSymbolTable
 70
     3
  0
LTYPE
  5
14
330
5
100
AcDbSymbolTableRecord
100
AcDbLinetypeTableRecord
  2
ByBlock
 70
     0
  3

 72
    65
 73
     0
 40
0.0
  0
LTYPE
  5
15
330
5
100
AcDbSymbolTableRecord
100
AcDbLinetypeTableRecord
  2
ByLayer
 70
     0
  3

 72
    65
 73
     0
 40
0.0
  0
LTYPE
  5
16
330
5
100
AcDbSymbolTableRecord
100
AcDbLinetypeTableRecord
  2
Continuous
 70
     0
  3
Solid line
 72
    65
 73
     0
 40
0.0
  0
LTYPE
  5
14A
330
5
100
AcDbSymbolTableRecord
100
AcDbLinetypeTableRecord
  2
AI-Linetype-1
 70
     0
  3
Adobe Illustrator Linetype No. 1
 72
    65
 73
     2
 40
1.411111110758333
 49
0.7055555553791667
 74
     0
 49
-0.7055555553791667
 74
     0
  0
LTYPE
  5
150
330
5
100
AcDbSymbolTableRecord
100
AcDbLinetypeTableRecord
  2
AI-Linetype-2
 70
     0
  3
Adobe Illustrator Linetype No. 2
 72
    65
 73
     2
 40
1.411111110758333
 49
0.7055555553791667
 74
     0
 49
-0.7055555553791667
 74
     0
  0
ENDTAB
  0
TABLE
  2
LAYER
  5
2
330
0
100
AcDbSymbolTable
 70
     2
  0
LAYER
  5
10
330
2
100
AcDbSymbolTableRecord
100
AcDbLayerTableRecord
  2
0
 70
     0
 62
     7
  6
Continuous
370
    -3
390
F
347
3E
  0
LAYER
  5
40
330
2
100
AcDbSymbolTableRecord
100
AcDbLayerTableRecord
  2
_U+30EC_U+30A4_U+30E4_U+30FC 1
 70
     0
 62
     7
  6
Continuous
370
    -3
390
F
347
3E
  0
ENDTAB
  0
TABLE
  2
STYLE
  5
3
330
0
100
AcDbSymbolTable
 70
     1
  0
STYLE
  5
11
330
3
100
AcDbSymbolTableRecord
100
AcDbTextStyleTableRecord
  2
Standard
 70
     0
 40
0.0
 41
1.0
 50
0.0
 71
     0
 42
0.2
  3
txt
  4

  0
ENDTAB
  0
TABLE
  2
VIEW
  5
6
330
0
100
AcDbSymbolTable
 70
     0
  0
ENDTAB
  0
TABLE
  2
UCS
  5
7
330
0
100
AcDbSymbolTable
 70
     0
  0
ENDTAB
  0
TABLE
  2
APPID
  5
9
330
0
100
AcDbSymbolTable
 70
     1
  0
APPID
  5
12
330
9
100
AcDbSymbolTableRecord
100
AcDbRegAppTableRecord
  2
ACAD
 70
     0
  0
ENDTAB
  0
TABLE
  2
DIMSTYLE
  5
A
330
0
100
AcDbSymbolTable
 70
     1
100
AcDbDimStyleTable
  0
DIMSTYLE
105
27
330
A
100
AcDbSymbolTableRecord
100
AcDbDimStyleTableRecord
  2
Standard
 70
     0
178
     0
340
11
  0
ENDTAB
  0
TABLE
  2
BLOCK_RECORD
  5
1
330
0
100
AcDbSymbolTable
 70
     8
  0
BLOCK_RECORD
  5
1F
330
1
100
AcDbSymbolTableRecord
100
AcDbBlockTableRecord
  2
*Model_Space
340
22
 70
     0
280
     1
281
     0
  0
BLOCK_RECORD
  5
1B
330
1
100
AcDbSymbolTableRecord
100
AcDbBlockTableRecord
  2
*Paper_Space
340
1E
 70
     0
280
     1
281
     0
  0
BLOCK_RECORD
  5
23
330
1
100
AcDbSymbolTableRecord
100
AcDbBlockTableRecord
  2
*Paper_Space0
340
26
 70
     0
280
     1
281
     0
  0
BLOCK_RECORD
  5
7F
330
1
100
AcDbSymbolTableRecord
100
AcDbBlockTableRecord
  2
block 2
340
0
102
{BLKREFS
331
80
102
}
 70
     0
280
     1
281
     0
  0
BLOCK_RECORD
  5
9F
330
1
100
AcDbSymbolTableRecord
100
AcDbBlockTableRecord
  2
block 3
340
0
102
{BLKREFS
331
A0
102
}
 70
     0
280
     1
281
     0
  0
BLOCK_RECORD
  5
B8
330
1
100
AcDbSymbolTableRecord
100
AcDbBlockTableRecord
  2
block 4
340
0
102
{BLKREFS
331
B9
102
}
 70
     0
280
     1
281
     0
  0
BLOCK_RECORD
  5
D5
330
1
100
AcDbSymbolTableRecord
100
AcDbBlockTableRecord
  2
block 5
340
0
102
{BLKREFS
331
D6
102
}
 70
     0
280
     1
281
     0
  0
BLOCK_RECORD
  5
EC
330
1
100
AcDbSymbolTableRecord
100
AcDbBlockTableRecord
  2
block 6
340
0
102
{BLKREFS
331
ED
102
}
 70
     0
280
     1
281
     0
  0
BLOCK_RECORD
  5
FC
330
1
100
AcDbSymbolTableRecord
100
AcDbBlockTableRecord
  2
block 7
340
0
102
{BLKREFS
331
FD
102
}
 70
     0
280
     1
281
     0
  0
BLOCK_RECORD
  5
109
330
1
100
AcDbSymbolTableRecord
100
AcDbBlockTableRecord
  2
block 8
340
0
102
{BLKREFS
331
10A
102
}
 70
     0
280
     1
281
     0
  0
ENDTAB
  0
ENDSEC
  0
SECTION
  2
BLOCKS
  0
BLOCK
  5
20
330
1F
100
AcDbEntity
  8
0
100
AcDbBlockBegin
  2
*Model_Space
 70
     0
 10
0.0
 20
0.0
 30
0.0
  3
*Model_Space
  1

  0
ENDBLK
  5
21
330
1F
100
AcDbEntity
  8
0
100
AcDbBlockEnd
  0
BLOCK
  5
1C
330
1B
100
AcDbEntity
 67
     1
  8
0
100
AcDbBlockBegin
  2
*Paper_Space
 70
     0
 10
0.0
 20
0.0
 30
0.0
  3
*Paper_Space
  1

  0
ENDBLK
  5
1D
330
1B
100
AcDbEntity
 67
     1
  8
0
100
AcDbBlockEnd
  0
BLOCK
  5
24
330
23
100
AcDbEntity
  8
0
100
AcDbBlockBegin
  2
*Paper_Space0
 70
     0
 10
0.0
 20
0.0
 30
0.0
  3
*Paper_Space0
  1

  0
ENDBLK
  5
25
330
23
100
AcDbEntity
  8
0
100
AcDbBlockEnd
  0
BLOCK
  5
81
330
7F
100
AcDbEntity
  8
0
100
AcDbBlockBegin
  2
block 2
 70
     0
 10
0.0
 20
0.0
 30
0.0
  3
block 2
  1

  0
SPLINE
  5
83
330
7F
100
AcDbEntity
  8
_U+30EC_U+30A4_U+30E4_U+30FC 1
370
     0
100
AcDbSpline
210
0.0
220
0.0
230
1.0
 70
    11
 71
     3
 72
    26
 73
    22
 74
     0
 42
0.0000000001
 43
0.0000000001
 12
1.0
 22
0.0
 32
0.0
 13
1.0
 23
0.0
 33
0.0
 40
0.0
 40
0.0
 40
0.0
 40
0.0
 40
1.0
 40
1.0
 40
1.0
 40
2.0
 40
2.0
 40
2.0
 40
3.0
 40
3.0
 40
3.0
 40
4.0
 40
4.0
 40
4.0
 40
5.0
 40
5.0
 40
5.0
 40
6.0
 40
6.0
 40
6.0
 40
7.0
 40
7.0
 40
7.0
 40
7.0
 10
122.9905978425163
 20
-139.1863362282243
 30
0.0
 10
122.9905978425163
 20
-139.1863362282243
 30
0.0
 10
121.8864447394937
 20
-139.1863362282243
 30
0.0
 10
121.8864447394937
 20
-139.1863362282243
 30
0.0
 10
121.8864447394937
 20
-139.1863362282243
 30
0.0
 10
121.8864447394937
 20
-139.5163763757112
 30
0.0
 10
121.8864447394937
 20
-139.5163763757112
 30
0.0
 10
121.8864447394937
 20
-139.5163763757112
 30
0.0
 10
121.7383056336279
 20
-139.5163763757112
 30
0.0
 10
121.7383056336279
 20
-139.5163763757112
 30
0.0
 10
121.7234917230413
 20
-139.1842691709331
 30
0.0
 10
121.560538706589
 20
-139.1377603818822
 30
0.0
 10
121.4461615364787
 20
-139.1081325607091
 30
0.0
 10
121.4461615364787
 20
-139.1081325607091
 30
0.0
 10
121.4461615364787
 20
-138.9620605121345
 30
0.0
 10
121.4461615364787
 20
-138.9620605121345
 30
0.0
 10
121.4461615364787
 20
-138.9620605121345
 30
0.0
 10
122.9905978425163
 20
-138.9620605121345
 30
0.0
 10
122.9905978425163
 20
-138.9620605121345
 30
0.0
 10
122.9905978425163
 20
-138.9620605121345
 30
0.0
 10
122.9905978425163
 20
-139.1863362282243
 30
0.0
 10
122.9905978425163
 20
-139.1863362282243
 30
0.0
  0
HATCH
  5
84
330
7F
100
AcDbEntity
  8
_U+30EC_U+30A4_U+30E4_U+30FC 1
 62
     7
420
 16777215
100
AcDbHatch
 10
0.0
 20
0.0
 30
0.0
210
0.0
220
0.0
230
1.0
  2
SOLID
 70
     1
 71
     0
 91
        1
 92
        1
 93
        1
 72
     4
 94
        3
 73
     0
 74
     1
 95
       26
 96
       22
 40
0.0
 40
0.0
 40
0.0
 40
0.0
 40
1.0
 40
1.0
 40
1.0
 40
2.0
 40
2.0
 40
2.0
 40
3.0
 40
3.0
 40
3.0
 40
4.0
 40
4.0
 40
4.0
 40
5.0
 40
5.0
 40
5.0
 40
6.0
 40
6.0
 40
6.0
 40
7.0
 40
7.0
 40
7.0
 40
7.0
 10
122.9905978425163
 20
-139.1863362282243
 10
122.9905978425163
 20
-139.1863362282243
 10
121.8864447394937
 20
-139.1863362282243
 10
121.8864447394937
 20
-139.1863362282243
 10
121.8864447394937
 20
-139.1863362282243
 10
121.8864447394937
 20
-139.5163763757112
 10
121.8864447394937
 20
-139.5163763757112
 10
121.8864447394937
 20
-139.5163763757112
 10
121.7383056336279
 20
-139.5163763757112
 10
121.7383056336279
 20
-139.5163763757112
 10
121.7234917230413
 20
-139.1842691709331
 10
121.560538706589
 20
-139.1377603818822
 10
121.4461615364787
 20
-139.1081325607091
 10
121.4461615364787
 20
-139.1081325607091
 10
121.4461615364787
 20
-138.9620605121345
 10
121.4461615364787
 20
-138.9620605121345
 10
121.4461615364787
 20
-138.9620605121345
 10
122.9905978425163
 20
-138.9620605121345
 10
122.9905978425163
 20
-138.9620605121345
 10
122.9905978425163
 20
-138.9620605121345
 10
122.9905978425163
 20
-139.1863362282243
 10
122.9905978425163
 20
-139.1863362282243
 97
        0
 97
        0
 75
     2
 76
     1
 98
        0
  0
ENDBLK
  5
82
330
7F
100
AcDbEntity
  8
0
100
AcDbBlockEnd
  0
BLOCK
  5
A1
330
9F
100
AcDbEntity
  8
0
100
AcDbBlockBegin
  2
block 3
 70
     0
 10
0.0
 20
0.0
 30
0.0
  3
block 3
  1

  0
SPLINE
  5
A3
330
9F
100
AcDbEntity
  8
_U+30EC_U+30A4_U+30E4_U+30FC 1
370
     0
100
AcDbSpline
210
0.0
220
0.0
230
1.0
 70
    11
 71
     3
 72
    26
 73
    22
 74
     0
 42
0.0000000001
 43
0.0000000001
 12
1.0
 22
0.0
 32
0.0
 13
1.0
 23
0.0
 33
0.0
 40
0.0
 40
0.0
 40
0.0
 40
0.0
 40
1.0
 40
1.0
 40
1.0
 40
2.0
 40
2.0
 40
2.0
 40
3.0
 40
3.0
 40
3.0
 40
4.0
 40
4.0
 40
4.0
 40
5.0
 40
5.0
 40
5.0
 40
6.0
 40
6.0
 40
6.0
 40
7.0
 40
7.0
 40
7.0
 40
7.0
 10
122.9902533329677
 20
-148.8532741598353
 30
0.0
 10
122.9902533329677
 20
-148.8532741598353
 30
0.0
 10
121.8861002299451
 20
-148.8532741598353
 30
0.0
 10
121.8861002299451
 20
-148.8532741598353
 30
0.0
 10
121.8861002299451
 20
-148.8532741598353
 30
0.0
 10
121.8861002299451
 20
-149.1833143073222
 30
0.0
 10
121.8861002299451
 20
-149.1833143073222
 30
0.0
 10
121.8861002299451
 20
-149.1833143073222
 30
0.0
 10
121.7379611240794
 20
-149.1833143073222
 30
0.0
 10
121.7379611240794
 20
-149.1833143073222
 30
0.0
 10
121.7231472134928
 20
-148.8512071025442
 30
0.0
 10
121.5601941970405
 20
-148.8046983134933
 30
0.0
 10
121.4458170269302
 20
-148.7750704923201
 30
0.0
 10
121.4458170269302
 20
-148.7750704923201
 30
0.0
 10
121.4458170269302
 20
-148.6289984437455
 30
0.0
 10
121.4458170269302
 20
-148.6289984437455
 30
0.0
 10
121.4458170269302
 20
-148.6289984437455
 30
0.0
 10
122.9902533329677
 20
-148.6289984437455
 30
0.0
 10
122.9902533329677
 20
-148.6289984437455
 30
0.0
 10
122.9902533329677
 20
-148.6289984437455
 30
0.0
 10
122.9902533329677
 20
-148.8532741598353
 30
0.0
 10
122.9902533329677
 20
-148.8532741598353
 30
0.0
  0
HATCH
  5
A4
330
9F
100
AcDbEntity
  8
_U+30EC_U+30A4_U+30E4_U+30FC 1
 62
     7
420
 16777215
100
AcDbHatch
 10
0.0
 20
0.0
 30
0.0
210
0.0
220
0.0
230
1.0
  2
SOLID
 70
     1
 71
     0
 91
        1
 92
        1
 93
        1
 72
     4
 94
        3
 73
     0
 74
     1
 95
       26
 96
       22
 40
0.0
 40
0.0
 40
0.0
 40
0.0
 40
1.0
 40
1.0
 40
1.0
 40
2.0
 40
2.0
 40
2.0
 40
3.0
 40
3.0
 40
3.0
 40
4.0
 40
4.0
 40
4.0
 40
5.0
 40
5.0
 40
5.0
 40
6.0
 40
6.0
 40
6.0
 40
7.0
 40
7.0
 40
7.0
 40
7.0
 10
122.9902533329677
 20
-148.8532741598353
 10
122.9902533329677
 20
-148.8532741598353
 10
121.8861002299451
 20
-148.8532741598353
 10
121.8861002299451
 20
-148.8532741598353
 10
121.8861002299451
 20
-148.8532741598353
 10
121.8861002299451
 20
-149.1833143073222
 10
121.8861002299451
 20
-149.1833143073222
 10
121.8861002299451
 20
-149.1833143073222
 10
121.7379611240794
 20
-149.1833143073222
 10
121.7379611240794
 20
-149.1833143073222
 10
121.7231472134928
 20
-148.8512071025442
 10
121.5601941970405
 20
-148.8046983134933
 10
121.4458170269302
 20
-148.7750704923201
 10
121.4458170269302
 20
-148.7750704923201
 10
121.4458170269302
 20
-148.6289984437455
 10
121.4458170269302
 20
-148.6289984437455
 10
121.4458170269302
 20
-148.6289984437455
 10
122.9902533329677
 20
-148.6289984437455
 10
122.9902533329677
 20
-148.6289984437455
 10
122.9902533329677
 20
-148.6289984437455
 10
122.9902533329677
 20
-148.8532741598353
 10
122.9902533329677
 20
-148.8532741598353
 97
        0
 97
        0
 75
     2
 76
     1
 98
        0
  0
SPLINE
  5
A5
330
9F
100
AcDbEntity
  8
_U+30EC_U+30A4_U+30E4_U+30FC 1
370
     0
100
AcDbSpline
210
0.0
220
0.0
230
1.0
 70
    11
 71
     3
 72
    29
 73
    25
 74
     0
 42
0.0000000001
 43
0.0000000001
 12
1.0
 22
0.0
 32
0.0
 13
1.0
 23
0.0
 33
0.0
 40
0.0
 40
0.0
 40
0.0
 40
0.0
 40
1.0
 40
1.0
 40
1.0
 40
2.0
 40
2.0
 40
2.0
 40
3.0
 40
3.0
 40
3.0
 40
4.0
 40
4.0
 40
4.0
 40
5.0
 40
5.0
 40
5.0
 40
6.0
 40
6.0
 40
6.0
 40
7.0
 40
7.0
 40
7.0
 40
8.0
 40
8.0
 40
8.0
 40
8.0
 10
122.8124864059288
 20
-147.2299451671856
 30
0.0
 10
123.021948211432
 20
-147.3381211654224
 30
0.0
 10
123.0408962366009
 20
-147.5114094683305
 30
0.0
 10
123.0408962366009
 20
-147.6278536957319
 30
0.0
 10
123.0408962366009
 20
-147.7887396548931
 30
0.0
 10
122.99438744755
 20
-147.9303330793369
 30
0.0
 10
122.8124864059288
 20
-148.0254177147298
 30
0.0
 10
122.6178385110122
 20
-148.1291150888358
 30
0.0
 10
122.380815941627
 20
-148.1480631140047
 30
0.0
 10
122.2182074347232
 20
-148.1480631140047
 30
0.0
 10
122.0742024434398
 20
-148.1480631140047
 30
0.0
 10
121.822365963468
 20
-148.1311821461269
 30
0.0
 10
121.6235839539691
 20
-148.0254177147298
 30
0.0
 10
121.4206678298879
 20
-147.9175862260414
 30
0.0
 10
121.3972411805882
 20
-147.7567002668803
 30
0.0
 10
121.3972411805882
 20
-147.6278536957319
 30
0.0
 10
121.3972411805882
 20
-147.4690347938619
 30
0.0
 10
121.4416829123479
 20
-147.325374312127
 30
0.0
 10
121.6235839539691
 20
-147.2299451671856
 30
0.0
 10
121.8161647915946
 20
-147.1307264172104
 30
0.0
 10
122.0445746222666
 20
-147.1072997679107
 30
0.0
 10
122.2182074347232
 20
-147.1072997679107
 30
0.0
 10
122.3894286803401
 20
-147.1072997679107
 30
0.0
 10
122.6199055683034
 20
-147.1286593599192
 30
0.0
 10
122.8124864059288
 20
-147.2299451671856
 30
0.0
  0
SPLINE
  5
A6
330
9F
100
AcDbEntity
  8
_U+30EC_U+30A4_U+30E4_U+30FC 1
370
     0
100
AcDbSpline
210
0.0
220
0.0
230
1.0
 70
    11
 71
     3
 72
    17
 73
    13
 74
     0
 42
0.0000000001
 43
0.0000000001
 12
1.0
 22
0.0
 32
0.0
 13
1.0
 23
0.0
 33
0.0
 40
0.0
 40
0.0
 40
0.0
 40
0.0
 40
1.0
 40
1.0
 40
1.0
 40
2.0
 40
2.0
 40
2.0
 40
3.0
 40
3.0
 40
3.0
 40
4.0
 40
4.0
 40
4.0
 40
4.0
 10
121.5898220182137
 20
-147.6278536957319
 30
0.0
 10
121.5898220182137
 20
-147.877278608864
 30
0.0
 10
121.8733533766497
 20
-147.9241319074634
 30
0.0
 10
122.2182074347232
 20
-147.9241319074634
 30
0.0
 10
122.5375677862059
 20
-147.9241319074634
 30
0.0
 10
122.8462483416843
 20
-147.8879584048683
 30
0.0
 10
122.8462483416843
 20
-147.6278536957319
 30
0.0
 10
122.8462483416843
 20
-147.3801513303425
 30
0.0
 10
122.5651285500879
 20
-147.3315754840004
 30
0.0
 10
122.2182074347232
 20
-147.3315754840004
 30
0.0
 10
121.898502573692
 20
-147.3315754840004
 30
0.0
 10
121.5898220182137
 20
-147.3698160438867
 30
0.0
 10
121.5898220182137
 20
-147.6278536957319
 30
0.0
  0
HATCH
  5
A7
330
9F
100
AcDbEntity
  8
_U+30EC_U+30A4_U+30E4_U+30FC 1
 62
     7
420
 16777215
100
AcDbHatch
 10
0.0
 20
0.0
 30
0.0
210
0.0
220
0.0
230
1.0
  2
SOLID
 70
     1
 71
     0
 91
        2
 92
        1
 93
        1
 72
     4
 94
        3
 73
     0
 74
     1
 95
       29
 96
       25
 40
0.0
 40
0.0
 40
0.0
 40
0.0
 40
1.0
 40
1.0
 40
1.0
 40
2.0
 40
2.0
 40
2.0
 40
3.0
 40
3.0
 40
3.0
 40
4.0
 40
4.0
 40
4.0
 40
5.0
 40
5.0
 40
5.0
 40
6.0
 40
6.0
 40
6.0
 40
7.0
 40
7.0
 40
7.0
 40
8.0
 40
8.0
 40
8.0
 40
8.0
 10
122.8124864059288
 20
-147.2299451671856
 10
123.021948211432
 20
-147.3381211654224
 10
123.0408962366009
 20
-147.5114094683305
 10
123.0408962366009
 20
-147.6278536957319
 10
123.0408962366009
 20
-147.7887396548931
 10
122.99438744755
 20
-147.9303330793369
 10
122.8124864059288
 20
-148.0254177147298
 10
122.6178385110122
 20
-148.1291150888358
 10
122.380815941627
 20
-148.1480631140047
 10
122.2182074347232
 20
-148.1480631140047
 10
122.0742024434398
 20
-148.1480631140047
 10
121.822365963468
 20
-148.1311821461269
 10
121.6235839539691
 20
-148.0254177147298
 10
121.4206678298879
 20
-147.9175862260414
 10
121.3972411805882
 20
-147.7567002668803
 10
121.3972411805882
 20
-147.6278536957319
 10
121.3972411805882
 20
-147.4690347938619
 10
121.4416829123479
 20
-147.325374312127
 10
121.6235839539691
 20
-147.2299451671856
 10
121.8161647915946
 20
-147.1307264172104
 10
122.0445746222666
 20
-147.1072997679107
 10
122.2182074347232
 20
-147.1072997679107
 10
122.3894286803401
 20
-147.1072997679107
 10
122.6199055683034
 20
-147.1286593599192
 10
122.8124864059288
 20
-147.2299451671856
 97
        0
 97
        0
 92
        1
 93
        1
 72
     4
 94
        3
 73
     0
 74
     1
 95
       17
 96
       13
 40
0.0
 40
0.0
 40
0.0
 40
0.0
 40
1.0
 40
1.0
 40
1.0
 40
2.0
 40
2.0
 40
2.0
 40
3.0
 40
3.0
 40
3.0
 40
4.0
 40
4.0
 40
4.0
 40
4.0
 10
121.5898220182137
 20
-147.6278536957319
 10
121.5898220182137
 20
-147.877278608864
 10
121.8733533766497
 20
-147.9241319074634
 10
122.2182074347232
 20
-147.9241319074634
 10
122.5375677862059
 20
-147.9241319074634
 10
122.8462483416843
 20
-147.8879584048683
 10
122.8462483416843
 20
-147.6278536957319
 10
122.8462483416843
 20
-147.3801513303425
 10
122.5651285500879
 20
-147.3315754840004
 10
122.2182074347232
 20
-147.3315754840004
 10
121.898502573692
 20
-147.3315754840004
 10
121.5898220182137
 20
-147.3698160438867
 10
121.5898220182137
 20
-147.6278536957319
 97
        0
 97
        0
 75
     2
 76
     1
 98
        0
  0
ENDBLK
  5
A2
330
9F
100
AcDbEntity
  8
0
100
AcDbBlockEnd
  0
BLOCK
  5
BA
330
B8
100
AcDbEntity
  8
0
100
AcDbBlockBegin
  2
block 4
 70
     0
 10
0.0
 20
0.0
 30
0.0
  3
block 4
  1

  0
SPLINE
  5
BC
330
B8
100
AcDbEntity
  8
_U+30EC_U+30A4_U+30E4_U+30FC 1
370
     0
100
AcDbSpline
210
0.0
220
0.0
230
1.0
 70
    11
 71
     3
 72
    29
 73
    25
 74
     0
 42
0.0000000001
 43
0.0000000001
 12
1.0
 22
0.0
 32
0.0
 13
1.0
 23
0.0
 33
0.0
 40
0.0
 40
0.0
 40
0.0
 40
0.0
 40
1.0
 40
1.0
 40
1.0
 40
2.0
 40
2.0
 40
2.0
 40
3.0
 40
3.0
 40
3.0
 40
4.0
 40
4.0
 40
4.0
 40
5.0
 40
5.0
 40
5.0
 40
6.0
 40
6.0
 40
6.0
 40
7.0
 40
7.0
 40
7.0
 40
8.0
 40
8.0
 40
8.0
 40
8.0
 10
107.8121961536025
 20
-150.5568738772913
 30
0.0
 10
108.0216579591057
 20
-150.6650498755282
 30
0.0
 10
108.0406059842746
 20
-150.8383381784363
 30
0.0
 10
108.0406059842746
 20
-150.9547824058377
 30
0.0
 10
108.0406059842746
 20
-151.1156683649989
 30
0.0
 10
107.9940971952237
 20
-151.2572617894426
 30
0.0
 10
107.8121961536025
 20
-151.3523464248355
 30
0.0
 10
107.6175482586859
 20
-151.4560437989416
 30
0.0
 10
107.3808701988492
 20
-151.475336333659
 30
0.0
 10
107.2179171823969
 20
-151.475336333659
 30
0.0
 10
107.0739121911135
 20
-151.475336333659
 30
0.0
 10
106.8220757111417
 20
-151.4581108562327
 30
0.0
 10
106.6232937016428
 20
-151.3523464248355
 30
0.0
 10
106.4203775775616
 20
-151.2445149361472
 30
0.0
 10
106.3969509282619
 20
-151.083628976986
 30
0.0
 10
106.3969509282619
 20
-150.9547824058377
 30
0.0
 10
106.3969509282619
 20
-150.7959635039677
 30
0.0
 10
106.4413926600216
 20
-150.6523030222328
 30
0.0
 10
106.6232937016428
 20
-150.5568738772913
 30
0.0
 10
106.8158745392683
 20
-150.4576551273161
 30
0.0
 10
107.0442843699403
 20
-150.4342284780165
 30
0.0
 10
107.2179171823969
 20
-150.4342284780165
 30
0.0
 10
107.3891384280138
 20
-150.4342284780165
 30
0.0
 10
107.619615315977
 20
-150.455588070025
 30
0.0
 10
107.8121961536025
 20
-150.5568738772913
 30
0.0
  0
SPLINE
  5
BD
330
B8
100
AcDbEntity
  8
_U+30EC_U+30A4_U+30E4_U+30FC 1
370
     0
100
AcDbSpline
210
0.0
220
0.0
230
1.0
 70
    11
 71
     3
 72
    17
 73
    13
 74
     0
 42
0.0000000001
 43
0.0000000001
 12
1.0
 22
0.0
 32
0.0
 13
1.0
 23
0.0
 33
0.0
 40
0.0
 40
0.0
 40
0.0
 40
0.0
 40
1.0
 40
1.0
 40
1.0
 40
2.0
 40
2.0
 40
2.0
 40
3.0
 40
3.0
 40
3.0
 40
4.0
 40
4.0
 40
4.0
 40
4.0
 10
106.5895317658873
 20
-150.9547824058377
 30
0.0
 10
106.5895317658873
 20
-151.2045518285183
 30
0.0
 10
106.8730631243234
 20
-151.2510606175692
 30
0.0
 10
107.2179171823969
 20
-151.2510606175692
 30
0.0
 10
107.5372775338796
 20
-151.2510606175692
 30
0.0
 10
107.845958089358
 20
-151.2148871149741
 30
0.0
 10
107.845958089358
 20
-150.9547824058377
 30
0.0
 10
107.845958089358
 20
-150.7070800404482
 30
0.0
 10
107.5648382977616
 20
-150.6585041941062
 30
0.0
 10
107.2179171823969
 20
-150.6585041941062
 30
0.0
 10
106.8982123213657
 20
-150.6585041941062
 30
0.0
 10
106.5895317658873
 20
-150.6967447539925
 30
0.0
 10
106.5895317658873
 20
-150.9547824058377
 30
0.0
  0
HATCH
  5
BE
330
B8
100
AcDbEntity
  8
_U+30EC_U+30A4_U+30E4_U+30FC 1
 62
     7
420
 16777215
100
AcDbHatch
 10
0.0
 20
0.0
 30
0.0
210
0.0
220
0.0
230
1.0
  2
SOLID
 70
     1
 71
     0
 91
        2
 92
        1
 93
        1
 72
     4
 94
        3
 73
     0
 74
     1
 95
       29
 96
       25
 40
0.0
 40
0.0
 40
0.0
 40
0.0
 40
1.0
 40
1.0
 40
1.0
 40
2.0
 40
2.0
 40
2.0
 40
3.0
 40
3.0
 40
3.0
 40
4.0
 40
4.0
 40
4.0
 40
5.0
 40
5.0
 40
5.0
 40
6.0
 40
6.0
 40
6.0
 40
7.0
 40
7.0
 40
7.0
 40
8.0
 40
8.0
 40
8.0
 40
8.0
 10
107.8121961536025
 20
-150.5568738772913
 10
108.0216579591057
 20
-150.6650498755282
 10
108.0406059842746
 20
-150.8383381784363
 10
108.0406059842746
 20
-150.9547824058377
 10
108.0406059842746
 20
-151.1156683649989
 10
107.9940971952237
 20
-151.2572617894426
 10
107.8121961536025
 20
-151.3523464248355
 10
107.6175482586859
 20
-151.4560437989416
 10
107.3808701988492
 20
-151.475336333659
 10
107.2179171823969
 20
-151.475336333659
 10
107.0739121911135
 20
-151.475336333659
 10
106.8220757111417
 20
-151.4581108562327
 10
106.6232937016428
 20
-151.3523464248355
 10
106.4203775775616
 20
-151.2445149361472
 10
106.3969509282619
 20
-151.083628976986
 10
106.3969509282619
 20
-150.9547824058377
 10
106.3969509282619
 20
-150.7959635039677
 10
106.4413926600216
 20
-150.6523030222328
 10
106.6232937016428
 20
-150.5568738772913
 10
106.8158745392683
 20
-150.4576551273161
 10
107.0442843699403
 20
-150.4342284780165
 10
107.2179171823969
 20
-150.4342284780165
 10
107.3891384280138
 20
-150.4342284780165
 10
107.619615315977
 20
-150.455588070025
 10
107.8121961536025
 20
-150.5568738772913
 97
        0
 97
        0
 92
        1
 93
        1
 72
     4
 94
        3
 73
     0
 74
     1
 95
       17
 96
       13
 40
0.0
 40
0.0
 40
0.0
 40
0.0
 40
1.0
 40
1.0
 40
1.0
 40
2.0
 40
2.0
 40
2.0
 40
3.0
 40
3.0
 40
3.0
 40
4.0
 40
4.0
 40
4.0
 40
4.0
 10
106.5895317658873
 20
-150.9547824058377
 10
106.5895317658873
 20
-151.2045518285183
 10
106.8730631243234
 20
-151.2510606175692
 10
107.2179171823969
 20
-151.2510606175692
 10
107.5372775338796
 20
-151.2510606175692
 10
107.845958089358
 20
-151.2148871149741
 10
107.845958089358
 20
-150.9547824058377
 10
107.845958089358
 20
-150.7070800404482
 10
107.5648382977616
 20
-150.6585041941062
 10
107.2179171823969
 20
-150.6585041941062
 10
106.8982123213657
 20
-150.6585041941062
 10
106.5895317658873
 20
-150.6967447539925
 10
106.5895317658873
 20
-150.9547824058377
 97
        0
 97
        0
 75
     2
 76
     1
 98
        0
  0
POLYLINE
  5
BF
330
B8
100
AcDbEntity
  8
_U+30EC_U+30A4_U+30E4_U+30FC 1
370
     0
100
AcDb2dPolyline
 66
     1
 10
0.0
 20
0.0
 30
0.0
  0
VERTEX
  5
C0
330
BF
100
AcDbEntity
  8
_U+30EC_U+30A4_U+30E4_U+30FC 1
370
     0
100
AcDbVertex
100
AcDb2dVertex
 10
107.9899630806414
 20
-150.2178764815428
 30
0.0
  0
VERTEX
  5
C1
330
BF
100
AcDbEntity
  8
_U+30EC_U+30A4_U+30E4_U+30FC 1
370
     0
100
AcDbVertex
100
AcDb2dVertex
 10
107.7381266006696
 20
-150.2178764815428
 30
0.0
  0
VERTEX
  5
C2
330
BF
100
AcDbEntity
  8
_U+30EC_U+30A4_U+30E4_U+30FC 1
370
     0
100
AcDbVertex
100
AcDb2dVertex
 10
107.7381266006696
 20
-149.966040001571
 30
0.0
  0
VERTEX
  5
C3
330
BF
100
AcDbEntity
  8
_U+30EC_U+30A4_U+30E4_U+30FC 1
370
     0
100
AcDbVertex
100
AcDb2dVertex
 10
107.9899630806414
 20
-149.966040001571
 30
0.0
  0
VERTEX
  5
C4
330
BF
100
AcDbEntity
  8
_U+30EC_U+30A4_U+30E4_U+30FC 1
370
     0
100
AcDbVertex
100
AcDb2dVertex
 10
107.9899630806414
 20
-150.2178764815428
 30
0.0
  0
SEQEND
  5
C5
330
BF
100
AcDbEntity
  8
_U+30EC_U+30A4_U+30E4_U+30FC 1
370
     0
  0
HATCH
  5
C6
330
B8
100
AcDbEntity
  8
_U+30EC_U+30A4_U+30E4_U+30FC 1
 62
     7
420
 16777215
100
AcDbHatch
 10
0.0
 20
0.0
 30
0.0
210
0.0
220
0.0
230
1.0
  2
SOLID
 70
     1
 71
     0
 91
        1
 92
        1
 93
        4
 72
     1
 10
107.9899630806414
 20
-150.2178764815428
 11
107.7381266006696
 21
-150.2178764815428
 72
     1
 10
107.7381266006696
 20
-150.2178764815428
 11
107.7381266006696
 21
-149.966040001571
 72
     1
 10
107.7381266006696
 20
-149.966040001571
 11
107.9899630806414
 21
-149.966040001571
 72
     1
 10
107.9899630806414
 20
-149.966040001571
 11
107.9899630806414
 21
-150.2178764815428
 97
        0
 75
     2
 76
     1
 98
        0
  0
SPLINE
  5
C7
330
B8
100
AcDbEntity
  8
_U+30EC_U+30A4_U+30E4_U+30FC 1
370
     0
100
AcDbSpline
210
0.0
220
0.0
230
1.0
 70
    11
 71
     3
 72
    53
 73
    49
 74
     0
 42
0.0000000001
 43
0.0000000001
 12
1.0
 22
0.0
 32
0.0
 13
1.0
 23
0.0
 33
0.0
 40
0.0
 40
0.0
 40
0.0
 40
0.0
 40
1.0
 40
1.0
 40
1.0
 40
2.0
 40
2.0
 40
2.0
 40
3.0
 40
3.0
 40
3.0
 40
4.0
 40
4.0
 40
4.0
 40
5.0
 40
5.0
 40
5.0
 40
6.0
 40
6.0
 40
6.0
 40
7.0
 40
7.0
 40
7.0
 40
8.0
 40
8.0
 40
8.0
 40
9.0
 40
9.0
 40
9.0
 40
10.0
 40
10.0
 40
10.0
 40
11.0
 40
11.0
 40
11.0
 40
12.0
 40
12.0
 40
12.0
 40
13.0
 40
13.0
 40
13.0
 40
14.0
 40
14.0
 40
14.0
 40
15.0
 40
15.0
 40
15.0
 40
16.0
 40
16.0
 40
16.0
 40
16.0
 10
108.0406059842746
 20
-149.248771121542
 30
0.0
 10
108.0406059842746
 20
-149.3269747890571
 30
0.0
 10
108.0237250163969
 20
-149.428605105872
 30
0.0
 10
107.9603352594683
 20
-149.5302354226869
 30
0.0
 10
107.8504367134888
 20
-149.7035237255949
 30
0.0
 10
107.7191785755008
 20
-149.7248833176035
 30
0.0
 10
107.6113470868124
 20
-149.7438313427724
 30
0.0
 10
107.6113470868124
 20
-149.7438313427724
 30
0.0
 10
107.6113470868124
 20
-149.5216226839738
 30
0.0
 10
107.6113470868124
 20
-149.5216226839738
 30
0.0
 10
107.8101290963114
 20
-149.4668456657583
 30
0.0
 10
107.8397569174845
 20
-149.3397216423526
 30
0.0
 10
107.8397569174845
 20
-149.2467040642508
 30
0.0
 10
107.8397569174845
 20
-149.1071776970982
 30
0.0
 10
107.7401936579608
 20
-148.9549044766502
 30
0.0
 10
107.5076497127064
 20
-148.9549044766502
 30
0.0
 10
107.2516791181524
 20
-148.9549044766502
 30
0.0
 10
107.1817436798018
 20
-149.1347384609802
 30
0.0
 10
107.1817436798018
 20
-149.255316802964
 30
0.0
 10
107.1817436798018
 20
-149.2870116814283
 30
0.0
 10
107.1817436798018
 20
-149.428605105872
 30
0.0
 10
107.3109347604987
 20
-149.5174885693915
 30
0.0
 10
107.3109347604987
 20
-149.5174885693915
 30
0.0
 10
107.2919867353298
 20
-149.6931884391392
 30
0.0
 10
107.2919867353298
 20
-149.6931884391392
 30
0.0
 10
107.2919867353298
 20
-149.6931884391392
 30
0.0
 10
106.4455267746039
 20
-149.5726100971555
 30
0.0
 10
106.4455267746039
 20
-149.5726100971555
 30
0.0
 10
106.4455267746039
 20
-149.5726100971555
 30
0.0
 10
106.4455267746039
 20
-148.794018517489
 30
0.0
 10
106.4455267746039
 20
-148.794018517489
 30
0.0
 10
106.4455267746039
 20
-148.794018517489
 30
0.0
 10
106.6401746695205
 20
-148.794018517489
 30
0.0
 10
106.6401746695205
 20
-148.794018517489
 30
0.0
 10
106.6401746695205
 20
-148.794018517489
 30
0.0
 10
106.6401746695205
 20
-149.4096570807031
 30
0.0
 10
106.6401746695205
 20
-149.4096570807031
 30
0.0
 10
106.6401746695205
 20
-149.4096570807031
 30
0.0
 10
107.0632323951092
 20
-149.4751138949229
 30
0.0
 10
107.0632323951092
 20
-149.4751138949229
 30
0.0
 10
107.0294704593537
 20
-149.4137911952855
 30
0.0
 10
106.9891628421763
 20
-149.331453413188
 30
0.0
 10
106.9891628421763
 20
-149.2129421284954
 30
0.0
 10
106.9891628421763
 20
-148.9590385912325
 30
0.0
 10
107.1755425079283
 20
-148.7220160218473
 30
0.0
 10
107.4887016875376
 20
-148.7220160218473
 30
0.0
 10
107.8059949817291
 20
-148.7220160218473
 30
0.0
 10
108.0406059842746
 20
-148.946291737937
 30
0.0
 10
108.0406059842746
 20
-149.248771121542
 30
0.0
  0
HATCH
  5
C8
330
B8
100
AcDbEntity
  8
_U+30EC_U+30A4_U+30E4_U+30FC 1
 62
     7
420
 16777215
100
AcDbHatch
 10
0.0
 20
0.0
 30
0.0
210
0.0
220
0.0
230
1.0
  2
SOLID
 70
     1
 71
     0
 91
        1
 92
        1
 93
        1
 72
     4
 94
        3
 73
     0
 74
     1
 95
       53
 96
       49
 40
0.0
 40
0.0
 40
0.0
 40
0.0
 40
1.0
 40
1.0
 40
1.0
 40
2.0
 40
2.0
 40
2.0
 40
3.0
 40
3.0
 40
3.0
 40
4.0
 40
4.0
 40
4.0
 40
5.0
 40
5.0
 40
5.0
 40
6.0
 40
6.0
 40
6.0
 40
7.0
 40
7.0
 40
7.0
 40
8.0
 40
8.0
 40
8.0
 40
9.0
 40
9.0
 40
9.0
 40
10.0
 40
10.0
 40
10.0
 40
11.0
 40
11.0
 40
11.0
 40
12.0
 40
12.0
 40
12.0
 40
13.0
 40
13.0
 40
13.0
 40
14.0
 40
14.0
 40
14.0
 40
15.0
 40
15.0
 40
15.0
 40
16.0
 40
16.0
 40
16.0
 40
16.0
 10
108.0406059842746
 20
-149.248771121542
 10
108.0406059842746
 20
-149.3269747890571
 10
108.0237250163969
 20
-149.428605105872
 10
107.9603352594683
 20
-149.5302354226869
 10
107.8504367134888
 20
-149.7035237255949
 10
107.7191785755008
 20
-149.7248833176035
 10
107.6113470868124
 20
-149.7438313427724
 10
107.6113470868124
 20
-149.7438313427724
 10
107.6113470868124
 20
-149.5216226839738
 10
107.6113470868124
 20
-149.5216226839738
 10
107.8101290963114
 20
-149.4668456657583
 10
107.8397569174845
 20
-149.3397216423526
 10
107.8397569174845
 20
-149.2467040642508
 10
107.8397569174845
 20
-149.1071776970982
 10
107.7401936579608
 20
-148.9549044766502
 10
107.5076497127064
 20
-148.9549044766502
 10
107.2516791181524
 20
-148.9549044766502
 10
107.1817436798018
 20
-149.1347384609802
 10
107.1817436798018
 20
-149.255316802964
 10
107.1817436798018
 20
-149.2870116814283
 10
107.1817436798018
 20
-149.428605105872
 10
107.3109347604987
 20
-149.5174885693915
 10
107.3109347604987
 20
-149.5174885693915
 10
107.2919867353298
 20
-149.6931884391392
 10
107.2919867353298
 20
-149.6931884391392
 10
107.2919867353298
 20
-149.6931884391392
 10
106.4455267746039
 20
-149.5726100971555
 10
106.4455267746039
 20
-149.5726100971555
 10
106.4455267746039
 20
-149.5726100971555
 10
106.4455267746039
 20
-148.794018517489
 10
106.4455267746039
 20
-148.794018517489
 10
106.4455267746039
 20
-148.794018517489
 10
106.6401746695205
 20
-148.794018517489
 10
106.6401746695205
 20
-148.794018517489
 10
106.6401746695205
 20
-148.794018517489
 10
106.6401746695205
 20
-149.4096570807031
 10
106.6401746695205
 20
-149.4096570807031
 10
106.6401746695205
 20
-149.4096570807031
 10
107.0632323951092
 20
-149.4751138949229
 10
107.0632323951092
 20
-149.4751138949229
 10
107.0294704593537
 20
-149.4137911952855
 10
106.9891628421763
 20
-149.331453413188
 10
106.9891628421763
 20
-149.2129421284954
 10
106.9891628421763
 20
-148.9590385912325
 10
107.1755425079283
 20
-148.7220160218473
 10
107.4887016875376
 20
-148.7220160218473
 10
107.8059949817291
 20
-148.7220160218473
 10
108.0406059842746
 20
-148.946291737937
 10
108.0406059842746
 20
-149.248771121542
 97
        0
 97
        0
 75
     2
 76
     1
 98
        0
  0
ENDBLK
  5
BB
330
B8
100
AcDbEntity
  8
0
100
AcDbBlockEnd
  0
BLOCK
  5
D7
330
D5
100
AcDbEntity
  8
0
100
AcDbBlockBegin
  2
block 5
 70
     0
 10
0.0
 20
0.0
 30
0.0
  3
block 5
  1

  0
SPLINE
  5
D9
330
D5
100
AcDbEntity
  8
_U+30EC_U+30A4_U+30E4_U+30FC 1
370
     0
100
AcDbSpline
210
0.0
220
0.0
230
1.0
 70
    11
 71
     3
 72
    26
 73
    22
 74
     0
 42
0.0000000001
 43
0.0000000001
 12
1.0
 22
0.0
 32
0.0
 13
1.0
 23
0.0
 33
0.0
 40
0.0
 40
0.0
 40
0.0
 40
0.0
 40
1.0
 40
1.0
 40
1.0
 40
2.0
 40
2.0
 40
2.0
 40
3.0
 40
3.0
 40
3.0
 40
4.0
 40
4.0
 40
4.0
 40
5.0
 40
5.0
 40
5.0
 40
6.0
 40
6.0
 40
6.0
 40
7.0
 40
7.0
 40
7.0
 40
7.0
 10
99.57910696295245
 20
-156.8379719659989
 30
0.0
 10
99.57910696295245
 20
-156.8379719659989
 30
0.0
 10
99.57910696295245
 20
-155.7338188629763
 30
0.0
 10
99.57910696295245
 20
-155.7338188629763
 30
0.0
 10
99.57910696295245
 20
-155.7338188629763
 30
0.0
 10
99.24906681546551
 20
-155.7338188629763
 30
0.0
 10
99.24906681546551
 20
-155.7338188629763
 30
0.0
 10
99.24906681546551
 20
-155.7338188629763
 30
0.0
 10
99.24906681546551
 20
-155.5856797571105
 30
0.0
 10
99.24906681546551
 20
-155.5856797571105
 30
0.0
 10
99.5811740202436
 20
-155.570865846524
 30
0.0
 10
99.62768280929447
 20
-155.4079128300716
 30
0.0
 10
99.65731063046762
 20
-155.2935356599613
 30
0.0
 10
99.65731063046762
 20
-155.2935356599613
 30
0.0
 10
99.80338267904222
 20
-155.2935356599613
 30
0.0
 10
99.80338267904222
 20
-155.2935356599613
 30
0.0
 10
99.80338267904222
 20
-155.2935356599613
 30
0.0
 10
99.80338267904222
 20
-156.8379719659989
 30
0.0
 10
99.80338267904222
 20
-156.8379719659989
 30
0.0
 10
99.80338267904222
 20
-156.8379719659989
 30
0.0
 10
99.57910696295245
 20
-156.8379719659989
 30
0.0
 10
99.57910696295245
 20
-156.8379719659989
 30
0.0
  0
HATCH
  5
DA
330
D5
100
AcDbEntity
  8
_U+30EC_U+30A4_U+30E4_U+30FC 1
 62
     7
420
 16777215
100
AcDbHatch
 10
0.0
 20
0.0
 30
0.0
210
0.0
220
0.0
230
1.0
  2
SOLID
 70
     1
 71
     0
 91
        1
 92
        1
 93
        1
 72
     4
 94
        3
 73
     0
 74
     1
 95
       26
 96
       22
 40
0.0
 40
0.0
 40
0.0
 40
0.0
 40
1.0
 40
1.0
 40
1.0
 40
2.0
 40
2.0
 40
2.0
 40
3.0
 40
3.0
 40
3.0
 40
4.0
 40
4.0
 40
4.0
 40
5.0
 40
5.0
 40
5.0
 40
6.0
 40
6.0
 40
6.0
 40
7.0
 40
7.0
 40
7.0
 40
7.0
 10
99.57910696295245
 20
-156.8379719659989
 10
99.57910696295245
 20
-156.8379719659989
 10
99.57910696295245
 20
-155.7338188629763
 10
99.57910696295245
 20
-155.7338188629763
 10
99.57910696295245
 20
-155.7338188629763
 10
99.24906681546551
 20
-155.7338188629763
 10
99.24906681546551
 20
-155.7338188629763
 10
99.24906681546551
 20
-155.7338188629763
 10
99.24906681546551
 20
-155.5856797571105
 10
99.24906681546551
 20
-155.5856797571105
 10
99.5811740202436
 20
-155.570865846524
 10
99.62768280929447
 20
-155.4079128300716
 10
99.65731063046762
 20
-155.2935356599613
 10
99.65731063046762
 20
-155.2935356599613
 10
99.80338267904222
 20
-155.2935356599613
 10
99.80338267904222
 20
-155.2935356599613
 10
99.80338267904222
 20
-155.2935356599613
 10
99.80338267904222
 20
-156.8379719659989
 10
99.80338267904222
 20
-156.8379719659989
 10
99.80338267904222
 20
-156.8379719659989
 10
99.57910696295245
 20
-156.8379719659989
 10
99.57910696295245
 20
-156.8379719659989
 97
        0
 97
        0
 75
     2
 76
     1
 98
        0
  0
SPLINE
  5
DB
330
D5
100
AcDbEntity
  8
_U+30EC_U+30A4_U+30E4_U+30FC 1
370
     0
100
AcDbSpline
210
0.0
220
0.0
230
1.0
 70
    11
 71
     3
 72
    29
 73
    25
 74
     0
 42
0.0000000001
 43
0.0000000001
 12
1.0
 22
0.0
 32
0.0
 13
1.0
 23
0.0
 33
0.0
 40
0.0
 40
0.0
 40
0.0
 40
0.0
 40
1.0
 40
1.0
 40
1.0
 40
2.0
 40
2.0
 40
2.0
 40
3.0
 40
3.0
 40
3.0
 40
4.0
 40
4.0
 40
4.0
 40
5.0
 40
5.0
 40
5.0
 40
6.0
 40
6.0
 40
6.0
 40
7.0
 40
7.0
 40
7.0
 40
8.0
 40
8.0
 40
8.0
 40
8.0
 10
101.2024359556022
 20
-156.66020503896
 30
0.0
 10
101.0942599573653
 20
-156.8696668444632
 30
0.0
 10
100.9209716544573
 20
-156.888614869632
 30
0.0
 10
100.8045274270558
 20
-156.888614869632
 30
0.0
 10
100.6436414678947
 20
-156.888614869632
 30
0.0
 10
100.5020480434509
 20
-156.8421060805811
 30
0.0
 10
100.406963408058
 20
-156.66020503896
 30
0.0
 10
100.303266033952
 20
-156.4655571440433
 30
0.0
 10
100.2839734992346
 20
-156.2288790842067
 30
0.0
 10
100.2839734992346
 20
-156.0659260677544
 30
0.0
 10
100.2839734992346
 20
-155.9219210764709
 30
0.0
 10
100.3011989766608
 20
-155.6700845964992
 30
0.0
 10
100.406963408058
 20
-155.4713025870002
 30
0.0
 10
100.5147948967463
 20
-155.268386462919
 30
0.0
 10
100.6756808559075
 20
-155.2449598136193
 30
0.0
 10
100.8045274270558
 20
-155.2449598136193
 30
0.0
 10
100.9633463289258
 20
-155.2449598136193
 30
0.0
 10
101.1070068106607
 20
-155.289401545379
 30
0.0
 10
101.2024359556022
 20
-155.4713025870002
 30
0.0
 10
101.3016547055774
 20
-155.6638834246257
 30
0.0
 10
101.3250813548771
 20
-155.8922932552978
 30
0.0
 10
101.3250813548771
 20
-156.0659260677544
 30
0.0
 10
101.3250813548771
 20
-156.2371473133713
 30
0.0
 10
101.3037217628685
 20
-156.4676242013345
 30
0.0
 10
101.2024359556022
 20
-156.66020503896
 30
0.0
  0
SPLINE
  5
DC
330
D5
100
AcDbEntity
  8
_U+30EC_U+30A4_U+30E4_U+30FC 1
370
     0
100
AcDbSpline
210
0.0
220
0.0
230
1.0
 70
    11
 71
     3
 72
    17
 73
    13
 74
     0
 42
0.0000000001
 43
0.0000000001
 12
1.0
 22
0.0
 32
0.0
 13
1.0
 23
0.0
 33
0.0
 40
0.0
 40
0.0
 40
0.0
 40
0.0
 40
1.0
 40
1.0
 40
1.0
 40
2.0
 40
2.0
 40
2.0
 40
3.0
 40
3.0
 40
3.0
 40
4.0
 40
4.0
 40
4.0
 40
4.0
 10
100.8045274270558
 20
-155.4375406512448
 30
0.0
 10
100.5547580043752
 20
-155.4375406512448
 30
0.0
 10
100.5082492153243
 20
-155.7210720096809
 30
0.0
 10
100.5082492153243
 20
-156.0659260677544
 30
0.0
 10
100.5082492153243
 20
-156.385286419237
 30
0.0
 10
100.5444227179195
 20
-156.6939669747154
 30
0.0
 10
100.8045274270558
 20
-156.6939669747154
 30
0.0
 10
101.0522297924453
 20
-156.6939669747154
 30
0.0
 10
101.1008056387873
 20
-156.412847183119
 30
0.0
 10
101.1008056387873
 20
-156.0659260677544
 30
0.0
 10
101.1008056387873
 20
-155.7462212067232
 30
0.0
 10
101.062565078901
 20
-155.4375406512448
 30
0.0
 10
100.8045274270558
 20
-155.4375406512448
 30
0.0
  0
HATCH
  5
DD
330
D5
100
AcDbEntity
  8
_U+30EC_U+30A4_U+30E4_U+30FC 1
 62
     7
420
 16777215
100
AcDbHatch
 10
0.0
 20
0.0
 30
0.0
210
0.0
220
0.0
230
1.0
  2
SOLID
 70
     1
 71
     0
 91
        2
 92
        1
 93
        1
 72
     4
 94
        3
 73
     0
 74
     1
 95
       29
 96
       25
 40
0.0
 40
0.0
 40
0.0
 40
0.0
 40
1.0
 40
1.0
 40
1.0
 40
2.0
 40
2.0
 40
2.0
 40
3.0
 40
3.0
 40
3.0
 40
4.0
 40
4.0
 40
4.0
 40
5.0
 40
5.0
 40
5.0
 40
6.0
 40
6.0
 40
6.0
 40
7.0
 40
7.0
 40
7.0
 40
8.0
 40
8.0
 40
8.0
 40
8.0
 10
101.2024359556022
 20
-156.66020503896
 10
101.0942599573653
 20
-156.8696668444632
 10
100.9209716544573
 20
-156.888614869632
 10
100.8045274270558
 20
-156.888614869632
 10
100.6436414678947
 20
-156.888614869632
 10
100.5020480434509
 20
-156.8421060805811
 10
100.406963408058
 20
-156.66020503896
 10
100.303266033952
 20
-156.4655571440433
 10
100.2839734992346
 20
-156.2288790842067
 10
100.2839734992346
 20
-156.0659260677544
 10
100.2839734992346
 20
-155.9219210764709
 10
100.3011989766608
 20
-155.6700845964992
 10
100.406963408058
 20
-155.4713025870002
 10
100.5147948967463
 20
-155.268386462919
 10
100.6756808559075
 20
-155.2449598136193
 10
100.8045274270558
 20
-155.2449598136193
 10
100.9633463289258
 20
-155.2449598136193
 10
101.1070068106607
 20
-155.289401545379
 10
101.2024359556022
 20
-155.4713025870002
 10
101.3016547055774
 20
-155.6638834246257
 10
101.3250813548771
 20
-155.8922932552978
 10
101.3250813548771
 20
-156.0659260677544
 10
101.3250813548771
 20
-156.2371473133713
 10
101.3037217628685
 20
-156.4676242013345
 10
101.2024359556022
 20
-156.66020503896
 97
        0
 97
        0
 92
        1
 93
        1
 72
     4
 94
        3
 73
     0
 74
     1
 95
       17
 96
       13
 40
0.0
 40
0.0
 40
0.0
 40
0.0
 40
1.0
 40
1.0
 40
1.0
 40
2.0
 40
2.0
 40
2.0
 40
3.0
 40
3.0
 40
3.0
 40
4.0
 40
4.0
 40
4.0
 40
4.0
 10
100.8045274270558
 20
-155.4375406512448
 10
100.5547580043752
 20
-155.4375406512448
 10
100.5082492153243
 20
-155.7210720096809
 10
100.5082492153243
 20
-156.0659260677544
 10
100.5082492153243
 20
-156.385286419237
 10
100.5444227179195
 20
-156.6939669747154
 10
100.8045274270558
 20
-156.6939669747154
 10
101.0522297924453
 20
-156.6939669747154
 10
101.1008056387873
 20
-156.412847183119
 10
101.1008056387873
 20
-156.0659260677544
 10
101.1008056387873
 20
-155.7462212067232
 10
101.062565078901
 20
-155.4375406512448
 10
100.8045274270558
 20
-155.4375406512448
 97
        0
 97
        0
 75
     2
 76
     1
 98
        0
  0
ENDBLK
  5
D8
330
D5
100
AcDbEntity
  8
0
100
AcDbBlockEnd
  0
BLOCK
  5
EE
330
EC
100
AcDbEntity
  8
0
100
AcDbBlockBegin
  2
block 6
 70
     0
 10
0.0
 20
0.0
 30
0.0
  3
block 6
  1

  0
SPLINE
  5
F0
330
EC
100
AcDbEntity
  8
_U+30EC_U+30A4_U+30E4_U+30FC 1
370
     0
100
AcDbSpline
210
0.0
220
0.0
230
1.0
 70
    11
 71
     3
 72
    62
 73
    58
 74
     0
 42
0.0000000001
 43
0.0000000001
 12
1.0
 22
0.0
 32
0.0
 13
1.0
 23
0.0
 33
0.0
 40
0.0
 40
0.0
 40
0.0
 40
0.0
 40
1.0
 40
1.0
 40
1.0
 40
2.0
 40
2.0
 40
2.0
 40
3.0
 40
3.0
 40
3.0
 40
4.0
 40
4.0
 40
4.0
 40
5.0
 40
5.0
 40
5.0
 40
6.0
 40
6.0
 40
6.0
 40
7.0
 40
7.0
 40
7.0
 40
8.0
 40
8.0
 40
8.0
 40
9.0
 40
9.0
 40
9.0
 40
10.0
 40
10.0
 40
10.0
 40
11.0
 40
11.0
 40
11.0
 40
12.0
 40
12.0
 40
12.0
 40
13.0
 40
13.0
 40
13.0
 40
14.0
 40
14.0
 40
14.0
 40
15.0
 40
15.0
 40
15.0
 40
16.0
 40
16.0
 40
16.0
 40
17.0
 40
17.0
 40
17.0
 40
18.0
 40
18.0
 40
18.0
 40
19.0
 40
19.0
 40
19.0
 40
19.0
 10
102.1195203737757
 20
-136.6886420014181
 30
0.0
 10
102.0240912288343
 20
-136.6886420014181
 30
0.0
 10
101.8063611941665
 20
-136.6676269189581
 30
0.0
 10
101.6813042280519
 20
-136.4814195079803
 30
0.0
 10
101.6075791846676
 20
-136.3692816499355
 30
0.0
 10
101.6031005605367
 20
-136.269890645186
 30
0.0
 10
101.5989664459544
 20
-136.1853135510231
 30
0.0
 10
101.5989664459544
 20
-136.1853135510231
 30
0.0
 10
101.8191080474619
 20
-136.1853135510231
 30
0.0
 10
101.8191080474619
 20
-136.1853135510231
 30
0.0
 10
101.821175104753
 20
-136.259383103956
 30
0.0
 10
101.8315103912088
 20
-136.4941663612758
 30
0.0
 10
102.1150417496449
 20
-136.4941663612758
 30
0.0
 10
102.2525010595063
 20
-136.4941663612758
 30
0.0
 10
102.4051187895029
 20
-136.4244031776995
 30
0.0
 10
102.4051187895029
 20
-136.1958210922531
 30
0.0
 10
102.4051187895029
 20
-136.079549119626
 30
0.0
 10
102.3668782296166
 20
-136.0308010185097
 30
0.0
 10
102.3351833511523
 20
-135.9991061400454
 30
0.0
 10
102.2611137982195
 20
-135.9250365871125
 30
0.0
 10
102.144669570818
 20
-135.9124619885913
 30
0.0
 10
102.0898925526025
 20
-135.9124619885913
 30
0.0
 10
102.0706000178851
 20
-135.9124619885913
 30
0.0
 10
102.0347710248385
 20
-135.9145290458825
 30
0.0
 10
102.0072102609565
 20
-135.9186631604648
 30
0.0
 10
102.0072102609565
 20
-135.9186631604648
 30
0.0
 10
102.0072102609565
 20
-135.7240152655482
 30
0.0
 10
102.0072102609565
 20
-135.7240152655482
 30
0.0
 10
102.0454508208428
 20
-135.7303886921959
 30
0.0
 10
102.0874809857629
 20
-135.7326280042613
 30
0.0
 10
102.0940266671848
 20
-135.7326280042613
 30
0.0
 10
102.1594834814046
 20
-135.7326280042613
 30
0.0
 10
102.3582654909035
 20
-135.711440667027
 30
0.0
 10
102.3582654909035
 20
-135.4744180976418
 30
0.0
 10
102.3582654909035
 20
-135.2968234253772
 30
0.0
 10
102.227351862464
 20
-135.2417018976132
 30
0.0
 10
102.117108806936
 20
-135.2417018976132
 30
0.0
 10
101.8528699832173
 20
-135.2417018976132
 30
0.0
 10
101.8442572445042
 20
-135.4744180976418
 30
0.0
 10
101.8401231299219
 20
-135.5464205932835
 30
0.0
 10
101.8401231299219
 20
-135.5464205932835
 30
0.0
 10
101.6368624962922
 20
-135.5464205932835
 30
0.0
 10
101.6368624962922
 20
-135.5464205932835
 30
0.0
 10
101.6454752350053
 20
-135.4215358819432
 30
0.0
 10
101.6730359988873
 20
-135.0449869454054
 30
0.0
 10
102.1298556602314
 20
-135.0449869454054
 30
0.0
 10
102.3541313763212
 20
-135.0449869454054
 30
0.0
 10
102.5952880602887
 20
-135.1719387140369
 30
0.0
 10
102.5952880602887
 20
-135.4680446709941
 30
0.0
 10
102.5952880602887
 20
-135.6542520819719
 30
0.0
 10
102.5002034248958
 20
-135.7367621188436
 30
0.0
 10
102.4006401653721
 20
-135.798084818481
 30
0.0
 10
102.4619628650095
 20
-135.8256455823631
 30
0.0
 10
102.6438639066307
 20
-135.9060885619436
 30
0.0
 10
102.6438639066307
 20
-136.183246493732
 30
0.0
 10
102.6438639066307
 20
-136.5217271251578
 30
0.0
 10
102.3965060507898
 20
-136.6886420014181
 30
0.0
 10
102.1195203737757
 20
-136.6886420014181
 30
0.0
  0
HATCH
  5
F1
330
EC
100
AcDbEntity
  8
_U+30EC_U+30A4_U+30E4_U+30FC 1
 62
     7
420
 16777215
100
AcDbHatch
 10
0.0
 20
0.0
 30
0.0
210
0.0
220
0.0
230
1.0
  2
SOLID
 70
     1
 71
     0
 91
        1
 92
        1
 93
        1
 72
     4
 94
        3
 73
     0
 74
     1
 95
       62
 96
       58
 40
0.0
 40
0.0
 40
0.0
 40
0.0
 40
1.0
 40
1.0
 40
1.0
 40
2.0
 40
2.0
 40
2.0
 40
3.0
 40
3.0
 40
3.0
 40
4.0
 40
4.0
 40
4.0
 40
5.0
 40
5.0
 40
5.0
 40
6.0
 40
6.0
 40
6.0
 40
7.0
 40
7.0
 40
7.0
 40
8.0
 40
8.0
 40
8.0
 40
9.0
 40
9.0
 40
9.0
 40
10.0
 40
10.0
 40
10.0
 40
11.0
 40
11.0
 40
11.0
 40
12.0
 40
12.0
 40
12.0
 40
13.0
 40
13.0
 40
13.0
 40
14.0
 40
14.0
 40
14.0
 40
15.0
 40
15.0
 40
15.0
 40
16.0
 40
16.0
 40
16.0
 40
17.0
 40
17.0
 40
17.0
 40
18.0
 40
18.0
 40
18.0
 40
19.0
 40
19.0
 40
19.0
 40
19.0
 10
102.1195203737757
 20
-136.6886420014181
 10
102.0240912288343
 20
-136.6886420014181
 10
101.8063611941665
 20
-136.6676269189581
 10
101.6813042280519
 20
-136.4814195079803
 10
101.6075791846676
 20
-136.3692816499355
 10
101.6031005605367
 20
-136.269890645186
 10
101.5989664459544
 20
-136.1853135510231
 10
101.5989664459544
 20
-136.1853135510231
 10
101.8191080474619
 20
-136.1853135510231
 10
101.8191080474619
 20
-136.1853135510231
 10
101.821175104753
 20
-136.259383103956
 10
101.8315103912088
 20
-136.4941663612758
 10
102.1150417496449
 20
-136.4941663612758
 10
102.2525010595063
 20
-136.4941663612758
 10
102.4051187895029
 20
-136.4244031776995
 10
102.4051187895029
 20
-136.1958210922531
 10
102.4051187895029
 20
-136.079549119626
 10
102.3668782296166
 20
-136.0308010185097
 10
102.3351833511523
 20
-135.9991061400454
 10
102.2611137982195
 20
-135.9250365871125
 10
102.144669570818
 20
-135.9124619885913
 10
102.0898925526025
 20
-135.9124619885913
 10
102.0706000178851
 20
-135.9124619885913
 10
102.0347710248385
 20
-135.9145290458825
 10
102.0072102609565
 20
-135.9186631604648
 10
102.0072102609565
 20
-135.9186631604648
 10
102.0072102609565
 20
-135.7240152655482
 10
102.0072102609565
 20
-135.7240152655482
 10
102.0454508208428
 20
-135.7303886921959
 10
102.0874809857629
 20
-135.7326280042613
 10
102.0940266671848
 20
-135.7326280042613
 10
102.1594834814046
 20
-135.7326280042613
 10
102.3582654909035
 20
-135.711440667027
 10
102.3582654909035
 20
-135.4744180976418
 10
102.3582654909035
 20
-135.2968234253772
 10
102.227351862464
 20
-135.2417018976132
 10
102.117108806936
 20
-135.2417018976132
 10
101.8528699832173
 20
-135.2417018976132
 10
101.8442572445042
 20
-135.4744180976418
 10
101.8401231299219
 20
-135.5464205932835
 10
101.8401231299219
 20
-135.5464205932835
 10
101.6368624962922
 20
-135.5464205932835
 10
101.6368624962922
 20
-135.5464205932835
 10
101.6454752350053
 20
-135.4215358819432
 10
101.6730359988873
 20
-135.0449869454054
 10
102.1298556602314
 20
-135.0449869454054
 10
102.3541313763212
 20
-135.0449869454054
 10
102.5952880602887
 20
-135.1719387140369
 10
102.5952880602887
 20
-135.4680446709941
 10
102.5952880602887
 20
-135.6542520819719
 10
102.5002034248958
 20
-135.7367621188436
 10
102.4006401653721
 20
-135.798084818481
 10
102.4619628650095
 20
-135.8256455823631
 10
102.6438639066307
 20
-135.9060885619436
 10
102.6438639066307
 20
-136.183246493732
 10
102.6438639066307
 20
-136.5217271251578
 10
102.3965060507898
 20
-136.6886420014181
 10
102.1195203737757
 20
-136.6886420014181
 97
        0
 97
        0
 75
     2
 76
     1
 98
        0
  0
SPLINE
  5
F2
330
EC
100
AcDbEntity
  8
_U+30EC_U+30A4_U+30E4_U+30FC 1
370
     0
100
AcDbSpline
210
0.0
220
0.0
230
1.0
 70
    11
 71
     3
 72
    53
 73
    49
 74
     0
 42
0.0000000001
 43
0.0000000001
 12
1.0
 22
0.0
 32
0.0
 13
1.0
 23
0.0
 33
0.0
 40
0.0
 40
0.0
 40
0.0
 40
0.0
 40
1.0
 40
1.0
 40
1.0
 40
2.0
 40
2.0
 40
2.0
 40
3.0
 40
3.0
 40
3.0
 40
4.0
 40
4.0
 40
4.0
 40
5.0
 40
5.0
 40
5.0
 40
6.0
 40
6.0
 40
6.0
 40
7.0
 40
7.0
 40
7.0
 40
8.0
 40
8.0
 40
8.0
 40
9.0
 40
9.0
 40
9.0
 40
10.0
 40
10.0
 40
10.0
 40
11.0
 40
11.0
 40
11.0
 40
12.0
 40
12.0
 40
12.0
 40
13.0
 40
13.0
 40
13.0
 40
14.0
 40
14.0
 40
14.0
 40
15.0
 40
15.0
 40
15.0
 40
16.0
 40
16.0
 40
16.0
 40
16.0
 10
103.2856851955327
 20
-136.6886420014181
 30
0.0
 10
103.2074815280176
 20
-136.6886420014181
 30
0.0
 10
103.1058512112027
 20
-136.6717610335404
 30
0.0
 10
103.0042208943878
 20
-136.6083712766118
 30
0.0
 10
102.8309325914798
 20
-136.4983004758581
 30
0.0
 10
102.8095729994712
 20
-136.3672145926443
 30
0.0
 10
102.7906249743023
 20
-136.259383103956
 30
0.0
 10
102.7906249743023
 20
-136.259383103956
 30
0.0
 10
103.012833633101
 20
-136.259383103956
 30
0.0
 10
103.012833633101
 20
-136.259383103956
 30
0.0
 10
103.0676106513164
 20
-136.4581651134549
 30
0.0
 10
103.1947346747222
 20
-136.4877929346281
 30
0.0
 10
103.2877522528239
 20
-136.4877929346281
 30
0.0
 10
103.4272786199765
 20
-136.4877929346281
 30
0.0
 10
103.5795518404246
 20
-136.3884019298786
 30
0.0
 10
103.5795518404246
 20
-136.15568572985
 30
0.0
 10
103.5795518404246
 20
-135.8997151352959
 30
0.0
 10
103.3997178560945
 20
-135.8299519517196
 30
0.0
 10
103.2791395141108
 20
-135.8299519517196
 30
0.0
 10
103.2474446356465
 20
-135.8299519517196
 30
0.0
 10
103.1058512112027
 20
-135.8299519517196
 30
0.0
 10
103.0169677476833
 20
-135.9589707776422
 30
0.0
 10
103.0169677476833
 20
-135.9589707776422
 30
0.0
 10
102.8412678779355
 20
-135.9398504976991
 30
0.0
 10
102.8412678779355
 20
-135.9398504976991
 30
0.0
 10
102.8412678779355
 20
-135.9398504976991
 30
0.0
 10
102.9618462199193
 20
-135.0937350465217
 30
0.0
 10
102.9618462199193
 20
-135.0937350465217
 30
0.0
 10
102.9618462199193
 20
-135.0937350465217
 30
0.0
 10
103.7404377995857
 20
-135.0937350465217
 30
0.0
 10
103.7404377995857
 20
-135.0937350465217
 30
0.0
 10
103.7404377995857
 20
-135.0937350465217
 30
0.0
 10
103.7404377995857
 20
-135.2883829414383
 30
0.0
 10
103.7404377995857
 20
-135.2883829414383
 30
0.0
 10
103.7404377995857
 20
-135.2883829414383
 30
0.0
 10
103.1247992363716
 20
-135.2883829414383
 30
0.0
 10
103.1247992363716
 20
-135.2883829414383
 30
0.0
 10
103.1247992363716
 20
-135.2883829414383
 30
0.0
 10
103.0593424221518
 20
-135.711440667027
 30
0.0
 10
103.0593424221518
 20
-135.711440667027
 30
0.0
 10
103.1206651217893
 20
-135.6775064764973
 30
0.0
 10
103.2030029038868
 20
-135.6373711140941
 30
0.0
 10
103.3215141885793
 20
-135.6373711140941
 30
0.0
 10
103.5754177258423
 20
-135.6373711140941
 30
0.0
 10
103.8124402952274
 20
-135.8235785250719
 30
0.0
 10
103.8124402952274
 20
-136.1365654499068
 30
0.0
 10
103.8124402952274
 20
-136.4540309988726
 30
0.0
 10
103.5881645791377
 20
-136.6886420014181
 30
0.0
 10
103.2856851955327
 20
-136.6886420014181
 30
0.0
  0
HATCH
  5
F3
330
EC
100
AcDbEntity
  8
_U+30EC_U+30A4_U+30E4_U+30FC 1
 62
     7
420
 16777215
100
AcDbHatch
 10
0.0
 20
0.0
 30
0.0
210
0.0
220
0.0
230
1.0
  2
SOLID
 70
     1
 71
     0
 91
        1
 92
        1
 93
        1
 72
     4
 94
        3
 73
     0
 74
     1
 95
       53
 96
       49
 40
0.0
 40
0.0
 40
0.0
 40
0.0
 40
1.0
 40
1.0
 40
1.0
 40
2.0
 40
2.0
 40
2.0
 40
3.0
 40
3.0
 40
3.0
 40
4.0
 40
4.0
 40
4.0
 40
5.0
 40
5.0
 40
5.0
 40
6.0
 40
6.0
 40
6.0
 40
7.0
 40
7.0
 40
7.0
 40
8.0
 40
8.0
 40
8.0
 40
9.0
 40
9.0
 40
9.0
 40
10.0
 40
10.0
 40
10.0
 40
11.0
 40
11.0
 40
11.0
 40
12.0
 40
12.0
 40
12.0
 40
13.0
 40
13.0
 40
13.0
 40
14.0
 40
14.0
 40
14.0
 40
15.0
 40
15.0
 40
15.0
 40
16.0
 40
16.0
 40
16.0
 40
16.0
 10
103.2856851955327
 20
-136.6886420014181
 10
103.2074815280176
 20
-136.6886420014181
 10
103.1058512112027
 20
-136.6717610335404
 10
103.0042208943878
 20
-136.6083712766118
 10
102.8309325914798
 20
-136.4983004758581
 10
102.8095729994712
 20
-136.3672145926443
 10
102.7906249743023
 20
-136.259383103956
 10
102.7906249743023
 20
-136.259383103956
 10
103.012833633101
 20
-136.259383103956
 10
103.012833633101
 20
-136.259383103956
 10
103.0676106513164
 20
-136.4581651134549
 10
103.1947346747222
 20
-136.4877929346281
 10
103.2877522528239
 20
-136.4877929346281
 10
103.4272786199765
 20
-136.4877929346281
 10
103.5795518404246
 20
-136.3884019298786
 10
103.5795518404246
 20
-136.15568572985
 10
103.5795518404246
 20
-135.8997151352959
 10
103.3997178560945
 20
-135.8299519517196
 10
103.2791395141108
 20
-135.8299519517196
 10
103.2474446356465
 20
-135.8299519517196
 10
103.1058512112027
 20
-135.8299519517196
 10
103.0169677476833
 20
-135.9589707776422
 10
103.0169677476833
 20
-135.9589707776422
 10
102.8412678779355
 20
-135.9398504976991
 10
102.8412678779355
 20
-135.9398504976991
 10
102.8412678779355
 20
-135.9398504976991
 10
102.9618462199193
 20
-135.0937350465217
 10
102.9618462199193
 20
-135.0937350465217
 10
102.9618462199193
 20
-135.0937350465217
 10
103.7404377995857
 20
-135.0937350465217
 10
103.7404377995857
 20
-135.0937350465217
 10
103.7404377995857
 20
-135.0937350465217
 10
103.7404377995857
 20
-135.2883829414383
 10
103.7404377995857
 20
-135.2883829414383
 10
103.7404377995857
 20
-135.2883829414383
 10
103.1247992363716
 20
-135.2883829414383
 10
103.1247992363716
 20
-135.2883829414383
 10
103.1247992363716
 20
-135.2883829414383
 10
103.0593424221518
 20
-135.711440667027
 10
103.0593424221518
 20
-135.711440667027
 10
103.1206651217893
 20
-135.6775064764973
 10
103.2030029038868
 20
-135.6373711140941
 10
103.3215141885793
 20
-135.6373711140941
 10
103.5754177258423
 20
-135.6373711140941
 10
103.8124402952274
 20
-135.8235785250719
 10
103.8124402952274
 20
-136.1365654499068
 10
103.8124402952274
 20
-136.4540309988726
 10
103.5881645791377
 20
-136.6886420014181
 10
103.2856851955327
 20
-136.6886420014181
 97
        0
 97
        0
 75
     2
 76
     1
 98
        0
  0
ENDBLK
  5
EF
330
EC
100
AcDbEntity
  8
0
100
AcDbBlockEnd
  0
BLOCK
  5
FE
330
FC
100
AcDbEntity
  8
0
100
AcDbBlockBegin
  2
block 7
 70
     0
 10
0.0
 20
0.0
 30
0.0
  3
block 7
  1

  0
SPLINE
  5
100
330
FC
100
AcDbEntity
  8
_U+30EC_U+30A4_U+30E4_U+30FC 1
370
     0
100
AcDbSpline
210
0.0
220
0.0
230
1.0
 70
    11
 71
     3
 72
    26
 73
    22
 74
     0
 42
0.0000000001
 43
0.0000000001
 12
1.0
 22
0.0
 32
0.0
 13
1.0
 23
0.0
 33
0.0
 40
0.0
 40
0.0
 40
0.0
 40
0.0
 40
1.0
 40
1.0
 40
1.0
 40
2.0
 40
2.0
 40
2.0
 40
3.0
 40
3.0
 40
3.0
 40
4.0
 40
4.0
 40
4.0
 40
5.0
 40
5.0
 40
5.0
 40
6.0
 40
6.0
 40
6.0
 40
7.0
 40
7.0
 40
7.0
 40
7.0
 10
89.57920055269201
 20
-156.8379719659989
 30
0.0
 10
89.57920055269201
 20
-156.8379719659989
 30
0.0
 10
89.57920055269201
 20
-155.7338188629763
 30
0.0
 10
89.57920055269201
 20
-155.7338188629763
 30
0.0
 10
89.57920055269201
 20
-155.7338188629763
 30
0.0
 10
89.24916040520507
 20
-155.7338188629763
 30
0.0
 10
89.24916040520507
 20
-155.7338188629763
 30
0.0
 10
89.24916040520507
 20
-155.7338188629763
 30
0.0
 10
89.24916040520507
 20
-155.5856797571105
 30
0.0
 10
89.24916040520507
 20
-155.5856797571105
 30
0.0
 10
89.58126760998316
 20
-155.570865846524
 30
0.0
 10
89.62777639903403
 20
-155.4079128300716
 30
0.0
 10
89.65740422020718
 20
-155.2935356599613
 30
0.0
 10
89.65740422020718
 20
-155.2935356599613
 30
0.0
 10
89.80347626878178
 20
-155.2935356599613
 30
0.0
 10
89.80347626878178
 20
-155.2935356599613
 30
0.0
 10
89.80347626878178
 20
-155.2935356599613
 30
0.0
 10
89.80347626878178
 20
-156.8379719659989
 30
0.0
 10
89.80347626878178
 20
-156.8379719659989
 30
0.0
 10
89.80347626878178
 20
-156.8379719659989
 30
0.0
 10
89.57920055269201
 20
-156.8379719659989
 30
0.0
 10
89.57920055269201
 20
-156.8379719659989
 30
0.0
  0
HATCH
  5
101
330
FC
100
AcDbEntity
  8
_U+30EC_U+30A4_U+30E4_U+30FC 1
 62
     7
420
 16777215
100
AcDbHatch
 10
0.0
 20
0.0
 30
0.0
210
0.0
220
0.0
230
1.0
  2
SOLID
 70
     1
 71
     0
 91
        1
 92
        1
 93
        1
 72
     4
 94
        3
 73
     0
 74
     1
 95
       26
 96
       22
 40
0.0
 40
0.0
 40
0.0
 40
0.0
 40
1.0
 40
1.0
 40
1.0
 40
2.0
 40
2.0
 40
2.0
 40
3.0
 40
3.0
 40
3.0
 40
4.0
 40
4.0
 40
4.0
 40
5.0
 40
5.0
 40
5.0
 40
6.0
 40
6.0
 40
6.0
 40
7.0
 40
7.0
 40
7.0
 40
7.0
 10
89.57920055269201
 20
-156.8379719659989
 10
89.57920055269201
 20
-156.8379719659989
 10
89.57920055269201
 20
-155.7338188629763
 10
89.57920055269201
 20
-155.7338188629763
 10
89.57920055269201
 20
-155.7338188629763
 10
89.24916040520507
 20
-155.7338188629763
 10
89.24916040520507
 20
-155.7338188629763
 10
89.24916040520507
 20
-155.7338188629763
 10
89.24916040520507
 20
-155.5856797571105
 10
89.24916040520507
 20
-155.5856797571105
 10
89.58126760998316
 20
-155.570865846524
 10
89.62777639903403
 20
-155.4079128300716
 10
89.65740422020718
 20
-155.2935356599613
 10
89.65740422020718
 20
-155.2935356599613
 10
89.80347626878178
 20
-155.2935356599613
 10
89.80347626878178
 20
-155.2935356599613
 10
89.80347626878178
 20
-155.2935356599613
 10
89.80347626878178
 20
-156.8379719659989
 10
89.80347626878178
 20
-156.8379719659989
 10
89.80347626878178
 20
-156.8379719659989
 10
89.57920055269201
 20
-156.8379719659989
 10
89.57920055269201
 20
-156.8379719659989
 97
        0
 97
        0
 75
     2
 76
     1
 98
        0
  0
SPLINE
  5
102
330
FC
100
AcDbEntity
  8
_U+30EC_U+30A4_U+30E4_U+30FC 1
370
     0
100
AcDbSpline
210
0.0
220
0.0
230
1.0
 70
    11
 71
     3
 72
    29
 73
    25
 74
     0
 42
0.0000000001
 43
0.0000000001
 12
1.0
 22
0.0
 32
0.0
 13
1.0
 23
0.0
 33
0.0
 40
0.0
 40
0.0
 40
0.0
 40
0.0
 40
1.0
 40
1.0
 40
1.0
 40
2.0
 40
2.0
 40
2.0
 40
3.0
 40
3.0
 40
3.0
 40
4.0
 40
4.0
 40
4.0
 40
5.0
 40
5.0
 40
5.0
 40
6.0
 40
6.0
 40
6.0
 40
7.0
 40
7.0
 40
7.0
 40
8.0
 40
8.0
 40
8.0
 40
8.0
 10
91.20235729056748
 20
-156.66020503896
 30
0.0
 10
91.09452580187914
 20
-156.8696668444632
 30
0.0
 10
90.92106524419683
 20
-156.888614869632
 30
0.0
 10
90.80462101679538
 20
-156.888614869632
 30
0.0
 10
90.64390731240847
 20
-156.888614869632
 30
0.0
 10
90.50214163319045
 20
-156.8421060805811
 30
0.0
 10
90.40688474302328
 20
-156.66020503896
 30
0.0
 10
90.30335962369152
 20
-156.4655571440433
 30
0.0
 10
90.28423934374838
 20
-156.2288790842067
 30
0.0
 10
90.28423934374838
 20
-156.0659260677544
 30
0.0
 10
90.28423934374838
 20
-155.9219210764709
 30
0.0
 10
90.30112031162611
 20
-155.6700845964992
 30
0.0
 10
90.40688474302328
 20
-155.4713025870002
 30
0.0
 10
90.51488848648586
 20
-155.268386462919
 30
0.0
 10
90.67560219087277
 20
-155.2449598136193
 30
0.0
 10
90.80462101679538
 20
-155.2449598136193
 30
0.0
 10
90.96326766389113
 20
-155.2449598136193
 30
0.0
 10
91.10710040040031
 20
-155.289401545379
 30
0.0
 10
91.20235729056748
 20
-155.4713025870002
 30
0.0
 10
91.30174829531693
 20
-155.6638834246257
 30
0.0
 10
91.32500268984236
 20
-155.8922932552978
 30
0.0
 10
91.32500268984236
 20
-156.0659260677544
 30
0.0
 10
91.32500268984236
 20
-156.2371473133713
 30
0.0
 10
91.30398760738234
 20
-156.4676242013345
 30
0.0
 10
91.20235729056748
 20
-156.66020503896
 30
0.0
  0
SPLINE
  5
103
330
FC
100
AcDbEntity
  8
_U+30EC_U+30A4_U+30E4_U+30FC 1
370
     0
100
AcDbSpline
210
0.0
220
0.0
230
1.0
 70
    11
 71
     3
 72
    17
 73
    13
 74
     0
 42
0.0000000001
 43
0.0000000001
 12
1.0
 22
0.0
 32
0.0
 13
1.0
 23
0.0
 33
0.0
 40
0.0
 40
0.0
 40
0.0
 40
0.0
 40
1.0
 40
1.0
 40
1.0
 40
2.0
 40
2.0
 40
2.0
 40
3.0
 40
3.0
 40
3.0
 40
4.0
 40
4.0
 40
4.0
 40
4.0
 10
90.80462101679538
 20
-155.4375406512448
 30
0.0
 10
90.55502384888902
 20
-155.4375406512448
 30
0.0
 10
90.50851505983815
 20
-155.7210720096809
 30
0.0
 10
90.50851505983815
 20
-156.0659260677544
 30
0.0
 10
90.50851505983815
 20
-156.385286419237
 30
0.0
 10
90.54451630765901
 20
-156.6939669747154
 30
0.0
 10
90.80462101679538
 20
-156.6939669747154
 30
0.0
 10
91.05215112741058
 20
-156.6939669747154
 30
0.0
 10
91.10089922852686
 20
-156.412847183119
 30
0.0
 10
91.10089922852686
 20
-156.0659260677544
 30
0.0
 10
91.10089922852686
 20
-155.7462212067232
 30
0.0
 10
91.06283092341485
 20
-155.4375406512448
 30
0.0
 10
90.80462101679538
 20
-155.4375406512448
 30
0.0
  0
HATCH
  5
104
330
FC
100
AcDbEntity
  8
_U+30EC_U+30A4_U+30E4_U+30FC 1
 62
     7
420
 16777215
100
AcDbHatch
 10
0.0
 20
0.0
 30
0.0
210
0.0
220
0.0
230
1.0
  2
SOLID
 70
     1
 71
     0
 91
        2
 92
        1
 93
        1
 72
     4
 94
        3
 73
     0
 74
     1
 95
       29
 96
       25
 40
0.0
 40
0.0
 40
0.0
 40
0.0
 40
1.0
 40
1.0
 40
1.0
 40
2.0
 40
2.0
 40
2.0
 40
3.0
 40
3.0
 40
3.0
 40
4.0
 40
4.0
 40
4.0
 40
5.0
 40
5.0
 40
5.0
 40
6.0
 40
6.0
 40
6.0
 40
7.0
 40
7.0
 40
7.0
 40
8.0
 40
8.0
 40
8.0
 40
8.0
 10
91.20235729056748
 20
-156.66020503896
 10
91.09452580187914
 20
-156.8696668444632
 10
90.92106524419683
 20
-156.888614869632
 10
90.80462101679538
 20
-156.888614869632
 10
90.64390731240847
 20
-156.888614869632
 10
90.50214163319045
 20
-156.8421060805811
 10
90.40688474302328
 20
-156.66020503896
 10
90.30335962369152
 20
-156.4655571440433
 10
90.28423934374838
 20
-156.2288790842067
 10
90.28423934374838
 20
-156.0659260677544
 10
90.28423934374838
 20
-155.9219210764709
 10
90.30112031162611
 20
-155.6700845964992
 10
90.40688474302328
 20
-155.4713025870002
 10
90.51488848648586
 20
-155.268386462919
 10
90.67560219087277
 20
-155.2449598136193
 10
90.80462101679538
 20
-155.2449598136193
 10
90.96326766389113
 20
-155.2449598136193
 10
91.10710040040031
 20
-155.289401545379
 10
91.20235729056748
 20
-155.4713025870002
 10
91.30174829531693
 20
-155.6638834246257
 10
91.32500268984236
 20
-155.8922932552978
 10
91.32500268984236
 20
-156.0659260677544
 10
91.32500268984236
 20
-156.2371473133713
 10
91.30398760738234
 20
-156.4676242013345
 10
91.20235729056748
 20
-156.66020503896
 97
        0
 97
        0
 92
        1
 93
        1
 72
     4
 94
        3
 73
     0
 74
     1
 95
       17
 96
       13
 40
0.0
 40
0.0
 40
0.0
 40
0.0
 40
1.0
 40
1.0
 40
1.0
 40
2.0
 40
2.0
 40
2.0
 40
3.0
 40
3.0
 40
3.0
 40
4.0
 40
4.0
 40
4.0
 40
4.0
 10
90.80462101679538
 20
-155.4375406512448
 10
90.55502384888902
 20
-155.4375406512448
 10
90.50851505983815
 20
-155.7210720096809
 10
90.50851505983815
 20
-156.0659260677544
 10
90.50851505983815
 20
-156.385286419237
 10
90.54451630765901
 20
-156.6939669747154
 10
90.80462101679538
 20
-156.6939669747154
 10
91.05215112741058
 20
-156.6939669747154
 10
91.10089922852686
 20
-156.412847183119
 10
91.10089922852686
 20
-156.0659260677544
 10
91.10089922852686
 20
-155.7462212067232
 10
91.06283092341485
 20
-155.4375406512448
 10
90.80462101679538
 20
-155.4375406512448
 97
        0
 97
        0
 75
     2
 76
     1
 98
        0
  0
ENDBLK
  5
FF
330
FC
100
AcDbEntity
  8
0
100
AcDbBlockEnd
  0
BLOCK
  5
10B
330
109
100
AcDbEntity
  8
0
100
AcDbBlockBegin
  2
block 8
 70
     0
 10
0.0
 20
0.0
 30
0.0
  3
block 8
  1

  0
SPLINE
  5
10D
330
109
100
AcDbEntity
  8
_U+30EC_U+30A4_U+30E4_U+30FC 1
370
     0
100
AcDbSpline
210
0.0
220
0.0
230
1.0
 70
    11
 71
     3
 72
    17
 73
    13
 74
     0
 42
0.0000000001
 43
0.0000000001
 12
1.0
 22
0.0
 32
0.0
 13
1.0
 23
0.0
 33
0.0
 40
0.0
 40
0.0
 40
0.0
 40
0.0
 40
1.0
 40
1.0
 40
1.0
 40
2.0
 40
2.0
 40
2.0
 40
3.0
 40
3.0
 40
3.0
 40
4.0
 40
4.0
 40
4.0
 40
4.0
 10
108.5373887532476
 20
-158.0640814491993
 30
0.0
 10
108.4316243218504
 20
-157.9583170178021
 30
0.0
 10
108.3510090874956
 20
-157.9204209674643
 30
0.0
 10
108.2579915093938
 20
-157.888726089
 30
0.0
 10
108.2579915093938
 20
-157.888726089
 30
0.0
 10
108.3682345649218
 20
-157.7237060152566
 30
0.0
 10
108.3682345649218
 20
-157.7237060152566
 30
0.0
 10
108.4653862576059
 20
-157.7660806897252
 30
0.0
 10
108.5859645995896
 20
-157.8442843572403
 30
0.0
 10
108.6390190700625
 20
-157.8990613754558
 30
0.0
 10
108.6390190700625
 20
-157.8990613754558
 30
0.0
 10
108.5373887532476
 20
-158.0640814491993
 30
0.0
 10
108.5373887532476
 20
-158.0640814491993
 30
0.0
  0
SPLINE
  5
10E
330
109
100
AcDbEntity
  8
_U+30EC_U+30A4_U+30E4_U+30FC 1
370
     0
100
AcDbSpline
210
0.0
220
0.0
230
1.0
 70
    11
 71
     3
 72
   182
 73
   178
 74
     0
 42
0.0000000001
 43
0.0000000001
 12
1.0
 22
0.0
 32
0.0
 13
1.0
 23
0.0
 33
0.0
 40
0.0
 40
0.0
 40
0.0
 40
0.0
 40
1.0
 40
1.0
 40
1.0
 40
2.0
 40
2.0
 40
2.0
 40
3.0
 40
3.0
 40
3.0
 40
4.0
 40
4.0
 40
4.0
 40
5.0
 40
5.0
 40
5.0
 40
6.0
 40
6.0
 40
6.0
 40
7.0
 40
7.0
 40
7.0
 40
8.0
 40
8.0
 40
8.0
 40
9.0
 40
9.0
 40
9.0
 40
10.0
 40
10.0
 40
10.0
 40
11.0
 40
11.0
 40
11.0
 40
12.0
 40
12.0
 40
12.0
 40
13.0
 40
13.0
 40
13.0
 40
14.0
 40
14.0
 40
14.0
 40
15.0
 40
15.0
 40
15.0
 40
16.0
 40
16.0
 40
16.0
 40
17.0
 40
17.0
 40
17.0
 40
18.0
 40
18.0
 40
18.0
 40
19.0
 40
19.0
 40
19.0
 40
20.0
 40
20.0
 40
20.0
 40
21.0
 40
21.0
 40
21.0
 40
22.0
 40
22.0
 40
22.0
 40
23.0
 40
23.0
 40
23.0
 40
24.0
 40
24.0
 40
24.0
 40
25.0
 40
25.0
 40
25.0
 40
26.0
 40
26.0
 40
26.0
 40
27.0
 40
27.0
 40
27.0
 40
28.0
 40
28.0
 40
28.0
 40
29.0
 40
29.0
 40
29.0
 40
30.0
 40
30.0
 40
30.0
 40
31.0
 40
31.0
 40
31.0
 40
32.0
 40
32.0
 40
32.0
 40
33.0
 40
33.0
 40
33.0
 40
34.0
 40
34.0
 40
34.0
 40
35.0
 40
35.0
 40
35.0
 40
36.0
 40
36.0
 40
36.0
 40
37.0
 40
37.0
 40
37.0
 40
38.0
 40
38.0
 40
38.0
 40
39.0
 40
39.0
 40
39.0
 40
40.0
 40
40.0
 40
40.0
 40
41.0
 40
41.0
 40
41.0
 40
42.0
 40
42.0
 40
42.0
 40
43.0
 40
43.0
 40
43.0
 40
44.0
 40
44.0
 40
44.0
 40
45.0
 40
45.0
 40
45.0
 40
46.0
 40
46.0
 40
46.0
 40
47.0
 40
47.0
 40
47.0
 40
48.0
 40
48.0
 40
48.0
 40
49.0
 40
49.0
 40
49.0
 40
50.0
 40
50.0
 40
50.0
 40
51.0
 40
51.0
 40
51.0
 40
52.0
 40
52.0
 40
52.0
 40
53.0
 40
53.0
 40
53.0
 40
54.0
 40
54.0
 40
54.0
 40
55.0
 40
55.0
 40
55.0
 40
56.0
 40
56.0
 40
56.0
 40
57.0
 40
57.0
 40
57.0
 40
58.0
 40
58.0
 40
58.0
 40
59.0
 40
59.0
 40
59.0
 40
59.0
 10
109.5822862139239
 20
-159.2426486147032
 30
0.0
 10
109.5822862139239
 20
-159.2426486147032
 30
0.0
 10
108.9456325682497
 20
-159.2426486147032
 30
0.0
 10
108.9456325682497
 20
-159.2426486147032
 30
0.0
 10
108.7320366481642
 20
-159.2426486147032
 30
0.0
 10
108.516029161239
 20
-159.2467827292855
 30
0.0
 10
108.3024332411536
 20
-159.259529582581
 30
0.0
 10
108.3024332411536
 20
-159.259529582581
 30
0.0
 10
108.3024332411536
 20
-159.0521348343689
 30
0.0
 10
108.3024332411536
 20
-159.0521348343689
 30
0.0
 10
108.5246418999522
 20
-159.0648816876644
 30
0.0
 10
108.8481363660171
 20
-159.0690158022466
 30
0.0
 10
108.9456325682497
 20
-159.0690158022466
 30
0.0
 10
108.9456325682497
 20
-159.0690158022466
 30
0.0
 10
109.1657741697572
 20
-159.0690158022466
 30
0.0
 10
109.1657741697572
 20
-159.0690158022466
 30
0.0
 10
109.1657741697572
 20
-159.0690158022466
 30
0.0
 10
109.1657741697572
 20
-158.9274223778029
 30
0.0
 10
109.1657741697572
 20
-158.9274223778029
 30
0.0
 10
109.1657741697572
 20
-158.9274223778029
 30
0.0
 10
109.004888210596
 20
-158.9274223778029
 30
0.0
 10
109.004888210596
 20
-158.9274223778029
 30
0.0
 10
108.8398681368525
 20
-158.9274223778029
 30
0.0
 10
108.6748480631091
 20
-158.9315564923852
 30
0.0
 10
108.5098279893656
 20
-158.9463704029718
 30
0.0
 10
108.5098279893656
 20
-158.9463704029718
 30
0.0
 10
108.5098279893656
 20
-158.7369085974686
 30
0.0
 10
108.5098279893656
 20
-158.7369085974686
 30
0.0
 10
108.6810492349825
 20
-158.7517225080551
 30
0.0
 10
108.928751600372
 20
-158.7558566226374
 30
0.0
 10
109.004888210596
 20
-158.7558566226374
 30
0.0
 10
109.004888210596
 20
-158.7558566226374
 30
0.0
 10
109.1657741697572
 20
-158.7558566226374
 30
0.0
 10
109.1657741697572
 20
-158.7558566226374
 30
0.0
 10
109.1612955456263
 20
-158.6841986365442
 30
0.0
 10
109.1612955456263
 20
-158.6776529551223
 30
0.0
 10
109.1550943737529
 20
-158.6249429941979
 30
0.0
 10
109.1550943737529
 20
-158.6249429941979
 30
0.0
 10
109.2946207409055
 20
-158.6397569047845
 30
0.0
 10
109.2946207409055
 20
-158.6397569047845
 30
0.0
 10
109.2946207409055
 20
-158.6397569047845
 30
0.0
 10
109.1954019909303
 20
-158.4681911496191
 30
0.0
 10
109.1954019909303
 20
-158.4681911496191
 30
0.0
 10
109.2419107799812
 20
-158.474736831041
 30
0.0
 10
109.3159803329141
 20
-158.4830050602056
 30
0.0
 10
109.3328613007918
 20
-158.4830050602056
 30
0.0
 10
109.383504204425
 20
-158.4830050602056
 30
0.0
 10
109.4003851723027
 20
-158.4619899777456
 30
0.0
 10
109.4003851723027
 20
-158.4048013926905
 30
0.0
 10
109.4003851723027
 20
-158.4048013926905
 30
0.0
 10
109.4003851723027
 20
-158.267342082829
 30
0.0
 10
109.4003851723027
 20
-158.267342082829
 30
0.0
 10
109.4003851723027
 20
-158.267342082829
 30
0.0
 10
109.2946207409055
 20
-158.267342082829
 30
0.0
 10
109.2946207409055
 20
-158.267342082829
 30
0.0
 10
109.1612955456263
 20
-158.267342082829
 30
0.0
 10
109.004888210596
 20
-158.267342082829
 30
0.0
 10
108.8822428113211
 20
-158.2800889361244
 30
0.0
 10
108.8822428113211
 20
-158.2800889361244
 30
0.0
 10
108.8822428113211
 20
-158.0895751557901
 30
0.0
 10
108.8822428113211
 20
-158.0895751557901
 30
0.0
 10
109.0493299423557
 20
-158.1064561236678
 30
0.0
 10
109.2798068303189
 20
-158.108523180959
 30
0.0
 10
109.2946207409055
 20
-158.108523180959
 30
0.0
 10
109.2946207409055
 20
-158.108523180959
 30
0.0
 10
109.4003851723027
 20
-158.108523180959
 30
0.0
 10
109.4003851723027
 20
-158.108523180959
 30
0.0
 10
109.4003851723027
 20
-158.108523180959
 30
0.0
 10
109.4003851723027
 20
-157.9776095525195
 30
0.0
 10
109.4003851723027
 20
-157.9776095525195
 30
0.0
 10
109.4003851723027
 20
-157.9776095525195
 30
0.0
 10
109.3624891219649
 20
-157.9776095525195
 30
0.0
 10
109.3624891219649
 20
-157.9776095525195
 30
0.0
 10
109.3180473902052
 20
-157.9776095525195
 30
0.0
 10
109.1929904240907
 20
-157.9817436671018
 30
0.0
 10
109.1041069605712
 20
-157.9900118962664
 30
0.0
 10
109.1041069605712
 20
-157.9900118962664
 30
0.0
 10
109.1041069605712
 20
-157.9097411714601
 30
0.0
 10
109.1041069605712
 20
-157.9097411714601
 30
0.0
 10
109.0513969996469
 20
-157.9479817313463
 30
0.0
 10
109.025903293056
 20
-157.9627956419329
 30
0.0
 10
108.9835286185875
 20
-157.9858777816841
 30
0.0
 10
108.9835286185875
 20
-157.9858777816841
 30
0.0
 10
108.7954264050928
 20
-157.8570312105358
 30
0.0
 10
108.7954264050928
 20
-157.8570312105358
 30
0.0
 10
108.873630072608
 20
-157.8229247652318
 30
0.0
 10
109.0303819171869
 20
-157.7595350083032
 30
0.0
 10
109.1867892522172
 20
-157.6158745265683
 30
0.0
 10
109.2691270343147
 20
-157.5373263495046
 30
0.0
 10
109.3476752113784
 20
-157.4529215101159
 30
0.0
 10
109.4003851723027
 20
-157.3512911933011
 30
0.0
 10
109.4003851723027
 20
-157.3512911933011
 30
0.0
 10
109.611914035097
 20
-157.4126138929385
 30
0.0
 10
109.611914035097
 20
-157.4126138929385
 30
0.0
 10
109.6312065698144
 20
-157.418815064812
 30
0.0
 10
109.6415418562702
 20
-157.4274278035251
 30
0.0
 10
109.6415418562702
 20
-157.4401746568205
 30
0.0
 10
109.6415418562702
 20
-157.4570556246983
 30
0.0
 10
109.6287950029748
 20
-157.4632567965717
 30
0.0
 10
109.6036458059324
 20
-157.4760036498671
 30
0.0
 10
109.6839165307387
 20
-157.5734998520997
 30
0.0
 10
109.8468695471911
 20
-157.6706515447837
 30
0.0
 10
109.8806314829465
 20
-157.6895995699526
 30
0.0
 10
110.0308376461034
 20
-157.778483033472
 30
0.0
 10
110.1452148162137
 20
-157.8060437973541
 30
0.0
 10
110.2234184837289
 20
-157.8249918225229
 30
0.0
 10
110.2234184837289
 20
-157.8249918225229
 30
0.0
 10
110.1049071990363
 20
-157.9944905203972
 30
0.0
 10
110.1049071990363
 20
-157.9944905203972
 30
0.0
 10
110.0201578500991
 20
-157.9648626992241
 30
0.0
 10
109.969514946466
 20
-157.9459146740552
 30
0.0
 10
109.8510036617734
 20
-157.8801133502869
 30
0.0
 10
109.8510036617734
 20
-157.8801133502869
 30
0.0
 10
109.8510036617734
 20
-157.9900118962664
 30
0.0
 10
109.8510036617734
 20
-157.9900118962664
 30
0.0
 10
109.7686658796759
 20
-157.9817436671018
 30
0.0
 10
109.6415418562702
 20
-157.9776095525195
 30
0.0
 10
109.5888318953458
 20
-157.9776095525195
 30
0.0
 10
109.5888318953458
 20
-157.9776095525195
 30
0.0
 10
109.5888318953458
 20
-158.108523180959
 30
0.0
 10
109.5888318953458
 20
-158.108523180959
 30
0.0
 10
109.5888318953458
 20
-158.108523180959
 30
0.0
 10
109.7094102373296
 20
-158.108523180959
 30
0.0
 10
109.7094102373296
 20
-158.108523180959
 30
0.0
 10
109.7114772946207
 20
-158.108523180959
 30
0.0
 10
109.9440212398751
 20
-158.1064561236678
 30
0.0
 10
110.121788166914
 20
-158.0895751557901
 30
0.0
 10
110.121788166914
 20
-158.0895751557901
 30
0.0
 10
110.121788166914
 20
-158.2800889361244
 30
0.0
 10
110.121788166914
 20
-158.2800889361244
 30
0.0
 10
109.9929415957657
 20
-158.267342082829
 30
0.0
 10
109.8361897511868
 20
-158.267342082829
 30
0.0
 10
109.7094102373296
 20
-158.267342082829
 30
0.0
 10
109.7094102373296
 20
-158.267342082829
 30
0.0
 10
109.5888318953458
 20
-158.267342082829
 30
0.0
 10
109.5888318953458
 20
-158.267342082829
 30
0.0
 10
109.5888318953458
 20
-158.267342082829
 30
0.0
 10
109.5888318953458
 20
-158.4936848562099
 30
0.0
 10
109.5888318953458
 20
-158.4936848562099
 30
0.0
 10
109.5888318953458
 20
-158.6121961409025
 30
0.0
 10
109.563338188755
 20
-158.6480251339491
 30
0.0
 10
109.4024522295938
 20
-158.6628390445357
 30
0.0
 10
109.4069308537247
 20
-158.6817870697046
 30
0.0
 10
109.4003851723027
 20
-158.6924668657088
 30
0.0
 10
109.3624891219649
 20
-158.7158935150085
 30
0.0
 10
109.3604220646738
 20
-158.7348415401774
 30
0.0
 10
109.3604220646738
 20
-158.7410427120509
 30
0.0
 10
109.3580104978341
 20
-158.7558566226374
 30
0.0
 10
109.3580104978341
 20
-158.7558566226374
 30
0.0
 10
109.4954698076956
 20
-158.7558566226374
 30
0.0
 10
109.4954698076956
 20
-158.7558566226374
 30
0.0
 10
109.660489881439
 20
-158.7558566226374
 30
0.0
 10
109.8279215220222
 20
-158.7517225080551
 30
0.0
 10
109.9950086530568
 20
-158.7369085974686
 30
0.0
 10
109.9950086530568
 20
-158.7369085974686
 30
0.0
 10
109.9950086530568
 20
-158.9443033456806
 30
0.0
 10
109.9950086530568
 20
-158.9443033456806
 30
0.0
 10
109.7790011661316
 20
-158.9274223778029
 30
0.0
 10
109.514762342413
 20
-158.9274223778029
 30
0.0
 10
109.4954698076956
 20
-158.9274223778029
 30
0.0
 10
109.4954698076956
 20
-158.9274223778029
 30
0.0
 10
109.355943440543
 20
-158.9274223778029
 30
0.0
 10
109.355943440543
 20
-158.9274223778029
 30
0.0
 10
109.355943440543
 20
-158.9274223778029
 30
0.0
 10
109.355943440543
 20
-159.0690158022466
 30
0.0
 10
109.355943440543
 20
-159.0690158022466
 30
0.0
 10
109.355943440543
 20
-159.0690158022466
 30
0.0
 10
109.5822862139239
 20
-159.0690158022466
 30
0.0
 10
109.5822862139239
 20
-159.0690158022466
 30
0.0
 10
109.798293700849
 20
-159.0690158022466
 30
0.0
 10
110.0160237355168
 20
-159.0648816876644
 30
0.0
 10
110.2316867128935
 20
-159.0521348343689
 30
0.0
 10
110.2316867128935
 20
-159.0521348343689
 30
0.0
 10
110.2316867128935
 20
-159.259529582581
 30
0.0
 10
110.2316867128935
 20
-159.259529582581
 30
0.0
 10
109.9505669212971
 20
-159.2426486147032
 30
0.0
 10
109.6057128632236
 20
-159.2426486147032
 30
0.0
 10
109.5822862139239
 20
-159.2426486147032
 30
0.0
  0
SPLINE
  5
10F
330
109
100
AcDbEntity
  8
_U+30EC_U+30A4_U+30E4_U+30FC 1
370
     0
100
AcDbSpline
210
0.0
220
0.0
230
1.0
 70
    11
 71
     3
 72
    23
 73
    19
 74
     0
 42
0.0000000001
 43
0.0000000001
 12
1.0
 22
0.0
 32
0.0
 13
1.0
 23
0.0
 33
0.0
 40
0.0
 40
0.0
 40
0.0
 40
0.0
 40
1.0
 40
1.0
 40
1.0
 40
2.0
 40
2.0
 40
2.0
 40
3.0
 40
3.0
 40
3.0
 40
4.0
 40
4.0
 40
4.0
 40
5.0
 40
5.0
 40
5.0
 40
6.0
 40
6.0
 40
6.0
 40
6.0
 10
108.4633192003147
 20
-158.6142631981937
 30
0.0
 10
108.4633192003147
 20
-158.6352782806537
 30
0.0
 10
108.4653862576059
 20
-158.67351884054
 30
0.0
 10
108.439892551015
 20
-158.67351884054
 30
0.0
 10
108.4295572645593
 20
-158.67351884054
 30
0.0
 10
108.4209445258462
 20
-158.666973159118
 30
0.0
 10
108.4102647298419
 20
-158.6500921912403
 30
0.0
 10
108.4102647298419
 20
-158.6500921912403
 30
0.0
 10
108.3065673557359
 20
-158.4681911496191
 30
0.0
 10
108.3065673557359
 20
-158.4681911496191
 30
0.0
 10
108.522574842661
 20
-158.3393445784707
 30
0.0
 10
108.7192897948688
 20
-158.0620143919081
 30
0.0
 10
108.7657985839197
 20
-157.9900118962664
 30
0.0
 10
108.7657985839197
 20
-157.9900118962664
 30
0.0
 10
108.8378010795614
 20
-158.1698458805964
 30
0.0
 10
108.8378010795614
 20
-158.1698458805964
 30
0.0
 10
108.7044758842822
 20
-158.3665608328042
 30
0.0
 10
108.5287760145345
 20
-158.5508734412651
 30
0.0
 10
108.4633192003147
 20
-158.6142631981937
 30
0.0
  0
SPLINE
  5
110
330
109
100
AcDbEntity
  8
_U+30EC_U+30A4_U+30E4_U+30FC 1
370
     0
100
AcDbSpline
210
0.0
220
0.0
230
1.0
 70
    11
 71
     3
 72
    17
 73
    13
 74
     0
 42
0.0000000001
 43
0.0000000001
 12
1.0
 22
0.0
 32
0.0
 13
1.0
 23
0.0
 33
0.0
 40
0.0
 40
0.0
 40
0.0
 40
0.0
 40
1.0
 40
1.0
 40
1.0
 40
2.0
 40
2.0
 40
2.0
 40
3.0
 40
3.0
 40
3.0
 40
4.0
 40
4.0
 40
4.0
 40
4.0
 10
108.7172227375776
 20
-157.7192273911258
 30
0.0
 10
108.6559000379402
 20
-157.6430907809017
 30
0.0
 10
108.5267089572433
 20
-157.5669541706777
 30
0.0
 10
108.4230115831373
 20
-157.5373263495046
 30
0.0
 10
108.4230115831373
 20
-157.5373263495046
 30
0.0
 10
108.5184407280787
 20
-157.3723062757611
 30
0.0
 10
108.5184407280787
 20
-157.3723062757611
 30
0.0
 10
108.6197265353451
 20
-157.4084797783562
 30
0.0
 10
108.7254909667422
 20
-157.4656683634114
 30
0.0
 10
108.8143744302617
 20
-157.5459390882177
 30
0.0
 10
108.8143744302617
 20
-157.5459390882177
 30
0.0
 10
108.7172227375776
 20
-157.7192273911258
 30
0.0
 10
108.7172227375776
 20
-157.7192273911258
 30
0.0
  0
SPLINE
  5
111
330
109
100
AcDbEntity
  8
_U+30EC_U+30A4_U+30E4_U+30FC 1
370
     0
100
AcDbSpline
210
0.0
220
0.0
230
1.0
 70
    11
 71
     3
 72
    23
 73
    19
 74
     0
 42
0.0000000001
 43
0.0000000001
 12
1.0
 22
0.0
 32
0.0
 13
1.0
 23
0.0
 33
0.0
 40
0.0
 40
0.0
 40
0.0
 40
0.0
 40
1.0
 40
1.0
 40
1.0
 40
2.0
 40
2.0
 40
2.0
 40
3.0
 40
3.0
 40
3.0
 40
4.0
 40
4.0
 40
4.0
 40
5.0
 40
5.0
 40
5.0
 40
6.0
 40
6.0
 40
6.0
 40
6.0
 10
109.1699082843395
 20
-158.4237494178593
 30
0.0
 10
109.1485486923309
 20
-158.447176067159
 30
0.0
 10
109.0513969996469
 20
-158.5591416704297
 30
0.0
 10
108.9118706324943
 20
-158.6397569047845
 30
0.0
 10
108.9118706324943
 20
-158.6397569047845
 30
0.0
 10
108.7447835014596
 20
-158.5191785628008
 30
0.0
 10
108.7447835014596
 20
-158.5191785628008
 30
0.0
 10
108.8949896646165
 20
-158.4430419525767
 30
0.0
 10
108.9942084145917
 20
-158.3476128076353
 30
0.0
 10
109.0427842609338
 20
-158.294902846711
 30
0.0
 10
109.0427842609338
 20
-158.294902846711
 30
0.0
 10
109.2164170733903
 20
-158.3772406288085
 30
0.0
 10
109.2164170733903
 20
-158.3772406288085
 30
0.0
 10
109.2246853025549
 20
-158.3813747433908
 30
0.0
 10
109.2332980412681
 20
-158.3879204248128
 30
0.0
 10
109.2332980412681
 20
-158.398600220817
 30
0.0
 10
109.2332980412681
 20
-158.4237494178593
 30
0.0
 10
109.1974690482215
 20
-158.4237494178593
 30
0.0
 10
109.1699082843395
 20
-158.4237494178593
 30
0.0
  0
SPLINE
  5
112
330
109
100
AcDbEntity
  8
_U+30EC_U+30A4_U+30E4_U+30FC 1
370
     0
100
AcDbSpline
210
0.0
220
0.0
230
1.0
 70
    11
 71
     3
 72
    20
 73
    16
 74
     0
 42
0.0000000001
 43
0.0000000001
 12
1.0
 22
0.0
 32
0.0
 13
1.0
 23
0.0
 33
0.0
 40
0.0
 40
0.0
 40
0.0
 40
0.0
 40
1.0
 40
1.0
 40
1.0
 40
2.0
 40
2.0
 40
2.0
 40
3.0
 40
3.0
 40
3.0
 40
4.0
 40
4.0
 40
4.0
 40
5.0
 40
5.0
 40
5.0
 40
5.0
 10
109.4682535533621
 20
-157.5817680812643
 30
0.0
 10
109.4300129934758
 20
-157.6306884371548
 30
0.0
 10
109.3686902938384
 20
-157.70889210467
 30
0.0
 10
109.2291639266858
 20
-157.8187906506495
 30
0.0
 10
109.3094346514921
 20
-157.8229247652318
 30
0.0
 10
109.3390624726652
 20
-157.8229247652318
 30
0.0
 10
109.3624891219649
 20
-157.8229247652318
 30
0.0
 10
109.3624891219649
 20
-157.8229247652318
 30
0.0
 10
109.590898952637
 20
-157.8229247652318
 30
0.0
 10
109.590898952637
 20
-157.8229247652318
 30
0.0
 10
109.6225938311013
 20
-157.8229247652318
 30
0.0
 10
109.6711696774433
 20
-157.8208577079406
 30
0.0
 10
109.7452392303762
 20
-157.8187906506495
 30
0.0
 10
109.6332736271056
 20
-157.7447210977166
 30
0.0
 10
109.584353271215
 20
-157.6982123086657
 30
0.0
 10
109.4682535533621
 20
-157.5817680812643
 30
0.0
  0
SPLINE
  5
113
330
109
100
AcDbEntity
  8
_U+30EC_U+30A4_U+30E4_U+30FC 1
370
     0
100
AcDbSpline
210
0.0
220
0.0
230
1.0
 70
    11
 71
     3
 72
    17
 73
    13
 74
     0
 42
0.0000000001
 43
0.0000000001
 12
1.0
 22
0.0
 32
0.0
 13
1.0
 23
0.0
 33
0.0
 40
0.0
 40
0.0
 40
0.0
 40
0.0
 40
1.0
 40
1.0
 40
1.0
 40
2.0
 40
2.0
 40
2.0
 40
3.0
 40
3.0
 40
3.0
 40
4.0
 40
4.0
 40
4.0
 40
4.0
 10
110.0287705888123
 20
-158.6373453379449
 30
0.0
 10
109.8933783362419
 20
-158.5253797346742
 30
0.0
 10
109.7876139048448
 20
-158.4619899777456
 30
0.0
 10
109.6691026201522
 20
-158.398600220817
 30
0.0
 10
109.6691026201522
 20
-158.398600220817
 30
0.0
 10
109.7958821340094
 20
-158.2862901079979
 30
0.0
 10
109.7958821340094
 20
-158.2862901079979
 30
0.0
 10
109.9271402719974
 20
-158.3327988970487
 30
0.0
 10
110.0370388179768
 20
-158.3899874821039
 30
0.0
 10
110.1620957840914
 20
-158.4916177989188
 30
0.0
 10
110.1620957840914
 20
-158.4916177989188
 30
0.0
 10
110.0287705888123
 20
-158.6373453379449
 30
0.0
 10
110.0287705888123
 20
-158.6373453379449
 30
0.0
  0
HATCH
  5
114
330
109
100
AcDbEntity
  8
_U+30EC_U+30A4_U+30E4_U+30FC 1
 62
     7
420
 16777215
100
AcDbHatch
 10
0.0
 20
0.0
 30
0.0
210
0.0
220
0.0
230
1.0
  2
SOLID
 70
     1
 71
     0
 91
        7
 92
        1
 93
        1
 72
     4
 94
        3
 73
     0
 74
     1
 95
       17
 96
       13
 40
0.0
 40
0.0
 40
0.0
 40
0.0
 40
1.0
 40
1.0
 40
1.0
 40
2.0
 40
2.0
 40
2.0
 40
3.0
 40
3.0
 40
3.0
 40
4.0
 40
4.0
 40
4.0
 40
4.0
 10
108.5373887532476
 20
-158.0640814491993
 10
108.4316243218504
 20
-157.9583170178021
 10
108.3510090874956
 20
-157.9204209674643
 10
108.2579915093938
 20
-157.888726089
 10
108.2579915093938
 20
-157.888726089
 10
108.3682345649218
 20
-157.7237060152566
 10
108.3682345649218
 20
-157.7237060152566
 10
108.4653862576059
 20
-157.7660806897252
 10
108.5859645995896
 20
-157.8442843572403
 10
108.6390190700625
 20
-157.8990613754558
 10
108.6390190700625
 20
-157.8990613754558
 10
108.5373887532476
 20
-158.0640814491993
 10
108.5373887532476
 20
-158.0640814491993
 97
        0
 97
        0
 92
        1
 93
        1
 72
     4
 94
        3
 73
     0
 74
     1
 95
      182
 96
      178
 40
0.0
 40
0.0
 40
0.0
 40
0.0
 40
1.0
 40
1.0
 40
1.0
 40
2.0
 40
2.0
 40
2.0
 40
3.0
 40
3.0
 40
3.0
 40
4.0
 40
4.0
 40
4.0
 40
5.0
 40
5.0
 40
5.0
 40
6.0
 40
6.0
 40
6.0
 40
7.0
 40
7.0
 40
7.0
 40
8.0
 40
8.0
 40
8.0
 40
9.0
 40
9.0
 40
9.0
 40
10.0
 40
10.0
 40
10.0
 40
11.0
 40
11.0
 40
11.0
 40
12.0
 40
12.0
 40
12.0
 40
13.0
 40
13.0
 40
13.0
 40
14.0
 40
14.0
 40
14.0
 40
15.0
 40
15.0
 40
15.0
 40
16.0
 40
16.0
 40
16.0
 40
17.0
 40
17.0
 40
17.0
 40
18.0
 40
18.0
 40
18.0
 40
19.0
 40
19.0
 40
19.0
 40
20.0
 40
20.0
 40
20.0
 40
21.0
 40
21.0
 40
21.0
 40
22.0
 40
22.0
 40
22.0
 40
23.0
 40
23.0
 40
23.0
 40
24.0
 40
24.0
 40
24.0
 40
25.0
 40
25.0
 40
25.0
 40
26.0
 40
26.0
 40
26.0
 40
27.0
 40
27.0
 40
27.0
 40
28.0
 40
28.0
 40
28.0
 40
29.0
 40
29.0
 40
29.0
 40
30.0
 40
30.0
 40
30.0
 40
31.0
 40
31.0
 40
31.0
 40
32.0
 40
32.0
 40
32.0
 40
33.0
 40
33.0
 40
33.0
 40
34.0
 40
34.0
 40
34.0
 40
35.0
 40
35.0
 40
35.0
 40
36.0
 40
36.0
 40
36.0
 40
37.0
 40
37.0
 40
37.0
 40
38.0
 40
38.0
 40
38.0
 40
39.0
 40
39.0
 40
39.0
 40
40.0
 40
40.0
 40
40.0
 40
41.0
 40
41.0
 40
41.0
 40
42.0
 40
42.0
 40
42.0
 40
43.0
 40
43.0
 40
43.0
 40
44.0
 40
44.0
 40
44.0
 40
45.0
 40
45.0
 40
45.0
 40
46.0
 40
46.0
 40
46.0
 40
47.0
 40
47.0
 40
47.0
 40
48.0
 40
48.0
 40
48.0
 40
49.0
 40
49.0
 40
49.0
 40
50.0
 40
50.0
 40
50.0
 40
51.0
 40
51.0
 40
51.0
 40
52.0
 40
52.0
 40
52.0
 40
53.0
 40
53.0
 40
53.0
 40
54.0
 40
54.0
 40
54.0
 40
55.0
 40
55.0
 40
55.0
 40
56.0
 40
56.0
 40
56.0
 40
57.0
 40
57.0
 40
57.0
 40
58.0
 40
58.0
 40
58.0
 40
59.0
 40
59.0
 40
59.0
 40
59.0
 10
109.5822862139239
 20
-159.2426486147032
 10
109.5822862139239
 20
-159.2426486147032
 10
108.9456325682497
 20
-159.2426486147032
 10
108.9456325682497
 20
-159.2426486147032
 10
108.7320366481642
 20
-159.2426486147032
 10
108.516029161239
 20
-159.2467827292855
 10
108.3024332411536
 20
-159.259529582581
 10
108.3024332411536
 20
-159.259529582581
 10
108.3024332411536
 20
-159.0521348343689
 10
108.3024332411536
 20
-159.0521348343689
 10
108.5246418999522
 20
-159.0648816876644
 10
108.8481363660171
 20
-159.0690158022466
 10
108.9456325682497
 20
-159.0690158022466
 10
108.9456325682497
 20
-159.0690158022466
 10
109.1657741697572
 20
-159.0690158022466
 10
109.1657741697572
 20
-159.0690158022466
 10
109.1657741697572
 20
-159.0690158022466
 10
109.1657741697572
 20
-158.9274223778029
 10
109.1657741697572
 20
-158.9274223778029
 10
109.1657741697572
 20
-158.9274223778029
 10
109.004888210596
 20
-158.9274223778029
 10
109.004888210596
 20
-158.9274223778029
 10
108.8398681368525
 20
-158.9274223778029
 10
108.6748480631091
 20
-158.9315564923852
 10
108.5098279893656
 20
-158.9463704029718
 10
108.5098279893656
 20
-158.9463704029718
 10
108.5098279893656
 20
-158.7369085974686
 10
108.5098279893656
 20
-158.7369085974686
 10
108.6810492349825
 20
-158.7517225080551
 10
108.928751600372
 20
-158.7558566226374
 10
109.004888210596
 20
-158.7558566226374
 10
109.004888210596
 20
-158.7558566226374
 10
109.1657741697572
 20
-158.7558566226374
 10
109.1657741697572
 20
-158.7558566226374
 10
109.1612955456263
 20
-158.6841986365442
 10
109.1612955456263
 20
-158.6776529551223
 10
109.1550943737529
 20
-158.6249429941979
 10
109.1550943737529
 20
-158.6249429941979
 10
109.2946207409055
 20
-158.6397569047845
 10
109.2946207409055
 20
-158.6397569047845
 10
109.2946207409055
 20
-158.6397569047845
 10
109.1954019909303
 20
-158.4681911496191
 10
109.1954019909303
 20
-158.4681911496191
 10
109.2419107799812
 20
-158.474736831041
 10
109.3159803329141
 20
-158.4830050602056
 10
109.3328613007918
 20
-158.4830050602056
 10
109.383504204425
 20
-158.4830050602056
 10
109.4003851723027
 20
-158.4619899777456
 10
109.4003851723027
 20
-158.4048013926905
 10
109.4003851723027
 20
-158.4048013926905
 10
109.4003851723027
 20
-158.267342082829
 10
109.4003851723027
 20
-158.267342082829
 10
109.4003851723027
 20
-158.267342082829
 10
109.2946207409055
 20
-158.267342082829
 10
109.2946207409055
 20
-158.267342082829
 10
109.1612955456263
 20
-158.267342082829
 10
109.004888210596
 20
-158.267342082829
 10
108.8822428113211
 20
-158.2800889361244
 10
108.8822428113211
 20
-158.2800889361244
 10
108.8822428113211
 20
-158.0895751557901
 10
108.8822428113211
 20
-158.0895751557901
 10
109.0493299423557
 20
-158.1064561236678
 10
109.2798068303189
 20
-158.108523180959
 10
109.2946207409055
 20
-158.108523180959
 10
109.2946207409055
 20
-158.108523180959
 10
109.4003851723027
 20
-158.108523180959
 10
109.4003851723027
 20
-158.108523180959
 10
109.4003851723027
 20
-158.108523180959
 10
109.4003851723027
 20
-157.9776095525195
 10
109.4003851723027
 20
-157.9776095525195
 10
109.4003851723027
 20
-157.9776095525195
 10
109.3624891219649
 20
-157.9776095525195
 10
109.3624891219649
 20
-157.9776095525195
 10
109.3180473902052
 20
-157.9776095525195
 10
109.1929904240907
 20
-157.9817436671018
 10
109.1041069605712
 20
-157.9900118962664
 10
109.1041069605712
 20
-157.9900118962664
 10
109.1041069605712
 20
-157.9097411714601
 10
109.1041069605712
 20
-157.9097411714601
 10
109.0513969996469
 20
-157.9479817313463
 10
109.025903293056
 20
-157.9627956419329
 10
108.9835286185875
 20
-157.9858777816841
 10
108.9835286185875
 20
-157.9858777816841
 10
108.7954264050928
 20
-157.8570312105358
 10
108.7954264050928
 20
-157.8570312105358
 10
108.873630072608
 20
-157.8229247652318
 10
109.0303819171869
 20
-157.7595350083032
 10
109.1867892522172
 20
-157.6158745265683
 10
109.2691270343147
 20
-157.5373263495046
 10
109.3476752113784
 20
-157.4529215101159
 10
109.4003851723027
 20
-157.3512911933011
 10
109.4003851723027
 20
-157.3512911933011
 10
109.611914035097
 20
-157.4126138929385
 10
109.611914035097
 20
-157.4126138929385
 10
109.6312065698144
 20
-157.418815064812
 10
109.6415418562702
 20
-157.4274278035251
 10
109.6415418562702
 20
-157.4401746568205
 10
109.6415418562702
 20
-157.4570556246983
 10
109.6287950029748
 20
-157.4632567965717
 10
109.6036458059324
 20
-157.4760036498671
 10
109.6839165307387
 20
-157.5734998520997
 10
109.8468695471911
 20
-157.6706515447837
 10
109.8806314829465
 20
-157.6895995699526
 10
110.0308376461034
 20
-157.778483033472
 10
110.1452148162137
 20
-157.8060437973541
 10
110.2234184837289
 20
-157.8249918225229
 10
110.2234184837289
 20
-157.8249918225229
 10
110.1049071990363
 20
-157.9944905203972
 10
110.1049071990363
 20
-157.9944905203972
 10
110.0201578500991
 20
-157.9648626992241
 10
109.969514946466
 20
-157.9459146740552
 10
109.8510036617734
 20
-157.8801133502869
 10
109.8510036617734
 20
-157.8801133502869
 10
109.8510036617734
 20
-157.9900118962664
 10
109.8510036617734
 20
-157.9900118962664
 10
109.7686658796759
 20
-157.9817436671018
 10
109.6415418562702
 20
-157.9776095525195
 10
109.5888318953458
 20
-157.9776095525195
 10
109.5888318953458
 20
-157.9776095525195
 10
109.5888318953458
 20
-158.108523180959
 10
109.5888318953458
 20
-158.108523180959
 10
109.5888318953458
 20
-158.108523180959
 10
109.7094102373296
 20
-158.108523180959
 10
109.7094102373296
 20
-158.108523180959
 10
109.7114772946207
 20
-158.108523180959
 10
109.9440212398751
 20
-158.1064561236678
 10
110.121788166914
 20
-158.0895751557901
 10
110.121788166914
 20
-158.0895751557901
 10
110.121788166914
 20
-158.2800889361244
 10
110.121788166914
 20
-158.2800889361244
 10
109.9929415957657
 20
-158.267342082829
 10
109.8361897511868
 20
-158.267342082829
 10
109.7094102373296
 20
-158.267342082829
 10
109.7094102373296
 20
-158.267342082829
 10
109.5888318953458
 20
-158.267342082829
 10
109.5888318953458
 20
-158.267342082829
 10
109.5888318953458
 20
-158.267342082829
 10
109.5888318953458
 20
-158.4936848562099
 10
109.5888318953458
 20
-158.4936848562099
 10
109.5888318953458
 20
-158.6121961409025
 10
109.563338188755
 20
-158.6480251339491
 10
109.4024522295938
 20
-158.6628390445357
 10
109.4069308537247
 20
-158.6817870697046
 10
109.4003851723027
 20
-158.6924668657088
 10
109.3624891219649
 20
-158.7158935150085
 10
109.3604220646738
 20
-158.7348415401774
 10
109.3604220646738
 20
-158.7410427120509
 10
109.3580104978341
 20
-158.7558566226374
 10
109.3580104978341
 20
-158.7558566226374
 10
109.4954698076956
 20
-158.7558566226374
 10
109.4954698076956
 20
-158.7558566226374
 10
109.660489881439
 20
-158.7558566226374
 10
109.8279215220222
 20
-158.7517225080551
 10
109.9950086530568
 20
-158.7369085974686
 10
109.9950086530568
 20
-158.7369085974686
 10
109.9950086530568
 20
-158.9443033456806
 10
109.9950086530568
 20
-158.9443033456806
 10
109.7790011661316
 20
-158.9274223778029
 10
109.514762342413
 20
-158.9274223778029
 10
109.4954698076956
 20
-158.9274223778029
 10
109.4954698076956
 20
-158.9274223778029
 10
109.355943440543
 20
-158.9274223778029
 10
109.355943440543
 20
-158.9274223778029
 10
109.355943440543
 20
-158.9274223778029
 10
109.355943440543
 20
-159.0690158022466
 10
109.355943440543
 20
-159.0690158022466
 10
109.355943440543
 20
-159.0690158022466
 10
109.5822862139239
 20
-159.0690158022466
 10
109.5822862139239
 20
-159.0690158022466
 10
109.798293700849
 20
-159.0690158022466
 10
110.0160237355168
 20
-159.0648816876644
 10
110.2316867128935
 20
-159.0521348343689
 10
110.2316867128935
 20
-159.0521348343689
 10
110.2316867128935
 20
-159.259529582581
 10
110.2316867128935
 20
-159.259529582581
 10
109.9505669212971
 20
-159.2426486147032
 10
109.6057128632236
 20
-159.2426486147032
 10
109.5822862139239
 20
-159.2426486147032
 97
        0
 97
        0
 92
        1
 93
        1
 72
     4
 94
        3
 73
     0
 74
     1
 95
       23
 96
       19
 40
0.0
 40
0.0
 40
0.0
 40
0.0
 40
1.0
 40
1.0
 40
1.0
 40
2.0
 40
2.0
 40
2.0
 40
3.0
 40
3.0
 40
3.0
 40
4.0
 40
4.0
 40
4.0
 40
5.0
 40
5.0
 40
5.0
 40
6.0
 40
6.0
 40
6.0
 40
6.0
 10
108.4633192003147
 20
-158.6142631981937
 10
108.4633192003147
 20
-158.6352782806537
 10
108.4653862576059
 20
-158.67351884054
 10
108.439892551015
 20
-158.67351884054
 10
108.4295572645593
 20
-158.67351884054
 10
108.4209445258462
 20
-158.666973159118
 10
108.4102647298419
 20
-158.6500921912403
 10
108.4102647298419
 20
-158.6500921912403
 10
108.3065673557359
 20
-158.4681911496191
 10
108.3065673557359
 20
-158.4681911496191
 10
108.522574842661
 20
-158.3393445784707
 10
108.7192897948688
 20
-158.0620143919081
 10
108.7657985839197
 20
-157.9900118962664
 10
108.7657985839197
 20
-157.9900118962664
 10
108.8378010795614
 20
-158.1698458805964
 10
108.8378010795614
 20
-158.1698458805964
 10
108.7044758842822
 20
-158.3665608328042
 10
108.5287760145345
 20
-158.5508734412651
 10
108.4633192003147
 20
-158.6142631981937
 97
        0
 97
        0
 92
        1
 93
        1
 72
     4
 94
        3
 73
     0
 74
     1
 95
       17
 96
       13
 40
0.0
 40
0.0
 40
0.0
 40
0.0
 40
1.0
 40
1.0
 40
1.0
 40
2.0
 40
2.0
 40
2.0
 40
3.0
 40
3.0
 40
3.0
 40
4.0
 40
4.0
 40
4.0
 40
4.0
 10
108.7172227375776
 20
-157.7192273911258
 10
108.6559000379402
 20
-157.6430907809017
 10
108.5267089572433
 20
-157.5669541706777
 10
108.4230115831373
 20
-157.5373263495046
 10
108.4230115831373
 20
-157.5373263495046
 10
108.5184407280787
 20
-157.3723062757611
 10
108.5184407280787
 20
-157.3723062757611
 10
108.6197265353451
 20
-157.4084797783562
 10
108.7254909667422
 20
-157.4656683634114
 10
108.8143744302617
 20
-157.5459390882177
 10
108.8143744302617
 20
-157.5459390882177
 10
108.7172227375776
 20
-157.7192273911258
 10
108.7172227375776
 20
-157.7192273911258
 97
        0
 97
        0
 92
        1
 93
        1
 72
     4
 94
        3
 73
     0
 74
     1
 95
       23
 96
       19
 40
0.0
 40
0.0
 40
0.0
 40
0.0
 40
1.0
 40
1.0
 40
1.0
 40
2.0
 40
2.0
 40
2.0
 40
3.0
 40
3.0
 40
3.0
 40
4.0
 40
4.0
 40
4.0
 40
5.0
 40
5.0
 40
5.0
 40
6.0
 40
6.0
 40
6.0
 40
6.0
 10
109.1699082843395
 20
-158.4237494178593
 10
109.1485486923309
 20
-158.447176067159
 10
109.0513969996469
 20
-158.5591416704297
 10
108.9118706324943
 20
-158.6397569047845
 10
108.9118706324943
 20
-158.6397569047845
 10
108.7447835014596
 20
-158.5191785628008
 10
108.7447835014596
 20
-158.5191785628008
 10
108.8949896646165
 20
-158.4430419525767
 10
108.9942084145917
 20
-158.3476128076353
 10
109.0427842609338
 20
-158.294902846711
 10
109.0427842609338
 20
-158.294902846711
 10
109.2164170733903
 20
-158.3772406288085
 10
109.2164170733903
 20
-158.3772406288085
 10
109.2246853025549
 20
-158.3813747433908
 10
109.2332980412681
 20
-158.3879204248128
 10
109.2332980412681
 20
-158.398600220817
 10
109.2332980412681
 20
-158.4237494178593
 10
109.1974690482215
 20
-158.4237494178593
 10
109.1699082843395
 20
-158.4237494178593
 97
        0
 97
        0
 92
        1
 93
        1
 72
     4
 94
        3
 73
     0
 74
     1
 95
       20
 96
       16
 40
0.0
 40
0.0
 40
0.0
 40
0.0
 40
1.0
 40
1.0
 40
1.0
 40
2.0
 40
2.0
 40
2.0
 40
3.0
 40
3.0
 40
3.0
 40
4.0
 40
4.0
 40
4.0
 40
5.0
 40
5.0
 40
5.0
 40
5.0
 10
109.4682535533621
 20
-157.5817680812643
 10
109.4300129934758
 20
-157.6306884371548
 10
109.3686902938384
 20
-157.70889210467
 10
109.2291639266858
 20
-157.8187906506495
 10
109.3094346514921
 20
-157.8229247652318
 10
109.3390624726652
 20
-157.8229247652318
 10
109.3624891219649
 20
-157.8229247652318
 10
109.3624891219649
 20
-157.8229247652318
 10
109.590898952637
 20
-157.8229247652318
 10
109.590898952637
 20
-157.8229247652318
 10
109.6225938311013
 20
-157.8229247652318
 10
109.6711696774433
 20
-157.8208577079406
 10
109.7452392303762
 20
-157.8187906506495
 10
109.6332736271056
 20
-157.7447210977166
 10
109.584353271215
 20
-157.6982123086657
 10
109.4682535533621
 20
-157.5817680812643
 97
        0
 97
        0
 92
        1
 93
        1
 72
     4
 94
        3
 73
     0
 74
     1
 95
       17
 96
       13
 40
0.0
 40
0.0
 40
0.0
 40
0.0
 40
1.0
 40
1.0
 40
1.0
 40
2.0
 40
2.0
 40
2.0
 40
3.0
 40
3.0
 40
3.0
 40
4.0
 40
4.0
 40
4.0
 40
4.0
 10
110.0287705888123
 20
-158.6373453379449
 10
109.8933783362419
 20
-158.5253797346742
 10
109.7876139048448
 20
-158.4619899777456
 10
109.6691026201522
 20
-158.398600220817
 10
109.6691026201522
 20
-158.398600220817
 10
109.7958821340094
 20
-158.2862901079979
 10
109.7958821340094
 20
-158.2862901079979
 10
109.9271402719974
 20
-158.3327988970487
 10
110.0370388179768
 20
-158.3899874821039
 10
110.1620957840914
 20
-158.4916177989188
 10
110.1620957840914
 20
-158.4916177989188
 10
110.0287705888123
 20
-158.6373453379449
 10
110.0287705888123
 20
-158.6373453379449
 97
        0
 97
        0
 75
     2
 76
     1
 98
        0
  0
SPLINE
  5
115
330
109
100
AcDbEntity
  8
_U+30EC_U+30A4_U+30E4_U+30FC 1
370
     0
100
AcDbSpline
210
0.0
220
0.0
230
1.0
 70
    11
 71
     3
 72
   113
 73
   109
 74
     0
 42
0.0000000001
 43
0.0000000001
 12
1.0
 22
0.0
 32
0.0
 13
1.0
 23
0.0
 33
0.0
 40
0.0
 40
0.0
 40
0.0
 40
0.0
 40
1.0
 40
1.0
 40
1.0
 40
2.0
 40
2.0
 40
2.0
 40
3.0
 40
3.0
 40
3.0
 40
4.0
 40
4.0
 40
4.0
 40
5.0
 40
5.0
 40
5.0
 40
6.0
 40
6.0
 40
6.0
 40
7.0
 40
7.0
 40
7.0
 40
8.0
 40
8.0
 40
8.0
 40
9.0
 40
9.0
 40
9.0
 40
10.0
 40
10.0
 40
10.0
 40
11.0
 40
11.0
 40
11.0
 40
12.0
 40
12.0
 40
12.0
 40
13.0
 40
13.0
 40
13.0
 40
14.0
 40
14.0
 40
14.0
 40
15.0
 40
15.0
 40
15.0
 40
16.0
 40
16.0
 40
16.0
 40
17.0
 40
17.0
 40
17.0
 40
18.0
 40
18.0
 40
18.0
 40
19.0
 40
19.0
 40
19.0
 40
20.0
 40
20.0
 40
20.0
 40
21.0
 40
21.0
 40
21.0
 40
22.0
 40
22.0
 40
22.0
 40
23.0
 40
23.0
 40
23.0
 40
24.0
 40
24.0
 40
24.0
 40
25.0
 40
25.0
 40
25.0
 40
26.0
 40
26.0
 40
26.0
 40
27.0
 40
27.0
 40
27.0
 40
28.0
 40
28.0
 40
28.0
 40
29.0
 40
29.0
 40
29.0
 40
30.0
 40
30.0
 40
30.0
 40
31.0
 40
31.0
 40
31.0
 40
32.0
 40
32.0
 40
32.0
 40
33.0
 40
33.0
 40
33.0
 40
34.0
 40
34.0
 40
34.0
 40
35.0
 40
35.0
 40
35.0
 40
36.0
 40
36.0
 40
36.0
 40
36.0
 10
111.9084146855646
 20
-158.6142631981937
 30
0.0
 10
111.9084146855646
 20
-158.6142631981937
 30
0.0
 10
112.0079779450883
 20
-158.7138264577174
 30
0.0
 10
112.0079779450883
 20
-158.7138264577174
 30
0.0
 10
112.0186577410926
 20
-158.7241617441731
 30
0.0
 10
112.0289930275483
 20
-158.7369085974686
 30
0.0
 10
112.0289930275483
 20
-158.7517225080551
 30
0.0
 10
112.0289930275483
 20
-158.7537895653463
 30
0.0
 10
112.0289930275483
 20
-158.7834173865194
 30
0.0
 10
111.9910969772106
 20
-158.7834173865194
 30
0.0
 10
111.9824842384974
 20
-158.7834173865194
 30
0.0
 10
111.94217662132
 20
-158.7792832719371
 30
0.0
 10
111.9359754494466
 20
-158.7792832719371
 30
0.0
 10
111.8956678322691
 20
-158.8109781504014
 30
0.0
 10
111.8491590432183
 20
-158.8447400861569
 30
0.0
 10
111.7499402932431
 20
-158.901928671212
 30
0.0
 10
111.8956678322691
 20
-159.0097601599003
 30
0.0
 10
112.0544867341392
 20
-159.0669487449555
 30
0.0
 10
112.3273382965709
 20
-159.1051893048418
 30
0.0
 10
112.3273382965709
 20
-159.1051893048418
 30
0.0
 10
112.1771321334141
 20
-159.280544665041
 30
0.0
 10
112.1771321334141
 20
-159.280544665041
 30
0.0
 10
111.9149603669865
 20
-159.2085421693993
 30
0.0
 10
111.7582085224077
 20
-159.1200032154283
 30
0.0
 10
111.6820719121837
 20
-159.0669487449555
 30
0.0
 10
111.5318657490268
 20
-158.9653184281406
 30
0.0
 10
111.3882052672918
 20
-158.8023654116883
 30
0.0
 10
111.3120686570678
 20
-158.6373453379449
 30
0.0
 10
111.2442002760084
 20
-158.7031466617131
 30
0.0
 10
111.1701307230755
 20
-158.7558566226374
 30
0.0
 10
111.0919270555604
 20
-158.804776978528
 30
0.0
 10
111.0919270555604
 20
-158.804776978528
 30
0.0
 10
111.0919270555604
 20
-159.0562689489512
 30
0.0
 10
111.0919270555604
 20
-159.0562689489512
 30
0.0
 10
111.2548800720127
 20
-159.0311197519089
 30
0.0
 10
111.4409152282162
 20
-158.9866780201492
 30
0.0
 10
111.5043049851448
 20
-158.9718641095626
 30
0.0
 10
111.5043049851448
 20
-158.9718641095626
 30
0.0
 10
111.4746771639716
 20
-159.1410182978884
 30
0.0
 10
111.4746771639716
 20
-159.1410182978884
 30
0.0
 10
111.4726101066805
 20
-159.1410182978884
 30
0.0
 10
111.4536620815116
 20
-159.1472194697618
 30
0.0
 10
111.4515950242204
 20
-159.1472194697618
 30
0.0
 10
111.2528130147215
 20
-159.1854600296481
 30
0.0
 10
110.93551972053
 20
-159.2509168438678
 30
0.0
 10
110.7384602587737
 20
-159.2870903464629
 30
0.0
 10
110.728124972318
 20
-159.3039713143407
 30
0.0
 10
110.7046983230183
 20
-159.335666192805
 30
0.0
 10
110.6816161832671
 20
-159.335666192805
 30
0.0
 10
110.6540554193851
 20
-159.335666192805
 30
0.0
 10
110.6499213048028
 20
-159.3167181676361
 30
0.0
 10
110.6475097379631
 20
-159.2974256329187
 30
0.0
 10
110.6475097379631
 20
-159.2974256329187
 30
0.0
 10
110.6223605409208
 20
-159.1241373300106
 30
0.0
 10
110.6223605409208
 20
-159.1241373300106
 30
0.0
 10
110.6964300938537
 20
-159.1155245912975
 30
0.0
 10
110.804261582542
 20
-159.1027777380021
 30
0.0
 10
110.9120930712303
 20
-159.0817626555421
 30
0.0
 10
110.9120930712303
 20
-159.0817626555421
 30
0.0
 10
110.9120930712303
 20
-158.9039957285032
 30
0.0
 10
110.9120930712303
 20
-158.9039957285032
 30
0.0
 10
110.7680880799469
 20
-158.9759982241449
 30
0.0
 10
110.673003444554
 20
-159.0056260453181
 30
0.0
 10
110.5079833708105
 20
-159.0352538664912
 30
0.0
 10
110.5079833708105
 20
-159.0352538664912
 30
0.0
 10
110.3874050288268
 20
-158.8660996781654
 30
0.0
 10
110.3874050288268
 20
-158.8660996781654
 30
0.0
 10
110.7046983230183
 20
-158.8385389142834
 30
0.0
 10
110.8972791606437
 20
-158.7455213361817
 30
0.0
 10
111.0750460876826
 20
-158.6121961409025
 30
0.0
 10
110.928974039108
 20
-158.6121961409025
 30
0.0
 10
110.6285617127943
 20
-158.6163302554848
 30
0.0
 10
110.4318467605865
 20
-158.6228759369068
 30
0.0
 10
110.4318467605865
 20
-158.6228759369068
 30
0.0
 10
110.4318467605865
 20
-158.4451090098679
 30
0.0
 10
110.4318467605865
 20
-158.4451090098679
 30
0.0
 10
110.5861870383257
 20
-158.4513101817413
 30
0.0
 10
110.8824652500572
 20
-158.4578558631633
 30
0.0
 10
111.0664333489695
 20
-158.4578558631633
 30
0.0
 10
111.0664333489695
 20
-158.4578558631633
 30
0.0
 10
111.2779622117638
 20
-158.4578558631633
 30
0.0
 10
111.2779622117638
 20
-158.4578558631633
 30
0.0
 10
111.2779622117638
 20
-158.3624267182219
 30
0.0
 10
111.2758951544727
 20
-158.3117838145887
 30
0.0
 10
111.2696939825993
 20
-158.2652750255378
 30
0.0
 10
111.2696939825993
 20
-158.2652750255378
 30
0.0
 10
111.4853569599759
 20
-158.2821559934156
 30
0.0
 10
111.4853569599759
 20
-158.2821559934156
 30
0.0
 10
111.5339328063179
 20
-158.2862901079979
 30
0.0
 10
111.542545545031
 20
-158.3011040185845
 30
0.0
 10
111.542545545031
 20
-158.315917929171
 30
0.0
 10
111.542545545031
 20
-158.3414116357619
 30
0.0
 10
111.5256645771533
 20
-158.3496798649265
 30
0.0
 10
111.4746771639716
 20
-158.3751735715173
 30
0.0
 10
111.4726101066805
 20
-158.4006672781082
 30
0.0
 10
111.4726101066805
 20
-158.4068684499816
 30
0.0
 10
111.4705430493893
 20
-158.4578558631633
 30
0.0
 10
111.4705430493893
 20
-158.4578558631633
 30
0.0
 10
111.7010199373525
 20
-158.4578558631633
 30
0.0
 10
111.7010199373525
 20
-158.4578558631633
 30
0.0
 10
111.866040011096
 20
-158.4578558631633
 30
0.0
 10
112.1581841082452
 20
-158.4513101817413
 30
0.0
 10
112.3380180925752
 20
-158.4451090098679
 30
0.0
 10
112.3380180925752
 20
-158.4451090098679
 30
0.0
 10
112.3380180925752
 20
-158.6228759369068
 30
0.0
 10
112.3380180925752
 20
-158.6228759369068
 30
0.0
 10
112.2088270118784
 20
-158.618397312776
 30
0.0
 10
112.1857448721272
 20
-158.618397312776
 30
0.0
 10
111.9084146855646
 20
-158.6142631981937
 30
0.0
  0
SPLINE
  5
116
330
109
100
AcDbEntity
  8
_U+30EC_U+30A4_U+30E4_U+30FC 1
370
     0
100
AcDbSpline
210
0.0
220
0.0
230
1.0
 70
    11
 71
     3
 72
    23
 73
    19
 74
     0
 42
0.0000000001
 43
0.0000000001
 12
1.0
 22
0.0
 32
0.0
 13
1.0
 23
0.0
 33
0.0
 40
0.0
 40
0.0
 40
0.0
 40
0.0
 40
1.0
 40
1.0
 40
1.0
 40
2.0
 40
2.0
 40
2.0
 40
3.0
 40
3.0
 40
3.0
 40
4.0
 40
4.0
 40
4.0
 40
5.0
 40
5.0
 40
5.0
 40
6.0
 40
6.0
 40
6.0
 40
6.0
 10
110.624427598212
 20
-158.2632079682467
 30
0.0
 10
110.6075466303342
 20
-158.3031710758756
 30
0.0
 10
110.6010009489123
 20
-158.3200520437533
 30
0.0
 10
110.5799858664522
 20
-158.3200520437533
 30
0.0
 10
110.5651719558657
 20
-158.3200520437533
 30
0.0
 10
110.5544921598614
 20
-158.3031710758756
 30
0.0
 10
110.5482909879879
 20
-158.2904242225802
 30
0.0
 10
110.5482909879879
 20
-158.2904242225802
 30
0.0
 10
110.4487277284642
 20
-158.1254041488367
 30
0.0
 10
110.4487277284642
 20
-158.1254041488367
 30
0.0
 10
110.5503580452791
 20
-158.0937092703724
 30
0.0
 10
110.700564208436
 20
-158.0389322521569
 30
0.0
 10
110.8993462179349
 20
-157.8759792357046
 30
0.0
 10
110.8993462179349
 20
-157.8759792357046
 30
0.0
 10
110.95653480299
 20
-158.0492675386127
 30
0.0
 10
110.95653480299
 20
-158.0492675386127
 30
0.0
 10
110.8635172248883
 20
-158.1319498302587
 30
0.0
 10
110.7746337613688
 20
-158.1891384153138
 30
0.0
 10
110.624427598212
 20
-158.2632079682467
 30
0.0
  0
SPLINE
  5
117
330
109
100
AcDbEntity
  8
_U+30EC_U+30A4_U+30E4_U+30FC 1
370
     0
100
AcDbSpline
210
0.0
220
0.0
230
1.0
 70
    11
 71
     3
 72
    17
 73
    13
 74
     0
 42
0.0000000001
 43
0.0000000001
 12
1.0
 22
0.0
 32
0.0
 13
1.0
 23
0.0
 33
0.0
 40
0.0
 40
0.0
 40
0.0
 40
0.0
 40
1.0
 40
1.0
 40
1.0
 40
2.0
 40
2.0
 40
2.0
 40
3.0
 40
3.0
 40
3.0
 40
4.0
 40
4.0
 40
4.0
 40
4.0
 10
110.77670081866
 20
-157.7977755681895
 30
0.0
 10
110.7470729974869
 20
-157.757467951012
 30
0.0
 10
110.6792046164274
 20
-157.660316258328
 30
0.0
 10
110.4973035748062
 20
-157.5500732028
 30
0.0
 10
110.4973035748062
 20
-157.5500732028
 30
0.0
 10
110.624427598212
 20
-157.4167480075208
 30
0.0
 10
110.624427598212
 20
-157.4167480075208
 30
0.0
 10
110.8104627544154
 20
-157.5183783243357
 30
0.0
 10
110.8676513394706
 20
-157.6072617878551
 30
0.0
 10
110.8952121033526
 20
-157.6496364623237
 30
0.0
 10
110.8952121033526
 20
-157.6496364623237
 30
0.0
 10
110.77670081866
 20
-157.7977755681895
 30
0.0
 10
110.77670081866
 20
-157.7977755681895
 30
0.0
  0
SPLINE
  5
118
330
109
100
AcDbEntity
  8
_U+30EC_U+30A4_U+30E4_U+30FC 1
370
     0
100
AcDbSpline
210
0.0
220
0.0
230
1.0
 70
    11
 71
     3
 72
    38
 73
    34
 74
     0
 42
0.0000000001
 43
0.0000000001
 12
1.0
 22
0.0
 32
0.0
 13
1.0
 23
0.0
 33
0.0
 40
0.0
 40
0.0
 40
0.0
 40
0.0
 40
1.0
 40
1.0
 40
1.0
 40
2.0
 40
2.0
 40
2.0
 40
3.0
 40
3.0
 40
3.0
 40
4.0
 40
4.0
 40
4.0
 40
5.0
 40
5.0
 40
5.0
 40
6.0
 40
6.0
 40
6.0
 40
7.0
 40
7.0
 40
7.0
 40
8.0
 40
8.0
 40
8.0
 40
9.0
 40
9.0
 40
9.0
 40
10.0
 40
10.0
 40
10.0
 40
11.0
 40
11.0
 40
11.0
 40
11.0
 10
111.1446370164847
 20
-157.4928846177448
 30
0.0
 10
111.1425699591935
 20
-157.5397379163443
 30
0.0
 10
111.1405029019024
 20
-157.6558376341972
 30
0.0
 10
111.1405029019024
 20
-157.7002793659569
 30
0.0
 10
111.1405029019024
 20
-157.7002793659569
 30
0.0
 10
111.1405029019024
 20
-158.0472004813215
 30
0.0
 10
111.1405029019024
 20
-158.0472004813215
 30
0.0
 10
111.1405029019024
 20
-158.1340168875498
 30
0.0
 10
111.1425699591935
 20
-158.2756103119936
 30
0.0
 10
111.1532497551978
 20
-158.3961886539774
 30
0.0
 10
111.1532497551978
 20
-158.3961886539774
 30
0.0
 10
110.9627359748635
 20
-158.3961886539774
 30
0.0
 10
110.9627359748635
 20
-158.3961886539774
 30
0.0
 10
110.9672145989943
 20
-158.3327988970487
 30
0.0
 10
110.9713487135766
 20
-158.2800889361244
 30
0.0
 10
110.9734157708678
 20
-158.2249674083604
 30
0.0
 10
110.9754828281589
 20
-158.1023220090855
 30
0.0
 10
110.9775498854501
 20
-158.087508098499
 30
0.0
 10
110.9775498854501
 20
-158.0430663667393
 30
0.0
 10
110.9775498854501
 20
-158.0430663667393
 30
0.0
 10
110.9775498854501
 20
-157.7216389579654
 30
0.0
 10
110.9775498854501
 20
-157.7216389579654
 30
0.0
 10
110.9775498854501
 20
-157.6665174302014
 30
0.0
 10
110.9648030321546
 20
-157.4274278035251
 30
0.0
 10
110.9627359748635
 20
-157.3767848998919
 30
0.0
 10
110.9627359748635
 20
-157.3767848998919
 30
0.0
 10
111.1639295512021
 20
-157.4043456637739
 30
0.0
 10
111.1639295512021
 20
-157.4043456637739
 30
0.0
 10
111.1849446336621
 20
-157.4064127210651
 30
0.0
 10
111.2166395121264
 20
-157.4105468356474
 30
0.0
 10
111.2166395121264
 20
-157.4360405422382
 30
0.0
 10
111.2166395121264
 20
-157.4632567965717
 30
0.0
 10
111.1659966084932
 20
-157.4846163885802
 30
0.0
 10
111.1446370164847
 20
-157.4928846177448
 30
0.0
  0
SPLINE
  5
119
330
109
100
AcDbEntity
  8
_U+30EC_U+30A4_U+30E4_U+30FC 1
370
     0
100
AcDbSpline
210
0.0
220
0.0
230
1.0
 70
    11
 71
     3
 72
    83
 73
    79
 74
     0
 42
0.0000000001
 43
0.0000000001
 12
1.0
 22
0.0
 32
0.0
 13
1.0
 23
0.0
 33
0.0
 40
0.0
 40
0.0
 40
0.0
 40
0.0
 40
1.0
 40
1.0
 40
1.0
 40
2.0
 40
2.0
 40
2.0
 40
3.0
 40
3.0
 40
3.0
 40
4.0
 40
4.0
 40
4.0
 40
5.0
 40
5.0
 40
5.0
 40
6.0
 40
6.0
 40
6.0
 40
7.0
 40
7.0
 40
7.0
 40
8.0
 40
8.0
 40
8.0
 40
9.0
 40
9.0
 40
9.0
 40
10.0
 40
10.0
 40
10.0
 40
11.0
 40
11.0
 40
11.0
 40
12.0
 40
12.0
 40
12.0
 40
13.0
 40
13.0
 40
13.0
 40
14.0
 40
14.0
 40
14.0
 40
15.0
 40
15.0
 40
15.0
 40
16.0
 40
16.0
 40
16.0
 40
17.0
 40
17.0
 40
17.0
 40
18.0
 40
18.0
 40
18.0
 40
19.0
 40
19.0
 40
19.0
 40
20.0
 40
20.0
 40
20.0
 40
21.0
 40
21.0
 40
21.0
 40
22.0
 40
22.0
 40
22.0
 40
23.0
 40
23.0
 40
23.0
 40
24.0
 40
24.0
 40
24.0
 40
25.0
 40
25.0
 40
25.0
 40
26.0
 40
26.0
 40
26.0
 40
26.0
 10
111.9466552454508
 20
-157.8146565360672
 30
0.0
 10
111.9466552454508
 20
-157.8146565360672
 30
0.0
 10
111.8491590432183
 20
-157.8146565360672
 30
0.0
 10
111.8491590432183
 20
-157.8146565360672
 30
0.0
 10
111.8491590432183
 20
-157.8146565360672
 30
0.0
 10
111.8491590432183
 20
-158.0620143919081
 30
0.0
 10
111.8491590432183
 20
-158.0620143919081
 30
0.0
 10
111.8491590432183
 20
-158.0620143919081
 30
0.0
 10
111.9318413348643
 20
-158.0620143919081
 30
0.0
 10
111.9318413348643
 20
-158.0620143919081
 30
0.0
 10
111.997298149084
 20
-158.0620143919081
 30
0.0
 10
112.1368245162366
 20
-158.0578802773258
 30
0.0
 10
112.2363877757603
 20
-158.0492675386127
 30
0.0
 10
112.2363877757603
 20
-158.0492675386127
 30
0.0
 10
112.2363877757603
 20
-158.2291015229427
 30
0.0
 10
112.2363877757603
 20
-158.2291015229427
 30
0.0
 10
112.1433701976586
 20
-158.2208332937781
 30
0.0
 10
111.9931640345017
 20
-158.2166991791958
 30
0.0
 10
111.9318413348643
 20
-158.2166991791958
 30
0.0
 10
111.9318413348643
 20
-158.2166991791958
 30
0.0
 10
111.6269503844197
 20
-158.2166991791958
 30
0.0
 10
111.6269503844197
 20
-158.2166991791958
 30
0.0
 10
111.5742404234953
 20
-158.2166991791958
 30
0.0
 10
111.4281683749207
 20
-158.2208332937781
 30
0.0
 10
111.3224039435236
 20
-158.2291015229427
 30
0.0
 10
111.3224039435236
 20
-158.2291015229427
 30
0.0
 10
111.3224039435236
 20
-158.0492675386127
 30
0.0
 10
111.3224039435236
 20
-158.0492675386127
 30
0.0
 10
111.4219672030473
 20
-158.0578802773258
 30
0.0
 10
111.5614935701999
 20
-158.0620143919081
 30
0.0
 10
111.6269503844197
 20
-158.0620143919081
 30
0.0
 10
111.6269503844197
 20
-158.0620143919081
 30
0.0
 10
111.6713921161794
 20
-158.0620143919081
 30
0.0
 10
111.6713921161794
 20
-158.0620143919081
 30
0.0
 10
111.6713921161794
 20
-158.0620143919081
 30
0.0
 10
111.6713921161794
 20
-157.8146565360672
 30
0.0
 10
111.6713921161794
 20
-157.8146565360672
 30
0.0
 10
111.6713921161794
 20
-157.8146565360672
 30
0.0
 10
111.597667072795
 20
-157.8146565360672
 30
0.0
 10
111.597667072795
 20
-157.8146565360672
 30
0.0
 10
111.5359998636091
 20
-157.8146565360672
 30
0.0
 10
111.3689127325744
 20
-157.8187906506495
 30
0.0
 10
111.2483343905907
 20
-157.8274033893626
 30
0.0
 10
111.2483343905907
 20
-157.8274033893626
 30
0.0
 10
111.2483343905907
 20
-157.6496364623237
 30
0.0
 10
111.2483343905907
 20
-157.6496364623237
 30
0.0
 10
111.362711560701
 20
-157.6558376341972
 30
0.0
 10
111.5211859530225
 20
-157.660316258328
 30
0.0
 10
111.597667072795
 20
-157.660316258328
 30
0.0
 10
111.597667072795
 20
-157.660316258328
 30
0.0
 10
111.6693250588882
 20
-157.660316258328
 30
0.0
 10
111.6693250588882
 20
-157.660316258328
 30
0.0
 10
111.6651909443059
 20
-157.5076985283314
 30
0.0
 10
111.6631238870148
 20
-157.473936592576
 30
0.0
 10
111.6565782055928
 20
-157.3809190144742
 30
0.0
 10
111.6565782055928
 20
-157.3809190144742
 30
0.0
 10
111.8684515779357
 20
-157.4043456637739
 30
0.0
 10
111.8684515779357
 20
-157.4043456637739
 30
0.0
 10
111.893600774978
 20
-157.4064127210651
 30
0.0
 10
111.9170274242777
 20
-157.4105468356474
 30
0.0
 10
111.9170274242777
 20
-157.4336289753985
 30
0.0
 10
111.9170274242777
 20
-157.4656683634114
 30
0.0
 10
111.872585692518
 20
-157.4825493312891
 30
0.0
 10
111.8491590432183
 20
-157.4908175604537
 30
0.0
 10
111.8491590432183
 20
-157.4908175604537
 30
0.0
 10
111.8491590432183
 20
-157.660316258328
 30
0.0
 10
111.8491590432183
 20
-157.660316258328
 30
0.0
 10
111.8491590432183
 20
-157.660316258328
 30
0.0
 10
111.9466552454508
 20
-157.660316258328
 30
0.0
 10
111.9466552454508
 20
-157.660316258328
 30
0.0
 10
112.0227918556749
 20
-157.660316258328
 30
0.0
 10
112.1812662479964
 20
-157.6558376341972
 30
0.0
 10
112.2977104753978
 20
-157.6496364623237
 30
0.0
 10
112.2977104753978
 20
-157.6496364623237
 30
0.0
 10
112.2977104753978
 20
-157.8274033893626
 30
0.0
 10
112.2977104753978
 20
-157.8274033893626
 30
0.0
 10
112.1898789867095
 20
-157.8208577079406
 30
0.0
 10
112.0162461742529
 20
-157.8146565360672
 30
0.0
 10
111.9466552454508
 20
-157.8146565360672
 30
0.0
  0
SPLINE
  5
11A
330
109
100
AcDbEntity
  8
_U+30EC_U+30A4_U+30E4_U+30FC 1
370
     0
100
AcDbSpline
210
0.0
220
0.0
230
1.0
 70
    11
 71
     3
 72
    17
 73
    13
 74
     0
 42
0.0000000001
 43
0.0000000001
 12
1.0
 22
0.0
 32
0.0
 13
1.0
 23
0.0
 33
0.0
 40
0.0
 40
0.0
 40
0.0
 40
0.0
 40
1.0
 40
1.0
 40
1.0
 40
2.0
 40
2.0
 40
2.0
 40
3.0
 40
3.0
 40
3.0
 40
4.0
 40
4.0
 40
4.0
 40
4.0
 10
111.7010199373525
 20
-158.6121961409025
 30
0.0
 10
111.7010199373525
 20
-158.6121961409025
 30
0.0
 10
111.4981038132713
 20
-158.6121961409025
 30
0.0
 10
111.4981038132713
 20
-158.6121961409025
 30
0.0
 10
111.5256645771533
 20
-158.6714517832488
 30
0.0
 10
111.5804415953688
 20
-158.7434542788905
 30
0.0
 10
111.6080023592508
 20
-158.7727375905152
 30
0.0
 10
111.6355631231328
 20
-158.7582681894771
 30
0.0
 10
111.7499402932431
 20
-158.694533923
 30
0.0
 10
111.8408908140537
 20
-158.6121961409025
 30
0.0
 10
111.8408908140537
 20
-158.6121961409025
 30
0.0
 10
111.7010199373525
 20
-158.6121961409025
 30
0.0
 10
111.7010199373525
 20
-158.6121961409025
 30
0.0
  0
HATCH
  5
11B
330
109
100
AcDbEntity
  8
_U+30EC_U+30A4_U+30E4_U+30FC 1
 62
     7
420
 16777215
100
AcDbHatch
 10
0.0
 20
0.0
 30
0.0
210
0.0
220
0.0
230
1.0
  2
SOLID
 70
     1
 71
     0
 91
        6
 92
        1
 93
        1
 72
     4
 94
        3
 73
     0
 74
     1
 95
      113
 96
      109
 40
0.0
 40
0.0
 40
0.0
 40
0.0
 40
1.0
 40
1.0
 40
1.0
 40
2.0
 40
2.0
 40
2.0
 40
3.0
 40
3.0
 40
3.0
 40
4.0
 40
4.0
 40
4.0
 40
5.0
 40
5.0
 40
5.0
 40
6.0
 40
6.0
 40
6.0
 40
7.0
 40
7.0
 40
7.0
 40
8.0
 40
8.0
 40
8.0
 40
9.0
 40
9.0
 40
9.0
 40
10.0
 40
10.0
 40
10.0
 40
11.0
 40
11.0
 40
11.0
 40
12.0
 40
12.0
 40
12.0
 40
13.0
 40
13.0
 40
13.0
 40
14.0
 40
14.0
 40
14.0
 40
15.0
 40
15.0
 40
15.0
 40
16.0
 40
16.0
 40
16.0
 40
17.0
 40
17.0
 40
17.0
 40
18.0
 40
18.0
 40
18.0
 40
19.0
 40
19.0
 40
19.0
 40
20.0
 40
20.0
 40
20.0
 40
21.0
 40
21.0
 40
21.0
 40
22.0
 40
22.0
 40
22.0
 40
23.0
 40
23.0
 40
23.0
 40
24.0
 40
24.0
 40
24.0
 40
25.0
 40
25.0
 40
25.0
 40
26.0
 40
26.0
 40
26.0
 40
27.0
 40
27.0
 40
27.0
 40
28.0
 40
28.0
 40
28.0
 40
29.0
 40
29.0
 40
29.0
 40
30.0
 40
30.0
 40
30.0
 40
31.0
 40
31.0
 40
31.0
 40
32.0
 40
32.0
 40
32.0
 40
33.0
 40
33.0
 40
33.0
 40
34.0
 40
34.0
 40
34.0
 40
35.0
 40
35.0
 40
35.0
 40
36.0
 40
36.0
 40
36.0
 40
36.0
 10
111.9084146855646
 20
-158.6142631981937
 10
111.9084146855646
 20
-158.6142631981937
 10
112.0079779450883
 20
-158.7138264577174
 10
112.0079779450883
 20
-158.7138264577174
 10
112.0186577410926
 20
-158.7241617441731
 10
112.0289930275483
 20
-158.7369085974686
 10
112.0289930275483
 20
-158.7517225080551
 10
112.0289930275483
 20
-158.7537895653463
 10
112.0289930275483
 20
-158.7834173865194
 10
111.9910969772106
 20
-158.7834173865194
 10
111.9824842384974
 20
-158.7834173865194
 10
111.94217662132
 20
-158.7792832719371
 10
111.9359754494466
 20
-158.7792832719371
 10
111.8956678322691
 20
-158.8109781504014
 10
111.8491590432183
 20
-158.8447400861569
 10
111.7499402932431
 20
-158.901928671212
 10
111.8956678322691
 20
-159.0097601599003
 10
112.0544867341392
 20
-159.0669487449555
 10
112.3273382965709
 20
-159.1051893048418
 10
112.3273382965709
 20
-159.1051893048418
 10
112.1771321334141
 20
-159.280544665041
 10
112.1771321334141
 20
-159.280544665041
 10
111.9149603669865
 20
-159.2085421693993
 10
111.7582085224077
 20
-159.1200032154283
 10
111.6820719121837
 20
-159.0669487449555
 10
111.5318657490268
 20
-158.9653184281406
 10
111.3882052672918
 20
-158.8023654116883
 10
111.3120686570678
 20
-158.6373453379449
 10
111.2442002760084
 20
-158.7031466617131
 10
111.1701307230755
 20
-158.7558566226374
 10
111.0919270555604
 20
-158.804776978528
 10
111.0919270555604
 20
-158.804776978528
 10
111.0919270555604
 20
-159.0562689489512
 10
111.0919270555604
 20
-159.0562689489512
 10
111.2548800720127
 20
-159.0311197519089
 10
111.4409152282162
 20
-158.9866780201492
 10
111.5043049851448
 20
-158.9718641095626
 10
111.5043049851448
 20
-158.9718641095626
 10
111.4746771639716
 20
-159.1410182978884
 10
111.4746771639716
 20
-159.1410182978884
 10
111.4726101066805
 20
-159.1410182978884
 10
111.4536620815116
 20
-159.1472194697618
 10
111.4515950242204
 20
-159.1472194697618
 10
111.2528130147215
 20
-159.1854600296481
 10
110.93551972053
 20
-159.2509168438678
 10
110.7384602587737
 20
-159.2870903464629
 10
110.728124972318
 20
-159.3039713143407
 10
110.7046983230183
 20
-159.335666192805
 10
110.6816161832671
 20
-159.335666192805
 10
110.6540554193851
 20
-159.335666192805
 10
110.6499213048028
 20
-159.3167181676361
 10
110.6475097379631
 20
-159.2974256329187
 10
110.6475097379631
 20
-159.2974256329187
 10
110.6223605409208
 20
-159.1241373300106
 10
110.6223605409208
 20
-159.1241373300106
 10
110.6964300938537
 20
-159.1155245912975
 10
110.804261582542
 20
-159.1027777380021
 10
110.9120930712303
 20
-159.0817626555421
 10
110.9120930712303
 20
-159.0817626555421
 10
110.9120930712303
 20
-158.9039957285032
 10
110.9120930712303
 20
-158.9039957285032
 10
110.7680880799469
 20
-158.9759982241449
 10
110.673003444554
 20
-159.0056260453181
 10
110.5079833708105
 20
-159.0352538664912
 10
110.5079833708105
 20
-159.0352538664912
 10
110.3874050288268
 20
-158.8660996781654
 10
110.3874050288268
 20
-158.8660996781654
 10
110.7046983230183
 20
-158.8385389142834
 10
110.8972791606437
 20
-158.7455213361817
 10
111.0750460876826
 20
-158.6121961409025
 10
110.928974039108
 20
-158.6121961409025
 10
110.6285617127943
 20
-158.6163302554848
 10
110.4318467605865
 20
-158.6228759369068
 10
110.4318467605865
 20
-158.6228759369068
 10
110.4318467605865
 20
-158.4451090098679
 10
110.4318467605865
 20
-158.4451090098679
 10
110.5861870383257
 20
-158.4513101817413
 10
110.8824652500572
 20
-158.4578558631633
 10
111.0664333489695
 20
-158.4578558631633
 10
111.0664333489695
 20
-158.4578558631633
 10
111.2779622117638
 20
-158.4578558631633
 10
111.2779622117638
 20
-158.4578558631633
 10
111.2779622117638
 20
-158.3624267182219
 10
111.2758951544727
 20
-158.3117838145887
 10
111.2696939825993
 20
-158.2652750255378
 10
111.2696939825993
 20
-158.2652750255378
 10
111.4853569599759
 20
-158.2821559934156
 10
111.4853569599759
 20
-158.2821559934156
 10
111.5339328063179
 20
-158.2862901079979
 10
111.542545545031
 20
-158.3011040185845
 10
111.542545545031
 20
-158.315917929171
 10
111.542545545031
 20
-158.3414116357619
 10
111.5256645771533
 20
-158.3496798649265
 10
111.4746771639716
 20
-158.3751735715173
 10
111.4726101066805
 20
-158.4006672781082
 10
111.4726101066805
 20
-158.4068684499816
 10
111.4705430493893
 20
-158.4578558631633
 10
111.4705430493893
 20
-158.4578558631633
 10
111.7010199373525
 20
-158.4578558631633
 10
111.7010199373525
 20
-158.4578558631633
 10
111.866040011096
 20
-158.4578558631633
 10
112.1581841082452
 20
-158.4513101817413
 10
112.3380180925752
 20
-158.4451090098679
 10
112.3380180925752
 20
-158.4451090098679
 10
112.3380180925752
 20
-158.6228759369068
 10
112.3380180925752
 20
-158.6228759369068
 10
112.2088270118784
 20
-158.618397312776
 10
112.1857448721272
 20
-158.618397312776
 10
111.9084146855646
 20
-158.6142631981937
 97
        0
 97
        0
 92
        1
 93
        1
 72
     4
 94
        3
 73
     0
 74
     1
 95
       23
 96
       19
 40
0.0
 40
0.0
 40
0.0
 40
0.0
 40
1.0
 40
1.0
 40
1.0
 40
2.0
 40
2.0
 40
2.0
 40
3.0
 40
3.0
 40
3.0
 40
4.0
 40
4.0
 40
4.0
 40
5.0
 40
5.0
 40
5.0
 40
6.0
 40
6.0
 40
6.0
 40
6.0
 10
110.624427598212
 20
-158.2632079682467
 10
110.6075466303342
 20
-158.3031710758756
 10
110.6010009489123
 20
-158.3200520437533
 10
110.5799858664522
 20
-158.3200520437533
 10
110.5651719558657
 20
-158.3200520437533
 10
110.5544921598614
 20
-158.3031710758756
 10
110.5482909879879
 20
-158.2904242225802
 10
110.5482909879879
 20
-158.2904242225802
 10
110.4487277284642
 20
-158.1254041488367
 10
110.4487277284642
 20
-158.1254041488367
 10
110.5503580452791
 20
-158.0937092703724
 10
110.700564208436
 20
-158.0389322521569
 10
110.8993462179349
 20
-157.8759792357046
 10
110.8993462179349
 20
-157.8759792357046
 10
110.95653480299
 20
-158.0492675386127
 10
110.95653480299
 20
-158.0492675386127
 10
110.8635172248883
 20
-158.1319498302587
 10
110.7746337613688
 20
-158.1891384153138
 10
110.624427598212
 20
-158.2632079682467
 97
        0
 97
        0
 92
        1
 93
        1
 72
     4
 94
        3
 73
     0
 74
     1
 95
       17
 96
       13
 40
0.0
 40
0.0
 40
0.0
 40
0.0
 40
1.0
 40
1.0
 40
1.0
 40
2.0
 40
2.0
 40
2.0
 40
3.0
 40
3.0
 40
3.0
 40
4.0
 40
4.0
 40
4.0
 40
4.0
 10
110.77670081866
 20
-157.7977755681895
 10
110.7470729974869
 20
-157.757467951012
 10
110.6792046164274
 20
-157.660316258328
 10
110.4973035748062
 20
-157.5500732028
 10
110.4973035748062
 20
-157.5500732028
 10
110.624427598212
 20
-157.4167480075208
 10
110.624427598212
 20
-157.4167480075208
 10
110.8104627544154
 20
-157.5183783243357
 10
110.8676513394706
 20
-157.6072617878551
 10
110.8952121033526
 20
-157.6496364623237
 10
110.8952121033526
 20
-157.6496364623237
 10
110.77670081866
 20
-157.7977755681895
 10
110.77670081866
 20
-157.7977755681895
 97
        0
 97
        0
 92
        1
 93
        1
 72
     4
 94
        3
 73
     0
 74
     1
 95
       38
 96
       34
 40
0.0
 40
0.0
 40
0.0
 40
0.0
 40
1.0
 40
1.0
 40
1.0
 40
2.0
 40
2.0
 40
2.0
 40
3.0
 40
3.0
 40
3.0
 40
4.0
 40
4.0
 40
4.0
 40
5.0
 40
5.0
 40
5.0
 40
6.0
 40
6.0
 40
6.0
 40
7.0
 40
7.0
 40
7.0
 40
8.0
 40
8.0
 40
8.0
 40
9.0
 40
9.0
 40
9.0
 40
10.0
 40
10.0
 40
10.0
 40
11.0
 40
11.0
 40
11.0
 40
11.0
 10
111.1446370164847
 20
-157.4928846177448
 10
111.1425699591935
 20
-157.5397379163443
 10
111.1405029019024
 20
-157.6558376341972
 10
111.1405029019024
 20
-157.7002793659569
 10
111.1405029019024
 20
-157.7002793659569
 10
111.1405029019024
 20
-158.0472004813215
 10
111.1405029019024
 20
-158.0472004813215
 10
111.1405029019024
 20
-158.1340168875498
 10
111.1425699591935
 20
-158.2756103119936
 10
111.1532497551978
 20
-158.3961886539774
 10
111.1532497551978
 20
-158.3961886539774
 10
110.9627359748635
 20
-158.3961886539774
 10
110.9627359748635
 20
-158.3961886539774
 10
110.9672145989943
 20
-158.3327988970487
 10
110.9713487135766
 20
-158.2800889361244
 10
110.9734157708678
 20
-158.2249674083604
 10
110.9754828281589
 20
-158.1023220090855
 10
110.9775498854501
 20
-158.087508098499
 10
110.9775498854501
 20
-158.0430663667393
 10
110.9775498854501
 20
-158.0430663667393
 10
110.9775498854501
 20
-157.7216389579654
 10
110.9775498854501
 20
-157.7216389579654
 10
110.9775498854501
 20
-157.6665174302014
 10
110.9648030321546
 20
-157.4274278035251
 10
110.9627359748635
 20
-157.3767848998919
 10
110.9627359748635
 20
-157.3767848998919
 10
111.1639295512021
 20
-157.4043456637739
 10
111.1639295512021
 20
-157.4043456637739
 10
111.1849446336621
 20
-157.4064127210651
 10
111.2166395121264
 20
-157.4105468356474
 10
111.2166395121264
 20
-157.4360405422382
 10
111.2166395121264
 20
-157.4632567965717
 10
111.1659966084932
 20
-157.4846163885802
 10
111.1446370164847
 20
-157.4928846177448
 97
        0
 97
        0
 92
        1
 93
        1
 72
     4
 94
        3
 73
     0
 74
     1
 95
       83
 96
       79
 40
0.0
 40
0.0
 40
0.0
 40
0.0
 40
1.0
 40
1.0
 40
1.0
 40
2.0
 40
2.0
 40
2.0
 40
3.0
 40
3.0
 40
3.0
 40
4.0
 40
4.0
 40
4.0
 40
5.0
 40
5.0
 40
5.0
 40
6.0
 40
6.0
 40
6.0
 40
7.0
 40
7.0
 40
7.0
 40
8.0
 40
8.0
 40
8.0
 40
9.0
 40
9.0
 40
9.0
 40
10.0
 40
10.0
 40
10.0
 40
11.0
 40
11.0
 40
11.0
 40
12.0
 40
12.0
 40
12.0
 40
13.0
 40
13.0
 40
13.0
 40
14.0
 40
14.0
 40
14.0
 40
15.0
 40
15.0
 40
15.0
 40
16.0
 40
16.0
 40
16.0
 40
17.0
 40
17.0
 40
17.0
 40
18.0
 40
18.0
 40
18.0
 40
19.0
 40
19.0
 40
19.0
 40
20.0
 40
20.0
 40
20.0
 40
21.0
 40
21.0
 40
21.0
 40
22.0
 40
22.0
 40
22.0
 40
23.0
 40
23.0
 40
23.0
 40
24.0
 40
24.0
 40
24.0
 40
25.0
 40
25.0
 40
25.0
 40
26.0
 40
26.0
 40
26.0
 40
26.0
 10
111.9466552454508
 20
-157.8146565360672
 10
111.9466552454508
 20
-157.8146565360672
 10
111.8491590432183
 20
-157.8146565360672
 10
111.8491590432183
 20
-157.8146565360672
 10
111.8491590432183
 20
-157.8146565360672
 10
111.8491590432183
 20
-158.0620143919081
 10
111.8491590432183
 20
-158.0620143919081
 10
111.8491590432183
 20
-158.0620143919081
 10
111.9318413348643
 20
-158.0620143919081
 10
111.9318413348643
 20
-158.0620143919081
 10
111.997298149084
 20
-158.0620143919081
 10
112.1368245162366
 20
-158.0578802773258
 10
112.2363877757603
 20
-158.0492675386127
 10
112.2363877757603
 20
-158.0492675386127
 10
112.2363877757603
 20
-158.2291015229427
 10
112.2363877757603
 20
-158.2291015229427
 10
112.1433701976586
 20
-158.2208332937781
 10
111.9931640345017
 20
-158.2166991791958
 10
111.9318413348643
 20
-158.2166991791958
 10
111.9318413348643
 20
-158.2166991791958
 10
111.6269503844197
 20
-158.2166991791958
 10
111.6269503844197
 20
-158.2166991791958
 10
111.5742404234953
 20
-158.2166991791958
 10
111.4281683749207
 20
-158.2208332937781
 10
111.3224039435236
 20
-158.2291015229427
 10
111.3224039435236
 20
-158.2291015229427
 10
111.3224039435236
 20
-158.0492675386127
 10
111.3224039435236
 20
-158.0492675386127
 10
111.4219672030473
 20
-158.0578802773258
 10
111.5614935701999
 20
-158.0620143919081
 10
111.6269503844197
 20
-158.0620143919081
 10
111.6269503844197
 20
-158.0620143919081
 10
111.6713921161794
 20
-158.0620143919081
 10
111.6713921161794
 20
-158.0620143919081
 10
111.6713921161794
 20
-158.0620143919081
 10
111.6713921161794
 20
-157.8146565360672
 10
111.6713921161794
 20
-157.8146565360672
 10
111.6713921161794
 20
-157.8146565360672
 10
111.597667072795
 20
-157.8146565360672
 10
111.597667072795
 20
-157.8146565360672
 10
111.5359998636091
 20
-157.8146565360672
 10
111.3689127325744
 20
-157.8187906506495
 10
111.2483343905907
 20
-157.8274033893626
 10
111.2483343905907
 20
-157.8274033893626
 10
111.2483343905907
 20
-157.6496364623237
 10
111.2483343905907
 20
-157.6496364623237
 10
111.362711560701
 20
-157.6558376341972
 10
111.5211859530225
 20
-157.660316258328
 10
111.597667072795
 20
-157.660316258328
 10
111.597667072795
 20
-157.660316258328
 10
111.6693250588882
 20
-157.660316258328
 10
111.6693250588882
 20
-157.660316258328
 10
111.6651909443059
 20
-157.5076985283314
 10
111.6631238870148
 20
-157.473936592576
 10
111.6565782055928
 20
-157.3809190144742
 10
111.6565782055928
 20
-157.3809190144742
 10
111.8684515779357
 20
-157.4043456637739
 10
111.8684515779357
 20
-157.4043456637739
 10
111.893600774978
 20
-157.4064127210651
 10
111.9170274242777
 20
-157.4105468356474
 10
111.9170274242777
 20
-157.4336289753985
 10
111.9170274242777
 20
-157.4656683634114
 10
111.872585692518
 20
-157.4825493312891
 10
111.8491590432183
 20
-157.4908175604537
 10
111.8491590432183
 20
-157.4908175604537
 10
111.8491590432183
 20
-157.660316258328
 10
111.8491590432183
 20
-157.660316258328
 10
111.8491590432183
 20
-157.660316258328
 10
111.9466552454508
 20
-157.660316258328
 10
111.9466552454508
 20
-157.660316258328
 10
112.0227918556749
 20
-157.660316258328
 10
112.1812662479964
 20
-157.6558376341972
 10
112.2977104753978
 20
-157.6496364623237
 10
112.2977104753978
 20
-157.6496364623237
 10
112.2977104753978
 20
-157.8274033893626
 10
112.2977104753978
 20
-157.8274033893626
 10
112.1898789867095
 20
-157.8208577079406
 10
112.0162461742529
 20
-157.8146565360672
 10
111.9466552454508
 20
-157.8146565360672
 97
        0
 97
        0
 92
        1
 93
        1
 72
     4
 94
        3
 73
     0
 74
     1
 95
       17
 96
       13
 40
0.0
 40
0.0
 40
0.0
 40
0.0
 40
1.0
 40
1.0
 40
1.0
 40
2.0
 40
2.0
 40
2.0
 40
3.0
 40
3.0
 40
3.0
 40
4.0
 40
4.0
 40
4.0
 40
4.0
 10
111.7010199373525
 20
-158.6121961409025
 10
111.7010199373525
 20
-158.6121961409025
 10
111.4981038132713
 20
-158.6121961409025
 10
111.4981038132713
 20
-158.6121961409025
 10
111.5256645771533
 20
-158.6714517832488
 10
111.5804415953688
 20
-158.7434542788905
 10
111.6080023592508
 20
-158.7727375905152
 10
111.6355631231328
 20
-158.7582681894771
 10
111.7499402932431
 20
-158.694533923
 10
111.8408908140537
 20
-158.6121961409025
 10
111.8408908140537
 20
-158.6121961409025
 10
111.7010199373525
 20
-158.6121961409025
 10
111.7010199373525
 20
-158.6121961409025
 97
        0
 97
        0
 75
     2
 76
     1
 98
        0
  0
SPLINE
  5
11C
330
109
100
AcDbEntity
  8
_U+30EC_U+30A4_U+30E4_U+30FC 1
370
     0
100
AcDbSpline
210
0.0
220
0.0
230
1.0
 70
    11
 71
     3
 72
    77
 73
    73
 74
     0
 42
0.0000000001
 43
0.0000000001
 12
1.0
 22
0.0
 32
0.0
 13
1.0
 23
0.0
 33
0.0
 40
0.0
 40
0.0
 40
0.0
 40
0.0
 40
1.0
 40
1.0
 40
1.0
 40
2.0
 40
2.0
 40
2.0
 40
3.0
 40
3.0
 40
3.0
 40
4.0
 40
4.0
 40
4.0
 40
5.0
 40
5.0
 40
5.0
 40
6.0
 40
6.0
 40
6.0
 40
7.0
 40
7.0
 40
7.0
 40
8.0
 40
8.0
 40
8.0
 40
9.0
 40
9.0
 40
9.0
 40
10.0
 40
10.0
 40
10.0
 40
11.0
 40
11.0
 40
11.0
 40
12.0
 40
12.0
 40
12.0
 40
13.0
 40
13.0
 40
13.0
 40
14.0
 40
14.0
 40
14.0
 40
15.0
 40
15.0
 40
15.0
 40
16.0
 40
16.0
 40
16.0
 40
17.0
 40
17.0
 40
17.0
 40
18.0
 40
18.0
 40
18.0
 40
19.0
 40
19.0
 40
19.0
 40
20.0
 40
20.0
 40
20.0
 40
21.0
 40
21.0
 40
21.0
 40
22.0
 40
22.0
 40
22.0
 40
23.0
 40
23.0
 40
23.0
 40
24.0
 40
24.0
 40
24.0
 40
24.0
 10
114.1921684827367
 20
-159.2426486147032
 30
0.0
 10
114.1456596936858
 20
-159.2677978117456
 30
0.0
 10
114.0209472371198
 20
-159.280544665041
 30
0.0
 10
113.9423990600561
 20
-159.280544665041
 30
0.0
 10
113.9299967163092
 20
-159.280544665041
 30
0.0
 10
113.9045030097183
 20
-159.280544665041
 30
0.0
 10
113.8707410739629
 20
-159.2764105504587
 30
0.0
 10
113.8707410739629
 20
-159.2764105504587
 30
0.0
 10
113.7732448717303
 20
-159.0500677770778
 30
0.0
 10
113.7732448717303
 20
-159.0500677770778
 30
0.0
 10
113.8028726929034
 20
-159.0562689489512
 30
0.0
 10
113.8600612779586
 20
-159.0648816876644
 30
0.0
 10
113.9765055053601
 20
-159.0648816876644
 30
0.0
 10
114.0547091728752
 20
-159.0648816876644
 30
0.0
 10
114.0567762301664
 20
-159.0225070131958
 30
0.0
 10
114.0567762301664
 20
-158.9653184281406
 30
0.0
 10
114.0567762301664
 20
-158.9653184281406
 30
0.0
 10
114.0567762301664
 20
-158.6163302554848
 30
0.0
 10
114.0567762301664
 20
-158.6163302554848
 30
0.0
 10
114.0567762301664
 20
-158.6163302554848
 30
0.0
 10
113.5975450019826
 20
-158.6163302554848
 30
0.0
 10
113.5975450019826
 20
-158.6163302554848
 30
0.0
 10
113.5999565688222
 20
-158.7537895653463
 30
0.0
 10
113.6020236261134
 20
-158.9525715748452
 30
0.0
 10
113.6082247979868
 20
-159.0858967701244
 30
0.0
 10
113.610291855278
 20
-159.1134575340064
 30
0.0
 10
113.610291855278
 20
-159.1578992657661
 30
0.0
 10
113.6230387085734
 20
-159.2192219654035
 30
0.0
 10
113.6230387085734
 20
-159.2192219654035
 30
0.0
 10
113.3818820246059
 20
-159.2192219654035
 30
0.0
 10
113.3818820246059
 20
-159.2192219654035
 30
0.0
 10
113.4073757311968
 20
-159.0945095088375
 30
0.0
 10
113.4073757311968
 20
-158.7537895653463
 30
0.0
 10
113.4073757311968
 20
-158.6163302554848
 30
0.0
 10
113.4073757311968
 20
-158.6163302554848
 30
0.0
 10
112.9650254708907
 20
-158.6163302554848
 30
0.0
 10
112.9650254708907
 20
-158.6163302554848
 30
0.0
 10
112.9419433311395
 20
-158.8237250036969
 30
0.0
 10
112.8764865169198
 20
-159.0924424515463
 30
0.0
 10
112.6794270551635
 20
-159.2764105504587
 30
0.0
 10
112.6794270551635
 20
-159.2764105504587
 30
0.0
 10
112.4913248416688
 20
-159.1537651511838
 30
0.0
 10
112.4913248416688
 20
-159.1537651511838
 30
0.0
 10
112.7452283789318
 20
-158.9336235496763
 30
0.0
 10
112.776923257396
 20
-158.6015163448982
 30
0.0
 10
112.776923257396
 20
-158.2694091401202
 30
0.0
 10
112.776923257396
 20
-158.2694091401202
 30
0.0
 10
112.776923257396
 20
-157.8336045612361
 30
0.0
 10
112.776923257396
 20
-157.8336045612361
 30
0.0
 10
112.776923257396
 20
-157.7977755681895
 30
0.0
 10
112.7748562001049
 20
-157.5648871133866
 30
0.0
 10
112.7662434613918
 20
-157.4632567965717
 30
0.0
 10
112.9061143380929
 20
-157.473936592576
 30
0.0
 10
113.1472710220604
 20
-157.473936592576
 30
0.0
 10
113.2909315037953
 20
-157.473936592576
 30
0.0
 10
113.2909315037953
 20
-157.473936592576
 30
0.0
 10
113.7501627319791
 20
-157.473936592576
 30
0.0
 10
113.7501627319791
 20
-157.473936592576
 30
0.0
 10
113.7649766425657
 20
-157.473936592576
 30
0.0
 10
114.1139648152215
 20
-157.473936592576
 30
0.0
 10
114.272439207543
 20
-157.4632567965717
 30
0.0
 10
114.2703721502519
 20
-157.5163112670445
 30
0.0
 10
114.2641709783784
 20
-157.6771972262057
 30
0.0
 10
114.2641709783784
 20
-157.7278401298389
 30
0.0
 10
114.2641709783784
 20
-157.7278401298389
 30
0.0
 10
114.2641709783784
 20
-158.3348659543399
 30
0.0
 10
114.2641709783784
 20
-158.3348659543399
 30
0.0
 10
114.2641709783784
 20
-158.3541584890573
 30
0.0
 10
114.2745062648342
 20
-158.9253553205117
 30
0.0
 10
114.2745062648342
 20
-159.0373209237823
 30
0.0
 10
114.2745062648342
 20
-159.0945095088375
 30
0.0
 10
114.2745062648342
 20
-159.1961398256524
 30
0.0
 10
114.1921684827367
 20
-159.2426486147032
 30
0.0
  0
POLYLINE
  5
11D
330
109
100
AcDbEntity
  8
_U+30EC_U+30A4_U+30E4_U+30FC 1
370
     0
100
AcDb2dPolyline
 66
     1
 10
0.0
 20
0.0
 30
0.0
  0
VERTEX
  5
11E
330
11D
100
AcDbEntity
  8
_U+30EC_U+30A4_U+30E4_U+30FC 1
370
     0
100
AcDbVertex
100
AcDb2dVertex
 10
113.4073757311968
 20
-157.6558376341972
 30
0.0
  0
VERTEX
  5
11F
330
11D
100
AcDbEntity
  8
_U+30EC_U+30A4_U+30E4_U+30FC 1
370
     0
100
AcDbVertex
100
AcDb2dVertex
 10
112.9695040950215
 20
-157.6558376341972
 30
0.0
  0
VERTEX
  5
120
330
11D
100
AcDbEntity
  8
_U+30EC_U+30A4_U+30E4_U+30FC 1
370
     0
100
AcDbVertex
100
AcDb2dVertex
 10
112.9695040950215
 20
-157.9603840750932
 30
0.0
  0
VERTEX
  5
121
330
11D
100
AcDbEntity
  8
_U+30EC_U+30A4_U+30E4_U+30FC 1
370
     0
100
AcDbVertex
100
AcDb2dVertex
 10
113.4073757311968
 20
-157.9603840750932
 30
0.0
  0
VERTEX
  5
122
330
11D
100
AcDbEntity
  8
_U+30EC_U+30A4_U+30E4_U+30FC 1
370
     0
100
AcDbVertex
100
AcDb2dVertex
 10
113.4073757311968
 20
-157.6558376341972
 30
0.0
  0
SEQEND
  5
123
330
11D
100
AcDbEntity
  8
_U+30EC_U+30A4_U+30E4_U+30FC 1
370
     0
  0
POLYLINE
  5
124
330
109
100
AcDbEntity
  8
_U+30EC_U+30A4_U+30E4_U+30FC 1
370
     0
100
AcDb2dPolyline
 66
     1
 10
0.0
 20
0.0
 30
0.0
  0
VERTEX
  5
125
330
124
100
AcDbEntity
  8
_U+30EC_U+30A4_U+30E4_U+30FC 1
370
     0
100
AcDbVertex
100
AcDb2dVertex
 10
113.4073757311968
 20
-158.1278157156764
 30
0.0
  0
VERTEX
  5
126
330
124
100
AcDbEntity
  8
_U+30EC_U+30A4_U+30E4_U+30FC 1
370
     0
100
AcDbVertex
100
AcDb2dVertex
 10
112.9695040950215
 20
-158.1278157156764
 30
0.0
  0
VERTEX
  5
127
330
124
100
AcDbEntity
  8
_U+30EC_U+30A4_U+30E4_U+30FC 1
370
     0
100
AcDbVertex
100
AcDb2dVertex
 10
112.9695040950215
 20
-158.4364962711548
 30
0.0
  0
VERTEX
  5
128
330
124
100
AcDbEntity
  8
_U+30EC_U+30A4_U+30E4_U+30FC 1
370
     0
100
AcDbVertex
100
AcDb2dVertex
 10
113.4073757311968
 20
-158.4364962711548
 30
0.0
  0
VERTEX
  5
129
330
124
100
AcDbEntity
  8
_U+30EC_U+30A4_U+30E4_U+30FC 1
370
     0
100
AcDbVertex
100
AcDb2dVertex
 10
113.4073757311968
 20
-158.1278157156764
 30
0.0
  0
SEQEND
  5
12A
330
124
100
AcDbEntity
  8
_U+30EC_U+30A4_U+30E4_U+30FC 1
370
     0
  0
POLYLINE
  5
12B
330
109
100
AcDbEntity
  8
_U+30EC_U+30A4_U+30E4_U+30FC 1
370
     0
100
AcDb2dPolyline
 66
     1
 10
0.0
 20
0.0
 30
0.0
  0
VERTEX
  5
12C
330
12B
100
AcDbEntity
  8
_U+30EC_U+30A4_U+30E4_U+30FC 1
370
     0
100
AcDbVertex
100
AcDb2dVertex
 10
114.0567762301664
 20
-157.6558376341972
 30
0.0
  0
VERTEX
  5
12D
330
12B
100
AcDbEntity
  8
_U+30EC_U+30A4_U+30E4_U+30FC 1
370
     0
100
AcDbVertex
100
AcDb2dVertex
 10
113.5975450019826
 20
-157.6558376341972
 30
0.0
  0
VERTEX
  5
12E
330
12B
100
AcDbEntity
  8
_U+30EC_U+30A4_U+30E4_U+30FC 1
370
     0
100
AcDbVertex
100
AcDb2dVertex
 10
113.5975450019826
 20
-157.9603840750932
 30
0.0
  0
VERTEX
  5
12F
330
12B
100
AcDbEntity
  8
_U+30EC_U+30A4_U+30E4_U+30FC 1
370
     0
100
AcDbVertex
100
AcDb2dVertex
 10
114.0567762301664
 20
-157.9603840750932
 30
0.0
  0
VERTEX
  5
130
330
12B
100
AcDbEntity
  8
_U+30EC_U+30A4_U+30E4_U+30FC 1
370
     0
100
AcDbVertex
100
AcDb2dVertex
 10
114.0567762301664
 20
-157.6558376341972
 30
0.0
  0
SEQEND
  5
131
330
12B
100
AcDbEntity
  8
_U+30EC_U+30A4_U+30E4_U+30FC 1
370
     0
  0
POLYLINE
  5
132
330
109
100
AcDbEntity
  8
_U+30EC_U+30A4_U+30E4_U+30FC 1
370
     0
100
AcDb2dPolyline
 66
     1
 10
0.0
 20
0.0
 30
0.0
  0
VERTEX
  5
133
330
132
100
AcDbEntity
  8
_U+30EC_U+30A4_U+30E4_U+30FC 1
370
     0
100
AcDbVertex
100
AcDb2dVertex
 10
114.0567762301664
 20
-158.1278157156764
 30
0.0
  0
VERTEX
  5
134
330
132
100
AcDbEntity
  8
_U+30EC_U+30A4_U+30E4_U+30FC 1
370
     0
100
AcDbVertex
100
AcDb2dVertex
 10
113.5975450019826
 20
-158.1278157156764
 30
0.0
  0
VERTEX
  5
135
330
132
100
AcDbEntity
  8
_U+30EC_U+30A4_U+30E4_U+30FC 1
370
     0
100
AcDbVertex
100
AcDb2dVertex
 10
113.5975450019826
 20
-158.4364962711548
 30
0.0
  0
VERTEX
  5
136
330
132
100
AcDbEntity
  8
_U+30EC_U+30A4_U+30E4_U+30FC 1
370
     0
100
AcDbVertex
100
AcDb2dVertex
 10
114.0567762301664
 20
-158.4364962711548
 30
0.0
  0
VERTEX
  5
137
330
132
100
AcDbEntity
  8
_U+30EC_U+30A4_U+30E4_U+30FC 1
370
     0
100
AcDbVertex
100
AcDb2dVertex
 10
114.0567762301664
 20
-158.1278157156764
 30
0.0
  0
SEQEND
  5
138
330
132
100
AcDbEntity
  8
_U+30EC_U+30A4_U+30E4_U+30FC 1
370
     0
  0
HATCH
  5
139
330
109
100
AcDbEntity
  8
_U+30EC_U+30A4_U+30E4_U+30FC 1
 62
     7
420
 16777215
100
AcDbHatch
 10
0.0
 20
0.0
 30
0.0
210
0.0
220
0.0
230
1.0
  2
SOLID
 70
     1
 71
     0
 91
        5
 92
        1
 93
        1
 72
     4
 94
        3
 73
     0
 74
     1
 95
       77
 96
       73
 40
0.0
 40
0.0
 40
0.0
 40
0.0
 40
1.0
 40
1.0
 40
1.0
 40
2.0
 40
2.0
 40
2.0
 40
3.0
 40
3.0
 40
3.0
 40
4.0
 40
4.0
 40
4.0
 40
5.0
 40
5.0
 40
5.0
 40
6.0
 40
6.0
 40
6.0
 40
7.0
 40
7.0
 40
7.0
 40
8.0
 40
8.0
 40
8.0
 40
9.0
 40
9.0
 40
9.0
 40
10.0
 40
10.0
 40
10.0
 40
11.0
 40
11.0
 40
11.0
 40
12.0
 40
12.0
 40
12.0
 40
13.0
 40
13.0
 40
13.0
 40
14.0
 40
14.0
 40
14.0
 40
15.0
 40
15.0
 40
15.0
 40
16.0
 40
16.0
 40
16.0
 40
17.0
 40
17.0
 40
17.0
 40
18.0
 40
18.0
 40
18.0
 40
19.0
 40
19.0
 40
19.0
 40
20.0
 40
20.0
 40
20.0
 40
21.0
 40
21.0
 40
21.0
 40
22.0
 40
22.0
 40
22.0
 40
23.0
 40
23.0
 40
23.0
 40
24.0
 40
24.0
 40
24.0
 40
24.0
 10
114.1921684827367
 20
-159.2426486147032
 10
114.1456596936858
 20
-159.2677978117456
 10
114.0209472371198
 20
-159.280544665041
 10
113.9423990600561
 20
-159.280544665041
 10
113.9299967163092
 20
-159.280544665041
 10
113.9045030097183
 20
-159.280544665041
 10
113.8707410739629
 20
-159.2764105504587
 10
113.8707410739629
 20
-159.2764105504587
 10
113.7732448717303
 20
-159.0500677770778
 10
113.7732448717303
 20
-159.0500677770778
 10
113.8028726929034
 20
-159.0562689489512
 10
113.8600612779586
 20
-159.0648816876644
 10
113.9765055053601
 20
-159.0648816876644
 10
114.0547091728752
 20
-159.0648816876644
 10
114.0567762301664
 20
-159.0225070131958
 10
114.0567762301664
 20
-158.9653184281406
 10
114.0567762301664
 20
-158.9653184281406
 10
114.0567762301664
 20
-158.6163302554848
 10
114.0567762301664
 20
-158.6163302554848
 10
114.0567762301664
 20
-158.6163302554848
 10
113.5975450019826
 20
-158.6163302554848
 10
113.5975450019826
 20
-158.6163302554848
 10
113.5999565688222
 20
-158.7537895653463
 10
113.6020236261134
 20
-158.9525715748452
 10
113.6082247979868
 20
-159.0858967701244
 10
113.610291855278
 20
-159.1134575340064
 10
113.610291855278
 20
-159.1578992657661
 10
113.6230387085734
 20
-159.2192219654035
 10
113.6230387085734
 20
-159.2192219654035
 10
113.3818820246059
 20
-159.2192219654035
 10
113.3818820246059
 20
-159.2192219654035
 10
113.4073757311968
 20
-159.0945095088375
 10
113.4073757311968
 20
-158.7537895653463
 10
113.4073757311968
 20
-158.6163302554848
 10
113.4073757311968
 20
-158.6163302554848
 10
112.9650254708907
 20
-158.6163302554848
 10
112.9650254708907
 20
-158.6163302554848
 10
112.9419433311395
 20
-158.8237250036969
 10
112.8764865169198
 20
-159.0924424515463
 10
112.6794270551635
 20
-159.2764105504587
 10
112.6794270551635
 20
-159.2764105504587
 10
112.4913248416688
 20
-159.1537651511838
 10
112.4913248416688
 20
-159.1537651511838
 10
112.7452283789318
 20
-158.9336235496763
 10
112.776923257396
 20
-158.6015163448982
 10
112.776923257396
 20
-158.2694091401202
 10
112.776923257396
 20
-158.2694091401202
 10
112.776923257396
 20
-157.8336045612361
 10
112.776923257396
 20
-157.8336045612361
 10
112.776923257396
 20
-157.7977755681895
 10
112.7748562001049
 20
-157.5648871133866
 10
112.7662434613918
 20
-157.4632567965717
 10
112.9061143380929
 20
-157.473936592576
 10
113.1472710220604
 20
-157.473936592576
 10
113.2909315037953
 20
-157.473936592576
 10
113.2909315037953
 20
-157.473936592576
 10
113.7501627319791
 20
-157.473936592576
 10
113.7501627319791
 20
-157.473936592576
 10
113.7649766425657
 20
-157.473936592576
 10
114.1139648152215
 20
-157.473936592576
 10
114.272439207543
 20
-157.4632567965717
 10
114.2703721502519
 20
-157.5163112670445
 10
114.2641709783784
 20
-157.6771972262057
 10
114.2641709783784
 20
-157.7278401298389
 10
114.2641709783784
 20
-157.7278401298389
 10
114.2641709783784
 20
-158.3348659543399
 10
114.2641709783784
 20
-158.3348659543399
 10
114.2641709783784
 20
-158.3541584890573
 10
114.2745062648342
 20
-158.9253553205117
 10
114.2745062648342
 20
-159.0373209237823
 10
114.2745062648342
 20
-159.0945095088375
 10
114.2745062648342
 20
-159.1961398256524
 10
114.1921684827367
 20
-159.2426486147032
 97
        0
 97
        0
 92
        1
 93
        4
 72
     1
 10
113.4073757311968
 20
-157.6558376341972
 11
112.9695040950215
 21
-157.6558376341972
 72
     1
 10
112.9695040950215
 20
-157.6558376341972
 11
112.9695040950215
 21
-157.9603840750932
 72
     1
 10
112.9695040950215
 20
-157.9603840750932
 11
113.4073757311968
 21
-157.9603840750932
 72
     1
 10
113.4073757311968
 20
-157.9603840750932
 11
113.4073757311968
 21
-157.6558376341972
 97
        0
 92
        1
 93
        4
 72
     1
 10
113.4073757311968
 20
-158.1278157156764
 11
112.9695040950215
 21
-158.1278157156764
 72
     1
 10
112.9695040950215
 20
-158.1278157156764
 11
112.9695040950215
 21
-158.4364962711548
 72
     1
 10
112.9695040950215
 20
-158.4364962711548
 11
113.4073757311968
 21
-158.4364962711548
 72
     1
 10
113.4073757311968
 20
-158.4364962711548
 11
113.4073757311968
 21
-158.1278157156764
 97
        0
 92
        1
 93
        4
 72
     1
 10
114.0567762301664
 20
-157.6558376341972
 11
113.5975450019826
 21
-157.6558376341972
 72
     1
 10
113.5975450019826
 20
-157.6558376341972
 11
113.5975450019826
 21
-157.9603840750932
 72
     1
 10
113.5975450019826
 20
-157.9603840750932
 11
114.0567762301664
 21
-157.9603840750932
 72
     1
 10
114.0567762301664
 20
-157.9603840750932
 11
114.0567762301664
 21
-157.6558376341972
 97
        0
 92
        1
 93
        4
 72
     1
 10
114.0567762301664
 20
-158.1278157156764
 11
113.5975450019826
 21
-158.1278157156764
 72
     1
 10
113.5975450019826
 20
-158.1278157156764
 11
113.5975450019826
 21
-158.4364962711548
 72
     1
 10
113.5975450019826
 20
-158.4364962711548
 11
114.0567762301664
 21
-158.4364962711548
 72
     1
 10
114.0567762301664
 20
-158.4364962711548
 11
114.0567762301664
 21
-158.1278157156764
 97
        0
 75
     2
 76
     1
 98
        0
  0
SPLINE
  5
13A
330
109
100
AcDbEntity
  8
_U+30EC_U+30A4_U+30E4_U+30FC 1
370
     0
100
AcDbSpline
210
0.0
220
0.0
230
1.0
 70
    11
 71
     3
 72
    44
 73
    40
 74
     0
 42
0.0000000001
 43
0.0000000001
 12
1.0
 22
0.0
 32
0.0
 13
1.0
 23
0.0
 33
0.0
 40
0.0
 40
0.0
 40
0.0
 40
0.0
 40
1.0
 40
1.0
 40
1.0
 40
2.0
 40
2.0
 40
2.0
 40
3.0
 40
3.0
 40
3.0
 40
4.0
 40
4.0
 40
4.0
 40
5.0
 40
5.0
 40
5.0
 40
6.0
 40
6.0
 40
6.0
 40
7.0
 40
7.0
 40
7.0
 40
8.0
 40
8.0
 40
8.0
 40
9.0
 40
9.0
 40
9.0
 40
10.0
 40
10.0
 40
10.0
 40
11.0
 40
11.0
 40
11.0
 40
12.0
 40
12.0
 40
12.0
 40
13.0
 40
13.0
 40
13.0
 40
13.0
 10
109.7407606062454
 20
-160.5324923643808
 30
0.0
 10
109.6287950029748
 20
-160.9004285622055
 30
0.0
 10
109.5781520993416
 20
-161.0592474640755
 30
0.0
 10
109.3814371471338
 20
-161.3086723772076
 30
0.0
 10
109.197124538673
 20
-161.5394937747193
 30
0.0
 10
108.9604464788363
 20
-161.7255289309228
 30
0.0
 10
108.6810492349825
 20
-161.8185465090245
 30
0.0
 10
108.6810492349825
 20
-161.8185465090245
 30
0.0
 10
108.4884683973571
 20
-161.6387125246945
 30
0.0
 10
108.4884683973571
 20
-161.6387125246945
 30
0.0
 10
109.1296006671621
 20
-161.4864393042465
 30
0.0
 10
109.459640814649
 20
-160.9300563833786
 30
0.0
 10
109.5230305715776
 20
-160.4901176899122
 30
0.0
 10
109.5230305715776
 20
-160.4901176899122
 30
0.0
 10
108.7571858452065
 20
-160.4901176899122
 30
0.0
 10
108.7571858452065
 20
-160.4901176899122
 30
0.0
 10
108.6641682671048
 20
-160.4901176899122
 30
0.0
 10
108.4802001681925
 20
-160.4942518044945
 30
0.0
 10
108.3234483236136
 20
-160.5131998296634
 30
0.0
 10
108.3234483236136
 20
-160.5131998296634
 30
0.0
 10
108.3234483236136
 20
-160.2934027377044
 30
0.0
 10
108.3234483236136
 20
-160.2934027377044
 30
0.0
 10
108.4102647298419
 20
-160.3144178201645
 30
0.0
 10
108.6621012098136
 20
-160.3144178201645
 30
0.0
 10
108.7613199597888
 20
-160.3144178201645
 30
0.0
 10
108.7613199597888
 20
-160.3144178201645
 30
0.0
 10
109.1929904240907
 20
-160.3144178201645
 30
0.0
 10
109.1929904240907
 20
-160.3144178201645
 30
0.0
 10
109.2353650985592
 20
-160.3144178201645
 30
0.0
 10
109.4699761011047
 20
-160.3123507628733
 30
0.0
 10
109.508216660991
 20
-160.3061495909999
 30
0.0
 10
109.5505913354596
 20
-160.2996039095779
 30
0.0
 10
109.5526583927507
 20
-160.2975368522867
 30
0.0
 10
109.6139810923882
 20
-160.2572292351093
 30
0.0
 10
109.6139810923882
 20
-160.2572292351093
 30
0.0
 10
109.8020833058828
 20
-160.411914022397
 30
0.0
 10
109.8020833058828
 20
-160.411914022397
 30
0.0
 10
109.7727999942582
 20
-160.4415418435702
 30
0.0
 10
109.7579860836716
 20
-160.4732367220345
 30
0.0
 10
109.7407606062454
 20
-160.5324923643808
 30
0.0
  0
SPLINE
  5
13B
330
109
100
AcDbEntity
  8
_U+30EC_U+30A4_U+30E4_U+30FC 1
370
     0
100
AcDbSpline
210
0.0
220
0.0
230
1.0
 70
    11
 71
     3
 72
    17
 73
    13
 74
     0
 42
0.0000000001
 43
0.0000000001
 12
1.0
 22
0.0
 32
0.0
 13
1.0
 23
0.0
 33
0.0
 40
0.0
 40
0.0
 40
0.0
 40
0.0
 40
1.0
 40
1.0
 40
1.0
 40
2.0
 40
2.0
 40
2.0
 40
3.0
 40
3.0
 40
3.0
 40
4.0
 40
4.0
 40
4.0
 40
4.0
 10
109.9502224117486
 20
-160.3333658453333
 30
0.0
 10
109.8234428978914
 20
-160.3333658453333
 30
0.0
 10
109.7218125810765
 20
-160.232080038067
 30
0.0
 10
109.7218125810765
 20
-160.1049560146613
 30
0.0
 10
109.7218125810765
 20
-159.9781765008041
 30
0.0
 10
109.8234428978914
 20
-159.874479126698
 30
0.0
 10
109.9502224117486
 20
-159.874479126698
 30
0.0
 10
110.0773464351543
 20
-159.874479126698
 30
0.0
 10
110.1810438092603
 20
-159.9781765008041
 30
0.0
 10
110.1810438092603
 20
-160.1049560146613
 30
0.0
 10
110.1810438092603
 20
-160.232080038067
 30
0.0
 10
110.0773464351543
 20
-160.3333658453333
 30
0.0
 10
109.9502224117486
 20
-160.3333658453333
 30
0.0
  0
SPLINE
  5
13C
330
109
100
AcDbEntity
  8
_U+30EC_U+30A4_U+30E4_U+30FC 1
370
     0
100
AcDbSpline
210
0.0
220
0.0
230
1.0
 70
    11
 71
     3
 72
    17
 73
    13
 74
     0
 42
0.0000000001
 43
0.0000000001
 12
1.0
 22
0.0
 32
0.0
 13
1.0
 23
0.0
 33
0.0
 40
0.0
 40
0.0
 40
0.0
 40
0.0
 40
1.0
 40
1.0
 40
1.0
 40
2.0
 40
2.0
 40
2.0
 40
3.0
 40
3.0
 40
3.0
 40
4.0
 40
4.0
 40
4.0
 40
4.0
 10
109.9481553544574
 20
-160.0033256978464
 30
0.0
 10
109.8933783362419
 20
-160.0033256978464
 30
0.0
 10
109.8489366044822
 20
-160.0477674296061
 30
0.0
 10
109.8489366044822
 20
-160.1028889573701
 30
0.0
 10
109.8489366044822
 20
-160.1600775424253
 30
0.0
 10
109.8933783362419
 20
-160.2086533887673
 30
0.0
 10
109.9522894690397
 20
-160.2086533887673
 30
0.0
 10
110.011545111386
 20
-160.2086533887673
 30
0.0
 10
110.0518527285634
 20
-160.1580104851341
 30
0.0
 10
110.0518527285634
 20
-160.1049560146613
 30
0.0
 10
110.0518527285634
 20
-160.0477674296061
 30
0.0
 10
110.0053439395126
 20
-160.0033256978464
 30
0.0
 10
109.9481553544574
 20
-160.0033256978464
 30
0.0
  0
HATCH
  5
13D
330
109
100
AcDbEntity
  8
_U+30EC_U+30A4_U+30E4_U+30FC 1
 62
     7
420
 16777215
100
AcDbHatch
 10
0.0
 20
0.0
 30
0.0
210
0.0
220
0.0
230
1.0
  2
SOLID
 70
     1
 71
     0
 91
        3
 92
        1
 93
        1
 72
     4
 94
        3
 73
     0
 74
     1
 95
       44
 96
       40
 40
0.0
 40
0.0
 40
0.0
 40
0.0
 40
1.0
 40
1.0
 40
1.0
 40
2.0
 40
2.0
 40
2.0
 40
3.0
 40
3.0
 40
3.0
 40
4.0
 40
4.0
 40
4.0
 40
5.0
 40
5.0
 40
5.0
 40
6.0
 40
6.0
 40
6.0
 40
7.0
 40
7.0
 40
7.0
 40
8.0
 40
8.0
 40
8.0
 40
9.0
 40
9.0
 40
9.0
 40
10.0
 40
10.0
 40
10.0
 40
11.0
 40
11.0
 40
11.0
 40
12.0
 40
12.0
 40
12.0
 40
13.0
 40
13.0
 40
13.0
 40
13.0
 10
109.7407606062454
 20
-160.5324923643808
 10
109.6287950029748
 20
-160.9004285622055
 10
109.5781520993416
 20
-161.0592474640755
 10
109.3814371471338
 20
-161.3086723772076
 10
109.197124538673
 20
-161.5394937747193
 10
108.9604464788363
 20
-161.7255289309228
 10
108.6810492349825
 20
-161.8185465090245
 10
108.6810492349825
 20
-161.8185465090245
 10
108.4884683973571
 20
-161.6387125246945
 10
108.4884683973571
 20
-161.6387125246945
 10
109.1296006671621
 20
-161.4864393042465
 10
109.459640814649
 20
-160.9300563833786
 10
109.5230305715776
 20
-160.4901176899122
 10
109.5230305715776
 20
-160.4901176899122
 10
108.7571858452065
 20
-160.4901176899122
 10
108.7571858452065
 20
-160.4901176899122
 10
108.6641682671048
 20
-160.4901176899122
 10
108.4802001681925
 20
-160.4942518044945
 10
108.3234483236136
 20
-160.5131998296634
 10
108.3234483236136
 20
-160.5131998296634
 10
108.3234483236136
 20
-160.2934027377044
 10
108.3234483236136
 20
-160.2934027377044
 10
108.4102647298419
 20
-160.3144178201645
 10
108.6621012098136
 20
-160.3144178201645
 10
108.7613199597888
 20
-160.3144178201645
 10
108.7613199597888
 20
-160.3144178201645
 10
109.1929904240907
 20
-160.3144178201645
 10
109.1929904240907
 20
-160.3144178201645
 10
109.2353650985592
 20
-160.3144178201645
 10
109.4699761011047
 20
-160.3123507628733
 10
109.508216660991
 20
-160.3061495909999
 10
109.5505913354596
 20
-160.2996039095779
 10
109.5526583927507
 20
-160.2975368522867
 10
109.6139810923882
 20
-160.2572292351093
 10
109.6139810923882
 20
-160.2572292351093
 10
109.8020833058828
 20
-160.411914022397
 10
109.8020833058828
 20
-160.411914022397
 10
109.7727999942582
 20
-160.4415418435702
 10
109.7579860836716
 20
-160.4732367220345
 10
109.7407606062454
 20
-160.5324923643808
 97
        0
 97
        0
 92
        1
 93
        1
 72
     4
 94
        3
 73
     0
 74
     1
 95
       17
 96
       13
 40
0.0
 40
0.0
 40
0.0
 40
0.0
 40
1.0
 40
1.0
 40
1.0
 40
2.0
 40
2.0
 40
2.0
 40
3.0
 40
3.0
 40
3.0
 40
4.0
 40
4.0
 40
4.0
 40
4.0
 10
109.9502224117486
 20
-160.3333658453333
 10
109.8234428978914
 20
-160.3333658453333
 10
109.7218125810765
 20
-160.232080038067
 10
109.7218125810765
 20
-160.1049560146613
 10
109.7218125810765
 20
-159.9781765008041
 10
109.8234428978914
 20
-159.874479126698
 10
109.9502224117486
 20
-159.874479126698
 10
110.0773464351543
 20
-159.874479126698
 10
110.1810438092603
 20
-159.9781765008041
 10
110.1810438092603
 20
-160.1049560146613
 10
110.1810438092603
 20
-160.232080038067
 10
110.0773464351543
 20
-160.3333658453333
 10
109.9502224117486
 20
-160.3333658453333
 97
        0
 97
        0
 92
        1
 93
        1
 72
     4
 94
        3
 73
     0
 74
     1
 95
       17
 96
       13
 40
0.0
 40
0.0
 40
0.0
 40
0.0
 40
1.0
 40
1.0
 40
1.0
 40
2.0
 40
2.0
 40
2.0
 40
3.0
 40
3.0
 40
3.0
 40
4.0
 40
4.0
 40
4.0
 40
4.0
 10
109.9481553544574
 20
-160.0033256978464
 10
109.8933783362419
 20
-160.0033256978464
 10
109.8489366044822
 20
-160.0477674296061
 10
109.8489366044822
 20
-160.1028889573701
 10
109.8489366044822
 20
-160.1600775424253
 10
109.8933783362419
 20
-160.2086533887673
 10
109.9522894690397
 20
-160.2086533887673
 10
110.011545111386
 20
-160.2086533887673
 10
110.0518527285634
 20
-160.1580104851341
 10
110.0518527285634
 20
-160.1049560146613
 10
110.0518527285634
 20
-160.0477674296061
 10
110.0053439395126
 20
-160.0033256978464
 10
109.9481553544574
 20
-160.0033256978464
 97
        0
 97
        0
 75
     2
 76
     1
 98
        0
  0
SPLINE
  5
13E
330
109
100
AcDbEntity
  8
_U+30EC_U+30A4_U+30E4_U+30FC 1
370
     0
100
AcDbSpline
210
0.0
220
0.0
230
1.0
 70
    11
 71
     3
 72
    50
 73
    46
 74
     0
 42
0.0000000001
 43
0.0000000001
 12
1.0
 22
0.0
 32
0.0
 13
1.0
 23
0.0
 33
0.0
 40
0.0
 40
0.0
 40
0.0
 40
0.0
 40
1.0
 40
1.0
 40
1.0
 40
2.0
 40
2.0
 40
2.0
 40
3.0
 40
3.0
 40
3.0
 40
4.0
 40
4.0
 40
4.0
 40
5.0
 40
5.0
 40
5.0
 40
6.0
 40
6.0
 40
6.0
 40
7.0
 40
7.0
 40
7.0
 40
8.0
 40
8.0
 40
8.0
 40
9.0
 40
9.0
 40
9.0
 40
10.0
 40
10.0
 40
10.0
 40
11.0
 40
11.0
 40
11.0
 40
12.0
 40
12.0
 40
12.0
 40
13.0
 40
13.0
 40
13.0
 40
14.0
 40
14.0
 40
14.0
 40
15.0
 40
15.0
 40
15.0
 40
15.0
 10
111.7454616691122
 20
-160.8411729198592
 30
0.0
 10
111.6669134920486
 20
-161.0189398468981
 30
0.0
 10
111.5315212394782
 20
-161.2263345951101
 30
0.0
 10
111.3940619296168
 20
-161.3658609622627
 30
0.0
 10
111.224907741291
 20
-161.5370822078796
 30
0.0
 10
111.0619547248387
 20
-161.6259656713991
 30
0.0
 10
110.742594373356
 20
-161.7679036053914
 30
0.0
 10
110.742594373356
 20
-161.7679036053914
 30
0.0
 10
110.5734401850303
 20
-161.5794568823482
 30
0.0
 10
110.5734401850303
 20
-161.5794568823482
 30
0.0
 10
110.7594753412338
 20
-161.556374742597
 30
0.0
 10
110.9306965868507
 20
-161.4695583363687
 30
0.0
 10
111.0833143168472
 20
-161.3637939049716
 30
0.0
 10
111.3454860832747
 20
-161.1818928633504
 30
0.0
 10
111.5359998636091
 20
-160.8687336837412
 30
0.0
 10
111.5845757099511
 20
-160.68683264212
 30
0.0
 10
111.5845757099511
 20
-160.68683264212
 30
0.0
 10
110.9138156189729
 20
-160.68683264212
 30
0.0
 10
110.9138156189729
 20
-160.68683264212
 30
0.0
 10
110.7553412266515
 20
-160.68683264212
 30
0.0
 10
110.4631971295023
 20
-160.6951008712846
 30
0.0
 10
110.3109239090542
 20
-160.7123263487108
 30
0.0
 10
110.3109239090542
 20
-160.7123263487108
 30
0.0
 10
110.3109239090542
 20
-160.4835720084902
 30
0.0
 10
110.3109239090542
 20
-160.4835720084902
 30
0.0
 10
110.3450303543582
 20
-160.4901176899122
 30
0.0
 10
110.3701795514005
 20
-160.4963188617857
 30
0.0
 10
110.4232340218734
 20
-160.5004529763679
 30
0.0
 10
110.5245198291397
 20
-160.5069986577899
 30
0.0
 10
110.721579290896
 20
-160.5090657150811
 30
0.0
 10
110.8059841302846
 20
-160.5090657150811
 30
0.0
 10
110.8059841302846
 20
-160.5090657150811
 30
0.0
 10
111.3117241475193
 20
-160.5090657150811
 30
0.0
 10
111.3117241475193
 20
-160.5090657150811
 30
0.0
 10
111.3792480190302
 20
-160.5090657150811
 30
0.0
 10
111.5253200676048
 20
-160.5049316004988
 30
0.0
 10
111.5866427672422
 20
-160.4983859190768
 30
0.0
 10
111.658645262884
 20
-160.4901176899122
 30
0.0
 10
111.686206026766
 20
-160.4753037793256
 30
0.0
 10
111.7199679625214
 20
-160.4518771300259
 30
0.0
 10
111.7199679625214
 20
-160.4518771300259
 30
0.0
 10
111.8849880362649
 20
-160.6189642610605
 30
0.0
 10
111.8849880362649
 20
-160.6189642610605
 30
0.0
 10
111.8150525979143
 20
-160.68683264212
 30
0.0
 10
111.7685438088634
 20
-160.790530016226
 30
0.0
 10
111.7454616691122
 20
-160.8411729198592
 30
0.0
  0
SPLINE
  5
13F
330
109
100
AcDbEntity
  8
_U+30EC_U+30A4_U+30E4_U+30FC 1
370
     0
100
AcDbSpline
210
0.0
220
0.0
230
1.0
 70
    11
 71
     3
 72
    29
 73
    25
 74
     0
 42
0.0000000001
 43
0.0000000001
 12
1.0
 22
0.0
 32
0.0
 13
1.0
 23
0.0
 33
0.0
 40
0.0
 40
0.0
 40
0.0
 40
0.0
 40
1.0
 40
1.0
 40
1.0
 40
2.0
 40
2.0
 40
2.0
 40
3.0
 40
3.0
 40
3.0
 40
4.0
 40
4.0
 40
4.0
 40
5.0
 40
5.0
 40
5.0
 40
6.0
 40
6.0
 40
6.0
 40
7.0
 40
7.0
 40
7.0
 40
8.0
 40
8.0
 40
8.0
 40
8.0
 10
111.252468505173
 20
-160.2151990701893
 30
0.0
 10
111.252468505173
 20
-160.2151990701893
 30
0.0
 10
110.9117485616818
 20
-160.2151990701893
 30
0.0
 10
110.9117485616818
 20
-160.2151990701893
 30
0.0
 10
110.79771590112
 20
-160.2151990701893
 30
0.0
 10
110.6812716737186
 20
-160.2193331847716
 30
0.0
 10
110.5668945036083
 20
-160.2341470953581
 30
0.0
 10
110.5668945036083
 20
-160.2341470953581
 30
0.0
 10
110.5668945036083
 20
-160.0246852898549
 30
0.0
 10
110.5668945036083
 20
-160.0246852898549
 30
0.0
 10
110.6854057883009
 20
-160.0394992004415
 30
0.0
 10
110.8590386007575
 20
-160.0436333150238
 30
0.0
 10
110.9117485616818
 20
-160.0436333150238
 30
0.0
 10
110.9117485616818
 20
-160.0436333150238
 30
0.0
 10
111.252468505173
 20
-160.0436333150238
 30
0.0
 10
111.252468505173
 20
-160.0436333150238
 30
0.0
 10
111.3689127325744
 20
-160.0436333150238
 30
0.0
 10
111.4850124504274
 20
-160.0394992004415
 30
0.0
 10
111.6014566778288
 20
-160.0246852898549
 30
0.0
 10
111.6014566778288
 20
-160.0246852898549
 30
0.0
 10
111.6014566778288
 20
-160.2341470953581
 30
0.0
 10
111.6014566778288
 20
-160.2341470953581
 30
0.0
 10
111.4512505146719
 20
-160.2151990701893
 30
0.0
 10
111.2672824157596
 20
-160.2151990701893
 30
0.0
 10
111.252468505173
 20
-160.2151990701893
 30
0.0
  0
HATCH
  5
140
330
109
100
AcDbEntity
  8
_U+30EC_U+30A4_U+30E4_U+30FC 1
 62
     7
420
 16777215
100
AcDbHatch
 10
0.0
 20
0.0
 30
0.0
210
0.0
220
0.0
230
1.0
  2
SOLID
 70
     1
 71
     0
 91
        2
 92
        1
 93
        1
 72
     4
 94
        3
 73
     0
 74
     1
 95
       50
 96
       46
 40
0.0
 40
0.0
 40
0.0
 40
0.0
 40
1.0
 40
1.0
 40
1.0
 40
2.0
 40
2.0
 40
2.0
 40
3.0
 40
3.0
 40
3.0
 40
4.0
 40
4.0
 40
4.0
 40
5.0
 40
5.0
 40
5.0
 40
6.0
 40
6.0
 40
6.0
 40
7.0
 40
7.0
 40
7.0
 40
8.0
 40
8.0
 40
8.0
 40
9.0
 40
9.0
 40
9.0
 40
10.0
 40
10.0
 40
10.0
 40
11.0
 40
11.0
 40
11.0
 40
12.0
 40
12.0
 40
12.0
 40
13.0
 40
13.0
 40
13.0
 40
14.0
 40
14.0
 40
14.0
 40
15.0
 40
15.0
 40
15.0
 40
15.0
 10
111.7454616691122
 20
-160.8411729198592
 10
111.6669134920486
 20
-161.0189398468981
 10
111.5315212394782
 20
-161.2263345951101
 10
111.3940619296168
 20
-161.3658609622627
 10
111.224907741291
 20
-161.5370822078796
 10
111.0619547248387
 20
-161.6259656713991
 10
110.742594373356
 20
-161.7679036053914
 10
110.742594373356
 20
-161.7679036053914
 10
110.5734401850303
 20
-161.5794568823482
 10
110.5734401850303
 20
-161.5794568823482
 10
110.7594753412338
 20
-161.556374742597
 10
110.9306965868507
 20
-161.4695583363687
 10
111.0833143168472
 20
-161.3637939049716
 10
111.3454860832747
 20
-161.1818928633504
 10
111.5359998636091
 20
-160.8687336837412
 10
111.5845757099511
 20
-160.68683264212
 10
111.5845757099511
 20
-160.68683264212
 10
110.9138156189729
 20
-160.68683264212
 10
110.9138156189729
 20
-160.68683264212
 10
110.7553412266515
 20
-160.68683264212
 10
110.4631971295023
 20
-160.6951008712846
 10
110.3109239090542
 20
-160.7123263487108
 10
110.3109239090542
 20
-160.7123263487108
 10
110.3109239090542
 20
-160.4835720084902
 10
110.3109239090542
 20
-160.4835720084902
 10
110.3450303543582
 20
-160.4901176899122
 10
110.3701795514005
 20
-160.4963188617857
 10
110.4232340218734
 20
-160.5004529763679
 10
110.5245198291397
 20
-160.5069986577899
 10
110.721579290896
 20
-160.5090657150811
 10
110.8059841302846
 20
-160.5090657150811
 10
110.8059841302846
 20
-160.5090657150811
 10
111.3117241475193
 20
-160.5090657150811
 10
111.3117241475193
 20
-160.5090657150811
 10
111.3792480190302
 20
-160.5090657150811
 10
111.5253200676048
 20
-160.5049316004988
 10
111.5866427672422
 20
-160.4983859190768
 10
111.658645262884
 20
-160.4901176899122
 10
111.686206026766
 20
-160.4753037793256
 10
111.7199679625214
 20
-160.4518771300259
 10
111.7199679625214
 20
-160.4518771300259
 10
111.8849880362649
 20
-160.6189642610605
 10
111.8849880362649
 20
-160.6189642610605
 10
111.8150525979143
 20
-160.68683264212
 10
111.7685438088634
 20
-160.790530016226
 10
111.7454616691122
 20
-160.8411729198592
 97
        0
 97
        0
 92
        1
 93
        1
 72
     4
 94
        3
 73
     0
 74
     1
 95
       29
 96
       25
 40
0.0
 40
0.0
 40
0.0
 40
0.0
 40
1.0
 40
1.0
 40
1.0
 40
2.0
 40
2.0
 40
2.0
 40
3.0
 40
3.0
 40
3.0
 40
4.0
 40
4.0
 40
4.0
 40
5.0
 40
5.0
 40
5.0
 40
6.0
 40
6.0
 40
6.0
 40
7.0
 40
7.0
 40
7.0
 40
8.0
 40
8.0
 40
8.0
 40
8.0
 10
111.252468505173
 20
-160.2151990701893
 10
111.252468505173
 20
-160.2151990701893
 10
110.9117485616818
 20
-160.2151990701893
 10
110.9117485616818
 20
-160.2151990701893
 10
110.79771590112
 20
-160.2151990701893
 10
110.6812716737186
 20
-160.2193331847716
 10
110.5668945036083
 20
-160.2341470953581
 10
110.5668945036083
 20
-160.2341470953581
 10
110.5668945036083
 20
-160.0246852898549
 10
110.5668945036083
 20
-160.0246852898549
 10
110.6854057883009
 20
-160.0394992004415
 10
110.8590386007575
 20
-160.0436333150238
 10
110.9117485616818
 20
-160.0436333150238
 10
110.9117485616818
 20
-160.0436333150238
 10
111.252468505173
 20
-160.0436333150238
 10
111.252468505173
 20
-160.0436333150238
 10
111.3689127325744
 20
-160.0436333150238
 10
111.4850124504274
 20
-160.0394992004415
 10
111.6014566778288
 20
-160.0246852898549
 10
111.6014566778288
 20
-160.0246852898549
 10
111.6014566778288
 20
-160.2341470953581
 10
111.6014566778288
 20
-160.2341470953581
 10
111.4512505146719
 20
-160.2151990701893
 10
111.2672824157596
 20
-160.2151990701893
 10
111.252468505173
 20
-160.2151990701893
 97
        0
 97
        0
 75
     2
 76
     1
 98
        0
  0
SPLINE
  5
141
330
109
100
AcDbEntity
  8
_U+30EC_U+30A4_U+30E4_U+30FC 1
370
     0
100
AcDbSpline
210
0.0
220
0.0
230
1.0
 70
    11
 71
     3
 72
    50
 73
    46
 74
     0
 42
0.0000000001
 43
0.0000000001
 12
1.0
 22
0.0
 32
0.0
 13
1.0
 23
0.0
 33
0.0
 40
0.0
 40
0.0
 40
0.0
 40
0.0
 40
1.0
 40
1.0
 40
1.0
 40
2.0
 40
2.0
 40
2.0
 40
3.0
 40
3.0
 40
3.0
 40
4.0
 40
4.0
 40
4.0
 40
5.0
 40
5.0
 40
5.0
 40
6.0
 40
6.0
 40
6.0
 40
7.0
 40
7.0
 40
7.0
 40
8.0
 40
8.0
 40
8.0
 40
9.0
 40
9.0
 40
9.0
 40
10.0
 40
10.0
 40
10.0
 40
11.0
 40
11.0
 40
11.0
 40
12.0
 40
12.0
 40
12.0
 40
13.0
 40
13.0
 40
13.0
 40
14.0
 40
14.0
 40
14.0
 40
15.0
 40
15.0
 40
15.0
 40
15.0
 10
113.4556070679903
 20
-160.2003851596027
 30
0.0
 10
113.2461452624871
 20
-160.4139810796882
 30
0.0
 10
113.1744872763939
 20
-160.4859835753299
 30
0.0
 10
113.0325493424016
 20
-160.604150350474
 30
0.0
 10
113.0325493424016
 20
-160.604150350474
 30
0.0
 10
113.0325493424016
 20
-161.1712130673461
 30
0.0
 10
113.0325493424016
 20
-161.1712130673461
 30
0.0
 10
113.0325493424016
 20
-161.321419230503
 30
0.0
 10
113.0390950238236
 20
-161.3403672556719
 30
0.0
 10
113.0432291384059
 20
-161.5181341827108
 30
0.0
 10
113.045296195697
 20
-161.6493923206988
 30
0.0
 10
113.0514973675705
 20
-161.6979681670408
 30
0.0
 10
113.0580430489924
 20
-161.7572238093871
 30
0.0
 10
113.0580430489924
 20
-161.7572238093871
 30
0.0
 10
112.8317002756115
 20
-161.7572238093871
 30
0.0
 10
112.8317002756115
 20
-161.7572238093871
 30
0.0
 10
112.8358343901938
 20
-161.7127820776274
 30
0.0
 10
112.8399685047761
 20
-161.6662732885765
 30
0.0
 10
112.8399685047761
 20
-161.6576605498634
 30
0.0
 10
112.8399685047761
 20
-161.5773898250571
 30
0.0
 10
112.8444471289069
 20
-161.2263345951101
 30
0.0
 10
112.8444471289069
 20
-161.1543320994684
 30
0.0
 10
112.8444471289069
 20
-161.1543320994684
 30
0.0
 10
112.8444471289069
 20
-160.7481553417574
 30
0.0
 10
112.8444471289069
 20
-160.7481553417574
 30
0.0
 10
112.6625460872858
 20
-160.8728677983235
 30
0.0
 10
112.4678981923691
 20
-160.9831108538515
 30
0.0
 10
112.2646375587394
 20
-161.0695827505312
 30
0.0
 10
112.2646375587394
 20
-161.0695827505312
 30
0.0
 10
112.0617214346582
 20
-160.9066297340789
 30
0.0
 10
112.0617214346582
 20
-160.9066297340789
 30
0.0
 10
112.1843668339331
 20
-160.8708007410323
 30
0.0
 10
112.4403374284871
 20
-160.7967311880994
 30
0.0
 10
112.7851914865606
 20
-160.5407605935454
 30
0.0
 10
113.0008544639373
 20
-160.3822862012239
 30
0.0
 10
113.1934353015628
 20
-160.1938394781807
 30
0.0
 10
113.3457085220108
 20
-159.9736978766732
 30
0.0
 10
113.3457085220108
 20
-159.9736978766732
 30
0.0
 10
113.5382893596363
 20
-160.1177028679567
 30
0.0
 10
113.5382893596363
 20
-160.1177028679567
 30
0.0
 10
113.5510362129317
 20
-160.128382663961
 30
0.0
 10
113.5593044420963
 20
-160.1431965745475
 30
0.0
 10
113.5593044420963
 20
-160.155943427843
 30
0.0
 10
113.5593044420963
 20
-160.1959065354719
 30
0.0
 10
113.5214083917585
 20
-160.1959065354719
 30
0.0
 10
113.4556070679903
 20
-160.2003851596027
 30
0.0
  0
HATCH
  5
142
330
109
100
AcDbEntity
  8
_U+30EC_U+30A4_U+30E4_U+30FC 1
 62
     7
420
 16777215
100
AcDbHatch
 10
0.0
 20
0.0
 30
0.0
210
0.0
220
0.0
230
1.0
  2
SOLID
 70
     1
 71
     0
 91
        1
 92
        1
 93
        1
 72
     4
 94
        3
 73
     0
 74
     1
 95
       50
 96
       46
 40
0.0
 40
0.0
 40
0.0
 40
0.0
 40
1.0
 40
1.0
 40
1.0
 40
2.0
 40
2.0
 40
2.0
 40
3.0
 40
3.0
 40
3.0
 40
4.0
 40
4.0
 40
4.0
 40
5.0
 40
5.0
 40
5.0
 40
6.0
 40
6.0
 40
6.0
 40
7.0
 40
7.0
 40
7.0
 40
8.0
 40
8.0
 40
8.0
 40
9.0
 40
9.0
 40
9.0
 40
10.0
 40
10.0
 40
10.0
 40
11.0
 40
11.0
 40
11.0
 40
12.0
 40
12.0
 40
12.0
 40
13.0
 40
13.0
 40
13.0
 40
14.0
 40
14.0
 40
14.0
 40
15.0
 40
15.0
 40
15.0
 40
15.0
 10
113.4556070679903
 20
-160.2003851596027
 10
113.2461452624871
 20
-160.4139810796882
 10
113.1744872763939
 20
-160.4859835753299
 10
113.0325493424016
 20
-160.604150350474
 10
113.0325493424016
 20
-160.604150350474
 10
113.0325493424016
 20
-161.1712130673461
 10
113.0325493424016
 20
-161.1712130673461
 10
113.0325493424016
 20
-161.321419230503
 10
113.0390950238236
 20
-161.3403672556719
 10
113.0432291384059
 20
-161.5181341827108
 10
113.045296195697
 20
-161.6493923206988
 10
113.0514973675705
 20
-161.6979681670408
 10
113.0580430489924
 20
-161.7572238093871
 10
113.0580430489924
 20
-161.7572238093871
 10
112.8317002756115
 20
-161.7572238093871
 10
112.8317002756115
 20
-161.7572238093871
 10
112.8358343901938
 20
-161.7127820776274
 10
112.8399685047761
 20
-161.6662732885765
 10
112.8399685047761
 20
-161.6576605498634
 10
112.8399685047761
 20
-161.5773898250571
 10
112.8444471289069
 20
-161.2263345951101
 10
112.8444471289069
 20
-161.1543320994684
 10
112.8444471289069
 20
-161.1543320994684
 10
112.8444471289069
 20
-160.7481553417574
 10
112.8444471289069
 20
-160.7481553417574
 10
112.6625460872858
 20
-160.8728677983235
 10
112.4678981923691
 20
-160.9831108538515
 10
112.2646375587394
 20
-161.0695827505312
 10
112.2646375587394
 20
-161.0695827505312
 10
112.0617214346582
 20
-160.9066297340789
 10
112.0617214346582
 20
-160.9066297340789
 10
112.1843668339331
 20
-160.8708007410323
 10
112.4403374284871
 20
-160.7967311880994
 10
112.7851914865606
 20
-160.5407605935454
 10
113.0008544639373
 20
-160.3822862012239
 10
113.1934353015628
 20
-160.1938394781807
 10
113.3457085220108
 20
-159.9736978766732
 10
113.3457085220108
 20
-159.9736978766732
 10
113.5382893596363
 20
-160.1177028679567
 10
113.5382893596363
 20
-160.1177028679567
 10
113.5510362129317
 20
-160.128382663961
 10
113.5593044420963
 20
-160.1431965745475
 10
113.5593044420963
 20
-160.155943427843
 10
113.5593044420963
 20
-160.1959065354719
 10
113.5214083917585
 20
-160.1959065354719
 10
113.4556070679903
 20
-160.2003851596027
 97
        0
 97
        0
 75
     2
 76
     1
 98
        0
  0
SPLINE
  5
143
330
109
100
AcDbEntity
  8
_U+30EC_U+30A4_U+30E4_U+30FC 1
370
     0
100
AcDbSpline
210
0.0
220
0.0
230
1.0
 70
    11
 71
     3
 72
    50
 73
    46
 74
     0
 42
0.0000000001
 43
0.0000000001
 12
1.0
 22
0.0
 32
0.0
 13
1.0
 23
0.0
 33
0.0
 40
0.0
 40
0.0
 40
0.0
 40
0.0
 40
1.0
 40
1.0
 40
1.0
 40
2.0
 40
2.0
 40
2.0
 40
3.0
 40
3.0
 40
3.0
 40
4.0
 40
4.0
 40
4.0
 40
5.0
 40
5.0
 40
5.0
 40
6.0
 40
6.0
 40
6.0
 40
7.0
 40
7.0
 40
7.0
 40
8.0
 40
8.0
 40
8.0
 40
9.0
 40
9.0
 40
9.0
 40
10.0
 40
10.0
 40
10.0
 40
11.0
 40
11.0
 40
11.0
 40
12.0
 40
12.0
 40
12.0
 40
13.0
 40
13.0
 40
13.0
 40
14.0
 40
14.0
 40
14.0
 40
15.0
 40
15.0
 40
15.0
 40
15.0
 10
115.1640299191257
 20
-160.7271402592974
 30
0.0
 10
115.1027072194882
 20
-160.7987982453906
 30
0.0
 10
114.8422580008033
 20
-161.1160915395821
 30
0.0
 10
114.7854139252967
 20
-161.1798258060592
 30
0.0
 10
114.8698187646853
 20
-161.2769774987433
 30
0.0
 10
114.920806177867
 20
-161.3403672556719
 30
0.0
 10
114.9862629920868
 20
-161.4313177764824
 30
0.0
 10
114.9862629920868
 20
-161.4313177764824
 30
0.0
 10
114.8022948931744
 20
-161.5691215958925
 30
0.0
 10
114.8022948931744
 20
-161.5691215958925
 30
0.0
 10
114.6669026406041
 20
-161.3572482235496
 30
0.0
 10
114.4953368854387
 20
-161.1333170170084
 30
0.0
 10
114.2014702405469
 20
-160.9341904979609
 30
0.0
 10
114.2014702405469
 20
-160.9341904979609
 30
0.0
 10
114.3496093464126
 20
-160.7798502202217
 30
0.0
 10
114.3496093464126
 20
-160.7798502202217
 30
0.0
 10
114.4595078923921
 20
-160.860120945028
 30
0.0
 10
114.5632052664981
 20
-160.9490044085475
 30
0.0
 10
114.6603569591821
 20
-161.0444335534889
 30
0.0
 10
114.7282253402416
 20
-160.9682969432649
 30
0.0
 10
114.9311414643228
 20
-160.7247286924577
 30
0.0
 10
115.0644666596019
 20
-160.4963188617857
 30
0.0
 10
115.0644666596019
 20
-160.4963188617857
 30
0.0
 10
114.3916395113327
 20
-160.4963188617857
 30
0.0
 10
114.3916395113327
 20
-160.4963188617857
 30
0.0
 10
114.2669270547666
 20
-160.4963188617857
 30
0.0
 10
114.0150905747948
 20
-160.5049316004988
 30
0.0
 10
113.8056287692917
 20
-160.5152668869545
 30
0.0
 10
113.8056287692917
 20
-160.5152668869545
 30
0.0
 10
113.8056287692917
 20
-160.2954697949956
 30
0.0
 10
113.8056287692917
 20
-160.2954697949956
 30
0.0
 10
113.9899413777525
 20
-160.3144178201645
 30
0.0
 10
114.1949245591249
 20
-160.3185519347468
 30
0.0
 10
114.3833712821681
 20
-160.3185519347468
 30
0.0
 10
114.3833712821681
 20
-160.3185519347468
 30
0.0
 10
114.8866997325631
 20
-160.3185519347468
 30
0.0
 10
114.8866997325631
 20
-160.3185519347468
 30
0.0
 10
115.2253526187631
 20
-160.3185519347468
 30
0.0
 10
115.2697943505228
 20
-160.3037380241602
 30
0.0
 10
115.3521321326203
 20
-160.2637749165313
 30
0.0
 10
115.3521321326203
 20
-160.2637749165313
 30
0.0
 10
115.5192192636549
 20
-160.4222493088528
 30
0.0
 10
115.5192192636549
 20
-160.4222493088528
 30
0.0
 10
115.3669460432069
 20
-160.4942518044945
 30
0.0
 10
115.223285561472
 20
-160.6572048209468
 30
0.0
 10
115.1640299191257
 20
-160.7271402592974
 30
0.0
  0
HATCH
  5
144
330
109
100
AcDbEntity
  8
_U+30EC_U+30A4_U+30E4_U+30FC 1
 62
     7
420
 16777215
100
AcDbHatch
 10
0.0
 20
0.0
 30
0.0
210
0.0
220
0.0
230
1.0
  2
SOLID
 70
     1
 71
     0
 91
        1
 92
        1
 93
        1
 72
     4
 94
        3
 73
     0
 74
     1
 95
       50
 96
       46
 40
0.0
 40
0.0
 40
0.0
 40
0.0
 40
1.0
 40
1.0
 40
1.0
 40
2.0
 40
2.0
 40
2.0
 40
3.0
 40
3.0
 40
3.0
 40
4.0
 40
4.0
 40
4.0
 40
5.0
 40
5.0
 40
5.0
 40
6.0
 40
6.0
 40
6.0
 40
7.0
 40
7.0
 40
7.0
 40
8.0
 40
8.0
 40
8.0
 40
9.0
 40
9.0
 40
9.0
 40
10.0
 40
10.0
 40
10.0
 40
11.0
 40
11.0
 40
11.0
 40
12.0
 40
12.0
 40
12.0
 40
13.0
 40
13.0
 40
13.0
 40
14.0
 40
14.0
 40
14.0
 40
15.0
 40
15.0
 40
15.0
 40
15.0
 10
115.1640299191257
 20
-160.7271402592974
 10
115.1027072194882
 20
-160.7987982453906
 10
114.8422580008033
 20
-161.1160915395821
 10
114.7854139252967
 20
-161.1798258060592
 10
114.8698187646853
 20
-161.2769774987433
 10
114.920806177867
 20
-161.3403672556719
 10
114.9862629920868
 20
-161.4313177764824
 10
114.9862629920868
 20
-161.4313177764824
 10
114.8022948931744
 20
-161.5691215958925
 10
114.8022948931744
 20
-161.5691215958925
 10
114.6669026406041
 20
-161.3572482235496
 10
114.4953368854387
 20
-161.1333170170084
 10
114.2014702405469
 20
-160.9341904979609
 10
114.2014702405469
 20
-160.9341904979609
 10
114.3496093464126
 20
-160.7798502202217
 10
114.3496093464126
 20
-160.7798502202217
 10
114.4595078923921
 20
-160.860120945028
 10
114.5632052664981
 20
-160.9490044085475
 10
114.6603569591821
 20
-161.0444335534889
 10
114.7282253402416
 20
-160.9682969432649
 10
114.9311414643228
 20
-160.7247286924577
 10
115.0644666596019
 20
-160.4963188617857
 10
115.0644666596019
 20
-160.4963188617857
 10
114.3916395113327
 20
-160.4963188617857
 10
114.3916395113327
 20
-160.4963188617857
 10
114.2669270547666
 20
-160.4963188617857
 10
114.0150905747948
 20
-160.5049316004988
 10
113.8056287692917
 20
-160.5152668869545
 10
113.8056287692917
 20
-160.5152668869545
 10
113.8056287692917
 20
-160.2954697949956
 10
113.8056287692917
 20
-160.2954697949956
 10
113.9899413777525
 20
-160.3144178201645
 10
114.1949245591249
 20
-160.3185519347468
 10
114.3833712821681
 20
-160.3185519347468
 10
114.3833712821681
 20
-160.3185519347468
 10
114.8866997325631
 20
-160.3185519347468
 10
114.8866997325631
 20
-160.3185519347468
 10
115.2253526187631
 20
-160.3185519347468
 10
115.2697943505228
 20
-160.3037380241602
 10
115.3521321326203
 20
-160.2637749165313
 10
115.3521321326203
 20
-160.2637749165313
 10
115.5192192636549
 20
-160.4222493088528
 10
115.5192192636549
 20
-160.4222493088528
 10
115.3669460432069
 20
-160.4942518044945
 10
115.223285561472
 20
-160.6572048209468
 10
115.1640299191257
 20
-160.7271402592974
 97
        0
 97
        0
 75
     2
 76
     1
 98
        0
  0
SPLINE
  5
145
330
109
100
AcDbEntity
  8
_U+30EC_U+30A4_U+30E4_U+30FC 1
370
     0
100
AcDbSpline
210
0.0
220
0.0
230
1.0
 70
    11
 71
     3
 72
    29
 73
    25
 74
     0
 42
0.0000000001
 43
0.0000000001
 12
1.0
 22
0.0
 32
0.0
 13
1.0
 23
0.0
 33
0.0
 40
0.0
 40
0.0
 40
0.0
 40
0.0
 40
1.0
 40
1.0
 40
1.0
 40
2.0
 40
2.0
 40
2.0
 40
3.0
 40
3.0
 40
3.0
 40
4.0
 40
4.0
 40
4.0
 40
5.0
 40
5.0
 40
5.0
 40
6.0
 40
6.0
 40
6.0
 40
7.0
 40
7.0
 40
7.0
 40
8.0
 40
8.0
 40
8.0
 40
8.0
 10
116.7877034213239
 20
-160.970364000556
 30
0.0
 10
116.7877034213239
 20
-160.970364000556
 30
0.0
 10
116.3033229960978
 20
-160.970364000556
 30
0.0
 10
116.3033229960978
 20
-160.970364000556
 30
0.0
 10
116.2757622322158
 20
-160.970364000556
 30
0.0
 10
115.9584689380243
 20
-160.970364000556
 30
0.0
 10
115.7469400752299
 20
-160.9955131975983
 30
0.0
 10
115.7469400752299
 20
-160.9955131975983
 30
0.0
 10
115.7469400752299
 20
-160.7650363096351
 30
0.0
 10
115.7469400752299
 20
-160.7650363096351
 30
0.0
 10
115.9054144675514
 20
-160.7884629589348
 30
0.0
 10
116.0959282478858
 20
-160.790530016226
 30
0.0
 10
116.3033229960978
 20
-160.790530016226
 30
0.0
 10
116.3033229960978
 20
-160.790530016226
 30
0.0
 10
116.7877034213239
 20
-160.790530016226
 30
0.0
 10
116.7877034213239
 20
-160.790530016226
 30
0.0
 10
116.9737385775274
 20
-160.790530016226
 30
0.0
 10
117.1601182432794
 20
-160.7884629589348
 30
0.0
 10
117.3440863421918
 20
-160.7650363096351
 30
0.0
 10
117.3440863421918
 20
-160.7650363096351
 30
0.0
 10
117.3440863421918
 20
-160.9955131975983
 30
0.0
 10
117.3440863421918
 20
-160.9955131975983
 30
0.0
 10
117.1601182432794
 20
-160.9724310578472
 30
0.0
 10
116.91241587789
 20
-160.970364000556
 30
0.0
 10
116.7877034213239
 20
-160.970364000556
 30
0.0
  0
HATCH
  5
146
330
109
100
AcDbEntity
  8
_U+30EC_U+30A4_U+30E4_U+30FC 1
 62
     7
420
 16777215
100
AcDbHatch
 10
0.0
 20
0.0
 30
0.0
210
0.0
220
0.0
230
1.0
  2
SOLID
 70
     1
 71
     0
 91
        1
 92
        1
 93
        1
 72
     4
 94
        3
 73
     0
 74
     1
 95
       29
 96
       25
 40
0.0
 40
0.0
 40
0.0
 40
0.0
 40
1.0
 40
1.0
 40
1.0
 40
2.0
 40
2.0
 40
2.0
 40
3.0
 40
3.0
 40
3.0
 40
4.0
 40
4.0
 40
4.0
 40
5.0
 40
5.0
 40
5.0
 40
6.0
 40
6.0
 40
6.0
 40
7.0
 40
7.0
 40
7.0
 40
8.0
 40
8.0
 40
8.0
 40
8.0
 10
116.7877034213239
 20
-160.970364000556
 10
116.7877034213239
 20
-160.970364000556
 10
116.3033229960978
 20
-160.970364000556
 10
116.3033229960978
 20
-160.970364000556
 10
116.2757622322158
 20
-160.970364000556
 10
115.9584689380243
 20
-160.970364000556
 10
115.7469400752299
 20
-160.9955131975983
 10
115.7469400752299
 20
-160.9955131975983
 10
115.7469400752299
 20
-160.7650363096351
 10
115.7469400752299
 20
-160.7650363096351
 10
115.9054144675514
 20
-160.7884629589348
 10
116.0959282478858
 20
-160.790530016226
 10
116.3033229960978
 20
-160.790530016226
 10
116.3033229960978
 20
-160.790530016226
 10
116.7877034213239
 20
-160.790530016226
 10
116.7877034213239
 20
-160.790530016226
 10
116.9737385775274
 20
-160.790530016226
 10
117.1601182432794
 20
-160.7884629589348
 10
117.3440863421918
 20
-160.7650363096351
 10
117.3440863421918
 20
-160.7650363096351
 10
117.3440863421918
 20
-160.9955131975983
 10
117.3440863421918
 20
-160.9955131975983
 10
117.1601182432794
 20
-160.9724310578472
 10
116.91241587789
 20
-160.970364000556
 10
116.7877034213239
 20
-160.970364000556
 97
        0
 97
        0
 75
     2
 76
     1
 98
        0
  0
ENDBLK
  5
10C
330
109
100
AcDbEntity
  8
0
100
AcDbBlockEnd
  0
ENDSEC
  0
SECTION
  2
ENTITIES
  0
POLYLINE
  5
41
330
1F
100
AcDbEntity
  8
_U+30EC_U+30A4_U+30E4_U+30FC 1
 62
     7
420
 16777215
370
    25
100
AcDb2dPolyline
 66
     1
 10
0.0
 20
0.0
 30
0.0
  0
VERTEX
  5
42
330
41
100
AcDbEntity
  8
_U+30EC_U+30A4_U+30E4_U+30FC 1
 62
     7
420
 16777215
370
    25
100
AcDbVertex
100
AcDb2dVertex
 10
85.29210421290603
 20
-141.9396449645152
 30
0.0
  0
VERTEX
  5
43
330
41
100
AcDbEntity
  8
_U+30EC_U+30A4_U+30E4_U+30FC 1
 62
     7
420
 16777215
370
    25
100
AcDbVertex
100
AcDb2dVertex
 10
96.29231476560061
 20
-141.9396449645152
 30
0.0
  0
SEQEND
  5
44
330
41
100
AcDbEntity
  8
_U+30EC_U+30A4_U+30E4_U+30FC 1
 62
     7
420
 16777215
370
    25
  0
POLYLINE
  5
45
330
1F
100
AcDbEntity
  8
_U+30EC_U+30A4_U+30E4_U+30FC 1
 62
     7
420
 16777215
370
    25
100
AcDb2dPolyline
 66
     1
 10
0.0
 20
0.0
 30
0.0
  0
VERTEX
  5
46
330
45
100
AcDbEntity
  8
_U+30EC_U+30A4_U+30E4_U+30FC 1
 62
     7
420
 16777215
370
    25
100
AcDbVertex
100
AcDb2dVertex
 10
120.2923860977522
 20
-141.9396449645152
 30
0.0
  0
VERTEX
  5
47
330
45
100
AcDbEntity
  8
_U+30EC_U+30A4_U+30E4_U+30FC 1
 62
     7
420
 16777215
370
    25
100
AcDbVertex
100
AcDb2dVertex
 10
120.2923860977522
 20
-142.9394171864874
 30
0.0
  0
SEQEND
  5
48
330
45
100
AcDbEntity
  8
_U+30EC_U+30A4_U+30E4_U+30FC 1
 62
     7
420
 16777215
370
    25
  0
POLYLINE
  5
49
330
1F
100
AcDbEntity
  8
_U+30EC_U+30A4_U+30E4_U+30FC 1
 62
     7
420
 16777215
370
    25
100
AcDb2dPolyline
 66
     1
 10
0.0
 20
0.0
 30
0.0
  0
VERTEX
  5
4A
330
49
100
AcDbEntity
  8
_U+30EC_U+30A4_U+30E4_U+30FC 1
 62
     7
420
 16777215
370
    25
100
AcDbVertex
100
AcDb2dVertex
 10
98.2925294367931
 20
-142.9397699642652
 30
0.0
  0
VERTEX
  5
4B
330
49
100
AcDbEntity
  8
_U+30EC_U+30A4_U+30E4_U+30FC 1
 62
     7
420
 16777215
370
    25
100
AcDbVertex
100
AcDb2dVertex
 10
120.2923860977522
 20
-142.9397699642652
 30
0.0
  0
SEQEND
  5
4C
330
49
100
AcDbEntity
  8
_U+30EC_U+30A4_U+30E4_U+30FC 1
 62
     7
420
 16777215
370
    25
  0
POLYLINE
  5
4D
330
1F
100
AcDbEntity
  8
_U+30EC_U+30A4_U+30E4_U+30FC 1
 62
     7
420
 16777215
370
    25
100
AcDb2dPolyline
 66
     1
 10
0.0
 20
0.0
 30
0.0
  0
VERTEX
  5
4E
330
4D
100
AcDbEntity
  8
_U+30EC_U+30A4_U+30E4_U+30FC 1
 62
     7
420
 16777215
370
    25
100
AcDbVertex
100
AcDb2dVertex
 10
95.2925425688847
 20
-142.9397699642652
 30
0.0
  0
VERTEX
  5
4F
330
4D
100
AcDbEntity
  8
_U+30EC_U+30A4_U+30E4_U+30FC 1
 62
     7
420
 16777215
370
    25
100
AcDbVertex
100
AcDb2dVertex
 10
95.2925425688847
 20
-154.1401116281317
 30
0.0
  0
SEQEND
  5
50
330
4D
100
AcDbEntity
  8
_U+30EC_U+30A4_U+30E4_U+30FC 1
 62
     7
420
 16777215
370
    25
  0
POLYLINE
  5
51
330
1F
100
AcDbEntity
  8
_U+30EC_U+30A4_U+30E4_U+30FC 1
 62
     7
420
 16777215
370
    25
100
AcDb2dPolyline
 66
     1
 10
0.0
 20
0.0
 30
0.0
  0
VERTEX
  5
52
330
51
100
AcDbEntity
  8
_U+30EC_U+30A4_U+30E4_U+30FC 1
 62
     7
420
 16777215
370
    25
100
AcDbVertex
100
AcDb2dVertex
 10
105.2922753693258
 20
-152.9398557950985
 30
0.0
  0
VERTEX
  5
53
330
51
100
AcDbEntity
  8
_U+30EC_U+30A4_U+30E4_U+30FC 1
 62
     7
420
 16777215
370
    25
100
AcDbVertex
100
AcDb2dVertex
 10
105.2922753693258
 20
-153.4400594060847
 30
0.0
  0
SEQEND
  5
54
330
51
100
AcDbEntity
  8
_U+30EC_U+30A4_U+30E4_U+30FC 1
 62
     7
420
 16777215
370
    25
  0
POLYLINE
  5
55
330
1F
100
AcDbEntity
  8
_U+30EC_U+30A4_U+30E4_U+30FC 1
 62
     7
420
 16777215
370
    25
100
AcDb2dPolyline
 66
     1
 10
0.0
 20
0.0
 30
0.0
  0
VERTEX
  5
56
330
55
100
AcDbEntity
  8
_U+30EC_U+30A4_U+30E4_U+30FC 1
 62
     7
420
 16777215
370
    25
100
AcDbVertex
100
AcDb2dVertex
 10
98.2925294367931
 20
-152.9398557950985
 30
0.0
  0
VERTEX
  5
57
330
55
100
AcDbEntity
  8
_U+30EC_U+30A4_U+30E4_U+30FC 1
 62
     7
420
 16777215
370
    25
100
AcDbVertex
100
AcDb2dVertex
 10
105.2922753693258
 20
-152.9398557950985
 30
0.0
  0
SEQEND
  5
58
330
55
100
AcDbEntity
  8
_U+30EC_U+30A4_U+30E4_U+30FC 1
 62
     7
420
 16777215
370
    25
  0
POLYLINE
  5
59
330
1F
100
AcDbEntity
  8
_U+30EC_U+30A4_U+30E4_U+30FC 1
 62
     7
420
 16777215
370
    25
100
AcDb2dPolyline
 66
     1
 10
0.0
 20
0.0
 30
0.0
  0
VERTEX
  5
5A
330
59
100
AcDbEntity
  8
_U+30EC_U+30A4_U+30E4_U+30FC 1
 62
     7
420
 16777215
370
    25
100
AcDbVertex
100
AcDb2dVertex
 10
97.29208696231652
 20
-141.9396449645152
 30
0.0
  0
VERTEX
  5
5B
330
59
100
AcDbEntity
  8
_U+30EC_U+30A4_U+30E4_U+30FC 1
 62
     7
420
 16777215
370
    25
100
AcDbVertex
100
AcDb2dVertex
 10
120.2923860977522
 20
-141.9396449645152
 30
0.0
  0
SEQEND
  5
5C
330
59
100
AcDbEntity
  8
_U+30EC_U+30A4_U+30E4_U+30FC 1
 62
     7
420
 16777215
370
    25
  0
POLYLINE
  5
5D
330
1F
100
AcDbEntity
  8
_U+30EC_U+30A4_U+30E4_U+30FC 1
 62
     7
420
 16777215
370
    25
100
AcDb2dPolyline
 66
     1
 10
0.0
 20
0.0
 30
0.0
  0
VERTEX
  5
5E
330
5D
100
AcDbEntity
  8
_U+30EC_U+30A4_U+30E4_U+30FC 1
 62
     7
420
 16777215
370
    25
100
AcDbVertex
100
AcDb2dVertex
 10
96.29231476560061
 20
-141.9396449645152
 30
0.0
  0
VERTEX
  5
5F
330
5D
100
AcDbEntity
  8
_U+30EC_U+30A4_U+30E4_U+30FC 1
 62
     7
420
 16777215
370
    25
100
AcDbVertex
100
AcDb2dVertex
 10
96.29231476560061
 20
-152.9398557950985
 30
0.0
  0
SEQEND
  5
60
330
5D
100
AcDbEntity
  8
_U+30EC_U+30A4_U+30E4_U+30FC 1
 62
     7
420
 16777215
370
    25
  0
POLYLINE
  5
61
330
1F
100
AcDbEntity
  8
_U+30EC_U+30A4_U+30E4_U+30FC 1
 62
     7
420
 16777215
370
    25
100
AcDb2dPolyline
 66
     1
 10
0.0
 20
0.0
 30
0.0
  0
VERTEX
  5
62
330
61
100
AcDbEntity
  8
_U+30EC_U+30A4_U+30E4_U+30FC 1
 62
     7
420
 16777215
370
    25
100
AcDbVertex
100
AcDb2dVertex
 10
97.29208696231652
 20
-141.9396449645152
 30
0.0
  0
VERTEX
  5
63
330
61
100
AcDbEntity
  8
_U+30EC_U+30A4_U+30E4_U+30FC 1
 62
     7
420
 16777215
370
    25
100
AcDbVertex
100
AcDb2dVertex
 10
97.29208696231652
 20
-152.9398557950985
 30
0.0
  0
SEQEND
  5
64
330
61
100
AcDbEntity
  8
_U+30EC_U+30A4_U+30E4_U+30FC 1
 62
     7
420
 16777215
370
    25
  0
POLYLINE
  5
65
330
1F
100
AcDbEntity
  8
_U+30EC_U+30A4_U+30E4_U+30FC 1
 62
     7
420
 16777215
370
    25
100
AcDb2dPolyline
 66
     1
 10
0.0
 20
0.0
 30
0.0
  0
VERTEX
  5
66
330
65
100
AcDbEntity
  8
_U+30EC_U+30A4_U+30E4_U+30FC 1
 62
     7
420
 16777215
370
    25
100
AcDbVertex
100
AcDb2dVertex
 10
98.2925294367931
 20
-142.9397699642652
 30
0.0
  0
VERTEX
  5
67
330
65
100
AcDbEntity
  8
_U+30EC_U+30A4_U+30E4_U+30FC 1
 62
     7
420
 16777215
370
    25
100
AcDbVertex
100
AcDb2dVertex
 10
98.2925294367931
 20
-152.9398557950985
 30
0.0
  0
SEQEND
  5
68
330
65
100
AcDbEntity
  8
_U+30EC_U+30A4_U+30E4_U+30FC 1
 62
     7
420
 16777215
370
    25
  0
POLYLINE
  5
69
330
1F
100
AcDbEntity
  8
_U+30EC_U+30A4_U+30E4_U+30FC 1
 62
     7
420
 16777215
370
    25
100
AcDb2dPolyline
 66
     1
 10
0.0
 20
0.0
 30
0.0
  0
VERTEX
  5
6A
330
69
100
AcDbEntity
  8
_U+30EC_U+30A4_U+30E4_U+30FC 1
 62
     7
420
 16777215
370
    25
100
AcDbVertex
100
AcDb2dVertex
 10
96.29231476560061
 20
-152.9398557950985
 30
0.0
  0
VERTEX
  5
6B
330
69
100
AcDbEntity
  8
_U+30EC_U+30A4_U+30E4_U+30FC 1
 62
     7
420
 16777215
370
    25
100
AcDbVertex
100
AcDb2dVertex
 10
97.29208696231652
 20
-152.9398557950985
 30
0.0
  0
SEQEND
  5
6C
330
69
100
AcDbEntity
  8
_U+30EC_U+30A4_U+30E4_U+30FC 1
 62
     7
420
 16777215
370
    25
  0
POLYLINE
  5
6D
330
1F
100
AcDbEntity
  8
_U+30EC_U+30A4_U+30E4_U+30FC 1
 62
     7
420
 16777215
370
    25
100
AcDb2dPolyline
 66
     1
 10
0.0
 20
0.0
 30
0.0
  0
VERTEX
  5
6E
330
6D
100
AcDbEntity
  8
_U+30EC_U+30A4_U+30E4_U+30FC 1
 62
     7
420
 16777215
370
    25
100
AcDbVertex
100
AcDb2dVertex
 10
95.2925425688847
 20
-154.1401116281317
 30
0.0
  0
VERTEX
  5
6F
330
6D
100
AcDbEntity
  8
_U+30EC_U+30A4_U+30E4_U+30FC 1
 62
     7
420
 16777215
370
    25
100
AcDbVertex
100
AcDb2dVertex
 10
105.2922753693258
 20
-153.4400594060847
 30
0.0
  0
SEQEND
  5
70
330
6D
100
AcDbEntity
  8
_U+30EC_U+30A4_U+30E4_U+30FC 1
 62
     7
420
 16777215
370
    25
  0
POLYLINE
  5
71
330
1F
100
AcDbEntity
  8
_U+30EC_U+30A4_U+30E4_U+30FC 1
 62
     7
420
 16777215
370
    25
100
AcDb2dPolyline
 66
     1
 10
0.0
 20
0.0
 30
0.0
  0
VERTEX
  5
72
330
71
100
AcDbEntity
  8
_U+30EC_U+30A4_U+30E4_U+30FC 1
 62
     7
420
 16777215
370
    25
100
AcDbVertex
100
AcDb2dVertex
 10
85.29210421290603
 20
-141.9396449645152
 30
0.0
  0
VERTEX
  5
73
330
71
100
AcDbEntity
  8
_U+30EC_U+30A4_U+30E4_U+30FC 1
 62
     7
420
 16777215
370
    25
100
AcDbVertex
100
AcDb2dVertex
 10
85.29210421290603
 20
-142.9394171864874
 30
0.0
  0
SEQEND
  5
74
330
71
100
AcDbEntity
  8
_U+30EC_U+30A4_U+30E4_U+30FC 1
 62
     7
420
 16777215
370
    25
  0
POLYLINE
  5
75
330
1F
100
AcDbEntity
  8
_U+30EC_U+30A4_U+30E4_U+30FC 1
 62
     7
420
 16777215
370
    25
100
AcDb2dPolyline
 66
     1
 10
0.0
 20
0.0
 30
0.0
  0
VERTEX
  5
76
330
75
100
AcDbEntity
  8
_U+30EC_U+30A4_U+30E4_U+30FC 1
 62
     7
420
 16777215
370
    25
100
AcDbVertex
100
AcDb2dVertex
 10
85.29210421290603
 20
-142.9397699642652
 30
0.0
  0
VERTEX
  5
77
330
75
100
AcDbEntity
  8
_U+30EC_U+30A4_U+30E4_U+30FC 1
 62
     7
420
 16777215
370
    25
100
AcDbVertex
100
AcDb2dVertex
 10
95.2925425688847
 20
-142.9397699642652
 30
0.0
  0
SEQEND
  5
78
330
75
100
AcDbEntity
  8
_U+30EC_U+30A4_U+30E4_U+30FC 1
 62
     7
420
 16777215
370
    25
  0
SPLINE
  5
79
330
1F
100
AcDbEntity
  8
_U+30EC_U+30A4_U+30E4_U+30FC 1
 62
     7
420
 16777215
370
     9
100
AcDbSpline
210
0.0
220
0.0
230
1.0
 70
    11
 71
     3
 72
    17
 73
    13
 74
     0
 42
0.0000000001
 43
0.0000000001
 12
1.0
 22
0.0
 32
0.0
 13
1.0
 23
0.0
 33
0.0
 40
0.0
 40
0.0
 40
0.0
 40
0.0
 40
1.0
 40
1.0
 40
1.0
 40
2.0
 40
2.0
 40
2.0
 40
3.0
 40
3.0
 40
3.0
 40
4.0
 40
4.0
 40
4.0
 40
4.0
 10
105.3921820334437
 20
-158.1398707937986
 30
0.0
 10
105.3921820334437
 20
-158.084766904923
 30
0.0
 10
105.3474145345858
 20
-158.0399641271569
 30
0.0
 10
105.2922753693258
 20
-158.0399641271569
 30
0.0
 10
105.2371714818428
 20
-158.0399641271569
 30
0.0
 10
105.192368705208
 20
-158.084766904923
 30
0.0
 10
105.192368705208
 20
-158.1398707937986
 30
0.0
 10
105.192368705208
 20
-158.195009960451
 30
0.0
 10
105.2371714818428
 20
-158.2397774604402
 30
0.0
 10
105.2922753693258
 20
-158.2397774604402
 30
0.0
 10
105.3474145345858
 20
-158.2397774604402
 30
0.0
 10
105.3921820334437
 20
-158.195009960451
 30
0.0
 10
105.3921820334437
 20
-158.1398707937986
 30
0.0
  0
SPLINE
  5
7A
330
1F
100
AcDbEntity
  8
_U+30EC_U+30A4_U+30E4_U+30FC 1
 62
     7
420
 16777215
370
     9
100
AcDbSpline
210
0.0
220
0.0
230
1.0
 70
    11
 71
     3
 72
    17
 73
    13
 74
     0
 42
0.0000000001
 43
0.0000000001
 12
1.0
 22
0.0
 32
0.0
 13
1.0
 23
0.0
 33
0.0
 40
0.0
 40
0.0
 40
0.0
 40
0.0
 40
1.0
 40
1.0
 40
1.0
 40
2.0
 40
2.0
 40
2.0
 40
3.0
 40
3.0
 40
3.0
 40
4.0
 40
4.0
 40
4.0
 40
4.0
 10
95.39244923300254
 20
-158.1398707937986
 30
0.0
 10
95.39244923300254
 20
-158.084766904923
 30
0.0
 10
95.34768173414464
 20
-158.0399641271569
 30
0.0
 10
95.2925425688847
 20
-158.0399641271569
 30
0.0
 10
95.23673312586408
 20
-158.0399641271569
 30
0.0
 10
95.19193034922931
 20
-158.084766904923
 30
0.0
 10
95.19193034922931
 20
-158.1398707937986
 30
0.0
 10
95.19193034922931
 20
-158.195009960451
 30
0.0
 10
95.23673312586408
 20
-158.2397774604402
 30
0.0
 10
95.2925425688847
 20
-158.2397774604402
 30
0.0
 10
95.34768173414464
 20
-158.2397774604402
 30
0.0
 10
95.39244923300254
 20
-158.195009960451
 30
0.0
 10
95.39244923300254
 20
-158.1398707937986
 30
0.0
  0
SPLINE
  5
7B
330
1F
100
AcDbEntity
  8
_U+30EC_U+30A4_U+30E4_U+30FC 1
 62
     7
420
 16777215
370
     9
100
AcDbSpline
210
0.0
220
0.0
230
1.0
 70
    11
 71
     3
 72
    17
 73
    13
 74
     0
 42
0.0000000001
 43
0.0000000001
 12
1.0
 22
0.0
 32
0.0
 13
1.0
 23
0.0
 33
0.0
 40
0.0
 40
0.0
 40
0.0
 40
0.0
 40
1.0
 40
1.0
 40
1.0
 40
2.0
 40
2.0
 40
2.0
 40
3.0
 40
3.0
 40
3.0
 40
4.0
 40
4.0
 40
4.0
 40
4.0
 10
109.3921174869524
 20
-152.9398557950985
 30
0.0
 10
109.3921174869524
 20
-152.8847166284454
 30
0.0
 10
109.3473147103176
 20
-152.8399491284569
 30
0.0
 10
109.2922108228345
 20
-152.8399491284569
 30
0.0
 10
109.2370716575746
 20
-152.8399491284569
 30
0.0
 10
109.1923041587167
 20
-152.8847166284454
 30
0.0
 10
109.1923041587167
 20
-152.9398557950985
 30
0.0
 10
109.1923041587167
 20
-152.9949596839734
 30
0.0
 10
109.2370716575746
 20
-153.0397624617401
 30
0.0
 10
109.2922108228345
 20
-153.0397624617401
 30
0.0
 10
109.3473147103176
 20
-153.0397624617401
 30
0.0
 10
109.3921174869524
 20
-152.9949596839734
 30
0.0
 10
109.3921174869524
 20
-152.9398557950985
 30
0.0
  0
SPLINE
  5
7C
330
1F
100
AcDbEntity
  8
_U+30EC_U+30A4_U+30E4_U+30FC 1
 62
     7
420
 16777215
370
     9
100
AcDbSpline
210
0.0
220
0.0
230
1.0
 70
    11
 71
     3
 72
    17
 73
    13
 74
     0
 42
0.0000000001
 43
0.0000000001
 12
1.0
 22
0.0
 32
0.0
 13
1.0
 23
0.0
 33
0.0
 40
0.0
 40
0.0
 40
0.0
 40
0.0
 40
1.0
 40
1.0
 40
1.0
 40
2.0
 40
2.0
 40
2.0
 40
3.0
 40
3.0
 40
3.0
 40
4.0
 40
4.0
 40
4.0
 40
4.0
 10
109.3921174869524
 20
-153.4400594060847
 30
0.0
 10
109.3921174869524
 20
-153.3849555172091
 30
0.0
 10
109.3473147103176
 20
-153.3401527394431
 30
0.0
 10
109.2922108228345
 20
-153.3401527394431
 30
0.0
 10
109.2370716575746
 20
-153.3401527394431
 30
0.0
 10
109.1923041587167
 20
-153.3849555172091
 30
0.0
 10
109.1923041587167
 20
-153.4400594060847
 30
0.0
 10
109.1923041587167
 20
-153.4951985727371
 30
0.0
 10
109.2370716575746
 20
-153.5399660727263
 30
0.0
 10
109.2922108228345
 20
-153.5399660727263
 30
0.0
 10
109.3473147103176
 20
-153.5399660727263
 30
0.0
 10
109.3921174869524
 20
-153.4951985727371
 30
0.0
 10
109.3921174869524
 20
-153.4400594060847
 30
0.0
  0
SPLINE
  5
7D
330
1F
100
AcDbEntity
  8
_U+30EC_U+30A4_U+30E4_U+30FC 1
 62
     7
420
 16777215
370
     9
100
AcDbSpline
210
0.0
220
0.0
230
1.0
 70
    11
 71
     3
 72
    17
 73
    13
 74
     0
 42
0.0000000001
 43
0.0000000001
 12
1.0
 22
0.0
 32
0.0
 13
1.0
 23
0.0
 33
0.0
 40
0.0
 40
0.0
 40
0.0
 40
0.0
 40
1.0
 40
1.0
 40
1.0
 40
2.0
 40
2.0
 40
2.0
 40
3.0
 40
3.0
 40
3.0
 40
4.0
 40
4.0
 40
4.0
 40
4.0
 10
124.3927573820319
 20
-152.9398557950985
 30
0.0
 10
124.3927573820319
 20
-152.8847166284454
 30
0.0
 10
124.3479546053972
 20
-152.8399491284569
 30
0.0
 10
124.2928507179141
 20
-152.8399491284569
 30
0.0
 10
124.2370444133851
 20
-152.8399491284569
 30
0.0
 10
124.1922416356183
 20
-152.8847166284454
 30
0.0
 10
124.1922416356183
 20
-152.9398557950985
 30
0.0
 10
124.1922416356183
 20
-152.9949596839734
 30
0.0
 10
124.2370444133851
 20
-153.0397624617401
 30
0.0
 10
124.2928507179141
 20
-153.0397624617401
 30
0.0
 10
124.3479546053972
 20
-153.0397624617401
 30
0.0
 10
124.3927573820319
 20
-152.9949596839734
 30
0.0
 10
124.3927573820319
 20
-152.9398557950985
 30
0.0
  0
SPLINE
  5
7E
330
1F
100
AcDbEntity
  8
_U+30EC_U+30A4_U+30E4_U+30FC 1
 62
     7
420
 16777215
370
     9
100
AcDbSpline
210
0.0
220
0.0
230
1.0
 70
    11
 71
     3
 72
    17
 73
    13
 74
     0
 42
0.0000000001
 43
0.0000000001
 12
1.0
 22
0.0
 32
0.0
 13
1.0
 23
0.0
 33
0.0
 40
0.0
 40
0.0
 40
0.0
 40
0.0
 40
1.0
 40
1.0
 40
1.0
 40
2.0
 40
2.0
 40
2.0
 40
3.0
 40
3.0
 40
3.0
 40
4.0
 40
4.0
 40
4.0
 40
4.0
 10
85.39271643256141
 20
-158.1398707937986
 30
0.0
 10
85.39271643256141
 20
-158.084766904923
 30
0.0
 10
85.34794893370353
 20
-158.0399641271569
 30
0.0
 10
85.29210421290603
 20
-158.0399641271569
 30
0.0
 10
85.23700032542295
 20
-158.0399641271569
 30
0.0
 10
85.19219754878819
 20
-158.084766904923
 30
0.0
 10
85.19219754878819
 20
-158.1398707937986
 30
0.0
 10
85.19219754878819
 20
-158.195009960451
 30
0.0
 10
85.23700032542295
 20
-158.2397774604402
 30
0.0
 10
85.29210421290603
 20
-158.2397774604402
 30
0.0
 10
85.34794893370353
 20
-158.2397774604402
 30
0.0
 10
85.39271643256141
 20
-158.195009960451
 30
0.0
 10
85.39271643256141
 20
-158.1398707937986
 30
0.0
  0
INSERT
  5
80
330
1F
100
AcDbEntity
  8
_U+30EC_U+30A4_U+30E4_U+30FC 1
100
AcDbBlockReference
  2
block 2
 10
0.0
 20
0.0
 30
0.0
  0
SPLINE
  5
85
330
1F
100
AcDbEntity
  8
_U+30EC_U+30A4_U+30E4_U+30FC 1
 62
     7
420
 16777215
370
     9
100
AcDbSpline
210
0.0
220
0.0
230
1.0
 70
    11
 71
     3
 72
    17
 73
    13
 74
     0
 42
0.0000000001
 43
0.0000000001
 12
1.0
 22
0.0
 32
0.0
 13
1.0
 23
0.0
 33
0.0
 40
0.0
 40
0.0
 40
0.0
 40
0.0
 40
1.0
 40
1.0
 40
1.0
 40
2.0
 40
2.0
 40
2.0
 40
3.0
 40
3.0
 40
3.0
 40
4.0
 40
4.0
 40
4.0
 40
4.0
 10
124.3927573820319
 20
-141.9396449645152
 30
0.0
 10
124.3927573820319
 20
-141.88454107564
 30
0.0
 10
124.3479546053972
 20
-141.8397382978735
 30
0.0
 10
124.2928507179141
 20
-141.8397382978735
 30
0.0
 10
124.2370444133851
 20
-141.8397382978735
 30
0.0
 10
124.1922416356183
 20
-141.88454107564
 30
0.0
 10
124.1922416356183
 20
-141.9396449645152
 30
0.0
 10
124.1922416356183
 20
-141.9947841311679
 30
0.0
 10
124.2370444133851
 20
-142.0395516311568
 30
0.0
 10
124.2928507179141
 20
-142.0395516311568
 30
0.0
 10
124.3479546053972
 20
-142.0395516311568
 30
0.0
 10
124.3927573820319
 20
-141.9947841311679
 30
0.0
 10
124.3927573820319
 20
-141.9396449645152
 30
0.0
  0
SPLINE
  5
86
330
1F
100
AcDbEntity
  8
_U+30EC_U+30A4_U+30E4_U+30FC 1
 62
     7
420
 16777215
370
     9
100
AcDbSpline
210
0.0
220
0.0
230
1.0
 70
    11
 71
     3
 72
    17
 73
    13
 74
     0
 42
0.0000000001
 43
0.0000000001
 12
1.0
 22
0.0
 32
0.0
 13
1.0
 23
0.0
 33
0.0
 40
0.0
 40
0.0
 40
0.0
 40
0.0
 40
1.0
 40
1.0
 40
1.0
 40
2.0
 40
2.0
 40
2.0
 40
3.0
 40
3.0
 40
3.0
 40
4.0
 40
4.0
 40
4.0
 40
4.0
 10
124.3927573820319
 20
-142.9394171864874
 30
0.0
 10
124.3927573820319
 20
-142.8843132976122
 30
0.0
 10
124.3479546053972
 20
-142.8395105198458
 30
0.0
 10
124.2928507179141
 20
-142.8395105198458
 30
0.0
 10
124.2370444133851
 20
-142.8395105198458
 30
0.0
 10
124.1922416356183
 20
-142.8843132976122
 30
0.0
 10
124.1922416356183
 20
-142.9394171864874
 30
0.0
 10
124.1922416356183
 20
-142.9952266309178
 30
0.0
 10
124.2370444133851
 20
-143.0400294086846
 30
0.0
 10
124.2928507179141
 20
-143.0400294086846
 30
0.0
 10
124.3479546053972
 20
-143.0400294086846
 30
0.0
 10
124.3927573820319
 20
-142.9952266309178
 30
0.0
 10
124.3927573820319
 20
-142.9394171864874
 30
0.0
  0
POLYLINE
  5
87
330
1F
100
AcDbEntity
  8
_U+30EC_U+30A4_U+30E4_U+30FC 1
 62
     7
420
 16777215
370
     9
100
AcDb2dPolyline
 66
     1
 10
0.0
 20
0.0
 30
0.0
  0
VERTEX
  5
88
330
87
100
AcDbEntity
  8
_U+30EC_U+30A4_U+30E4_U+30FC 1
 62
     7
420
 16777215
370
     9
100
AcDbVertex
100
AcDb2dVertex
 10
124.2928507179141
 20
-141.9396449645152
 30
0.0
  0
VERTEX
  5
89
330
87
100
AcDbEntity
  8
_U+30EC_U+30A4_U+30E4_U+30FC 1
 62
     7
420
 16777215
370
     9
100
AcDbVertex
100
AcDb2dVertex
 10
124.2928507179141
 20
-138.1693324654578
 30
0.0
  0
SEQEND
  5
8A
330
87
100
AcDbEntity
  8
_U+30EC_U+30A4_U+30E4_U+30FC 1
 62
     7
420
 16777215
370
     9
  0
POLYLINE
  5
8B
330
1F
100
AcDbEntity
  8
_U+30EC_U+30A4_U+30E4_U+30FC 1
 62
     7
420
 16777215
370
     9
100
AcDb2dPolyline
 66
     1
 10
0.0
 20
0.0
 30
0.0
  0
VERTEX
  5
8C
330
8B
100
AcDbEntity
  8
_U+30EC_U+30A4_U+30E4_U+30FC 1
 62
     7
420
 16777215
370
     9
100
AcDbVertex
100
AcDb2dVertex
 10
124.2928507179141
 20
-141.9396449645152
 30
0.0
  0
VERTEX
  5
8D
330
8B
100
AcDbEntity
  8
_U+30EC_U+30A4_U+30E4_U+30FC 1
 62
     7
420
 16777215
370
     9
100
AcDbVertex
100
AcDb2dVertex
 10
124.2928507179141
 20
-142.9394171864874
 30
0.0
  0
SEQEND
  5
8E
330
8B
100
AcDbEntity
  8
_U+30EC_U+30A4_U+30E4_U+30FC 1
 62
     7
420
 16777215
370
     9
  0
POLYLINE
  5
8F
330
1F
100
AcDbEntity
  8
_U+30EC_U+30A4_U+30E4_U+30FC 1
 62
     7
420
 16777215
370
     9
100
AcDb2dPolyline
 66
     1
 10
0.0
 20
0.0
 30
0.0
  0
VERTEX
  5
90
330
8F
100
AcDbEntity
  8
_U+30EC_U+30A4_U+30E4_U+30FC 1
 62
     7
420
 16777215
370
     9
100
AcDbVertex
100
AcDb2dVertex
 10
122.832809366274
 20
-141.9396449645152
 30
0.0
  0
VERTEX
  5
91
330
8F
100
AcDbEntity
  8
_U+30EC_U+30A4_U+30E4_U+30FC 1
 62
     7
420
 16777215
370
     9
100
AcDbVertex
100
AcDb2dVertex
 10
125.29262291463
 20
-141.9396449645152
 30
0.0
  0
SEQEND
  5
92
330
8F
100
AcDbEntity
  8
_U+30EC_U+30A4_U+30E4_U+30FC 1
 62
     7
420
 16777215
370
     9
  0
POLYLINE
  5
93
330
1F
100
AcDbEntity
  8
_U+30EC_U+30A4_U+30E4_U+30FC 1
 62
     7
420
 16777215
370
     9
100
AcDb2dPolyline
 66
     1
 10
0.0
 20
0.0
 30
0.0
  0
VERTEX
  5
94
330
93
100
AcDbEntity
  8
_U+30EC_U+30A4_U+30E4_U+30FC 1
 62
     7
420
 16777215
370
     9
100
AcDbVertex
100
AcDb2dVertex
 10
122.832809366274
 20
-142.9394171864874
 30
0.0
  0
VERTEX
  5
95
330
93
100
AcDbEntity
  8
_U+30EC_U+30A4_U+30E4_U+30FC 1
 62
     7
420
 16777215
370
     9
100
AcDbVertex
100
AcDb2dVertex
 10
125.29262291463
 20
-142.9394171864874
 30
0.0
  0
SEQEND
  5
96
330
93
100
AcDbEntity
  8
_U+30EC_U+30A4_U+30E4_U+30FC 1
 62
     7
420
 16777215
370
     9
  0
POLYLINE
  5
97
330
1F
100
AcDbEntity
  8
_U+30EC_U+30A4_U+30E4_U+30FC 1
 62
     7
420
 16777215
370
     9
100
AcDb2dPolyline
 66
     1
 10
0.0
 20
0.0
 30
0.0
  0
VERTEX
  5
98
330
97
100
AcDbEntity
  8
_U+30EC_U+30A4_U+30E4_U+30FC 1
 62
     7
420
 16777215
370
     9
100
AcDbVertex
100
AcDb2dVertex
 10
124.2928507179141
 20
-142.9394171864874
 30
0.0
  0
VERTEX
  5
99
330
97
100
AcDbEntity
  8
_U+30EC_U+30A4_U+30E4_U+30FC 1
 62
     7
420
 16777215
370
     9
100
AcDbVertex
100
AcDb2dVertex
 10
124.2928507179141
 20
-152.9398557950985
 30
0.0
  0
SEQEND
  5
9A
330
97
100
AcDbEntity
  8
_U+30EC_U+30A4_U+30E4_U+30FC 1
 62
     7
420
 16777215
370
     9
  0
POLYLINE
  5
9B
330
1F
100
AcDbEntity
  8
_U+30EC_U+30A4_U+30E4_U+30FC 1
 62
     7
420
 16777215
370
     9
100
AcDb2dPolyline
 66
     1
 10
0.0
 20
0.0
 30
0.0
  0
VERTEX
  5
9C
330
9B
100
AcDbEntity
  8
_U+30EC_U+30A4_U+30E4_U+30FC 1
 62
     7
420
 16777215
370
     9
100
AcDbVertex
100
AcDb2dVertex
 10
107.8321721952639
 20
-152.9398557950985
 30
0.0
  0
VERTEX
  5
9D
330
9B
100
AcDbEntity
  8
_U+30EC_U+30A4_U+30E4_U+30FC 1
 62
     7
420
 16777215
370
     9
100
AcDbVertex
100
AcDb2dVertex
 10
125.29262291463
 20
-152.9398557950985
 30
0.0
  0
SEQEND
  5
9E
330
9B
100
AcDbEntity
  8
_U+30EC_U+30A4_U+30E4_U+30FC 1
 62
     7
420
 16777215
370
     9
  0
INSERT
  5
A0
330
1F
100
AcDbEntity
  8
_U+30EC_U+30A4_U+30E4_U+30FC 1
100
AcDbBlockReference
  2
block 3
 10
0.0
 20
0.0
 30
0.0
  0
POLYLINE
  5
A8
330
1F
100
AcDbEntity
  8
_U+30EC_U+30A4_U+30E4_U+30FC 1
 62
     7
420
 16777215
370
     9
100
AcDb2dPolyline
 66
     1
 10
0.0
 20
0.0
 30
0.0
  0
VERTEX
  5
A9
330
A8
100
AcDbEntity
  8
_U+30EC_U+30A4_U+30E4_U+30FC 1
 62
     7
420
 16777215
370
     9
100
AcDbVertex
100
AcDb2dVertex
 10
109.2922108228345
 20
-153.1403394061591
 30
0.0
  0
VERTEX
  5
AA
330
A8
100
AcDbEntity
  8
_U+30EC_U+30A4_U+30E4_U+30FC 1
 62
     7
420
 16777215
370
     9
100
AcDbVertex
100
AcDb2dVertex
 10
109.2922108228345
 20
-147.8824335741405
 30
0.0
  0
SEQEND
  5
AB
330
A8
100
AcDbEntity
  8
_U+30EC_U+30A4_U+30E4_U+30FC 1
 62
     7
420
 16777215
370
     9
  0
POLYLINE
  5
AC
330
1F
100
AcDbEntity
  8
_U+30EC_U+30A4_U+30E4_U+30FC 1
 62
     7
420
 16777215
370
     9
100
AcDb2dPolyline
 66
     1
 10
0.0
 20
0.0
 30
0.0
  0
VERTEX
  5
AD
330
AC
100
AcDbEntity
  8
_U+30EC_U+30A4_U+30E4_U+30FC 1
 62
     7
420
 16777215
370
     9
100
AcDbVertex
100
AcDb2dVertex
 10
109.2922108228345
 20
-153.1403394061591
 30
0.0
  0
VERTEX
  5
AE
330
AC
100
AcDbEntity
  8
_U+30EC_U+30A4_U+30E4_U+30FC 1
 62
     7
420
 16777215
370
     9
100
AcDbVertex
100
AcDb2dVertex
 10
109.2922108228345
 20
-154.4398316280566
 30
0.0
  0
SEQEND
  5
AF
330
AC
100
AcDbEntity
  8
_U+30EC_U+30A4_U+30E4_U+30FC 1
 62
     7
420
 16777215
370
     9
  0
POLYLINE
  5
B0
330
1F
100
AcDbEntity
  8
_U+30EC_U+30A4_U+30E4_U+30FC 1
 62
     7
420
 16777215
370
     9
100
AcDb2dPolyline
 66
     1
 10
0.0
 20
0.0
 30
0.0
  0
VERTEX
  5
B1
330
B0
100
AcDbEntity
  8
_U+30EC_U+30A4_U+30E4_U+30FC 1
 62
     7
420
 16777215
370
     9
100
AcDbVertex
100
AcDb2dVertex
 10
107.8321721952639
 20
-152.9398557950985
 30
0.0
  0
VERTEX
  5
B2
330
B0
100
AcDbEntity
  8
_U+30EC_U+30A4_U+30E4_U+30FC 1
 62
     7
420
 16777215
370
     9
100
AcDbVertex
100
AcDb2dVertex
 10
110.2926532973111
 20
-152.9398557950985
 30
0.0
  0
SEQEND
  5
B3
330
B0
100
AcDbEntity
  8
_U+30EC_U+30A4_U+30E4_U+30FC 1
 62
     7
420
 16777215
370
     9
  0
POLYLINE
  5
B4
330
1F
100
AcDbEntity
  8
_U+30EC_U+30A4_U+30E4_U+30FC 1
 62
     7
420
 16777215
370
     9
100
AcDb2dPolyline
 66
     1
 10
0.0
 20
0.0
 30
0.0
  0
VERTEX
  5
B5
330
B4
100
AcDbEntity
  8
_U+30EC_U+30A4_U+30E4_U+30FC 1
 62
     7
420
 16777215
370
     9
100
AcDbVertex
100
AcDb2dVertex
 10
107.8321721952639
 20
-153.4400594060847
 30
0.0
  0
VERTEX
  5
B6
330
B4
100
AcDbEntity
  8
_U+30EC_U+30A4_U+30E4_U+30FC 1
 62
     7
420
 16777215
370
     9
100
AcDbVertex
100
AcDb2dVertex
 10
110.2926532973111
 20
-153.4400594060847
 30
0.0
  0
SEQEND
  5
B7
330
B4
100
AcDbEntity
  8
_U+30EC_U+30A4_U+30E4_U+30FC 1
 62
     7
420
 16777215
370
     9
  0
INSERT
  5
B9
330
1F
100
AcDbEntity
  8
_U+30EC_U+30A4_U+30E4_U+30FC 1
100
AcDbBlockReference
  2
block 4
 10
0.0
 20
0.0
 30
0.0
  0
POLYLINE
  5
C9
330
1F
100
AcDbEntity
  8
_U+30EC_U+30A4_U+30E4_U+30FC 1
 62
     7
420
 16777215
370
     9
100
AcDb2dPolyline
 66
     1
 10
0.0
 20
0.0
 30
0.0
  0
VERTEX
  5
CA
330
C9
100
AcDbEntity
  8
_U+30EC_U+30A4_U+30E4_U+30FC 1
 62
     7
420
 16777215
370
     9
100
AcDbVertex
100
AcDb2dVertex
 10
95.2925425688847
 20
-158.1398707937986
 30
0.0
  0
VERTEX
  5
CB
330
C9
100
AcDbEntity
  8
_U+30EC_U+30A4_U+30E4_U+30FC 1
 62
     7
420
 16777215
370
     9
100
AcDbVertex
100
AcDb2dVertex
 10
105.2922753693258
 20
-158.1398707937986
 30
0.0
  0
SEQEND
  5
CC
330
C9
100
AcDbEntity
  8
_U+30EC_U+30A4_U+30E4_U+30FC 1
 62
     7
420
 16777215
370
     9
  0
POLYLINE
  5
CD
330
1F
100
AcDbEntity
  8
_U+30EC_U+30A4_U+30E4_U+30FC 1
 62
     7
420
 16777215
370
     9
100
AcDb2dPolyline
 66
     1
 10
0.0
 20
0.0
 30
0.0
  0
VERTEX
  5
CE
330
CD
100
AcDbEntity
  8
_U+30EC_U+30A4_U+30E4_U+30FC 1
 62
     7
420
 16777215
370
     9
100
AcDbVertex
100
AcDb2dVertex
 10
95.2925425688847
 20
-156.6798294052742
 30
0.0
  0
VERTEX
  5
CF
330
CD
100
AcDbEntity
  8
_U+30EC_U+30A4_U+30E4_U+30FC 1
 62
     7
420
 16777215
370
     9
100
AcDbVertex
100
AcDb2dVertex
 10
95.2925425688847
 20
-159.1403132935485
 30
0.0
  0
SEQEND
  5
D0
330
CD
100
AcDbEntity
  8
_U+30EC_U+30A4_U+30E4_U+30FC 1
 62
     7
420
 16777215
370
     9
  0
POLYLINE
  5
D1
330
1F
100
AcDbEntity
  8
_U+30EC_U+30A4_U+30E4_U+30FC 1
 62
     7
420
 16777215
370
     9
100
AcDb2dPolyline
 66
     1
 10
0.0
 20
0.0
 30
0.0
  0
VERTEX
  5
D2
330
D1
100
AcDbEntity
  8
_U+30EC_U+30A4_U+30E4_U+30FC 1
 62
     7
420
 16777215
370
     9
100
AcDbVertex
100
AcDb2dVertex
 10
105.2922753693258
 20
-155.9798124610047
 30
0.0
  0
VERTEX
  5
D3
330
D1
100
AcDbEntity
  8
_U+30EC_U+30A4_U+30E4_U+30FC 1
 62
     7
420
 16777215
370
     9
100
AcDbVertex
100
AcDb2dVertex
 10
105.2922753693258
 20
-159.1403132935485
 30
0.0
  0
SEQEND
  5
D4
330
D1
100
AcDbEntity
  8
_U+30EC_U+30A4_U+30E4_U+30FC 1
 62
     7
420
 16777215
370
     9
  0
INSERT
  5
D6
330
1F
100
AcDbEntity
  8
_U+30EC_U+30A4_U+30E4_U+30FC 1
100
AcDbBlockReference
  2
block 5
 10
0.0
 20
0.0
 30
0.0
  0
SPLINE
  5
DE
330
1F
100
AcDbEntity
  8
_U+30EC_U+30A4_U+30E4_U+30FC 1
 62
     7
420
 16777215
370
     9
100
AcDbSpline
210
0.0
220
0.0
230
1.0
 70
    11
 71
     3
 72
    17
 73
    13
 74
     0
 42
0.0000000001
 43
0.0000000001
 12
1.0
 22
0.0
 32
0.0
 13
1.0
 23
0.0
 33
0.0
 40
0.0
 40
0.0
 40
0.0
 40
0.0
 40
1.0
 40
1.0
 40
1.0
 40
2.0
 40
2.0
 40
2.0
 40
3.0
 40
3.0
 40
3.0
 40
4.0
 40
4.0
 40
4.0
 40
4.0
 10
120.3922927618701
 20
-137.9405913544038
 30
0.0
 10
120.3922927618701
 20
-137.8847819099734
 30
0.0
 10
120.3475252630122
 20
-137.8399791322067
 30
0.0
 10
120.2923860977522
 20
-137.8399791322067
 30
0.0
 10
120.2372822102692
 20
-137.8399791322067
 30
0.0
 10
120.1924794336344
 20
-137.8847819099734
 30
0.0
 10
120.1924794336344
 20
-137.9405913544038
 30
0.0
 10
120.1924794336344
 20
-137.9956952432787
 30
0.0
 10
120.2372822102692
 20
-138.0404980210455
 30
0.0
 10
120.2923860977522
 20
-138.0404980210455
 30
0.0
 10
120.3475252630122
 20
-138.0404980210455
 30
0.0
 10
120.3922927618701
 20
-137.9956952432787
 30
0.0
 10
120.3922927618701
 20
-137.9405913544038
 30
0.0
  0
SPLINE
  5
DF
330
1F
100
AcDbEntity
  8
_U+30EC_U+30A4_U+30E4_U+30FC 1
 62
     7
420
 16777215
370
     9
100
AcDbSpline
210
0.0
220
0.0
230
1.0
 70
    11
 71
     3
 72
    17
 73
    13
 74
     0
 42
0.0000000001
 43
0.0000000001
 12
1.0
 22
0.0
 32
0.0
 13
1.0
 23
0.0
 33
0.0
 40
0.0
 40
0.0
 40
0.0
 40
0.0
 40
1.0
 40
1.0
 40
1.0
 40
2.0
 40
2.0
 40
2.0
 40
3.0
 40
3.0
 40
3.0
 40
4.0
 40
4.0
 40
4.0
 40
4.0
 10
85.39271643256141
 20
-137.9405913544038
 30
0.0
 10
85.39271643256141
 20
-137.8847819099734
 30
0.0
 10
85.34794893370353
 20
-137.8399791322067
 30
0.0
 10
85.29210421290603
 20
-137.8399791322067
 30
0.0
 10
85.23700032542295
 20
-137.8399791322067
 30
0.0
 10
85.19219754878819
 20
-137.8847819099734
 30
0.0
 10
85.19219754878819
 20
-137.9405913544038
 30
0.0
 10
85.19219754878819
 20
-137.9956952432787
 30
0.0
 10
85.23700032542295
 20
-138.0404980210455
 30
0.0
 10
85.29210421290603
 20
-138.0404980210455
 30
0.0
 10
85.34794893370353
 20
-138.0404980210455
 30
0.0
 10
85.39271643256141
 20
-137.9956952432787
 30
0.0
 10
85.39271643256141
 20
-137.9405913544038
 30
0.0
  0
POLYLINE
  5
E0
330
1F
100
AcDbEntity
  8
_U+30EC_U+30A4_U+30E4_U+30FC 1
 62
     7
420
 16777215
370
     9
100
AcDb2dPolyline
 66
     1
 10
0.0
 20
0.0
 30
0.0
  0
VERTEX
  5
E1
330
E0
100
AcDbEntity
  8
_U+30EC_U+30A4_U+30E4_U+30FC 1
 62
     7
420
 16777215
370
     9
100
AcDbVertex
100
AcDb2dVertex
 10
85.29210421290603
 20
-137.9405913544038
 30
0.0
  0
VERTEX
  5
E2
330
E0
100
AcDbEntity
  8
_U+30EC_U+30A4_U+30E4_U+30FC 1
 62
     7
420
 16777215
370
     9
100
AcDbVertex
100
AcDb2dVertex
 10
120.2923860977522
 20
-137.9405913544038
 30
0.0
  0
SEQEND
  5
E3
330
E0
100
AcDbEntity
  8
_U+30EC_U+30A4_U+30E4_U+30FC 1
 62
     7
420
 16777215
370
     9
  0
POLYLINE
  5
E4
330
1F
100
AcDbEntity
  8
_U+30EC_U+30A4_U+30E4_U+30FC 1
 62
     7
420
 16777215
370
     9
100
AcDb2dPolyline
 66
     1
 10
0.0
 20
0.0
 30
0.0
  0
VERTEX
  5
E5
330
E4
100
AcDbEntity
  8
_U+30EC_U+30A4_U+30E4_U+30FC 1
 62
     7
420
 16777215
370
     9
100
AcDbVertex
100
AcDb2dVertex
 10
85.29210421290603
 20
-139.3999271873723
 30
0.0
  0
VERTEX
  5
E6
330
E4
100
AcDbEntity
  8
_U+30EC_U+30A4_U+30E4_U+30FC 1
 62
     7
420
 16777215
370
     9
100
AcDbVertex
100
AcDb2dVertex
 10
85.29210421290603
 20
-136.9401488546539
 30
0.0
  0
SEQEND
  5
E7
330
E4
100
AcDbEntity
  8
_U+30EC_U+30A4_U+30E4_U+30FC 1
 62
     7
420
 16777215
370
     9
  0
POLYLINE
  5
E8
330
1F
100
AcDbEntity
  8
_U+30EC_U+30A4_U+30E4_U+30FC 1
 62
     7
420
 16777215
370
     9
100
AcDb2dPolyline
 66
     1
 10
0.0
 20
0.0
 30
0.0
  0
VERTEX
  5
E9
330
E8
100
AcDbEntity
  8
_U+30EC_U+30A4_U+30E4_U+30FC 1
 62
     7
420
 16777215
370
     9
100
AcDbVertex
100
AcDb2dVertex
 10
120.2923860977522
 20
-139.3999271873723
 30
0.0
  0
VERTEX
  5
EA
330
E8
100
AcDbEntity
  8
_U+30EC_U+30A4_U+30E4_U+30FC 1
 62
     7
420
 16777215
370
     9
100
AcDbVertex
100
AcDb2dVertex
 10
120.2923860977522
 20
-136.9401488546539
 30
0.0
  0
SEQEND
  5
EB
330
E8
100
AcDbEntity
  8
_U+30EC_U+30A4_U+30E4_U+30FC 1
 62
     7
420
 16777215
370
     9
  0
INSERT
  5
ED
330
1F
100
AcDbEntity
  8
_U+30EC_U+30A4_U+30E4_U+30FC 1
100
AcDbBlockReference
  2
block 6
 10
0.0
 20
0.0
 30
0.0
  0
POLYLINE
  5
F4
330
1F
100
AcDbEntity
  8
_U+30EC_U+30A4_U+30E4_U+30FC 1
 62
     7
420
 16777215
370
     9
100
AcDb2dPolyline
 66
     1
 10
0.0
 20
0.0
 30
0.0
  0
VERTEX
  5
F5
330
F4
100
AcDbEntity
  8
_U+30EC_U+30A4_U+30E4_U+30FC 1
 62
     7
420
 16777215
370
     9
100
AcDbVertex
100
AcDb2dVertex
 10
85.29210421290603
 20
-158.1398707937986
 30
0.0
  0
VERTEX
  5
F6
330
F4
100
AcDbEntity
  8
_U+30EC_U+30A4_U+30E4_U+30FC 1
 62
     7
420
 16777215
370
     9
100
AcDbVertex
100
AcDb2dVertex
 10
95.2925425688847
 20
-158.1398707937986
 30
0.0
  0
SEQEND
  5
F7
330
F4
100
AcDbEntity
  8
_U+30EC_U+30A4_U+30E4_U+30FC 1
 62
     7
420
 16777215
370
     9
  0
POLYLINE
  5
F8
330
1F
100
AcDbEntity
  8
_U+30EC_U+30A4_U+30E4_U+30FC 1
 62
     7
420
 16777215
370
     9
100
AcDb2dPolyline
 66
     1
 10
0.0
 20
0.0
 30
0.0
  0
VERTEX
  5
F9
330
F8
100
AcDbEntity
  8
_U+30EC_U+30A4_U+30E4_U+30FC 1
 62
     7
420
 16777215
370
     9
100
AcDbVertex
100
AcDb2dVertex
 10
85.29210421290603
 20
-145.6803241302467
 30
0.0
  0
VERTEX
  5
FA
330
F8
100
AcDbEntity
  8
_U+30EC_U+30A4_U+30E4_U+30FC 1
 62
     7
420
 16777215
370
     9
100
AcDbVertex
100
AcDb2dVertex
 10
85.29210421290603
 20
-159.1403132935485
 30
0.0
  0
SEQEND
  5
FB
330
F8
100
AcDbEntity
  8
_U+30EC_U+30A4_U+30E4_U+30FC 1
 62
     7
420
 16777215
370
     9
  0
INSERT
  5
FD
330
1F
100
AcDbEntity
  8
_U+30EC_U+30A4_U+30E4_U+30FC 1
100
AcDbBlockReference
  2
block 7
 10
0.0
 20
0.0
 30
0.0
  0
POLYLINE
  5
105
330
1F
100
AcDbEntity
  8
_U+30EC_U+30A4_U+30E4_U+30FC 1
 62
     7
420
 16777215
370
     9
100
AcDb2dPolyline
 66
     1
 10
0.0
 20
0.0
 30
0.0
  0
VERTEX
  5
106
330
105
100
AcDbEntity
  8
_U+30EC_U+30A4_U+30E4_U+30FC 1
 62
     7
420
 16777215
370
     9
100
AcDbVertex
100
AcDb2dVertex
 10
105.2922753693258
 20
-153.9065374615236
 30
0.0
  0
VERTEX
  5
107
330
105
100
AcDbEntity
  8
_U+30EC_U+30A4_U+30E4_U+30FC 1
 62
     7
420
 16777215
370
     9
100
AcDbVertex
100
AcDb2dVertex
 10
108.949772194985
 20
-156.9547491274278
 30
0.0
  0
SEQEND
  5
108
330
105
100
AcDbEntity
  8
_U+30EC_U+30A4_U+30E4_U+30FC 1
 62
     7
420
 16777215
370
     9
  0
INSERT
  5
10A
330
1F
100
AcDbEntity
  8
_U+30EC_U+30A4_U+30E4_U+30FC 1
100
AcDbBlockReference
  2
block 8
 10
0.0
 20
0.0
 30
0.0
  0
POLYLINE
  5
147
330
1F
100
AcDbEntity
  8
_U+30EC_U+30A4_U+30E4_U+30FC 1
  6
AI-Linetype-1
 62
   154
420
    23468
370
    25
100
AcDb2dPolyline
 66
     1
 10
0.0
 20
0.0
 30
0.0
  0
VERTEX
  5
148
330
147
100
AcDbEntity
  8
_U+30EC_U+30A4_U+30E4_U+30FC 1
  6
AI-Linetype-1
 62
   154
420
    23468
370
    25
100
AcDbVertex
100
AcDb2dVertex
 10
94.79265647052675
 20
-154.6396449613399
 30
0.0
  0
VERTEX
  5
149
330
147
100
AcDbEntity
  8
_U+30EC_U+30A4_U+30E4_U+30FC 1
  6
AI-Linetype-1
 62
   154
420
    23468
370
    25
100
AcDbVertex
100
AcDb2dVertex
 10
105.2922753693258
 20
-153.9065374615236
 30
0.0
  0
SEQEND
  5
14B
330
147
100
AcDbEntity
  8
_U+30EC_U+30A4_U+30E4_U+30FC 1
  6
AI-Linetype-1
 62
   154
420
    23468
370
    25
  0
POLYLINE
  5
14C
330
1F
100
AcDbEntity
  8
_U+30EC_U+30A4_U+30E4_U+30FC 1
  6
AI-Linetype-2
 62
   154
420
    23468
370
    25
100
AcDb2dPolyline
 66
     1
 10
0.0
 20
0.0
 30
0.0
  0
VERTEX
  5
14D
330
14C
100
AcDbEntity
  8
_U+30EC_U+30A4_U+30E4_U+30FC 1
  6
AI-Linetype-2
 62
   154
420
    23468
370
    25
100
AcDbVertex
100
AcDb2dVertex
 10
85.29210421290603
 20
-143.4396560752511
 30
0.0
  0
VERTEX
  5
14E
330
14C
100
AcDbEntity
  8
_U+30EC_U+30A4_U+30E4_U+30FC 1
  6
AI-Linetype-2
 62
   154
420
    23468
370
    25
100
AcDbVertex
100
AcDb2dVertex
 10
94.79265647052675
 20
-143.4396560752511
 30
0.0
  0
VERTEX
  5
14F
330
14C
100
AcDbEntity
  8
_U+30EC_U+30A4_U+30E4_U+30FC 1
  6
AI-Linetype-2
 62
   154
420
    23468
370
    25
100
AcDbVertex
100
AcDb2dVertex
 10
94.79265647052675
 20
-154.6396449613399
 30
0.0
  0
SEQEND
  5
151
330
14C
100
AcDbEntity
  8
_U+30EC_U+30A4_U+30E4_U+30FC 1
  6
AI-Linetype-2
 62
   154
420
    23468
370
    25
  0
ENDSEC
  0
SECTION
  2
OBJECTS
  0
DICTIONARY
  5
C
330
0
100
AcDbDictionary
281
     1
  3
ACAD_GROUP
350
D
  3
ACAD_LAYOUT
350
1A
  3
ACAD_MATERIAL
350
3B
  3
ACAD_MLEADERSTYLE
350
153
  3
ACAD_MLINESTYLE
350
17
  3
ACAD_PLOTSETTINGS
350
19
  3
ACAD_PLOTSTYLENAME
350
E
  3
ACAD_TABLESTYLE
350
152
  3
ACAD_VISUALSTYLE
350
2A
  0
SUN
  5
3F
330
29
100
AcDbSun
 90
        1
290
     0
 63
     7
421
 16777215
 40
1.0
291
     1
 91
  2455826
 92
 54000000
292
     0
 70
     2
 71
   256
280
     1
  0
DICTIONARY
  5
D
102
{ACAD_REACTORS
330
C
102
}
330
C
100
AcDbDictionary
281
     1
  0
DICTIONARY
  5
1A
102
{ACAD_REACTORS
330
C
102
}
330
C
100
AcDbDictionary
281
     1
  3
Layout1
350
1E
  3
Layout2
350
26
  3
Model
350
22
  0
DICTIONARY
  5
3B
102
{ACAD_REACTORS
330
C
102
}
330
C
100
AcDbDictionary
281
     1
  3
ByBlock
350
3D
  3
ByLayer
350
3C
  3
Global
350
3E
  0
DICTIONARY
  5
153
102
{ACAD_REACTORS
330
C
102
}
330
C
100
AcDbDictionary
281
     1
  0
DICTIONARY
  5
17
102
{ACAD_REACTORS
330
C
102
}
330
C
100
AcDbDictionary
281
     1
  3
Standard
350
18
  0
DICTIONARY
  5
19
102
{ACAD_REACTORS
330
C
102
}
330
C
100
AcDbDictionary
281
     1
  0
ACDBDICTIONARYWDFLT
  5
E
102
{ACAD_REACTORS
330
C
102
}
330
C
100
AcDbDictionary
281
     1
  3
Normal
350
F
100
AcDbDictionaryWithDefault
340
F
  0
DICTIONARY
  5
152
102
{ACAD_REACTORS
330
C
102
}
330
C
100
AcDbDictionary
281
     1
  0
DICTIONARY
  5
2A
102
{ACAD_REACTORS
330
C
102
}
330
C
100
AcDbDictionary
281
     1
  3
2dWireframe
350
2F
  3
3D Hidden
350
31
  3
3dWireframe
350
30
  3
Basic
350
32
  3
Brighten
350
36
  3
ColorChange
350
3A
  3
Conceptual
350
34
  3
Dim
350
35
  3
Facepattern
350
39
  3
Flat
350
2B
  3
FlatWithEdges
350
2C
  3
Gouraud
350
2D
  3
GouraudWithEdges
350
2E
  3
Linepattern
350
38
  3
Realistic
350
33
  3
Thicken
350
37
  0
LAYOUT
  5
1E
102
{ACAD_REACTORS
330
1A
102
}
330
1A
100
AcDbPlotSettings
  1

  2
none_device
  4

  6

 40
0.0
 41
0.0
 42
0.0
 43
0.0
 44
0.0
 45
0.0
 46
0.0
 47
0.0
 48
0.0
 49
0.0
140
0.0
141
0.0
142
1.0
143
1.0
 70
   688
 72
     0
 73
     0
 74
     5
  7

 75
    16
 76
     0
 77
     2
 78
   300
147
1.0
148
0.0
149
0.0
100
AcDbLayout
  1
Layout1
 70
     1
 71
     1
 10
0.0
 20
0.0
 11
12.0
 21
9.0
 12
0.0
 22
0.0
 32
0.0
 14
1.000000000000000E+20
 24
1.000000000000000E+20
 34
1.000000000000000E+20
 15
-1.000000000000000E+20
 25
-1.000000000000000E+20
 35
-1.000000000000000E+20
146
0.0
 13
0.0
 23
0.0
 33
0.0
 16
1.0
 26
0.0
 36
0.0
 17
0.0
 27
1.0
 37
0.0
 76
     0
330
1B
  0
LAYOUT
  5
26
102
{ACAD_REACTORS
330
1A
102
}
330
1A
100
AcDbPlotSettings
  1

  2
none_device
  4

  6

 40
0.0
 41
0.0
 42
0.0
 43
0.0
 44
0.0
 45
0.0
 46
0.0
 47
0.0
 48
0.0
 49
0.0
140
0.0
141
0.0
142
1.0
143
1.0
 70
   688
 72
     0
 73
     0
 74
     5
  7

 75
    16
 76
     0
 77
     2
 78
   300
147
1.0
148
0.0
149
0.0
100
AcDbLayout
  1
Layout2
 70
     1
 71
     2
 10
0.0
 20
0.0
 11
0.0
 21
0.0
 12
0.0
 22
0.0
 32
0.0
 14
0.0
 24
0.0
 34
0.0
 15
0.0
 25
0.0
 35
0.0
146
0.0
 13
0.0
 23
0.0
 33
0.0
 16
1.0
 26
0.0
 36
0.0
 17
0.0
 27
1.0
 37
0.0
 76
     0
330
23
  0
LAYOUT
  5
22
102
{ACAD_REACTORS
330
1A
102
}
330
1A
100
AcDbPlotSettings
  1

  2
none_device
  4

  6

 40
0.0
 41
0.0
 42
0.0
 43
0.0
 44
0.0
 45
0.0
 46
0.0
 47
0.0
 48
0.0
 49
0.0
140
0.0
141
0.0
142
1.0
143
1.0
 70
  1712
 72
     0
 73
     0
 74
     0
  7

 75
     0
 76
     0
 77
     2
 78
   300
147
1.0
148
0.0
149
0.0
100
AcDbLayout
  1
Model
 70
     1
 71
     0
 10
0.0
 20
0.0
 11
12.0
 21
9.0
 12
0.0
 22
0.0
 32
0.0
 14
1.000000000000000E+20
 24
1.000000000000000E+20
 34
1.000000000000000E+20
 15
-1.000000000000000E+20
 25
-1.000000000000000E+20
 35
-1.000000000000000E+20
146
0.0
 13
0.0
 23
0.0
 33
0.0
 16
1.0
 26
0.0
 36
0.0
 17
0.0
 27
1.0
 37
0.0
 76
     0
330
1F
331
29
  0
MATERIAL
  5
3D
102
{ACAD_REACTORS
330
3B
102
}
330
3B
100
AcDbMaterial
  1
ByBlock
 72
     1
 94
      127
  0
MATERIAL
  5
3C
102
{ACAD_REACTORS
330
3B
102
}
330
3B
100
AcDbMaterial
  1
ByLayer
 72
     1
 94
      127
  0
MATERIAL
  5
3E
102
{ACAD_REACTORS
330
3B
102
}
330
3B
100
AcDbMaterial
  1
Global
 72
     1
 94
      127
  0
MLINESTYLE
  5
18
102
{ACAD_REACTORS
330
17
102
}
330
17
100
AcDbMlineStyle
  2
Standard
 70
     0
  3

 62
   256
 51
90.0
 52
90.0
 71
     2
 49
0.5
 62
   256
  6
BYLAYER
 49
-0.5
 62
   256
  6
BYLAYER
  0
ACDBPLACEHOLDER
  5
F
102
{ACAD_REACTORS
330
E
102
}
330
E
  0
VISUALSTYLE
  5
2F
102
{ACAD_REACTORS
330
2A
102
}
330
2A
100
AcDbVisualStyle
  2
2dWireframe
 70
     4
177
     2
291
     0
 71
     0
176
     1
 72
     2
176
     1
 73
     0
176
     1
 90
        0
176
     1
 40
-0.6
176
     1
 41
-30.0
176
     1
 62
     5
 63
     7
421
 16777215
176
     1
 74
     1
176
     1
 91
        4
176
     1
 64
     7
176
     1
 65
   257
176
     1
 75
     1
176
     1
175
     1
176
     1
 42
1.0
176
     1
 92
        0
176
     1
 66
   257
176
     1
 43
1.0
176
     1
 76
     1
176
     1
 77
     6
176
     1
 78
     2
176
     1
 67
     7
176
     1
 79
     5
176
     1
170
     0
176
     1
171
     0
176
     1
290
     0
176
     1
 93
        1
176
     1
 44
0.0
176
     1
173
     0
176
     1
  0
VISUALSTYLE
  5
31
102
{ACAD_REACTORS
330
2A
102
}
330
2A
100
AcDbVisualStyle
  2
3D Hidden
 70
     6
177
     2
291
     0
 71
     1
176
     1
 72
     2
176
     1
 73
     2
176
     1
 90
        0
176
     1
 40
-0.6
176
     1
 41
-30.0
176
     1
 62
     5
 63
     7
421
 16777215
176
     1
 74
     2
176
     1
 91
        2
176
     1
 64
     7
176
     1
 65
   257
176
     1
 75
     2
176
     1
175
     1
176
     1
 42
40.0
176
     1
 92
        0
176
     1
 66
   257
176
     1
 43
1.0
176
     1
 76
     1
176
     1
 77
     6
176
     1
 78
     2
176
     1
 67
     7
176
     1
 79
     3
176
     1
170
     0
176
     1
171
     0
176
     1
290
     0
176
     1
 93
        1
176
     1
 44
0.0
176
     1
173
     0
176
     1
  0
VISUALSTYLE
  5
30
102
{ACAD_REACTORS
330
2A
102
}
330
2A
100
AcDbVisualStyle
  2
3dWireframe
 70
     5
177
     2
291
     0
 71
     0
176
     1
 72
     2
176
     1
 73
     0
176
     1
 90
        0
176
     1
 40
-0.6
176
     1
 41
-30.0
176
     1
 62
     5
 63
     7
421
 16777215
176
     1
 74
     1
176
     1
 91
        4
176
     1
 64
     7
176
     1
 65
   257
176
     1
 75
     1
176
     1
175
     1
176
     1
 42
1.0
176
     1
 92
        0
176
     1
 66
   257
176
     1
 43
1.0
176
     1
 76
     1
176
     1
 77
     6
176
     1
 78
     2
176
     1
 67
     7
176
     1
 79
     5
176
     1
170
     0
176
     1
171
     0
176
     1
290
     0
176
     1
 93
        1
176
     1
 44
0.0
176
     1
173
     0
176
     1
  0
VISUALSTYLE
  5
32
102
{ACAD_REACTORS
330
2A
102
}
330
2A
100
AcDbVisualStyle
  2
Basic
 70
     7
177
     2
291
     1
 71
     1
176
     1
 72
     0
176
     1
 73
     1
176
     1
 90
        0
176
     1
 40
-0.6
176
     1
 41
-30.0
176
     1
 62
     5
 63
     7
421
 16777215
176
     1
 74
     0
176
     1
 91
        4
176
     1
 64
     7
176
     1
 65
   257
176
     1
 75
     1
176
     1
175
     1
176
     1
 42
1.0
176
     1
 92
        8
176
     1
 66
     7
176
     1
 43
1.0
176
     1
 76
     1
176
     1
 77
     6
176
     1
 78
     2
176
     1
 67
     7
176
     1
 79
     5
176
     1
170
     0
176
     1
171
     0
176
     1
290
     0
176
     1
 93
        1
176
     1
 44
0.0
176
     1
173
     0
176
     1
  0
VISUALSTYLE
  5
36
102
{ACAD_REACTORS
330
2A
102
}
330
2A
100
AcDbVisualStyle
  2
Brighten
 70
    12
177
     2
291
     1
 71
     2
176
     1
 72
     2
176
     1
 73
     0
176
     1
 90
        0
176
     1
 40
-0.6
176
     1
 41
-30.0
176
     1
 62
     5
 63
     7
421
 16777215
176
     1
 74
     1
176
     1
 91
        4
176
     1
 64
     7
176
     1
 65
   257
176
     1
 75
     1
176
     1
175
     1
176
     1
 42
1.0
176
     1
 92
        8
176
     1
 66
     7
176
     1
 43
1.0
176
     1
 76
     1
176
     1
 77
     6
176
     1
 78
     2
176
     1
 67
     7
176
     1
 79
     5
176
     1
170
     0
176
     1
171
     0
176
     1
290
     0
176
     1
 93
        1
176
     1
 44
50.0
176
     1
173
     0
176
     1
  0
VISUALSTYLE
  5
3A
102
{ACAD_REACTORS
330
2A
102
}
330
2A
100
AcDbVisualStyle
  2
ColorChange
 70
    16
177
     2
291
     1
 71
     2
176
     1
 72
     2
176
     1
 73
     3
176
     1
 90
        0
176
     1
 40
-0.6
176
     1
 41
-30.0
176
     1
 62
     5
 63
     8
421
  8421504
176
     1
 74
     1
176
     1
 91
        4
176
     1
 64
     7
176
     1
 65
   257
176
     1
 75
     1
176
     1
175
     1
176
     1
 42
1.0
176
     1
 92
        8
176
     1
 66
     8
424
  8421504
176
     1
 43
1.0
176
     1
 76
     1
176
     1
 77
     6
176
     1
 78
     2
176
     1
 67
     7
176
     1
 79
     5
176
     1
170
     0
176
     1
171
     0
176
     1
290
     0
176
     1
 93
        1
176
     1
 44
0.0
176
     1
173
     0
176
     1
  0
VISUALSTYLE
  5
34
102
{ACAD_REACTORS
330
2A
102
}
330
2A
100
AcDbVisualStyle
  2
Conceptual
 70
     9
177
     2
291
     0
 71
     3
176
     1
 72
     2
176
     1
 73
     0
176
     1
 90
        0
176
     1
 40
-0.6
176
     1
 41
-30.0
176
     1
 62
     5
 63
     7
421
 16777215
176
     1
 74
     2
176
     1
 91
        2
176
     1
 64
     7
176
     1
 65
   257
176
     1
 75
     1
176
     1
175
     1
176
     1
 42
40.0
176
     1
 92
        8
176
     1
 66
     7
176
     1
 43
1.0
176
     1
 76
     1
176
     1
 77
     6
176
     1
 78
     2
176
     1
 67
     7
176
     1
 79
     3
176
     1
170
     0
176
     1
171
     0
176
     1
290
     0
176
     1
 93
        1
176
     1
 44
0.0
176
     1
173
     0
176
     1
  0
VISUALSTYLE
  5
35
102
{ACAD_REACTORS
330
2A
102
}
330
2A
100
AcDbVisualStyle
  2
Dim
 70
    11
177
     2
291
     1
 71
     2
176
     1
 72
     2
176
     1
 73
     0
176
     1
 90
        0
176
     1
 40
-0.6
176
     1
 41
-30.0
176
     1
 62
     5
 63
     7
421
 16777215
176
     1
 74
     1
176
     1
 91
        4
176
     1
 64
     7
176
     1
 65
   257
176
     1
 75
     1
176
     1
175
     1
176
     1
 42
1.0
176
     1
 92
        8
176
     1
 66
     7
176
     1
 43
1.0
176
     1
 76
     1
176
     1
 77
     6
176
     1
 78
     2
176
     1
 67
     7
176
     1
 79
     5
176
     1
170
     0
176
     1
171
     0
176
     1
290
     0
176
     1
 93
        1
176
     1
 44
-50.0
176
     1
173
     0
176
     1
  0
VISUALSTYLE
  5
39
102
{ACAD_REACTORS
330
2A
102
}
330
2A
100
AcDbVisualStyle
  2
Facepattern
 70
    15
177
     2
291
     1
 71
     2
176
     1
 72
     2
176
     1
 73
     0
176
     1
 90
        0
176
     1
 40
-0.6
176
     1
 41
-30.0
176
     1
 62
     5
 63
     7
421
 16777215
176
     1
 74
     1
176
     1
 91
        4
176
     1
 64
     7
176
     1
 65
   257
176
     1
 75
     1
176
     1
175
     1
176
     1
 42
1.0
176
     1
 92
        8
176
     1
 66
     7
176
     1
 43
1.0
176
     1
 76
     1
176
     1
 77
     6
176
     1
 78
     2
176
     1
 67
     7
176
     1
 79
     5
176
     1
170
     0
176
     1
171
     0
176
     1
290
     0
176
     1
 93
        1
176
     1
 44
0.0
176
     1
173
     0
176
     1
  0
VISUALSTYLE
  5
2B
102
{ACAD_REACTORS
330
2A
102
}
330
2A
100
AcDbVisualStyle
  2
Flat
 70
     0
177
     2
291
     1
 71
     2
176
     1
 72
     1
176
     1
 73
     1
176
     1
 90
        2
176
     1
 40
-0.6
176
     1
 41
30.0
176
     1
 62
     5
 63
     7
421
 16777215
176
     1
 74
     0
176
     1
 91
        4
176
     1
 64
     7
176
     1
 65
   257
176
     1
 75
     1
176
     1
175
     1
176
     1
 42
1.0
176
     1
 92
        8
176
     1
 66
     7
176
     1
 43
1.0
176
     1
 76
     1
176
     1
 77
     6
176
     1
 78
     2
176
     1
 67
     7
176
     1
 79
     5
176
     1
170
     0
176
     1
171
     0
176
     1
290
     0
176
     1
 93
       13
176
     1
 44
0.0
176
     1
173
     0
176
     1
  0
VISUALSTYLE
  5
2C
102
{ACAD_REACTORS
330
2A
102
}
330
2A
100
AcDbVisualStyle
  2
FlatWithEdges
 70
     1
177
     2
291
     1
 71
     2
176
     1
 72
     1
176
     1
 73
     1
176
     1
 90
        2
176
     1
 40
-0.6
176
     1
 41
30.0
176
     1
 62
     5
 63
     7
421
 16777215
176
     1
 74
     1
176
     1
 91
        4
176
     1
 64
     7
176
     1
 65
   257
176
     1
 75
     1
176
     1
175
     1
176
     1
 42
1.0
176
     1
 92
        0
176
     1
 66
   257
176
     1
 43
1.0
176
     1
 76
     1
176
     1
 77
     6
176
     1
 78
     2
176
     1
 67
     7
176
     1
 79
     5
176
     1
170
     0
176
     1
171
     0
176
     1
290
     0
176
     1
 93
       13
176
     1
 44
0.0
176
     1
173
     0
176
     1
  0
VISUALSTYLE
  5
2D
102
{ACAD_REACTORS
330
2A
102
}
330
2A
100
AcDbVisualStyle
  2
Gouraud
 70
     2
177
     2
291
     1
 71
     2
176
     1
 72
     2
176
     1
 73
     1
176
     1
 90
        2
176
     1
 40
-0.6
176
     1
 41
30.0
176
     1
 62
     5
 63
     7
421
 16777215
176
     1
 74
     0
176
     1
 91
        4
176
     1
 64
     7
176
     1
 65
   257
176
     1
 75
     1
176
     1
175
     1
176
     1
 42
1.0
176
     1
 92
        0
176
     1
 66
     7
176
     1
 43
1.0
176
     1
 76
     1
176
     1
 77
     6
176
     1
 78
     2
176
     1
 67
     7
176
     1
 79
     5
176
     1
170
     0
176
     1
171
     0
176
     1
290
     0
176
     1
 93
       13
176
     1
 44
0.0
176
     1
173
     0
176
     1
  0
VISUALSTYLE
  5
2E
102
{ACAD_REACTORS
330
2A
102
}
330
2A
100
AcDbVisualStyle
  2
GouraudWithEdges
 70
     3
177
     2
291
     1
 71
     2
176
     1
 72
     2
176
     1
 73
     1
176
     1
 90
        2
176
     1
 40
-0.6
176
     1
 41
30.0
176
     1
 62
     5
 63
     7
421
 16777215
176
     1
 74
     1
176
     1
 91
        4
176
     1
 64
     7
176
     1
 65
   257
176
     1
 75
     1
176
     1
175
     1
176
     1
 42
1.0
176
     1
 92
        0
176
     1
 66
   257
176
     1
 43
1.0
176
     1
 76
     1
176
     1
 77
     6
176
     1
 78
     2
176
     1
 67
     7
176
     1
 79
     5
176
     1
170
     0
176
     1
171
     0
176
     1
290
     0
176
     1
 93
       13
176
     1
 44
0.0
176
     1
173
     0
176
     1
  0
VISUALSTYLE
  5
38
102
{ACAD_REACTORS
330
2A
102
}
330
2A
100
AcDbVisualStyle
  2
Linepattern
 70
    14
177
     2
291
     1
 71
     2
176
     1
 72
     2
176
     1
 73
     0
176
     1
 90
        0
176
     1
 40
-0.6
176
     1
 41
-30.0
176
     1
 62
     5
 63
     7
421
 16777215
176
     1
 74
     1
176
     1
 91
        4
176
     1
 64
     7
176
     1
 65
   257
176
     1
 75
     7
176
     1
175
     7
176
     1
 42
1.0
176
     1
 92
        8
176
     1
 66
     7
176
     1
 43
1.0
176
     1
 76
     1
176
     1
 77
     6
176
     1
 78
     2
176
     1
 67
     7
176
     1
 79
     5
176
     1
170
     0
176
     1
171
     0
176
     1
290
     0
176
     1
 93
        1
176
     1
 44
0.0
176
     1
173
     0
176
     1
  0
VISUALSTYLE
  5
33
102
{ACAD_REACTORS
330
2A
102
}
330
2A
100
AcDbVisualStyle
  2
Realistic
 70
     8
177
     2
291
     0
 71
     2
176
     1
 72
     2
176
     1
 73
     0
176
     1
 90
        0
176
     1
 40
-0.6
176
     1
 41
-30.0
176
     1
 62
     5
 63
     7
421
 16777215
176
     1
 74
     1
176
     1
 91
        0
176
     1
 64
     7
176
     1
 65
   257
176
     1
 75
     1
176
     1
175
     1
176
     1
 42
1.0
176
     1
 92
        8
176
     1
 66
     8
424
  7895160
176
     1
 43
1.0
176
     1
 76
     1
176
     1
 77
     6
176
     1
 78
     2
176
     1
 67
     7
176
     1
 79
     5
176
     1
170
     0
176
     1
171
     0
176
     1
290
     0
176
     1
 93
       13
176
     1
 44
0.0
176
     1
173
     0
176
     1
  0
VISUALSTYLE
  5
37
102
{ACAD_REACTORS
330
2A
102
}
330
2A
100
AcDbVisualStyle
  2
Thicken
 70
    13
177
     2
291
     1
 71
     2
176
     1
 72
     2
176
     1
 73
     0
176
     1
 90
        0
176
     1
 40
-0.6
176
     1
 41
-30.0
176
     1
 62
     5
 63
     7
421
 16777215
176
     1
 74
     1
176
     1
 91
        4
176
     1
 64
     7
176
     1
 65
   257
176
     1
 75
     1
176
     1
175
     1
176
     1
 42
1.0
176
     1
 92
       12
176
     1
 66
     7
176
     1
 43
1.0
176
     1
 76
     1
176
     1
 77
     6
176
     1
 78
     2
176
     1
 67
     7
176
     1
 79
     5
176
     1
170
     0
176
     1
171
     0
176
     1
290
     0
176
     1
 93
        1
176
     1
 44
0.0
176
     1
173
     0
176
     1
  0
ENDSEC
  0
EOF
