  0
SECTION
  2
HEADER
  9
$ACADVER
  1
AC1024
  9
$ACADMAINTVER
 70
     6
  9
$DWGCODEPAGE
  3
UNDEFINED
  9
$INSBASE
 10
0.0
 20
0.0
 30
0.0
  9
$EXTMIN
 10
1.000000000000000E+20
 20
1.000000000000000E+20
 30
1.000000000000000E+20
  9
$EXTMAX
 10
-1.000000000000000E+20
 20
-1.000000000000000E+20
 30
-1.000000000000000E+20
  9
$LIMMIN
 10
0.0
 20
0.0
  9
$LIMMAX
 10
12.0
 20
9.0
  9
$ORTHOMODE
 70
     0
  9
$REGENMODE
 70
     1
  9
$FILLMODE
 70
     1
  9
$QTEXTMODE
 70
     0
  9
$MIRRTEXT
 70
     1
  9
$LTSCALE
 40
1.0
  9
$ATTMODE
 70
     1
  9
$TEXTSIZE
 40
0.2
  9
$TRACEWID
 40
0.05
  9
$TEXTSTYLE
  7
Standard
  9
$CLAYER
  8
0
  9
$CELTYPE
  6
ByLayer
  9
$CECOLOR
 62
   256
  9
$CELTSCALE
 40
1.0
  9
$DISPSILH
 70
     0
  9
$DIMSCALE
 40
1.0
  9
$DIMASZ
 40
0.18
  9
$DIMEXO
 40
0.0625
  9
$DIMDLI
 40
0.38
  9
$DIMRND
 40
0.0
  9
$DIMDLE
 40
0.0
  9
$DIMEXE
 40
0.18
  9
$DIMTP
 40
0.0
  9
$DIMTM
 40
0.0
  9
$DIMTXT
 40
0.18
  9
$DIMCEN
 40
0.09
  9
$DIMTSZ
 40
0.0
  9
$DIMTOL
 70
     0
  9
$DIMLIM
 70
     0
  9
$DIMTIH
 70
     1
  9
$DIMTOH
 70
     1
  9
$DIMSE1
 70
     0
  9
$DIMSE2
 70
     0
  9
$DIMTAD
 70
     0
  9
$DIMZIN
 70
     0
  9
$DIMBLK
  1

  9
$DIMASO
 70
     1
  9
$DIMSHO
 70
     1
  9
$DIMPOST
  1

  9
$DIMAPOST
  1

  9
$DIMALT
 70
     0
  9
$DIMALTD
 70
     2
  9
$DIMALTF
 40
25.4
  9
$DIMLFAC
 40
1.0
  9
$DIMTOFL
 70
     0
  9
$DIMTVP
 40
0.0
  9
$DIMTIX
 70
     0
  9
$DIMSOXD
 70
     0
  9
$DIMSAH
 70
     0
  9
$DIMBLK1
  1

  9
$DIMBLK2
  1

  9
$DIMSTYLE
  2
Standard
  9
$DIMCLRD
 70
     0
  9
$DIMCLRE
 70
     0
  9
$DIMCLRT
 70
     0
  9
$DIMTFAC
 40
1.0
  9
$DIMGAP
 40
0.09
  9
$DIMJUST
 70
     0
  9
$DIMSD1
 70
     0
  9
$DIMSD2
 70
     0
  9
$DIMTOLJ
 70
     1
  9
$DIMTZIN
 70
     0
  9
$DIMALTZ
 70
     0
  9
$DIMALTTZ
 70
     0
  9
$DIMUPT
 70
     0
  9
$DIMDEC
 70
     4
  9
$DIMTDEC
 70
     4
  9
$DIMALTU
 70
     2
  9
$DIMALTTD
 70
     2
  9
$DIMTXSTY
  7
Standard
  9
$DIMAUNIT
 70
     0
  9
$DIMADEC
 70
     0
  9
$DIMALTRND
 40
0.0
  9
$DIMAZIN
 70
     0
  9
$DIMDSEP
 70
    46
  9
$DIMATFIT
 70
     3
  9
$DIMFRAC
 70
     0
  9
$DIMLDRBLK
  1

  9
$DIMLUNIT
 70
     2
  9
$DIMLWD
 70
    -2
  9
$DIMLWE
 70
    -2
  9
$DIMTMOVE
 70
     0
  9
$DIMFXL
 40
1.0
  9
$DIMFXLON
 70
     0
  9
$DIMJOGANG
 40
0.7853981633974483
  9
$DIMTFILL
 70
     0
  9
$DIMTFILLCLR
 70
     0
  9
$DIMARCSYM
 70
     0
  9
$DIMLTYPE
  6

  9
$DIMLTEX1
  6

  9
$DIMLTEX2
  6

  9
$DIMTXTDIRECTION
 70
     0
  9
$LUNITS
 70
     2
  9
$LUPREC
 70
     4
  9
$SKETCHINC
 40
0.1
  9
$FILLETRAD
 40
0.5
  9
$AUNITS
 70
     0
  9
$AUPREC
 70
     0
  9
$MENU
  1
.
  9
$ELEVATION
 40
0.0
  9
$PELEVATION
 40
0.0
  9
$THICKNESS
 40
0.0
  9
$LIMCHECK
 70
     0
  9
$CHAMFERA
 40
0.5
  9
$CHAMFERB
 40
0.5
  9
$CHAMFERC
 40
1.0
  9
$CHAMFERD
 40
0.0
  9
$SKPOLY
 70
     0
  9
$TDCREATE
 40
2457917.610162025
  9
$TDUCREATE
 40
2457917.235162037
  9
$TDUPDATE
 40
2457917.610162025
  9
$TDUUPDATE
 40
2457917.235162037
  9
$TDINDWG
 40
0.0000000116
  9
$TDUSRTIMER
 40
0.0000000116
  9
$USRTIMER
 70
     1
  9
$ANGBASE
 50
0.0
  9
$ANGDIR
 70
     0
  9
$PDMODE
 70
     0
  9
$PDSIZE
 40
0.0
  9
$PLINEWID
 40
0.0
  9
$SPLFRAME
 70
     0
  9
$SPLINETYPE
 70
     6
  9
$SPLINESEGS
 70
     8
  9
$HANDSEED
  5
14D
  9
$SURFTAB1
 70
     6
  9
$SURFTAB2
 70
     6
  9
$SURFTYPE
 70
     6
  9
$SURFU
 70
     6
  9
$SURFV
 70
     6
  9
$UCSBASE
  2

  9
$UCSNAME
  2

  9
$UCSORG
 10
0.0
 20
0.0
 30
0.0
  9
$UCSXDIR
 10
1.0
 20
0.0
 30
0.0
  9
$UCSYDIR
 10
0.0
 20
1.0
 30
0.0
  9
$UCSORTHOREF
  2

  9
$UCSORTHOVIEW
 70
     0
  9
$UCSORGTOP
 10
0.0
 20
0.0
 30
0.0
  9
$UCSORGBOTTOM
 10
0.0
 20
0.0
 30
0.0
  9
$UCSORGLEFT
 10
0.0
 20
0.0
 30
0.0
  9
$UCSORGRIGHT
 10
0.0
 20
0.0
 30
0.0
  9
$UCSORGFRONT
 10
0.0
 20
0.0
 30
0.0
  9
$UCSORGBACK
 10
0.0
 20
0.0
 30
0.0
  9
$PUCSBASE
  2

  9
$PUCSNAME
  2

  9
$PUCSORG
 10
0.0
 20
0.0
 30
0.0
  9
$PUCSXDIR
 10
1.0
 20
0.0
 30
0.0
  9
$PUCSYDIR
 10
0.0
 20
1.0
 30
0.0
  9
$PUCSORTHOREF
  2

  9
$PUCSORTHOVIEW
 70
     0
  9
$PUCSORGTOP
 10
0.0
 20
0.0
 30
0.0
  9
$PUCSORGBOTTOM
 10
0.0
 20
0.0
 30
0.0
  9
$PUCSORGLEFT
 10
0.0
 20
0.0
 30
0.0
  9
$PUCSORGRIGHT
 10
0.0
 20
0.0
 30
0.0
  9
$PUCSORGFRONT
 10
0.0
 20
0.0
 30
0.0
  9
$PUCSORGBACK
 10
0.0
 20
0.0
 30
0.0
  9
$USERI1
 70
     0
  9
$USERI2
 70
     0
  9
$USERI3
 70
     0
  9
$USERI4
 70
     0
  9
$USERI5
 70
     0
  9
$USERR1
 40
0.0
  9
$USERR2
 40
0.0
  9
$USERR3
 40
0.0
  9
$USERR4
 40
0.0
  9
$USERR5
 40
0.0
  9
$WORLDVIEW
 70
     1
  9
$SHADEDGE
 70
     3
  9
$SHADEDIF
 70
    70
  9
$TILEMODE
 70
     1
  9
$MAXACTVP
 70
    64
  9
$PINSBASE
 10
0.0
 20
0.0
 30
0.0
  9
$PLIMCHECK
 70
     0
  9
$PEXTMIN
 10
1.000000000000000E+20
 20
1.000000000000000E+20
 30
1.000000000000000E+20
  9
$PEXTMAX
 10
-1.000000000000000E+20
 20
-1.000000000000000E+20
 30
-1.000000000000000E+20
  9
$PLIMMIN
 10
0.0
 20
0.0
  9
$PLIMMAX
 10
12.0
 20
9.0
  9
$UNITMODE
 70
     0
  9
$VISRETAIN
 70
     1
  9
$PLINEGEN
 70
     0
  9
$PSLTSCALE
 70
     1
  9
$TREEDEPTH
 70
  3020
  9
$CMLSTYLE
  2
Standard
  9
$CMLJUST
 70
     0
  9
$CMLSCALE
 40
1.0
  9
$PROXYGRAPHICS
 70
     1
  9
$MEASUREMENT
 70
     0
  9
$CELWEIGHT
370
    -1
  9
$ENDCAPS
280
     0
  9
$JOINSTYLE
280
     0
  9
$LWDISPLAY
290
     1
  9
$INSUNITS
 70
     1
  9
$HYPERLINKBASE
  1

  9
$STYLESHEET
  1

  9
$XEDIT
290
     1
  9
$CEPSNTYPE
380
     0
  9
$PSTYLEMODE
290
     1
  9
$FINGERPRINTGUID
  2
{59F027D2-C1DE-8EB3-E297-6CAC97318604}
  9
$VERSIONGUID
  2
{FAEB1C32-E019-11D5-929B-00C0DF256EC4}
  9
$EXTNAMES
290
     1
  9
$PSVPSCALE
 40
0.0
  9
$OLESTARTUP
290
     0
  9
$SORTENTS
280
   127
  9
$INDEXCTL
280
     0
  9
$HIDETEXT
280
     1
  9
$XCLIPFRAME
280
     2
  9
$HALOGAP
280
     0
  9
$OBSCOLOR
 70
   257
  9
$OBSLTYPE
280
     0
  9
$INTERSECTIONDISPLAY
280
     0
  9
$INTERSECTIONCOLOR
 70
   257
  9
$DIMASSOC
280
     2
  9
$PROJECTNAME
  1

  9
$CAMERADISPLAY
290
     0
  9
$LENSLENGTH
 40
50.0
  9
$CAMERAHEIGHT
 40
0.0
  9
$STEPSPERSEC
 40
2.0
  9
$STEPSIZE
 40
6.0
  9
$3DDWFPREC
 40
2.0
  9
$PSOLWIDTH
 40
0.25
  9
$PSOLHEIGHT
 40
4.0
  9
$LOFTANG1
 40
1.570796326794897
  9
$LOFTANG2
 40
1.570796326794897
  9
$LOFTMAG1
 40
0.0
  9
$LOFTMAG2
 40
0.0
  9
$LOFTPARAM
 70
     7
  9
$LOFTNORMALS
280
     1
  9
$LATITUDE
 40
37.795
  9
$LONGITUDE
 40
-122.394
  9
$NORTHDIRECTION
 40
0.0
  9
$TIMEZONE
 70
 -8000
  9
$LIGHTGLYPHDISPLAY
280
     1
  9
$TILEMODELIGHTSYNCH
280
     1
  9
$CMATERIAL
347
3C
  9
$SOLIDHIST
280
     1
  9
$SHOWHIST
280
     1
  9
$DWFFRAME
280
     2
  9
$DGNFRAME
280
     2
  9
$REALWORLDSCALE
290
     1
  9
$INTERFERECOLOR
 62
   256
  9
$CSHADOW
280
     0
  9
$SHADOWPLANELOCATION
 40
0.0
  0
ENDSEC
  0
SECTION
  2
CLASSES
  0
CLASS
  1
ACDBDICTIONARYWDFLT
  2
AcDbDictionaryWithDefault
  3
ObjectDBX Classes
 90
        0
 91
        4
280
     0
281
     0
  0
CLASS
  1
VISUALSTYLE
  2
AcDbVisualStyle
  3
ObjectDBX Classes
 90
     4095
 91
        4
280
     0
281
     0
  0
CLASS
  1
MATERIAL
  2
AcDbMaterial
  3
ObjectDBX Classes
 90
     1153
 91
        4
280
     0
281
     0
  0
CLASS
  1
SUN
  2
AcDbSun
  3
SCENEOE
 90
     1024
 91
        4
280
     0
281
     0
  0
ENDSEC
  0
SECTION
  2
TABLES
  0
TABLE
  2
VPORT
  5
8
330
0
100
AcDbSymbolTable
 70
     1
  0
VPORT
  5
29
330
8
100
AcDbSymbolTableRecord
100
AcDbViewportTableRecord
  2
*Active
 70
     0
 10
0.0
 20
0.0
 11
1.0
 21
1.0
 12
0.0
 22
0.0
 13
0.0
 23
0.0
 14
0.5
 24
0.5
 15
0.5
 25
0.5
 16
0.0
 26
0.0
 36
1.0
 17
105.0008280156501
 27
-148.4999710739862
 37
0.0
 40
296.9999421479724
 41
0.7070764206636528
 42
50.0
 43
0.0
 44
0.0
 50
0.0
 51
0.0
 71
     0
 72
   100
 73
     1
 74
     3
 75
     0
 76
     0
 77
     0
 78
     0
281
     0
 65
     1
110
0.0
120
0.0
130
0.0
111
1.0
121
0.0
131
0.0
112
0.0
122
1.0
132
0.0
 79
     0
146
0.0
 60
     3
 61
     5
292
     1
282
     1
141
0.0
142
0.0
 63
   250
361
3F
  0
ENDTAB
  0
TABLE
  2
LTYPE
  5
5
330
0
100
AcDbSymbolTable
 70
     2
  0
LTYPE
  5
14
330
5
100
AcDbSymbolTableRecord
100
AcDbLinetypeTableRecord
  2
ByBlock
 70
     0
  3

 72
    65
 73
     0
 40
0.0
  0
LTYPE
  5
15
330
5
100
AcDbSymbolTableRecord
100
AcDbLinetypeTableRecord
  2
ByLayer
 70
     0
  3

 72
    65
 73
     0
 40
0.0
  0
LTYPE
  5
16
330
5
100
AcDbSymbolTableRecord
100
AcDbLinetypeTableRecord
  2
Continuous
 70
     0
  3
Solid line
 72
    65
 73
     0
 40
0.0
  0
LTYPE
  5
149
330
5
100
AcDbSymbolTableRecord
100
AcDbLinetypeTableRecord
  2
AI-Linetype-1
 70
     0
  3
Adobe Illustrator Linetype No. 1
 72
    65
 73
     2
 40
1.411111110758333
 49
0.7055555553791667
 74
     0
 49
-0.7055555553791667
 74
     0
  0
ENDTAB
  0
TABLE
  2
LAYER
  5
2
330
0
100
AcDbSymbolTable
 70
     2
  0
LAYER
  5
10
330
2
100
AcDbSymbolTableRecord
100
AcDbLayerTableRecord
  2
0
 70
     0
 62
     7
  6
Continuous
370
    -3
390
F
347
3E
  0
LAYER
  5
40
330
2
100
AcDbSymbolTableRecord
100
AcDbLayerTableRecord
  2
_U+30EC_U+30A4_U+30E4_U+30FC 1
 70
     0
 62
     7
  6
Continuous
370
    -3
390
F
347
3E
  0
ENDTAB
  0
TABLE
  2
STYLE
  5
3
330
0
100
AcDbSymbolTable
 70
     1
  0
STYLE
  5
11
330
3
100
AcDbSymbolTableRecord
100
AcDbTextStyleTableRecord
  2
Standard
 70
     0
 40
0.0
 41
1.0
 50
0.0
 71
     0
 42
0.2
  3
txt
  4

  0
ENDTAB
  0
TABLE
  2
VIEW
  5
6
330
0
100
AcDbSymbolTable
 70
     0
  0
ENDTAB
  0
TABLE
  2
UCS
  5
7
330
0
100
AcDbSymbolTable
 70
     0
  0
ENDTAB
  0
TABLE
  2
APPID
  5
9
330
0
100
AcDbSymbolTable
 70
     1
  0
APPID
  5
12
330
9
100
AcDbSymbolTableRecord
100
AcDbRegAppTableRecord
  2
ACAD
 70
     0
  0
ENDTAB
  0
TABLE
  2
DIMSTYLE
  5
A
330
0
100
AcDbSymbolTable
 70
     1
100
AcDbDimStyleTable
  0
DIMSTYLE
105
27
330
A
100
AcDbSymbolTableRecord
100
AcDbDimStyleTableRecord
  2
Standard
 70
     0
178
     0
340
11
  0
ENDTAB
  0
TABLE
  2
BLOCK_RECORD
  5
1
330
0
100
AcDbSymbolTable
 70
     8
  0
BLOCK_RECORD
  5
1F
330
1
100
AcDbSymbolTableRecord
100
AcDbBlockTableRecord
  2
*Model_Space
340
22
 70
     0
280
     1
281
     0
  0
BLOCK_RECORD
  5
1B
330
1
100
AcDbSymbolTableRecord
100
AcDbBlockTableRecord
  2
*Paper_Space
340
1E
 70
     0
280
     1
281
     0
  0
BLOCK_RECORD
  5
23
330
1
100
AcDbSymbolTableRecord
100
AcDbBlockTableRecord
  2
*Paper_Space0
340
26
 70
     0
280
     1
281
     0
  0
BLOCK_RECORD
  5
93
330
1
100
AcDbSymbolTableRecord
100
AcDbBlockTableRecord
  2
block 2
340
0
102
{BLKREFS
331
94
102
}
 70
     0
280
     1
281
     0
  0
BLOCK_RECORD
  5
A5
330
1
100
AcDbSymbolTableRecord
100
AcDbBlockTableRecord
  2
block 3
340
0
102
{BLKREFS
331
A6
102
}
 70
     0
280
     1
281
     0
  0
BLOCK_RECORD
  5
B6
330
1
100
AcDbSymbolTableRecord
100
AcDbBlockTableRecord
  2
block 4
340
0
102
{BLKREFS
331
B7
102
}
 70
     0
280
     1
281
     0
  0
BLOCK_RECORD
  5
C9
330
1
100
AcDbSymbolTableRecord
100
AcDbBlockTableRecord
  2
block 5
340
0
102
{BLKREFS
331
CA
102
}
 70
     0
280
     1
281
     0
  0
BLOCK_RECORD
  5
E1
330
1
100
AcDbSymbolTableRecord
100
AcDbBlockTableRecord
  2
block 6
340
0
102
{BLKREFS
331
E2
102
}
 70
     0
280
     1
281
     0
  0
BLOCK_RECORD
  5
FA
330
1
100
AcDbSymbolTableRecord
100
AcDbBlockTableRecord
  2
block 7
340
0
102
{BLKREFS
331
FB
102
}
 70
     0
280
     1
281
     0
  0
BLOCK_RECORD
  5
106
330
1
100
AcDbSymbolTableRecord
100
AcDbBlockTableRecord
  2
block 8
340
0
102
{BLKREFS
331
107
102
}
 70
     0
280
     1
281
     0
  0
ENDTAB
  0
ENDSEC
  0
SECTION
  2
BLOCKS
  0
BLOCK
  5
20
330
1F
100
AcDbEntity
  8
0
100
AcDbBlockBegin
  2
*Model_Space
 70
     0
 10
0.0
 20
0.0
 30
0.0
  3
*Model_Space
  1

  0
ENDBLK
  5
21
330
1F
100
AcDbEntity
  8
0
100
AcDbBlockEnd
  0
BLOCK
  5
1C
330
1B
100
AcDbEntity
 67
     1
  8
0
100
AcDbBlockBegin
  2
*Paper_Space
 70
     0
 10
0.0
 20
0.0
 30
0.0
  3
*Paper_Space
  1

  0
ENDBLK
  5
1D
330
1B
100
AcDbEntity
 67
     1
  8
0
100
AcDbBlockEnd
  0
BLOCK
  5
24
330
23
100
AcDbEntity
  8
0
100
AcDbBlockBegin
  2
*Paper_Space0
 70
     0
 10
0.0
 20
0.0
 30
0.0
  3
*Paper_Space0
  1

  0
ENDBLK
  5
25
330
23
100
AcDbEntity
  8
0
100
AcDbBlockEnd
  0
BLOCK
  5
95
330
93
100
AcDbEntity
  8
0
100
AcDbBlockBegin
  2
block 2
 70
     0
 10
0.0
 20
0.0
 30
0.0
  3
block 2
  1

  0
SPLINE
  5
97
330
93
100
AcDbEntity
  8
_U+30EC_U+30A4_U+30E4_U+30FC 1
370
     0
100
AcDbSpline
210
0.0
220
0.0
230
1.0
 70
    11
 71
     3
 72
    26
 73
    22
 74
     0
 42
0.0000000001
 43
0.0000000001
 12
1.0
 22
0.0
 32
0.0
 13
1.0
 23
0.0
 33
0.0
 40
0.0
 40
0.0
 40
0.0
 40
0.0
 40
1.0
 40
1.0
 40
1.0
 40
2.0
 40
2.0
 40
2.0
 40
3.0
 40
3.0
 40
3.0
 40
4.0
 40
4.0
 40
4.0
 40
5.0
 40
5.0
 40
5.0
 40
6.0
 40
6.0
 40
6.0
 40
7.0
 40
7.0
 40
7.0
 40
7.0
 10
120.7237250132219
 20
-137.5185655038148
 30
0.0
 10
120.7237250132219
 20
-137.5185655038148
 30
0.0
 10
119.6195719101993
 20
-137.5185655038148
 30
0.0
 10
119.6195719101993
 20
-137.5185655038148
 30
0.0
 10
119.6195719101993
 20
-137.5185655038148
 30
0.0
 10
119.6195719101993
 20
-137.8486056513017
 30
0.0
 10
119.6195719101993
 20
-137.8486056513017
 30
0.0
 10
119.6195719101993
 20
-137.8486056513017
 30
0.0
 10
119.4714328043335
 20
-137.8486056513017
 30
0.0
 10
119.4714328043335
 20
-137.8486056513017
 30
0.0
 10
119.456618893747
 20
-137.5164984465237
 30
0.0
 10
119.2936658772946
 20
-137.4699896574728
 30
0.0
 10
119.1792887071844
 20
-137.4403618362996
 30
0.0
 10
119.1792887071844
 20
-137.4403618362996
 30
0.0
 10
119.1792887071844
 20
-137.294289787725
 30
0.0
 10
119.1792887071844
 20
-137.294289787725
 30
0.0
 10
119.1792887071844
 20
-137.294289787725
 30
0.0
 10
120.7237250132219
 20
-137.294289787725
 30
0.0
 10
120.7237250132219
 20
-137.294289787725
 30
0.0
 10
120.7237250132219
 20
-137.294289787725
 30
0.0
 10
120.7237250132219
 20
-137.5185655038148
 30
0.0
 10
120.7237250132219
 20
-137.5185655038148
 30
0.0
  0
HATCH
  5
98
330
93
100
AcDbEntity
  8
_U+30EC_U+30A4_U+30E4_U+30FC 1
 62
     7
420
 16777215
100
AcDbHatch
 10
0.0
 20
0.0
 30
0.0
210
0.0
220
0.0
230
1.0
  2
SOLID
 70
     1
 71
     0
 91
        1
 92
        1
 93
        1
 72
     4
 94
        3
 73
     0
 74
     1
 95
       26
 96
       22
 40
0.0
 40
0.0
 40
0.0
 40
0.0
 40
1.0
 40
1.0
 40
1.0
 40
2.0
 40
2.0
 40
2.0
 40
3.0
 40
3.0
 40
3.0
 40
4.0
 40
4.0
 40
4.0
 40
5.0
 40
5.0
 40
5.0
 40
6.0
 40
6.0
 40
6.0
 40
7.0
 40
7.0
 40
7.0
 40
7.0
 10
120.7237250132219
 20
-137.5185655038148
 10
120.7237250132219
 20
-137.5185655038148
 10
119.6195719101993
 20
-137.5185655038148
 10
119.6195719101993
 20
-137.5185655038148
 10
119.6195719101993
 20
-137.5185655038148
 10
119.6195719101993
 20
-137.8486056513017
 10
119.6195719101993
 20
-137.8486056513017
 10
119.6195719101993
 20
-137.8486056513017
 10
119.4714328043335
 20
-137.8486056513017
 10
119.4714328043335
 20
-137.8486056513017
 10
119.456618893747
 20
-137.5164984465237
 10
119.2936658772946
 20
-137.4699896574728
 10
119.1792887071844
 20
-137.4403618362996
 10
119.1792887071844
 20
-137.4403618362996
 10
119.1792887071844
 20
-137.294289787725
 10
119.1792887071844
 20
-137.294289787725
 10
119.1792887071844
 20
-137.294289787725
 10
120.7237250132219
 20
-137.294289787725
 10
120.7237250132219
 20
-137.294289787725
 10
120.7237250132219
 20
-137.294289787725
 10
120.7237250132219
 20
-137.5185655038148
 10
120.7237250132219
 20
-137.5185655038148
 97
        0
 97
        0
 75
     2
 76
     1
 98
        0
  0
ENDBLK
  5
96
330
93
100
AcDbEntity
  8
0
100
AcDbBlockEnd
  0
BLOCK
  5
A7
330
A5
100
AcDbEntity
  8
0
100
AcDbBlockBegin
  2
block 3
 70
     0
 10
0.0
 20
0.0
 30
0.0
  3
block 3
  1

  0
SPLINE
  5
A9
330
A5
100
AcDbEntity
  8
_U+30EC_U+30A4_U+30E4_U+30FC 1
370
     0
100
AcDbSpline
210
0.0
220
0.0
230
1.0
 70
    11
 71
     3
 72
    26
 73
    22
 74
     0
 42
0.0000000001
 43
0.0000000001
 12
1.0
 22
0.0
 32
0.0
 13
1.0
 23
0.0
 33
0.0
 40
0.0
 40
0.0
 40
0.0
 40
0.0
 40
1.0
 40
1.0
 40
1.0
 40
2.0
 40
2.0
 40
2.0
 40
3.0
 40
3.0
 40
3.0
 40
4.0
 40
4.0
 40
4.0
 40
5.0
 40
5.0
 40
5.0
 40
6.0
 40
6.0
 40
6.0
 40
7.0
 40
7.0
 40
7.0
 40
7.0
 10
97.31257864320658
 20
-158.170879409242
 30
0.0
 10
97.31257864320658
 20
-158.170879409242
 30
0.0
 10
97.31257864320658
 20
-157.0667263062194
 30
0.0
 10
97.31257864320658
 20
-157.0667263062194
 30
0.0
 10
97.31257864320658
 20
-157.0667263062194
 30
0.0
 10
96.98253849571965
 20
-157.0667263062194
 30
0.0
 10
96.98253849571965
 20
-157.0667263062194
 30
0.0
 10
96.98253849571965
 20
-157.0667263062194
 30
0.0
 10
96.98253849571965
 20
-156.9185872003537
 30
0.0
 10
96.98253849571965
 20
-156.9185872003537
 30
0.0
 10
97.31464570049773
 20
-156.9037732897671
 30
0.0
 10
97.36115448954861
 20
-156.7408202733148
 30
0.0
 10
97.39078231072175
 20
-156.6264431032045
 30
0.0
 10
97.39078231072175
 20
-156.6264431032045
 30
0.0
 10
97.53685435929634
 20
-156.6264431032045
 30
0.0
 10
97.53685435929634
 20
-156.6264431032045
 30
0.0
 10
97.53685435929634
 20
-156.6264431032045
 30
0.0
 10
97.53685435929634
 20
-158.170879409242
 30
0.0
 10
97.53685435929634
 20
-158.170879409242
 30
0.0
 10
97.53685435929634
 20
-158.170879409242
 30
0.0
 10
97.31257864320658
 20
-158.170879409242
 30
0.0
 10
97.31257864320658
 20
-158.170879409242
 30
0.0
  0
HATCH
  5
AA
330
A5
100
AcDbEntity
  8
_U+30EC_U+30A4_U+30E4_U+30FC 1
 62
     7
420
 16777215
100
AcDbHatch
 10
0.0
 20
0.0
 30
0.0
210
0.0
220
0.0
230
1.0
  2
SOLID
 70
     1
 71
     0
 91
        1
 92
        1
 93
        1
 72
     4
 94
        3
 73
     0
 74
     1
 95
       26
 96
       22
 40
0.0
 40
0.0
 40
0.0
 40
0.0
 40
1.0
 40
1.0
 40
1.0
 40
2.0
 40
2.0
 40
2.0
 40
3.0
 40
3.0
 40
3.0
 40
4.0
 40
4.0
 40
4.0
 40
5.0
 40
5.0
 40
5.0
 40
6.0
 40
6.0
 40
6.0
 40
7.0
 40
7.0
 40
7.0
 40
7.0
 10
97.31257864320658
 20
-158.170879409242
 10
97.31257864320658
 20
-158.170879409242
 10
97.31257864320658
 20
-157.0667263062194
 10
97.31257864320658
 20
-157.0667263062194
 10
97.31257864320658
 20
-157.0667263062194
 10
96.98253849571965
 20
-157.0667263062194
 10
96.98253849571965
 20
-157.0667263062194
 10
96.98253849571965
 20
-157.0667263062194
 10
96.98253849571965
 20
-156.9185872003537
 10
96.98253849571965
 20
-156.9185872003537
 10
97.31464570049773
 20
-156.9037732897671
 10
97.36115448954861
 20
-156.7408202733148
 10
97.39078231072175
 20
-156.6264431032045
 10
97.39078231072175
 20
-156.6264431032045
 10
97.53685435929634
 20
-156.6264431032045
 10
97.53685435929634
 20
-156.6264431032045
 10
97.53685435929634
 20
-156.6264431032045
 10
97.53685435929634
 20
-158.170879409242
 10
97.53685435929634
 20
-158.170879409242
 10
97.53685435929634
 20
-158.170879409242
 10
97.31257864320658
 20
-158.170879409242
 10
97.31257864320658
 20
-158.170879409242
 97
        0
 97
        0
 75
     2
 76
     1
 98
        0
  0
SPLINE
  5
AB
330
A5
100
AcDbEntity
  8
_U+30EC_U+30A4_U+30E4_U+30FC 1
370
     0
100
AcDbSpline
210
0.0
220
0.0
230
1.0
 70
    11
 71
     3
 72
    29
 73
    25
 74
     0
 42
0.0000000001
 43
0.0000000001
 12
1.0
 22
0.0
 32
0.0
 13
1.0
 23
0.0
 33
0.0
 40
0.0
 40
0.0
 40
0.0
 40
0.0
 40
1.0
 40
1.0
 40
1.0
 40
2.0
 40
2.0
 40
2.0
 40
3.0
 40
3.0
 40
3.0
 40
4.0
 40
4.0
 40
4.0
 40
5.0
 40
5.0
 40
5.0
 40
6.0
 40
6.0
 40
6.0
 40
7.0
 40
7.0
 40
7.0
 40
8.0
 40
8.0
 40
8.0
 40
8.0
 10
98.93590763585631
 20
-157.9931124822031
 30
0.0
 10
98.82773163761946
 20
-158.2025742877063
 30
0.0
 10
98.65444333471139
 20
-158.2215223128752
 30
0.0
 10
98.53799910730994
 20
-158.2215223128752
 30
0.0
 10
98.37711314814878
 20
-158.2215223128752
 30
0.0
 10
98.23551972370501
 20
-158.1750135238243
 30
0.0
 10
98.14043508831212
 20
-157.9931124822031
 30
0.0
 10
98.0367377142061
 20
-157.7984645872865
 30
0.0
 10
98.0174451794887
 20
-157.5617865274498
 30
0.0
 10
98.0174451794887
 20
-157.3988335109975
 30
0.0
 10
98.0174451794887
 20
-157.2548285197141
 30
0.0
 10
98.03467065691495
 20
-157.0029920397423
 30
0.0
 10
98.14043508831212
 20
-156.8042100302434
 30
0.0
 10
98.24826657700044
 20
-156.6012939061622
 30
0.0
 10
98.4091525361616
 20
-156.5778672568625
 30
0.0
 10
98.53799910730994
 20
-156.5778672568625
 30
0.0
 10
98.69681800917996
 20
-156.5778672568625
 30
0.0
 10
98.84047849091489
 20
-156.6223089886222
 30
0.0
 10
98.93590763585631
 20
-156.8042100302434
 30
0.0
 10
99.0351263858315
 20
-156.9967908678689
 30
0.0
 10
99.0585530351312
 20
-157.2252006985409
 30
0.0
 10
99.0585530351312
 20
-157.3988335109975
 30
0.0
 10
99.0585530351312
 20
-157.5700547566144
 30
0.0
 10
99.03719344312265
 20
-157.8005316445777
 30
0.0
 10
98.93590763585631
 20
-157.9931124822031
 30
0.0
  0
SPLINE
  5
AC
330
A5
100
AcDbEntity
  8
_U+30EC_U+30A4_U+30E4_U+30FC 1
370
     0
100
AcDbSpline
210
0.0
220
0.0
230
1.0
 70
    11
 71
     3
 72
    17
 73
    13
 74
     0
 42
0.0000000001
 43
0.0000000001
 12
1.0
 22
0.0
 32
0.0
 13
1.0
 23
0.0
 33
0.0
 40
0.0
 40
0.0
 40
0.0
 40
0.0
 40
1.0
 40
1.0
 40
1.0
 40
2.0
 40
2.0
 40
2.0
 40
3.0
 40
3.0
 40
3.0
 40
4.0
 40
4.0
 40
4.0
 40
4.0
 10
98.53799910730994
 20
-156.770448094488
 30
0.0
 10
98.28822968462934
 20
-156.770448094488
 30
0.0
 10
98.24172089557847
 20
-157.053979452924
 30
0.0
 10
98.24172089557847
 20
-157.3988335109975
 30
0.0
 10
98.24172089557847
 20
-157.7181938624802
 30
0.0
 10
98.27789439817359
 20
-158.0268744179586
 30
0.0
 10
98.53799910730994
 20
-158.0268744179586
 30
0.0
 10
98.78570147269942
 20
-158.0268744179586
 30
0.0
 10
98.83427731904143
 20
-157.7457546263622
 30
0.0
 10
98.83427731904143
 20
-157.3988335109975
 30
0.0
 10
98.83427731904143
 20
-157.0791286499663
 30
0.0
 10
98.79603675915516
 20
-156.770448094488
 30
0.0
 10
98.53799910730994
 20
-156.770448094488
 30
0.0
  0
HATCH
  5
AD
330
A5
100
AcDbEntity
  8
_U+30EC_U+30A4_U+30E4_U+30FC 1
 62
     7
420
 16777215
100
AcDbHatch
 10
0.0
 20
0.0
 30
0.0
210
0.0
220
0.0
230
1.0
  2
SOLID
 70
     1
 71
     0
 91
        2
 92
        1
 93
        1
 72
     4
 94
        3
 73
     0
 74
     1
 95
       29
 96
       25
 40
0.0
 40
0.0
 40
0.0
 40
0.0
 40
1.0
 40
1.0
 40
1.0
 40
2.0
 40
2.0
 40
2.0
 40
3.0
 40
3.0
 40
3.0
 40
4.0
 40
4.0
 40
4.0
 40
5.0
 40
5.0
 40
5.0
 40
6.0
 40
6.0
 40
6.0
 40
7.0
 40
7.0
 40
7.0
 40
8.0
 40
8.0
 40
8.0
 40
8.0
 10
98.93590763585631
 20
-157.9931124822031
 10
98.82773163761946
 20
-158.2025742877063
 10
98.65444333471139
 20
-158.2215223128752
 10
98.53799910730994
 20
-158.2215223128752
 10
98.37711314814878
 20
-158.2215223128752
 10
98.23551972370501
 20
-158.1750135238243
 10
98.14043508831212
 20
-157.9931124822031
 10
98.0367377142061
 20
-157.7984645872865
 10
98.0174451794887
 20
-157.5617865274498
 10
98.0174451794887
 20
-157.3988335109975
 10
98.0174451794887
 20
-157.2548285197141
 10
98.03467065691495
 20
-157.0029920397423
 10
98.14043508831212
 20
-156.8042100302434
 10
98.24826657700044
 20
-156.6012939061622
 10
98.4091525361616
 20
-156.5778672568625
 10
98.53799910730994
 20
-156.5778672568625
 10
98.69681800917996
 20
-156.5778672568625
 10
98.84047849091489
 20
-156.6223089886222
 10
98.93590763585631
 20
-156.8042100302434
 10
99.0351263858315
 20
-156.9967908678689
 10
99.0585530351312
 20
-157.2252006985409
 10
99.0585530351312
 20
-157.3988335109975
 10
99.0585530351312
 20
-157.5700547566144
 10
99.03719344312265
 20
-157.8005316445777
 10
98.93590763585631
 20
-157.9931124822031
 97
        0
 97
        0
 92
        1
 93
        1
 72
     4
 94
        3
 73
     0
 74
     1
 95
       17
 96
       13
 40
0.0
 40
0.0
 40
0.0
 40
0.0
 40
1.0
 40
1.0
 40
1.0
 40
2.0
 40
2.0
 40
2.0
 40
3.0
 40
3.0
 40
3.0
 40
4.0
 40
4.0
 40
4.0
 40
4.0
 10
98.53799910730994
 20
-156.770448094488
 10
98.28822968462934
 20
-156.770448094488
 10
98.24172089557847
 20
-157.053979452924
 10
98.24172089557847
 20
-157.3988335109975
 10
98.24172089557847
 20
-157.7181938624802
 10
98.27789439817359
 20
-158.0268744179586
 10
98.53799910730994
 20
-158.0268744179586
 10
98.78570147269942
 20
-158.0268744179586
 10
98.83427731904143
 20
-157.7457546263622
 10
98.83427731904143
 20
-157.3988335109975
 10
98.83427731904143
 20
-157.0791286499663
 10
98.79603675915516
 20
-156.770448094488
 10
98.53799910730994
 20
-156.770448094488
 97
        0
 97
        0
 75
     2
 76
     1
 98
        0
  0
ENDBLK
  5
A8
330
A5
100
AcDbEntity
  8
0
100
AcDbBlockEnd
  0
BLOCK
  5
B8
330
B6
100
AcDbEntity
  8
0
100
AcDbBlockBegin
  2
block 4
 70
     0
 10
0.0
 20
0.0
 30
0.0
  3
block 4
  1

  0
SPLINE
  5
BA
330
B6
100
AcDbEntity
  8
_U+30EC_U+30A4_U+30E4_U+30FC 1
370
     0
100
AcDbSpline
210
0.0
220
0.0
230
1.0
 70
    11
 71
     3
 72
    32
 73
    28
 74
     0
 42
0.0000000001
 43
0.0000000001
 12
1.0
 22
0.0
 32
0.0
 13
1.0
 23
0.0
 33
0.0
 40
0.0
 40
0.0
 40
0.0
 40
0.0
 40
1.0
 40
1.0
 40
1.0
 40
2.0
 40
2.0
 40
2.0
 40
3.0
 40
3.0
 40
3.0
 40
4.0
 40
4.0
 40
4.0
 40
5.0
 40
5.0
 40
5.0
 40
6.0
 40
6.0
 40
6.0
 40
7.0
 40
7.0
 40
7.0
 40
8.0
 40
8.0
 40
8.0
 40
9.0
 40
9.0
 40
9.0
 40
9.0
 10
90.03188609945384
 20
-158.2211778033267
 30
0.0
 10
89.51563854098914
 20
-158.2211778033267
 30
0.0
 10
89.50719805705029
 20
-157.6672064492985
 30
0.0
 10
89.50719805705029
 20
-157.4532660196645
 30
0.0
 10
89.50719805705029
 20
-157.2227891317013
 30
0.0
 10
89.52631833699343
 20
-156.5754556900228
 30
0.0
 10
90.06995440456585
 20
-156.5754556900228
 30
0.0
 10
90.24341496224818
 20
-156.5754556900228
 30
0.0
 10
90.48887801557223
 20
-156.6453911283734
 30
0.0
 10
90.52694632068425
 20
-156.9774983331515
 30
0.0
 10
90.52694632068425
 20
-156.9774983331515
 30
0.0
 10
90.3131781458245
 20
-156.9774983331515
 30
0.0
 10
90.3131781458245
 20
-156.9774983331515
 30
0.0
 10
90.30267060459448
 20
-156.9203097480963
 30
0.0
 10
90.27097572613017
 20
-156.7721706422306
 30
0.0
 10
90.0678873472747
 20
-156.7721706422306
 30
0.0
 10
89.77591550489977
 20
-156.7721706422306
 30
0.0
 10
89.73560788772235
 20
-157.1001437324263
 30
0.0
 10
89.7230332892012
 20
-157.3051269137987
 30
0.0
 10
89.81605086730293
 20
-157.2269232462835
 30
0.0
 10
89.88374699358809
 20
-157.1676676039372
 30
0.0
 10
90.06564803520929
 20
-157.1676676039372
 30
0.0
 10
90.24548201953932
 20
-157.1676676039372
 30
0.0
 10
90.54796140314427
 20
-157.2758436021741
 30
0.0
 10
90.54796140314427
 20
-157.6820203598851
 30
0.0
 10
90.54796140314427
 20
-158.0013807113677
 30
0.0
 10
90.34917939364534
 20
-158.2211778033267
 30
0.0
 10
90.03188609945384
 20
-158.2211778033267
 30
0.0
  0
SPLINE
  5
BB
330
B6
100
AcDbEntity
  8
_U+30EC_U+30A4_U+30E4_U+30FC 1
370
     0
100
AcDbSpline
210
0.0
220
0.0
230
1.0
 70
    11
 71
     3
 72
    17
 73
    13
 74
     0
 42
0.0000000001
 43
0.0000000001
 12
1.0
 22
0.0
 32
0.0
 13
1.0
 23
0.0
 33
0.0
 40
0.0
 40
0.0
 40
0.0
 40
0.0
 40
1.0
 40
1.0
 40
1.0
 40
2.0
 40
2.0
 40
2.0
 40
3.0
 40
3.0
 40
3.0
 40
4.0
 40
4.0
 40
4.0
 40
4.0
 10
90.04876706733157
 20
-157.3623154988539
 30
0.0
 10
89.78642304612978
 20
-157.3623154988539
 30
0.0
 10
89.74835474101778
 20
-157.5738443616482
 30
0.0
 10
89.74835474101778
 20
-157.6902885890497
 30
0.0
 10
89.74835474101778
 20
-157.8659884587974
 30
0.0
 10
89.84361163118493
 20
-158.0289414752497
 30
0.0
 10
90.02757973009727
 20
-158.0289414752497
 30
0.0
 10
90.14815807208102
 20
-158.0289414752497
 30
0.0
 10
90.32385794182876
 20
-157.9696858329034
 30
0.0
 10
90.32385794182876
 20
-157.6840874171762
 30
0.0
 10
90.32385794182876
 20
-157.4598117010864
 30
0.0
 10
90.18415931990188
 20
-157.3623154988539
 30
0.0
 10
90.04876706733157
 20
-157.3623154988539
 30
0.0
  0
HATCH
  5
BC
330
B6
100
AcDbEntity
  8
_U+30EC_U+30A4_U+30E4_U+30FC 1
 62
     7
420
 16777215
100
AcDbHatch
 10
0.0
 20
0.0
 30
0.0
210
0.0
220
0.0
230
1.0
  2
SOLID
 70
     1
 71
     0
 91
        2
 92
        1
 93
        1
 72
     4
 94
        3
 73
     0
 74
     1
 95
       32
 96
       28
 40
0.0
 40
0.0
 40
0.0
 40
0.0
 40
1.0
 40
1.0
 40
1.0
 40
2.0
 40
2.0
 40
2.0
 40
3.0
 40
3.0
 40
3.0
 40
4.0
 40
4.0
 40
4.0
 40
5.0
 40
5.0
 40
5.0
 40
6.0
 40
6.0
 40
6.0
 40
7.0
 40
7.0
 40
7.0
 40
8.0
 40
8.0
 40
8.0
 40
9.0
 40
9.0
 40
9.0
 40
9.0
 10
90.03188609945384
 20
-158.2211778033267
 10
89.51563854098914
 20
-158.2211778033267
 10
89.50719805705029
 20
-157.6672064492985
 10
89.50719805705029
 20
-157.4532660196645
 10
89.50719805705029
 20
-157.2227891317013
 10
89.52631833699343
 20
-156.5754556900228
 10
90.06995440456585
 20
-156.5754556900228
 10
90.24341496224818
 20
-156.5754556900228
 10
90.48887801557223
 20
-156.6453911283734
 10
90.52694632068425
 20
-156.9774983331515
 10
90.52694632068425
 20
-156.9774983331515
 10
90.3131781458245
 20
-156.9774983331515
 10
90.3131781458245
 20
-156.9774983331515
 10
90.30267060459448
 20
-156.9203097480963
 10
90.27097572613017
 20
-156.7721706422306
 10
90.0678873472747
 20
-156.7721706422306
 10
89.77591550489977
 20
-156.7721706422306
 10
89.73560788772235
 20
-157.1001437324263
 10
89.7230332892012
 20
-157.3051269137987
 10
89.81605086730293
 20
-157.2269232462835
 10
89.88374699358809
 20
-157.1676676039372
 10
90.06564803520929
 20
-157.1676676039372
 10
90.24548201953932
 20
-157.1676676039372
 10
90.54796140314427
 20
-157.2758436021741
 10
90.54796140314427
 20
-157.6820203598851
 10
90.54796140314427
 20
-158.0013807113677
 10
90.34917939364534
 20
-158.2211778033267
 10
90.03188609945384
 20
-158.2211778033267
 97
        0
 97
        0
 92
        1
 93
        1
 72
     4
 94
        3
 73
     0
 74
     1
 95
       17
 96
       13
 40
0.0
 40
0.0
 40
0.0
 40
0.0
 40
1.0
 40
1.0
 40
1.0
 40
2.0
 40
2.0
 40
2.0
 40
3.0
 40
3.0
 40
3.0
 40
4.0
 40
4.0
 40
4.0
 40
4.0
 10
90.04876706733157
 20
-157.3623154988539
 10
89.78642304612978
 20
-157.3623154988539
 10
89.74835474101778
 20
-157.5738443616482
 10
89.74835474101778
 20
-157.6902885890497
 10
89.74835474101778
 20
-157.8659884587974
 10
89.84361163118493
 20
-158.0289414752497
 10
90.02757973009727
 20
-158.0289414752497
 10
90.14815807208102
 20
-158.0289414752497
 10
90.32385794182876
 20
-157.9696858329034
 10
90.32385794182876
 20
-157.6840874171762
 10
90.32385794182876
 20
-157.4598117010864
 10
90.18415931990188
 20
-157.3623154988539
 10
90.04876706733157
 20
-157.3623154988539
 97
        0
 97
        0
 75
     2
 76
     1
 98
        0
  0
ENDBLK
  5
B9
330
B6
100
AcDbEntity
  8
0
100
AcDbBlockEnd
  0
BLOCK
  5
CB
330
C9
100
AcDbEntity
  8
0
100
AcDbBlockBegin
  2
block 5
 70
     0
 10
0.0
 20
0.0
 30
0.0
  3
block 5
  1

  0
SPLINE
  5
CD
330
C9
100
AcDbEntity
  8
_U+30EC_U+30A4_U+30E4_U+30FC 1
370
     0
100
AcDbSpline
210
0.0
220
0.0
230
1.0
 70
    11
 71
     3
 72
    62
 73
    58
 74
     0
 42
0.0000000001
 43
0.0000000001
 12
1.0
 22
0.0
 32
0.0
 13
1.0
 23
0.0
 33
0.0
 40
0.0
 40
0.0
 40
0.0
 40
0.0
 40
1.0
 40
1.0
 40
1.0
 40
2.0
 40
2.0
 40
2.0
 40
3.0
 40
3.0
 40
3.0
 40
4.0
 40
4.0
 40
4.0
 40
5.0
 40
5.0
 40
5.0
 40
6.0
 40
6.0
 40
6.0
 40
7.0
 40
7.0
 40
7.0
 40
8.0
 40
8.0
 40
8.0
 40
9.0
 40
9.0
 40
9.0
 40
10.0
 40
10.0
 40
10.0
 40
11.0
 40
11.0
 40
11.0
 40
12.0
 40
12.0
 40
12.0
 40
13.0
 40
13.0
 40
13.0
 40
14.0
 40
14.0
 40
14.0
 40
15.0
 40
15.0
 40
15.0
 40
16.0
 40
16.0
 40
16.0
 40
17.0
 40
17.0
 40
17.0
 40
18.0
 40
18.0
 40
18.0
 40
19.0
 40
19.0
 40
19.0
 40
19.0
 10
101.8528699832173
 20
-135.2215480890245
 30
0.0
 10
101.7574408382759
 20
-135.2215480890245
 30
0.0
 10
101.5397108036081
 20
-135.2003607517902
 30
0.0
 10
101.4146538374936
 20
-135.0141533408124
 30
0.0
 10
101.3405842845607
 20
-134.9020154827676
 30
0.0
 10
101.3364501699784
 20
-134.8026244780181
 30
0.0
 10
101.3323160553961
 20
-134.7180473838552
 30
0.0
 10
101.3323160553961
 20
-134.7180473838552
 30
0.0
 10
101.5524576569036
 20
-134.7180473838552
 30
0.0
 10
101.5524576569036
 20
-134.7180473838552
 30
0.0
 10
101.5545247141947
 20
-134.7921169367881
 30
0.0
 10
101.5648600006505
 20
-135.0269001941079
 30
0.0
 10
101.8483913590865
 20
-135.0269001941079
 30
0.0
 10
101.985850668948
 20
-135.0269001941079
 30
0.0
 10
102.1384683989446
 20
-134.9571370105316
 30
0.0
 10
102.1384683989446
 20
-134.7285549250852
 30
0.0
 10
102.1384683989446
 20
-134.6122829524581
 30
0.0
 10
102.1002278390583
 20
-134.5635348513418
 30
0.0
 10
102.068532960594
 20
-134.5318399728775
 30
0.0
 10
101.9944634076611
 20
-134.4577704199446
 30
0.0
 10
101.8780191802597
 20
-134.4451958214234
 30
0.0
 10
101.8232421620442
 20
-134.4451958214234
 30
0.0
 10
101.8039496273268
 20
-134.4451958214234
 30
0.0
 10
101.7681206342802
 20
-134.4472628787146
 30
0.0
 10
101.7405598703982
 20
-134.4513969932969
 30
0.0
 10
101.7405598703982
 20
-134.4513969932969
 30
0.0
 10
101.7405598703982
 20
-134.2567490983803
 30
0.0
 10
101.7405598703982
 20
-134.2567490983803
 30
0.0
 10
101.7788004302845
 20
-134.263122525028
 30
0.0
 10
101.8208305952045
 20
-134.2653618370934
 30
0.0
 10
101.8273762766265
 20
-134.2653618370934
 30
0.0
 10
101.8928330908462
 20
-134.2653618370934
 30
0.0
 10
102.0916151003452
 20
-134.2441744998591
 30
0.0
 10
102.0916151003452
 20
-134.0071519304739
 30
0.0
 10
102.0916151003452
 20
-133.8295572582093
 30
0.0
 10
101.9607014719057
 20
-133.7744357304453
 30
0.0
 10
101.8504584163777
 20
-133.7744357304453
 30
0.0
 10
101.586219592659
 20
-133.7744357304453
 30
0.0
 10
101.5776068539459
 20
-134.0071519304739
 30
0.0
 10
101.5734727393636
 20
-134.0791544261156
 30
0.0
 10
101.5734727393636
 20
-134.0791544261156
 30
0.0
 10
101.3702121057338
 20
-134.0791544261156
 30
0.0
 10
101.3702121057338
 20
-134.0791544261156
 30
0.0
 10
101.378824844447
 20
-133.9542697147753
 30
0.0
 10
101.406385608329
 20
-133.5777207782375
 30
0.0
 10
101.8632052696731
 20
-133.5777207782375
 30
0.0
 10
102.0874809857629
 20
-133.5777207782375
 30
0.0
 10
102.3286376697303
 20
-133.704672546869
 30
0.0
 10
102.3286376697303
 20
-134.0007785038262
 30
0.0
 10
102.3286376697303
 20
-134.186985914804
 30
0.0
 10
102.2335530343374
 20
-134.2694959516757
 30
0.0
 10
102.1339897748137
 20
-134.3308186513131
 30
0.0
 10
102.1953124744512
 20
-134.3583794151951
 30
0.0
 10
102.3772135160724
 20
-134.4388223947757
 30
0.0
 10
102.3772135160724
 20
-134.7159803265641
 30
0.0
 10
102.3772135160724
 20
-135.0544609579899
 30
0.0
 10
102.1298556602314
 20
-135.2215480890245
 30
0.0
 10
101.8528699832173
 20
-135.2215480890245
 30
0.0
  0
HATCH
  5
CE
330
C9
100
AcDbEntity
  8
_U+30EC_U+30A4_U+30E4_U+30FC 1
 62
     7
420
 16777215
100
AcDbHatch
 10
0.0
 20
0.0
 30
0.0
210
0.0
220
0.0
230
1.0
  2
SOLID
 70
     1
 71
     0
 91
        1
 92
        1
 93
        1
 72
     4
 94
        3
 73
     0
 74
     1
 95
       62
 96
       58
 40
0.0
 40
0.0
 40
0.0
 40
0.0
 40
1.0
 40
1.0
 40
1.0
 40
2.0
 40
2.0
 40
2.0
 40
3.0
 40
3.0
 40
3.0
 40
4.0
 40
4.0
 40
4.0
 40
5.0
 40
5.0
 40
5.0
 40
6.0
 40
6.0
 40
6.0
 40
7.0
 40
7.0
 40
7.0
 40
8.0
 40
8.0
 40
8.0
 40
9.0
 40
9.0
 40
9.0
 40
10.0
 40
10.0
 40
10.0
 40
11.0
 40
11.0
 40
11.0
 40
12.0
 40
12.0
 40
12.0
 40
13.0
 40
13.0
 40
13.0
 40
14.0
 40
14.0
 40
14.0
 40
15.0
 40
15.0
 40
15.0
 40
16.0
 40
16.0
 40
16.0
 40
17.0
 40
17.0
 40
17.0
 40
18.0
 40
18.0
 40
18.0
 40
19.0
 40
19.0
 40
19.0
 40
19.0
 10
101.8528699832173
 20
-135.2215480890245
 10
101.7574408382759
 20
-135.2215480890245
 10
101.5397108036081
 20
-135.2003607517902
 10
101.4146538374936
 20
-135.0141533408124
 10
101.3405842845607
 20
-134.9020154827676
 10
101.3364501699784
 20
-134.8026244780181
 10
101.3323160553961
 20
-134.7180473838552
 10
101.3323160553961
 20
-134.7180473838552
 10
101.5524576569036
 20
-134.7180473838552
 10
101.5524576569036
 20
-134.7180473838552
 10
101.5545247141947
 20
-134.7921169367881
 10
101.5648600006505
 20
-135.0269001941079
 10
101.8483913590865
 20
-135.0269001941079
 10
101.985850668948
 20
-135.0269001941079
 10
102.1384683989446
 20
-134.9571370105316
 10
102.1384683989446
 20
-134.7285549250852
 10
102.1384683989446
 20
-134.6122829524581
 10
102.1002278390583
 20
-134.5635348513418
 10
102.068532960594
 20
-134.5318399728775
 10
101.9944634076611
 20
-134.4577704199446
 10
101.8780191802597
 20
-134.4451958214234
 10
101.8232421620442
 20
-134.4451958214234
 10
101.8039496273268
 20
-134.4451958214234
 10
101.7681206342802
 20
-134.4472628787146
 10
101.7405598703982
 20
-134.4513969932969
 10
101.7405598703982
 20
-134.4513969932969
 10
101.7405598703982
 20
-134.2567490983803
 10
101.7405598703982
 20
-134.2567490983803
 10
101.7788004302845
 20
-134.263122525028
 10
101.8208305952045
 20
-134.2653618370934
 10
101.8273762766265
 20
-134.2653618370934
 10
101.8928330908462
 20
-134.2653618370934
 10
102.0916151003452
 20
-134.2441744998591
 10
102.0916151003452
 20
-134.0071519304739
 10
102.0916151003452
 20
-133.8295572582093
 10
101.9607014719057
 20
-133.7744357304453
 10
101.8504584163777
 20
-133.7744357304453
 10
101.586219592659
 20
-133.7744357304453
 10
101.5776068539459
 20
-134.0071519304739
 10
101.5734727393636
 20
-134.0791544261156
 10
101.5734727393636
 20
-134.0791544261156
 10
101.3702121057338
 20
-134.0791544261156
 10
101.3702121057338
 20
-134.0791544261156
 10
101.378824844447
 20
-133.9542697147753
 10
101.406385608329
 20
-133.5777207782375
 10
101.8632052696731
 20
-133.5777207782375
 10
102.0874809857629
 20
-133.5777207782375
 10
102.3286376697303
 20
-133.704672546869
 10
102.3286376697303
 20
-134.0007785038262
 10
102.3286376697303
 20
-134.186985914804
 10
102.2335530343374
 20
-134.2694959516757
 10
102.1339897748137
 20
-134.3308186513131
 10
102.1953124744512
 20
-134.3583794151951
 10
102.3772135160724
 20
-134.4388223947757
 10
102.3772135160724
 20
-134.7159803265641
 10
102.3772135160724
 20
-135.0544609579899
 10
102.1298556602314
 20
-135.2215480890245
 10
101.8528699832173
 20
-135.2215480890245
 97
        0
 97
        0
 75
     2
 76
     1
 98
        0
  0
SPLINE
  5
CF
330
C9
100
AcDbEntity
  8
_U+30EC_U+30A4_U+30E4_U+30FC 1
370
     0
100
AcDbSpline
210
0.0
220
0.0
230
1.0
 70
    11
 71
     3
 72
    26
 73
    22
 74
     0
 42
0.0000000001
 43
0.0000000001
 12
1.0
 22
0.0
 32
0.0
 13
1.0
 23
0.0
 33
0.0
 40
0.0
 40
0.0
 40
0.0
 40
0.0
 40
1.0
 40
1.0
 40
1.0
 40
2.0
 40
2.0
 40
2.0
 40
3.0
 40
3.0
 40
3.0
 40
4.0
 40
4.0
 40
4.0
 40
5.0
 40
5.0
 40
5.0
 40
6.0
 40
6.0
 40
6.0
 40
7.0
 40
7.0
 40
7.0
 40
7.0
 10
102.9894069838013
 20
-135.170732930617
 30
0.0
 10
102.9894069838013
 20
-135.170732930617
 30
0.0
 10
102.9894069838013
 20
-134.0664075728202
 30
0.0
 10
102.9894069838013
 20
-134.0664075728202
 30
0.0
 10
102.9894069838013
 20
-134.0664075728202
 30
0.0
 10
102.6593668363143
 20
-134.0664075728202
 30
0.0
 10
102.6593668363143
 20
-134.0664075728202
 30
0.0
 10
102.6593668363143
 20
-134.0664075728202
 30
0.0
 10
102.6593668363143
 20
-133.9184407217287
 30
0.0
 10
102.6593668363143
 20
-133.9184407217287
 30
0.0
 10
102.9914740410924
 20
-133.9036268111421
 30
0.0
 10
103.0379828301433
 20
-133.7406737946898
 30
0.0
 10
103.0676106513164
 20
-133.6264688793538
 30
0.0
 10
103.0676106513164
 20
-133.6264688793538
 30
0.0
 10
103.213682699891
 20
-133.6264688793538
 30
0.0
 10
103.213682699891
 20
-133.6264688793538
 30
0.0
 10
103.213682699891
 20
-133.6264688793538
 30
0.0
 10
103.213682699891
 20
-135.170732930617
 30
0.0
 10
103.213682699891
 20
-135.170732930617
 30
0.0
 10
103.213682699891
 20
-135.170732930617
 30
0.0
 10
102.9894069838013
 20
-135.170732930617
 30
0.0
 10
102.9894069838013
 20
-135.170732930617
 30
0.0
  0
HATCH
  5
D0
330
C9
100
AcDbEntity
  8
_U+30EC_U+30A4_U+30E4_U+30FC 1
 62
     7
420
 16777215
100
AcDbHatch
 10
0.0
 20
0.0
 30
0.0
210
0.0
220
0.0
230
1.0
  2
SOLID
 70
     1
 71
     0
 91
        1
 92
        1
 93
        1
 72
     4
 94
        3
 73
     0
 74
     1
 95
       26
 96
       22
 40
0.0
 40
0.0
 40
0.0
 40
0.0
 40
1.0
 40
1.0
 40
1.0
 40
2.0
 40
2.0
 40
2.0
 40
3.0
 40
3.0
 40
3.0
 40
4.0
 40
4.0
 40
4.0
 40
5.0
 40
5.0
 40
5.0
 40
6.0
 40
6.0
 40
6.0
 40
7.0
 40
7.0
 40
7.0
 40
7.0
 10
102.9894069838013
 20
-135.170732930617
 10
102.9894069838013
 20
-135.170732930617
 10
102.9894069838013
 20
-134.0664075728202
 10
102.9894069838013
 20
-134.0664075728202
 10
102.9894069838013
 20
-134.0664075728202
 10
102.6593668363143
 20
-134.0664075728202
 10
102.6593668363143
 20
-134.0664075728202
 10
102.6593668363143
 20
-134.0664075728202
 10
102.6593668363143
 20
-133.9184407217287
 10
102.6593668363143
 20
-133.9184407217287
 10
102.9914740410924
 20
-133.9036268111421
 10
103.0379828301433
 20
-133.7406737946898
 10
103.0676106513164
 20
-133.6264688793538
 10
103.0676106513164
 20
-133.6264688793538
 10
103.213682699891
 20
-133.6264688793538
 10
103.213682699891
 20
-133.6264688793538
 10
103.213682699891
 20
-133.6264688793538
 10
103.213682699891
 20
-135.170732930617
 10
103.213682699891
 20
-135.170732930617
 10
103.213682699891
 20
-135.170732930617
 10
102.9894069838013
 20
-135.170732930617
 10
102.9894069838013
 20
-135.170732930617
 97
        0
 97
        0
 75
     2
 76
     1
 98
        0
  0
ENDBLK
  5
CC
330
C9
100
AcDbEntity
  8
0
100
AcDbBlockEnd
  0
BLOCK
  5
E3
330
E1
100
AcDbEntity
  8
0
100
AcDbBlockBegin
  2
block 6
 70
     0
 10
0.0
 20
0.0
 30
0.0
  3
block 6
  1

  0
SPLINE
  5
E5
330
E1
100
AcDbEntity
  8
_U+30EC_U+30A4_U+30E4_U+30FC 1
370
     0
100
AcDbSpline
210
0.0
220
0.0
230
1.0
 70
    11
 71
     3
 72
    29
 73
    25
 74
     0
 42
0.0000000001
 43
0.0000000001
 12
1.0
 22
0.0
 32
0.0
 13
1.0
 23
0.0
 33
0.0
 40
0.0
 40
0.0
 40
0.0
 40
0.0
 40
1.0
 40
1.0
 40
1.0
 40
2.0
 40
2.0
 40
2.0
 40
3.0
 40
3.0
 40
3.0
 40
4.0
 40
4.0
 40
4.0
 40
5.0
 40
5.0
 40
5.0
 40
6.0
 40
6.0
 40
6.0
 40
7.0
 40
7.0
 40
7.0
 40
8.0
 40
8.0
 40
8.0
 40
8.0
 10
105.5456678338566
 20
-151.8897813205345
 30
0.0
 10
105.7551296393598
 20
-151.9979573187713
 30
0.0
 10
105.7740776645287
 20
-152.1712456216794
 30
0.0
 10
105.7740776645287
 20
-152.2876898490809
 30
0.0
 10
105.7740776645287
 20
-152.448575808242
 30
0.0
 10
105.7275688754778
 20
-152.5901692326858
 30
0.0
 10
105.5456678338566
 20
-152.6852538680787
 30
0.0
 10
105.35101993894
 20
-152.7889512421847
 30
0.0
 10
105.1143418791034
 20
-152.8082437769021
 30
0.0
 10
104.951388862651
 20
-152.8082437769021
 30
0.0
 10
104.8073838713676
 20
-152.8082437769021
 30
0.0
 10
104.5555473913958
 20
-152.7910182994759
 30
0.0
 10
104.3567653818969
 20
-152.6852538680787
 30
0.0
 10
104.1538492578157
 20
-152.5774223793904
 30
0.0
 10
104.130422608516
 20
-152.4165364202292
 30
0.0
 10
104.130422608516
 20
-152.2876898490809
 30
0.0
 10
104.130422608516
 20
-152.1288709472109
 30
0.0
 10
104.1748643402757
 20
-151.9852104654759
 30
0.0
 10
104.3567653818969
 20
-151.8897813205345
 30
0.0
 10
104.5493462195224
 20
-151.7905625705593
 30
0.0
 10
104.7777560501945
 20
-151.7671359212596
 30
0.0
 10
104.951388862651
 20
-151.7671359212596
 30
0.0
 10
105.122610108268
 20
-151.7671359212596
 30
0.0
 10
105.3530869962312
 20
-151.7884955132682
 30
0.0
 10
105.5456678338566
 20
-151.8897813205345
 30
0.0
  0
SPLINE
  5
E6
330
E1
100
AcDbEntity
  8
_U+30EC_U+30A4_U+30E4_U+30FC 1
370
     0
100
AcDbSpline
210
0.0
220
0.0
230
1.0
 70
    11
 71
     3
 72
    17
 73
    13
 74
     0
 42
0.0000000001
 43
0.0000000001
 12
1.0
 22
0.0
 32
0.0
 13
1.0
 23
0.0
 33
0.0
 40
0.0
 40
0.0
 40
0.0
 40
0.0
 40
1.0
 40
1.0
 40
1.0
 40
2.0
 40
2.0
 40
2.0
 40
3.0
 40
3.0
 40
3.0
 40
4.0
 40
4.0
 40
4.0
 40
4.0
 10
104.3230034461415
 20
-152.2876898490809
 30
0.0
 10
104.3230034461415
 20
-152.5374592717615
 30
0.0
 10
104.6065348045775
 20
-152.5839680608123
 30
0.0
 10
104.951388862651
 20
-152.5839680608123
 30
0.0
 10
105.2707492141337
 20
-152.5839680608123
 30
0.0
 10
105.5794297696121
 20
-152.5477945582172
 30
0.0
 10
105.5794297696121
 20
-152.2876898490809
 30
0.0
 10
105.5794297696121
 20
-152.0399874836914
 30
0.0
 10
105.2983099780157
 20
-151.9914116373494
 30
0.0
 10
104.951388862651
 20
-151.9914116373494
 30
0.0
 10
104.6316840016199
 20
-151.9914116373494
 30
0.0
 10
104.3230034461415
 20
-152.0296521972357
 30
0.0
 10
104.3230034461415
 20
-152.2876898490809
 30
0.0
  0
HATCH
  5
E7
330
E1
100
AcDbEntity
  8
_U+30EC_U+30A4_U+30E4_U+30FC 1
 62
     7
420
 16777215
100
AcDbHatch
 10
0.0
 20
0.0
 30
0.0
210
0.0
220
0.0
230
1.0
  2
SOLID
 70
     1
 71
     0
 91
        2
 92
        1
 93
        1
 72
     4
 94
        3
 73
     0
 74
     1
 95
       29
 96
       25
 40
0.0
 40
0.0
 40
0.0
 40
0.0
 40
1.0
 40
1.0
 40
1.0
 40
2.0
 40
2.0
 40
2.0
 40
3.0
 40
3.0
 40
3.0
 40
4.0
 40
4.0
 40
4.0
 40
5.0
 40
5.0
 40
5.0
 40
6.0
 40
6.0
 40
6.0
 40
7.0
 40
7.0
 40
7.0
 40
8.0
 40
8.0
 40
8.0
 40
8.0
 10
105.5456678338566
 20
-151.8897813205345
 10
105.7551296393598
 20
-151.9979573187713
 10
105.7740776645287
 20
-152.1712456216794
 10
105.7740776645287
 20
-152.2876898490809
 10
105.7740776645287
 20
-152.448575808242
 10
105.7275688754778
 20
-152.5901692326858
 10
105.5456678338566
 20
-152.6852538680787
 10
105.35101993894
 20
-152.7889512421847
 10
105.1143418791034
 20
-152.8082437769021
 10
104.951388862651
 20
-152.8082437769021
 10
104.8073838713676
 20
-152.8082437769021
 10
104.5555473913958
 20
-152.7910182994759
 10
104.3567653818969
 20
-152.6852538680787
 10
104.1538492578157
 20
-152.5774223793904
 10
104.130422608516
 20
-152.4165364202292
 10
104.130422608516
 20
-152.2876898490809
 10
104.130422608516
 20
-152.1288709472109
 10
104.1748643402757
 20
-151.9852104654759
 10
104.3567653818969
 20
-151.8897813205345
 10
104.5493462195224
 20
-151.7905625705593
 10
104.7777560501945
 20
-151.7671359212596
 10
104.951388862651
 20
-151.7671359212596
 10
105.122610108268
 20
-151.7671359212596
 10
105.3530869962312
 20
-151.7884955132682
 10
105.5456678338566
 20
-151.8897813205345
 97
        0
 97
        0
 92
        1
 93
        1
 72
     4
 94
        3
 73
     0
 74
     1
 95
       17
 96
       13
 40
0.0
 40
0.0
 40
0.0
 40
0.0
 40
1.0
 40
1.0
 40
1.0
 40
2.0
 40
2.0
 40
2.0
 40
3.0
 40
3.0
 40
3.0
 40
4.0
 40
4.0
 40
4.0
 40
4.0
 10
104.3230034461415
 20
-152.2876898490809
 10
104.3230034461415
 20
-152.5374592717615
 10
104.6065348045775
 20
-152.5839680608123
 10
104.951388862651
 20
-152.5839680608123
 10
105.2707492141337
 20
-152.5839680608123
 10
105.5794297696121
 20
-152.5477945582172
 10
105.5794297696121
 20
-152.2876898490809
 10
105.5794297696121
 20
-152.0399874836914
 10
105.2983099780157
 20
-151.9914116373494
 10
104.951388862651
 20
-151.9914116373494
 10
104.6316840016199
 20
-151.9914116373494
 10
104.3230034461415
 20
-152.0296521972357
 10
104.3230034461415
 20
-152.2876898490809
 97
        0
 97
        0
 75
     2
 76
     1
 98
        0
  0
POLYLINE
  5
E8
330
E1
100
AcDbEntity
  8
_U+30EC_U+30A4_U+30E4_U+30FC 1
370
     0
100
AcDb2dPolyline
 66
     1
 10
0.0
 20
0.0
 30
0.0
  0
VERTEX
  5
E9
330
E8
100
AcDbEntity
  8
_U+30EC_U+30A4_U+30E4_U+30FC 1
370
     0
100
AcDbVertex
100
AcDb2dVertex
 10
105.7234347608955
 20
-151.5507839247859
 30
0.0
  0
VERTEX
  5
EA
330
E8
100
AcDbEntity
  8
_U+30EC_U+30A4_U+30E4_U+30FC 1
370
     0
100
AcDbVertex
100
AcDb2dVertex
 10
105.4715982809238
 20
-151.5507839247859
 30
0.0
  0
VERTEX
  5
EB
330
E8
100
AcDbEntity
  8
_U+30EC_U+30A4_U+30E4_U+30FC 1
370
     0
100
AcDbVertex
100
AcDb2dVertex
 10
105.4715982809238
 20
-151.2989474448142
 30
0.0
  0
VERTEX
  5
EC
330
E8
100
AcDbEntity
  8
_U+30EC_U+30A4_U+30E4_U+30FC 1
370
     0
100
AcDbVertex
100
AcDb2dVertex
 10
105.7234347608955
 20
-151.2989474448142
 30
0.0
  0
VERTEX
  5
ED
330
E8
100
AcDbEntity
  8
_U+30EC_U+30A4_U+30E4_U+30FC 1
370
     0
100
AcDbVertex
100
AcDb2dVertex
 10
105.7234347608955
 20
-151.5507839247859
 30
0.0
  0
SEQEND
  5
EE
330
E8
100
AcDbEntity
  8
_U+30EC_U+30A4_U+30E4_U+30FC 1
370
     0
  0
HATCH
  5
EF
330
E1
100
AcDbEntity
  8
_U+30EC_U+30A4_U+30E4_U+30FC 1
 62
     7
420
 16777215
100
AcDbHatch
 10
0.0
 20
0.0
 30
0.0
210
0.0
220
0.0
230
1.0
  2
SOLID
 70
     1
 71
     0
 91
        1
 92
        1
 93
        4
 72
     1
 10
105.7234347608955
 20
-151.5507839247859
 11
105.4715982809238
 21
-151.5507839247859
 72
     1
 10
105.4715982809238
 20
-151.5507839247859
 11
105.4715982809238
 21
-151.2989474448142
 72
     1
 10
105.4715982809238
 20
-151.2989474448142
 11
105.7234347608955
 21
-151.2989474448142
 72
     1
 10
105.7234347608955
 20
-151.2989474448142
 11
105.7234347608955
 21
-151.5507839247859
 97
        0
 75
     2
 76
     1
 98
        0
  0
SPLINE
  5
F0
330
E1
100
AcDbEntity
  8
_U+30EC_U+30A4_U+30E4_U+30FC 1
370
     0
100
AcDbSpline
210
0.0
220
0.0
230
1.0
 70
    11
 71
     3
 72
    53
 73
    49
 74
     0
 42
0.0000000001
 43
0.0000000001
 12
1.0
 22
0.0
 32
0.0
 13
1.0
 23
0.0
 33
0.0
 40
0.0
 40
0.0
 40
0.0
 40
0.0
 40
1.0
 40
1.0
 40
1.0
 40
2.0
 40
2.0
 40
2.0
 40
3.0
 40
3.0
 40
3.0
 40
4.0
 40
4.0
 40
4.0
 40
5.0
 40
5.0
 40
5.0
 40
6.0
 40
6.0
 40
6.0
 40
7.0
 40
7.0
 40
7.0
 40
8.0
 40
8.0
 40
8.0
 40
9.0
 40
9.0
 40
9.0
 40
10.0
 40
10.0
 40
10.0
 40
11.0
 40
11.0
 40
11.0
 40
12.0
 40
12.0
 40
12.0
 40
13.0
 40
13.0
 40
13.0
 40
14.0
 40
14.0
 40
14.0
 40
15.0
 40
15.0
 40
15.0
 40
16.0
 40
16.0
 40
16.0
 40
16.0
 10
105.7740776645287
 20
-150.5816785647851
 30
0.0
 10
105.7740776645287
 20
-150.6598822323003
 30
0.0
 10
105.757196696651
 20
-150.7615125491152
 30
0.0
 10
105.6938069397224
 20
-150.8631428659301
 30
0.0
 10
105.5839083937429
 20
-151.0364311688381
 30
0.0
 10
105.4526502557549
 20
-151.0577907608467
 30
0.0
 10
105.3448187670666
 20
-151.0767387860155
 30
0.0
 10
105.3448187670666
 20
-151.0767387860155
 30
0.0
 10
105.3448187670666
 20
-150.8545301272169
 30
0.0
 10
105.3448187670666
 20
-150.8545301272169
 30
0.0
 10
105.5436007765655
 20
-150.7997531090014
 30
0.0
 10
105.5732285977386
 20
-150.6726290855957
 30
0.0
 10
105.5732285977386
 20
-150.579611507494
 30
0.0
 10
105.5732285977386
 20
-150.4400851403414
 30
0.0
 10
105.4736653382149
 20
-150.2878119198933
 30
0.0
 10
105.2411213929606
 20
-150.2878119198933
 30
0.0
 10
104.9851507984065
 20
-150.2878119198933
 30
0.0
 10
104.9152153600559
 20
-150.4676459042234
 30
0.0
 10
104.9152153600559
 20
-150.5882242462071
 30
0.0
 10
104.9152153600559
 20
-150.6199191246714
 30
0.0
 10
104.9152153600559
 20
-150.7615125491152
 30
0.0
 10
105.0444064407528
 20
-150.8503960126346
 30
0.0
 10
105.0444064407528
 20
-150.8503960126346
 30
0.0
 10
105.0254584155839
 20
-151.0260958823824
 30
0.0
 10
105.0254584155839
 20
-151.0260958823824
 30
0.0
 10
105.0254584155839
 20
-151.0260958823824
 30
0.0
 10
104.178998454858
 20
-150.9055175403986
 30
0.0
 10
104.178998454858
 20
-150.9055175403986
 30
0.0
 10
104.178998454858
 20
-150.9055175403986
 30
0.0
 10
104.178998454858
 20
-150.1269259607322
 30
0.0
 10
104.178998454858
 20
-150.1269259607322
 30
0.0
 10
104.178998454858
 20
-150.1269259607322
 30
0.0
 10
104.3736463497746
 20
-150.1269259607322
 30
0.0
 10
104.3736463497746
 20
-150.1269259607322
 30
0.0
 10
104.3736463497746
 20
-150.1269259607322
 30
0.0
 10
104.3736463497746
 20
-150.7425645239463
 30
0.0
 10
104.3736463497746
 20
-150.7425645239463
 30
0.0
 10
104.3736463497746
 20
-150.7425645239463
 30
0.0
 10
104.7967040753633
 20
-150.8080213381661
 30
0.0
 10
104.7967040753633
 20
-150.8080213381661
 30
0.0
 10
104.7629421396079
 20
-150.7466986385286
 30
0.0
 10
104.7226345224305
 20
-150.6643608564311
 30
0.0
 10
104.7226345224305
 20
-150.5458495717386
 30
0.0
 10
104.7226345224305
 20
-150.2919460344756
 30
0.0
 10
104.9090141881825
 20
-150.0549234650904
 30
0.0
 10
105.2221733677917
 20
-150.0549234650904
 30
0.0
 10
105.5394666619832
 20
-150.0549234650904
 30
0.0
 10
105.7740776645287
 20
-150.2791991811802
 30
0.0
 10
105.7740776645287
 20
-150.5816785647851
 30
0.0
  0
HATCH
  5
F1
330
E1
100
AcDbEntity
  8
_U+30EC_U+30A4_U+30E4_U+30FC 1
 62
     7
420
 16777215
100
AcDbHatch
 10
0.0
 20
0.0
 30
0.0
210
0.0
220
0.0
230
1.0
  2
SOLID
 70
     1
 71
     0
 91
        1
 92
        1
 93
        1
 72
     4
 94
        3
 73
     0
 74
     1
 95
       53
 96
       49
 40
0.0
 40
0.0
 40
0.0
 40
0.0
 40
1.0
 40
1.0
 40
1.0
 40
2.0
 40
2.0
 40
2.0
 40
3.0
 40
3.0
 40
3.0
 40
4.0
 40
4.0
 40
4.0
 40
5.0
 40
5.0
 40
5.0
 40
6.0
 40
6.0
 40
6.0
 40
7.0
 40
7.0
 40
7.0
 40
8.0
 40
8.0
 40
8.0
 40
9.0
 40
9.0
 40
9.0
 40
10.0
 40
10.0
 40
10.0
 40
11.0
 40
11.0
 40
11.0
 40
12.0
 40
12.0
 40
12.0
 40
13.0
 40
13.0
 40
13.0
 40
14.0
 40
14.0
 40
14.0
 40
15.0
 40
15.0
 40
15.0
 40
16.0
 40
16.0
 40
16.0
 40
16.0
 10
105.7740776645287
 20
-150.5816785647851
 10
105.7740776645287
 20
-150.6598822323003
 10
105.757196696651
 20
-150.7615125491152
 10
105.6938069397224
 20
-150.8631428659301
 10
105.5839083937429
 20
-151.0364311688381
 10
105.4526502557549
 20
-151.0577907608467
 10
105.3448187670666
 20
-151.0767387860155
 10
105.3448187670666
 20
-151.0767387860155
 10
105.3448187670666
 20
-150.8545301272169
 10
105.3448187670666
 20
-150.8545301272169
 10
105.5436007765655
 20
-150.7997531090014
 10
105.5732285977386
 20
-150.6726290855957
 10
105.5732285977386
 20
-150.579611507494
 10
105.5732285977386
 20
-150.4400851403414
 10
105.4736653382149
 20
-150.2878119198933
 10
105.2411213929606
 20
-150.2878119198933
 10
104.9851507984065
 20
-150.2878119198933
 10
104.9152153600559
 20
-150.4676459042234
 10
104.9152153600559
 20
-150.5882242462071
 10
104.9152153600559
 20
-150.6199191246714
 10
104.9152153600559
 20
-150.7615125491152
 10
105.0444064407528
 20
-150.8503960126346
 10
105.0444064407528
 20
-150.8503960126346
 10
105.0254584155839
 20
-151.0260958823824
 10
105.0254584155839
 20
-151.0260958823824
 10
105.0254584155839
 20
-151.0260958823824
 10
104.178998454858
 20
-150.9055175403986
 10
104.178998454858
 20
-150.9055175403986
 10
104.178998454858
 20
-150.9055175403986
 10
104.178998454858
 20
-150.1269259607322
 10
104.178998454858
 20
-150.1269259607322
 10
104.178998454858
 20
-150.1269259607322
 10
104.3736463497746
 20
-150.1269259607322
 10
104.3736463497746
 20
-150.1269259607322
 10
104.3736463497746
 20
-150.1269259607322
 10
104.3736463497746
 20
-150.7425645239463
 10
104.3736463497746
 20
-150.7425645239463
 10
104.3736463497746
 20
-150.7425645239463
 10
104.7967040753633
 20
-150.8080213381661
 10
104.7967040753633
 20
-150.8080213381661
 10
104.7629421396079
 20
-150.7466986385286
 10
104.7226345224305
 20
-150.6643608564311
 10
104.7226345224305
 20
-150.5458495717386
 10
104.7226345224305
 20
-150.2919460344756
 10
104.9090141881825
 20
-150.0549234650904
 10
105.2221733677917
 20
-150.0549234650904
 10
105.5394666619832
 20
-150.0549234650904
 10
105.7740776645287
 20
-150.2791991811802
 10
105.7740776645287
 20
-150.5816785647851
 97
        0
 97
        0
 75
     2
 76
     1
 98
        0
  0
ENDBLK
  5
E4
330
E1
100
AcDbEntity
  8
0
100
AcDbBlockEnd
  0
BLOCK
  5
FC
330
FA
100
AcDbEntity
  8
0
100
AcDbBlockBegin
  2
block 7
 70
     0
 10
0.0
 20
0.0
 30
0.0
  3
block 7
  1

  0
SPLINE
  5
FE
330
FA
100
AcDbEntity
  8
_U+30EC_U+30A4_U+30E4_U+30FC 1
370
     0
100
AcDbSpline
210
0.0
220
0.0
230
1.0
 70
    11
 71
     3
 72
    26
 73
    22
 74
     0
 42
0.0000000001
 43
0.0000000001
 12
1.0
 22
0.0
 32
0.0
 13
1.0
 23
0.0
 33
0.0
 40
0.0
 40
0.0
 40
0.0
 40
0.0
 40
1.0
 40
1.0
 40
1.0
 40
2.0
 40
2.0
 40
2.0
 40
3.0
 40
3.0
 40
3.0
 40
4.0
 40
4.0
 40
4.0
 40
5.0
 40
5.0
 40
5.0
 40
6.0
 40
6.0
 40
6.0
 40
7.0
 40
7.0
 40
7.0
 40
7.0
 10
120.7237250132219
 20
-148.6858425192522
 30
0.0
 10
120.7237250132219
 20
-148.6858425192522
 30
0.0
 10
119.6195719101993
 20
-148.6858425192522
 30
0.0
 10
119.6195719101993
 20
-148.6858425192522
 30
0.0
 10
119.6195719101993
 20
-148.6858425192522
 30
0.0
 10
119.6195719101993
 20
-149.0158826667391
 30
0.0
 10
119.6195719101993
 20
-149.0158826667391
 30
0.0
 10
119.6195719101993
 20
-149.0158826667391
 30
0.0
 10
119.4714328043335
 20
-149.0158826667391
 30
0.0
 10
119.4714328043335
 20
-149.0158826667391
 30
0.0
 10
119.456618893747
 20
-148.683775461961
 30
0.0
 10
119.2936658772946
 20
-148.6372666729101
 30
0.0
 10
119.1792887071844
 20
-148.607638851737
 30
0.0
 10
119.1792887071844
 20
-148.607638851737
 30
0.0
 10
119.1792887071844
 20
-148.4615668031624
 30
0.0
 10
119.1792887071844
 20
-148.4615668031624
 30
0.0
 10
119.1792887071844
 20
-148.4615668031624
 30
0.0
 10
120.7237250132219
 20
-148.4615668031624
 30
0.0
 10
120.7237250132219
 20
-148.4615668031624
 30
0.0
 10
120.7237250132219
 20
-148.4615668031624
 30
0.0
 10
120.7237250132219
 20
-148.6858425192522
 30
0.0
 10
120.7237250132219
 20
-148.6858425192522
 30
0.0
  0
HATCH
  5
FF
330
FA
100
AcDbEntity
  8
_U+30EC_U+30A4_U+30E4_U+30FC 1
 62
     7
420
 16777215
100
AcDbHatch
 10
0.0
 20
0.0
 30
0.0
210
0.0
220
0.0
230
1.0
  2
SOLID
 70
     1
 71
     0
 91
        1
 92
        1
 93
        1
 72
     4
 94
        3
 73
     0
 74
     1
 95
       26
 96
       22
 40
0.0
 40
0.0
 40
0.0
 40
0.0
 40
1.0
 40
1.0
 40
1.0
 40
2.0
 40
2.0
 40
2.0
 40
3.0
 40
3.0
 40
3.0
 40
4.0
 40
4.0
 40
4.0
 40
5.0
 40
5.0
 40
5.0
 40
6.0
 40
6.0
 40
6.0
 40
7.0
 40
7.0
 40
7.0
 40
7.0
 10
120.7237250132219
 20
-148.6858425192522
 10
120.7237250132219
 20
-148.6858425192522
 10
119.6195719101993
 20
-148.6858425192522
 10
119.6195719101993
 20
-148.6858425192522
 10
119.6195719101993
 20
-148.6858425192522
 10
119.6195719101993
 20
-149.0158826667391
 10
119.6195719101993
 20
-149.0158826667391
 10
119.6195719101993
 20
-149.0158826667391
 10
119.4714328043335
 20
-149.0158826667391
 10
119.4714328043335
 20
-149.0158826667391
 10
119.456618893747
 20
-148.683775461961
 10
119.2936658772946
 20
-148.6372666729101
 10
119.1792887071844
 20
-148.607638851737
 10
119.1792887071844
 20
-148.607638851737
 10
119.1792887071844
 20
-148.4615668031624
 10
119.1792887071844
 20
-148.4615668031624
 10
119.1792887071844
 20
-148.4615668031624
 10
120.7237250132219
 20
-148.4615668031624
 10
120.7237250132219
 20
-148.4615668031624
 10
120.7237250132219
 20
-148.4615668031624
 10
120.7237250132219
 20
-148.6858425192522
 10
120.7237250132219
 20
-148.6858425192522
 97
        0
 97
        0
 75
     2
 76
     1
 98
        0
  0
SPLINE
  5
100
330
FA
100
AcDbEntity
  8
_U+30EC_U+30A4_U+30E4_U+30FC 1
370
     0
100
AcDbSpline
210
0.0
220
0.0
230
1.0
 70
    11
 71
     3
 72
    62
 73
    58
 74
     0
 42
0.0000000001
 43
0.0000000001
 12
1.0
 22
0.0
 32
0.0
 13
1.0
 23
0.0
 33
0.0
 40
0.0
 40
0.0
 40
0.0
 40
0.0
 40
1.0
 40
1.0
 40
1.0
 40
2.0
 40
2.0
 40
2.0
 40
3.0
 40
3.0
 40
3.0
 40
4.0
 40
4.0
 40
4.0
 40
5.0
 40
5.0
 40
5.0
 40
6.0
 40
6.0
 40
6.0
 40
7.0
 40
7.0
 40
7.0
 40
8.0
 40
8.0
 40
8.0
 40
9.0
 40
9.0
 40
9.0
 40
10.0
 40
10.0
 40
10.0
 40
11.0
 40
11.0
 40
11.0
 40
12.0
 40
12.0
 40
12.0
 40
13.0
 40
13.0
 40
13.0
 40
14.0
 40
14.0
 40
14.0
 40
15.0
 40
15.0
 40
15.0
 40
16.0
 40
16.0
 40
16.0
 40
17.0
 40
17.0
 40
17.0
 40
18.0
 40
18.0
 40
18.0
 40
19.0
 40
19.0
 40
19.0
 40
19.0
 10
120.774367916855
 20
-147.4686902843134
 30
0.0
 10
120.774367916855
 20
-147.5641194292548
 30
0.0
 10
120.753352834395
 20
-147.7818494639226
 30
0.0
 10
120.5673176781915
 20
-147.9069064300372
 30
0.0
 10
120.4550075653724
 20
-147.9809759829701
 30
0.0
 10
120.3557888153972
 20
-147.9851100975523
 30
0.0
 10
120.27103946646
 20
-147.9892442121347
 30
0.0
 10
120.27103946646
 20
-147.9892442121347
 30
0.0
 10
120.27103946646
 20
-147.7691026106272
 30
0.0
 10
120.27103946646
 20
-147.7691026106272
 30
0.0
 10
120.3451090193929
 20
-147.767035553336
 30
0.0
 10
120.5797200219384
 20
-147.7567002668803
 30
0.0
 10
120.5797200219384
 20
-147.4731689084442
 30
0.0
 10
120.5797200219384
 20
-147.3357095985828
 30
0.0
 10
120.5101290931364
 20
-147.1830918685862
 30
0.0
 10
120.2817192624643
 20
-147.1830918685862
 30
0.0
 10
120.1652750350628
 20
-147.1830918685862
 30
0.0
 10
120.1166991887208
 20
-147.2213324284725
 30
0.0
 10
120.0850043102565
 20
-147.2530273069368
 30
0.0
 10
120.0109347573237
 20
-147.3270968598696
 30
0.0
 10
119.9981879040282
 20
-147.4435410872711
 30
0.0
 10
119.9981879040282
 20
-147.4983181054865
 30
0.0
 10
119.9981879040282
 20
-147.5176106402039
 30
0.0
 10
120.0002549613194
 20
-147.5534396332505
 30
0.0
 10
120.0043890759017
 20
-147.5810003971325
 30
0.0
 10
120.0043890759017
 20
-147.5810003971325
 30
0.0
 10
119.8097411809851
 20
-147.5810003971325
 30
0.0
 10
119.8097411809851
 20
-147.5810003971325
 30
0.0
 10
119.816286862407
 20
-147.5427598372463
 30
0.0
 10
119.8183539196982
 20
-147.5007296723262
 30
0.0
 10
119.8183539196982
 20
-147.4941839909042
 30
0.0
 10
119.8183539196982
 20
-147.4287271766845
 30
0.0
 10
119.7969943276896
 20
-147.2299451671856
 30
0.0
 10
119.560316267853
 20
-147.2299451671856
 30
0.0
 10
119.3825493408141
 20
-147.2299451671856
 30
0.0
 10
119.3274278130501
 20
-147.3608587956251
 30
0.0
 10
119.3274278130501
 20
-147.4711018511531
 30
0.0
 10
119.3274278130501
 20
-147.7353406748717
 30
0.0
 10
119.560316267853
 20
-147.7439534135848
 30
0.0
 10
119.6319742539462
 20
-147.7480875281672
 30
0.0
 10
119.6319742539462
 20
-147.7480875281672
 30
0.0
 10
119.6319742539462
 20
-147.9513481617969
 30
0.0
 10
119.6319742539462
 20
-147.9513481617969
 30
0.0
 10
119.5072617973801
 20
-147.9427354230838
 30
0.0
 10
119.1307128608423
 20
-147.9151746592018
 30
0.0
 10
119.1307128608423
 20
-147.4583549978576
 30
0.0
 10
119.1307128608423
 20
-147.2340792817679
 30
0.0
 10
119.2578368842481
 20
-146.9929225978004
 30
0.0
 10
119.553770586431
 20
-146.9929225978004
 30
0.0
 10
119.740150252183
 20
-146.9929225978004
 30
0.0
 10
119.8224880342805
 20
-147.0880072331933
 30
0.0
 10
119.8838107339179
 20
-147.187570492717
 30
0.0
 10
119.9113714977999
 20
-147.1262477930796
 30
0.0
 10
119.9916422226063
 20
-146.9443467514584
 30
0.0
 10
120.2689724091689
 20
-146.9443467514584
 30
0.0
 10
120.6072807858204
 20
-146.9443467514584
 30
0.0
 10
120.774367916855
 20
-147.1917046072993
 30
0.0
 10
120.774367916855
 20
-147.4686902843134
 30
0.0
  0
HATCH
  5
101
330
FA
100
AcDbEntity
  8
_U+30EC_U+30A4_U+30E4_U+30FC 1
 62
     7
420
 16777215
100
AcDbHatch
 10
0.0
 20
0.0
 30
0.0
210
0.0
220
0.0
230
1.0
  2
SOLID
 70
     1
 71
     0
 91
        1
 92
        1
 93
        1
 72
     4
 94
        3
 73
     0
 74
     1
 95
       62
 96
       58
 40
0.0
 40
0.0
 40
0.0
 40
0.0
 40
1.0
 40
1.0
 40
1.0
 40
2.0
 40
2.0
 40
2.0
 40
3.0
 40
3.0
 40
3.0
 40
4.0
 40
4.0
 40
4.0
 40
5.0
 40
5.0
 40
5.0
 40
6.0
 40
6.0
 40
6.0
 40
7.0
 40
7.0
 40
7.0
 40
8.0
 40
8.0
 40
8.0
 40
9.0
 40
9.0
 40
9.0
 40
10.0
 40
10.0
 40
10.0
 40
11.0
 40
11.0
 40
11.0
 40
12.0
 40
12.0
 40
12.0
 40
13.0
 40
13.0
 40
13.0
 40
14.0
 40
14.0
 40
14.0
 40
15.0
 40
15.0
 40
15.0
 40
16.0
 40
16.0
 40
16.0
 40
17.0
 40
17.0
 40
17.0
 40
18.0
 40
18.0
 40
18.0
 40
19.0
 40
19.0
 40
19.0
 40
19.0
 10
120.774367916855
 20
-147.4686902843134
 10
120.774367916855
 20
-147.5641194292548
 10
120.753352834395
 20
-147.7818494639226
 10
120.5673176781915
 20
-147.9069064300372
 10
120.4550075653724
 20
-147.9809759829701
 10
120.3557888153972
 20
-147.9851100975523
 10
120.27103946646
 20
-147.9892442121347
 10
120.27103946646
 20
-147.9892442121347
 10
120.27103946646
 20
-147.7691026106272
 10
120.27103946646
 20
-147.7691026106272
 10
120.3451090193929
 20
-147.767035553336
 10
120.5797200219384
 20
-147.7567002668803
 10
120.5797200219384
 20
-147.4731689084442
 10
120.5797200219384
 20
-147.3357095985828
 10
120.5101290931364
 20
-147.1830918685862
 10
120.2817192624643
 20
-147.1830918685862
 10
120.1652750350628
 20
-147.1830918685862
 10
120.1166991887208
 20
-147.2213324284725
 10
120.0850043102565
 20
-147.2530273069368
 10
120.0109347573237
 20
-147.3270968598696
 10
119.9981879040282
 20
-147.4435410872711
 10
119.9981879040282
 20
-147.4983181054865
 10
119.9981879040282
 20
-147.5176106402039
 10
120.0002549613194
 20
-147.5534396332505
 10
120.0043890759017
 20
-147.5810003971325
 10
120.0043890759017
 20
-147.5810003971325
 10
119.8097411809851
 20
-147.5810003971325
 10
119.8097411809851
 20
-147.5810003971325
 10
119.816286862407
 20
-147.5427598372463
 10
119.8183539196982
 20
-147.5007296723262
 10
119.8183539196982
 20
-147.4941839909042
 10
119.8183539196982
 20
-147.4287271766845
 10
119.7969943276896
 20
-147.2299451671856
 10
119.560316267853
 20
-147.2299451671856
 10
119.3825493408141
 20
-147.2299451671856
 10
119.3274278130501
 20
-147.3608587956251
 10
119.3274278130501
 20
-147.4711018511531
 10
119.3274278130501
 20
-147.7353406748717
 10
119.560316267853
 20
-147.7439534135848
 10
119.6319742539462
 20
-147.7480875281672
 10
119.6319742539462
 20
-147.7480875281672
 10
119.6319742539462
 20
-147.9513481617969
 10
119.6319742539462
 20
-147.9513481617969
 10
119.5072617973801
 20
-147.9427354230838
 10
119.1307128608423
 20
-147.9151746592018
 10
119.1307128608423
 20
-147.4583549978576
 10
119.1307128608423
 20
-147.2340792817679
 10
119.2578368842481
 20
-146.9929225978004
 10
119.553770586431
 20
-146.9929225978004
 10
119.740150252183
 20
-146.9929225978004
 10
119.8224880342805
 20
-147.0880072331933
 10
119.8838107339179
 20
-147.187570492717
 10
119.9113714977999
 20
-147.1262477930796
 10
119.9916422226063
 20
-146.9443467514584
 10
120.2689724091689
 20
-146.9443467514584
 10
120.6072807858204
 20
-146.9443467514584
 10
120.774367916855
 20
-147.1917046072993
 10
120.774367916855
 20
-147.4686902843134
 97
        0
 97
        0
 75
     2
 76
     1
 98
        0
  0
ENDBLK
  5
FD
330
FA
100
AcDbEntity
  8
0
100
AcDbBlockEnd
  0
BLOCK
  5
108
330
106
100
AcDbEntity
  8
0
100
AcDbBlockBegin
  2
block 8
 70
     0
 10
0.0
 20
0.0
 30
0.0
  3
block 8
  1

  0
SPLINE
  5
10A
330
106
100
AcDbEntity
  8
_U+30EC_U+30A4_U+30E4_U+30FC 1
370
     0
100
AcDbSpline
210
0.0
220
0.0
230
1.0
 70
    11
 71
     3
 72
    17
 73
    13
 74
     0
 42
0.0000000001
 43
0.0000000001
 12
1.0
 22
0.0
 32
0.0
 13
1.0
 23
0.0
 33
0.0
 40
0.0
 40
0.0
 40
0.0
 40
0.0
 40
1.0
 40
1.0
 40
1.0
 40
2.0
 40
2.0
 40
2.0
 40
3.0
 40
3.0
 40
3.0
 40
4.0
 40
4.0
 40
4.0
 40
4.0
 10
106.2712049430503
 20
-159.6064506979456
 30
0.0
 10
106.1654405116531
 20
-159.5006862665485
 30
0.0
 10
106.0848252772982
 20
-159.4627902162107
 30
0.0
 10
105.9918076991965
 20
-159.4310953377464
 30
0.0
 10
105.9918076991965
 20
-159.4310953377464
 30
0.0
 10
106.1020507547245
 20
-159.2660752640029
 30
0.0
 10
106.1020507547245
 20
-159.2660752640029
 30
0.0
 10
106.1992024474085
 20
-159.3084499384715
 30
0.0
 10
106.3197807893923
 20
-159.3866536059867
 30
0.0
 10
106.3728352598651
 20
-159.4414306242022
 30
0.0
 10
106.3728352598651
 20
-159.4414306242022
 30
0.0
 10
106.2712049430503
 20
-159.6064506979456
 30
0.0
 10
106.2712049430503
 20
-159.6064506979456
 30
0.0
  0
SPLINE
  5
10B
330
106
100
AcDbEntity
  8
_U+30EC_U+30A4_U+30E4_U+30FC 1
370
     0
100
AcDbSpline
210
0.0
220
0.0
230
1.0
 70
    11
 71
     3
 72
   182
 73
   178
 74
     0
 42
0.0000000001
 43
0.0000000001
 12
1.0
 22
0.0
 32
0.0
 13
1.0
 23
0.0
 33
0.0
 40
0.0
 40
0.0
 40
0.0
 40
0.0
 40
1.0
 40
1.0
 40
1.0
 40
2.0
 40
2.0
 40
2.0
 40
3.0
 40
3.0
 40
3.0
 40
4.0
 40
4.0
 40
4.0
 40
5.0
 40
5.0
 40
5.0
 40
6.0
 40
6.0
 40
6.0
 40
7.0
 40
7.0
 40
7.0
 40
8.0
 40
8.0
 40
8.0
 40
9.0
 40
9.0
 40
9.0
 40
10.0
 40
10.0
 40
10.0
 40
11.0
 40
11.0
 40
11.0
 40
12.0
 40
12.0
 40
12.0
 40
13.0
 40
13.0
 40
13.0
 40
14.0
 40
14.0
 40
14.0
 40
15.0
 40
15.0
 40
15.0
 40
16.0
 40
16.0
 40
16.0
 40
17.0
 40
17.0
 40
17.0
 40
18.0
 40
18.0
 40
18.0
 40
19.0
 40
19.0
 40
19.0
 40
20.0
 40
20.0
 40
20.0
 40
21.0
 40
21.0
 40
21.0
 40
22.0
 40
22.0
 40
22.0
 40
23.0
 40
23.0
 40
23.0
 40
24.0
 40
24.0
 40
24.0
 40
25.0
 40
25.0
 40
25.0
 40
26.0
 40
26.0
 40
26.0
 40
27.0
 40
27.0
 40
27.0
 40
28.0
 40
28.0
 40
28.0
 40
29.0
 40
29.0
 40
29.0
 40
30.0
 40
30.0
 40
30.0
 40
31.0
 40
31.0
 40
31.0
 40
32.0
 40
32.0
 40
32.0
 40
33.0
 40
33.0
 40
33.0
 40
34.0
 40
34.0
 40
34.0
 40
35.0
 40
35.0
 40
35.0
 40
36.0
 40
36.0
 40
36.0
 40
37.0
 40
37.0
 40
37.0
 40
38.0
 40
38.0
 40
38.0
 40
39.0
 40
39.0
 40
39.0
 40
40.0
 40
40.0
 40
40.0
 40
41.0
 40
41.0
 40
41.0
 40
42.0
 40
42.0
 40
42.0
 40
43.0
 40
43.0
 40
43.0
 40
44.0
 40
44.0
 40
44.0
 40
45.0
 40
45.0
 40
45.0
 40
46.0
 40
46.0
 40
46.0
 40
47.0
 40
47.0
 40
47.0
 40
48.0
 40
48.0
 40
48.0
 40
49.0
 40
49.0
 40
49.0
 40
50.0
 40
50.0
 40
50.0
 40
51.0
 40
51.0
 40
51.0
 40
52.0
 40
52.0
 40
52.0
 40
53.0
 40
53.0
 40
53.0
 40
54.0
 40
54.0
 40
54.0
 40
55.0
 40
55.0
 40
55.0
 40
56.0
 40
56.0
 40
56.0
 40
57.0
 40
57.0
 40
57.0
 40
58.0
 40
58.0
 40
58.0
 40
59.0
 40
59.0
 40
59.0
 40
59.0
 10
107.3161024037265
 20
-160.7850178634496
 30
0.0
 10
107.3161024037265
 20
-160.7850178634496
 30
0.0
 10
106.6794487580524
 20
-160.7850178634496
 30
0.0
 10
106.6794487580524
 20
-160.7850178634496
 30
0.0
 10
106.4658528379669
 20
-160.7850178634496
 30
0.0
 10
106.2498453510417
 20
-160.7891519780319
 30
0.0
 10
106.0362494309562
 20
-160.8018988313273
 30
0.0
 10
106.0362494309562
 20
-160.8018988313273
 30
0.0
 10
106.0362494309562
 20
-160.5945040831153
 30
0.0
 10
106.0362494309562
 20
-160.5945040831153
 30
0.0
 10
106.2584580897548
 20
-160.6072509364107
 30
0.0
 10
106.5819525558198
 20
-160.611385050993
 30
0.0
 10
106.6794487580524
 20
-160.611385050993
 30
0.0
 10
106.6794487580524
 20
-160.611385050993
 30
0.0
 10
106.8995903595598
 20
-160.611385050993
 30
0.0
 10
106.8995903595598
 20
-160.611385050993
 30
0.0
 10
106.8995903595598
 20
-160.611385050993
 30
0.0
 10
106.8995903595598
 20
-160.4697916265492
 30
0.0
 10
106.8995903595598
 20
-160.4697916265492
 30
0.0
 10
106.8995903595598
 20
-160.4697916265492
 30
0.0
 10
106.7387044003987
 20
-160.4697916265492
 30
0.0
 10
106.7387044003987
 20
-160.4697916265492
 30
0.0
 10
106.5736843266552
 20
-160.4697916265492
 30
0.0
 10
106.4086642529117
 20
-160.4739257411315
 30
0.0
 10
106.2436441791683
 20
-160.4887396517181
 30
0.0
 10
106.2436441791683
 20
-160.4887396517181
 30
0.0
 10
106.2436441791683
 20
-160.2792778462149
 30
0.0
 10
106.2436441791683
 20
-160.2792778462149
 30
0.0
 10
106.4148654247852
 20
-160.2940917568015
 30
0.0
 10
106.6625677901746
 20
-160.2982258713838
 30
0.0
 10
106.7387044003987
 20
-160.2982258713838
 30
0.0
 10
106.7387044003987
 20
-160.2982258713838
 30
0.0
 10
106.8995903595598
 20
-160.2982258713838
 30
0.0
 10
106.8995903595598
 20
-160.2982258713838
 30
0.0
 10
106.895111735429
 20
-160.2265678852906
 30
0.0
 10
106.895111735429
 20
-160.2200222038686
 30
0.0
 10
106.8889105635556
 20
-160.1673122429443
 30
0.0
 10
106.8889105635556
 20
-160.1673122429443
 30
0.0
 10
107.0284369307082
 20
-160.1821261535309
 30
0.0
 10
107.0284369307082
 20
-160.1821261535309
 30
0.0
 10
107.0284369307082
 20
-160.1821261535309
 30
0.0
 10
106.929218180733
 20
-160.0105603983654
 30
0.0
 10
106.929218180733
 20
-160.0105603983654
 30
0.0
 10
106.9757269697838
 20
-160.0171060797874
 30
0.0
 10
107.0497965227167
 20
-160.025374308952
 30
0.0
 10
107.0666774905944
 20
-160.025374308952
 30
0.0
 10
107.1173203942276
 20
-160.025374308952
 30
0.0
 10
107.1342013621053
 20
-160.004359226492
 30
0.0
 10
107.1342013621053
 20
-159.9471706414368
 30
0.0
 10
107.1342013621053
 20
-159.9471706414368
 30
0.0
 10
107.1342013621053
 20
-159.8097113315754
 30
0.0
 10
107.1342013621053
 20
-159.8097113315754
 30
0.0
 10
107.1342013621053
 20
-159.8097113315754
 30
0.0
 10
107.0284369307082
 20
-159.8097113315754
 30
0.0
 10
107.0284369307082
 20
-159.8097113315754
 30
0.0
 10
106.895111735429
 20
-159.8097113315754
 30
0.0
 10
106.7387044003987
 20
-159.8097113315754
 30
0.0
 10
106.6160590011238
 20
-159.8224581848708
 30
0.0
 10
106.6160590011238
 20
-159.8224581848708
 30
0.0
 10
106.6160590011238
 20
-159.6319444045365
 30
0.0
 10
106.6160590011238
 20
-159.6319444045365
 30
0.0
 10
106.7831461321584
 20
-159.6488253724142
 30
0.0
 10
107.0136230201216
 20
-159.6508924297054
 30
0.0
 10
107.0284369307082
 20
-159.6508924297054
 30
0.0
 10
107.0284369307082
 20
-159.6508924297054
 30
0.0
 10
107.1342013621053
 20
-159.6508924297054
 30
0.0
 10
107.1342013621053
 20
-159.6508924297054
 30
0.0
 10
107.1342013621053
 20
-159.6508924297054
 30
0.0
 10
107.1342013621053
 20
-159.5199788012658
 30
0.0
 10
107.1342013621053
 20
-159.5199788012658
 30
0.0
 10
107.1342013621053
 20
-159.5199788012658
 30
0.0
 10
107.0963053117676
 20
-159.5199788012658
 30
0.0
 10
107.0963053117676
 20
-159.5199788012658
 30
0.0
 10
107.0518635800079
 20
-159.5199788012658
 30
0.0
 10
106.9268066138933
 20
-159.5241129158481
 30
0.0
 10
106.8379231503739
 20
-159.5323811450127
 30
0.0
 10
106.8379231503739
 20
-159.5323811450127
 30
0.0
 10
106.8379231503739
 20
-159.4521104202064
 30
0.0
 10
106.8379231503739
 20
-159.4521104202064
 30
0.0
 10
106.7852131894495
 20
-159.4903509800927
 30
0.0
 10
106.7597194828587
 20
-159.5051648906793
 30
0.0
 10
106.7173448083901
 20
-159.5282470304304
 30
0.0
 10
106.7173448083901
 20
-159.5282470304304
 30
0.0
 10
106.5292425948955
 20
-159.3994004592821
 30
0.0
 10
106.5292425948955
 20
-159.3994004592821
 30
0.0
 10
106.6074462624106
 20
-159.3652940139781
 30
0.0
 10
106.7641981069895
 20
-159.3019042570495
 30
0.0
 10
106.9206054420198
 20
-159.1582437753146
 30
0.0
 10
107.0029432241173
 20
-159.0796955982509
 30
0.0
 10
107.081491401181
 20
-158.9952907588623
 30
0.0
 10
107.1342013621053
 20
-158.8936604420474
 30
0.0
 10
107.1342013621053
 20
-158.8936604420474
 30
0.0
 10
107.3457302248997
 20
-158.9549831416849
 30
0.0
 10
107.3457302248997
 20
-158.9549831416849
 30
0.0
 10
107.3650227596171
 20
-158.9611843135583
 30
0.0
 10
107.3753580460728
 20
-158.9697970522714
 30
0.0
 10
107.3753580460728
 20
-158.9825439055669
 30
0.0
 10
107.3753580460728
 20
-158.9994248734446
 30
0.0
 10
107.3626111927774
 20
-159.0056260453181
 30
0.0
 10
107.3374619957351
 20
-159.0183728986135
 30
0.0
 10
107.4177327205414
 20
-159.115869100846
 30
0.0
 10
107.5806857369937
 20
-159.2130207935301
 30
0.0
 10
107.6144476727492
 20
-159.231968818699
 30
0.0
 10
107.7646538359061
 20
-159.3208522822184
 30
0.0
 10
107.8790310060164
 20
-159.3484130461004
 30
0.0
 10
107.9572346735315
 20
-159.3673610712693
 30
0.0
 10
107.9572346735315
 20
-159.3673610712693
 30
0.0
 10
107.8387233888389
 20
-159.5368597691436
 30
0.0
 10
107.8387233888389
 20
-159.5368597691436
 30
0.0
 10
107.7539740399018
 20
-159.5072319479704
 30
0.0
 10
107.7033311362686
 20
-159.4882839228015
 30
0.0
 10
107.584819851576
 20
-159.4224825990333
 30
0.0
 10
107.584819851576
 20
-159.4224825990333
 30
0.0
 10
107.584819851576
 20
-159.5323811450127
 30
0.0
 10
107.584819851576
 20
-159.5323811450127
 30
0.0
 10
107.5024820694785
 20
-159.5241129158481
 30
0.0
 10
107.3753580460728
 20
-159.5199788012658
 30
0.0
 10
107.3226480851485
 20
-159.5199788012658
 30
0.0
 10
107.3226480851485
 20
-159.5199788012658
 30
0.0
 10
107.3226480851485
 20
-159.6508924297054
 30
0.0
 10
107.3226480851485
 20
-159.6508924297054
 30
0.0
 10
107.3226480851485
 20
-159.6508924297054
 30
0.0
 10
107.4432264271323
 20
-159.6508924297054
 30
0.0
 10
107.4432264271323
 20
-159.6508924297054
 30
0.0
 10
107.4452934844234
 20
-159.6508924297054
 30
0.0
 10
107.6778374296778
 20
-159.6488253724142
 30
0.0
 10
107.8556043567167
 20
-159.6319444045365
 30
0.0
 10
107.8556043567167
 20
-159.6319444045365
 30
0.0
 10
107.8556043567167
 20
-159.8224581848708
 30
0.0
 10
107.8556043567167
 20
-159.8224581848708
 30
0.0
 10
107.7267577855683
 20
-159.8097113315754
 30
0.0
 10
107.5700059409894
 20
-159.8097113315754
 30
0.0
 10
107.4432264271323
 20
-159.8097113315754
 30
0.0
 10
107.4432264271323
 20
-159.8097113315754
 30
0.0
 10
107.3226480851485
 20
-159.8097113315754
 30
0.0
 10
107.3226480851485
 20
-159.8097113315754
 30
0.0
 10
107.3226480851485
 20
-159.8097113315754
 30
0.0
 10
107.3226480851485
 20
-160.0360541049563
 30
0.0
 10
107.3226480851485
 20
-160.0360541049563
 30
0.0
 10
107.3226480851485
 20
-160.1545653896489
 30
0.0
 10
107.2971543785577
 20
-160.1903943826955
 30
0.0
 10
107.1362684193965
 20
-160.205208293282
 30
0.0
 10
107.1407470435273
 20
-160.2241563184509
 30
0.0
 10
107.1342013621053
 20
-160.2348361144552
 30
0.0
 10
107.0963053117676
 20
-160.2582627637549
 30
0.0
 10
107.0942382544765
 20
-160.2772107889238
 30
0.0
 10
107.0942382544765
 20
-160.2834119607972
 30
0.0
 10
107.0918266876368
 20
-160.2982258713838
 30
0.0
 10
107.0918266876368
 20
-160.2982258713838
 30
0.0
 10
107.2292859974982
 20
-160.2982258713838
 30
0.0
 10
107.2292859974982
 20
-160.2982258713838
 30
0.0
 10
107.3943060712417
 20
-160.2982258713838
 30
0.0
 10
107.5617377118248
 20
-160.2940917568015
 30
0.0
 10
107.7288248428595
 20
-160.2792778462149
 30
0.0
 10
107.7288248428595
 20
-160.2792778462149
 30
0.0
 10
107.7288248428595
 20
-160.4866725944269
 30
0.0
 10
107.7288248428595
 20
-160.4866725944269
 30
0.0
 10
107.5128173559343
 20
-160.4697916265492
 30
0.0
 10
107.2485785322156
 20
-160.4697916265492
 30
0.0
 10
107.2292859974982
 20
-160.4697916265492
 30
0.0
 10
107.2292859974982
 20
-160.4697916265492
 30
0.0
 10
107.0897596303456
 20
-160.4697916265492
 30
0.0
 10
107.0897596303456
 20
-160.4697916265492
 30
0.0
 10
107.0897596303456
 20
-160.4697916265492
 30
0.0
 10
107.0897596303456
 20
-160.611385050993
 30
0.0
 10
107.0897596303456
 20
-160.611385050993
 30
0.0
 10
107.0897596303456
 20
-160.611385050993
 30
0.0
 10
107.3161024037265
 20
-160.611385050993
 30
0.0
 10
107.3161024037265
 20
-160.611385050993
 30
0.0
 10
107.5321098906517
 20
-160.611385050993
 30
0.0
 10
107.7498399253195
 20
-160.6072509364107
 30
0.0
 10
107.9655029026961
 20
-160.5945040831153
 30
0.0
 10
107.9655029026961
 20
-160.5945040831153
 30
0.0
 10
107.9655029026961
 20
-160.8018988313273
 30
0.0
 10
107.9655029026961
 20
-160.8018988313273
 30
0.0
 10
107.6843831110997
 20
-160.7850178634496
 30
0.0
 10
107.3395290530262
 20
-160.7850178634496
 30
0.0
 10
107.3161024037265
 20
-160.7850178634496
 30
0.0
  0
SPLINE
  5
10C
330
106
100
AcDbEntity
  8
_U+30EC_U+30A4_U+30E4_U+30FC 1
370
     0
100
AcDbSpline
210
0.0
220
0.0
230
1.0
 70
    11
 71
     3
 72
    23
 73
    19
 74
     0
 42
0.0000000001
 43
0.0000000001
 12
1.0
 22
0.0
 32
0.0
 13
1.0
 23
0.0
 33
0.0
 40
0.0
 40
0.0
 40
0.0
 40
0.0
 40
1.0
 40
1.0
 40
1.0
 40
2.0
 40
2.0
 40
2.0
 40
3.0
 40
3.0
 40
3.0
 40
4.0
 40
4.0
 40
4.0
 40
5.0
 40
5.0
 40
5.0
 40
6.0
 40
6.0
 40
6.0
 40
6.0
 10
106.1971353901174
 20
-160.15663244694
 30
0.0
 10
106.1971353901174
 20
-160.1776475294
 30
0.0
 10
106.1992024474085
 20
-160.2158880892863
 30
0.0
 10
106.1737087408177
 20
-160.2158880892863
 30
0.0
 10
106.1633734543619
 20
-160.2158880892863
 30
0.0
 10
106.1547607156488
 20
-160.2093424078643
 30
0.0
 10
106.1440809196445
 20
-160.1924614399866
 30
0.0
 10
106.1440809196445
 20
-160.1924614399866
 30
0.0
 10
106.0403835455385
 20
-160.0105603983654
 30
0.0
 10
106.0403835455385
 20
-160.0105603983654
 30
0.0
 10
106.2563910324637
 20
-159.8817138272171
 30
0.0
 10
106.4531059846715
 20
-159.6043836406545
 30
0.0
 10
106.4996147737223
 20
-159.5323811450127
 30
0.0
 10
106.4996147737223
 20
-159.5323811450127
 30
0.0
 10
106.571617269364
 20
-159.7122151293428
 30
0.0
 10
106.571617269364
 20
-159.7122151293428
 30
0.0
 10
106.4382920740849
 20
-159.9089300815506
 30
0.0
 10
106.2625922043371
 20
-160.0932426900114
 30
0.0
 10
106.1971353901174
 20
-160.15663244694
 30
0.0
  0
SPLINE
  5
10D
330
106
100
AcDbEntity
  8
_U+30EC_U+30A4_U+30E4_U+30FC 1
370
     0
100
AcDbSpline
210
0.0
220
0.0
230
1.0
 70
    11
 71
     3
 72
    17
 73
    13
 74
     0
 42
0.0000000001
 43
0.0000000001
 12
1.0
 22
0.0
 32
0.0
 13
1.0
 23
0.0
 33
0.0
 40
0.0
 40
0.0
 40
0.0
 40
0.0
 40
1.0
 40
1.0
 40
1.0
 40
2.0
 40
2.0
 40
2.0
 40
3.0
 40
3.0
 40
3.0
 40
4.0
 40
4.0
 40
4.0
 40
4.0
 10
106.4510389273803
 20
-159.2615966398721
 30
0.0
 10
106.3897162277429
 20
-159.1854600296481
 30
0.0
 10
106.260525147046
 20
-159.1093234194241
 30
0.0
 10
106.15682777294
 20
-159.0796955982509
 30
0.0
 10
106.15682777294
 20
-159.0796955982509
 30
0.0
 10
106.2522569178814
 20
-158.9146755245075
 30
0.0
 10
106.2522569178814
 20
-158.9146755245075
 30
0.0
 10
106.3535427251477
 20
-158.9508490271026
 30
0.0
 10
106.4593071565449
 20
-159.0080376121577
 30
0.0
 10
106.5481906200643
 20
-159.088308336964
 30
0.0
 10
106.5481906200643
 20
-159.088308336964
 30
0.0
 10
106.4510389273803
 20
-159.2615966398721
 30
0.0
 10
106.4510389273803
 20
-159.2615966398721
 30
0.0
  0
SPLINE
  5
10E
330
106
100
AcDbEntity
  8
_U+30EC_U+30A4_U+30E4_U+30FC 1
370
     0
100
AcDbSpline
210
0.0
220
0.0
230
1.0
 70
    11
 71
     3
 72
    23
 73
    19
 74
     0
 42
0.0000000001
 43
0.0000000001
 12
1.0
 22
0.0
 32
0.0
 13
1.0
 23
0.0
 33
0.0
 40
0.0
 40
0.0
 40
0.0
 40
0.0
 40
1.0
 40
1.0
 40
1.0
 40
2.0
 40
2.0
 40
2.0
 40
3.0
 40
3.0
 40
3.0
 40
4.0
 40
4.0
 40
4.0
 40
5.0
 40
5.0
 40
5.0
 40
6.0
 40
6.0
 40
6.0
 40
6.0
 10
106.9037244741421
 20
-159.9661186666057
 30
0.0
 10
106.8823648821336
 20
-159.9895453159054
 30
0.0
 10
106.7852131894495
 20
-160.101510919176
 30
0.0
 10
106.6456868222969
 20
-160.1821261535309
 30
0.0
 10
106.6456868222969
 20
-160.1821261535309
 30
0.0
 10
106.4785996912623
 20
-160.0615478115471
 30
0.0
 10
106.4785996912623
 20
-160.0615478115471
 30
0.0
 10
106.6288058544192
 20
-159.9854112013231
 30
0.0
 10
106.7280246043944
 20
-159.8899820563817
 30
0.0
 10
106.7766004507364
 20
-159.8372720954574
 30
0.0
 10
106.7766004507364
 20
-159.8372720954574
 30
0.0
 10
106.950233263193
 20
-159.9196098775548
 30
0.0
 10
106.950233263193
 20
-159.9196098775548
 30
0.0
 10
106.9585014923576
 20
-159.9237439921371
 30
0.0
 10
106.9671142310707
 20
-159.9302896735591
 30
0.0
 10
106.9671142310707
 20
-159.9409694695634
 30
0.0
 10
106.9671142310707
 20
-159.9661186666057
 30
0.0
 10
106.9312852380241
 20
-159.9661186666057
 30
0.0
 10
106.9037244741421
 20
-159.9661186666057
 30
0.0
  0
SPLINE
  5
10F
330
106
100
AcDbEntity
  8
_U+30EC_U+30A4_U+30E4_U+30FC 1
370
     0
100
AcDbSpline
210
0.0
220
0.0
230
1.0
 70
    11
 71
     3
 72
    20
 73
    16
 74
     0
 42
0.0000000001
 43
0.0000000001
 12
1.0
 22
0.0
 32
0.0
 13
1.0
 23
0.0
 33
0.0
 40
0.0
 40
0.0
 40
0.0
 40
0.0
 40
1.0
 40
1.0
 40
1.0
 40
2.0
 40
2.0
 40
2.0
 40
3.0
 40
3.0
 40
3.0
 40
4.0
 40
4.0
 40
4.0
 40
5.0
 40
5.0
 40
5.0
 40
5.0
 10
107.2020697431648
 20
-159.1241373300106
 30
0.0
 10
107.1638291832785
 20
-159.1730576859012
 30
0.0
 10
107.1025064836411
 20
-159.2512613534164
 30
0.0
 10
106.9629801164884
 20
-159.3611598993958
 30
0.0
 10
107.0432508412947
 20
-159.3652940139781
 30
0.0
 10
107.0728786624679
 20
-159.3652940139781
 30
0.0
 10
107.0963053117676
 20
-159.3652940139781
 30
0.0
 10
107.0963053117676
 20
-159.3652940139781
 30
0.0
 10
107.3247151424397
 20
-159.3652940139781
 30
0.0
 10
107.3247151424397
 20
-159.3652940139781
 30
0.0
 10
107.356410020904
 20
-159.3652940139781
 30
0.0
 10
107.404985867246
 20
-159.363226956687
 30
0.0
 10
107.4790554201789
 20
-159.3611598993958
 30
0.0
 10
107.3670898169082
 20
-159.2870903464629
 30
0.0
 10
107.3181694610177
 20
-159.2405815574121
 30
0.0
 10
107.2020697431648
 20
-159.1241373300106
 30
0.0
  0
SPLINE
  5
110
330
106
100
AcDbEntity
  8
_U+30EC_U+30A4_U+30E4_U+30FC 1
370
     0
100
AcDbSpline
210
0.0
220
0.0
230
1.0
 70
    11
 71
     3
 72
    17
 73
    13
 74
     0
 42
0.0000000001
 43
0.0000000001
 12
1.0
 22
0.0
 32
0.0
 13
1.0
 23
0.0
 33
0.0
 40
0.0
 40
0.0
 40
0.0
 40
0.0
 40
1.0
 40
1.0
 40
1.0
 40
2.0
 40
2.0
 40
2.0
 40
3.0
 40
3.0
 40
3.0
 40
4.0
 40
4.0
 40
4.0
 40
4.0
 10
107.7625867786149
 20
-160.1797145866912
 30
0.0
 10
107.6271945260446
 20
-160.0677489834206
 30
0.0
 10
107.5214300946474
 20
-160.004359226492
 30
0.0
 10
107.4029188099548
 20
-159.9409694695634
 30
0.0
 10
107.4029188099548
 20
-159.9409694695634
 30
0.0
 10
107.529698323812
 20
-159.8286593567442
 30
0.0
 10
107.529698323812
 20
-159.8286593567442
 30
0.0
 10
107.6609564618
 20
-159.8751681457951
 30
0.0
 10
107.7708550077795
 20
-159.9323567308502
 30
0.0
 10
107.8959119738941
 20
-160.0339870476651
 30
0.0
 10
107.8959119738941
 20
-160.0339870476651
 30
0.0
 10
107.7625867786149
 20
-160.1797145866912
 30
0.0
 10
107.7625867786149
 20
-160.1797145866912
 30
0.0
  0
HATCH
  5
111
330
106
100
AcDbEntity
  8
_U+30EC_U+30A4_U+30E4_U+30FC 1
 62
     7
420
 16777215
100
AcDbHatch
 10
0.0
 20
0.0
 30
0.0
210
0.0
220
0.0
230
1.0
  2
SOLID
 70
     1
 71
     0
 91
        7
 92
        1
 93
        1
 72
     4
 94
        3
 73
     0
 74
     1
 95
       17
 96
       13
 40
0.0
 40
0.0
 40
0.0
 40
0.0
 40
1.0
 40
1.0
 40
1.0
 40
2.0
 40
2.0
 40
2.0
 40
3.0
 40
3.0
 40
3.0
 40
4.0
 40
4.0
 40
4.0
 40
4.0
 10
106.2712049430503
 20
-159.6064506979456
 10
106.1654405116531
 20
-159.5006862665485
 10
106.0848252772982
 20
-159.4627902162107
 10
105.9918076991965
 20
-159.4310953377464
 10
105.9918076991965
 20
-159.4310953377464
 10
106.1020507547245
 20
-159.2660752640029
 10
106.1020507547245
 20
-159.2660752640029
 10
106.1992024474085
 20
-159.3084499384715
 10
106.3197807893923
 20
-159.3866536059867
 10
106.3728352598651
 20
-159.4414306242022
 10
106.3728352598651
 20
-159.4414306242022
 10
106.2712049430503
 20
-159.6064506979456
 10
106.2712049430503
 20
-159.6064506979456
 97
        0
 97
        0
 92
        1
 93
        1
 72
     4
 94
        3
 73
     0
 74
     1
 95
      182
 96
      178
 40
0.0
 40
0.0
 40
0.0
 40
0.0
 40
1.0
 40
1.0
 40
1.0
 40
2.0
 40
2.0
 40
2.0
 40
3.0
 40
3.0
 40
3.0
 40
4.0
 40
4.0
 40
4.0
 40
5.0
 40
5.0
 40
5.0
 40
6.0
 40
6.0
 40
6.0
 40
7.0
 40
7.0
 40
7.0
 40
8.0
 40
8.0
 40
8.0
 40
9.0
 40
9.0
 40
9.0
 40
10.0
 40
10.0
 40
10.0
 40
11.0
 40
11.0
 40
11.0
 40
12.0
 40
12.0
 40
12.0
 40
13.0
 40
13.0
 40
13.0
 40
14.0
 40
14.0
 40
14.0
 40
15.0
 40
15.0
 40
15.0
 40
16.0
 40
16.0
 40
16.0
 40
17.0
 40
17.0
 40
17.0
 40
18.0
 40
18.0
 40
18.0
 40
19.0
 40
19.0
 40
19.0
 40
20.0
 40
20.0
 40
20.0
 40
21.0
 40
21.0
 40
21.0
 40
22.0
 40
22.0
 40
22.0
 40
23.0
 40
23.0
 40
23.0
 40
24.0
 40
24.0
 40
24.0
 40
25.0
 40
25.0
 40
25.0
 40
26.0
 40
26.0
 40
26.0
 40
27.0
 40
27.0
 40
27.0
 40
28.0
 40
28.0
 40
28.0
 40
29.0
 40
29.0
 40
29.0
 40
30.0
 40
30.0
 40
30.0
 40
31.0
 40
31.0
 40
31.0
 40
32.0
 40
32.0
 40
32.0
 40
33.0
 40
33.0
 40
33.0
 40
34.0
 40
34.0
 40
34.0
 40
35.0
 40
35.0
 40
35.0
 40
36.0
 40
36.0
 40
36.0
 40
37.0
 40
37.0
 40
37.0
 40
38.0
 40
38.0
 40
38.0
 40
39.0
 40
39.0
 40
39.0
 40
40.0
 40
40.0
 40
40.0
 40
41.0
 40
41.0
 40
41.0
 40
42.0
 40
42.0
 40
42.0
 40
43.0
 40
43.0
 40
43.0
 40
44.0
 40
44.0
 40
44.0
 40
45.0
 40
45.0
 40
45.0
 40
46.0
 40
46.0
 40
46.0
 40
47.0
 40
47.0
 40
47.0
 40
48.0
 40
48.0
 40
48.0
 40
49.0
 40
49.0
 40
49.0
 40
50.0
 40
50.0
 40
50.0
 40
51.0
 40
51.0
 40
51.0
 40
52.0
 40
52.0
 40
52.0
 40
53.0
 40
53.0
 40
53.0
 40
54.0
 40
54.0
 40
54.0
 40
55.0
 40
55.0
 40
55.0
 40
56.0
 40
56.0
 40
56.0
 40
57.0
 40
57.0
 40
57.0
 40
58.0
 40
58.0
 40
58.0
 40
59.0
 40
59.0
 40
59.0
 40
59.0
 10
107.3161024037265
 20
-160.7850178634496
 10
107.3161024037265
 20
-160.7850178634496
 10
106.6794487580524
 20
-160.7850178634496
 10
106.6794487580524
 20
-160.7850178634496
 10
106.4658528379669
 20
-160.7850178634496
 10
106.2498453510417
 20
-160.7891519780319
 10
106.0362494309562
 20
-160.8018988313273
 10
106.0362494309562
 20
-160.8018988313273
 10
106.0362494309562
 20
-160.5945040831153
 10
106.0362494309562
 20
-160.5945040831153
 10
106.2584580897548
 20
-160.6072509364107
 10
106.5819525558198
 20
-160.611385050993
 10
106.6794487580524
 20
-160.611385050993
 10
106.6794487580524
 20
-160.611385050993
 10
106.8995903595598
 20
-160.611385050993
 10
106.8995903595598
 20
-160.611385050993
 10
106.8995903595598
 20
-160.611385050993
 10
106.8995903595598
 20
-160.4697916265492
 10
106.8995903595598
 20
-160.4697916265492
 10
106.8995903595598
 20
-160.4697916265492
 10
106.7387044003987
 20
-160.4697916265492
 10
106.7387044003987
 20
-160.4697916265492
 10
106.5736843266552
 20
-160.4697916265492
 10
106.4086642529117
 20
-160.4739257411315
 10
106.2436441791683
 20
-160.4887396517181
 10
106.2436441791683
 20
-160.4887396517181
 10
106.2436441791683
 20
-160.2792778462149
 10
106.2436441791683
 20
-160.2792778462149
 10
106.4148654247852
 20
-160.2940917568015
 10
106.6625677901746
 20
-160.2982258713838
 10
106.7387044003987
 20
-160.2982258713838
 10
106.7387044003987
 20
-160.2982258713838
 10
106.8995903595598
 20
-160.2982258713838
 10
106.8995903595598
 20
-160.2982258713838
 10
106.895111735429
 20
-160.2265678852906
 10
106.895111735429
 20
-160.2200222038686
 10
106.8889105635556
 20
-160.1673122429443
 10
106.8889105635556
 20
-160.1673122429443
 10
107.0284369307082
 20
-160.1821261535309
 10
107.0284369307082
 20
-160.1821261535309
 10
107.0284369307082
 20
-160.1821261535309
 10
106.929218180733
 20
-160.0105603983654
 10
106.929218180733
 20
-160.0105603983654
 10
106.9757269697838
 20
-160.0171060797874
 10
107.0497965227167
 20
-160.025374308952
 10
107.0666774905944
 20
-160.025374308952
 10
107.1173203942276
 20
-160.025374308952
 10
107.1342013621053
 20
-160.004359226492
 10
107.1342013621053
 20
-159.9471706414368
 10
107.1342013621053
 20
-159.9471706414368
 10
107.1342013621053
 20
-159.8097113315754
 10
107.1342013621053
 20
-159.8097113315754
 10
107.1342013621053
 20
-159.8097113315754
 10
107.0284369307082
 20
-159.8097113315754
 10
107.0284369307082
 20
-159.8097113315754
 10
106.895111735429
 20
-159.8097113315754
 10
106.7387044003987
 20
-159.8097113315754
 10
106.6160590011238
 20
-159.8224581848708
 10
106.6160590011238
 20
-159.8224581848708
 10
106.6160590011238
 20
-159.6319444045365
 10
106.6160590011238
 20
-159.6319444045365
 10
106.7831461321584
 20
-159.6488253724142
 10
107.0136230201216
 20
-159.6508924297054
 10
107.0284369307082
 20
-159.6508924297054
 10
107.0284369307082
 20
-159.6508924297054
 10
107.1342013621053
 20
-159.6508924297054
 10
107.1342013621053
 20
-159.6508924297054
 10
107.1342013621053
 20
-159.6508924297054
 10
107.1342013621053
 20
-159.5199788012658
 10
107.1342013621053
 20
-159.5199788012658
 10
107.1342013621053
 20
-159.5199788012658
 10
107.0963053117676
 20
-159.5199788012658
 10
107.0963053117676
 20
-159.5199788012658
 10
107.0518635800079
 20
-159.5199788012658
 10
106.9268066138933
 20
-159.5241129158481
 10
106.8379231503739
 20
-159.5323811450127
 10
106.8379231503739
 20
-159.5323811450127
 10
106.8379231503739
 20
-159.4521104202064
 10
106.8379231503739
 20
-159.4521104202064
 10
106.7852131894495
 20
-159.4903509800927
 10
106.7597194828587
 20
-159.5051648906793
 10
106.7173448083901
 20
-159.5282470304304
 10
106.7173448083901
 20
-159.5282470304304
 10
106.5292425948955
 20
-159.3994004592821
 10
106.5292425948955
 20
-159.3994004592821
 10
106.6074462624106
 20
-159.3652940139781
 10
106.7641981069895
 20
-159.3019042570495
 10
106.9206054420198
 20
-159.1582437753146
 10
107.0029432241173
 20
-159.0796955982509
 10
107.081491401181
 20
-158.9952907588623
 10
107.1342013621053
 20
-158.8936604420474
 10
107.1342013621053
 20
-158.8936604420474
 10
107.3457302248997
 20
-158.9549831416849
 10
107.3457302248997
 20
-158.9549831416849
 10
107.3650227596171
 20
-158.9611843135583
 10
107.3753580460728
 20
-158.9697970522714
 10
107.3753580460728
 20
-158.9825439055669
 10
107.3753580460728
 20
-158.9994248734446
 10
107.3626111927774
 20
-159.0056260453181
 10
107.3374619957351
 20
-159.0183728986135
 10
107.4177327205414
 20
-159.115869100846
 10
107.5806857369937
 20
-159.2130207935301
 10
107.6144476727492
 20
-159.231968818699
 10
107.7646538359061
 20
-159.3208522822184
 10
107.8790310060164
 20
-159.3484130461004
 10
107.9572346735315
 20
-159.3673610712693
 10
107.9572346735315
 20
-159.3673610712693
 10
107.8387233888389
 20
-159.5368597691436
 10
107.8387233888389
 20
-159.5368597691436
 10
107.7539740399018
 20
-159.5072319479704
 10
107.7033311362686
 20
-159.4882839228015
 10
107.584819851576
 20
-159.4224825990333
 10
107.584819851576
 20
-159.4224825990333
 10
107.584819851576
 20
-159.5323811450127
 10
107.584819851576
 20
-159.5323811450127
 10
107.5024820694785
 20
-159.5241129158481
 10
107.3753580460728
 20
-159.5199788012658
 10
107.3226480851485
 20
-159.5199788012658
 10
107.3226480851485
 20
-159.5199788012658
 10
107.3226480851485
 20
-159.6508924297054
 10
107.3226480851485
 20
-159.6508924297054
 10
107.3226480851485
 20
-159.6508924297054
 10
107.4432264271323
 20
-159.6508924297054
 10
107.4432264271323
 20
-159.6508924297054
 10
107.4452934844234
 20
-159.6508924297054
 10
107.6778374296778
 20
-159.6488253724142
 10
107.8556043567167
 20
-159.6319444045365
 10
107.8556043567167
 20
-159.6319444045365
 10
107.8556043567167
 20
-159.8224581848708
 10
107.8556043567167
 20
-159.8224581848708
 10
107.7267577855683
 20
-159.8097113315754
 10
107.5700059409894
 20
-159.8097113315754
 10
107.4432264271323
 20
-159.8097113315754
 10
107.4432264271323
 20
-159.8097113315754
 10
107.3226480851485
 20
-159.8097113315754
 10
107.3226480851485
 20
-159.8097113315754
 10
107.3226480851485
 20
-159.8097113315754
 10
107.3226480851485
 20
-160.0360541049563
 10
107.3226480851485
 20
-160.0360541049563
 10
107.3226480851485
 20
-160.1545653896489
 10
107.2971543785577
 20
-160.1903943826955
 10
107.1362684193965
 20
-160.205208293282
 10
107.1407470435273
 20
-160.2241563184509
 10
107.1342013621053
 20
-160.2348361144552
 10
107.0963053117676
 20
-160.2582627637549
 10
107.0942382544765
 20
-160.2772107889238
 10
107.0942382544765
 20
-160.2834119607972
 10
107.0918266876368
 20
-160.2982258713838
 10
107.0918266876368
 20
-160.2982258713838
 10
107.2292859974982
 20
-160.2982258713838
 10
107.2292859974982
 20
-160.2982258713838
 10
107.3943060712417
 20
-160.2982258713838
 10
107.5617377118248
 20
-160.2940917568015
 10
107.7288248428595
 20
-160.2792778462149
 10
107.7288248428595
 20
-160.2792778462149
 10
107.7288248428595
 20
-160.4866725944269
 10
107.7288248428595
 20
-160.4866725944269
 10
107.5128173559343
 20
-160.4697916265492
 10
107.2485785322156
 20
-160.4697916265492
 10
107.2292859974982
 20
-160.4697916265492
 10
107.2292859974982
 20
-160.4697916265492
 10
107.0897596303456
 20
-160.4697916265492
 10
107.0897596303456
 20
-160.4697916265492
 10
107.0897596303456
 20
-160.4697916265492
 10
107.0897596303456
 20
-160.611385050993
 10
107.0897596303456
 20
-160.611385050993
 10
107.0897596303456
 20
-160.611385050993
 10
107.3161024037265
 20
-160.611385050993
 10
107.3161024037265
 20
-160.611385050993
 10
107.5321098906517
 20
-160.611385050993
 10
107.7498399253195
 20
-160.6072509364107
 10
107.9655029026961
 20
-160.5945040831153
 10
107.9655029026961
 20
-160.5945040831153
 10
107.9655029026961
 20
-160.8018988313273
 10
107.9655029026961
 20
-160.8018988313273
 10
107.6843831110997
 20
-160.7850178634496
 10
107.3395290530262
 20
-160.7850178634496
 10
107.3161024037265
 20
-160.7850178634496
 97
        0
 97
        0
 92
        1
 93
        1
 72
     4
 94
        3
 73
     0
 74
     1
 95
       23
 96
       19
 40
0.0
 40
0.0
 40
0.0
 40
0.0
 40
1.0
 40
1.0
 40
1.0
 40
2.0
 40
2.0
 40
2.0
 40
3.0
 40
3.0
 40
3.0
 40
4.0
 40
4.0
 40
4.0
 40
5.0
 40
5.0
 40
5.0
 40
6.0
 40
6.0
 40
6.0
 40
6.0
 10
106.1971353901174
 20
-160.15663244694
 10
106.1971353901174
 20
-160.1776475294
 10
106.1992024474085
 20
-160.2158880892863
 10
106.1737087408177
 20
-160.2158880892863
 10
106.1633734543619
 20
-160.2158880892863
 10
106.1547607156488
 20
-160.2093424078643
 10
106.1440809196445
 20
-160.1924614399866
 10
106.1440809196445
 20
-160.1924614399866
 10
106.0403835455385
 20
-160.0105603983654
 10
106.0403835455385
 20
-160.0105603983654
 10
106.2563910324637
 20
-159.8817138272171
 10
106.4531059846715
 20
-159.6043836406545
 10
106.4996147737223
 20
-159.5323811450127
 10
106.4996147737223
 20
-159.5323811450127
 10
106.571617269364
 20
-159.7122151293428
 10
106.571617269364
 20
-159.7122151293428
 10
106.4382920740849
 20
-159.9089300815506
 10
106.2625922043371
 20
-160.0932426900114
 10
106.1971353901174
 20
-160.15663244694
 97
        0
 97
        0
 92
        1
 93
        1
 72
     4
 94
        3
 73
     0
 74
     1
 95
       17
 96
       13
 40
0.0
 40
0.0
 40
0.0
 40
0.0
 40
1.0
 40
1.0
 40
1.0
 40
2.0
 40
2.0
 40
2.0
 40
3.0
 40
3.0
 40
3.0
 40
4.0
 40
4.0
 40
4.0
 40
4.0
 10
106.4510389273803
 20
-159.2615966398721
 10
106.3897162277429
 20
-159.1854600296481
 10
106.260525147046
 20
-159.1093234194241
 10
106.15682777294
 20
-159.0796955982509
 10
106.15682777294
 20
-159.0796955982509
 10
106.2522569178814
 20
-158.9146755245075
 10
106.2522569178814
 20
-158.9146755245075
 10
106.3535427251477
 20
-158.9508490271026
 10
106.4593071565449
 20
-159.0080376121577
 10
106.5481906200643
 20
-159.088308336964
 10
106.5481906200643
 20
-159.088308336964
 10
106.4510389273803
 20
-159.2615966398721
 10
106.4510389273803
 20
-159.2615966398721
 97
        0
 97
        0
 92
        1
 93
        1
 72
     4
 94
        3
 73
     0
 74
     1
 95
       23
 96
       19
 40
0.0
 40
0.0
 40
0.0
 40
0.0
 40
1.0
 40
1.0
 40
1.0
 40
2.0
 40
2.0
 40
2.0
 40
3.0
 40
3.0
 40
3.0
 40
4.0
 40
4.0
 40
4.0
 40
5.0
 40
5.0
 40
5.0
 40
6.0
 40
6.0
 40
6.0
 40
6.0
 10
106.9037244741421
 20
-159.9661186666057
 10
106.8823648821336
 20
-159.9895453159054
 10
106.7852131894495
 20
-160.101510919176
 10
106.6456868222969
 20
-160.1821261535309
 10
106.6456868222969
 20
-160.1821261535309
 10
106.4785996912623
 20
-160.0615478115471
 10
106.4785996912623
 20
-160.0615478115471
 10
106.6288058544192
 20
-159.9854112013231
 10
106.7280246043944
 20
-159.8899820563817
 10
106.7766004507364
 20
-159.8372720954574
 10
106.7766004507364
 20
-159.8372720954574
 10
106.950233263193
 20
-159.9196098775548
 10
106.950233263193
 20
-159.9196098775548
 10
106.9585014923576
 20
-159.9237439921371
 10
106.9671142310707
 20
-159.9302896735591
 10
106.9671142310707
 20
-159.9409694695634
 10
106.9671142310707
 20
-159.9661186666057
 10
106.9312852380241
 20
-159.9661186666057
 10
106.9037244741421
 20
-159.9661186666057
 97
        0
 97
        0
 92
        1
 93
        1
 72
     4
 94
        3
 73
     0
 74
     1
 95
       20
 96
       16
 40
0.0
 40
0.0
 40
0.0
 40
0.0
 40
1.0
 40
1.0
 40
1.0
 40
2.0
 40
2.0
 40
2.0
 40
3.0
 40
3.0
 40
3.0
 40
4.0
 40
4.0
 40
4.0
 40
5.0
 40
5.0
 40
5.0
 40
5.0
 10
107.2020697431648
 20
-159.1241373300106
 10
107.1638291832785
 20
-159.1730576859012
 10
107.1025064836411
 20
-159.2512613534164
 10
106.9629801164884
 20
-159.3611598993958
 10
107.0432508412947
 20
-159.3652940139781
 10
107.0728786624679
 20
-159.3652940139781
 10
107.0963053117676
 20
-159.3652940139781
 10
107.0963053117676
 20
-159.3652940139781
 10
107.3247151424397
 20
-159.3652940139781
 10
107.3247151424397
 20
-159.3652940139781
 10
107.356410020904
 20
-159.3652940139781
 10
107.404985867246
 20
-159.363226956687
 10
107.4790554201789
 20
-159.3611598993958
 10
107.3670898169082
 20
-159.2870903464629
 10
107.3181694610177
 20
-159.2405815574121
 10
107.2020697431648
 20
-159.1241373300106
 97
        0
 97
        0
 92
        1
 93
        1
 72
     4
 94
        3
 73
     0
 74
     1
 95
       17
 96
       13
 40
0.0
 40
0.0
 40
0.0
 40
0.0
 40
1.0
 40
1.0
 40
1.0
 40
2.0
 40
2.0
 40
2.0
 40
3.0
 40
3.0
 40
3.0
 40
4.0
 40
4.0
 40
4.0
 40
4.0
 10
107.7625867786149
 20
-160.1797145866912
 10
107.6271945260446
 20
-160.0677489834206
 10
107.5214300946474
 20
-160.004359226492
 10
107.4029188099548
 20
-159.9409694695634
 10
107.4029188099548
 20
-159.9409694695634
 10
107.529698323812
 20
-159.8286593567442
 10
107.529698323812
 20
-159.8286593567442
 10
107.6609564618
 20
-159.8751681457951
 10
107.7708550077795
 20
-159.9323567308502
 10
107.8959119738941
 20
-160.0339870476651
 10
107.8959119738941
 20
-160.0339870476651
 10
107.7625867786149
 20
-160.1797145866912
 10
107.7625867786149
 20
-160.1797145866912
 97
        0
 97
        0
 75
     2
 76
     1
 98
        0
  0
SPLINE
  5
112
330
106
100
AcDbEntity
  8
_U+30EC_U+30A4_U+30E4_U+30FC 1
370
     0
100
AcDbSpline
210
0.0
220
0.0
230
1.0
 70
    11
 71
     3
 72
   113
 73
   109
 74
     0
 42
0.0000000001
 43
0.0000000001
 12
1.0
 22
0.0
 32
0.0
 13
1.0
 23
0.0
 33
0.0
 40
0.0
 40
0.0
 40
0.0
 40
0.0
 40
1.0
 40
1.0
 40
1.0
 40
2.0
 40
2.0
 40
2.0
 40
3.0
 40
3.0
 40
3.0
 40
4.0
 40
4.0
 40
4.0
 40
5.0
 40
5.0
 40
5.0
 40
6.0
 40
6.0
 40
6.0
 40
7.0
 40
7.0
 40
7.0
 40
8.0
 40
8.0
 40
8.0
 40
9.0
 40
9.0
 40
9.0
 40
10.0
 40
10.0
 40
10.0
 40
11.0
 40
11.0
 40
11.0
 40
12.0
 40
12.0
 40
12.0
 40
13.0
 40
13.0
 40
13.0
 40
14.0
 40
14.0
 40
14.0
 40
15.0
 40
15.0
 40
15.0
 40
16.0
 40
16.0
 40
16.0
 40
17.0
 40
17.0
 40
17.0
 40
18.0
 40
18.0
 40
18.0
 40
19.0
 40
19.0
 40
19.0
 40
20.0
 40
20.0
 40
20.0
 40
21.0
 40
21.0
 40
21.0
 40
22.0
 40
22.0
 40
22.0
 40
23.0
 40
23.0
 40
23.0
 40
24.0
 40
24.0
 40
24.0
 40
25.0
 40
25.0
 40
25.0
 40
26.0
 40
26.0
 40
26.0
 40
27.0
 40
27.0
 40
27.0
 40
28.0
 40
28.0
 40
28.0
 40
29.0
 40
29.0
 40
29.0
 40
30.0
 40
30.0
 40
30.0
 40
31.0
 40
31.0
 40
31.0
 40
32.0
 40
32.0
 40
32.0
 40
33.0
 40
33.0
 40
33.0
 40
34.0
 40
34.0
 40
34.0
 40
35.0
 40
35.0
 40
35.0
 40
36.0
 40
36.0
 40
36.0
 40
36.0
 10
109.6422308753672
 20
-160.15663244694
 30
0.0
 10
109.6422308753672
 20
-160.15663244694
 30
0.0
 10
109.741794134891
 20
-160.2561957064637
 30
0.0
 10
109.741794134891
 20
-160.2561957064637
 30
0.0
 10
109.7524739308952
 20
-160.2665309929195
 30
0.0
 10
109.762809217351
 20
-160.2792778462149
 30
0.0
 10
109.762809217351
 20
-160.2940917568015
 30
0.0
 10
109.762809217351
 20
-160.2961588140926
 30
0.0
 10
109.762809217351
 20
-160.3257866352658
 30
0.0
 10
109.7249131670132
 20
-160.3257866352658
 30
0.0
 10
109.7163004283001
 20
-160.3257866352658
 30
0.0
 10
109.6759928111227
 20
-160.3216525206835
 30
0.0
 10
109.6697916392492
 20
-160.3216525206835
 30
0.0
 10
109.6294840220718
 20
-160.3533473991478
 30
0.0
 10
109.5829752330209
 20
-160.3871093349032
 30
0.0
 10
109.4837564830457
 20
-160.4442979199584
 30
0.0
 10
109.6294840220718
 20
-160.5521294086467
 30
0.0
 10
109.7883029239418
 20
-160.6093179937018
 30
0.0
 10
110.0611544863736
 20
-160.6475585535881
 30
0.0
 10
110.0611544863736
 20
-160.6475585535881
 30
0.0
 10
109.9109483232167
 20
-160.8229139137873
 30
0.0
 10
109.9109483232167
 20
-160.8229139137873
 30
0.0
 10
109.6487765567892
 20
-160.7509114181456
 30
0.0
 10
109.4920247122103
 20
-160.6623724641747
 30
0.0
 10
109.4158881019863
 20
-160.6093179937018
 30
0.0
 10
109.2656819388294
 20
-160.507687676887
 30
0.0
 10
109.1220214570945
 20
-160.3447346604347
 30
0.0
 10
109.0458848468705
 20
-160.1797145866912
 30
0.0
 10
108.9780164658111
 20
-160.2455159104595
 30
0.0
 10
108.9039469128782
 20
-160.2982258713838
 30
0.0
 10
108.825743245363
 20
-160.3471462272743
 30
0.0
 10
108.825743245363
 20
-160.3471462272743
 30
0.0
 10
108.825743245363
 20
-160.5986381976976
 30
0.0
 10
108.825743245363
 20
-160.5986381976976
 30
0.0
 10
108.9886962618153
 20
-160.5734890006553
 30
0.0
 10
109.1747314180188
 20
-160.5290472688955
 30
0.0
 10
109.2381211749474
 20
-160.514233358309
 30
0.0
 10
109.2381211749474
 20
-160.514233358309
 30
0.0
 10
109.2084933537743
 20
-160.6833875466347
 30
0.0
 10
109.2084933537743
 20
-160.6833875466347
 30
0.0
 10
109.2064262964831
 20
-160.6833875466347
 30
0.0
 10
109.1874782713142
 20
-160.6895887185082
 30
0.0
 10
109.1854112140231
 20
-160.6895887185082
 30
0.0
 10
108.9866292045242
 20
-160.7278292783944
 30
0.0
 10
108.6693359103327
 20
-160.7932860926142
 30
0.0
 10
108.4722764485764
 20
-160.8294595952093
 30
0.0
 10
108.4619411621206
 20
-160.846340563087
 30
0.0
 10
108.4385145128209
 20
-160.8780354415513
 30
0.0
 10
108.4154323730698
 20
-160.8780354415513
 30
0.0
 10
108.3878716091878
 20
-160.8780354415513
 30
0.0
 10
108.3837374946055
 20
-160.8590874163825
 30
0.0
 10
108.3813259277658
 20
-160.8397948816651
 30
0.0
 10
108.3813259277658
 20
-160.8397948816651
 30
0.0
 10
108.3561767307235
 20
-160.666506578757
 30
0.0
 10
108.3561767307235
 20
-160.666506578757
 30
0.0
 10
108.4302462836563
 20
-160.6578938400439
 30
0.0
 10
108.5380777723446
 20
-160.6451469867484
 30
0.0
 10
108.645909261033
 20
-160.6241319042884
 30
0.0
 10
108.645909261033
 20
-160.6241319042884
 30
0.0
 10
108.645909261033
 20
-160.4463649772495
 30
0.0
 10
108.645909261033
 20
-160.4463649772495
 30
0.0
 10
108.5019042697495
 20
-160.5183674728912
 30
0.0
 10
108.4068196343566
 20
-160.5479952940644
 30
0.0
 10
108.2417995606132
 20
-160.5776231152375
 30
0.0
 10
108.2417995606132
 20
-160.5776231152375
 30
0.0
 10
108.1212212186294
 20
-160.4084689269118
 30
0.0
 10
108.1212212186294
 20
-160.4084689269118
 30
0.0
 10
108.4385145128209
 20
-160.3809081630298
 30
0.0
 10
108.6310953504464
 20
-160.287890584928
 30
0.0
 10
108.8088622774853
 20
-160.1545653896489
 30
0.0
 10
108.6627902289107
 20
-160.1545653896489
 30
0.0
 10
108.3623779025969
 20
-160.1586995042312
 30
0.0
 10
108.1656629503891
 20
-160.1652451856531
 30
0.0
 10
108.1656629503891
 20
-160.1652451856531
 30
0.0
 10
108.1656629503891
 20
-159.9874782586143
 30
0.0
 10
108.1656629503891
 20
-159.9874782586143
 30
0.0
 10
108.3200032281283
 20
-159.9936794304877
 30
0.0
 10
108.6162814398598
 20
-160.0002251119097
 30
0.0
 10
108.8002495387722
 20
-160.0002251119097
 30
0.0
 10
108.8002495387722
 20
-160.0002251119097
 30
0.0
 10
109.0117784015665
 20
-160.0002251119097
 30
0.0
 10
109.0117784015665
 20
-160.0002251119097
 30
0.0
 10
109.0117784015665
 20
-159.9047959669683
 30
0.0
 10
109.0097113442754
 20
-159.8541530633351
 30
0.0
 10
109.0035101724019
 20
-159.8076442742842
 30
0.0
 10
109.0035101724019
 20
-159.8076442742842
 30
0.0
 10
109.2191731497785
 20
-159.8245252421619
 30
0.0
 10
109.2191731497785
 20
-159.8245252421619
 30
0.0
 10
109.2677489961206
 20
-159.8286593567442
 30
0.0
 10
109.2763617348337
 20
-159.8434732673308
 30
0.0
 10
109.2763617348337
 20
-159.8582871779174
 30
0.0
 10
109.2763617348337
 20
-159.8837808845082
 30
0.0
 10
109.259480766956
 20
-159.8920491136728
 30
0.0
 10
109.2084933537743
 20
-159.9175428202637
 30
0.0
 10
109.2064262964831
 20
-159.9430365268545
 30
0.0
 10
109.2064262964831
 20
-159.949237698728
 30
0.0
 10
109.204359239192
 20
-160.0002251119097
 30
0.0
 10
109.204359239192
 20
-160.0002251119097
 30
0.0
 10
109.4348361271552
 20
-160.0002251119097
 30
0.0
 10
109.4348361271552
 20
-160.0002251119097
 30
0.0
 10
109.5998562008987
 20
-160.0002251119097
 30
0.0
 10
109.8920002980478
 20
-159.9936794304877
 30
0.0
 10
110.0718342823779
 20
-159.9874782586143
 30
0.0
 10
110.0718342823779
 20
-159.9874782586143
 30
0.0
 10
110.0718342823779
 20
-160.1652451856531
 30
0.0
 10
110.0718342823779
 20
-160.1652451856531
 30
0.0
 10
109.942643201681
 20
-160.1607665615223
 30
0.0
 10
109.9195610619298
 20
-160.1607665615223
 30
0.0
 10
109.6422308753672
 20
-160.15663244694
 30
0.0
  0
SPLINE
  5
113
330
106
100
AcDbEntity
  8
_U+30EC_U+30A4_U+30E4_U+30FC 1
370
     0
100
AcDbSpline
210
0.0
220
0.0
230
1.0
 70
    11
 71
     3
 72
    23
 73
    19
 74
     0
 42
0.0000000001
 43
0.0000000001
 12
1.0
 22
0.0
 32
0.0
 13
1.0
 23
0.0
 33
0.0
 40
0.0
 40
0.0
 40
0.0
 40
0.0
 40
1.0
 40
1.0
 40
1.0
 40
2.0
 40
2.0
 40
2.0
 40
3.0
 40
3.0
 40
3.0
 40
4.0
 40
4.0
 40
4.0
 40
5.0
 40
5.0
 40
5.0
 40
6.0
 40
6.0
 40
6.0
 40
6.0
 10
108.3582437880146
 20
-159.805577216993
 30
0.0
 10
108.3413628201369
 20
-159.845540324622
 30
0.0
 10
108.3348171387149
 20
-159.8624212924997
 30
0.0
 10
108.3138020562549
 20
-159.8624212924997
 30
0.0
 10
108.2989881456683
 20
-159.8624212924997
 30
0.0
 10
108.288308349664
 20
-159.845540324622
 30
0.0
 10
108.2821071777906
 20
-159.8327934713265
 30
0.0
 10
108.2821071777906
 20
-159.8327934713265
 30
0.0
 10
108.1825439182669
 20
-159.6677733975831
 30
0.0
 10
108.1825439182669
 20
-159.6677733975831
 30
0.0
 10
108.2841742350817
 20
-159.6360785191188
 30
0.0
 10
108.4343803982386
 20
-159.5813015009033
 30
0.0
 10
108.6331624077375
 20
-159.418348484451
 30
0.0
 10
108.6331624077375
 20
-159.418348484451
 30
0.0
 10
108.6903509927927
 20
-159.5916367873591
 30
0.0
 10
108.6903509927927
 20
-159.5916367873591
 30
0.0
 10
108.597333414691
 20
-159.674319079005
 30
0.0
 10
108.5084499511715
 20
-159.7315076640602
 30
0.0
 10
108.3582437880146
 20
-159.805577216993
 30
0.0
  0
SPLINE
  5
114
330
106
100
AcDbEntity
  8
_U+30EC_U+30A4_U+30E4_U+30FC 1
370
     0
100
AcDbSpline
210
0.0
220
0.0
230
1.0
 70
    11
 71
     3
 72
    17
 73
    13
 74
     0
 42
0.0000000001
 43
0.0000000001
 12
1.0
 22
0.0
 32
0.0
 13
1.0
 23
0.0
 33
0.0
 40
0.0
 40
0.0
 40
0.0
 40
0.0
 40
1.0
 40
1.0
 40
1.0
 40
2.0
 40
2.0
 40
2.0
 40
3.0
 40
3.0
 40
3.0
 40
4.0
 40
4.0
 40
4.0
 40
4.0
 10
108.5105170084627
 20
-159.3401448169358
 30
0.0
 10
108.4808891872895
 20
-159.2998371997584
 30
0.0
 10
108.4130208062301
 20
-159.2026855070743
 30
0.0
 10
108.2311197646089
 20
-159.0924424515463
 30
0.0
 10
108.2311197646089
 20
-159.0924424515463
 30
0.0
 10
108.3582437880146
 20
-158.9591172562672
 30
0.0
 10
108.3582437880146
 20
-158.9591172562672
 30
0.0
 10
108.5442789442181
 20
-159.060747573082
 30
0.0
 10
108.6014675292733
 20
-159.1496310366015
 30
0.0
 10
108.6290282931552
 20
-159.1920057110701
 30
0.0
 10
108.6290282931552
 20
-159.1920057110701
 30
0.0
 10
108.5105170084627
 20
-159.3401448169358
 30
0.0
 10
108.5105170084627
 20
-159.3401448169358
 30
0.0
  0
SPLINE
  5
115
330
106
100
AcDbEntity
  8
_U+30EC_U+30A4_U+30E4_U+30FC 1
370
     0
100
AcDbSpline
210
0.0
220
0.0
230
1.0
 70
    11
 71
     3
 72
    38
 73
    34
 74
     0
 42
0.0000000001
 43
0.0000000001
 12
1.0
 22
0.0
 32
0.0
 13
1.0
 23
0.0
 33
0.0
 40
0.0
 40
0.0
 40
0.0
 40
0.0
 40
1.0
 40
1.0
 40
1.0
 40
2.0
 40
2.0
 40
2.0
 40
3.0
 40
3.0
 40
3.0
 40
4.0
 40
4.0
 40
4.0
 40
5.0
 40
5.0
 40
5.0
 40
6.0
 40
6.0
 40
6.0
 40
7.0
 40
7.0
 40
7.0
 40
8.0
 40
8.0
 40
8.0
 40
9.0
 40
9.0
 40
9.0
 40
10.0
 40
10.0
 40
10.0
 40
11.0
 40
11.0
 40
11.0
 40
11.0
 10
108.8784532062873
 20
-159.0352538664912
 30
0.0
 10
108.8763861489962
 20
-159.0821071650906
 30
0.0
 10
108.874319091705
 20
-159.1982068829435
 30
0.0
 10
108.874319091705
 20
-159.2426486147032
 30
0.0
 10
108.874319091705
 20
-159.2426486147032
 30
0.0
 10
108.874319091705
 20
-159.5895697300679
 30
0.0
 10
108.874319091705
 20
-159.5895697300679
 30
0.0
 10
108.874319091705
 20
-159.6763861362962
 30
0.0
 10
108.8763861489962
 20
-159.81797956074
 30
0.0
 10
108.8870659450005
 20
-159.9385579027237
 30
0.0
 10
108.8870659450005
 20
-159.9385579027237
 30
0.0
 10
108.6965521646661
 20
-159.9385579027237
 30
0.0
 10
108.6965521646661
 20
-159.9385579027237
 30
0.0
 10
108.701030788797
 20
-159.8751681457951
 30
0.0
 10
108.7051649033793
 20
-159.8224581848708
 30
0.0
 10
108.7072319606704
 20
-159.7673366571068
 30
0.0
 10
108.7092990179616
 20
-159.6446912578319
 30
0.0
 10
108.7113660752527
 20
-159.6298773472453
 30
0.0
 10
108.7113660752527
 20
-159.5854356154856
 30
0.0
 10
108.7113660752527
 20
-159.5854356154856
 30
0.0
 10
108.7113660752527
 20
-159.2640082067118
 30
0.0
 10
108.7113660752527
 20
-159.2640082067118
 30
0.0
 10
108.7113660752527
 20
-159.2088866789478
 30
0.0
 10
108.6986192219573
 20
-158.9697970522714
 30
0.0
 10
108.6965521646661
 20
-158.9191541486383
 30
0.0
 10
108.6965521646661
 20
-158.9191541486383
 30
0.0
 10
108.8977457410047
 20
-158.9467149125203
 30
0.0
 10
108.8977457410047
 20
-158.9467149125203
 30
0.0
 10
108.9187608234648
 20
-158.9487819698114
 30
0.0
 10
108.9504557019291
 20
-158.9529160843937
 30
0.0
 10
108.9504557019291
 20
-158.9784097909846
 30
0.0
 10
108.9504557019291
 20
-159.0056260453181
 30
0.0
 10
108.8998127982959
 20
-159.0269856373266
 30
0.0
 10
108.8784532062873
 20
-159.0352538664912
 30
0.0
  0
SPLINE
  5
116
330
106
100
AcDbEntity
  8
_U+30EC_U+30A4_U+30E4_U+30FC 1
370
     0
100
AcDbSpline
210
0.0
220
0.0
230
1.0
 70
    11
 71
     3
 72
    83
 73
    79
 74
     0
 42
0.0000000001
 43
0.0000000001
 12
1.0
 22
0.0
 32
0.0
 13
1.0
 23
0.0
 33
0.0
 40
0.0
 40
0.0
 40
0.0
 40
0.0
 40
1.0
 40
1.0
 40
1.0
 40
2.0
 40
2.0
 40
2.0
 40
3.0
 40
3.0
 40
3.0
 40
4.0
 40
4.0
 40
4.0
 40
5.0
 40
5.0
 40
5.0
 40
6.0
 40
6.0
 40
6.0
 40
7.0
 40
7.0
 40
7.0
 40
8.0
 40
8.0
 40
8.0
 40
9.0
 40
9.0
 40
9.0
 40
10.0
 40
10.0
 40
10.0
 40
11.0
 40
11.0
 40
11.0
 40
12.0
 40
12.0
 40
12.0
 40
13.0
 40
13.0
 40
13.0
 40
14.0
 40
14.0
 40
14.0
 40
15.0
 40
15.0
 40
15.0
 40
16.0
 40
16.0
 40
16.0
 40
17.0
 40
17.0
 40
17.0
 40
18.0
 40
18.0
 40
18.0
 40
19.0
 40
19.0
 40
19.0
 40
20.0
 40
20.0
 40
20.0
 40
21.0
 40
21.0
 40
21.0
 40
22.0
 40
22.0
 40
22.0
 40
23.0
 40
23.0
 40
23.0
 40
24.0
 40
24.0
 40
24.0
 40
25.0
 40
25.0
 40
25.0
 40
26.0
 40
26.0
 40
26.0
 40
26.0
 10
109.6804714352535
 20
-159.3570257848135
 30
0.0
 10
109.6804714352535
 20
-159.3570257848135
 30
0.0
 10
109.5829752330209
 20
-159.3570257848135
 30
0.0
 10
109.5829752330209
 20
-159.3570257848135
 30
0.0
 10
109.5829752330209
 20
-159.3570257848135
 30
0.0
 10
109.5829752330209
 20
-159.6043836406545
 30
0.0
 10
109.5829752330209
 20
-159.6043836406545
 30
0.0
 10
109.5829752330209
 20
-159.6043836406545
 30
0.0
 10
109.6656575246669
 20
-159.6043836406545
 30
0.0
 10
109.6656575246669
 20
-159.6043836406545
 30
0.0
 10
109.7311143388867
 20
-159.6043836406545
 30
0.0
 10
109.8706407060393
 20
-159.6002495260722
 30
0.0
 10
109.970203965563
 20
-159.5916367873591
 30
0.0
 10
109.970203965563
 20
-159.5916367873591
 30
0.0
 10
109.970203965563
 20
-159.7714707716891
 30
0.0
 10
109.970203965563
 20
-159.7714707716891
 30
0.0
 10
109.8771863874613
 20
-159.7632025425245
 30
0.0
 10
109.7269802243044
 20
-159.7590684279422
 30
0.0
 10
109.6656575246669
 20
-159.7590684279422
 30
0.0
 10
109.6656575246669
 20
-159.7590684279422
 30
0.0
 10
109.3607665742223
 20
-159.7590684279422
 30
0.0
 10
109.3607665742223
 20
-159.7590684279422
 30
0.0
 10
109.308056613298
 20
-159.7590684279422
 30
0.0
 10
109.1619845647234
 20
-159.7632025425245
 30
0.0
 10
109.0562201333262
 20
-159.7714707716891
 30
0.0
 10
109.0562201333262
 20
-159.7714707716891
 30
0.0
 10
109.0562201333262
 20
-159.5916367873591
 30
0.0
 10
109.0562201333262
 20
-159.5916367873591
 30
0.0
 10
109.15578339285
 20
-159.6002495260722
 30
0.0
 10
109.2953097600026
 20
-159.6043836406545
 30
0.0
 10
109.3607665742223
 20
-159.6043836406545
 30
0.0
 10
109.3607665742223
 20
-159.6043836406545
 30
0.0
 10
109.405208305982
 20
-159.6043836406545
 30
0.0
 10
109.405208305982
 20
-159.6043836406545
 30
0.0
 10
109.405208305982
 20
-159.6043836406545
 30
0.0
 10
109.405208305982
 20
-159.3570257848135
 30
0.0
 10
109.405208305982
 20
-159.3570257848135
 30
0.0
 10
109.405208305982
 20
-159.3570257848135
 30
0.0
 10
109.3314832625977
 20
-159.3570257848135
 30
0.0
 10
109.3314832625977
 20
-159.3570257848135
 30
0.0
 10
109.2698160534117
 20
-159.3570257848135
 30
0.0
 10
109.1027289223771
 20
-159.3611598993958
 30
0.0
 10
108.9821505803934
 20
-159.3697726381089
 30
0.0
 10
108.9821505803934
 20
-159.3697726381089
 30
0.0
 10
108.9821505803934
 20
-159.1920057110701
 30
0.0
 10
108.9821505803934
 20
-159.1920057110701
 30
0.0
 10
109.0965277505037
 20
-159.1982068829435
 30
0.0
 10
109.2550021428251
 20
-159.2026855070743
 30
0.0
 10
109.3314832625977
 20
-159.2026855070743
 30
0.0
 10
109.3314832625977
 20
-159.2026855070743
 30
0.0
 10
109.4031412486909
 20
-159.2026855070743
 30
0.0
 10
109.4031412486909
 20
-159.2026855070743
 30
0.0
 10
109.3990071341086
 20
-159.0500677770778
 30
0.0
 10
109.3969400768174
 20
-159.0163058413223
 30
0.0
 10
109.3903943953955
 20
-158.9232882632206
 30
0.0
 10
109.3903943953955
 20
-158.9232882632206
 30
0.0
 10
109.6022677677383
 20
-158.9467149125203
 30
0.0
 10
109.6022677677383
 20
-158.9467149125203
 30
0.0
 10
109.6274169647807
 20
-158.9487819698114
 30
0.0
 10
109.6508436140803
 20
-158.9529160843937
 30
0.0
 10
109.6508436140803
 20
-158.9759982241449
 30
0.0
 10
109.6508436140803
 20
-159.0080376121577
 30
0.0
 10
109.6064018823206
 20
-159.0249185800354
 30
0.0
 10
109.5829752330209
 20
-159.0331868092
 30
0.0
 10
109.5829752330209
 20
-159.0331868092
 30
0.0
 10
109.5829752330209
 20
-159.2026855070743
 30
0.0
 10
109.5829752330209
 20
-159.2026855070743
 30
0.0
 10
109.5829752330209
 20
-159.2026855070743
 30
0.0
 10
109.6804714352535
 20
-159.2026855070743
 30
0.0
 10
109.6804714352535
 20
-159.2026855070743
 30
0.0
 10
109.7566080454775
 20
-159.2026855070743
 30
0.0
 10
109.915082437799
 20
-159.1982068829435
 30
0.0
 10
110.0315266652005
 20
-159.1920057110701
 30
0.0
 10
110.0315266652005
 20
-159.1920057110701
 30
0.0
 10
110.0315266652005
 20
-159.3697726381089
 30
0.0
 10
110.0315266652005
 20
-159.3697726381089
 30
0.0
 10
109.9236951765121
 20
-159.363226956687
 30
0.0
 10
109.7500623640556
 20
-159.3570257848135
 30
0.0
 10
109.6804714352535
 20
-159.3570257848135
 30
0.0
  0
SPLINE
  5
117
330
106
100
AcDbEntity
  8
_U+30EC_U+30A4_U+30E4_U+30FC 1
370
     0
100
AcDbSpline
210
0.0
220
0.0
230
1.0
 70
    11
 71
     3
 72
    17
 73
    13
 74
     0
 42
0.0000000001
 43
0.0000000001
 12
1.0
 22
0.0
 32
0.0
 13
1.0
 23
0.0
 33
0.0
 40
0.0
 40
0.0
 40
0.0
 40
0.0
 40
1.0
 40
1.0
 40
1.0
 40
2.0
 40
2.0
 40
2.0
 40
3.0
 40
3.0
 40
3.0
 40
4.0
 40
4.0
 40
4.0
 40
4.0
 10
109.4348361271552
 20
-160.1545653896489
 30
0.0
 10
109.4348361271552
 20
-160.1545653896489
 30
0.0
 10
109.231920003074
 20
-160.1545653896489
 30
0.0
 10
109.231920003074
 20
-160.1545653896489
 30
0.0
 10
109.259480766956
 20
-160.2138210319952
 30
0.0
 10
109.3142577851714
 20
-160.2858235276369
 30
0.0
 10
109.3418185490534
 20
-160.3151068392615
 30
0.0
 10
109.3693793129354
 20
-160.3006374382234
 30
0.0
 10
109.4837564830457
 20
-160.2369031717463
 30
0.0
 10
109.5747070038563
 20
-160.1545653896489
 30
0.0
 10
109.5747070038563
 20
-160.1545653896489
 30
0.0
 10
109.4348361271552
 20
-160.1545653896489
 30
0.0
 10
109.4348361271552
 20
-160.1545653896489
 30
0.0
  0
HATCH
  5
118
330
106
100
AcDbEntity
  8
_U+30EC_U+30A4_U+30E4_U+30FC 1
 62
     7
420
 16777215
100
AcDbHatch
 10
0.0
 20
0.0
 30
0.0
210
0.0
220
0.0
230
1.0
  2
SOLID
 70
     1
 71
     0
 91
        6
 92
        1
 93
        1
 72
     4
 94
        3
 73
     0
 74
     1
 95
      113
 96
      109
 40
0.0
 40
0.0
 40
0.0
 40
0.0
 40
1.0
 40
1.0
 40
1.0
 40
2.0
 40
2.0
 40
2.0
 40
3.0
 40
3.0
 40
3.0
 40
4.0
 40
4.0
 40
4.0
 40
5.0
 40
5.0
 40
5.0
 40
6.0
 40
6.0
 40
6.0
 40
7.0
 40
7.0
 40
7.0
 40
8.0
 40
8.0
 40
8.0
 40
9.0
 40
9.0
 40
9.0
 40
10.0
 40
10.0
 40
10.0
 40
11.0
 40
11.0
 40
11.0
 40
12.0
 40
12.0
 40
12.0
 40
13.0
 40
13.0
 40
13.0
 40
14.0
 40
14.0
 40
14.0
 40
15.0
 40
15.0
 40
15.0
 40
16.0
 40
16.0
 40
16.0
 40
17.0
 40
17.0
 40
17.0
 40
18.0
 40
18.0
 40
18.0
 40
19.0
 40
19.0
 40
19.0
 40
20.0
 40
20.0
 40
20.0
 40
21.0
 40
21.0
 40
21.0
 40
22.0
 40
22.0
 40
22.0
 40
23.0
 40
23.0
 40
23.0
 40
24.0
 40
24.0
 40
24.0
 40
25.0
 40
25.0
 40
25.0
 40
26.0
 40
26.0
 40
26.0
 40
27.0
 40
27.0
 40
27.0
 40
28.0
 40
28.0
 40
28.0
 40
29.0
 40
29.0
 40
29.0
 40
30.0
 40
30.0
 40
30.0
 40
31.0
 40
31.0
 40
31.0
 40
32.0
 40
32.0
 40
32.0
 40
33.0
 40
33.0
 40
33.0
 40
34.0
 40
34.0
 40
34.0
 40
35.0
 40
35.0
 40
35.0
 40
36.0
 40
36.0
 40
36.0
 40
36.0
 10
109.6422308753672
 20
-160.15663244694
 10
109.6422308753672
 20
-160.15663244694
 10
109.741794134891
 20
-160.2561957064637
 10
109.741794134891
 20
-160.2561957064637
 10
109.7524739308952
 20
-160.2665309929195
 10
109.762809217351
 20
-160.2792778462149
 10
109.762809217351
 20
-160.2940917568015
 10
109.762809217351
 20
-160.2961588140926
 10
109.762809217351
 20
-160.3257866352658
 10
109.7249131670132
 20
-160.3257866352658
 10
109.7163004283001
 20
-160.3257866352658
 10
109.6759928111227
 20
-160.3216525206835
 10
109.6697916392492
 20
-160.3216525206835
 10
109.6294840220718
 20
-160.3533473991478
 10
109.5829752330209
 20
-160.3871093349032
 10
109.4837564830457
 20
-160.4442979199584
 10
109.6294840220718
 20
-160.5521294086467
 10
109.7883029239418
 20
-160.6093179937018
 10
110.0611544863736
 20
-160.6475585535881
 10
110.0611544863736
 20
-160.6475585535881
 10
109.9109483232167
 20
-160.8229139137873
 10
109.9109483232167
 20
-160.8229139137873
 10
109.6487765567892
 20
-160.7509114181456
 10
109.4920247122103
 20
-160.6623724641747
 10
109.4158881019863
 20
-160.6093179937018
 10
109.2656819388294
 20
-160.507687676887
 10
109.1220214570945
 20
-160.3447346604347
 10
109.0458848468705
 20
-160.1797145866912
 10
108.9780164658111
 20
-160.2455159104595
 10
108.9039469128782
 20
-160.2982258713838
 10
108.825743245363
 20
-160.3471462272743
 10
108.825743245363
 20
-160.3471462272743
 10
108.825743245363
 20
-160.5986381976976
 10
108.825743245363
 20
-160.5986381976976
 10
108.9886962618153
 20
-160.5734890006553
 10
109.1747314180188
 20
-160.5290472688955
 10
109.2381211749474
 20
-160.514233358309
 10
109.2381211749474
 20
-160.514233358309
 10
109.2084933537743
 20
-160.6833875466347
 10
109.2084933537743
 20
-160.6833875466347
 10
109.2064262964831
 20
-160.6833875466347
 10
109.1874782713142
 20
-160.6895887185082
 10
109.1854112140231
 20
-160.6895887185082
 10
108.9866292045242
 20
-160.7278292783944
 10
108.6693359103327
 20
-160.7932860926142
 10
108.4722764485764
 20
-160.8294595952093
 10
108.4619411621206
 20
-160.846340563087
 10
108.4385145128209
 20
-160.8780354415513
 10
108.4154323730698
 20
-160.8780354415513
 10
108.3878716091878
 20
-160.8780354415513
 10
108.3837374946055
 20
-160.8590874163825
 10
108.3813259277658
 20
-160.8397948816651
 10
108.3813259277658
 20
-160.8397948816651
 10
108.3561767307235
 20
-160.666506578757
 10
108.3561767307235
 20
-160.666506578757
 10
108.4302462836563
 20
-160.6578938400439
 10
108.5380777723446
 20
-160.6451469867484
 10
108.645909261033
 20
-160.6241319042884
 10
108.645909261033
 20
-160.6241319042884
 10
108.645909261033
 20
-160.4463649772495
 10
108.645909261033
 20
-160.4463649772495
 10
108.5019042697495
 20
-160.5183674728912
 10
108.4068196343566
 20
-160.5479952940644
 10
108.2417995606132
 20
-160.5776231152375
 10
108.2417995606132
 20
-160.5776231152375
 10
108.1212212186294
 20
-160.4084689269118
 10
108.1212212186294
 20
-160.4084689269118
 10
108.4385145128209
 20
-160.3809081630298
 10
108.6310953504464
 20
-160.287890584928
 10
108.8088622774853
 20
-160.1545653896489
 10
108.6627902289107
 20
-160.1545653896489
 10
108.3623779025969
 20
-160.1586995042312
 10
108.1656629503891
 20
-160.1652451856531
 10
108.1656629503891
 20
-160.1652451856531
 10
108.1656629503891
 20
-159.9874782586143
 10
108.1656629503891
 20
-159.9874782586143
 10
108.3200032281283
 20
-159.9936794304877
 10
108.6162814398598
 20
-160.0002251119097
 10
108.8002495387722
 20
-160.0002251119097
 10
108.8002495387722
 20
-160.0002251119097
 10
109.0117784015665
 20
-160.0002251119097
 10
109.0117784015665
 20
-160.0002251119097
 10
109.0117784015665
 20
-159.9047959669683
 10
109.0097113442754
 20
-159.8541530633351
 10
109.0035101724019
 20
-159.8076442742842
 10
109.0035101724019
 20
-159.8076442742842
 10
109.2191731497785
 20
-159.8245252421619
 10
109.2191731497785
 20
-159.8245252421619
 10
109.2677489961206
 20
-159.8286593567442
 10
109.2763617348337
 20
-159.8434732673308
 10
109.2763617348337
 20
-159.8582871779174
 10
109.2763617348337
 20
-159.8837808845082
 10
109.259480766956
 20
-159.8920491136728
 10
109.2084933537743
 20
-159.9175428202637
 10
109.2064262964831
 20
-159.9430365268545
 10
109.2064262964831
 20
-159.949237698728
 10
109.204359239192
 20
-160.0002251119097
 10
109.204359239192
 20
-160.0002251119097
 10
109.4348361271552
 20
-160.0002251119097
 10
109.4348361271552
 20
-160.0002251119097
 10
109.5998562008987
 20
-160.0002251119097
 10
109.8920002980478
 20
-159.9936794304877
 10
110.0718342823779
 20
-159.9874782586143
 10
110.0718342823779
 20
-159.9874782586143
 10
110.0718342823779
 20
-160.1652451856531
 10
110.0718342823779
 20
-160.1652451856531
 10
109.942643201681
 20
-160.1607665615223
 10
109.9195610619298
 20
-160.1607665615223
 10
109.6422308753672
 20
-160.15663244694
 97
        0
 97
        0
 92
        1
 93
        1
 72
     4
 94
        3
 73
     0
 74
     1
 95
       23
 96
       19
 40
0.0
 40
0.0
 40
0.0
 40
0.0
 40
1.0
 40
1.0
 40
1.0
 40
2.0
 40
2.0
 40
2.0
 40
3.0
 40
3.0
 40
3.0
 40
4.0
 40
4.0
 40
4.0
 40
5.0
 40
5.0
 40
5.0
 40
6.0
 40
6.0
 40
6.0
 40
6.0
 10
108.3582437880146
 20
-159.805577216993
 10
108.3413628201369
 20
-159.845540324622
 10
108.3348171387149
 20
-159.8624212924997
 10
108.3138020562549
 20
-159.8624212924997
 10
108.2989881456683
 20
-159.8624212924997
 10
108.288308349664
 20
-159.845540324622
 10
108.2821071777906
 20
-159.8327934713265
 10
108.2821071777906
 20
-159.8327934713265
 10
108.1825439182669
 20
-159.6677733975831
 10
108.1825439182669
 20
-159.6677733975831
 10
108.2841742350817
 20
-159.6360785191188
 10
108.4343803982386
 20
-159.5813015009033
 10
108.6331624077375
 20
-159.418348484451
 10
108.6331624077375
 20
-159.418348484451
 10
108.6903509927927
 20
-159.5916367873591
 10
108.6903509927927
 20
-159.5916367873591
 10
108.597333414691
 20
-159.674319079005
 10
108.5084499511715
 20
-159.7315076640602
 10
108.3582437880146
 20
-159.805577216993
 97
        0
 97
        0
 92
        1
 93
        1
 72
     4
 94
        3
 73
     0
 74
     1
 95
       17
 96
       13
 40
0.0
 40
0.0
 40
0.0
 40
0.0
 40
1.0
 40
1.0
 40
1.0
 40
2.0
 40
2.0
 40
2.0
 40
3.0
 40
3.0
 40
3.0
 40
4.0
 40
4.0
 40
4.0
 40
4.0
 10
108.5105170084627
 20
-159.3401448169358
 10
108.4808891872895
 20
-159.2998371997584
 10
108.4130208062301
 20
-159.2026855070743
 10
108.2311197646089
 20
-159.0924424515463
 10
108.2311197646089
 20
-159.0924424515463
 10
108.3582437880146
 20
-158.9591172562672
 10
108.3582437880146
 20
-158.9591172562672
 10
108.5442789442181
 20
-159.060747573082
 10
108.6014675292733
 20
-159.1496310366015
 10
108.6290282931552
 20
-159.1920057110701
 10
108.6290282931552
 20
-159.1920057110701
 10
108.5105170084627
 20
-159.3401448169358
 10
108.5105170084627
 20
-159.3401448169358
 97
        0
 97
        0
 92
        1
 93
        1
 72
     4
 94
        3
 73
     0
 74
     1
 95
       38
 96
       34
 40
0.0
 40
0.0
 40
0.0
 40
0.0
 40
1.0
 40
1.0
 40
1.0
 40
2.0
 40
2.0
 40
2.0
 40
3.0
 40
3.0
 40
3.0
 40
4.0
 40
4.0
 40
4.0
 40
5.0
 40
5.0
 40
5.0
 40
6.0
 40
6.0
 40
6.0
 40
7.0
 40
7.0
 40
7.0
 40
8.0
 40
8.0
 40
8.0
 40
9.0
 40
9.0
 40
9.0
 40
10.0
 40
10.0
 40
10.0
 40
11.0
 40
11.0
 40
11.0
 40
11.0
 10
108.8784532062873
 20
-159.0352538664912
 10
108.8763861489962
 20
-159.0821071650906
 10
108.874319091705
 20
-159.1982068829435
 10
108.874319091705
 20
-159.2426486147032
 10
108.874319091705
 20
-159.2426486147032
 10
108.874319091705
 20
-159.5895697300679
 10
108.874319091705
 20
-159.5895697300679
 10
108.874319091705
 20
-159.6763861362962
 10
108.8763861489962
 20
-159.81797956074
 10
108.8870659450005
 20
-159.9385579027237
 10
108.8870659450005
 20
-159.9385579027237
 10
108.6965521646661
 20
-159.9385579027237
 10
108.6965521646661
 20
-159.9385579027237
 10
108.701030788797
 20
-159.8751681457951
 10
108.7051649033793
 20
-159.8224581848708
 10
108.7072319606704
 20
-159.7673366571068
 10
108.7092990179616
 20
-159.6446912578319
 10
108.7113660752527
 20
-159.6298773472453
 10
108.7113660752527
 20
-159.5854356154856
 10
108.7113660752527
 20
-159.5854356154856
 10
108.7113660752527
 20
-159.2640082067118
 10
108.7113660752527
 20
-159.2640082067118
 10
108.7113660752527
 20
-159.2088866789478
 10
108.6986192219573
 20
-158.9697970522714
 10
108.6965521646661
 20
-158.9191541486383
 10
108.6965521646661
 20
-158.9191541486383
 10
108.8977457410047
 20
-158.9467149125203
 10
108.8977457410047
 20
-158.9467149125203
 10
108.9187608234648
 20
-158.9487819698114
 10
108.9504557019291
 20
-158.9529160843937
 10
108.9504557019291
 20
-158.9784097909846
 10
108.9504557019291
 20
-159.0056260453181
 10
108.8998127982959
 20
-159.0269856373266
 10
108.8784532062873
 20
-159.0352538664912
 97
        0
 97
        0
 92
        1
 93
        1
 72
     4
 94
        3
 73
     0
 74
     1
 95
       83
 96
       79
 40
0.0
 40
0.0
 40
0.0
 40
0.0
 40
1.0
 40
1.0
 40
1.0
 40
2.0
 40
2.0
 40
2.0
 40
3.0
 40
3.0
 40
3.0
 40
4.0
 40
4.0
 40
4.0
 40
5.0
 40
5.0
 40
5.0
 40
6.0
 40
6.0
 40
6.0
 40
7.0
 40
7.0
 40
7.0
 40
8.0
 40
8.0
 40
8.0
 40
9.0
 40
9.0
 40
9.0
 40
10.0
 40
10.0
 40
10.0
 40
11.0
 40
11.0
 40
11.0
 40
12.0
 40
12.0
 40
12.0
 40
13.0
 40
13.0
 40
13.0
 40
14.0
 40
14.0
 40
14.0
 40
15.0
 40
15.0
 40
15.0
 40
16.0
 40
16.0
 40
16.0
 40
17.0
 40
17.0
 40
17.0
 40
18.0
 40
18.0
 40
18.0
 40
19.0
 40
19.0
 40
19.0
 40
20.0
 40
20.0
 40
20.0
 40
21.0
 40
21.0
 40
21.0
 40
22.0
 40
22.0
 40
22.0
 40
23.0
 40
23.0
 40
23.0
 40
24.0
 40
24.0
 40
24.0
 40
25.0
 40
25.0
 40
25.0
 40
26.0
 40
26.0
 40
26.0
 40
26.0
 10
109.6804714352535
 20
-159.3570257848135
 10
109.6804714352535
 20
-159.3570257848135
 10
109.5829752330209
 20
-159.3570257848135
 10
109.5829752330209
 20
-159.3570257848135
 10
109.5829752330209
 20
-159.3570257848135
 10
109.5829752330209
 20
-159.6043836406545
 10
109.5829752330209
 20
-159.6043836406545
 10
109.5829752330209
 20
-159.6043836406545
 10
109.6656575246669
 20
-159.6043836406545
 10
109.6656575246669
 20
-159.6043836406545
 10
109.7311143388867
 20
-159.6043836406545
 10
109.8706407060393
 20
-159.6002495260722
 10
109.970203965563
 20
-159.5916367873591
 10
109.970203965563
 20
-159.5916367873591
 10
109.970203965563
 20
-159.7714707716891
 10
109.970203965563
 20
-159.7714707716891
 10
109.8771863874613
 20
-159.7632025425245
 10
109.7269802243044
 20
-159.7590684279422
 10
109.6656575246669
 20
-159.7590684279422
 10
109.6656575246669
 20
-159.7590684279422
 10
109.3607665742223
 20
-159.7590684279422
 10
109.3607665742223
 20
-159.7590684279422
 10
109.308056613298
 20
-159.7590684279422
 10
109.1619845647234
 20
-159.7632025425245
 10
109.0562201333262
 20
-159.7714707716891
 10
109.0562201333262
 20
-159.7714707716891
 10
109.0562201333262
 20
-159.5916367873591
 10
109.0562201333262
 20
-159.5916367873591
 10
109.15578339285
 20
-159.6002495260722
 10
109.2953097600026
 20
-159.6043836406545
 10
109.3607665742223
 20
-159.6043836406545
 10
109.3607665742223
 20
-159.6043836406545
 10
109.405208305982
 20
-159.6043836406545
 10
109.405208305982
 20
-159.6043836406545
 10
109.405208305982
 20
-159.6043836406545
 10
109.405208305982
 20
-159.3570257848135
 10
109.405208305982
 20
-159.3570257848135
 10
109.405208305982
 20
-159.3570257848135
 10
109.3314832625977
 20
-159.3570257848135
 10
109.3314832625977
 20
-159.3570257848135
 10
109.2698160534117
 20
-159.3570257848135
 10
109.1027289223771
 20
-159.3611598993958
 10
108.9821505803934
 20
-159.3697726381089
 10
108.9821505803934
 20
-159.3697726381089
 10
108.9821505803934
 20
-159.1920057110701
 10
108.9821505803934
 20
-159.1920057110701
 10
109.0965277505037
 20
-159.1982068829435
 10
109.2550021428251
 20
-159.2026855070743
 10
109.3314832625977
 20
-159.2026855070743
 10
109.3314832625977
 20
-159.2026855070743
 10
109.4031412486909
 20
-159.2026855070743
 10
109.4031412486909
 20
-159.2026855070743
 10
109.3990071341086
 20
-159.0500677770778
 10
109.3969400768174
 20
-159.0163058413223
 10
109.3903943953955
 20
-158.9232882632206
 10
109.3903943953955
 20
-158.9232882632206
 10
109.6022677677383
 20
-158.9467149125203
 10
109.6022677677383
 20
-158.9467149125203
 10
109.6274169647807
 20
-158.9487819698114
 10
109.6508436140803
 20
-158.9529160843937
 10
109.6508436140803
 20
-158.9759982241449
 10
109.6508436140803
 20
-159.0080376121577
 10
109.6064018823206
 20
-159.0249185800354
 10
109.5829752330209
 20
-159.0331868092
 10
109.5829752330209
 20
-159.0331868092
 10
109.5829752330209
 20
-159.2026855070743
 10
109.5829752330209
 20
-159.2026855070743
 10
109.5829752330209
 20
-159.2026855070743
 10
109.6804714352535
 20
-159.2026855070743
 10
109.6804714352535
 20
-159.2026855070743
 10
109.7566080454775
 20
-159.2026855070743
 10
109.915082437799
 20
-159.1982068829435
 10
110.0315266652005
 20
-159.1920057110701
 10
110.0315266652005
 20
-159.1920057110701
 10
110.0315266652005
 20
-159.3697726381089
 10
110.0315266652005
 20
-159.3697726381089
 10
109.9236951765121
 20
-159.363226956687
 10
109.7500623640556
 20
-159.3570257848135
 10
109.6804714352535
 20
-159.3570257848135
 97
        0
 97
        0
 92
        1
 93
        1
 72
     4
 94
        3
 73
     0
 74
     1
 95
       17
 96
       13
 40
0.0
 40
0.0
 40
0.0
 40
0.0
 40
1.0
 40
1.0
 40
1.0
 40
2.0
 40
2.0
 40
2.0
 40
3.0
 40
3.0
 40
3.0
 40
4.0
 40
4.0
 40
4.0
 40
4.0
 10
109.4348361271552
 20
-160.1545653896489
 10
109.4348361271552
 20
-160.1545653896489
 10
109.231920003074
 20
-160.1545653896489
 10
109.231920003074
 20
-160.1545653896489
 10
109.259480766956
 20
-160.2138210319952
 10
109.3142577851714
 20
-160.2858235276369
 10
109.3418185490534
 20
-160.3151068392615
 10
109.3693793129354
 20
-160.3006374382234
 10
109.4837564830457
 20
-160.2369031717463
 10
109.5747070038563
 20
-160.1545653896489
 10
109.5747070038563
 20
-160.1545653896489
 10
109.4348361271552
 20
-160.1545653896489
 10
109.4348361271552
 20
-160.1545653896489
 97
        0
 97
        0
 75
     2
 76
     1
 98
        0
  0
SPLINE
  5
119
330
106
100
AcDbEntity
  8
_U+30EC_U+30A4_U+30E4_U+30FC 1
370
     0
100
AcDbSpline
210
0.0
220
0.0
230
1.0
 70
    11
 71
     3
 72
    77
 73
    73
 74
     0
 42
0.0000000001
 43
0.0000000001
 12
1.0
 22
0.0
 32
0.0
 13
1.0
 23
0.0
 33
0.0
 40
0.0
 40
0.0
 40
0.0
 40
0.0
 40
1.0
 40
1.0
 40
1.0
 40
2.0
 40
2.0
 40
2.0
 40
3.0
 40
3.0
 40
3.0
 40
4.0
 40
4.0
 40
4.0
 40
5.0
 40
5.0
 40
5.0
 40
6.0
 40
6.0
 40
6.0
 40
7.0
 40
7.0
 40
7.0
 40
8.0
 40
8.0
 40
8.0
 40
9.0
 40
9.0
 40
9.0
 40
10.0
 40
10.0
 40
10.0
 40
11.0
 40
11.0
 40
11.0
 40
12.0
 40
12.0
 40
12.0
 40
13.0
 40
13.0
 40
13.0
 40
14.0
 40
14.0
 40
14.0
 40
15.0
 40
15.0
 40
15.0
 40
16.0
 40
16.0
 40
16.0
 40
17.0
 40
17.0
 40
17.0
 40
18.0
 40
18.0
 40
18.0
 40
19.0
 40
19.0
 40
19.0
 40
20.0
 40
20.0
 40
20.0
 40
21.0
 40
21.0
 40
21.0
 40
22.0
 40
22.0
 40
22.0
 40
23.0
 40
23.0
 40
23.0
 40
24.0
 40
24.0
 40
24.0
 40
24.0
 10
111.9259846725393
 20
-160.7850178634496
 30
0.0
 10
111.8794758834885
 20
-160.8101670604919
 30
0.0
 10
111.7547634269224
 20
-160.8229139137873
 30
0.0
 10
111.6762152498587
 20
-160.8229139137873
 30
0.0
 10
111.6638129061118
 20
-160.8229139137873
 30
0.0
 10
111.638319199521
 20
-160.8229139137873
 30
0.0
 10
111.6045572637655
 20
-160.818779799205
 30
0.0
 10
111.6045572637655
 20
-160.818779799205
 30
0.0
 10
111.507061061533
 20
-160.5924370258241
 30
0.0
 10
111.507061061533
 20
-160.5924370258241
 30
0.0
 10
111.5366888827061
 20
-160.5986381976976
 30
0.0
 10
111.5938774677613
 20
-160.6072509364107
 30
0.0
 10
111.7103216951627
 20
-160.6072509364107
 30
0.0
 10
111.7885253626779
 20
-160.6072509364107
 30
0.0
 10
111.790592419969
 20
-160.5648762619421
 30
0.0
 10
111.790592419969
 20
-160.507687676887
 30
0.0
 10
111.790592419969
 20
-160.507687676887
 30
0.0
 10
111.790592419969
 20
-160.1586995042312
 30
0.0
 10
111.790592419969
 20
-160.1586995042312
 30
0.0
 10
111.790592419969
 20
-160.1586995042312
 30
0.0
 10
111.3313611917852
 20
-160.1586995042312
 30
0.0
 10
111.3313611917852
 20
-160.1586995042312
 30
0.0
 10
111.3337727586249
 20
-160.2961588140926
 30
0.0
 10
111.335839815916
 20
-160.4949408235915
 30
0.0
 10
111.3420409877895
 20
-160.6282660188707
 30
0.0
 10
111.3441080450806
 20
-160.6558267827527
 30
0.0
 10
111.3441080450806
 20
-160.7002685145124
 30
0.0
 10
111.3568548983761
 20
-160.7615912141499
 30
0.0
 10
111.3568548983761
 20
-160.7615912141499
 30
0.0
 10
111.1156982144086
 20
-160.7615912141499
 30
0.0
 10
111.1156982144086
 20
-160.7615912141499
 30
0.0
 10
111.1411919209994
 20
-160.6368787575838
 30
0.0
 10
111.1411919209994
 20
-160.2961588140926
 30
0.0
 10
111.1411919209994
 20
-160.1586995042312
 30
0.0
 10
111.1411919209994
 20
-160.1586995042312
 30
0.0
 10
110.6988416606933
 20
-160.1586995042312
 30
0.0
 10
110.6988416606933
 20
-160.1586995042312
 30
0.0
 10
110.6757595209422
 20
-160.3660942524432
 30
0.0
 10
110.6103027067224
 20
-160.6348117002927
 30
0.0
 10
110.4132432449661
 20
-160.818779799205
 30
0.0
 10
110.4132432449661
 20
-160.818779799205
 30
0.0
 10
110.2251410314715
 20
-160.6961343999301
 30
0.0
 10
110.2251410314715
 20
-160.6961343999301
 30
0.0
 10
110.4790445687344
 20
-160.4759927984227
 30
0.0
 10
110.5107394471987
 20
-160.1438855936446
 30
0.0
 10
110.5107394471987
 20
-159.8117783888665
 30
0.0
 10
110.5107394471987
 20
-159.8117783888665
 30
0.0
 10
110.5107394471987
 20
-159.3759738099824
 30
0.0
 10
110.5107394471987
 20
-159.3759738099824
 30
0.0
 10
110.5107394471987
 20
-159.3401448169358
 30
0.0
 10
110.5086723899076
 20
-159.1072563621329
 30
0.0
 10
110.5000596511944
 20
-159.0056260453181
 30
0.0
 10
110.6399305278956
 20
-159.0163058413223
 30
0.0
 10
110.8810872118631
 20
-159.0163058413223
 30
0.0
 10
111.024747693598
 20
-159.0163058413223
 30
0.0
 10
111.024747693598
 20
-159.0163058413223
 30
0.0
 10
111.4839789217818
 20
-159.0163058413223
 30
0.0
 10
111.4839789217818
 20
-159.0163058413223
 30
0.0
 10
111.4987928323684
 20
-159.0163058413223
 30
0.0
 10
111.8477810050242
 20
-159.0163058413223
 30
0.0
 10
112.0062553973457
 20
-159.0056260453181
 30
0.0
 10
112.0041883400545
 20
-159.0586805157909
 30
0.0
 10
111.9979871681811
 20
-159.219566474952
 30
0.0
 10
111.9979871681811
 20
-159.2702093785852
 30
0.0
 10
111.9979871681811
 20
-159.2702093785852
 30
0.0
 10
111.9979871681811
 20
-159.8772352030863
 30
0.0
 10
111.9979871681811
 20
-159.8772352030863
 30
0.0
 10
111.9979871681811
 20
-159.8965277378037
 30
0.0
 10
112.0083224546368
 20
-160.4677245692581
 30
0.0
 10
112.0083224546368
 20
-160.5796901725287
 30
0.0
 10
112.0083224546368
 20
-160.6368787575838
 30
0.0
 10
112.0083224546368
 20
-160.7385090743987
 30
0.0
 10
111.9259846725393
 20
-160.7850178634496
 30
0.0
  0
POLYLINE
  5
11A
330
106
100
AcDbEntity
  8
_U+30EC_U+30A4_U+30E4_U+30FC 1
370
     0
100
AcDb2dPolyline
 66
     1
 10
0.0
 20
0.0
 30
0.0
  0
VERTEX
  5
11B
330
11A
100
AcDbEntity
  8
_U+30EC_U+30A4_U+30E4_U+30FC 1
370
     0
100
AcDbVertex
100
AcDb2dVertex
 10
111.1411919209994
 20
-159.1982068829435
 30
0.0
  0
VERTEX
  5
11C
330
11A
100
AcDbEntity
  8
_U+30EC_U+30A4_U+30E4_U+30FC 1
370
     0
100
AcDbVertex
100
AcDb2dVertex
 10
110.7033202848242
 20
-159.1982068829435
 30
0.0
  0
VERTEX
  5
11D
330
11A
100
AcDbEntity
  8
_U+30EC_U+30A4_U+30E4_U+30FC 1
370
     0
100
AcDbVertex
100
AcDb2dVertex
 10
110.7033202848242
 20
-159.5027533238396
 30
0.0
  0
VERTEX
  5
11E
330
11A
100
AcDbEntity
  8
_U+30EC_U+30A4_U+30E4_U+30FC 1
370
     0
100
AcDbVertex
100
AcDb2dVertex
 10
111.1411919209994
 20
-159.5027533238396
 30
0.0
  0
VERTEX
  5
11F
330
11A
100
AcDbEntity
  8
_U+30EC_U+30A4_U+30E4_U+30FC 1
370
     0
100
AcDbVertex
100
AcDb2dVertex
 10
111.1411919209994
 20
-159.1982068829435
 30
0.0
  0
SEQEND
  5
120
330
11A
100
AcDbEntity
  8
_U+30EC_U+30A4_U+30E4_U+30FC 1
370
     0
  0
POLYLINE
  5
121
330
106
100
AcDbEntity
  8
_U+30EC_U+30A4_U+30E4_U+30FC 1
370
     0
100
AcDb2dPolyline
 66
     1
 10
0.0
 20
0.0
 30
0.0
  0
VERTEX
  5
122
330
121
100
AcDbEntity
  8
_U+30EC_U+30A4_U+30E4_U+30FC 1
370
     0
100
AcDbVertex
100
AcDb2dVertex
 10
111.1411919209994
 20
-159.6701849644227
 30
0.0
  0
VERTEX
  5
123
330
121
100
AcDbEntity
  8
_U+30EC_U+30A4_U+30E4_U+30FC 1
370
     0
100
AcDbVertex
100
AcDb2dVertex
 10
110.7033202848242
 20
-159.6701849644227
 30
0.0
  0
VERTEX
  5
124
330
121
100
AcDbEntity
  8
_U+30EC_U+30A4_U+30E4_U+30FC 1
370
     0
100
AcDbVertex
100
AcDb2dVertex
 10
110.7033202848242
 20
-159.9788655199011
 30
0.0
  0
VERTEX
  5
125
330
121
100
AcDbEntity
  8
_U+30EC_U+30A4_U+30E4_U+30FC 1
370
     0
100
AcDbVertex
100
AcDb2dVertex
 10
111.1411919209994
 20
-159.9788655199011
 30
0.0
  0
VERTEX
  5
126
330
121
100
AcDbEntity
  8
_U+30EC_U+30A4_U+30E4_U+30FC 1
370
     0
100
AcDbVertex
100
AcDb2dVertex
 10
111.1411919209994
 20
-159.6701849644227
 30
0.0
  0
SEQEND
  5
127
330
121
100
AcDbEntity
  8
_U+30EC_U+30A4_U+30E4_U+30FC 1
370
     0
  0
POLYLINE
  5
128
330
106
100
AcDbEntity
  8
_U+30EC_U+30A4_U+30E4_U+30FC 1
370
     0
100
AcDb2dPolyline
 66
     1
 10
0.0
 20
0.0
 30
0.0
  0
VERTEX
  5
129
330
128
100
AcDbEntity
  8
_U+30EC_U+30A4_U+30E4_U+30FC 1
370
     0
100
AcDbVertex
100
AcDb2dVertex
 10
111.790592419969
 20
-159.1982068829435
 30
0.0
  0
VERTEX
  5
12A
330
128
100
AcDbEntity
  8
_U+30EC_U+30A4_U+30E4_U+30FC 1
370
     0
100
AcDbVertex
100
AcDb2dVertex
 10
111.3313611917852
 20
-159.1982068829435
 30
0.0
  0
VERTEX
  5
12B
330
128
100
AcDbEntity
  8
_U+30EC_U+30A4_U+30E4_U+30FC 1
370
     0
100
AcDbVertex
100
AcDb2dVertex
 10
111.3313611917852
 20
-159.5027533238396
 30
0.0
  0
VERTEX
  5
12C
330
128
100
AcDbEntity
  8
_U+30EC_U+30A4_U+30E4_U+30FC 1
370
     0
100
AcDbVertex
100
AcDb2dVertex
 10
111.790592419969
 20
-159.5027533238396
 30
0.0
  0
VERTEX
  5
12D
330
128
100
AcDbEntity
  8
_U+30EC_U+30A4_U+30E4_U+30FC 1
370
     0
100
AcDbVertex
100
AcDb2dVertex
 10
111.790592419969
 20
-159.1982068829435
 30
0.0
  0
SEQEND
  5
12E
330
128
100
AcDbEntity
  8
_U+30EC_U+30A4_U+30E4_U+30FC 1
370
     0
  0
POLYLINE
  5
12F
330
106
100
AcDbEntity
  8
_U+30EC_U+30A4_U+30E4_U+30FC 1
370
     0
100
AcDb2dPolyline
 66
     1
 10
0.0
 20
0.0
 30
0.0
  0
VERTEX
  5
130
330
12F
100
AcDbEntity
  8
_U+30EC_U+30A4_U+30E4_U+30FC 1
370
     0
100
AcDbVertex
100
AcDb2dVertex
 10
111.790592419969
 20
-159.6701849644227
 30
0.0
  0
VERTEX
  5
131
330
12F
100
AcDbEntity
  8
_U+30EC_U+30A4_U+30E4_U+30FC 1
370
     0
100
AcDbVertex
100
AcDb2dVertex
 10
111.3313611917852
 20
-159.6701849644227
 30
0.0
  0
VERTEX
  5
132
330
12F
100
AcDbEntity
  8
_U+30EC_U+30A4_U+30E4_U+30FC 1
370
     0
100
AcDbVertex
100
AcDb2dVertex
 10
111.3313611917852
 20
-159.9788655199011
 30
0.0
  0
VERTEX
  5
133
330
12F
100
AcDbEntity
  8
_U+30EC_U+30A4_U+30E4_U+30FC 1
370
     0
100
AcDbVertex
100
AcDb2dVertex
 10
111.790592419969
 20
-159.9788655199011
 30
0.0
  0
VERTEX
  5
134
330
12F
100
AcDbEntity
  8
_U+30EC_U+30A4_U+30E4_U+30FC 1
370
     0
100
AcDbVertex
100
AcDb2dVertex
 10
111.790592419969
 20
-159.6701849644227
 30
0.0
  0
SEQEND
  5
135
330
12F
100
AcDbEntity
  8
_U+30EC_U+30A4_U+30E4_U+30FC 1
370
     0
  0
HATCH
  5
136
330
106
100
AcDbEntity
  8
_U+30EC_U+30A4_U+30E4_U+30FC 1
 62
     7
420
 16777215
100
AcDbHatch
 10
0.0
 20
0.0
 30
0.0
210
0.0
220
0.0
230
1.0
  2
SOLID
 70
     1
 71
     0
 91
        5
 92
        1
 93
        1
 72
     4
 94
        3
 73
     0
 74
     1
 95
       77
 96
       73
 40
0.0
 40
0.0
 40
0.0
 40
0.0
 40
1.0
 40
1.0
 40
1.0
 40
2.0
 40
2.0
 40
2.0
 40
3.0
 40
3.0
 40
3.0
 40
4.0
 40
4.0
 40
4.0
 40
5.0
 40
5.0
 40
5.0
 40
6.0
 40
6.0
 40
6.0
 40
7.0
 40
7.0
 40
7.0
 40
8.0
 40
8.0
 40
8.0
 40
9.0
 40
9.0
 40
9.0
 40
10.0
 40
10.0
 40
10.0
 40
11.0
 40
11.0
 40
11.0
 40
12.0
 40
12.0
 40
12.0
 40
13.0
 40
13.0
 40
13.0
 40
14.0
 40
14.0
 40
14.0
 40
15.0
 40
15.0
 40
15.0
 40
16.0
 40
16.0
 40
16.0
 40
17.0
 40
17.0
 40
17.0
 40
18.0
 40
18.0
 40
18.0
 40
19.0
 40
19.0
 40
19.0
 40
20.0
 40
20.0
 40
20.0
 40
21.0
 40
21.0
 40
21.0
 40
22.0
 40
22.0
 40
22.0
 40
23.0
 40
23.0
 40
23.0
 40
24.0
 40
24.0
 40
24.0
 40
24.0
 10
111.9259846725393
 20
-160.7850178634496
 10
111.8794758834885
 20
-160.8101670604919
 10
111.7547634269224
 20
-160.8229139137873
 10
111.6762152498587
 20
-160.8229139137873
 10
111.6638129061118
 20
-160.8229139137873
 10
111.638319199521
 20
-160.8229139137873
 10
111.6045572637655
 20
-160.818779799205
 10
111.6045572637655
 20
-160.818779799205
 10
111.507061061533
 20
-160.5924370258241
 10
111.507061061533
 20
-160.5924370258241
 10
111.5366888827061
 20
-160.5986381976976
 10
111.5938774677613
 20
-160.6072509364107
 10
111.7103216951627
 20
-160.6072509364107
 10
111.7885253626779
 20
-160.6072509364107
 10
111.790592419969
 20
-160.5648762619421
 10
111.790592419969
 20
-160.507687676887
 10
111.790592419969
 20
-160.507687676887
 10
111.790592419969
 20
-160.1586995042312
 10
111.790592419969
 20
-160.1586995042312
 10
111.790592419969
 20
-160.1586995042312
 10
111.3313611917852
 20
-160.1586995042312
 10
111.3313611917852
 20
-160.1586995042312
 10
111.3337727586249
 20
-160.2961588140926
 10
111.335839815916
 20
-160.4949408235915
 10
111.3420409877895
 20
-160.6282660188707
 10
111.3441080450806
 20
-160.6558267827527
 10
111.3441080450806
 20
-160.7002685145124
 10
111.3568548983761
 20
-160.7615912141499
 10
111.3568548983761
 20
-160.7615912141499
 10
111.1156982144086
 20
-160.7615912141499
 10
111.1156982144086
 20
-160.7615912141499
 10
111.1411919209994
 20
-160.6368787575838
 10
111.1411919209994
 20
-160.2961588140926
 10
111.1411919209994
 20
-160.1586995042312
 10
111.1411919209994
 20
-160.1586995042312
 10
110.6988416606933
 20
-160.1586995042312
 10
110.6988416606933
 20
-160.1586995042312
 10
110.6757595209422
 20
-160.3660942524432
 10
110.6103027067224
 20
-160.6348117002927
 10
110.4132432449661
 20
-160.818779799205
 10
110.4132432449661
 20
-160.818779799205
 10
110.2251410314715
 20
-160.6961343999301
 10
110.2251410314715
 20
-160.6961343999301
 10
110.4790445687344
 20
-160.4759927984227
 10
110.5107394471987
 20
-160.1438855936446
 10
110.5107394471987
 20
-159.8117783888665
 10
110.5107394471987
 20
-159.8117783888665
 10
110.5107394471987
 20
-159.3759738099824
 10
110.5107394471987
 20
-159.3759738099824
 10
110.5107394471987
 20
-159.3401448169358
 10
110.5086723899076
 20
-159.1072563621329
 10
110.5000596511944
 20
-159.0056260453181
 10
110.6399305278956
 20
-159.0163058413223
 10
110.8810872118631
 20
-159.0163058413223
 10
111.024747693598
 20
-159.0163058413223
 10
111.024747693598
 20
-159.0163058413223
 10
111.4839789217818
 20
-159.0163058413223
 10
111.4839789217818
 20
-159.0163058413223
 10
111.4987928323684
 20
-159.0163058413223
 10
111.8477810050242
 20
-159.0163058413223
 10
112.0062553973457
 20
-159.0056260453181
 10
112.0041883400545
 20
-159.0586805157909
 10
111.9979871681811
 20
-159.219566474952
 10
111.9979871681811
 20
-159.2702093785852
 10
111.9979871681811
 20
-159.2702093785852
 10
111.9979871681811
 20
-159.8772352030863
 10
111.9979871681811
 20
-159.8772352030863
 10
111.9979871681811
 20
-159.8965277378037
 10
112.0083224546368
 20
-160.4677245692581
 10
112.0083224546368
 20
-160.5796901725287
 10
112.0083224546368
 20
-160.6368787575838
 10
112.0083224546368
 20
-160.7385090743987
 10
111.9259846725393
 20
-160.7850178634496
 97
        0
 97
        0
 92
        1
 93
        4
 72
     1
 10
111.1411919209994
 20
-159.1982068829435
 11
110.7033202848242
 21
-159.1982068829435
 72
     1
 10
110.7033202848242
 20
-159.1982068829435
 11
110.7033202848242
 21
-159.5027533238396
 72
     1
 10
110.7033202848242
 20
-159.5027533238396
 11
111.1411919209994
 21
-159.5027533238396
 72
     1
 10
111.1411919209994
 20
-159.5027533238396
 11
111.1411919209994
 21
-159.1982068829435
 97
        0
 92
        1
 93
        4
 72
     1
 10
111.1411919209994
 20
-159.6701849644227
 11
110.7033202848242
 21
-159.6701849644227
 72
     1
 10
110.7033202848242
 20
-159.6701849644227
 11
110.7033202848242
 21
-159.9788655199011
 72
     1
 10
110.7033202848242
 20
-159.9788655199011
 11
111.1411919209994
 21
-159.9788655199011
 72
     1
 10
111.1411919209994
 20
-159.9788655199011
 11
111.1411919209994
 21
-159.6701849644227
 97
        0
 92
        1
 93
        4
 72
     1
 10
111.790592419969
 20
-159.1982068829435
 11
111.3313611917852
 21
-159.1982068829435
 72
     1
 10
111.3313611917852
 20
-159.1982068829435
 11
111.3313611917852
 21
-159.5027533238396
 72
     1
 10
111.3313611917852
 20
-159.5027533238396
 11
111.790592419969
 21
-159.5027533238396
 72
     1
 10
111.790592419969
 20
-159.5027533238396
 11
111.790592419969
 21
-159.1982068829435
 97
        0
 92
        1
 93
        4
 72
     1
 10
111.790592419969
 20
-159.6701849644227
 11
111.3313611917852
 21
-159.6701849644227
 72
     1
 10
111.3313611917852
 20
-159.6701849644227
 11
111.3313611917852
 21
-159.9788655199011
 72
     1
 10
111.3313611917852
 20
-159.9788655199011
 11
111.790592419969
 21
-159.9788655199011
 72
     1
 10
111.790592419969
 20
-159.9788655199011
 11
111.790592419969
 21
-159.6701849644227
 97
        0
 75
     2
 76
     1
 98
        0
  0
SPLINE
  5
137
330
106
100
AcDbEntity
  8
_U+30EC_U+30A4_U+30E4_U+30FC 1
370
     0
100
AcDbSpline
210
0.0
220
0.0
230
1.0
 70
    11
 71
     3
 72
    44
 73
    40
 74
     0
 42
0.0000000001
 43
0.0000000001
 12
1.0
 22
0.0
 32
0.0
 13
1.0
 23
0.0
 33
0.0
 40
0.0
 40
0.0
 40
0.0
 40
0.0
 40
1.0
 40
1.0
 40
1.0
 40
2.0
 40
2.0
 40
2.0
 40
3.0
 40
3.0
 40
3.0
 40
4.0
 40
4.0
 40
4.0
 40
5.0
 40
5.0
 40
5.0
 40
6.0
 40
6.0
 40
6.0
 40
7.0
 40
7.0
 40
7.0
 40
8.0
 40
8.0
 40
8.0
 40
9.0
 40
9.0
 40
9.0
 40
10.0
 40
10.0
 40
10.0
 40
11.0
 40
11.0
 40
11.0
 40
12.0
 40
12.0
 40
12.0
 40
13.0
 40
13.0
 40
13.0
 40
13.0
 10
107.474576796048
 20
-162.0748616131271
 30
0.0
 10
107.3626111927774
 20
-162.4427978109518
 30
0.0
 10
107.3119682891442
 20
-162.6016167128218
 30
0.0
 10
107.1152533369365
 20
-162.8510416259539
 30
0.0
 10
106.9309407284756
 20
-163.0818630234656
 30
0.0
 10
106.6942626686389
 20
-163.2678981796691
 30
0.0
 10
106.4148654247852
 20
-163.3609157577709
 30
0.0
 10
106.4148654247852
 20
-163.3609157577709
 30
0.0
 10
106.2222845871597
 20
-163.1810817734408
 30
0.0
 10
106.2222845871597
 20
-163.1810817734408
 30
0.0
 10
106.8634168569647
 20
-163.0288085529928
 30
0.0
 10
107.1934570044516
 20
-162.472425632125
 30
0.0
 10
107.2568467613802
 20
-162.0324869386586
 30
0.0
 10
107.2568467613802
 20
-162.0324869386586
 30
0.0
 10
106.4910020350092
 20
-162.0324869386586
 30
0.0
 10
106.4910020350092
 20
-162.0324869386586
 30
0.0
 10
106.3979844569075
 20
-162.0324869386586
 30
0.0
 10
106.2140163579951
 20
-162.0366210532409
 30
0.0
 10
106.0572645134162
 20
-162.0555690784097
 30
0.0
 10
106.0572645134162
 20
-162.0555690784097
 30
0.0
 10
106.0572645134162
 20
-161.8357719864508
 30
0.0
 10
106.0572645134162
 20
-161.8357719864508
 30
0.0
 10
106.1440809196445
 20
-161.8567870689108
 30
0.0
 10
106.3959173996163
 20
-161.8567870689108
 30
0.0
 10
106.4951361495915
 20
-161.8567870689108
 30
0.0
 10
106.4951361495915
 20
-161.8567870689108
 30
0.0
 10
106.9268066138933
 20
-161.8567870689108
 30
0.0
 10
106.9268066138933
 20
-161.8567870689108
 30
0.0
 10
106.9691812883619
 20
-161.8567870689108
 30
0.0
 10
107.2037922909074
 20
-161.8547200116197
 30
0.0
 10
107.2420328507937
 20
-161.8485188397462
 30
0.0
 10
107.2844075252622
 20
-161.8419731583242
 30
0.0
 10
107.2864745825534
 20
-161.8399061010331
 30
0.0
 10
107.3477972821908
 20
-161.7995984838557
 30
0.0
 10
107.3477972821908
 20
-161.7995984838557
 30
0.0
 10
107.5358994956855
 20
-161.9542832711434
 30
0.0
 10
107.5358994956855
 20
-161.9542832711434
 30
0.0
 10
107.5066161840608
 20
-161.9839110923165
 30
0.0
 10
107.4918022734743
 20
-162.0156059707808
 30
0.0
 10
107.474576796048
 20
-162.0748616131271
 30
0.0
  0
SPLINE
  5
138
330
106
100
AcDbEntity
  8
_U+30EC_U+30A4_U+30E4_U+30FC 1
370
     0
100
AcDbSpline
210
0.0
220
0.0
230
1.0
 70
    11
 71
     3
 72
    17
 73
    13
 74
     0
 42
0.0000000001
 43
0.0000000001
 12
1.0
 22
0.0
 32
0.0
 13
1.0
 23
0.0
 33
0.0
 40
0.0
 40
0.0
 40
0.0
 40
0.0
 40
1.0
 40
1.0
 40
1.0
 40
2.0
 40
2.0
 40
2.0
 40
3.0
 40
3.0
 40
3.0
 40
4.0
 40
4.0
 40
4.0
 40
4.0
 10
107.6840386015512
 20
-161.8757350940797
 30
0.0
 10
107.557259087694
 20
-161.8757350940797
 30
0.0
 10
107.4556287708792
 20
-161.7744492868133
 30
0.0
 10
107.4556287708792
 20
-161.6473252634076
 30
0.0
 10
107.4556287708792
 20
-161.5205457495504
 30
0.0
 10
107.557259087694
 20
-161.4168483754444
 30
0.0
 10
107.6840386015512
 20
-161.4168483754444
 30
0.0
 10
107.8111626249569
 20
-161.4168483754444
 30
0.0
 10
107.914859999063
 20
-161.5205457495504
 30
0.0
 10
107.914859999063
 20
-161.6473252634076
 30
0.0
 10
107.914859999063
 20
-161.7744492868133
 30
0.0
 10
107.8111626249569
 20
-161.8757350940797
 30
0.0
 10
107.6840386015512
 20
-161.8757350940797
 30
0.0
  0
SPLINE
  5
139
330
106
100
AcDbEntity
  8
_U+30EC_U+30A4_U+30E4_U+30FC 1
370
     0
100
AcDbSpline
210
0.0
220
0.0
230
1.0
 70
    11
 71
     3
 72
    17
 73
    13
 74
     0
 42
0.0000000001
 43
0.0000000001
 12
1.0
 22
0.0
 32
0.0
 13
1.0
 23
0.0
 33
0.0
 40
0.0
 40
0.0
 40
0.0
 40
0.0
 40
1.0
 40
1.0
 40
1.0
 40
2.0
 40
2.0
 40
2.0
 40
3.0
 40
3.0
 40
3.0
 40
4.0
 40
4.0
 40
4.0
 40
4.0
 10
107.6819715442601
 20
-161.5456949465928
 30
0.0
 10
107.6271945260446
 20
-161.5456949465928
 30
0.0
 10
107.5827527942849
 20
-161.5901366783525
 30
0.0
 10
107.5827527942849
 20
-161.6452582061165
 30
0.0
 10
107.5827527942849
 20
-161.7024467911716
 30
0.0
 10
107.6271945260446
 20
-161.7510226375136
 30
0.0
 10
107.6861056588424
 20
-161.7510226375136
 30
0.0
 10
107.7453613011887
 20
-161.7510226375136
 30
0.0
 10
107.7856689183661
 20
-161.7003797338805
 30
0.0
 10
107.7856689183661
 20
-161.6473252634076
 30
0.0
 10
107.7856689183661
 20
-161.5901366783525
 30
0.0
 10
107.7391601293152
 20
-161.5456949465928
 30
0.0
 10
107.6819715442601
 20
-161.5456949465928
 30
0.0
  0
HATCH
  5
13A
330
106
100
AcDbEntity
  8
_U+30EC_U+30A4_U+30E4_U+30FC 1
 62
     7
420
 16777215
100
AcDbHatch
 10
0.0
 20
0.0
 30
0.0
210
0.0
220
0.0
230
1.0
  2
SOLID
 70
     1
 71
     0
 91
        3
 92
        1
 93
        1
 72
     4
 94
        3
 73
     0
 74
     1
 95
       44
 96
       40
 40
0.0
 40
0.0
 40
0.0
 40
0.0
 40
1.0
 40
1.0
 40
1.0
 40
2.0
 40
2.0
 40
2.0
 40
3.0
 40
3.0
 40
3.0
 40
4.0
 40
4.0
 40
4.0
 40
5.0
 40
5.0
 40
5.0
 40
6.0
 40
6.0
 40
6.0
 40
7.0
 40
7.0
 40
7.0
 40
8.0
 40
8.0
 40
8.0
 40
9.0
 40
9.0
 40
9.0
 40
10.0
 40
10.0
 40
10.0
 40
11.0
 40
11.0
 40
11.0
 40
12.0
 40
12.0
 40
12.0
 40
13.0
 40
13.0
 40
13.0
 40
13.0
 10
107.474576796048
 20
-162.0748616131271
 10
107.3626111927774
 20
-162.4427978109518
 10
107.3119682891442
 20
-162.6016167128218
 10
107.1152533369365
 20
-162.8510416259539
 10
106.9309407284756
 20
-163.0818630234656
 10
106.6942626686389
 20
-163.2678981796691
 10
106.4148654247852
 20
-163.3609157577709
 10
106.4148654247852
 20
-163.3609157577709
 10
106.2222845871597
 20
-163.1810817734408
 10
106.2222845871597
 20
-163.1810817734408
 10
106.8634168569647
 20
-163.0288085529928
 10
107.1934570044516
 20
-162.472425632125
 10
107.2568467613802
 20
-162.0324869386586
 10
107.2568467613802
 20
-162.0324869386586
 10
106.4910020350092
 20
-162.0324869386586
 10
106.4910020350092
 20
-162.0324869386586
 10
106.3979844569075
 20
-162.0324869386586
 10
106.2140163579951
 20
-162.0366210532409
 10
106.0572645134162
 20
-162.0555690784097
 10
106.0572645134162
 20
-162.0555690784097
 10
106.0572645134162
 20
-161.8357719864508
 10
106.0572645134162
 20
-161.8357719864508
 10
106.1440809196445
 20
-161.8567870689108
 10
106.3959173996163
 20
-161.8567870689108
 10
106.4951361495915
 20
-161.8567870689108
 10
106.4951361495915
 20
-161.8567870689108
 10
106.9268066138933
 20
-161.8567870689108
 10
106.9268066138933
 20
-161.8567870689108
 10
106.9691812883619
 20
-161.8567870689108
 10
107.2037922909074
 20
-161.8547200116197
 10
107.2420328507937
 20
-161.8485188397462
 10
107.2844075252622
 20
-161.8419731583242
 10
107.2864745825534
 20
-161.8399061010331
 10
107.3477972821908
 20
-161.7995984838557
 10
107.3477972821908
 20
-161.7995984838557
 10
107.5358994956855
 20
-161.9542832711434
 10
107.5358994956855
 20
-161.9542832711434
 10
107.5066161840608
 20
-161.9839110923165
 10
107.4918022734743
 20
-162.0156059707808
 10
107.474576796048
 20
-162.0748616131271
 97
        0
 97
        0
 92
        1
 93
        1
 72
     4
 94
        3
 73
     0
 74
     1
 95
       17
 96
       13
 40
0.0
 40
0.0
 40
0.0
 40
0.0
 40
1.0
 40
1.0
 40
1.0
 40
2.0
 40
2.0
 40
2.0
 40
3.0
 40
3.0
 40
3.0
 40
4.0
 40
4.0
 40
4.0
 40
4.0
 10
107.6840386015512
 20
-161.8757350940797
 10
107.557259087694
 20
-161.8757350940797
 10
107.4556287708792
 20
-161.7744492868133
 10
107.4556287708792
 20
-161.6473252634076
 10
107.4556287708792
 20
-161.5205457495504
 10
107.557259087694
 20
-161.4168483754444
 10
107.6840386015512
 20
-161.4168483754444
 10
107.8111626249569
 20
-161.4168483754444
 10
107.914859999063
 20
-161.5205457495504
 10
107.914859999063
 20
-161.6473252634076
 10
107.914859999063
 20
-161.7744492868133
 10
107.8111626249569
 20
-161.8757350940797
 10
107.6840386015512
 20
-161.8757350940797
 97
        0
 97
        0
 92
        1
 93
        1
 72
     4
 94
        3
 73
     0
 74
     1
 95
       17
 96
       13
 40
0.0
 40
0.0
 40
0.0
 40
0.0
 40
1.0
 40
1.0
 40
1.0
 40
2.0
 40
2.0
 40
2.0
 40
3.0
 40
3.0
 40
3.0
 40
4.0
 40
4.0
 40
4.0
 40
4.0
 10
107.6819715442601
 20
-161.5456949465928
 10
107.6271945260446
 20
-161.5456949465928
 10
107.5827527942849
 20
-161.5901366783525
 10
107.5827527942849
 20
-161.6452582061165
 10
107.5827527942849
 20
-161.7024467911716
 10
107.6271945260446
 20
-161.7510226375136
 10
107.6861056588424
 20
-161.7510226375136
 10
107.7453613011887
 20
-161.7510226375136
 10
107.7856689183661
 20
-161.7003797338805
 10
107.7856689183661
 20
-161.6473252634076
 10
107.7856689183661
 20
-161.5901366783525
 10
107.7391601293152
 20
-161.5456949465928
 10
107.6819715442601
 20
-161.5456949465928
 97
        0
 97
        0
 75
     2
 76
     1
 98
        0
  0
SPLINE
  5
13B
330
106
100
AcDbEntity
  8
_U+30EC_U+30A4_U+30E4_U+30FC 1
370
     0
100
AcDbSpline
210
0.0
220
0.0
230
1.0
 70
    11
 71
     3
 72
    50
 73
    46
 74
     0
 42
0.0000000001
 43
0.0000000001
 12
1.0
 22
0.0
 32
0.0
 13
1.0
 23
0.0
 33
0.0
 40
0.0
 40
0.0
 40
0.0
 40
0.0
 40
1.0
 40
1.0
 40
1.0
 40
2.0
 40
2.0
 40
2.0
 40
3.0
 40
3.0
 40
3.0
 40
4.0
 40
4.0
 40
4.0
 40
5.0
 40
5.0
 40
5.0
 40
6.0
 40
6.0
 40
6.0
 40
7.0
 40
7.0
 40
7.0
 40
8.0
 40
8.0
 40
8.0
 40
9.0
 40
9.0
 40
9.0
 40
10.0
 40
10.0
 40
10.0
 40
11.0
 40
11.0
 40
11.0
 40
12.0
 40
12.0
 40
12.0
 40
13.0
 40
13.0
 40
13.0
 40
14.0
 40
14.0
 40
14.0
 40
15.0
 40
15.0
 40
15.0
 40
15.0
 10
109.4792778589149
 20
-162.3835421686055
 30
0.0
 10
109.4007296818512
 20
-162.5613090956444
 30
0.0
 10
109.2653374292809
 20
-162.7687038438564
 30
0.0
 10
109.1278781194194
 20
-162.9082302110091
 30
0.0
 10
108.9587239310937
 20
-163.079451456626
 30
0.0
 10
108.7957709146413
 20
-163.1683349201454
 30
0.0
 10
108.4764105631587
 20
-163.3102728541377
 30
0.0
 10
108.4764105631587
 20
-163.3102728541377
 30
0.0
 10
108.3072563748329
 20
-163.1218261310946
 30
0.0
 10
108.3072563748329
 20
-163.1218261310946
 30
0.0
 10
108.4932915310364
 20
-163.0987439913434
 30
0.0
 10
108.6645127766533
 20
-163.0119275851151
 30
0.0
 10
108.8171305066499
 20
-162.9061631537179
 30
0.0
 10
109.0793022730774
 20
-162.7242621120967
 30
0.0
 10
109.2698160534117
 20
-162.4111029324875
 30
0.0
 10
109.3183918997537
 20
-162.2292018908663
 30
0.0
 10
109.3183918997537
 20
-162.2292018908663
 30
0.0
 10
108.6476318087756
 20
-162.2292018908663
 30
0.0
 10
108.6476318087756
 20
-162.2292018908663
 30
0.0
 10
108.4891574164541
 20
-162.2292018908663
 30
0.0
 10
108.1970133193049
 20
-162.2374701200309
 30
0.0
 10
108.0447400988569
 20
-162.2546955974572
 30
0.0
 10
108.0447400988569
 20
-162.2546955974572
 30
0.0
 10
108.0447400988569
 20
-162.0259412572366
 30
0.0
 10
108.0447400988569
 20
-162.0259412572366
 30
0.0
 10
108.0788465441609
 20
-162.0324869386586
 30
0.0
 10
108.1039957412032
 20
-162.038688110532
 30
0.0
 10
108.157050211676
 20
-162.0428222251143
 30
0.0
 10
108.2583360189424
 20
-162.0493679065363
 30
0.0
 10
108.4553954806987
 20
-162.0514349638274
 30
0.0
 10
108.5398003200873
 20
-162.0514349638274
 30
0.0
 10
108.5398003200873
 20
-162.0514349638274
 30
0.0
 10
109.045540337322
 20
-162.0514349638274
 30
0.0
 10
109.045540337322
 20
-162.0514349638274
 30
0.0
 10
109.1130642088329
 20
-162.0514349638274
 30
0.0
 10
109.2591362574074
 20
-162.0473008492451
 30
0.0
 10
109.3204589570449
 20
-162.0407551678232
 30
0.0
 10
109.3924614526866
 20
-162.0324869386586
 30
0.0
 10
109.4200222165686
 20
-162.017673028072
 30
0.0
 10
109.4537841523241
 20
-161.9942463787723
 30
0.0
 10
109.4537841523241
 20
-161.9942463787723
 30
0.0
 10
109.6188042260675
 20
-162.1613335098069
 30
0.0
 10
109.6188042260675
 20
-162.1613335098069
 30
0.0
 10
109.548868787717
 20
-162.2292018908663
 30
0.0
 10
109.5023599986661
 20
-162.3328992649723
 30
0.0
 10
109.4792778589149
 20
-162.3835421686055
 30
0.0
  0
SPLINE
  5
13C
330
106
100
AcDbEntity
  8
_U+30EC_U+30A4_U+30E4_U+30FC 1
370
     0
100
AcDbSpline
210
0.0
220
0.0
230
1.0
 70
    11
 71
     3
 72
    29
 73
    25
 74
     0
 42
0.0000000001
 43
0.0000000001
 12
1.0
 22
0.0
 32
0.0
 13
1.0
 23
0.0
 33
0.0
 40
0.0
 40
0.0
 40
0.0
 40
0.0
 40
1.0
 40
1.0
 40
1.0
 40
2.0
 40
2.0
 40
2.0
 40
3.0
 40
3.0
 40
3.0
 40
4.0
 40
4.0
 40
4.0
 40
5.0
 40
5.0
 40
5.0
 40
6.0
 40
6.0
 40
6.0
 40
7.0
 40
7.0
 40
7.0
 40
8.0
 40
8.0
 40
8.0
 40
8.0
 10
108.9862846949757
 20
-161.7575683189356
 30
0.0
 10
108.9862846949757
 20
-161.7575683189356
 30
0.0
 10
108.6455647514844
 20
-161.7575683189356
 30
0.0
 10
108.6455647514844
 20
-161.7575683189356
 30
0.0
 10
108.5315320909227
 20
-161.7575683189356
 30
0.0
 10
108.4150878635212
 20
-161.7617024335179
 30
0.0
 10
108.3007106934109
 20
-161.7765163441045
 30
0.0
 10
108.3007106934109
 20
-161.7765163441045
 30
0.0
 10
108.3007106934109
 20
-161.5670545386013
 30
0.0
 10
108.3007106934109
 20
-161.5670545386013
 30
0.0
 10
108.4192219781035
 20
-161.5818684491879
 30
0.0
 10
108.5928547905601
 20
-161.5860025637702
 30
0.0
 10
108.6455647514844
 20
-161.5860025637702
 30
0.0
 10
108.6455647514844
 20
-161.5860025637702
 30
0.0
 10
108.9862846949757
 20
-161.5860025637702
 30
0.0
 10
108.9862846949757
 20
-161.5860025637702
 30
0.0
 10
109.1027289223771
 20
-161.5860025637702
 30
0.0
 10
109.21882864023
 20
-161.5818684491879
 30
0.0
 10
109.3352728676315
 20
-161.5670545386013
 30
0.0
 10
109.3352728676315
 20
-161.5670545386013
 30
0.0
 10
109.3352728676315
 20
-161.7765163441045
 30
0.0
 10
109.3352728676315
 20
-161.7765163441045
 30
0.0
 10
109.1850667044746
 20
-161.7575683189356
 30
0.0
 10
109.0010986055622
 20
-161.7575683189356
 30
0.0
 10
108.9862846949757
 20
-161.7575683189356
 30
0.0
  0
HATCH
  5
13D
330
106
100
AcDbEntity
  8
_U+30EC_U+30A4_U+30E4_U+30FC 1
 62
     7
420
 16777215
100
AcDbHatch
 10
0.0
 20
0.0
 30
0.0
210
0.0
220
0.0
230
1.0
  2
SOLID
 70
     1
 71
     0
 91
        2
 92
        1
 93
        1
 72
     4
 94
        3
 73
     0
 74
     1
 95
       50
 96
       46
 40
0.0
 40
0.0
 40
0.0
 40
0.0
 40
1.0
 40
1.0
 40
1.0
 40
2.0
 40
2.0
 40
2.0
 40
3.0
 40
3.0
 40
3.0
 40
4.0
 40
4.0
 40
4.0
 40
5.0
 40
5.0
 40
5.0
 40
6.0
 40
6.0
 40
6.0
 40
7.0
 40
7.0
 40
7.0
 40
8.0
 40
8.0
 40
8.0
 40
9.0
 40
9.0
 40
9.0
 40
10.0
 40
10.0
 40
10.0
 40
11.0
 40
11.0
 40
11.0
 40
12.0
 40
12.0
 40
12.0
 40
13.0
 40
13.0
 40
13.0
 40
14.0
 40
14.0
 40
14.0
 40
15.0
 40
15.0
 40
15.0
 40
15.0
 10
109.4792778589149
 20
-162.3835421686055
 10
109.4007296818512
 20
-162.5613090956444
 10
109.2653374292809
 20
-162.7687038438564
 10
109.1278781194194
 20
-162.9082302110091
 10
108.9587239310937
 20
-163.079451456626
 10
108.7957709146413
 20
-163.1683349201454
 10
108.4764105631587
 20
-163.3102728541377
 10
108.4764105631587
 20
-163.3102728541377
 10
108.3072563748329
 20
-163.1218261310946
 10
108.3072563748329
 20
-163.1218261310946
 10
108.4932915310364
 20
-163.0987439913434
 10
108.6645127766533
 20
-163.0119275851151
 10
108.8171305066499
 20
-162.9061631537179
 10
109.0793022730774
 20
-162.7242621120967
 10
109.2698160534117
 20
-162.4111029324875
 10
109.3183918997537
 20
-162.2292018908663
 10
109.3183918997537
 20
-162.2292018908663
 10
108.6476318087756
 20
-162.2292018908663
 10
108.6476318087756
 20
-162.2292018908663
 10
108.4891574164541
 20
-162.2292018908663
 10
108.1970133193049
 20
-162.2374701200309
 10
108.0447400988569
 20
-162.2546955974572
 10
108.0447400988569
 20
-162.2546955974572
 10
108.0447400988569
 20
-162.0259412572366
 10
108.0447400988569
 20
-162.0259412572366
 10
108.0788465441609
 20
-162.0324869386586
 10
108.1039957412032
 20
-162.038688110532
 10
108.157050211676
 20
-162.0428222251143
 10
108.2583360189424
 20
-162.0493679065363
 10
108.4553954806987
 20
-162.0514349638274
 10
108.5398003200873
 20
-162.0514349638274
 10
108.5398003200873
 20
-162.0514349638274
 10
109.045540337322
 20
-162.0514349638274
 10
109.045540337322
 20
-162.0514349638274
 10
109.1130642088329
 20
-162.0514349638274
 10
109.2591362574074
 20
-162.0473008492451
 10
109.3204589570449
 20
-162.0407551678232
 10
109.3924614526866
 20
-162.0324869386586
 10
109.4200222165686
 20
-162.017673028072
 10
109.4537841523241
 20
-161.9942463787723
 10
109.4537841523241
 20
-161.9942463787723
 10
109.6188042260675
 20
-162.1613335098069
 10
109.6188042260675
 20
-162.1613335098069
 10
109.548868787717
 20
-162.2292018908663
 10
109.5023599986661
 20
-162.3328992649723
 10
109.4792778589149
 20
-162.3835421686055
 97
        0
 97
        0
 92
        1
 93
        1
 72
     4
 94
        3
 73
     0
 74
     1
 95
       29
 96
       25
 40
0.0
 40
0.0
 40
0.0
 40
0.0
 40
1.0
 40
1.0
 40
1.0
 40
2.0
 40
2.0
 40
2.0
 40
3.0
 40
3.0
 40
3.0
 40
4.0
 40
4.0
 40
4.0
 40
5.0
 40
5.0
 40
5.0
 40
6.0
 40
6.0
 40
6.0
 40
7.0
 40
7.0
 40
7.0
 40
8.0
 40
8.0
 40
8.0
 40
8.0
 10
108.9862846949757
 20
-161.7575683189356
 10
108.9862846949757
 20
-161.7575683189356
 10
108.6455647514844
 20
-161.7575683189356
 10
108.6455647514844
 20
-161.7575683189356
 10
108.5315320909227
 20
-161.7575683189356
 10
108.4150878635212
 20
-161.7617024335179
 10
108.3007106934109
 20
-161.7765163441045
 10
108.3007106934109
 20
-161.7765163441045
 10
108.3007106934109
 20
-161.5670545386013
 10
108.3007106934109
 20
-161.5670545386013
 10
108.4192219781035
 20
-161.5818684491879
 10
108.5928547905601
 20
-161.5860025637702
 10
108.6455647514844
 20
-161.5860025637702
 10
108.6455647514844
 20
-161.5860025637702
 10
108.9862846949757
 20
-161.5860025637702
 10
108.9862846949757
 20
-161.5860025637702
 10
109.1027289223771
 20
-161.5860025637702
 10
109.21882864023
 20
-161.5818684491879
 10
109.3352728676315
 20
-161.5670545386013
 10
109.3352728676315
 20
-161.5670545386013
 10
109.3352728676315
 20
-161.7765163441045
 10
109.3352728676315
 20
-161.7765163441045
 10
109.1850667044746
 20
-161.7575683189356
 10
109.0010986055622
 20
-161.7575683189356
 10
108.9862846949757
 20
-161.7575683189356
 97
        0
 97
        0
 75
     2
 76
     1
 98
        0
  0
SPLINE
  5
13E
330
106
100
AcDbEntity
  8
_U+30EC_U+30A4_U+30E4_U+30FC 1
370
     0
100
AcDbSpline
210
0.0
220
0.0
230
1.0
 70
    11
 71
     3
 72
    50
 73
    46
 74
     0
 42
0.0000000001
 43
0.0000000001
 12
1.0
 22
0.0
 32
0.0
 13
1.0
 23
0.0
 33
0.0
 40
0.0
 40
0.0
 40
0.0
 40
0.0
 40
1.0
 40
1.0
 40
1.0
 40
2.0
 40
2.0
 40
2.0
 40
3.0
 40
3.0
 40
3.0
 40
4.0
 40
4.0
 40
4.0
 40
5.0
 40
5.0
 40
5.0
 40
6.0
 40
6.0
 40
6.0
 40
7.0
 40
7.0
 40
7.0
 40
8.0
 40
8.0
 40
8.0
 40
9.0
 40
9.0
 40
9.0
 40
10.0
 40
10.0
 40
10.0
 40
11.0
 40
11.0
 40
11.0
 40
12.0
 40
12.0
 40
12.0
 40
13.0
 40
13.0
 40
13.0
 40
14.0
 40
14.0
 40
14.0
 40
15.0
 40
15.0
 40
15.0
 40
15.0
 10
111.1894232577929
 20
-161.742754408349
 30
0.0
 10
110.9799614522897
 20
-161.9563503284345
 30
0.0
 10
110.9083034661965
 20
-162.0283528240763
 30
0.0
 10
110.7663655322042
 20
-162.1465195992203
 30
0.0
 10
110.7663655322042
 20
-162.1465195992203
 30
0.0
 10
110.7663655322042
 20
-162.7135823160924
 30
0.0
 10
110.7663655322042
 20
-162.7135823160924
 30
0.0
 10
110.7663655322042
 20
-162.8637884792493
 30
0.0
 10
110.7729112136262
 20
-162.8827365044182
 30
0.0
 10
110.7770453282085
 20
-163.0605034314571
 30
0.0
 10
110.7791123854997
 20
-163.1917615694451
 30
0.0
 10
110.7853135573731
 20
-163.2403374157871
 30
0.0
 10
110.7918592387951
 20
-163.2995930581334
 30
0.0
 10
110.7918592387951
 20
-163.2995930581334
 30
0.0
 10
110.5655164654142
 20
-163.2995930581334
 30
0.0
 10
110.5655164654142
 20
-163.2995930581334
 30
0.0
 10
110.5696505799965
 20
-163.2551513263737
 30
0.0
 10
110.5737846945788
 20
-163.2086425373228
 30
0.0
 10
110.5737846945788
 20
-163.2000297986097
 30
0.0
 10
110.5737846945788
 20
-163.1197590738034
 30
0.0
 10
110.5782633187096
 20
-162.7687038438564
 30
0.0
 10
110.5782633187096
 20
-162.6967013482147
 30
0.0
 10
110.5782633187096
 20
-162.6967013482147
 30
0.0
 10
110.5782633187096
 20
-162.2905245905038
 30
0.0
 10
110.5782633187096
 20
-162.2905245905038
 30
0.0
 10
110.3963622770884
 20
-162.4152370470698
 30
0.0
 10
110.2017143821718
 20
-162.5254801025978
 30
0.0
 10
109.9984537485421
 20
-162.6119519992776
 30
0.0
 10
109.9984537485421
 20
-162.6119519992776
 30
0.0
 10
109.7955376244608
 20
-162.4489989828253
 30
0.0
 10
109.7955376244608
 20
-162.4489989828253
 30
0.0
 10
109.9181830237357
 20
-162.4131699897787
 30
0.0
 10
110.1741536182898
 20
-162.3391004368458
 30
0.0
 10
110.5190076763633
 20
-162.0831298422917
 30
0.0
 10
110.73467065374
 20
-161.9246554499702
 30
0.0
 10
110.9272514913654
 20
-161.7362087269271
 30
0.0
 10
111.0795247118135
 20
-161.5160671254196
 30
0.0
 10
111.0795247118135
 20
-161.5160671254196
 30
0.0
 10
111.2721055494389
 20
-161.660072116703
 30
0.0
 10
111.2721055494389
 20
-161.660072116703
 30
0.0
 10
111.2848524027343
 20
-161.6707519127073
 30
0.0
 10
111.2931206318989
 20
-161.6855658232939
 30
0.0
 10
111.2931206318989
 20
-161.6983126765893
 30
0.0
 10
111.2931206318989
 20
-161.7382757842182
 30
0.0
 10
111.2552245815612
 20
-161.7382757842182
 30
0.0
 10
111.1894232577929
 20
-161.742754408349
 30
0.0
  0
HATCH
  5
13F
330
106
100
AcDbEntity
  8
_U+30EC_U+30A4_U+30E4_U+30FC 1
 62
     7
420
 16777215
100
AcDbHatch
 10
0.0
 20
0.0
 30
0.0
210
0.0
220
0.0
230
1.0
  2
SOLID
 70
     1
 71
     0
 91
        1
 92
        1
 93
        1
 72
     4
 94
        3
 73
     0
 74
     1
 95
       50
 96
       46
 40
0.0
 40
0.0
 40
0.0
 40
0.0
 40
1.0
 40
1.0
 40
1.0
 40
2.0
 40
2.0
 40
2.0
 40
3.0
 40
3.0
 40
3.0
 40
4.0
 40
4.0
 40
4.0
 40
5.0
 40
5.0
 40
5.0
 40
6.0
 40
6.0
 40
6.0
 40
7.0
 40
7.0
 40
7.0
 40
8.0
 40
8.0
 40
8.0
 40
9.0
 40
9.0
 40
9.0
 40
10.0
 40
10.0
 40
10.0
 40
11.0
 40
11.0
 40
11.0
 40
12.0
 40
12.0
 40
12.0
 40
13.0
 40
13.0
 40
13.0
 40
14.0
 40
14.0
 40
14.0
 40
15.0
 40
15.0
 40
15.0
 40
15.0
 10
111.1894232577929
 20
-161.742754408349
 10
110.9799614522897
 20
-161.9563503284345
 10
110.9083034661965
 20
-162.0283528240763
 10
110.7663655322042
 20
-162.1465195992203
 10
110.7663655322042
 20
-162.1465195992203
 10
110.7663655322042
 20
-162.7135823160924
 10
110.7663655322042
 20
-162.7135823160924
 10
110.7663655322042
 20
-162.8637884792493
 10
110.7729112136262
 20
-162.8827365044182
 10
110.7770453282085
 20
-163.0605034314571
 10
110.7791123854997
 20
-163.1917615694451
 10
110.7853135573731
 20
-163.2403374157871
 10
110.7918592387951
 20
-163.2995930581334
 10
110.7918592387951
 20
-163.2995930581334
 10
110.5655164654142
 20
-163.2995930581334
 10
110.5655164654142
 20
-163.2995930581334
 10
110.5696505799965
 20
-163.2551513263737
 10
110.5737846945788
 20
-163.2086425373228
 10
110.5737846945788
 20
-163.2000297986097
 10
110.5737846945788
 20
-163.1197590738034
 10
110.5782633187096
 20
-162.7687038438564
 10
110.5782633187096
 20
-162.6967013482147
 10
110.5782633187096
 20
-162.6967013482147
 10
110.5782633187096
 20
-162.2905245905038
 10
110.5782633187096
 20
-162.2905245905038
 10
110.3963622770884
 20
-162.4152370470698
 10
110.2017143821718
 20
-162.5254801025978
 10
109.9984537485421
 20
-162.6119519992776
 10
109.9984537485421
 20
-162.6119519992776
 10
109.7955376244608
 20
-162.4489989828253
 10
109.7955376244608
 20
-162.4489989828253
 10
109.9181830237357
 20
-162.4131699897787
 10
110.1741536182898
 20
-162.3391004368458
 10
110.5190076763633
 20
-162.0831298422917
 10
110.73467065374
 20
-161.9246554499702
 10
110.9272514913654
 20
-161.7362087269271
 10
111.0795247118135
 20
-161.5160671254196
 10
111.0795247118135
 20
-161.5160671254196
 10
111.2721055494389
 20
-161.660072116703
 10
111.2721055494389
 20
-161.660072116703
 10
111.2848524027343
 20
-161.6707519127073
 10
111.2931206318989
 20
-161.6855658232939
 10
111.2931206318989
 20
-161.6983126765893
 10
111.2931206318989
 20
-161.7382757842182
 10
111.2552245815612
 20
-161.7382757842182
 10
111.1894232577929
 20
-161.742754408349
 97
        0
 97
        0
 75
     2
 76
     1
 98
        0
  0
SPLINE
  5
140
330
106
100
AcDbEntity
  8
_U+30EC_U+30A4_U+30E4_U+30FC 1
370
     0
100
AcDbSpline
210
0.0
220
0.0
230
1.0
 70
    11
 71
     3
 72
    50
 73
    46
 74
     0
 42
0.0000000001
 43
0.0000000001
 12
1.0
 22
0.0
 32
0.0
 13
1.0
 23
0.0
 33
0.0
 40
0.0
 40
0.0
 40
0.0
 40
0.0
 40
1.0
 40
1.0
 40
1.0
 40
2.0
 40
2.0
 40
2.0
 40
3.0
 40
3.0
 40
3.0
 40
4.0
 40
4.0
 40
4.0
 40
5.0
 40
5.0
 40
5.0
 40
6.0
 40
6.0
 40
6.0
 40
7.0
 40
7.0
 40
7.0
 40
8.0
 40
8.0
 40
8.0
 40
9.0
 40
9.0
 40
9.0
 40
10.0
 40
10.0
 40
10.0
 40
11.0
 40
11.0
 40
11.0
 40
12.0
 40
12.0
 40
12.0
 40
13.0
 40
13.0
 40
13.0
 40
14.0
 40
14.0
 40
14.0
 40
15.0
 40
15.0
 40
15.0
 40
15.0
 10
112.8978461089283
 20
-162.2695095080437
 30
0.0
 10
112.8365234092909
 20
-162.3411674941369
 30
0.0
 10
112.576074190606
 20
-162.6584607883285
 30
0.0
 10
112.5192301150994
 20
-162.7221950548056
 30
0.0
 10
112.603634954488
 20
-162.8193467474896
 30
0.0
 10
112.6546223676697
 20
-162.8827365044182
 30
0.0
 10
112.7200791818894
 20
-162.9736870252288
 30
0.0
 10
112.7200791818894
 20
-162.9736870252288
 30
0.0
 10
112.5361110829771
 20
-163.1114908446388
 30
0.0
 10
112.5361110829771
 20
-163.1114908446388
 30
0.0
 10
112.4007188304068
 20
-162.8996174722959
 30
0.0
 10
112.2291530752413
 20
-162.6756862657547
 30
0.0
 10
111.9352864303495
 20
-162.4765597467073
 30
0.0
 10
111.9352864303495
 20
-162.4765597467073
 30
0.0
 10
112.0834255362153
 20
-162.3222194689681
 30
0.0
 10
112.0834255362153
 20
-162.3222194689681
 30
0.0
 10
112.1933240821947
 20
-162.4024901937744
 30
0.0
 10
112.2970214563008
 20
-162.4913736572938
 30
0.0
 10
112.3941731489848
 20
-162.5868028022352
 30
0.0
 10
112.4620415300442
 20
-162.5106661920112
 30
0.0
 10
112.6649576541254
 20
-162.2670979412041
 30
0.0
 10
112.7982828494046
 20
-162.038688110532
 30
0.0
 10
112.7982828494046
 20
-162.038688110532
 30
0.0
 10
112.1254557011353
 20
-162.038688110532
 30
0.0
 10
112.1254557011353
 20
-162.038688110532
 30
0.0
 10
112.0007432445693
 20
-162.038688110532
 30
0.0
 10
111.7489067645975
 20
-162.0473008492451
 30
0.0
 10
111.5394449590943
 20
-162.0576361357009
 30
0.0
 10
111.5394449590943
 20
-162.0576361357009
 30
0.0
 10
111.5394449590943
 20
-161.8378390437419
 30
0.0
 10
111.5394449590943
 20
-161.8378390437419
 30
0.0
 10
111.7237575675552
 20
-161.8567870689108
 30
0.0
 10
111.9287407489275
 20
-161.8609211834931
 30
0.0
 10
112.1171874719707
 20
-161.8609211834931
 30
0.0
 10
112.1171874719707
 20
-161.8609211834931
 30
0.0
 10
112.6205159223657
 20
-161.8609211834931
 30
0.0
 10
112.6205159223657
 20
-161.8609211834931
 30
0.0
 10
112.9591688085658
 20
-161.8609211834931
 30
0.0
 10
113.0036105403255
 20
-161.8461072729065
 30
0.0
 10
113.085948322423
 20
-161.8061441652776
 30
0.0
 10
113.085948322423
 20
-161.8061441652776
 30
0.0
 10
113.2530354534576
 20
-161.9646185575991
 30
0.0
 10
113.2530354534576
 20
-161.9646185575991
 30
0.0
 10
113.1007622330095
 20
-162.0366210532409
 30
0.0
 10
112.9571017512746
 20
-162.1995740696932
 30
0.0
 10
112.8978461089283
 20
-162.2695095080437
 30
0.0
  0
HATCH
  5
141
330
106
100
AcDbEntity
  8
_U+30EC_U+30A4_U+30E4_U+30FC 1
 62
     7
420
 16777215
100
AcDbHatch
 10
0.0
 20
0.0
 30
0.0
210
0.0
220
0.0
230
1.0
  2
SOLID
 70
     1
 71
     0
 91
        1
 92
        1
 93
        1
 72
     4
 94
        3
 73
     0
 74
     1
 95
       50
 96
       46
 40
0.0
 40
0.0
 40
0.0
 40
0.0
 40
1.0
 40
1.0
 40
1.0
 40
2.0
 40
2.0
 40
2.0
 40
3.0
 40
3.0
 40
3.0
 40
4.0
 40
4.0
 40
4.0
 40
5.0
 40
5.0
 40
5.0
 40
6.0
 40
6.0
 40
6.0
 40
7.0
 40
7.0
 40
7.0
 40
8.0
 40
8.0
 40
8.0
 40
9.0
 40
9.0
 40
9.0
 40
10.0
 40
10.0
 40
10.0
 40
11.0
 40
11.0
 40
11.0
 40
12.0
 40
12.0
 40
12.0
 40
13.0
 40
13.0
 40
13.0
 40
14.0
 40
14.0
 40
14.0
 40
15.0
 40
15.0
 40
15.0
 40
15.0
 10
112.8978461089283
 20
-162.2695095080437
 10
112.8365234092909
 20
-162.3411674941369
 10
112.576074190606
 20
-162.6584607883285
 10
112.5192301150994
 20
-162.7221950548056
 10
112.603634954488
 20
-162.8193467474896
 10
112.6546223676697
 20
-162.8827365044182
 10
112.7200791818894
 20
-162.9736870252288
 10
112.7200791818894
 20
-162.9736870252288
 10
112.5361110829771
 20
-163.1114908446388
 10
112.5361110829771
 20
-163.1114908446388
 10
112.4007188304068
 20
-162.8996174722959
 10
112.2291530752413
 20
-162.6756862657547
 10
111.9352864303495
 20
-162.4765597467073
 10
111.9352864303495
 20
-162.4765597467073
 10
112.0834255362153
 20
-162.3222194689681
 10
112.0834255362153
 20
-162.3222194689681
 10
112.1933240821947
 20
-162.4024901937744
 10
112.2970214563008
 20
-162.4913736572938
 10
112.3941731489848
 20
-162.5868028022352
 10
112.4620415300442
 20
-162.5106661920112
 10
112.6649576541254
 20
-162.2670979412041
 10
112.7982828494046
 20
-162.038688110532
 10
112.7982828494046
 20
-162.038688110532
 10
112.1254557011353
 20
-162.038688110532
 10
112.1254557011353
 20
-162.038688110532
 10
112.0007432445693
 20
-162.038688110532
 10
111.7489067645975
 20
-162.0473008492451
 10
111.5394449590943
 20
-162.0576361357009
 10
111.5394449590943
 20
-162.0576361357009
 10
111.5394449590943
 20
-161.8378390437419
 10
111.5394449590943
 20
-161.8378390437419
 10
111.7237575675552
 20
-161.8567870689108
 10
111.9287407489275
 20
-161.8609211834931
 10
112.1171874719707
 20
-161.8609211834931
 10
112.1171874719707
 20
-161.8609211834931
 10
112.6205159223657
 20
-161.8609211834931
 10
112.6205159223657
 20
-161.8609211834931
 10
112.9591688085658
 20
-161.8609211834931
 10
113.0036105403255
 20
-161.8461072729065
 10
113.085948322423
 20
-161.8061441652776
 10
113.085948322423
 20
-161.8061441652776
 10
113.2530354534576
 20
-161.9646185575991
 10
113.2530354534576
 20
-161.9646185575991
 10
113.1007622330095
 20
-162.0366210532409
 10
112.9571017512746
 20
-162.1995740696932
 10
112.8978461089283
 20
-162.2695095080437
 97
        0
 97
        0
 75
     2
 76
     1
 98
        0
  0
SPLINE
  5
142
330
106
100
AcDbEntity
  8
_U+30EC_U+30A4_U+30E4_U+30FC 1
370
     0
100
AcDbSpline
210
0.0
220
0.0
230
1.0
 70
    11
 71
     3
 72
    29
 73
    25
 74
     0
 42
0.0000000001
 43
0.0000000001
 12
1.0
 22
0.0
 32
0.0
 13
1.0
 23
0.0
 33
0.0
 40
0.0
 40
0.0
 40
0.0
 40
0.0
 40
1.0
 40
1.0
 40
1.0
 40
2.0
 40
2.0
 40
2.0
 40
3.0
 40
3.0
 40
3.0
 40
4.0
 40
4.0
 40
4.0
 40
5.0
 40
5.0
 40
5.0
 40
6.0
 40
6.0
 40
6.0
 40
7.0
 40
7.0
 40
7.0
 40
8.0
 40
8.0
 40
8.0
 40
8.0
 10
114.5215196111266
 20
-162.5127332493024
 30
0.0
 10
114.5215196111266
 20
-162.5127332493024
 30
0.0
 10
114.0371391859004
 20
-162.5127332493024
 30
0.0
 10
114.0371391859004
 20
-162.5127332493024
 30
0.0
 10
114.0095784220184
 20
-162.5127332493024
 30
0.0
 10
113.6922851278269
 20
-162.5127332493024
 30
0.0
 10
113.4807562650326
 20
-162.5378824463447
 30
0.0
 10
113.4807562650326
 20
-162.5378824463447
 30
0.0
 10
113.4807562650326
 20
-162.3074055583815
 30
0.0
 10
113.4807562650326
 20
-162.3074055583815
 30
0.0
 10
113.6392306573541
 20
-162.3308322076812
 30
0.0
 10
113.8297444376884
 20
-162.3328992649723
 30
0.0
 10
114.0371391859004
 20
-162.3328992649723
 30
0.0
 10
114.0371391859004
 20
-162.3328992649723
 30
0.0
 10
114.5215196111266
 20
-162.3328992649723
 30
0.0
 10
114.5215196111266
 20
-162.3328992649723
 30
0.0
 10
114.7075547673301
 20
-162.3328992649723
 30
0.0
 10
114.8939344330821
 20
-162.3308322076812
 30
0.0
 10
115.0779025319944
 20
-162.3074055583815
 30
0.0
 10
115.0779025319944
 20
-162.3074055583815
 30
0.0
 10
115.0779025319944
 20
-162.5378824463447
 30
0.0
 10
115.0779025319944
 20
-162.5378824463447
 30
0.0
 10
114.8939344330821
 20
-162.5148003065935
 30
0.0
 10
114.6462320676926
 20
-162.5127332493024
 30
0.0
 10
114.5215196111266
 20
-162.5127332493024
 30
0.0
  0
HATCH
  5
143
330
106
100
AcDbEntity
  8
_U+30EC_U+30A4_U+30E4_U+30FC 1
 62
     7
420
 16777215
100
AcDbHatch
 10
0.0
 20
0.0
 30
0.0
210
0.0
220
0.0
230
1.0
  2
SOLID
 70
     1
 71
     0
 91
        1
 92
        1
 93
        1
 72
     4
 94
        3
 73
     0
 74
     1
 95
       29
 96
       25
 40
0.0
 40
0.0
 40
0.0
 40
0.0
 40
1.0
 40
1.0
 40
1.0
 40
2.0
 40
2.0
 40
2.0
 40
3.0
 40
3.0
 40
3.0
 40
4.0
 40
4.0
 40
4.0
 40
5.0
 40
5.0
 40
5.0
 40
6.0
 40
6.0
 40
6.0
 40
7.0
 40
7.0
 40
7.0
 40
8.0
 40
8.0
 40
8.0
 40
8.0
 10
114.5215196111266
 20
-162.5127332493024
 10
114.5215196111266
 20
-162.5127332493024
 10
114.0371391859004
 20
-162.5127332493024
 10
114.0371391859004
 20
-162.5127332493024
 10
114.0095784220184
 20
-162.5127332493024
 10
113.6922851278269
 20
-162.5127332493024
 10
113.4807562650326
 20
-162.5378824463447
 10
113.4807562650326
 20
-162.5378824463447
 10
113.4807562650326
 20
-162.3074055583815
 10
113.4807562650326
 20
-162.3074055583815
 10
113.6392306573541
 20
-162.3308322076812
 10
113.8297444376884
 20
-162.3328992649723
 10
114.0371391859004
 20
-162.3328992649723
 10
114.0371391859004
 20
-162.3328992649723
 10
114.5215196111266
 20
-162.3328992649723
 10
114.5215196111266
 20
-162.3328992649723
 10
114.7075547673301
 20
-162.3328992649723
 10
114.8939344330821
 20
-162.3308322076812
 10
115.0779025319944
 20
-162.3074055583815
 10
115.0779025319944
 20
-162.3074055583815
 10
115.0779025319944
 20
-162.5378824463447
 10
115.0779025319944
 20
-162.5378824463447
 10
114.8939344330821
 20
-162.5148003065935
 10
114.6462320676926
 20
-162.5127332493024
 10
114.5215196111266
 20
-162.5127332493024
 97
        0
 97
        0
 75
     2
 76
     1
 98
        0
  0
ENDBLK
  5
109
330
106
100
AcDbEntity
  8
0
100
AcDbBlockEnd
  0
ENDSEC
  0
SECTION
  2
ENTITIES
  0
POLYLINE
  5
41
330
1F
100
AcDbEntity
  8
_U+30EC_U+30A4_U+30E4_U+30FC 1
 62
     7
420
 16777215
370
    25
100
AcDb2dPolyline
 66
     1
 10
0.0
 20
0.0
 30
0.0
  0
VERTEX
  5
42
330
41
100
AcDbEntity
  8
_U+30EC_U+30A4_U+30E4_U+30FC 1
 62
     7
420
 16777215
370
    25
100
AcDbVertex
100
AcDb2dVertex
 10
87.02586583534075
 20
-140.4724069093265
 30
0.0
  0
VERTEX
  5
43
330
41
100
AcDbEntity
  8
_U+30EC_U+30A4_U+30E4_U+30FC 1
 62
     7
420
 16777215
370
    25
100
AcDbVertex
100
AcDb2dVertex
 10
94.02561176787347
 20
-140.4724069093265
 30
0.0
  0
SEQEND
  5
44
330
41
100
AcDbEntity
  8
_U+30EC_U+30A4_U+30E4_U+30FC 1
 62
     7
420
 16777215
370
    25
  0
POLYLINE
  5
45
330
1F
100
AcDbEntity
  8
_U+30EC_U+30A4_U+30E4_U+30FC 1
 62
     7
420
 16777215
370
    25
100
AcDb2dPolyline
 66
     1
 10
0.0
 20
0.0
 30
0.0
  0
VERTEX
  5
46
330
45
100
AcDbEntity
  8
_U+30EC_U+30A4_U+30E4_U+30FC 1
 62
     7
420
 16777215
370
    25
100
AcDbVertex
100
AcDb2dVertex
 10
118.0255067111407
 20
-140.4724069093265
 30
0.0
  0
VERTEX
  5
47
330
45
100
AcDbEntity
  8
_U+30EC_U+30A4_U+30E4_U+30FC 1
 62
     7
420
 16777215
370
    25
100
AcDbVertex
100
AcDb2dVertex
 10
118.0255067111407
 20
-141.4721438535209
 30
0.0
  0
SEQEND
  5
48
330
45
100
AcDbEntity
  8
_U+30EC_U+30A4_U+30E4_U+30FC 1
 62
     7
420
 16777215
370
    25
  0
POLYLINE
  5
49
330
1F
100
AcDbEntity
  8
_U+30EC_U+30A4_U+30E4_U+30FC 1
 62
     7
420
 16777215
370
    25
100
AcDb2dPolyline
 66
     1
 10
0.0
 20
0.0
 30
0.0
  0
VERTEX
  5
4A
330
49
100
AcDbEntity
  8
_U+30EC_U+30A4_U+30E4_U+30FC 1
 62
     7
420
 16777215
370
    25
100
AcDbVertex
100
AcDb2dVertex
 10
96.02582643906597
 20
-141.4721438535209
 30
0.0
  0
VERTEX
  5
4B
330
49
100
AcDbEntity
  8
_U+30EC_U+30A4_U+30E4_U+30FC 1
 62
     7
420
 16777215
370
    25
100
AcDbVertex
100
AcDb2dVertex
 10
118.0255067111407
 20
-141.4721438535209
 30
0.0
  0
SEQEND
  5
4C
330
49
100
AcDbEntity
  8
_U+30EC_U+30A4_U+30E4_U+30FC 1
 62
     7
420
 16777215
370
    25
  0
POLYLINE
  5
4D
330
1F
100
AcDbEntity
  8
_U+30EC_U+30A4_U+30E4_U+30FC 1
 62
     7
420
 16777215
370
    25
100
AcDb2dPolyline
 66
     1
 10
0.0
 20
0.0
 30
0.0
  0
VERTEX
  5
4E
330
4D
100
AcDbEntity
  8
_U+30EC_U+30A4_U+30E4_U+30FC 1
 62
     7
420
 16777215
370
    25
100
AcDbVertex
100
AcDb2dVertex
 10
93.02583957115756
 20
-141.4721438535209
 30
0.0
  0
VERTEX
  5
4F
330
4D
100
AcDbEntity
  8
_U+30EC_U+30A4_U+30E4_U+30FC 1
 62
     7
420
 16777215
370
    25
100
AcDbVertex
100
AcDb2dVertex
 10
93.02583957115756
 20
-155.4723416277988
 30
0.0
  0
SEQEND
  5
50
330
4D
100
AcDbEntity
  8
_U+30EC_U+30A4_U+30E4_U+30FC 1
 62
     7
420
 16777215
370
    25
  0
POLYLINE
  5
51
330
1F
100
AcDbEntity
  8
_U+30EC_U+30A4_U+30E4_U+30FC 1
 62
     7
420
 16777215
370
    25
100
AcDb2dPolyline
 66
     1
 10
0.0
 20
0.0
 30
0.0
  0
VERTEX
  5
52
330
51
100
AcDbEntity
  8
_U+30EC_U+30A4_U+30E4_U+30FC 1
 62
     7
420
 16777215
370
    25
100
AcDbVertex
100
AcDb2dVertex
 10
103.0255749742437
 20
-154.4725694058263
 30
0.0
  0
VERTEX
  5
53
330
51
100
AcDbEntity
  8
_U+30EC_U+30A4_U+30E4_U+30FC 1
 62
     7
420
 16777215
370
    25
100
AcDbVertex
100
AcDb2dVertex
 10
103.0255749742437
 20
-154.9721027390345
 30
0.0
  0
SEQEND
  5
54
330
51
100
AcDbEntity
  8
_U+30EC_U+30A4_U+30E4_U+30FC 1
 62
     7
420
 16777215
370
    25
  0
POLYLINE
  5
55
330
1F
100
AcDbEntity
  8
_U+30EC_U+30A4_U+30E4_U+30FC 1
 62
     7
420
 16777215
370
    25
100
AcDb2dPolyline
 66
     1
 10
0.0
 20
0.0
 30
0.0
  0
VERTEX
  5
56
330
55
100
AcDbEntity
  8
_U+30EC_U+30A4_U+30E4_U+30FC 1
 62
     7
420
 16777215
370
    25
100
AcDbVertex
100
AcDb2dVertex
 10
96.02582643906597
 20
-154.4725694058263
 30
0.0
  0
VERTEX
  5
57
330
55
100
AcDbEntity
  8
_U+30EC_U+30A4_U+30E4_U+30FC 1
 62
     7
420
 16777215
370
    25
100
AcDbVertex
100
AcDb2dVertex
 10
103.0255749742437
 20
-154.4725694058263
 30
0.0
  0
SEQEND
  5
58
330
55
100
AcDbEntity
  8
_U+30EC_U+30A4_U+30E4_U+30FC 1
 62
     7
420
 16777215
370
    25
  0
POLYLINE
  5
59
330
1F
100
AcDbEntity
  8
_U+30EC_U+30A4_U+30E4_U+30FC 1
 62
     7
420
 16777215
370
    25
100
AcDb2dPolyline
 66
     1
 10
0.0
 20
0.0
 30
0.0
  0
VERTEX
  5
5A
330
59
100
AcDbEntity
  8
_U+30EC_U+30A4_U+30E4_U+30FC 1
 62
     7
420
 16777215
370
    25
100
AcDbVertex
100
AcDb2dVertex
 10
95.02605424235006
 20
-140.4724069093265
 30
0.0
  0
VERTEX
  5
5B
330
59
100
AcDbEntity
  8
_U+30EC_U+30A4_U+30E4_U+30FC 1
 62
     7
420
 16777215
370
    25
100
AcDbVertex
100
AcDb2dVertex
 10
118.0255067111407
 20
-140.4724069093265
 30
0.0
  0
SEQEND
  5
5C
330
59
100
AcDbEntity
  8
_U+30EC_U+30A4_U+30E4_U+30FC 1
 62
     7
420
 16777215
370
    25
  0
POLYLINE
  5
5D
330
1F
100
AcDbEntity
  8
_U+30EC_U+30A4_U+30E4_U+30FC 1
 62
     7
420
 16777215
370
    25
100
AcDb2dPolyline
 66
     1
 10
0.0
 20
0.0
 30
0.0
  0
VERTEX
  5
5E
330
5D
100
AcDbEntity
  8
_U+30EC_U+30A4_U+30E4_U+30FC 1
 62
     7
420
 16777215
370
    25
100
AcDbVertex
100
AcDb2dVertex
 10
94.02561176787347
 20
-140.4724069093265
 30
0.0
  0
VERTEX
  5
5F
330
5D
100
AcDbEntity
  8
_U+30EC_U+30A4_U+30E4_U+30FC 1
 62
     7
420
 16777215
370
    25
100
AcDbVertex
100
AcDb2dVertex
 10
94.02561176787347
 20
-154.4725694058263
 30
0.0
  0
SEQEND
  5
60
330
5D
100
AcDbEntity
  8
_U+30EC_U+30A4_U+30E4_U+30FC 1
 62
     7
420
 16777215
370
    25
  0
POLYLINE
  5
61
330
1F
100
AcDbEntity
  8
_U+30EC_U+30A4_U+30E4_U+30FC 1
 62
     7
420
 16777215
370
    25
100
AcDb2dPolyline
 66
     1
 10
0.0
 20
0.0
 30
0.0
  0
VERTEX
  5
62
330
61
100
AcDbEntity
  8
_U+30EC_U+30A4_U+30E4_U+30FC 1
 62
     7
420
 16777215
370
    25
100
AcDbVertex
100
AcDb2dVertex
 10
95.02605424235006
 20
-140.4724069093265
 30
0.0
  0
VERTEX
  5
63
330
61
100
AcDbEntity
  8
_U+30EC_U+30A4_U+30E4_U+30FC 1
 62
     7
420
 16777215
370
    25
100
AcDbVertex
100
AcDb2dVertex
 10
95.02605424235006
 20
-154.4725694058263
 30
0.0
  0
SEQEND
  5
64
330
61
100
AcDbEntity
  8
_U+30EC_U+30A4_U+30E4_U+30FC 1
 62
     7
420
 16777215
370
    25
  0
POLYLINE
  5
65
330
1F
100
AcDbEntity
  8
_U+30EC_U+30A4_U+30E4_U+30FC 1
 62
     7
420
 16777215
370
    25
100
AcDb2dPolyline
 66
     1
 10
0.0
 20
0.0
 30
0.0
  0
VERTEX
  5
66
330
65
100
AcDbEntity
  8
_U+30EC_U+30A4_U+30E4_U+30FC 1
 62
     7
420
 16777215
370
    25
100
AcDbVertex
100
AcDb2dVertex
 10
96.02582643906597
 20
-141.4721438535209
 30
0.0
  0
VERTEX
  5
67
330
65
100
AcDbEntity
  8
_U+30EC_U+30A4_U+30E4_U+30FC 1
 62
     7
420
 16777215
370
    25
100
AcDbVertex
100
AcDb2dVertex
 10
96.02582643906597
 20
-154.4725694058263
 30
0.0
  0
SEQEND
  5
68
330
65
100
AcDbEntity
  8
_U+30EC_U+30A4_U+30E4_U+30FC 1
 62
     7
420
 16777215
370
    25
  0
POLYLINE
  5
69
330
1F
100
AcDbEntity
  8
_U+30EC_U+30A4_U+30E4_U+30FC 1
 62
     7
420
 16777215
370
    25
100
AcDb2dPolyline
 66
     1
 10
0.0
 20
0.0
 30
0.0
  0
VERTEX
  5
6A
330
69
100
AcDbEntity
  8
_U+30EC_U+30A4_U+30E4_U+30FC 1
 62
     7
420
 16777215
370
    25
100
AcDbVertex
100
AcDb2dVertex
 10
94.02561176787347
 20
-154.4725694058263
 30
0.0
  0
VERTEX
  5
6B
330
69
100
AcDbEntity
  8
_U+30EC_U+30A4_U+30E4_U+30FC 1
 62
     7
420
 16777215
370
    25
100
AcDbVertex
100
AcDb2dVertex
 10
95.02605424235006
 20
-154.4725694058263
 30
0.0
  0
SEQEND
  5
6C
330
69
100
AcDbEntity
  8
_U+30EC_U+30A4_U+30E4_U+30FC 1
 62
     7
420
 16777215
370
    25
  0
POLYLINE
  5
6D
330
1F
100
AcDbEntity
  8
_U+30EC_U+30A4_U+30E4_U+30FC 1
 62
     7
420
 16777215
370
    25
100
AcDb2dPolyline
 66
     1
 10
0.0
 20
0.0
 30
0.0
  0
VERTEX
  5
6E
330
6D
100
AcDbEntity
  8
_U+30EC_U+30A4_U+30E4_U+30FC 1
 62
     7
420
 16777215
370
    25
100
AcDbVertex
100
AcDb2dVertex
 10
87.02586583534075
 20
-140.4724069093265
 30
0.0
  0
VERTEX
  5
6F
330
6D
100
AcDbEntity
  8
_U+30EC_U+30A4_U+30E4_U+30FC 1
 62
     7
420
 16777215
370
    25
100
AcDbVertex
100
AcDb2dVertex
 10
87.02586583534075
 20
-141.4721438535209
 30
0.0
  0
SEQEND
  5
70
330
6D
100
AcDbEntity
  8
_U+30EC_U+30A4_U+30E4_U+30FC 1
 62
     7
420
 16777215
370
    25
  0
POLYLINE
  5
71
330
1F
100
AcDbEntity
  8
_U+30EC_U+30A4_U+30E4_U+30FC 1
 62
     7
420
 16777215
370
    25
100
AcDb2dPolyline
 66
     1
 10
0.0
 20
0.0
 30
0.0
  0
VERTEX
  5
72
330
71
100
AcDbEntity
  8
_U+30EC_U+30A4_U+30E4_U+30FC 1
 62
     7
420
 16777215
370
    25
100
AcDbVertex
100
AcDb2dVertex
 10
87.02586583534075
 20
-141.4721438535209
 30
0.0
  0
VERTEX
  5
73
330
71
100
AcDbEntity
  8
_U+30EC_U+30A4_U+30E4_U+30FC 1
 62
     7
420
 16777215
370
    25
100
AcDbVertex
100
AcDb2dVertex
 10
93.02583957115756
 20
-141.4721438535209
 30
0.0
  0
SEQEND
  5
74
330
71
100
AcDbEntity
  8
_U+30EC_U+30A4_U+30E4_U+30FC 1
 62
     7
420
 16777215
370
    25
  0
POLYLINE
  5
75
330
1F
100
AcDbEntity
  8
_U+30EC_U+30A4_U+30E4_U+30FC 1
 62
     7
420
 16777215
370
    25
100
AcDb2dPolyline
 66
     1
 10
0.0
 20
0.0
 30
0.0
  0
VERTEX
  5
76
330
75
100
AcDbEntity
  8
_U+30EC_U+30A4_U+30E4_U+30FC 1
 62
     7
420
 16777215
370
    25
100
AcDbVertex
100
AcDb2dVertex
 10
93.02583957115756
 20
-155.4723416277988
 30
0.0
  0
VERTEX
  5
77
330
75
100
AcDbEntity
  8
_U+30EC_U+30A4_U+30E4_U+30FC 1
 62
     7
420
 16777215
370
    25
100
AcDbVertex
100
AcDb2dVertex
 10
103.0255749742437
 20
-154.9721027390345
 30
0.0
  0
SEQEND
  5
78
330
75
100
AcDbEntity
  8
_U+30EC_U+30A4_U+30E4_U+30FC 1
 62
     7
420
 16777215
370
    25
  0
SPLINE
  5
79
330
1F
100
AcDbEntity
  8
_U+30EC_U+30A4_U+30E4_U+30FC 1
 62
     7
420
 16777215
370
     9
100
AcDbSpline
210
0.0
220
0.0
230
1.0
 70
    11
 71
     3
 72
    17
 73
    13
 74
     0
 42
0.0000000001
 43
0.0000000001
 12
1.0
 22
0.0
 32
0.0
 13
1.0
 23
0.0
 33
0.0
 40
0.0
 40
0.0
 40
0.0
 40
0.0
 40
1.0
 40
1.0
 40
1.0
 40
2.0
 40
2.0
 40
2.0
 40
3.0
 40
3.0
 40
3.0
 40
4.0
 40
4.0
 40
4.0
 40
4.0
 10
118.1254486530354
 20
-136.4726477436596
 30
0.0
 10
118.1254486530354
 20
-136.4168382992292
 30
0.0
 10
118.0806458764006
 20
-136.3720355214624
 30
0.0
 10
118.0255067111407
 20
-136.3720355214624
 30
0.0
 10
117.9704028236576
 20
-136.3720355214624
 30
0.0
 10
117.9256000470229
 20
-136.4168382992292
 30
0.0
 10
117.9256000470229
 20
-136.4726477436596
 30
0.0
 10
117.9256000470229
 20
-136.5277516325349
 30
0.0
 10
117.9704028236576
 20
-136.5725544103013
 30
0.0
 10
118.0255067111407
 20
-136.5725544103013
 30
0.0
 10
118.0806458764006
 20
-136.5725544103013
 30
0.0
 10
118.1254486530354
 20
-136.5277516325349
 30
0.0
 10
118.1254486530354
 20
-136.4726477436596
 30
0.0
  0
SPLINE
  5
7A
330
1F
100
AcDbEntity
  8
_U+30EC_U+30A4_U+30E4_U+30FC 1
 62
     7
420
 16777215
370
     9
100
AcDbSpline
210
0.0
220
0.0
230
1.0
 70
    11
 71
     3
 72
    17
 73
    13
 74
     0
 42
0.0000000001
 43
0.0000000001
 12
1.0
 22
0.0
 32
0.0
 13
1.0
 23
0.0
 33
0.0
 40
0.0
 40
0.0
 40
0.0
 40
0.0
 40
1.0
 40
1.0
 40
1.0
 40
2.0
 40
2.0
 40
2.0
 40
3.0
 40
3.0
 40
3.0
 40
4.0
 40
4.0
 40
4.0
 40
4.0
 10
122.1258779954204
 20
-140.4724069093265
 30
0.0
 10
122.1258779954204
 20
-140.4172677426734
 30
0.0
 10
122.0810752187856
 20
-140.3725002426845
 30
0.0
 10
122.0259713313026
 20
-140.3725002426845
 30
0.0
 10
121.9701618882819
 20
-140.3725002426845
 30
0.0
 10
121.9253591116472
 20
-140.4172677426734
 30
0.0
 10
121.9253591116472
 20
-140.4724069093265
 30
0.0
 10
121.9253591116472
 20
-140.5275107982014
 30
0.0
 10
121.9701618882819
 20
-140.5723135759681
 30
0.0
 10
122.0259713313026
 20
-140.5723135759681
 30
0.0
 10
122.0810752187856
 20
-140.5723135759681
 30
0.0
 10
122.1258779954204
 20
-140.5275107982014
 30
0.0
 10
122.1258779954204
 20
-140.4724069093265
 30
0.0
  0
SPLINE
  5
7B
330
1F
100
AcDbEntity
  8
_U+30EC_U+30A4_U+30E4_U+30FC 1
 62
     7
420
 16777215
370
     9
100
AcDbSpline
210
0.0
220
0.0
230
1.0
 70
    11
 71
     3
 72
    17
 73
    13
 74
     0
 42
0.0000000001
 43
0.0000000001
 12
1.0
 22
0.0
 32
0.0
 13
1.0
 23
0.0
 33
0.0
 40
0.0
 40
0.0
 40
0.0
 40
0.0
 40
1.0
 40
1.0
 40
1.0
 40
2.0
 40
2.0
 40
2.0
 40
3.0
 40
3.0
 40
3.0
 40
4.0
 40
4.0
 40
4.0
 40
4.0
 10
122.1258779954204
 20
-141.4721438535209
 30
0.0
 10
122.1258779954204
 20
-141.4170399646456
 30
0.0
 10
122.0810752187856
 20
-141.3722371868792
 30
0.0
 10
122.0259713313026
 20
-141.3722371868792
 30
0.0
 10
121.9701618882819
 20
-141.3722371868792
 30
0.0
 10
121.9253591116472
 20
-141.4170399646456
 30
0.0
 10
121.9253591116472
 20
-141.4721438535209
 30
0.0
 10
121.9253591116472
 20
-141.5272830201736
 30
0.0
 10
121.9701618882819
 20
-141.5720505201625
 30
0.0
 10
122.0259713313026
 20
-141.5720505201625
 30
0.0
 10
122.0810752187856
 20
-141.5720505201625
 30
0.0
 10
122.1258779954204
 20
-141.5272830201736
 30
0.0
 10
122.1258779954204
 20
-141.4721438535209
 30
0.0
  0
SPLINE
  5
7C
330
1F
100
AcDbEntity
  8
_U+30EC_U+30A4_U+30E4_U+30FC 1
 62
     7
420
 16777215
370
     9
100
AcDbSpline
210
0.0
220
0.0
230
1.0
 70
    11
 71
     3
 72
    17
 73
    13
 74
     0
 42
0.0000000001
 43
0.0000000001
 12
1.0
 22
0.0
 32
0.0
 13
1.0
 23
0.0
 33
0.0
 40
0.0
 40
0.0
 40
0.0
 40
0.0
 40
1.0
 40
1.0
 40
1.0
 40
2.0
 40
2.0
 40
2.0
 40
3.0
 40
3.0
 40
3.0
 40
4.0
 40
4.0
 40
4.0
 40
4.0
 10
103.1254790357165
 20
-159.4721007934651
 30
0.0
 10
103.1254790357165
 20
-159.4169616268127
 30
0.0
 10
103.0807115368586
 20
-159.3721941268234
 30
0.0
 10
103.0255749742437
 20
-159.3721941268234
 30
0.0
 10
102.9704684841156
 20
-159.3721941268234
 30
0.0
 10
102.9256657074808
 20
-159.4169616268127
 30
0.0
 10
102.9256657074808
 20
-159.4721007934651
 30
0.0
 10
102.9256657074808
 20
-159.5272046823407
 30
0.0
 10
102.9704684841156
 20
-159.5720074601067
 30
0.0
 10
103.0255749742437
 20
-159.5720074601067
 30
0.0
 10
103.0807115368586
 20
-159.5720074601067
 30
0.0
 10
103.1254790357165
 20
-159.5272046823407
 30
0.0
 10
103.1254790357165
 20
-159.4721007934651
 30
0.0
  0
SPLINE
  5
7D
330
1F
100
AcDbEntity
  8
_U+30EC_U+30A4_U+30E4_U+30FC 1
 62
     7
420
 16777215
370
     9
100
AcDbSpline
210
0.0
220
0.0
230
1.0
 70
    11
 71
     3
 72
    17
 73
    13
 74
     0
 42
0.0000000001
 43
0.0000000001
 12
1.0
 22
0.0
 32
0.0
 13
1.0
 23
0.0
 33
0.0
 40
0.0
 40
0.0
 40
0.0
 40
0.0
 40
1.0
 40
1.0
 40
1.0
 40
2.0
 40
2.0
 40
2.0
 40
3.0
 40
3.0
 40
3.0
 40
4.0
 40
4.0
 40
4.0
 40
4.0
 10
93.12574623527539
 20
-159.4721007934651
 30
0.0
 10
93.12574623527539
 20
-159.4169616268127
 30
0.0
 10
93.0809787364175
 20
-159.3721941268234
 30
0.0
 10
93.02583957115756
 20
-159.3721941268234
 30
0.0
 10
92.97073568367449
 20
-159.3721941268234
 30
0.0
 10
92.92593290703972
 20
-159.4169616268127
 30
0.0
 10
92.92593290703972
 20
-159.4721007934651
 30
0.0
 10
92.92593290703972
 20
-159.5272046823407
 30
0.0
 10
92.97073568367449
 20
-159.5720074601067
 30
0.0
 10
93.02583957115756
 20
-159.5720074601067
 30
0.0
 10
93.0809787364175
 20
-159.5720074601067
 30
0.0
 10
93.12574623527539
 20
-159.5272046823407
 30
0.0
 10
93.12574623527539
 20
-159.4721007934651
 30
0.0
  0
SPLINE
  5
7E
330
1F
100
AcDbEntity
  8
_U+30EC_U+30A4_U+30E4_U+30FC 1
 62
     7
420
 16777215
370
     9
100
AcDbSpline
210
0.0
220
0.0
230
1.0
 70
    11
 71
     3
 72
    17
 73
    13
 74
     0
 42
0.0000000001
 43
0.0000000001
 12
1.0
 22
0.0
 32
0.0
 13
1.0
 23
0.0
 33
0.0
 40
0.0
 40
0.0
 40
0.0
 40
0.0
 40
1.0
 40
1.0
 40
1.0
 40
2.0
 40
2.0
 40
2.0
 40
3.0
 40
3.0
 40
3.0
 40
4.0
 40
4.0
 40
4.0
 40
4.0
 10
107.1252381003408
 20
-154.4725694058263
 30
0.0
 10
107.1252381003408
 20
-154.4167599613959
 30
0.0
 10
107.0804706014829
 20
-154.3719571836291
 30
0.0
 10
107.025331436223
 20
-154.3719571836291
 30
0.0
 10
106.9702275487399
 20
-154.3719571836291
 30
0.0
 10
106.9254247721051
 20
-154.4167599613959
 30
0.0
 10
106.9254247721051
 20
-154.4725694058263
 30
0.0
 10
106.9254247721051
 20
-154.5277085724794
 30
0.0
 10
106.9702275487399
 20
-154.5724760724679
 30
0.0
 10
107.025331436223
 20
-154.5724760724679
 30
0.0
 10
107.0804706014829
 20
-154.5724760724679
 30
0.0
 10
107.1252381003408
 20
-154.5277085724794
 30
0.0
 10
107.1252381003408
 20
-154.4725694058263
 30
0.0
  0
SPLINE
  5
7F
330
1F
100
AcDbEntity
  8
_U+30EC_U+30A4_U+30E4_U+30FC 1
 62
     7
420
 16777215
370
     9
100
AcDbSpline
210
0.0
220
0.0
230
1.0
 70
    11
 71
     3
 72
    17
 73
    13
 74
     0
 42
0.0000000001
 43
0.0000000001
 12
1.0
 22
0.0
 32
0.0
 13
1.0
 23
0.0
 33
0.0
 40
0.0
 40
0.0
 40
0.0
 40
0.0
 40
1.0
 40
1.0
 40
1.0
 40
2.0
 40
2.0
 40
2.0
 40
3.0
 40
3.0
 40
3.0
 40
4.0
 40
4.0
 40
4.0
 40
4.0
 10
122.1258779954204
 20
-154.4725694058263
 30
0.0
 10
122.1258779954204
 20
-154.4167599613959
 30
0.0
 10
122.0810752187856
 20
-154.3719571836291
 30
0.0
 10
122.0259713313026
 20
-154.3719571836291
 30
0.0
 10
121.9701618882819
 20
-154.3719571836291
 30
0.0
 10
121.9253591116472
 20
-154.4167599613959
 30
0.0
 10
121.9253591116472
 20
-154.4725694058263
 30
0.0
 10
121.9253591116472
 20
-154.5277085724794
 30
0.0
 10
121.9701618882819
 20
-154.5724760724679
 30
0.0
 10
122.0259713313026
 20
-154.5724760724679
 30
0.0
 10
122.0810752187856
 20
-154.5724760724679
 30
0.0
 10
122.1258779954204
 20
-154.5277085724794
 30
0.0
 10
122.1258779954204
 20
-154.4725694058263
 30
0.0
  0
SPLINE
  5
80
330
1F
100
AcDbEntity
  8
_U+30EC_U+30A4_U+30E4_U+30FC 1
 62
     7
420
 16777215
370
     9
100
AcDbSpline
210
0.0
220
0.0
230
1.0
 70
    11
 71
     3
 72
    17
 73
    13
 74
     0
 42
0.0000000001
 43
0.0000000001
 12
1.0
 22
0.0
 32
0.0
 13
1.0
 23
0.0
 33
0.0
 40
0.0
 40
0.0
 40
0.0
 40
0.0
 40
1.0
 40
1.0
 40
1.0
 40
2.0
 40
2.0
 40
2.0
 40
3.0
 40
3.0
 40
3.0
 40
4.0
 40
4.0
 40
4.0
 40
4.0
 10
107.1252381003408
 20
-154.9721027390345
 30
0.0
 10
107.1252381003408
 20
-154.9169988501596
 30
0.0
 10
107.0804706014829
 20
-154.8721960723929
 30
0.0
 10
107.025331436223
 20
-154.8721960723929
 30
0.0
 10
106.9702275487399
 20
-154.8721960723929
 30
0.0
 10
106.9254247721051
 20
-154.9169988501596
 30
0.0
 10
106.9254247721051
 20
-154.9721027390345
 30
0.0
 10
106.9254247721051
 20
-155.0272419056876
 30
0.0
 10
106.9702275487399
 20
-155.0720094056761
 30
0.0
 10
107.025331436223
 20
-155.0720094056761
 30
0.0
 10
107.0804706014829
 20
-155.0720094056761
 30
0.0
 10
107.1252381003408
 20
-155.0272419056876
 30
0.0
 10
107.1252381003408
 20
-154.9721027390345
 30
0.0
  0
SPLINE
  5
81
330
1F
100
AcDbEntity
  8
_U+30EC_U+30A4_U+30E4_U+30FC 1
 62
     7
420
 16777215
370
     9
100
AcDbSpline
210
0.0
220
0.0
230
1.0
 70
    11
 71
     3
 72
    17
 73
    13
 74
     0
 42
0.0000000001
 43
0.0000000001
 12
1.0
 22
0.0
 32
0.0
 13
1.0
 23
0.0
 33
0.0
 40
0.0
 40
0.0
 40
0.0
 40
0.0
 40
1.0
 40
1.0
 40
1.0
 40
2.0
 40
2.0
 40
2.0
 40
3.0
 40
3.0
 40
3.0
 40
4.0
 40
4.0
 40
4.0
 40
4.0
 10
87.12577249945859
 20
-136.4726477436596
 30
0.0
 10
87.12577249945859
 20
-136.4168382992292
 30
0.0
 10
87.0810050006007
 20
-136.3720355214624
 30
0.0
 10
87.02586583534075
 20
-136.3720355214624
 30
0.0
 10
86.97076194785768
 20
-136.3720355214624
 30
0.0
 10
86.92595917122291
 20
-136.4168382992292
 30
0.0
 10
86.92595917122291
 20
-136.4726477436596
 30
0.0
 10
86.92595917122291
 20
-136.5277516325349
 30
0.0
 10
86.97076194785768
 20
-136.5725544103013
 30
0.0
 10
87.02586583534075
 20
-136.5725544103013
 30
0.0
 10
87.0810050006007
 20
-136.5725544103013
 30
0.0
 10
87.12577249945859
 20
-136.5277516325349
 30
0.0
 10
87.12577249945859
 20
-136.4726477436596
 30
0.0
  0
SPLINE
  5
82
330
1F
100
AcDbEntity
  8
_U+30EC_U+30A4_U+30E4_U+30FC 1
 62
     7
420
 16777215
370
     9
100
AcDbSpline
210
0.0
220
0.0
230
1.0
 70
    11
 71
     3
 72
    17
 73
    13
 74
     0
 42
0.0000000001
 43
0.0000000001
 12
1.0
 22
0.0
 32
0.0
 13
1.0
 23
0.0
 33
0.0
 40
0.0
 40
0.0
 40
0.0
 40
0.0
 40
1.0
 40
1.0
 40
1.0
 40
2.0
 40
2.0
 40
2.0
 40
3.0
 40
3.0
 40
3.0
 40
4.0
 40
4.0
 40
4.0
 40
4.0
 10
87.12577249945859
 20
-159.4721007934651
 30
0.0
 10
87.12577249945859
 20
-159.4169616268127
 30
0.0
 10
87.0810050006007
 20
-159.3721941268234
 30
0.0
 10
87.02586583534075
 20
-159.3721941268234
 30
0.0
 10
86.97076194785768
 20
-159.3721941268234
 30
0.0
 10
86.92595917122291
 20
-159.4169616268127
 30
0.0
 10
86.92595917122291
 20
-159.4721007934651
 30
0.0
 10
86.92595917122291
 20
-159.5272046823407
 30
0.0
 10
86.97076194785768
 20
-159.5720074601067
 30
0.0
 10
87.02586583534075
 20
-159.5720074601067
 30
0.0
 10
87.0810050006007
 20
-159.5720074601067
 30
0.0
 10
87.12577249945859
 20
-159.5272046823407
 30
0.0
 10
87.12577249945859
 20
-159.4721007934651
 30
0.0
  0
POLYLINE
  5
83
330
1F
100
AcDbEntity
  8
_U+30EC_U+30A4_U+30E4_U+30FC 1
 62
     7
420
 16777215
370
     9
100
AcDb2dPolyline
 66
     1
 10
0.0
 20
0.0
 30
0.0
  0
VERTEX
  5
84
330
83
100
AcDbEntity
  8
_U+30EC_U+30A4_U+30E4_U+30FC 1
 62
     7
420
 16777215
370
     9
100
AcDbVertex
100
AcDb2dVertex
 10
122.0259713313026
 20
-140.4724069093265
 30
0.0
  0
VERTEX
  5
85
330
83
100
AcDbEntity
  8
_U+30EC_U+30A4_U+30E4_U+30FC 1
 62
     7
420
 16777215
370
     9
100
AcDbVertex
100
AcDb2dVertex
 10
122.0259713313026
 20
-136.7020944102691
 30
0.0
  0
SEQEND
  5
86
330
83
100
AcDbEntity
  8
_U+30EC_U+30A4_U+30E4_U+30FC 1
 62
     7
420
 16777215
370
     9
  0
POLYLINE
  5
87
330
1F
100
AcDbEntity
  8
_U+30EC_U+30A4_U+30E4_U+30FC 1
 62
     7
420
 16777215
370
     9
100
AcDb2dPolyline
 66
     1
 10
0.0
 20
0.0
 30
0.0
  0
VERTEX
  5
88
330
87
100
AcDbEntity
  8
_U+30EC_U+30A4_U+30E4_U+30FC 1
 62
     7
420
 16777215
370
     9
100
AcDbVertex
100
AcDb2dVertex
 10
122.0259713313026
 20
-140.4724069093265
 30
0.0
  0
VERTEX
  5
89
330
87
100
AcDbEntity
  8
_U+30EC_U+30A4_U+30E4_U+30FC 1
 62
     7
420
 16777215
370
     9
100
AcDbVertex
100
AcDb2dVertex
 10
122.0259713313026
 20
-141.4721438535209
 30
0.0
  0
SEQEND
  5
8A
330
87
100
AcDbEntity
  8
_U+30EC_U+30A4_U+30E4_U+30FC 1
 62
     7
420
 16777215
370
     9
  0
POLYLINE
  5
8B
330
1F
100
AcDbEntity
  8
_U+30EC_U+30A4_U+30E4_U+30FC 1
 62
     7
420
 16777215
370
     9
100
AcDb2dPolyline
 66
     1
 10
0.0
 20
0.0
 30
0.0
  0
VERTEX
  5
8C
330
8B
100
AcDbEntity
  8
_U+30EC_U+30A4_U+30E4_U+30FC 1
 62
     7
420
 16777215
370
     9
100
AcDbVertex
100
AcDb2dVertex
 10
120.5659299796624
 20
-140.4724069093265
 30
0.0
  0
VERTEX
  5
8D
330
8B
100
AcDbEntity
  8
_U+30EC_U+30A4_U+30E4_U+30FC 1
 62
     7
420
 16777215
370
     9
100
AcDbVertex
100
AcDb2dVertex
 10
123.0257435280185
 20
-140.4724069093265
 30
0.0
  0
SEQEND
  5
8E
330
8B
100
AcDbEntity
  8
_U+30EC_U+30A4_U+30E4_U+30FC 1
 62
     7
420
 16777215
370
     9
  0
POLYLINE
  5
8F
330
1F
100
AcDbEntity
  8
_U+30EC_U+30A4_U+30E4_U+30FC 1
 62
     7
420
 16777215
370
     9
100
AcDb2dPolyline
 66
     1
 10
0.0
 20
0.0
 30
0.0
  0
VERTEX
  5
90
330
8F
100
AcDbEntity
  8
_U+30EC_U+30A4_U+30E4_U+30FC 1
 62
     7
420
 16777215
370
     9
100
AcDbVertex
100
AcDb2dVertex
 10
120.5659299796624
 20
-141.4721438535209
 30
0.0
  0
VERTEX
  5
91
330
8F
100
AcDbEntity
  8
_U+30EC_U+30A4_U+30E4_U+30FC 1
 62
     7
420
 16777215
370
     9
100
AcDbVertex
100
AcDb2dVertex
 10
123.0257435280185
 20
-141.4721438535209
 30
0.0
  0
SEQEND
  5
92
330
8F
100
AcDbEntity
  8
_U+30EC_U+30A4_U+30E4_U+30FC 1
 62
     7
420
 16777215
370
     9
  0
INSERT
  5
94
330
1F
100
AcDbEntity
  8
_U+30EC_U+30A4_U+30E4_U+30FC 1
100
AcDbBlockReference
  2
block 2
 10
0.0
 20
0.0
 30
0.0
  0
POLYLINE
  5
99
330
1F
100
AcDbEntity
  8
_U+30EC_U+30A4_U+30E4_U+30FC 1
 62
     7
420
 16777215
370
     9
100
AcDb2dPolyline
 66
     1
 10
0.0
 20
0.0
 30
0.0
  0
VERTEX
  5
9A
330
99
100
AcDbEntity
  8
_U+30EC_U+30A4_U+30E4_U+30FC 1
 62
     7
420
 16777215
370
     9
100
AcDbVertex
100
AcDb2dVertex
 10
93.02583957115756
 20
-159.4721007934651
 30
0.0
  0
VERTEX
  5
9B
330
99
100
AcDbEntity
  8
_U+30EC_U+30A4_U+30E4_U+30FC 1
 62
     7
420
 16777215
370
     9
100
AcDbVertex
100
AcDb2dVertex
 10
103.0255749742437
 20
-159.4721007934651
 30
0.0
  0
SEQEND
  5
9C
330
99
100
AcDbEntity
  8
_U+30EC_U+30A4_U+30E4_U+30FC 1
 62
     7
420
 16777215
370
     9
  0
POLYLINE
  5
9D
330
1F
100
AcDbEntity
  8
_U+30EC_U+30A4_U+30E4_U+30FC 1
 62
     7
420
 16777215
370
     9
100
AcDb2dPolyline
 66
     1
 10
0.0
 20
0.0
 30
0.0
  0
VERTEX
  5
9E
330
9D
100
AcDbEntity
  8
_U+30EC_U+30A4_U+30E4_U+30FC 1
 62
     7
420
 16777215
370
     9
100
AcDbVertex
100
AcDb2dVertex
 10
93.02583957115756
 20
-158.0120594049414
 30
0.0
  0
VERTEX
  5
9F
330
9D
100
AcDbEntity
  8
_U+30EC_U+30A4_U+30E4_U+30FC 1
 62
     7
420
 16777215
370
     9
100
AcDbVertex
100
AcDb2dVertex
 10
93.02583957115756
 20
-160.472543293215
 30
0.0
  0
SEQEND
  5
A0
330
9D
100
AcDbEntity
  8
_U+30EC_U+30A4_U+30E4_U+30FC 1
 62
     7
420
 16777215
370
     9
  0
POLYLINE
  5
A1
330
1F
100
AcDbEntity
  8
_U+30EC_U+30A4_U+30E4_U+30FC 1
 62
     7
420
 16777215
370
     9
100
AcDb2dPolyline
 66
     1
 10
0.0
 20
0.0
 30
0.0
  0
VERTEX
  5
A2
330
A1
100
AcDbEntity
  8
_U+30EC_U+30A4_U+30E4_U+30FC 1
 62
     7
420
 16777215
370
     9
100
AcDbVertex
100
AcDb2dVertex
 10
103.0255749742437
 20
-157.3120071828944
 30
0.0
  0
VERTEX
  5
A3
330
A1
100
AcDbEntity
  8
_U+30EC_U+30A4_U+30E4_U+30FC 1
 62
     7
420
 16777215
370
     9
100
AcDbVertex
100
AcDb2dVertex
 10
103.0255749742437
 20
-160.472543293215
 30
0.0
  0
SEQEND
  5
A4
330
A1
100
AcDbEntity
  8
_U+30EC_U+30A4_U+30E4_U+30FC 1
 62
     7
420
 16777215
370
     9
  0
INSERT
  5
A6
330
1F
100
AcDbEntity
  8
_U+30EC_U+30A4_U+30E4_U+30FC 1
100
AcDbBlockReference
  2
block 3
 10
0.0
 20
0.0
 30
0.0
  0
POLYLINE
  5
AE
330
1F
100
AcDbEntity
  8
_U+30EC_U+30A4_U+30E4_U+30FC 1
 62
     7
420
 16777215
370
     9
100
AcDb2dPolyline
 66
     1
 10
0.0
 20
0.0
 30
0.0
  0
VERTEX
  5
AF
330
AE
100
AcDbEntity
  8
_U+30EC_U+30A4_U+30E4_U+30FC 1
 62
     7
420
 16777215
370
     9
100
AcDbVertex
100
AcDb2dVertex
 10
87.02586583534075
 20
-159.4721007934651
 30
0.0
  0
VERTEX
  5
B0
330
AE
100
AcDbEntity
  8
_U+30EC_U+30A4_U+30E4_U+30FC 1
 62
     7
420
 16777215
370
     9
100
AcDbVertex
100
AcDb2dVertex
 10
93.02583957115756
 20
-159.4721007934651
 30
0.0
  0
SEQEND
  5
B1
330
AE
100
AcDbEntity
  8
_U+30EC_U+30A4_U+30E4_U+30FC 1
 62
     7
420
 16777215
370
     9
  0
POLYLINE
  5
B2
330
1F
100
AcDbEntity
  8
_U+30EC_U+30A4_U+30E4_U+30FC 1
 62
     7
420
 16777215
370
     9
100
AcDb2dPolyline
 66
     1
 10
0.0
 20
0.0
 30
0.0
  0
VERTEX
  5
B3
330
B2
100
AcDbEntity
  8
_U+30EC_U+30A4_U+30E4_U+30FC 1
 62
     7
420
 16777215
370
     9
100
AcDbVertex
100
AcDb2dVertex
 10
87.02586583534075
 20
-144.0125671862189
 30
0.0
  0
VERTEX
  5
B4
330
B2
100
AcDbEntity
  8
_U+30EC_U+30A4_U+30E4_U+30FC 1
 62
     7
420
 16777215
370
     9
100
AcDbVertex
100
AcDb2dVertex
 10
87.02586583534075
 20
-160.472543293215
 30
0.0
  0
SEQEND
  5
B5
330
B2
100
AcDbEntity
  8
_U+30EC_U+30A4_U+30E4_U+30FC 1
 62
     7
420
 16777215
370
     9
  0
INSERT
  5
B7
330
1F
100
AcDbEntity
  8
_U+30EC_U+30A4_U+30E4_U+30FC 1
100
AcDbBlockReference
  2
block 4
 10
0.0
 20
0.0
 30
0.0
  0
POLYLINE
  5
BD
330
1F
100
AcDbEntity
  8
_U+30EC_U+30A4_U+30E4_U+30FC 1
 62
     7
420
 16777215
370
     9
100
AcDb2dPolyline
 66
     1
 10
0.0
 20
0.0
 30
0.0
  0
VERTEX
  5
BE
330
BD
100
AcDbEntity
  8
_U+30EC_U+30A4_U+30E4_U+30FC 1
 62
     7
420
 16777215
370
     9
100
AcDbVertex
100
AcDb2dVertex
 10
118.0255067111407
 20
-136.4726477436596
 30
0.0
  0
VERTEX
  5
BF
330
BD
100
AcDbEntity
  8
_U+30EC_U+30A4_U+30E4_U+30FC 1
 62
     7
420
 16777215
370
     9
100
AcDbVertex
100
AcDb2dVertex
 10
87.02586583534075
 20
-136.4726477436596
 30
0.0
  0
SEQEND
  5
C0
330
BD
100
AcDbEntity
  8
_U+30EC_U+30A4_U+30E4_U+30FC 1
 62
     7
420
 16777215
370
     9
  0
POLYLINE
  5
C1
330
1F
100
AcDbEntity
  8
_U+30EC_U+30A4_U+30E4_U+30FC 1
 62
     7
420
 16777215
370
     9
100
AcDb2dPolyline
 66
     1
 10
0.0
 20
0.0
 30
0.0
  0
VERTEX
  5
C2
330
C1
100
AcDbEntity
  8
_U+30EC_U+30A4_U+30E4_U+30FC 1
 62
     7
420
 16777215
370
     9
100
AcDbVertex
100
AcDb2dVertex
 10
118.0255067111407
 20
-137.9319835766281
 30
0.0
  0
VERTEX
  5
C3
330
C1
100
AcDbEntity
  8
_U+30EC_U+30A4_U+30E4_U+30FC 1
 62
     7
420
 16777215
370
     9
100
AcDbVertex
100
AcDb2dVertex
 10
118.0255067111407
 20
-135.4721699661319
 30
0.0
  0
SEQEND
  5
C4
330
C1
100
AcDbEntity
  8
_U+30EC_U+30A4_U+30E4_U+30FC 1
 62
     7
420
 16777215
370
     9
  0
POLYLINE
  5
C5
330
1F
100
AcDbEntity
  8
_U+30EC_U+30A4_U+30E4_U+30FC 1
 62
     7
420
 16777215
370
     9
100
AcDb2dPolyline
 66
     1
 10
0.0
 20
0.0
 30
0.0
  0
VERTEX
  5
C6
330
C5
100
AcDbEntity
  8
_U+30EC_U+30A4_U+30E4_U+30FC 1
 62
     7
420
 16777215
370
     9
100
AcDbVertex
100
AcDb2dVertex
 10
87.02586583534075
 20
-137.9319835766281
 30
0.0
  0
VERTEX
  5
C7
330
C5
100
AcDbEntity
  8
_U+30EC_U+30A4_U+30E4_U+30FC 1
 62
     7
420
 16777215
370
     9
100
AcDbVertex
100
AcDb2dVertex
 10
87.02586583534075
 20
-135.4721699661319
 30
0.0
  0
SEQEND
  5
C8
330
C5
100
AcDbEntity
  8
_U+30EC_U+30A4_U+30E4_U+30FC 1
 62
     7
420
 16777215
370
     9
  0
INSERT
  5
CA
330
1F
100
AcDbEntity
  8
_U+30EC_U+30A4_U+30E4_U+30FC 1
100
AcDbBlockReference
  2
block 5
 10
0.0
 20
0.0
 30
0.0
  0
POLYLINE
  5
D1
330
1F
100
AcDbEntity
  8
_U+30EC_U+30A4_U+30E4_U+30FC 1
 62
     7
420
 16777215
370
     9
100
AcDb2dPolyline
 66
     1
 10
0.0
 20
0.0
 30
0.0
  0
VERTEX
  5
D2
330
D1
100
AcDbEntity
  8
_U+30EC_U+30A4_U+30E4_U+30FC 1
 62
     7
420
 16777215
370
     9
100
AcDbVertex
100
AcDb2dVertex
 10
107.025331436223
 20
-154.4725694058263
 30
0.0
  0
VERTEX
  5
D3
330
D1
100
AcDbEntity
  8
_U+30EC_U+30A4_U+30E4_U+30FC 1
 62
     7
420
 16777215
370
     9
100
AcDbVertex
100
AcDb2dVertex
 10
107.025331436223
 20
-149.2146635738074
 30
0.0
  0
SEQEND
  5
D4
330
D1
100
AcDbEntity
  8
_U+30EC_U+30A4_U+30E4_U+30FC 1
 62
     7
420
 16777215
370
     9
  0
POLYLINE
  5
D5
330
1F
100
AcDbEntity
  8
_U+30EC_U+30A4_U+30E4_U+30FC 1
 62
     7
420
 16777215
370
     9
100
AcDb2dPolyline
 66
     1
 10
0.0
 20
0.0
 30
0.0
  0
VERTEX
  5
D6
330
D5
100
AcDbEntity
  8
_U+30EC_U+30A4_U+30E4_U+30FC 1
 62
     7
420
 16777215
370
     9
100
AcDbVertex
100
AcDb2dVertex
 10
107.025331436223
 20
-154.4725694058263
 30
0.0
  0
VERTEX
  5
D7
330
D5
100
AcDbEntity
  8
_U+30EC_U+30A4_U+30E4_U+30FC 1
 62
     7
420
 16777215
370
     9
100
AcDbVertex
100
AcDb2dVertex
 10
107.025331436223
 20
-155.9725805165626
 30
0.0
  0
SEQEND
  5
D8
330
D5
100
AcDbEntity
  8
_U+30EC_U+30A4_U+30E4_U+30FC 1
 62
     7
420
 16777215
370
     9
  0
POLYLINE
  5
D9
330
1F
100
AcDbEntity
  8
_U+30EC_U+30A4_U+30E4_U+30FC 1
 62
     7
420
 16777215
370
     9
100
AcDb2dPolyline
 66
     1
 10
0.0
 20
0.0
 30
0.0
  0
VERTEX
  5
DA
330
D9
100
AcDbEntity
  8
_U+30EC_U+30A4_U+30E4_U+30FC 1
 62
     7
420
 16777215
370
     9
100
AcDbVertex
100
AcDb2dVertex
 10
105.5652900845829
 20
-154.4725694058263
 30
0.0
  0
VERTEX
  5
DB
330
D9
100
AcDbEntity
  8
_U+30EC_U+30A4_U+30E4_U+30FC 1
 62
     7
420
 16777215
370
     9
100
AcDbVertex
100
AcDb2dVertex
 10
108.0257739106996
 20
-154.4725694058263
 30
0.0
  0
SEQEND
  5
DC
330
D9
100
AcDbEntity
  8
_U+30EC_U+30A4_U+30E4_U+30FC 1
 62
     7
420
 16777215
370
     9
  0
POLYLINE
  5
DD
330
1F
100
AcDbEntity
  8
_U+30EC_U+30A4_U+30E4_U+30FC 1
 62
     7
420
 16777215
370
     9
100
AcDb2dPolyline
 66
     1
 10
0.0
 20
0.0
 30
0.0
  0
VERTEX
  5
DE
330
DD
100
AcDbEntity
  8
_U+30EC_U+30A4_U+30E4_U+30FC 1
 62
     7
420
 16777215
370
     9
100
AcDbVertex
100
AcDb2dVertex
 10
105.5652900845829
 20
-154.9721027390345
 30
0.0
  0
VERTEX
  5
DF
330
DD
100
AcDbEntity
  8
_U+30EC_U+30A4_U+30E4_U+30FC 1
 62
     7
420
 16777215
370
     9
100
AcDbVertex
100
AcDb2dVertex
 10
108.0257739106996
 20
-154.9721027390345
 30
0.0
  0
SEQEND
  5
E0
330
DD
100
AcDbEntity
  8
_U+30EC_U+30A4_U+30E4_U+30FC 1
 62
     7
420
 16777215
370
     9
  0
INSERT
  5
E2
330
1F
100
AcDbEntity
  8
_U+30EC_U+30A4_U+30E4_U+30FC 1
100
AcDbBlockReference
  2
block 6
 10
0.0
 20
0.0
 30
0.0
  0
POLYLINE
  5
F2
330
1F
100
AcDbEntity
  8
_U+30EC_U+30A4_U+30E4_U+30FC 1
 62
     7
420
 16777215
370
     9
100
AcDb2dPolyline
 66
     1
 10
0.0
 20
0.0
 30
0.0
  0
VERTEX
  5
F3
330
F2
100
AcDbEntity
  8
_U+30EC_U+30A4_U+30E4_U+30FC 1
 62
     7
420
 16777215
370
     9
100
AcDbVertex
100
AcDb2dVertex
 10
122.0259713313026
 20
-141.4721438535209
 30
0.0
  0
VERTEX
  5
F4
330
F2
100
AcDbEntity
  8
_U+30EC_U+30A4_U+30E4_U+30FC 1
 62
     7
420
 16777215
370
     9
100
AcDbVertex
100
AcDb2dVertex
 10
122.0259713313026
 20
-154.4725694058263
 30
0.0
  0
SEQEND
  5
F5
330
F2
100
AcDbEntity
  8
_U+30EC_U+30A4_U+30E4_U+30FC 1
 62
     7
420
 16777215
370
     9
  0
POLYLINE
  5
F6
330
1F
100
AcDbEntity
  8
_U+30EC_U+30A4_U+30E4_U+30FC 1
 62
     7
420
 16777215
370
     9
100
AcDb2dPolyline
 66
     1
 10
0.0
 20
0.0
 30
0.0
  0
VERTEX
  5
F7
330
F6
100
AcDbEntity
  8
_U+30EC_U+30A4_U+30E4_U+30FC 1
 62
     7
420
 16777215
370
     9
100
AcDbVertex
100
AcDb2dVertex
 10
105.5652900845829
 20
-154.4725694058263
 30
0.0
  0
VERTEX
  5
F8
330
F6
100
AcDbEntity
  8
_U+30EC_U+30A4_U+30E4_U+30FC 1
 62
     7
420
 16777215
370
     9
100
AcDbVertex
100
AcDb2dVertex
 10
123.0257435280185
 20
-154.4725694058263
 30
0.0
  0
SEQEND
  5
F9
330
F6
100
AcDbEntity
  8
_U+30EC_U+30A4_U+30E4_U+30FC 1
 62
     7
420
 16777215
370
     9
  0
INSERT
  5
FB
330
1F
100
AcDbEntity
  8
_U+30EC_U+30A4_U+30E4_U+30FC 1
100
AcDbBlockReference
  2
block 7
 10
0.0
 20
0.0
 30
0.0
  0
POLYLINE
  5
102
330
1F
100
AcDbEntity
  8
_U+30EC_U+30A4_U+30E4_U+30FC 1
 62
     7
420
 16777215
370
     9
100
AcDb2dPolyline
 66
     1
 10
0.0
 20
0.0
 30
0.0
  0
VERTEX
  5
103
330
102
100
AcDbEntity
  8
_U+30EC_U+30A4_U+30E4_U+30FC 1
 62
     7
420
 16777215
370
     9
100
AcDbVertex
100
AcDb2dVertex
 10
103.0255749742437
 20
-155.4482116278049
 30
0.0
  0
VERTEX
  5
104
330
102
100
AcDbEntity
  8
_U+30EC_U+30A4_U+30E4_U+30FC 1
 62
     7
420
 16777215
370
     9
100
AcDbVertex
100
AcDb2dVertex
 10
106.6828900560705
 20
-158.4964585714872
 30
0.0
  0
SEQEND
  5
105
330
102
100
AcDbEntity
  8
_U+30EC_U+30A4_U+30E4_U+30FC 1
 62
     7
420
 16777215
370
     9
  0
INSERT
  5
107
330
1F
100
AcDbEntity
  8
_U+30EC_U+30A4_U+30E4_U+30FC 1
100
AcDbBlockReference
  2
block 8
 10
0.0
 20
0.0
 30
0.0
  0
POLYLINE
  5
144
330
1F
100
AcDbEntity
  8
_U+30EC_U+30A4_U+30E4_U+30FC 1
  6
AI-Linetype-1
 62
   154
420
    23468
370
    25
100
AcDb2dPolyline
 66
     1
 10
0.0
 20
0.0
 30
0.0
  0
VERTEX
  5
145
330
144
100
AcDbEntity
  8
_U+30EC_U+30A4_U+30E4_U+30FC 1
  6
AI-Linetype-1
 62
   154
420
    23468
370
    25
100
AcDbVertex
100
AcDb2dVertex
 10
87.02586583534075
 20
-141.9723827422846
 30
0.0
  0
VERTEX
  5
146
330
144
100
AcDbEntity
  8
_U+30EC_U+30A4_U+30E4_U+30FC 1
  6
AI-Linetype-1
 62
   154
420
    23468
370
    25
100
AcDbVertex
100
AcDb2dVertex
 10
92.52560069503082
 20
-141.9723827422846
 30
0.0
  0
VERTEX
  5
147
330
144
100
AcDbEntity
  8
_U+30EC_U+30A4_U+30E4_U+30FC 1
  6
AI-Linetype-1
 62
   154
420
    23468
370
    25
100
AcDbVertex
100
AcDb2dVertex
 10
92.52560069503082
 20
-155.9725805165626
 30
0.0
  0
VERTEX
  5
148
330
144
100
AcDbEntity
  8
_U+30EC_U+30A4_U+30E4_U+30FC 1
  6
AI-Linetype-1
 62
   154
420
    23468
370
    25
100
AcDbVertex
100
AcDb2dVertex
 10
103.0255749742437
 20
-155.4482116278049
 30
0.0
  0
SEQEND
  5
14A
330
144
100
AcDbEntity
  8
_U+30EC_U+30A4_U+30E4_U+30FC 1
  6
AI-Linetype-1
 62
   154
420
    23468
370
    25
  0
ENDSEC
  0
SECTION
  2
OBJECTS
  0
DICTIONARY
  5
C
330
0
100
AcDbDictionary
281
     1
  3
ACAD_GROUP
350
D
  3
ACAD_LAYOUT
350
1A
  3
ACAD_MATERIAL
350
3B
  3
ACAD_MLEADERSTYLE
350
14C
  3
ACAD_MLINESTYLE
350
17
  3
ACAD_PLOTSETTINGS
350
19
  3
ACAD_PLOTSTYLENAME
350
E
  3
ACAD_TABLESTYLE
350
14B
  3
ACAD_VISUALSTYLE
350
2A
  0
SUN
  5
3F
330
29
100
AcDbSun
 90
        1
290
     0
 63
     7
421
 16777215
 40
1.0
291
     1
 91
  2455826
 92
 54000000
292
     0
 70
     2
 71
   256
280
     1
  0
DICTIONARY
  5
D
102
{ACAD_REACTORS
330
C
102
}
330
C
100
AcDbDictionary
281
     1
  0
DICTIONARY
  5
1A
102
{ACAD_REACTORS
330
C
102
}
330
C
100
AcDbDictionary
281
     1
  3
Layout1
350
1E
  3
Layout2
350
26
  3
Model
350
22
  0
DICTIONARY
  5
3B
102
{ACAD_REACTORS
330
C
102
}
330
C
100
AcDbDictionary
281
     1
  3
ByBlock
350
3D
  3
ByLayer
350
3C
  3
Global
350
3E
  0
DICTIONARY
  5
14C
102
{ACAD_REACTORS
330
C
102
}
330
C
100
AcDbDictionary
281
     1
  0
DICTIONARY
  5
17
102
{ACAD_REACTORS
330
C
102
}
330
C
100
AcDbDictionary
281
     1
  3
Standard
350
18
  0
DICTIONARY
  5
19
102
{ACAD_REACTORS
330
C
102
}
330
C
100
AcDbDictionary
281
     1
  0
ACDBDICTIONARYWDFLT
  5
E
102
{ACAD_REACTORS
330
C
102
}
330
C
100
AcDbDictionary
281
     1
  3
Normal
350
F
100
AcDbDictionaryWithDefault
340
F
  0
DICTIONARY
  5
14B
102
{ACAD_REACTORS
330
C
102
}
330
C
100
AcDbDictionary
281
     1
  0
DICTIONARY
  5
2A
102
{ACAD_REACTORS
330
C
102
}
330
C
100
AcDbDictionary
281
     1
  3
2dWireframe
350
2F
  3
3D Hidden
350
31
  3
3dWireframe
350
30
  3
Basic
350
32
  3
Brighten
350
36
  3
ColorChange
350
3A
  3
Conceptual
350
34
  3
Dim
350
35
  3
Facepattern
350
39
  3
Flat
350
2B
  3
FlatWithEdges
350
2C
  3
Gouraud
350
2D
  3
GouraudWithEdges
350
2E
  3
Linepattern
350
38
  3
Realistic
350
33
  3
Thicken
350
37
  0
LAYOUT
  5
1E
102
{ACAD_REACTORS
330
1A
102
}
330
1A
100
AcDbPlotSettings
  1

  2
none_device
  4

  6

 40
0.0
 41
0.0
 42
0.0
 43
0.0
 44
0.0
 45
0.0
 46
0.0
 47
0.0
 48
0.0
 49
0.0
140
0.0
141
0.0
142
1.0
143
1.0
 70
   688
 72
     0
 73
     0
 74
     5
  7

 75
    16
 76
     0
 77
     2
 78
   300
147
1.0
148
0.0
149
0.0
100
AcDbLayout
  1
Layout1
 70
     1
 71
     1
 10
0.0
 20
0.0
 11
12.0
 21
9.0
 12
0.0
 22
0.0
 32
0.0
 14
1.000000000000000E+20
 24
1.000000000000000E+20
 34
1.000000000000000E+20
 15
-1.000000000000000E+20
 25
-1.000000000000000E+20
 35
-1.000000000000000E+20
146
0.0
 13
0.0
 23
0.0
 33
0.0
 16
1.0
 26
0.0
 36
0.0
 17
0.0
 27
1.0
 37
0.0
 76
     0
330
1B
  0
LAYOUT
  5
26
102
{ACAD_REACTORS
330
1A
102
}
330
1A
100
AcDbPlotSettings
  1

  2
none_device
  4

  6

 40
0.0
 41
0.0
 42
0.0
 43
0.0
 44
0.0
 45
0.0
 46
0.0
 47
0.0
 48
0.0
 49
0.0
140
0.0
141
0.0
142
1.0
143
1.0
 70
   688
 72
     0
 73
     0
 74
     5
  7

 75
    16
 76
     0
 77
     2
 78
   300
147
1.0
148
0.0
149
0.0
100
AcDbLayout
  1
Layout2
 70
     1
 71
     2
 10
0.0
 20
0.0
 11
0.0
 21
0.0
 12
0.0
 22
0.0
 32
0.0
 14
0.0
 24
0.0
 34
0.0
 15
0.0
 25
0.0
 35
0.0
146
0.0
 13
0.0
 23
0.0
 33
0.0
 16
1.0
 26
0.0
 36
0.0
 17
0.0
 27
1.0
 37
0.0
 76
     0
330
23
  0
LAYOUT
  5
22
102
{ACAD_REACTORS
330
1A
102
}
330
1A
100
AcDbPlotSettings
  1

  2
none_device
  4

  6

 40
0.0
 41
0.0
 42
0.0
 43
0.0
 44
0.0
 45
0.0
 46
0.0
 47
0.0
 48
0.0
 49
0.0
140
0.0
141
0.0
142
1.0
143
1.0
 70
  1712
 72
     0
 73
     0
 74
     0
  7

 75
     0
 76
     0
 77
     2
 78
   300
147
1.0
148
0.0
149
0.0
100
AcDbLayout
  1
Model
 70
     1
 71
     0
 10
0.0
 20
0.0
 11
12.0
 21
9.0
 12
0.0
 22
0.0
 32
0.0
 14
1.000000000000000E+20
 24
1.000000000000000E+20
 34
1.000000000000000E+20
 15
-1.000000000000000E+20
 25
-1.000000000000000E+20
 35
-1.000000000000000E+20
146
0.0
 13
0.0
 23
0.0
 33
0.0
 16
1.0
 26
0.0
 36
0.0
 17
0.0
 27
1.0
 37
0.0
 76
     0
330
1F
331
29
  0
MATERIAL
  5
3D
102
{ACAD_REACTORS
330
3B
102
}
330
3B
100
AcDbMaterial
  1
ByBlock
 72
     1
 94
      127
  0
MATERIAL
  5
3C
102
{ACAD_REACTORS
330
3B
102
}
330
3B
100
AcDbMaterial
  1
ByLayer
 72
     1
 94
      127
  0
MATERIAL
  5
3E
102
{ACAD_REACTORS
330
3B
102
}
330
3B
100
AcDbMaterial
  1
Global
 72
     1
 94
      127
  0
MLINESTYLE
  5
18
102
{ACAD_REACTORS
330
17
102
}
330
17
100
AcDbMlineStyle
  2
Standard
 70
     0
  3

 62
   256
 51
90.0
 52
90.0
 71
     2
 49
0.5
 62
   256
  6
BYLAYER
 49
-0.5
 62
   256
  6
BYLAYER
  0
ACDBPLACEHOLDER
  5
F
102
{ACAD_REACTORS
330
E
102
}
330
E
  0
VISUALSTYLE
  5
2F
102
{ACAD_REACTORS
330
2A
102
}
330
2A
100
AcDbVisualStyle
  2
2dWireframe
 70
     4
177
     2
291
     0
 71
     0
176
     1
 72
     2
176
     1
 73
     0
176
     1
 90
        0
176
     1
 40
-0.6
176
     1
 41
-30.0
176
     1
 62
     5
 63
     7
421
 16777215
176
     1
 74
     1
176
     1
 91
        4
176
     1
 64
     7
176
     1
 65
   257
176
     1
 75
     1
176
     1
175
     1
176
     1
 42
1.0
176
     1
 92
        0
176
     1
 66
   257
176
     1
 43
1.0
176
     1
 76
     1
176
     1
 77
     6
176
     1
 78
     2
176
     1
 67
     7
176
     1
 79
     5
176
     1
170
     0
176
     1
171
     0
176
     1
290
     0
176
     1
 93
        1
176
     1
 44
0.0
176
     1
173
     0
176
     1
  0
VISUALSTYLE
  5
31
102
{ACAD_REACTORS
330
2A
102
}
330
2A
100
AcDbVisualStyle
  2
3D Hidden
 70
     6
177
     2
291
     0
 71
     1
176
     1
 72
     2
176
     1
 73
     2
176
     1
 90
        0
176
     1
 40
-0.6
176
     1
 41
-30.0
176
     1
 62
     5
 63
     7
421
 16777215
176
     1
 74
     2
176
     1
 91
        2
176
     1
 64
     7
176
     1
 65
   257
176
     1
 75
     2
176
     1
175
     1
176
     1
 42
40.0
176
     1
 92
        0
176
     1
 66
   257
176
     1
 43
1.0
176
     1
 76
     1
176
     1
 77
     6
176
     1
 78
     2
176
     1
 67
     7
176
     1
 79
     3
176
     1
170
     0
176
     1
171
     0
176
     1
290
     0
176
     1
 93
        1
176
     1
 44
0.0
176
     1
173
     0
176
     1
  0
VISUALSTYLE
  5
30
102
{ACAD_REACTORS
330
2A
102
}
330
2A
100
AcDbVisualStyle
  2
3dWireframe
 70
     5
177
     2
291
     0
 71
     0
176
     1
 72
     2
176
     1
 73
     0
176
     1
 90
        0
176
     1
 40
-0.6
176
     1
 41
-30.0
176
     1
 62
     5
 63
     7
421
 16777215
176
     1
 74
     1
176
     1
 91
        4
176
     1
 64
     7
176
     1
 65
   257
176
     1
 75
     1
176
     1
175
     1
176
     1
 42
1.0
176
     1
 92
        0
176
     1
 66
   257
176
     1
 43
1.0
176
     1
 76
     1
176
     1
 77
     6
176
     1
 78
     2
176
     1
 67
     7
176
     1
 79
     5
176
     1
170
     0
176
     1
171
     0
176
     1
290
     0
176
     1
 93
        1
176
     1
 44
0.0
176
     1
173
     0
176
     1
  0
VISUALSTYLE
  5
32
102
{ACAD_REACTORS
330
2A
102
}
330
2A
100
AcDbVisualStyle
  2
Basic
 70
     7
177
     2
291
     1
 71
     1
176
     1
 72
     0
176
     1
 73
     1
176
     1
 90
        0
176
     1
 40
-0.6
176
     1
 41
-30.0
176
     1
 62
     5
 63
     7
421
 16777215
176
     1
 74
     0
176
     1
 91
        4
176
     1
 64
     7
176
     1
 65
   257
176
     1
 75
     1
176
     1
175
     1
176
     1
 42
1.0
176
     1
 92
        8
176
     1
 66
     7
176
     1
 43
1.0
176
     1
 76
     1
176
     1
 77
     6
176
     1
 78
     2
176
     1
 67
     7
176
     1
 79
     5
176
     1
170
     0
176
     1
171
     0
176
     1
290
     0
176
     1
 93
        1
176
     1
 44
0.0
176
     1
173
     0
176
     1
  0
VISUALSTYLE
  5
36
102
{ACAD_REACTORS
330
2A
102
}
330
2A
100
AcDbVisualStyle
  2
Brighten
 70
    12
177
     2
291
     1
 71
     2
176
     1
 72
     2
176
     1
 73
     0
176
     1
 90
        0
176
     1
 40
-0.6
176
     1
 41
-30.0
176
     1
 62
     5
 63
     7
421
 16777215
176
     1
 74
     1
176
     1
 91
        4
176
     1
 64
     7
176
     1
 65
   257
176
     1
 75
     1
176
     1
175
     1
176
     1
 42
1.0
176
     1
 92
        8
176
     1
 66
     7
176
     1
 43
1.0
176
     1
 76
     1
176
     1
 77
     6
176
     1
 78
     2
176
     1
 67
     7
176
     1
 79
     5
176
     1
170
     0
176
     1
171
     0
176
     1
290
     0
176
     1
 93
        1
176
     1
 44
50.0
176
     1
173
     0
176
     1
  0
VISUALSTYLE
  5
3A
102
{ACAD_REACTORS
330
2A
102
}
330
2A
100
AcDbVisualStyle
  2
ColorChange
 70
    16
177
     2
291
     1
 71
     2
176
     1
 72
     2
176
     1
 73
     3
176
     1
 90
        0
176
     1
 40
-0.6
176
     1
 41
-30.0
176
     1
 62
     5
 63
     8
421
  8421504
176
     1
 74
     1
176
     1
 91
        4
176
     1
 64
     7
176
     1
 65
   257
176
     1
 75
     1
176
     1
175
     1
176
     1
 42
1.0
176
     1
 92
        8
176
     1
 66
     8
424
  8421504
176
     1
 43
1.0
176
     1
 76
     1
176
     1
 77
     6
176
     1
 78
     2
176
     1
 67
     7
176
     1
 79
     5
176
     1
170
     0
176
     1
171
     0
176
     1
290
     0
176
     1
 93
        1
176
     1
 44
0.0
176
     1
173
     0
176
     1
  0
VISUALSTYLE
  5
34
102
{ACAD_REACTORS
330
2A
102
}
330
2A
100
AcDbVisualStyle
  2
Conceptual
 70
     9
177
     2
291
     0
 71
     3
176
     1
 72
     2
176
     1
 73
     0
176
     1
 90
        0
176
     1
 40
-0.6
176
     1
 41
-30.0
176
     1
 62
     5
 63
     7
421
 16777215
176
     1
 74
     2
176
     1
 91
        2
176
     1
 64
     7
176
     1
 65
   257
176
     1
 75
     1
176
     1
175
     1
176
     1
 42
40.0
176
     1
 92
        8
176
     1
 66
     7
176
     1
 43
1.0
176
     1
 76
     1
176
     1
 77
     6
176
     1
 78
     2
176
     1
 67
     7
176
     1
 79
     3
176
     1
170
     0
176
     1
171
     0
176
     1
290
     0
176
     1
 93
        1
176
     1
 44
0.0
176
     1
173
     0
176
     1
  0
VISUALSTYLE
  5
35
102
{ACAD_REACTORS
330
2A
102
}
330
2A
100
AcDbVisualStyle
  2
Dim
 70
    11
177
     2
291
     1
 71
     2
176
     1
 72
     2
176
     1
 73
     0
176
     1
 90
        0
176
     1
 40
-0.6
176
     1
 41
-30.0
176
     1
 62
     5
 63
     7
421
 16777215
176
     1
 74
     1
176
     1
 91
        4
176
     1
 64
     7
176
     1
 65
   257
176
     1
 75
     1
176
     1
175
     1
176
     1
 42
1.0
176
     1
 92
        8
176
     1
 66
     7
176
     1
 43
1.0
176
     1
 76
     1
176
     1
 77
     6
176
     1
 78
     2
176
     1
 67
     7
176
     1
 79
     5
176
     1
170
     0
176
     1
171
     0
176
     1
290
     0
176
     1
 93
        1
176
     1
 44
-50.0
176
     1
173
     0
176
     1
  0
VISUALSTYLE
  5
39
102
{ACAD_REACTORS
330
2A
102
}
330
2A
100
AcDbVisualStyle
  2
Facepattern
 70
    15
177
     2
291
     1
 71
     2
176
     1
 72
     2
176
     1
 73
     0
176
     1
 90
        0
176
     1
 40
-0.6
176
     1
 41
-30.0
176
     1
 62
     5
 63
     7
421
 16777215
176
     1
 74
     1
176
     1
 91
        4
176
     1
 64
     7
176
     1
 65
   257
176
     1
 75
     1
176
     1
175
     1
176
     1
 42
1.0
176
     1
 92
        8
176
     1
 66
     7
176
     1
 43
1.0
176
     1
 76
     1
176
     1
 77
     6
176
     1
 78
     2
176
     1
 67
     7
176
     1
 79
     5
176
     1
170
     0
176
     1
171
     0
176
     1
290
     0
176
     1
 93
        1
176
     1
 44
0.0
176
     1
173
     0
176
     1
  0
VISUALSTYLE
  5
2B
102
{ACAD_REACTORS
330
2A
102
}
330
2A
100
AcDbVisualStyle
  2
Flat
 70
     0
177
     2
291
     1
 71
     2
176
     1
 72
     1
176
     1
 73
     1
176
     1
 90
        2
176
     1
 40
-0.6
176
     1
 41
30.0
176
     1
 62
     5
 63
     7
421
 16777215
176
     1
 74
     0
176
     1
 91
        4
176
     1
 64
     7
176
     1
 65
   257
176
     1
 75
     1
176
     1
175
     1
176
     1
 42
1.0
176
     1
 92
        8
176
     1
 66
     7
176
     1
 43
1.0
176
     1
 76
     1
176
     1
 77
     6
176
     1
 78
     2
176
     1
 67
     7
176
     1
 79
     5
176
     1
170
     0
176
     1
171
     0
176
     1
290
     0
176
     1
 93
       13
176
     1
 44
0.0
176
     1
173
     0
176
     1
  0
VISUALSTYLE
  5
2C
102
{ACAD_REACTORS
330
2A
102
}
330
2A
100
AcDbVisualStyle
  2
FlatWithEdges
 70
     1
177
     2
291
     1
 71
     2
176
     1
 72
     1
176
     1
 73
     1
176
     1
 90
        2
176
     1
 40
-0.6
176
     1
 41
30.0
176
     1
 62
     5
 63
     7
421
 16777215
176
     1
 74
     1
176
     1
 91
        4
176
     1
 64
     7
176
     1
 65
   257
176
     1
 75
     1
176
     1
175
     1
176
     1
 42
1.0
176
     1
 92
        0
176
     1
 66
   257
176
     1
 43
1.0
176
     1
 76
     1
176
     1
 77
     6
176
     1
 78
     2
176
     1
 67
     7
176
     1
 79
     5
176
     1
170
     0
176
     1
171
     0
176
     1
290
     0
176
     1
 93
       13
176
     1
 44
0.0
176
     1
173
     0
176
     1
  0
VISUALSTYLE
  5
2D
102
{ACAD_REACTORS
330
2A
102
}
330
2A
100
AcDbVisualStyle
  2
Gouraud
 70
     2
177
     2
291
     1
 71
     2
176
     1
 72
     2
176
     1
 73
     1
176
     1
 90
        2
176
     1
 40
-0.6
176
     1
 41
30.0
176
     1
 62
     5
 63
     7
421
 16777215
176
     1
 74
     0
176
     1
 91
        4
176
     1
 64
     7
176
     1
 65
   257
176
     1
 75
     1
176
     1
175
     1
176
     1
 42
1.0
176
     1
 92
        0
176
     1
 66
     7
176
     1
 43
1.0
176
     1
 76
     1
176
     1
 77
     6
176
     1
 78
     2
176
     1
 67
     7
176
     1
 79
     5
176
     1
170
     0
176
     1
171
     0
176
     1
290
     0
176
     1
 93
       13
176
     1
 44
0.0
176
     1
173
     0
176
     1
  0
VISUALSTYLE
  5
2E
102
{ACAD_REACTORS
330
2A
102
}
330
2A
100
AcDbVisualStyle
  2
GouraudWithEdges
 70
     3
177
     2
291
     1
 71
     2
176
     1
 72
     2
176
     1
 73
     1
176
     1
 90
        2
176
     1
 40
-0.6
176
     1
 41
30.0
176
     1
 62
     5
 63
     7
421
 16777215
176
     1
 74
     1
176
     1
 91
        4
176
     1
 64
     7
176
     1
 65
   257
176
     1
 75
     1
176
     1
175
     1
176
     1
 42
1.0
176
     1
 92
        0
176
     1
 66
   257
176
     1
 43
1.0
176
     1
 76
     1
176
     1
 77
     6
176
     1
 78
     2
176
     1
 67
     7
176
     1
 79
     5
176
     1
170
     0
176
     1
171
     0
176
     1
290
     0
176
     1
 93
       13
176
     1
 44
0.0
176
     1
173
     0
176
     1
  0
VISUALSTYLE
  5
38
102
{ACAD_REACTORS
330
2A
102
}
330
2A
100
AcDbVisualStyle
  2
Linepattern
 70
    14
177
     2
291
     1
 71
     2
176
     1
 72
     2
176
     1
 73
     0
176
     1
 90
        0
176
     1
 40
-0.6
176
     1
 41
-30.0
176
     1
 62
     5
 63
     7
421
 16777215
176
     1
 74
     1
176
     1
 91
        4
176
     1
 64
     7
176
     1
 65
   257
176
     1
 75
     7
176
     1
175
     7
176
     1
 42
1.0
176
     1
 92
        8
176
     1
 66
     7
176
     1
 43
1.0
176
     1
 76
     1
176
     1
 77
     6
176
     1
 78
     2
176
     1
 67
     7
176
     1
 79
     5
176
     1
170
     0
176
     1
171
     0
176
     1
290
     0
176
     1
 93
        1
176
     1
 44
0.0
176
     1
173
     0
176
     1
  0
VISUALSTYLE
  5
33
102
{ACAD_REACTORS
330
2A
102
}
330
2A
100
AcDbVisualStyle
  2
Realistic
 70
     8
177
     2
291
     0
 71
     2
176
     1
 72
     2
176
     1
 73
     0
176
     1
 90
        0
176
     1
 40
-0.6
176
     1
 41
-30.0
176
     1
 62
     5
 63
     7
421
 16777215
176
     1
 74
     1
176
     1
 91
        0
176
     1
 64
     7
176
     1
 65
   257
176
     1
 75
     1
176
     1
175
     1
176
     1
 42
1.0
176
     1
 92
        8
176
     1
 66
     8
424
  7895160
176
     1
 43
1.0
176
     1
 76
     1
176
     1
 77
     6
176
     1
 78
     2
176
     1
 67
     7
176
     1
 79
     5
176
     1
170
     0
176
     1
171
     0
176
     1
290
     0
176
     1
 93
       13
176
     1
 44
0.0
176
     1
173
     0
176
     1
  0
VISUALSTYLE
  5
37
102
{ACAD_REACTORS
330
2A
102
}
330
2A
100
AcDbVisualStyle
  2
Thicken
 70
    13
177
     2
291
     1
 71
     2
176
     1
 72
     2
176
     1
 73
     0
176
     1
 90
        0
176
     1
 40
-0.6
176
     1
 41
-30.0
176
     1
 62
     5
 63
     7
421
 16777215
176
     1
 74
     1
176
     1
 91
        4
176
     1
 64
     7
176
     1
 65
   257
176
     1
 75
     1
176
     1
175
     1
176
     1
 42
1.0
176
     1
 92
       12
176
     1
 66
     7
176
     1
 43
1.0
176
     1
 76
     1
176
     1
 77
     6
176
     1
 78
     2
176
     1
 67
     7
176
     1
 79
     5
176
     1
170
     0
176
     1
171
     0
176
     1
290
     0
176
     1
 93
        1
176
     1
 44
0.0
176
     1
173
     0
176
     1
  0
ENDSEC
  0
EOF
