  0
SECTION
  2
HEADER
  9
$ACADVER
  1
AC1024
  9
$ACADMAINTVER
 70
     6
  9
$DWGCODEPAGE
  3
UNDEFINED
  9
$INSBASE
 10
0.0
 20
0.0
 30
0.0
  9
$EXTMIN
 10
1.000000000000000E+20
 20
1.000000000000000E+20
 30
1.000000000000000E+20
  9
$EXTMAX
 10
-1.000000000000000E+20
 20
-1.000000000000000E+20
 30
-1.000000000000000E+20
  9
$LIMMIN
 10
0.0
 20
0.0
  9
$LIMMAX
 10
12.0
 20
9.0
  9
$ORTHOMODE
 70
     0
  9
$REGENMODE
 70
     1
  9
$FILLMODE
 70
     1
  9
$QTEXTMODE
 70
     0
  9
$MIRRTEXT
 70
     1
  9
$LTSCALE
 40
1.0
  9
$ATTMODE
 70
     1
  9
$TEXTSIZE
 40
0.2
  9
$TRACEWID
 40
0.05
  9
$TEXTSTYLE
  7
Standard
  9
$CLAYER
  8
0
  9
$CELTYPE
  6
ByLayer
  9
$CECOLOR
 62
   256
  9
$CELTSCALE
 40
1.0
  9
$DISPSILH
 70
     0
  9
$DIMSCALE
 40
1.0
  9
$DIMASZ
 40
0.18
  9
$DIMEXO
 40
0.0625
  9
$DIMDLI
 40
0.38
  9
$DIMRND
 40
0.0
  9
$DIMDLE
 40
0.0
  9
$DIMEXE
 40
0.18
  9
$DIMTP
 40
0.0
  9
$DIMTM
 40
0.0
  9
$DIMTXT
 40
0.18
  9
$DIMCEN
 40
0.09
  9
$DIMTSZ
 40
0.0
  9
$DIMTOL
 70
     0
  9
$DIMLIM
 70
     0
  9
$DIMTIH
 70
     1
  9
$DIMTOH
 70
     1
  9
$DIMSE1
 70
     0
  9
$DIMSE2
 70
     0
  9
$DIMTAD
 70
     0
  9
$DIMZIN
 70
     0
  9
$DIMBLK
  1

  9
$DIMASO
 70
     1
  9
$DIMSHO
 70
     1
  9
$DIMPOST
  1

  9
$DIMAPOST
  1

  9
$DIMALT
 70
     0
  9
$DIMALTD
 70
     2
  9
$DIMALTF
 40
25.4
  9
$DIMLFAC
 40
1.0
  9
$DIMTOFL
 70
     0
  9
$DIMTVP
 40
0.0
  9
$DIMTIX
 70
     0
  9
$DIMSOXD
 70
     0
  9
$DIMSAH
 70
     0
  9
$DIMBLK1
  1

  9
$DIMBLK2
  1

  9
$DIMSTYLE
  2
Standard
  9
$DIMCLRD
 70
     0
  9
$DIMCLRE
 70
     0
  9
$DIMCLRT
 70
     0
  9
$DIMTFAC
 40
1.0
  9
$DIMGAP
 40
0.09
  9
$DIMJUST
 70
     0
  9
$DIMSD1
 70
     0
  9
$DIMSD2
 70
     0
  9
$DIMTOLJ
 70
     1
  9
$DIMTZIN
 70
     0
  9
$DIMALTZ
 70
     0
  9
$DIMALTTZ
 70
     0
  9
$DIMUPT
 70
     0
  9
$DIMDEC
 70
     4
  9
$DIMTDEC
 70
     4
  9
$DIMALTU
 70
     2
  9
$DIMALTTD
 70
     2
  9
$DIMTXSTY
  7
Standard
  9
$DIMAUNIT
 70
     0
  9
$DIMADEC
 70
     0
  9
$DIMALTRND
 40
0.0
  9
$DIMAZIN
 70
     0
  9
$DIMDSEP
 70
    46
  9
$DIMATFIT
 70
     3
  9
$DIMFRAC
 70
     0
  9
$DIMLDRBLK
  1

  9
$DIMLUNIT
 70
     2
  9
$DIMLWD
 70
    -2
  9
$DIMLWE
 70
    -2
  9
$DIMTMOVE
 70
     0
  9
$DIMFXL
 40
1.0
  9
$DIMFXLON
 70
     0
  9
$DIMJOGANG
 40
0.7853981633974483
  9
$DIMTFILL
 70
     0
  9
$DIMTFILLCLR
 70
     0
  9
$DIMARCSYM
 70
     0
  9
$DIMLTYPE
  6

  9
$DIMLTEX1
  6

  9
$DIMLTEX2
  6

  9
$DIMTXTDIRECTION
 70
     0
  9
$LUNITS
 70
     2
  9
$LUPREC
 70
     4
  9
$SKETCHINC
 40
0.1
  9
$FILLETRAD
 40
0.5
  9
$AUNITS
 70
     0
  9
$AUPREC
 70
     0
  9
$MENU
  1
.
  9
$ELEVATION
 40
0.0
  9
$PELEVATION
 40
0.0
  9
$THICKNESS
 40
0.0
  9
$LIMCHECK
 70
     0
  9
$CHAMFERA
 40
0.5
  9
$CHAMFERB
 40
0.5
  9
$CHAMFERC
 40
1.0
  9
$CHAMFERD
 40
0.0
  9
$SKPOLY
 70
     0
  9
$TDCREATE
 40
2457917.610150451
  9
$TDUCREATE
 40
2457917.235150463
  9
$TDUPDATE
 40
2457917.610150451
  9
$TDUUPDATE
 40
2457917.235150463
  9
$TDINDWG
 40
0.0000000116
  9
$TDUSRTIMER
 40
0.0000000116
  9
$USRTIMER
 70
     1
  9
$ANGBASE
 50
0.0
  9
$ANGDIR
 70
     0
  9
$PDMODE
 70
     0
  9
$PDSIZE
 40
0.0
  9
$PLINEWID
 40
0.0
  9
$SPLFRAME
 70
     0
  9
$SPLINETYPE
 70
     6
  9
$SPLINESEGS
 70
     8
  9
$HANDSEED
  5
14E
  9
$SURFTAB1
 70
     6
  9
$SURFTAB2
 70
     6
  9
$SURFTYPE
 70
     6
  9
$SURFU
 70
     6
  9
$SURFV
 70
     6
  9
$UCSBASE
  2

  9
$UCSNAME
  2

  9
$UCSORG
 10
0.0
 20
0.0
 30
0.0
  9
$UCSXDIR
 10
1.0
 20
0.0
 30
0.0
  9
$UCSYDIR
 10
0.0
 20
1.0
 30
0.0
  9
$UCSORTHOREF
  2

  9
$UCSORTHOVIEW
 70
     0
  9
$UCSORGTOP
 10
0.0
 20
0.0
 30
0.0
  9
$UCSORGBOTTOM
 10
0.0
 20
0.0
 30
0.0
  9
$UCSORGLEFT
 10
0.0
 20
0.0
 30
0.0
  9
$UCSORGRIGHT
 10
0.0
 20
0.0
 30
0.0
  9
$UCSORGFRONT
 10
0.0
 20
0.0
 30
0.0
  9
$UCSORGBACK
 10
0.0
 20
0.0
 30
0.0
  9
$PUCSBASE
  2

  9
$PUCSNAME
  2

  9
$PUCSORG
 10
0.0
 20
0.0
 30
0.0
  9
$PUCSXDIR
 10
1.0
 20
0.0
 30
0.0
  9
$PUCSYDIR
 10
0.0
 20
1.0
 30
0.0
  9
$PUCSORTHOREF
  2

  9
$PUCSORTHOVIEW
 70
     0
  9
$PUCSORGTOP
 10
0.0
 20
0.0
 30
0.0
  9
$PUCSORGBOTTOM
 10
0.0
 20
0.0
 30
0.0
  9
$PUCSORGLEFT
 10
0.0
 20
0.0
 30
0.0
  9
$PUCSORGRIGHT
 10
0.0
 20
0.0
 30
0.0
  9
$PUCSORGFRONT
 10
0.0
 20
0.0
 30
0.0
  9
$PUCSORGBACK
 10
0.0
 20
0.0
 30
0.0
  9
$USERI1
 70
     0
  9
$USERI2
 70
     0
  9
$USERI3
 70
     0
  9
$USERI4
 70
     0
  9
$USERI5
 70
     0
  9
$USERR1
 40
0.0
  9
$USERR2
 40
0.0
  9
$USERR3
 40
0.0
  9
$USERR4
 40
0.0
  9
$USERR5
 40
0.0
  9
$WORLDVIEW
 70
     1
  9
$SHADEDGE
 70
     3
  9
$SHADEDIF
 70
    70
  9
$TILEMODE
 70
     1
  9
$MAXACTVP
 70
    64
  9
$PINSBASE
 10
0.0
 20
0.0
 30
0.0
  9
$PLIMCHECK
 70
     0
  9
$PEXTMIN
 10
1.000000000000000E+20
 20
1.000000000000000E+20
 30
1.000000000000000E+20
  9
$PEXTMAX
 10
-1.000000000000000E+20
 20
-1.000000000000000E+20
 30
-1.000000000000000E+20
  9
$PLIMMIN
 10
0.0
 20
0.0
  9
$PLIMMAX
 10
12.0
 20
9.0
  9
$UNITMODE
 70
     0
  9
$VISRETAIN
 70
     1
  9
$PLINEGEN
 70
     0
  9
$PSLTSCALE
 70
     1
  9
$TREEDEPTH
 70
  3020
  9
$CMLSTYLE
  2
Standard
  9
$CMLJUST
 70
     0
  9
$CMLSCALE
 40
1.0
  9
$PROXYGRAPHICS
 70
     1
  9
$MEASUREMENT
 70
     0
  9
$CELWEIGHT
370
    -1
  9
$ENDCAPS
280
     0
  9
$JOINSTYLE
280
     0
  9
$LWDISPLAY
290
     1
  9
$INSUNITS
 70
     1
  9
$HYPERLINKBASE
  1

  9
$STYLESHEET
  1

  9
$XEDIT
290
     1
  9
$CEPSNTYPE
380
     0
  9
$PSTYLEMODE
290
     1
  9
$FINGERPRINTGUID
  2
{9D7BA0D2-42C1-3088-2741-E6BEA4B28740}
  9
$VERSIONGUID
  2
{FAEB1C32-E019-11D5-929B-00C0DF256EC4}
  9
$EXTNAMES
290
     1
  9
$PSVPSCALE
 40
0.0
  9
$OLESTARTUP
290
     0
  9
$SORTENTS
280
   127
  9
$INDEXCTL
280
     0
  9
$HIDETEXT
280
     1
  9
$XCLIPFRAME
280
     2
  9
$HALOGAP
280
     0
  9
$OBSCOLOR
 70
   257
  9
$OBSLTYPE
280
     0
  9
$INTERSECTIONDISPLAY
280
     0
  9
$INTERSECTIONCOLOR
 70
   257
  9
$DIMASSOC
280
     2
  9
$PROJECTNAME
  1

  9
$CAMERADISPLAY
290
     0
  9
$LENSLENGTH
 40
50.0
  9
$CAMERAHEIGHT
 40
0.0
  9
$STEPSPERSEC
 40
2.0
  9
$STEPSIZE
 40
6.0
  9
$3DDWFPREC
 40
2.0
  9
$PSOLWIDTH
 40
0.25
  9
$PSOLHEIGHT
 40
4.0
  9
$LOFTANG1
 40
1.570796326794897
  9
$LOFTANG2
 40
1.570796326794897
  9
$LOFTMAG1
 40
0.0
  9
$LOFTMAG2
 40
0.0
  9
$LOFTPARAM
 70
     7
  9
$LOFTNORMALS
280
     1
  9
$LATITUDE
 40
37.795
  9
$LONGITUDE
 40
-122.394
  9
$NORTHDIRECTION
 40
0.0
  9
$TIMEZONE
 70
 -8000
  9
$LIGHTGLYPHDISPLAY
280
     1
  9
$TILEMODELIGHTSYNCH
280
     1
  9
$CMATERIAL
347
3C
  9
$SOLIDHIST
280
     1
  9
$SHOWHIST
280
     1
  9
$DWFFRAME
280
     2
  9
$DGNFRAME
280
     2
  9
$REALWORLDSCALE
290
     1
  9
$INTERFERECOLOR
 62
   256
  9
$CSHADOW
280
     0
  9
$SHADOWPLANELOCATION
 40
0.0
  0
ENDSEC
  0
SECTION
  2
CLASSES
  0
CLASS
  1
ACDBDICTIONARYWDFLT
  2
AcDbDictionaryWithDefault
  3
ObjectDBX Classes
 90
        0
 91
        4
280
     0
281
     0
  0
CLASS
  1
VISUALSTYLE
  2
AcDbVisualStyle
  3
ObjectDBX Classes
 90
     4095
 91
        4
280
     0
281
     0
  0
CLASS
  1
MATERIAL
  2
AcDbMaterial
  3
ObjectDBX Classes
 90
     1153
 91
        4
280
     0
281
     0
  0
CLASS
  1
SUN
  2
AcDbSun
  3
SCENEOE
 90
     1024
 91
        4
280
     0
281
     0
  0
ENDSEC
  0
SECTION
  2
TABLES
  0
TABLE
  2
VPORT
  5
8
330
0
100
AcDbSymbolTable
 70
     1
  0
VPORT
  5
29
330
8
100
AcDbSymbolTableRecord
100
AcDbViewportTableRecord
  2
*Active
 70
     0
 10
0.0
 20
0.0
 11
1.0
 21
1.0
 12
0.0
 22
0.0
 13
0.0
 23
0.0
 14
0.5
 24
0.5
 15
0.5
 25
0.5
 16
0.0
 26
0.0
 36
1.0
 17
105.0008280156501
 27
-148.4999710739862
 37
0.0
 40
296.9999421479724
 41
0.7070764206636528
 42
50.0
 43
0.0
 44
0.0
 50
0.0
 51
0.0
 71
     0
 72
   100
 73
     1
 74
     3
 75
     0
 76
     0
 77
     0
 78
     0
281
     0
 65
     1
110
0.0
120
0.0
130
0.0
111
1.0
121
0.0
131
0.0
112
0.0
122
1.0
132
0.0
 79
     0
146
0.0
 60
     3
 61
     5
292
     1
282
     1
141
0.0
142
0.0
 63
   250
361
3F
  0
ENDTAB
  0
TABLE
  2
LTYPE
  5
5
330
0
100
AcDbSymbolTable
 70
     2
  0
LTYPE
  5
14
330
5
100
AcDbSymbolTableRecord
100
AcDbLinetypeTableRecord
  2
ByBlock
 70
     0
  3

 72
    65
 73
     0
 40
0.0
  0
LTYPE
  5
15
330
5
100
AcDbSymbolTableRecord
100
AcDbLinetypeTableRecord
  2
ByLayer
 70
     0
  3

 72
    65
 73
     0
 40
0.0
  0
LTYPE
  5
16
330
5
100
AcDbSymbolTableRecord
100
AcDbLinetypeTableRecord
  2
Continuous
 70
     0
  3
Solid line
 72
    65
 73
     0
 40
0.0
  0
LTYPE
  5
14A
330
5
100
AcDbSymbolTableRecord
100
AcDbLinetypeTableRecord
  2
AI-Linetype-1
 70
     0
  3
Adobe Illustrator Linetype No. 1
 72
    65
 73
     2
 40
1.411111110758333
 49
0.7055555553791667
 74
     0
 49
-0.7055555553791667
 74
     0
  0
ENDTAB
  0
TABLE
  2
LAYER
  5
2
330
0
100
AcDbSymbolTable
 70
     2
  0
LAYER
  5
10
330
2
100
AcDbSymbolTableRecord
100
AcDbLayerTableRecord
  2
0
 70
     0
 62
     7
  6
Continuous
370
    -3
390
F
347
3E
  0
LAYER
  5
40
330
2
100
AcDbSymbolTableRecord
100
AcDbLayerTableRecord
  2
_U+30EC_U+30A4_U+30E4_U+30FC 1
 70
     0
 62
     7
  6
Continuous
370
    -3
390
F
347
3E
  0
ENDTAB
  0
TABLE
  2
STYLE
  5
3
330
0
100
AcDbSymbolTable
 70
     1
  0
STYLE
  5
11
330
3
100
AcDbSymbolTableRecord
100
AcDbTextStyleTableRecord
  2
Standard
 70
     0
 40
0.0
 41
1.0
 50
0.0
 71
     0
 42
0.2
  3
txt
  4

  0
ENDTAB
  0
TABLE
  2
VIEW
  5
6
330
0
100
AcDbSymbolTable
 70
     0
  0
ENDTAB
  0
TABLE
  2
UCS
  5
7
330
0
100
AcDbSymbolTable
 70
     0
  0
ENDTAB
  0
TABLE
  2
APPID
  5
9
330
0
100
AcDbSymbolTable
 70
     1
  0
APPID
  5
12
330
9
100
AcDbSymbolTableRecord
100
AcDbRegAppTableRecord
  2
ACAD
 70
     0
  0
ENDTAB
  0
TABLE
  2
DIMSTYLE
  5
A
330
0
100
AcDbSymbolTable
 70
     1
100
AcDbDimStyleTable
  0
DIMSTYLE
105
27
330
A
100
AcDbSymbolTableRecord
100
AcDbDimStyleTableRecord
  2
Standard
 70
     0
178
     0
340
11
  0
ENDTAB
  0
TABLE
  2
BLOCK_RECORD
  5
1
330
0
100
AcDbSymbolTable
 70
     8
  0
BLOCK_RECORD
  5
1F
330
1
100
AcDbSymbolTableRecord
100
AcDbBlockTableRecord
  2
*Model_Space
340
22
 70
     0
280
     1
281
     0
  0
BLOCK_RECORD
  5
1B
330
1
100
AcDbSymbolTableRecord
100
AcDbBlockTableRecord
  2
*Paper_Space
340
1E
 70
     0
280
     1
281
     0
  0
BLOCK_RECORD
  5
23
330
1
100
AcDbSymbolTableRecord
100
AcDbBlockTableRecord
  2
*Paper_Space0
340
26
 70
     0
280
     1
281
     0
  0
BLOCK_RECORD
  5
93
330
1
100
AcDbSymbolTableRecord
100
AcDbBlockTableRecord
  2
block 2
340
0
102
{BLKREFS
331
94
102
}
 70
     0
280
     1
281
     0
  0
BLOCK_RECORD
  5
A1
330
1
100
AcDbSymbolTableRecord
100
AcDbBlockTableRecord
  2
block 3
340
0
102
{BLKREFS
331
A2
102
}
 70
     0
280
     1
281
     0
  0
BLOCK_RECORD
  5
B6
330
1
100
AcDbSymbolTableRecord
100
AcDbBlockTableRecord
  2
block 4
340
0
102
{BLKREFS
331
B7
102
}
 70
     0
280
     1
281
     0
  0
BLOCK_RECORD
  5
C7
330
1
100
AcDbSymbolTableRecord
100
AcDbBlockTableRecord
  2
block 5
340
0
102
{BLKREFS
331
C8
102
}
 70
     0
280
     1
281
     0
  0
BLOCK_RECORD
  5
DA
330
1
100
AcDbSymbolTableRecord
100
AcDbBlockTableRecord
  2
block 6
340
0
102
{BLKREFS
331
DB
102
}
 70
     0
280
     1
281
     0
  0
BLOCK_RECORD
  5
F2
330
1
100
AcDbSymbolTableRecord
100
AcDbBlockTableRecord
  2
block 7
340
0
102
{BLKREFS
331
F3
102
}
 70
     0
280
     1
281
     0
  0
BLOCK_RECORD
  5
107
330
1
100
AcDbSymbolTableRecord
100
AcDbBlockTableRecord
  2
block 8
340
0
102
{BLKREFS
331
108
102
}
 70
     0
280
     1
281
     0
  0
ENDTAB
  0
ENDSEC
  0
SECTION
  2
BLOCKS
  0
BLOCK
  5
20
330
1F
100
AcDbEntity
  8
0
100
AcDbBlockBegin
  2
*Model_Space
 70
     0
 10
0.0
 20
0.0
 30
0.0
  3
*Model_Space
  1

  0
ENDBLK
  5
21
330
1F
100
AcDbEntity
  8
0
100
AcDbBlockEnd
  0
BLOCK
  5
1C
330
1B
100
AcDbEntity
 67
     1
  8
0
100
AcDbBlockBegin
  2
*Paper_Space
 70
     0
 10
0.0
 20
0.0
 30
0.0
  3
*Paper_Space
  1

  0
ENDBLK
  5
1D
330
1B
100
AcDbEntity
 67
     1
  8
0
100
AcDbBlockEnd
  0
BLOCK
  5
24
330
23
100
AcDbEntity
  8
0
100
AcDbBlockBegin
  2
*Paper_Space0
 70
     0
 10
0.0
 20
0.0
 30
0.0
  3
*Paper_Space0
  1

  0
ENDBLK
  5
25
330
23
100
AcDbEntity
  8
0
100
AcDbBlockEnd
  0
BLOCK
  5
95
330
93
100
AcDbEntity
  8
0
100
AcDbBlockBegin
  2
block 2
 70
     0
 10
0.0
 20
0.0
 30
0.0
  3
block 2
  1

  0
SPLINE
  5
97
330
93
100
AcDbEntity
  8
_U+30EC_U+30A4_U+30E4_U+30FC 1
370
     0
100
AcDbSpline
210
0.0
220
0.0
230
1.0
 70
    11
 71
     3
 72
    26
 73
    22
 74
     0
 42
0.0000000001
 43
0.0000000001
 12
1.0
 22
0.0
 32
0.0
 13
1.0
 23
0.0
 33
0.0
 40
0.0
 40
0.0
 40
0.0
 40
0.0
 40
1.0
 40
1.0
 40
1.0
 40
2.0
 40
2.0
 40
2.0
 40
3.0
 40
3.0
 40
3.0
 40
4.0
 40
4.0
 40
4.0
 40
5.0
 40
5.0
 40
5.0
 40
6.0
 40
6.0
 40
6.0
 40
7.0
 40
7.0
 40
7.0
 40
7.0
 10
120.7974500566062
 20
-139.107443541612
 30
0.0
 10
120.7974500566062
 20
-139.107443541612
 30
0.0
 10
119.6932969535836
 20
-139.107443541612
 30
0.0
 10
119.6932969535836
 20
-139.107443541612
 30
0.0
 10
119.6932969535836
 20
-139.107443541612
 30
0.0
 10
119.6932969535836
 20
-139.437483689099
 30
0.0
 10
119.6932969535836
 20
-139.437483689099
 30
0.0
 10
119.6932969535836
 20
-139.437483689099
 30
0.0
 10
119.5451578477179
 20
-139.437483689099
 30
0.0
 10
119.5451578477179
 20
-139.437483689099
 30
0.0
 10
119.5303439371313
 20
-139.1053764843209
 30
0.0
 10
119.367390920679
 20
-139.05886769527
 30
0.0
 10
119.2530137505687
 20
-139.0292398740969
 30
0.0
 10
119.2530137505687
 20
-139.0292398740969
 30
0.0
 10
119.2530137505687
 20
-138.8831678255223
 30
0.0
 10
119.2530137505687
 20
-138.8831678255223
 30
0.0
 10
119.2530137505687
 20
-138.8831678255223
 30
0.0
 10
120.7974500566062
 20
-138.8831678255223
 30
0.0
 10
120.7974500566062
 20
-138.8831678255223
 30
0.0
 10
120.7974500566062
 20
-138.8831678255223
 30
0.0
 10
120.7974500566062
 20
-139.107443541612
 30
0.0
 10
120.7974500566062
 20
-139.107443541612
 30
0.0
  0
HATCH
  5
98
330
93
100
AcDbEntity
  8
_U+30EC_U+30A4_U+30E4_U+30FC 1
 62
     7
420
 16777215
100
AcDbHatch
 10
0.0
 20
0.0
 30
0.0
210
0.0
220
0.0
230
1.0
  2
SOLID
 70
     1
 71
     0
 91
        1
 92
        1
 93
        1
 72
     4
 94
        3
 73
     0
 74
     1
 95
       26
 96
       22
 40
0.0
 40
0.0
 40
0.0
 40
0.0
 40
1.0
 40
1.0
 40
1.0
 40
2.0
 40
2.0
 40
2.0
 40
3.0
 40
3.0
 40
3.0
 40
4.0
 40
4.0
 40
4.0
 40
5.0
 40
5.0
 40
5.0
 40
6.0
 40
6.0
 40
6.0
 40
7.0
 40
7.0
 40
7.0
 40
7.0
 10
120.7974500566062
 20
-139.107443541612
 10
120.7974500566062
 20
-139.107443541612
 10
119.6932969535836
 20
-139.107443541612
 10
119.6932969535836
 20
-139.107443541612
 10
119.6932969535836
 20
-139.107443541612
 10
119.6932969535836
 20
-139.437483689099
 10
119.6932969535836
 20
-139.437483689099
 10
119.6932969535836
 20
-139.437483689099
 10
119.5451578477179
 20
-139.437483689099
 10
119.5451578477179
 20
-139.437483689099
 10
119.5303439371313
 20
-139.1053764843209
 10
119.367390920679
 20
-139.05886769527
 10
119.2530137505687
 20
-139.0292398740969
 10
119.2530137505687
 20
-139.0292398740969
 10
119.2530137505687
 20
-138.8831678255223
 10
119.2530137505687
 20
-138.8831678255223
 10
119.2530137505687
 20
-138.8831678255223
 10
120.7974500566062
 20
-138.8831678255223
 10
120.7974500566062
 20
-138.8831678255223
 10
120.7974500566062
 20
-138.8831678255223
 10
120.7974500566062
 20
-139.107443541612
 10
120.7974500566062
 20
-139.107443541612
 97
        0
 97
        0
 75
     2
 76
     1
 98
        0
  0
ENDBLK
  5
96
330
93
100
AcDbEntity
  8
0
100
AcDbBlockEnd
  0
BLOCK
  5
A3
330
A1
100
AcDbEntity
  8
0
100
AcDbBlockBegin
  2
block 3
 70
     0
 10
0.0
 20
0.0
 30
0.0
  3
block 3
  1

  0
SPLINE
  5
A5
330
A1
100
AcDbEntity
  8
_U+30EC_U+30A4_U+30E4_U+30FC 1
370
     0
100
AcDbSpline
210
0.0
220
0.0
230
1.0
 70
    11
 71
     3
 72
    26
 73
    22
 74
     0
 42
0.0000000001
 43
0.0000000001
 12
1.0
 22
0.0
 32
0.0
 13
1.0
 23
0.0
 33
0.0
 40
0.0
 40
0.0
 40
0.0
 40
0.0
 40
1.0
 40
1.0
 40
1.0
 40
2.0
 40
2.0
 40
2.0
 40
3.0
 40
3.0
 40
3.0
 40
4.0
 40
4.0
 40
4.0
 40
5.0
 40
5.0
 40
5.0
 40
6.0
 40
6.0
 40
6.0
 40
7.0
 40
7.0
 40
7.0
 40
7.0
 10
120.7971055470577
 20
-148.7750704923201
 30
0.0
 10
120.7971055470577
 20
-148.7750704923201
 30
0.0
 10
119.6929524440351
 20
-148.7750704923201
 30
0.0
 10
119.6929524440351
 20
-148.7750704923201
 30
0.0
 10
119.6929524440351
 20
-148.7750704923201
 30
0.0
 10
119.6929524440351
 20
-149.1051106398071
 30
0.0
 10
119.6929524440351
 20
-149.1051106398071
 30
0.0
 10
119.6929524440351
 20
-149.1051106398071
 30
0.0
 10
119.5448133381694
 20
-149.1051106398071
 30
0.0
 10
119.5448133381694
 20
-149.1051106398071
 30
0.0
 10
119.5299994275828
 20
-148.773003435029
 30
0.0
 10
119.3670464111305
 20
-148.7264946459781
 30
0.0
 10
119.2526692410202
 20
-148.6968668248049
 30
0.0
 10
119.2526692410202
 20
-148.6968668248049
 30
0.0
 10
119.2526692410202
 20
-148.5507947762304
 30
0.0
 10
119.2526692410202
 20
-148.5507947762304
 30
0.0
 10
119.2526692410202
 20
-148.5507947762304
 30
0.0
 10
120.7971055470577
 20
-148.5507947762304
 30
0.0
 10
120.7971055470577
 20
-148.5507947762304
 30
0.0
 10
120.7971055470577
 20
-148.5507947762304
 30
0.0
 10
120.7971055470577
 20
-148.7750704923201
 30
0.0
 10
120.7971055470577
 20
-148.7750704923201
 30
0.0
  0
HATCH
  5
A6
330
A1
100
AcDbEntity
  8
_U+30EC_U+30A4_U+30E4_U+30FC 1
 62
     7
420
 16777215
100
AcDbHatch
 10
0.0
 20
0.0
 30
0.0
210
0.0
220
0.0
230
1.0
  2
SOLID
 70
     1
 71
     0
 91
        1
 92
        1
 93
        1
 72
     4
 94
        3
 73
     0
 74
     1
 95
       26
 96
       22
 40
0.0
 40
0.0
 40
0.0
 40
0.0
 40
1.0
 40
1.0
 40
1.0
 40
2.0
 40
2.0
 40
2.0
 40
3.0
 40
3.0
 40
3.0
 40
4.0
 40
4.0
 40
4.0
 40
5.0
 40
5.0
 40
5.0
 40
6.0
 40
6.0
 40
6.0
 40
7.0
 40
7.0
 40
7.0
 40
7.0
 10
120.7971055470577
 20
-148.7750704923201
 10
120.7971055470577
 20
-148.7750704923201
 10
119.6929524440351
 20
-148.7750704923201
 10
119.6929524440351
 20
-148.7750704923201
 10
119.6929524440351
 20
-148.7750704923201
 10
119.6929524440351
 20
-149.1051106398071
 10
119.6929524440351
 20
-149.1051106398071
 10
119.6929524440351
 20
-149.1051106398071
 10
119.5448133381694
 20
-149.1051106398071
 10
119.5448133381694
 20
-149.1051106398071
 10
119.5299994275828
 20
-148.773003435029
 10
119.3670464111305
 20
-148.7264946459781
 10
119.2526692410202
 20
-148.6968668248049
 10
119.2526692410202
 20
-148.6968668248049
 10
119.2526692410202
 20
-148.5507947762304
 10
119.2526692410202
 20
-148.5507947762304
 10
119.2526692410202
 20
-148.5507947762304
 10
120.7971055470577
 20
-148.5507947762304
 10
120.7971055470577
 20
-148.5507947762304
 10
120.7971055470577
 20
-148.5507947762304
 10
120.7971055470577
 20
-148.7750704923201
 10
120.7971055470577
 20
-148.7750704923201
 97
        0
 97
        0
 75
     2
 76
     1
 98
        0
  0
SPLINE
  5
A7
330
A1
100
AcDbEntity
  8
_U+30EC_U+30A4_U+30E4_U+30FC 1
370
     0
100
AcDbSpline
210
0.0
220
0.0
230
1.0
 70
    11
 71
     3
 72
    29
 73
    25
 74
     0
 42
0.0000000001
 43
0.0000000001
 12
1.0
 22
0.0
 32
0.0
 13
1.0
 23
0.0
 33
0.0
 40
0.0
 40
0.0
 40
0.0
 40
0.0
 40
1.0
 40
1.0
 40
1.0
 40
2.0
 40
2.0
 40
2.0
 40
3.0
 40
3.0
 40
3.0
 40
4.0
 40
4.0
 40
4.0
 40
5.0
 40
5.0
 40
5.0
 40
6.0
 40
6.0
 40
6.0
 40
7.0
 40
7.0
 40
7.0
 40
8.0
 40
8.0
 40
8.0
 40
8.0
 10
120.6193386200188
 20
-147.1517414996704
 30
0.0
 10
120.828800425522
 20
-147.2599174979073
 30
0.0
 10
120.8477484506908
 20
-147.4332058008153
 30
0.0
 10
120.8477484506908
 20
-147.5496500282168
 30
0.0
 10
120.8477484506908
 20
-147.7105359873779
 30
0.0
 10
120.80123966164
 20
-147.8521294118217
 30
0.0
 10
120.6193386200188
 20
-147.9472140472146
 30
0.0
 10
120.4246907251022
 20
-148.0509114213206
 30
0.0
 10
120.187668155717
 20
-148.0698594464895
 30
0.0
 10
120.0250596488132
 20
-148.0698594464895
 30
0.0
 10
119.8810546575297
 20
-148.0698594464895
 30
0.0
 10
119.629218177558
 20
-148.0529784786117
 30
0.0
 10
119.4304361680591
 20
-147.9472140472146
 30
0.0
 10
119.2275200439778
 20
-147.8393825585263
 30
0.0
 10
119.2040933946782
 20
-147.6784965993651
 30
0.0
 10
119.2040933946782
 20
-147.5496500282168
 30
0.0
 10
119.2040933946782
 20
-147.3908311263467
 30
0.0
 10
119.2485351264379
 20
-147.2471706446118
 30
0.0
 10
119.4304361680591
 20
-147.1517414996704
 30
0.0
 10
119.6230170056845
 20
-147.0525227496952
 30
0.0
 10
119.8514268363566
 20
-147.0290961003955
 30
0.0
 10
120.0250596488132
 20
-147.0290961003955
 30
0.0
 10
120.1962808944301
 20
-147.0290961003955
 30
0.0
 10
120.4267577823933
 20
-147.0504556924041
 30
0.0
 10
120.6193386200188
 20
-147.1517414996704
 30
0.0
  0
SPLINE
  5
A8
330
A1
100
AcDbEntity
  8
_U+30EC_U+30A4_U+30E4_U+30FC 1
370
     0
100
AcDbSpline
210
0.0
220
0.0
230
1.0
 70
    11
 71
     3
 72
    17
 73
    13
 74
     0
 42
0.0000000001
 43
0.0000000001
 12
1.0
 22
0.0
 32
0.0
 13
1.0
 23
0.0
 33
0.0
 40
0.0
 40
0.0
 40
0.0
 40
0.0
 40
1.0
 40
1.0
 40
1.0
 40
2.0
 40
2.0
 40
2.0
 40
3.0
 40
3.0
 40
3.0
 40
4.0
 40
4.0
 40
4.0
 40
4.0
 10
119.3966742323036
 20
-147.5496500282168
 30
0.0
 10
119.3966742323036
 20
-147.7990749413489
 30
0.0
 10
119.6802055907397
 20
-147.8459282399483
 30
0.0
 10
120.0250596488132
 20
-147.8459282399483
 30
0.0
 10
120.3444200002958
 20
-147.8459282399483
 30
0.0
 10
120.6531005557742
 20
-147.8097547373531
 30
0.0
 10
120.6531005557742
 20
-147.5496500282168
 30
0.0
 10
120.6531005557742
 20
-147.3019476628273
 30
0.0
 10
120.3719807641778
 20
-147.2533718164853
 30
0.0
 10
120.0250596488132
 20
-147.2533718164853
 30
0.0
 10
119.705354787782
 20
-147.2533718164853
 30
0.0
 10
119.3966742323036
 20
-147.2916123763715
 30
0.0
 10
119.3966742323036
 20
-147.5496500282168
 30
0.0
  0
HATCH
  5
A9
330
A1
100
AcDbEntity
  8
_U+30EC_U+30A4_U+30E4_U+30FC 1
 62
     7
420
 16777215
100
AcDbHatch
 10
0.0
 20
0.0
 30
0.0
210
0.0
220
0.0
230
1.0
  2
SOLID
 70
     1
 71
     0
 91
        2
 92
        1
 93
        1
 72
     4
 94
        3
 73
     0
 74
     1
 95
       29
 96
       25
 40
0.0
 40
0.0
 40
0.0
 40
0.0
 40
1.0
 40
1.0
 40
1.0
 40
2.0
 40
2.0
 40
2.0
 40
3.0
 40
3.0
 40
3.0
 40
4.0
 40
4.0
 40
4.0
 40
5.0
 40
5.0
 40
5.0
 40
6.0
 40
6.0
 40
6.0
 40
7.0
 40
7.0
 40
7.0
 40
8.0
 40
8.0
 40
8.0
 40
8.0
 10
120.6193386200188
 20
-147.1517414996704
 10
120.828800425522
 20
-147.2599174979073
 10
120.8477484506908
 20
-147.4332058008153
 10
120.8477484506908
 20
-147.5496500282168
 10
120.8477484506908
 20
-147.7105359873779
 10
120.80123966164
 20
-147.8521294118217
 10
120.6193386200188
 20
-147.9472140472146
 10
120.4246907251022
 20
-148.0509114213206
 10
120.187668155717
 20
-148.0698594464895
 10
120.0250596488132
 20
-148.0698594464895
 10
119.8810546575297
 20
-148.0698594464895
 10
119.629218177558
 20
-148.0529784786117
 10
119.4304361680591
 20
-147.9472140472146
 10
119.2275200439778
 20
-147.8393825585263
 10
119.2040933946782
 20
-147.6784965993651
 10
119.2040933946782
 20
-147.5496500282168
 10
119.2040933946782
 20
-147.3908311263467
 10
119.2485351264379
 20
-147.2471706446118
 10
119.4304361680591
 20
-147.1517414996704
 10
119.6230170056845
 20
-147.0525227496952
 10
119.8514268363566
 20
-147.0290961003955
 10
120.0250596488132
 20
-147.0290961003955
 10
120.1962808944301
 20
-147.0290961003955
 10
120.4267577823933
 20
-147.0504556924041
 10
120.6193386200188
 20
-147.1517414996704
 97
        0
 97
        0
 92
        1
 93
        1
 72
     4
 94
        3
 73
     0
 74
     1
 95
       17
 96
       13
 40
0.0
 40
0.0
 40
0.0
 40
0.0
 40
1.0
 40
1.0
 40
1.0
 40
2.0
 40
2.0
 40
2.0
 40
3.0
 40
3.0
 40
3.0
 40
4.0
 40
4.0
 40
4.0
 40
4.0
 10
119.3966742323036
 20
-147.5496500282168
 10
119.3966742323036
 20
-147.7990749413489
 10
119.6802055907397
 20
-147.8459282399483
 10
120.0250596488132
 20
-147.8459282399483
 10
120.3444200002958
 20
-147.8459282399483
 10
120.6531005557742
 20
-147.8097547373531
 10
120.6531005557742
 20
-147.5496500282168
 10
120.6531005557742
 20
-147.3019476628273
 10
120.3719807641778
 20
-147.2533718164853
 10
120.0250596488132
 20
-147.2533718164853
 10
119.705354787782
 20
-147.2533718164853
 10
119.3966742323036
 20
-147.2916123763715
 10
119.3966742323036
 20
-147.5496500282168
 97
        0
 97
        0
 75
     2
 76
     1
 98
        0
  0
ENDBLK
  5
A4
330
A1
100
AcDbEntity
  8
0
100
AcDbBlockEnd
  0
BLOCK
  5
B8
330
B6
100
AcDbEntity
  8
0
100
AcDbBlockBegin
  2
block 4
 70
     0
 10
0.0
 20
0.0
 30
0.0
  3
block 4
  1

  0
SPLINE
  5
BA
330
B6
100
AcDbEntity
  8
_U+30EC_U+30A4_U+30E4_U+30FC 1
370
     0
100
AcDbSpline
210
0.0
220
0.0
230
1.0
 70
    11
 71
     3
 72
    26
 73
    22
 74
     0
 42
0.0000000001
 43
0.0000000001
 12
1.0
 22
0.0
 32
0.0
 13
1.0
 23
0.0
 33
0.0
 40
0.0
 40
0.0
 40
0.0
 40
0.0
 40
1.0
 40
1.0
 40
1.0
 40
2.0
 40
2.0
 40
2.0
 40
3.0
 40
3.0
 40
3.0
 40
4.0
 40
4.0
 40
4.0
 40
5.0
 40
5.0
 40
5.0
 40
6.0
 40
6.0
 40
6.0
 40
7.0
 40
7.0
 40
7.0
 40
7.0
 10
97.38613143181666
 20
-156.7597682984837
 30
0.0
 10
97.38613143181666
 20
-156.7597682984837
 30
0.0
 10
97.38613143181666
 20
-155.6556151954611
 30
0.0
 10
97.38613143181666
 20
-155.6556151954611
 30
0.0
 10
97.38613143181666
 20
-155.6556151954611
 30
0.0
 10
97.05609128432972
 20
-155.6556151954611
 30
0.0
 10
97.05609128432972
 20
-155.6556151954611
 30
0.0
 10
97.05609128432972
 20
-155.6556151954611
 30
0.0
 10
97.05609128432972
 20
-155.5074760895954
 30
0.0
 10
97.05609128432972
 20
-155.5074760895954
 30
0.0
 10
97.38819848910782
 20
-155.4926621790088
 30
0.0
 10
97.43470727815868
 20
-155.3297091625565
 30
0.0
 10
97.46433509933183
 20
-155.2153319924462
 30
0.0
 10
97.46433509933183
 20
-155.2153319924462
 30
0.0
 10
97.61040714790643
 20
-155.2153319924462
 30
0.0
 10
97.61040714790643
 20
-155.2153319924462
 30
0.0
 10
97.61040714790643
 20
-155.2153319924462
 30
0.0
 10
97.61040714790643
 20
-156.7597682984837
 30
0.0
 10
97.61040714790643
 20
-156.7597682984837
 30
0.0
 10
97.61040714790643
 20
-156.7597682984837
 30
0.0
 10
97.38613143181666
 20
-156.7597682984837
 30
0.0
 10
97.38613143181666
 20
-156.7597682984837
 30
0.0
  0
HATCH
  5
BB
330
B6
100
AcDbEntity
  8
_U+30EC_U+30A4_U+30E4_U+30FC 1
 62
     7
420
 16777215
100
AcDbHatch
 10
0.0
 20
0.0
 30
0.0
210
0.0
220
0.0
230
1.0
  2
SOLID
 70
     1
 71
     0
 91
        1
 92
        1
 93
        1
 72
     4
 94
        3
 73
     0
 74
     1
 95
       26
 96
       22
 40
0.0
 40
0.0
 40
0.0
 40
0.0
 40
1.0
 40
1.0
 40
1.0
 40
2.0
 40
2.0
 40
2.0
 40
3.0
 40
3.0
 40
3.0
 40
4.0
 40
4.0
 40
4.0
 40
5.0
 40
5.0
 40
5.0
 40
6.0
 40
6.0
 40
6.0
 40
7.0
 40
7.0
 40
7.0
 40
7.0
 10
97.38613143181666
 20
-156.7597682984837
 10
97.38613143181666
 20
-156.7597682984837
 10
97.38613143181666
 20
-155.6556151954611
 10
97.38613143181666
 20
-155.6556151954611
 10
97.38613143181666
 20
-155.6556151954611
 10
97.05609128432972
 20
-155.6556151954611
 10
97.05609128432972
 20
-155.6556151954611
 10
97.05609128432972
 20
-155.6556151954611
 10
97.05609128432972
 20
-155.5074760895954
 10
97.05609128432972
 20
-155.5074760895954
 10
97.38819848910782
 20
-155.4926621790088
 10
97.43470727815868
 20
-155.3297091625565
 10
97.46433509933183
 20
-155.2153319924462
 10
97.46433509933183
 20
-155.2153319924462
 10
97.61040714790643
 20
-155.2153319924462
 10
97.61040714790643
 20
-155.2153319924462
 10
97.61040714790643
 20
-155.2153319924462
 10
97.61040714790643
 20
-156.7597682984837
 10
97.61040714790643
 20
-156.7597682984837
 10
97.61040714790643
 20
-156.7597682984837
 10
97.38613143181666
 20
-156.7597682984837
 10
97.38613143181666
 20
-156.7597682984837
 97
        0
 97
        0
 75
     2
 76
     1
 98
        0
  0
SPLINE
  5
BC
330
B6
100
AcDbEntity
  8
_U+30EC_U+30A4_U+30E4_U+30FC 1
370
     0
100
AcDbSpline
210
0.0
220
0.0
230
1.0
 70
    11
 71
     3
 72
    29
 73
    25
 74
     0
 42
0.0000000001
 43
0.0000000001
 12
1.0
 22
0.0
 32
0.0
 13
1.0
 23
0.0
 33
0.0
 40
0.0
 40
0.0
 40
0.0
 40
0.0
 40
1.0
 40
1.0
 40
1.0
 40
2.0
 40
2.0
 40
2.0
 40
3.0
 40
3.0
 40
3.0
 40
4.0
 40
4.0
 40
4.0
 40
5.0
 40
5.0
 40
5.0
 40
6.0
 40
6.0
 40
6.0
 40
7.0
 40
7.0
 40
7.0
 40
8.0
 40
8.0
 40
8.0
 40
8.0
 10
99.00946042446638
 20
-156.5820013714448
 30
0.0
 10
98.90128442622955
 20
-156.791463176948
 30
0.0
 10
98.72799612332147
 20
-156.8104112021169
 30
0.0
 10
98.61155189592003
 20
-156.8104112021169
 30
0.0
 10
98.45066593675887
 20
-156.8104112021169
 30
0.0
 10
98.3090725123151
 20
-156.763902413066
 30
0.0
 10
98.2139878769222
 20
-156.5820013714448
 30
0.0
 10
98.11029050281618
 20
-156.3873534765282
 30
0.0
 10
98.09099796809878
 20
-156.1506754166915
 30
0.0
 10
98.09099796809878
 20
-155.9877224002392
 30
0.0
 10
98.09099796809878
 20
-155.8437174089557
 30
0.0
 10
98.10822344552503
 20
-155.591880928984
 30
0.0
 10
98.2139878769222
 20
-155.3930989194851
 30
0.0
 10
98.32181936561052
 20
-155.1901827954038
 30
0.0
 10
98.48270532477169
 20
-155.1667561461041
 30
0.0
 10
98.61155189592003
 20
-155.1667561461041
 30
0.0
 10
98.77037079779005
 20
-155.1667561461041
 30
0.0
 10
98.91403127952496
 20
-155.2111978778639
 30
0.0
 10
99.00946042446638
 20
-155.3930989194851
 30
0.0
 10
99.10867917444159
 20
-155.5856797571105
 30
0.0
 10
99.13210582374128
 20
-155.8140895877826
 30
0.0
 10
99.13210582374128
 20
-155.9877224002392
 30
0.0
 10
99.13210582374128
 20
-156.1589436458561
 30
0.0
 10
99.11074623173273
 20
-156.3894205338193
 30
0.0
 10
99.00946042446638
 20
-156.5820013714448
 30
0.0
  0
SPLINE
  5
BD
330
B6
100
AcDbEntity
  8
_U+30EC_U+30A4_U+30E4_U+30FC 1
370
     0
100
AcDbSpline
210
0.0
220
0.0
230
1.0
 70
    11
 71
     3
 72
    17
 73
    13
 74
     0
 42
0.0000000001
 43
0.0000000001
 12
1.0
 22
0.0
 32
0.0
 13
1.0
 23
0.0
 33
0.0
 40
0.0
 40
0.0
 40
0.0
 40
0.0
 40
1.0
 40
1.0
 40
1.0
 40
2.0
 40
2.0
 40
2.0
 40
3.0
 40
3.0
 40
3.0
 40
4.0
 40
4.0
 40
4.0
 40
4.0
 10
98.61155189592003
 20
-155.3593369837296
 30
0.0
 10
98.36178247323942
 20
-155.3593369837296
 30
0.0
 10
98.31527368418855
 20
-155.6428683421657
 30
0.0
 10
98.31527368418855
 20
-155.9877224002392
 30
0.0
 10
98.31527368418855
 20
-156.3070827517219
 30
0.0
 10
98.35144718678367
 20
-156.6157633072002
 30
0.0
 10
98.61155189592003
 20
-156.6157633072002
 30
0.0
 10
98.8592542613095
 20
-156.6157633072002
 30
0.0
 10
98.90783010765152
 20
-156.3346435156039
 30
0.0
 10
98.90783010765152
 20
-155.9877224002392
 30
0.0
 10
98.90783010765152
 20
-155.668017539208
 30
0.0
 10
98.86958954776524
 20
-155.3593369837296
 30
0.0
 10
98.61155189592003
 20
-155.3593369837296
 30
0.0
  0
HATCH
  5
BE
330
B6
100
AcDbEntity
  8
_U+30EC_U+30A4_U+30E4_U+30FC 1
 62
     7
420
 16777215
100
AcDbHatch
 10
0.0
 20
0.0
 30
0.0
210
0.0
220
0.0
230
1.0
  2
SOLID
 70
     1
 71
     0
 91
        2
 92
        1
 93
        1
 72
     4
 94
        3
 73
     0
 74
     1
 95
       29
 96
       25
 40
0.0
 40
0.0
 40
0.0
 40
0.0
 40
1.0
 40
1.0
 40
1.0
 40
2.0
 40
2.0
 40
2.0
 40
3.0
 40
3.0
 40
3.0
 40
4.0
 40
4.0
 40
4.0
 40
5.0
 40
5.0
 40
5.0
 40
6.0
 40
6.0
 40
6.0
 40
7.0
 40
7.0
 40
7.0
 40
8.0
 40
8.0
 40
8.0
 40
8.0
 10
99.00946042446638
 20
-156.5820013714448
 10
98.90128442622955
 20
-156.791463176948
 10
98.72799612332147
 20
-156.8104112021169
 10
98.61155189592003
 20
-156.8104112021169
 10
98.45066593675887
 20
-156.8104112021169
 10
98.3090725123151
 20
-156.763902413066
 10
98.2139878769222
 20
-156.5820013714448
 10
98.11029050281618
 20
-156.3873534765282
 10
98.09099796809878
 20
-156.1506754166915
 10
98.09099796809878
 20
-155.9877224002392
 10
98.09099796809878
 20
-155.8437174089557
 10
98.10822344552503
 20
-155.591880928984
 10
98.2139878769222
 20
-155.3930989194851
 10
98.32181936561052
 20
-155.1901827954038
 10
98.48270532477169
 20
-155.1667561461041
 10
98.61155189592003
 20
-155.1667561461041
 10
98.77037079779005
 20
-155.1667561461041
 10
98.91403127952496
 20
-155.2111978778639
 10
99.00946042446638
 20
-155.3930989194851
 10
99.10867917444159
 20
-155.5856797571105
 10
99.13210582374128
 20
-155.8140895877826
 10
99.13210582374128
 20
-155.9877224002392
 10
99.13210582374128
 20
-156.1589436458561
 10
99.11074623173273
 20
-156.3894205338193
 10
99.00946042446638
 20
-156.5820013714448
 97
        0
 97
        0
 92
        1
 93
        1
 72
     4
 94
        3
 73
     0
 74
     1
 95
       17
 96
       13
 40
0.0
 40
0.0
 40
0.0
 40
0.0
 40
1.0
 40
1.0
 40
1.0
 40
2.0
 40
2.0
 40
2.0
 40
3.0
 40
3.0
 40
3.0
 40
4.0
 40
4.0
 40
4.0
 40
4.0
 10
98.61155189592003
 20
-155.3593369837296
 10
98.36178247323942
 20
-155.3593369837296
 10
98.31527368418855
 20
-155.6428683421657
 10
98.31527368418855
 20
-155.9877224002392
 10
98.31527368418855
 20
-156.3070827517219
 10
98.35144718678367
 20
-156.6157633072002
 10
98.61155189592003
 20
-156.6157633072002
 10
98.8592542613095
 20
-156.6157633072002
 10
98.90783010765152
 20
-156.3346435156039
 10
98.90783010765152
 20
-155.9877224002392
 10
98.90783010765152
 20
-155.668017539208
 10
98.86958954776524
 20
-155.3593369837296
 10
98.61155189592003
 20
-155.3593369837296
 97
        0
 97
        0
 75
     2
 76
     1
 98
        0
  0
ENDBLK
  5
B9
330
B6
100
AcDbEntity
  8
0
100
AcDbBlockEnd
  0
BLOCK
  5
C9
330
C7
100
AcDbEntity
  8
0
100
AcDbBlockBegin
  2
block 5
 70
     0
 10
0.0
 20
0.0
 30
0.0
  3
block 5
  1

  0
SPLINE
  5
CB
330
C7
100
AcDbEntity
  8
_U+30EC_U+30A4_U+30E4_U+30FC 1
370
     0
100
AcDbSpline
210
0.0
220
0.0
230
1.0
 70
    11
 71
     3
 72
    32
 73
    28
 74
     0
 42
0.0000000001
 43
0.0000000001
 12
1.0
 22
0.0
 32
0.0
 13
1.0
 23
0.0
 33
0.0
 40
0.0
 40
0.0
 40
0.0
 40
0.0
 40
1.0
 40
1.0
 40
1.0
 40
2.0
 40
2.0
 40
2.0
 40
3.0
 40
3.0
 40
3.0
 40
4.0
 40
4.0
 40
4.0
 40
5.0
 40
5.0
 40
5.0
 40
6.0
 40
6.0
 40
6.0
 40
7.0
 40
7.0
 40
7.0
 40
8.0
 40
8.0
 40
8.0
 40
9.0
 40
9.0
 40
9.0
 40
9.0
 10
90.10578339761244
 20
-156.8100666925683
 30
0.0
 10
89.58953583914776
 20
-156.8100666925683
 30
0.0
 10
89.5810953552089
 20
-156.2560953385401
 30
0.0
 10
89.5810953552089
 20
-156.0421549089061
 30
0.0
 10
89.5810953552089
 20
-155.8116780209429
 30
0.0
 10
89.60021563515204
 20
-155.1643445792645
 30
0.0
 10
90.14385170272446
 20
-155.1643445792645
 30
0.0
 10
90.3173122604068
 20
-155.1643445792645
 30
0.0
 10
90.56260305895657
 20
-155.234280017615
 30
0.0
 10
90.60084361884284
 20
-155.5663872223931
 30
0.0
 10
90.60084361884284
 20
-155.5663872223931
 30
0.0
 10
90.3870754439831
 20
-155.5663872223931
 30
0.0
 10
90.3870754439831
 20
-155.5663872223931
 30
0.0
 10
90.37656790275308
 20
-155.509198637338
 30
0.0
 10
90.34487302428879
 20
-155.3610595314723
 30
0.0
 10
90.1417846454333
 20
-155.3610595314723
 30
0.0
 10
89.84981280305838
 20
-155.3610595314723
 30
0.0
 10
89.80950518588097
 20
-155.689032621668
 30
0.0
 10
89.7969305873598
 20
-155.8940158030404
 30
0.0
 10
89.88994816546155
 20
-155.8158121355252
 30
0.0
 10
89.9576442917467
 20
-155.7565564931789
 30
0.0
 10
90.13954533336789
 20
-155.7565564931789
 30
0.0
 10
90.31937931769794
 20
-155.7565564931789
 30
0.0
 10
90.62185870130287
 20
-155.8647324914158
 30
0.0
 10
90.62185870130287
 20
-156.2709092491267
 30
0.0
 10
90.62185870130287
 20
-156.5902696006094
 30
0.0
 10
90.42307669180396
 20
-156.8100666925683
 30
0.0
 10
90.10578339761244
 20
-156.8100666925683
 30
0.0
  0
SPLINE
  5
CC
330
C7
100
AcDbEntity
  8
_U+30EC_U+30A4_U+30E4_U+30FC 1
370
     0
100
AcDbSpline
210
0.0
220
0.0
230
1.0
 70
    11
 71
     3
 72
    17
 73
    13
 74
     0
 42
0.0000000001
 43
0.0000000001
 12
1.0
 22
0.0
 32
0.0
 13
1.0
 23
0.0
 33
0.0
 40
0.0
 40
0.0
 40
0.0
 40
0.0
 40
1.0
 40
1.0
 40
1.0
 40
2.0
 40
2.0
 40
2.0
 40
3.0
 40
3.0
 40
3.0
 40
4.0
 40
4.0
 40
4.0
 40
4.0
 10
90.12266436549017
 20
-155.9512043880955
 30
0.0
 10
89.8603203442884
 20
-155.9512043880955
 30
0.0
 10
89.82225203917639
 20
-156.1627332508899
 30
0.0
 10
89.82225203917639
 20
-156.2791774782913
 30
0.0
 10
89.82225203917639
 20
-156.4548773480391
 30
0.0
 10
89.91750892934354
 20
-156.6178303644914
 30
0.0
 10
90.10147702825589
 20
-156.6178303644914
 30
0.0
 10
90.22205537023963
 20
-156.6178303644914
 30
0.0
 10
90.39775523998738
 20
-156.5585747221451
 30
0.0
 10
90.39775523998738
 20
-156.2729763064179
 30
0.0
 10
90.39775523998738
 20
-156.0487005903281
 30
0.0
 10
90.2580566180605
 20
-155.9512043880955
 30
0.0
 10
90.12266436549017
 20
-155.9512043880955
 30
0.0
  0
HATCH
  5
CD
330
C7
100
AcDbEntity
  8
_U+30EC_U+30A4_U+30E4_U+30FC 1
 62
     7
420
 16777215
100
AcDbHatch
 10
0.0
 20
0.0
 30
0.0
210
0.0
220
0.0
230
1.0
  2
SOLID
 70
     1
 71
     0
 91
        2
 92
        1
 93
        1
 72
     4
 94
        3
 73
     0
 74
     1
 95
       32
 96
       28
 40
0.0
 40
0.0
 40
0.0
 40
0.0
 40
1.0
 40
1.0
 40
1.0
 40
2.0
 40
2.0
 40
2.0
 40
3.0
 40
3.0
 40
3.0
 40
4.0
 40
4.0
 40
4.0
 40
5.0
 40
5.0
 40
5.0
 40
6.0
 40
6.0
 40
6.0
 40
7.0
 40
7.0
 40
7.0
 40
8.0
 40
8.0
 40
8.0
 40
9.0
 40
9.0
 40
9.0
 40
9.0
 10
90.10578339761244
 20
-156.8100666925683
 10
89.58953583914776
 20
-156.8100666925683
 10
89.5810953552089
 20
-156.2560953385401
 10
89.5810953552089
 20
-156.0421549089061
 10
89.5810953552089
 20
-155.8116780209429
 10
89.60021563515204
 20
-155.1643445792645
 10
90.14385170272446
 20
-155.1643445792645
 10
90.3173122604068
 20
-155.1643445792645
 10
90.56260305895657
 20
-155.234280017615
 10
90.60084361884284
 20
-155.5663872223931
 10
90.60084361884284
 20
-155.5663872223931
 10
90.3870754439831
 20
-155.5663872223931
 10
90.3870754439831
 20
-155.5663872223931
 10
90.37656790275308
 20
-155.509198637338
 10
90.34487302428879
 20
-155.3610595314723
 10
90.1417846454333
 20
-155.3610595314723
 10
89.84981280305838
 20
-155.3610595314723
 10
89.80950518588097
 20
-155.689032621668
 10
89.7969305873598
 20
-155.8940158030404
 10
89.88994816546155
 20
-155.8158121355252
 10
89.9576442917467
 20
-155.7565564931789
 10
90.13954533336789
 20
-155.7565564931789
 10
90.31937931769794
 20
-155.7565564931789
 10
90.62185870130287
 20
-155.8647324914158
 10
90.62185870130287
 20
-156.2709092491267
 10
90.62185870130287
 20
-156.5902696006094
 10
90.42307669180396
 20
-156.8100666925683
 10
90.10578339761244
 20
-156.8100666925683
 97
        0
 97
        0
 92
        1
 93
        1
 72
     4
 94
        3
 73
     0
 74
     1
 95
       17
 96
       13
 40
0.0
 40
0.0
 40
0.0
 40
0.0
 40
1.0
 40
1.0
 40
1.0
 40
2.0
 40
2.0
 40
2.0
 40
3.0
 40
3.0
 40
3.0
 40
4.0
 40
4.0
 40
4.0
 40
4.0
 10
90.12266436549017
 20
-155.9512043880955
 10
89.8603203442884
 20
-155.9512043880955
 10
89.82225203917639
 20
-156.1627332508899
 10
89.82225203917639
 20
-156.2791774782913
 10
89.82225203917639
 20
-156.4548773480391
 10
89.91750892934354
 20
-156.6178303644914
 10
90.10147702825589
 20
-156.6178303644914
 10
90.22205537023963
 20
-156.6178303644914
 10
90.39775523998738
 20
-156.5585747221451
 10
90.39775523998738
 20
-156.2729763064179
 10
90.39775523998738
 20
-156.0487005903281
 10
90.2580566180605
 20
-155.9512043880955
 10
90.12266436549017
 20
-155.9512043880955
 97
        0
 97
        0
 75
     2
 76
     1
 98
        0
  0
ENDBLK
  5
CA
330
C7
100
AcDbEntity
  8
0
100
AcDbBlockEnd
  0
BLOCK
  5
DC
330
DA
100
AcDbEntity
  8
0
100
AcDbBlockBegin
  2
block 6
 70
     0
 10
0.0
 20
0.0
 30
0.0
  3
block 6
  1

  0
SPLINE
  5
DE
330
DA
100
AcDbEntity
  8
_U+30EC_U+30A4_U+30E4_U+30FC 1
370
     0
100
AcDbSpline
210
0.0
220
0.0
230
1.0
 70
    11
 71
     3
 72
    62
 73
    58
 74
     0
 42
0.0000000001
 43
0.0000000001
 12
1.0
 22
0.0
 32
0.0
 13
1.0
 23
0.0
 33
0.0
 40
0.0
 40
0.0
 40
0.0
 40
0.0
 40
1.0
 40
1.0
 40
1.0
 40
2.0
 40
2.0
 40
2.0
 40
3.0
 40
3.0
 40
3.0
 40
4.0
 40
4.0
 40
4.0
 40
5.0
 40
5.0
 40
5.0
 40
6.0
 40
6.0
 40
6.0
 40
7.0
 40
7.0
 40
7.0
 40
8.0
 40
8.0
 40
8.0
 40
9.0
 40
9.0
 40
9.0
 40
10.0
 40
10.0
 40
10.0
 40
11.0
 40
11.0
 40
11.0
 40
12.0
 40
12.0
 40
12.0
 40
13.0
 40
13.0
 40
13.0
 40
14.0
 40
14.0
 40
14.0
 40
15.0
 40
15.0
 40
15.0
 40
16.0
 40
16.0
 40
16.0
 40
17.0
 40
17.0
 40
17.0
 40
18.0
 40
18.0
 40
18.0
 40
19.0
 40
19.0
 40
19.0
 40
19.0
 10
101.9264227718274
 20
-136.8102538720474
 30
0.0
 10
101.830993626886
 20
-136.8102538720474
 30
0.0
 10
101.6132635922182
 20
-136.7892387895874
 30
0.0
 10
101.4882066261036
 20
-136.6030313786097
 30
0.0
 10
101.4141370731708
 20
-136.4908935205648
 30
0.0
 10
101.4100029585885
 20
-136.3915025158153
 30
0.0
 10
101.4058688440062
 20
-136.3069254216524
 30
0.0
 10
101.4058688440062
 20
-136.3069254216524
 30
0.0
 10
101.6260104455136
 20
-136.3069254216524
 30
0.0
 10
101.6260104455136
 20
-136.3069254216524
 30
0.0
 10
101.6280775028048
 20
-136.3809949745853
 30
0.0
 10
101.6384127892605
 20
-136.6157782319051
 30
0.0
 10
101.9219441476966
 20
-136.6157782319051
 30
0.0
 10
102.0594034575581
 20
-136.6157782319051
 30
0.0
 10
102.2120211875546
 20
-136.5460150483288
 30
0.0
 10
102.2120211875546
 20
-136.3174329628825
 30
0.0
 10
102.2120211875546
 20
-136.2011609902553
 30
0.0
 10
102.1737806276684
 20
-136.152412889139
 30
0.0
 10
102.1420857492041
 20
-136.1207180106747
 30
0.0
 10
102.0680161962712
 20
-136.0466484577418
 30
0.0
 10
101.9515719688698
 20
-136.0340738592207
 30
0.0
 10
101.8967949506543
 20
-136.0340738592207
 30
0.0
 10
101.8775024159369
 20
-136.0340738592207
 30
0.0
 10
101.8416734228903
 20
-136.0361409165118
 30
0.0
 10
101.8141126590083
 20
-136.0402750310941
 30
0.0
 10
101.8141126590083
 20
-136.0402750310941
 30
0.0
 10
101.8141126590083
 20
-135.8456271361775
 30
0.0
 10
101.8141126590083
 20
-135.8456271361775
 30
0.0
 10
101.8523532188945
 20
-135.8520005628252
 30
0.0
 10
101.8943833838146
 20
-135.8542398748906
 30
0.0
 10
101.9009290652366
 20
-135.8542398748906
 30
0.0
 10
101.9663858794563
 20
-135.8542398748906
 30
0.0
 10
102.1651678889552
 20
-135.8330525376563
 30
0.0
 10
102.1651678889552
 20
-135.5960299682711
 30
0.0
 10
102.1651678889552
 20
-135.4184352960065
 30
0.0
 10
102.0342542605158
 20
-135.3633137682425
 30
0.0
 10
101.9240112049877
 20
-135.3633137682425
 30
0.0
 10
101.6597723812691
 20
-135.3633137682425
 30
0.0
 10
101.651159642556
 20
-135.5960299682711
 30
0.0
 10
101.6470255279737
 20
-135.6680324639129
 30
0.0
 10
101.6470255279737
 20
-135.6680324639129
 30
0.0
 10
101.4437648943439
 20
-135.6680324639129
 30
0.0
 10
101.4437648943439
 20
-135.6680324639129
 30
0.0
 10
101.4523776330571
 20
-135.5431477525726
 30
0.0
 10
101.479938396939
 20
-135.1665988160347
 30
0.0
 10
101.9367580582832
 20
-135.1665988160347
 30
0.0
 10
102.1610337743729
 20
-135.1665988160347
 30
0.0
 10
102.4021904583404
 20
-135.2935505846662
 30
0.0
 10
102.4021904583404
 20
-135.5896565416234
 30
0.0
 10
102.4021904583404
 20
-135.7758639526012
 30
0.0
 10
102.3071058229475
 20
-135.8583739894729
 30
0.0
 10
102.2075425634238
 20
-135.9196966891104
 30
0.0
 10
102.2688652630613
 20
-135.9472574529923
 30
0.0
 10
102.4507663046824
 20
-136.0277004325729
 30
0.0
 10
102.4507663046824
 20
-136.3048583643613
 30
0.0
 10
102.4507663046824
 20
-136.6433389957871
 30
0.0
 10
102.2034084488415
 20
-136.8102538720474
 30
0.0
 10
101.9264227718274
 20
-136.8102538720474
 30
0.0
  0
HATCH
  5
DF
330
DA
100
AcDbEntity
  8
_U+30EC_U+30A4_U+30E4_U+30FC 1
 62
     7
420
 16777215
100
AcDbHatch
 10
0.0
 20
0.0
 30
0.0
210
0.0
220
0.0
230
1.0
  2
SOLID
 70
     1
 71
     0
 91
        1
 92
        1
 93
        1
 72
     4
 94
        3
 73
     0
 74
     1
 95
       62
 96
       58
 40
0.0
 40
0.0
 40
0.0
 40
0.0
 40
1.0
 40
1.0
 40
1.0
 40
2.0
 40
2.0
 40
2.0
 40
3.0
 40
3.0
 40
3.0
 40
4.0
 40
4.0
 40
4.0
 40
5.0
 40
5.0
 40
5.0
 40
6.0
 40
6.0
 40
6.0
 40
7.0
 40
7.0
 40
7.0
 40
8.0
 40
8.0
 40
8.0
 40
9.0
 40
9.0
 40
9.0
 40
10.0
 40
10.0
 40
10.0
 40
11.0
 40
11.0
 40
11.0
 40
12.0
 40
12.0
 40
12.0
 40
13.0
 40
13.0
 40
13.0
 40
14.0
 40
14.0
 40
14.0
 40
15.0
 40
15.0
 40
15.0
 40
16.0
 40
16.0
 40
16.0
 40
17.0
 40
17.0
 40
17.0
 40
18.0
 40
18.0
 40
18.0
 40
19.0
 40
19.0
 40
19.0
 40
19.0
 10
101.9264227718274
 20
-136.8102538720474
 10
101.830993626886
 20
-136.8102538720474
 10
101.6132635922182
 20
-136.7892387895874
 10
101.4882066261036
 20
-136.6030313786097
 10
101.4141370731708
 20
-136.4908935205648
 10
101.4100029585885
 20
-136.3915025158153
 10
101.4058688440062
 20
-136.3069254216524
 10
101.4058688440062
 20
-136.3069254216524
 10
101.6260104455136
 20
-136.3069254216524
 10
101.6260104455136
 20
-136.3069254216524
 10
101.6280775028048
 20
-136.3809949745853
 10
101.6384127892605
 20
-136.6157782319051
 10
101.9219441476966
 20
-136.6157782319051
 10
102.0594034575581
 20
-136.6157782319051
 10
102.2120211875546
 20
-136.5460150483288
 10
102.2120211875546
 20
-136.3174329628825
 10
102.2120211875546
 20
-136.2011609902553
 10
102.1737806276684
 20
-136.152412889139
 10
102.1420857492041
 20
-136.1207180106747
 10
102.0680161962712
 20
-136.0466484577418
 10
101.9515719688698
 20
-136.0340738592207
 10
101.8967949506543
 20
-136.0340738592207
 10
101.8775024159369
 20
-136.0340738592207
 10
101.8416734228903
 20
-136.0361409165118
 10
101.8141126590083
 20
-136.0402750310941
 10
101.8141126590083
 20
-136.0402750310941
 10
101.8141126590083
 20
-135.8456271361775
 10
101.8141126590083
 20
-135.8456271361775
 10
101.8523532188945
 20
-135.8520005628252
 10
101.8943833838146
 20
-135.8542398748906
 10
101.9009290652366
 20
-135.8542398748906
 10
101.9663858794563
 20
-135.8542398748906
 10
102.1651678889552
 20
-135.8330525376563
 10
102.1651678889552
 20
-135.5960299682711
 10
102.1651678889552
 20
-135.4184352960065
 10
102.0342542605158
 20
-135.3633137682425
 10
101.9240112049877
 20
-135.3633137682425
 10
101.6597723812691
 20
-135.3633137682425
 10
101.651159642556
 20
-135.5960299682711
 10
101.6470255279737
 20
-135.6680324639129
 10
101.6470255279737
 20
-135.6680324639129
 10
101.4437648943439
 20
-135.6680324639129
 10
101.4437648943439
 20
-135.6680324639129
 10
101.4523776330571
 20
-135.5431477525726
 10
101.479938396939
 20
-135.1665988160347
 10
101.9367580582832
 20
-135.1665988160347
 10
102.1610337743729
 20
-135.1665988160347
 10
102.4021904583404
 20
-135.2935505846662
 10
102.4021904583404
 20
-135.5896565416234
 10
102.4021904583404
 20
-135.7758639526012
 10
102.3071058229475
 20
-135.8583739894729
 10
102.2075425634238
 20
-135.9196966891104
 10
102.2688652630613
 20
-135.9472574529923
 10
102.4507663046824
 20
-136.0277004325729
 10
102.4507663046824
 20
-136.3048583643613
 10
102.4507663046824
 20
-136.6433389957871
 10
102.2034084488415
 20
-136.8102538720474
 10
101.9264227718274
 20
-136.8102538720474
 97
        0
 97
        0
 75
     2
 76
     1
 98
        0
  0
SPLINE
  5
E0
330
DA
100
AcDbEntity
  8
_U+30EC_U+30A4_U+30E4_U+30FC 1
370
     0
100
AcDbSpline
210
0.0
220
0.0
230
1.0
 70
    11
 71
     3
 72
    26
 73
    22
 74
     0
 42
0.0000000001
 43
0.0000000001
 12
1.0
 22
0.0
 32
0.0
 13
1.0
 23
0.0
 33
0.0
 40
0.0
 40
0.0
 40
0.0
 40
0.0
 40
1.0
 40
1.0
 40
1.0
 40
2.0
 40
2.0
 40
2.0
 40
3.0
 40
3.0
 40
3.0
 40
4.0
 40
4.0
 40
4.0
 40
5.0
 40
5.0
 40
5.0
 40
6.0
 40
6.0
 40
6.0
 40
7.0
 40
7.0
 40
7.0
 40
7.0
 10
103.0629597724113
 20
-136.7596109684143
 30
0.0
 10
103.0629597724113
 20
-136.7596109684143
 30
0.0
 10
103.0629597724113
 20
-135.6552856106174
 30
0.0
 10
103.0629597724113
 20
-135.6552856106174
 30
0.0
 10
103.0629597724113
 20
-135.6552856106174
 30
0.0
 10
102.7329196249244
 20
-135.6552856106174
 30
0.0
 10
102.7329196249244
 20
-135.6552856106174
 30
0.0
 10
102.7329196249244
 20
-135.6552856106174
 30
0.0
 10
102.7329196249244
 20
-135.507318759526
 30
0.0
 10
102.7329196249244
 20
-135.507318759526
 30
0.0
 10
103.0650268297025
 20
-135.4925048489394
 30
0.0
 10
103.1115356187534
 20
-135.3295518324871
 30
0.0
 10
103.1411634399265
 20
-135.215346917151
 30
0.0
 10
103.1411634399265
 20
-135.215346917151
 30
0.0
 10
103.2872354885011
 20
-135.215346917151
 30
0.0
 10
103.2872354885011
 20
-135.215346917151
 30
0.0
 10
103.2872354885011
 20
-135.215346917151
 30
0.0
 10
103.2872354885011
 20
-136.7596109684143
 30
0.0
 10
103.2872354885011
 20
-136.7596109684143
 30
0.0
 10
103.2872354885011
 20
-136.7596109684143
 30
0.0
 10
103.0629597724113
 20
-136.7596109684143
 30
0.0
 10
103.0629597724113
 20
-136.7596109684143
 30
0.0
  0
HATCH
  5
E1
330
DA
100
AcDbEntity
  8
_U+30EC_U+30A4_U+30E4_U+30FC 1
 62
     7
420
 16777215
100
AcDbHatch
 10
0.0
 20
0.0
 30
0.0
210
0.0
220
0.0
230
1.0
  2
SOLID
 70
     1
 71
     0
 91
        1
 92
        1
 93
        1
 72
     4
 94
        3
 73
     0
 74
     1
 95
       26
 96
       22
 40
0.0
 40
0.0
 40
0.0
 40
0.0
 40
1.0
 40
1.0
 40
1.0
 40
2.0
 40
2.0
 40
2.0
 40
3.0
 40
3.0
 40
3.0
 40
4.0
 40
4.0
 40
4.0
 40
5.0
 40
5.0
 40
5.0
 40
6.0
 40
6.0
 40
6.0
 40
7.0
 40
7.0
 40
7.0
 40
7.0
 10
103.0629597724113
 20
-136.7596109684143
 10
103.0629597724113
 20
-136.7596109684143
 10
103.0629597724113
 20
-135.6552856106174
 10
103.0629597724113
 20
-135.6552856106174
 10
103.0629597724113
 20
-135.6552856106174
 10
102.7329196249244
 20
-135.6552856106174
 10
102.7329196249244
 20
-135.6552856106174
 10
102.7329196249244
 20
-135.6552856106174
 10
102.7329196249244
 20
-135.507318759526
 10
102.7329196249244
 20
-135.507318759526
 10
103.0650268297025
 20
-135.4925048489394
 10
103.1115356187534
 20
-135.3295518324871
 10
103.1411634399265
 20
-135.215346917151
 10
103.1411634399265
 20
-135.215346917151
 10
103.2872354885011
 20
-135.215346917151
 10
103.2872354885011
 20
-135.215346917151
 10
103.2872354885011
 20
-135.215346917151
 10
103.2872354885011
 20
-136.7596109684143
 10
103.2872354885011
 20
-136.7596109684143
 10
103.2872354885011
 20
-136.7596109684143
 10
103.0629597724113
 20
-136.7596109684143
 10
103.0629597724113
 20
-136.7596109684143
 97
        0
 97
        0
 75
     2
 76
     1
 98
        0
  0
ENDBLK
  5
DD
330
DA
100
AcDbEntity
  8
0
100
AcDbBlockEnd
  0
BLOCK
  5
F4
330
F2
100
AcDbEntity
  8
0
100
AcDbBlockBegin
  2
block 7
 70
     0
 10
0.0
 20
0.0
 30
0.0
  3
block 7
  1

  0
SPLINE
  5
F6
330
F2
100
AcDbEntity
  8
_U+30EC_U+30A4_U+30E4_U+30FC 1
370
     0
100
AcDbSpline
210
0.0
220
0.0
230
1.0
 70
    11
 71
     3
 72
    29
 73
    25
 74
     0
 42
0.0000000001
 43
0.0000000001
 12
1.0
 22
0.0
 32
0.0
 13
1.0
 23
0.0
 33
0.0
 40
0.0
 40
0.0
 40
0.0
 40
0.0
 40
1.0
 40
1.0
 40
1.0
 40
2.0
 40
2.0
 40
2.0
 40
3.0
 40
3.0
 40
3.0
 40
4.0
 40
4.0
 40
4.0
 40
5.0
 40
5.0
 40
5.0
 40
6.0
 40
6.0
 40
6.0
 40
7.0
 40
7.0
 40
7.0
 40
8.0
 40
8.0
 40
8.0
 40
8.0
 10
105.6190483676925
 20
-150.4786702097762
 30
0.0
 10
105.8285101731957
 20
-150.586846208013
 30
0.0
 10
105.8474581983645
 20
-150.7601345109211
 30
0.0
 10
105.8474581983645
 20
-150.8765787383225
 30
0.0
 10
105.8474581983645
 20
-151.0374646974837
 30
0.0
 10
105.8009494093137
 20
-151.1790581219275
 30
0.0
 10
105.6190483676925
 20
-151.2741427573204
 30
0.0
 10
105.4245727275501
 20
-151.3778401314264
 30
0.0
 10
105.1878946677135
 20
-151.3971326661438
 30
0.0
 10
105.0249416512611
 20
-151.3971326661438
 30
0.0
 10
104.8809366599777
 20
-151.3971326661438
 30
0.0
 10
104.6291001800059
 20
-151.3799071887175
 30
0.0
 10
104.430318170507
 20
-151.2741427573204
 30
0.0
 10
104.2274020464258
 20
-151.166311268632
 30
0.0
 10
104.2039753971261
 20
-151.0054253094709
 30
0.0
 10
104.2039753971261
 20
-150.8765787383225
 30
0.0
 10
104.2039753971261
 20
-150.7177598364525
 30
0.0
 10
104.2484171288858
 20
-150.5740993547176
 30
0.0
 10
104.430318170507
 20
-150.4786702097762
 30
0.0
 10
104.6228990081325
 20
-150.379451459801
 30
0.0
 10
104.8513088388045
 20
-150.3560248105013
 30
0.0
 10
105.0249416512611
 20
-150.3560248105013
 30
0.0
 10
105.1961628968781
 20
-150.3560248105013
 30
0.0
 10
105.4266397848413
 20
-150.3773844025098
 30
0.0
 10
105.6190483676925
 20
-150.4786702097762
 30
0.0
  0
SPLINE
  5
F7
330
F2
100
AcDbEntity
  8
_U+30EC_U+30A4_U+30E4_U+30FC 1
370
     0
100
AcDbSpline
210
0.0
220
0.0
230
1.0
 70
    11
 71
     3
 72
    17
 73
    13
 74
     0
 42
0.0000000001
 43
0.0000000001
 12
1.0
 22
0.0
 32
0.0
 13
1.0
 23
0.0
 33
0.0
 40
0.0
 40
0.0
 40
0.0
 40
0.0
 40
1.0
 40
1.0
 40
1.0
 40
2.0
 40
2.0
 40
2.0
 40
3.0
 40
3.0
 40
3.0
 40
4.0
 40
4.0
 40
4.0
 40
4.0
 10
104.3965562347516
 20
-150.8765787383225
 30
0.0
 10
104.3965562347516
 20
-151.1263481610031
 30
0.0
 10
104.6800875931876
 20
-151.172856950054
 30
0.0
 10
105.0249416512611
 20
-151.172856950054
 30
0.0
 10
105.3443020027438
 20
-151.172856950054
 30
0.0
 10
105.6528103034479
 20
-151.1366834474589
 30
0.0
 10
105.6528103034479
 20
-150.8765787383225
 30
0.0
 10
105.6528103034479
 20
-150.6288763729331
 30
0.0
 10
105.3718627666258
 20
-150.580300526591
 30
0.0
 10
105.0249416512611
 20
-150.580300526591
 30
0.0
 10
104.7052367902299
 20
-150.580300526591
 30
0.0
 10
104.3965562347516
 20
-150.6185410864773
 30
0.0
 10
104.3965562347516
 20
-150.8765787383225
 30
0.0
  0
HATCH
  5
F8
330
F2
100
AcDbEntity
  8
_U+30EC_U+30A4_U+30E4_U+30FC 1
 62
     7
420
 16777215
100
AcDbHatch
 10
0.0
 20
0.0
 30
0.0
210
0.0
220
0.0
230
1.0
  2
SOLID
 70
     1
 71
     0
 91
        2
 92
        1
 93
        1
 72
     4
 94
        3
 73
     0
 74
     1
 95
       29
 96
       25
 40
0.0
 40
0.0
 40
0.0
 40
0.0
 40
1.0
 40
1.0
 40
1.0
 40
2.0
 40
2.0
 40
2.0
 40
3.0
 40
3.0
 40
3.0
 40
4.0
 40
4.0
 40
4.0
 40
5.0
 40
5.0
 40
5.0
 40
6.0
 40
6.0
 40
6.0
 40
7.0
 40
7.0
 40
7.0
 40
8.0
 40
8.0
 40
8.0
 40
8.0
 10
105.6190483676925
 20
-150.4786702097762
 10
105.8285101731957
 20
-150.586846208013
 10
105.8474581983645
 20
-150.7601345109211
 10
105.8474581983645
 20
-150.8765787383225
 10
105.8474581983645
 20
-151.0374646974837
 10
105.8009494093137
 20
-151.1790581219275
 10
105.6190483676925
 20
-151.2741427573204
 10
105.4245727275501
 20
-151.3778401314264
 10
105.1878946677135
 20
-151.3971326661438
 10
105.0249416512611
 20
-151.3971326661438
 10
104.8809366599777
 20
-151.3971326661438
 10
104.6291001800059
 20
-151.3799071887175
 10
104.430318170507
 20
-151.2741427573204
 10
104.2274020464258
 20
-151.166311268632
 10
104.2039753971261
 20
-151.0054253094709
 10
104.2039753971261
 20
-150.8765787383225
 10
104.2039753971261
 20
-150.7177598364525
 10
104.2484171288858
 20
-150.5740993547176
 10
104.430318170507
 20
-150.4786702097762
 10
104.6228990081325
 20
-150.379451459801
 10
104.8513088388045
 20
-150.3560248105013
 10
105.0249416512611
 20
-150.3560248105013
 10
105.1961628968781
 20
-150.3560248105013
 10
105.4266397848413
 20
-150.3773844025098
 10
105.6190483676925
 20
-150.4786702097762
 97
        0
 97
        0
 92
        1
 93
        1
 72
     4
 94
        3
 73
     0
 74
     1
 95
       17
 96
       13
 40
0.0
 40
0.0
 40
0.0
 40
0.0
 40
1.0
 40
1.0
 40
1.0
 40
2.0
 40
2.0
 40
2.0
 40
3.0
 40
3.0
 40
3.0
 40
4.0
 40
4.0
 40
4.0
 40
4.0
 10
104.3965562347516
 20
-150.8765787383225
 10
104.3965562347516
 20
-151.1263481610031
 10
104.6800875931876
 20
-151.172856950054
 10
105.0249416512611
 20
-151.172856950054
 10
105.3443020027438
 20
-151.172856950054
 10
105.6528103034479
 20
-151.1366834474589
 10
105.6528103034479
 20
-150.8765787383225
 10
105.6528103034479
 20
-150.6288763729331
 10
105.3718627666258
 20
-150.580300526591
 10
105.0249416512611
 20
-150.580300526591
 10
104.7052367902299
 20
-150.580300526591
 10
104.3965562347516
 20
-150.6185410864773
 10
104.3965562347516
 20
-150.8765787383225
 97
        0
 97
        0
 75
     2
 76
     1
 98
        0
  0
POLYLINE
  5
F9
330
F2
100
AcDbEntity
  8
_U+30EC_U+30A4_U+30E4_U+30FC 1
370
     0
100
AcDb2dPolyline
 66
     1
 10
0.0
 20
0.0
 30
0.0
  0
VERTEX
  5
FA
330
F9
100
AcDbEntity
  8
_U+30EC_U+30A4_U+30E4_U+30FC 1
370
     0
100
AcDbVertex
100
AcDb2dVertex
 10
105.7968152947314
 20
-150.1396728140276
 30
0.0
  0
VERTEX
  5
FB
330
F9
100
AcDbEntity
  8
_U+30EC_U+30A4_U+30E4_U+30FC 1
370
     0
100
AcDbVertex
100
AcDb2dVertex
 10
105.5449788147596
 20
-150.1396728140276
 30
0.0
  0
VERTEX
  5
FC
330
F9
100
AcDbEntity
  8
_U+30EC_U+30A4_U+30E4_U+30FC 1
370
     0
100
AcDbVertex
100
AcDb2dVertex
 10
105.5449788147596
 20
-149.8878363340558
 30
0.0
  0
VERTEX
  5
FD
330
F9
100
AcDbEntity
  8
_U+30EC_U+30A4_U+30E4_U+30FC 1
370
     0
100
AcDbVertex
100
AcDb2dVertex
 10
105.7968152947314
 20
-149.8878363340558
 30
0.0
  0
VERTEX
  5
FE
330
F9
100
AcDbEntity
  8
_U+30EC_U+30A4_U+30E4_U+30FC 1
370
     0
100
AcDbVertex
100
AcDb2dVertex
 10
105.7968152947314
 20
-150.1396728140276
 30
0.0
  0
SEQEND
  5
FF
330
F9
100
AcDbEntity
  8
_U+30EC_U+30A4_U+30E4_U+30FC 1
370
     0
  0
HATCH
  5
100
330
F2
100
AcDbEntity
  8
_U+30EC_U+30A4_U+30E4_U+30FC 1
 62
     7
420
 16777215
100
AcDbHatch
 10
0.0
 20
0.0
 30
0.0
210
0.0
220
0.0
230
1.0
  2
SOLID
 70
     1
 71
     0
 91
        1
 92
        1
 93
        4
 72
     1
 10
105.7968152947314
 20
-150.1396728140276
 11
105.5449788147596
 21
-150.1396728140276
 72
     1
 10
105.5449788147596
 20
-150.1396728140276
 11
105.5449788147596
 21
-149.8878363340558
 72
     1
 10
105.5449788147596
 20
-149.8878363340558
 11
105.7968152947314
 21
-149.8878363340558
 72
     1
 10
105.7968152947314
 20
-149.8878363340558
 11
105.7968152947314
 21
-150.1396728140276
 97
        0
 75
     2
 76
     1
 98
        0
  0
SPLINE
  5
101
330
F2
100
AcDbEntity
  8
_U+30EC_U+30A4_U+30E4_U+30FC 1
370
     0
100
AcDbSpline
210
0.0
220
0.0
230
1.0
 70
    11
 71
     3
 72
    53
 73
    49
 74
     0
 42
0.0000000001
 43
0.0000000001
 12
1.0
 22
0.0
 32
0.0
 13
1.0
 23
0.0
 33
0.0
 40
0.0
 40
0.0
 40
0.0
 40
0.0
 40
1.0
 40
1.0
 40
1.0
 40
2.0
 40
2.0
 40
2.0
 40
3.0
 40
3.0
 40
3.0
 40
4.0
 40
4.0
 40
4.0
 40
5.0
 40
5.0
 40
5.0
 40
6.0
 40
6.0
 40
6.0
 40
7.0
 40
7.0
 40
7.0
 40
8.0
 40
8.0
 40
8.0
 40
9.0
 40
9.0
 40
9.0
 40
10.0
 40
10.0
 40
10.0
 40
11.0
 40
11.0
 40
11.0
 40
12.0
 40
12.0
 40
12.0
 40
13.0
 40
13.0
 40
13.0
 40
14.0
 40
14.0
 40
14.0
 40
15.0
 40
15.0
 40
15.0
 40
16.0
 40
16.0
 40
16.0
 40
16.0
 10
105.8474581983645
 20
-149.1705674540268
 30
0.0
 10
105.8474581983645
 20
-149.248771121542
 30
0.0
 10
105.8305772304868
 20
-149.3504014383568
 30
0.0
 10
105.7671874735582
 20
-149.4520317551717
 30
0.0
 10
105.6572889275787
 20
-149.6253200580798
 30
0.0
 10
105.5260307895907
 20
-149.6466796500883
 30
0.0
 10
105.4183715556767
 20
-149.6656276752572
 30
0.0
 10
105.4183715556767
 20
-149.6656276752572
 30
0.0
 10
105.4183715556767
 20
-149.4434190164586
 30
0.0
 10
105.4183715556767
 20
-149.4434190164586
 30
0.0
 10
105.6169813104013
 20
-149.3886419982431
 30
0.0
 10
105.6466091315745
 20
-149.2615179748374
 30
0.0
 10
105.6466091315745
 20
-149.1685003967357
 30
0.0
 10
105.6466091315745
 20
-149.0289740295831
 30
0.0
 10
105.5470458720507
 20
-148.876700809135
 30
0.0
 10
105.3146741815706
 20
-148.876700809135
 30
0.0
 10
105.0587035870166
 20
-148.876700809135
 30
0.0
 10
104.988768148666
 20
-149.056534793465
 30
0.0
 10
104.988768148666
 20
-149.1771131354488
 30
0.0
 10
104.988768148666
 20
-149.2088080139131
 30
0.0
 10
104.988768148666
 20
-149.3504014383568
 30
0.0
 10
105.1179592293629
 20
-149.4392849018763
 30
0.0
 10
105.1179592293629
 20
-149.4392849018763
 30
0.0
 10
105.099011204194
 20
-149.6149847716241
 30
0.0
 10
105.099011204194
 20
-149.6149847716241
 30
0.0
 10
105.099011204194
 20
-149.6149847716241
 30
0.0
 10
104.2525512434681
 20
-149.4944064296403
 30
0.0
 10
104.2525512434681
 20
-149.4944064296403
 30
0.0
 10
104.2525512434681
 20
-149.4944064296403
 30
0.0
 10
104.2525512434681
 20
-148.7158148499738
 30
0.0
 10
104.2525512434681
 20
-148.7158148499738
 30
0.0
 10
104.2525512434681
 20
-148.7158148499738
 30
0.0
 10
104.4471991383847
 20
-148.7158148499738
 30
0.0
 10
104.4471991383847
 20
-148.7158148499738
 30
0.0
 10
104.4471991383847
 20
-148.7158148499738
 30
0.0
 10
104.4471991383847
 20
-149.331453413188
 30
0.0
 10
104.4471991383847
 20
-149.331453413188
 30
0.0
 10
104.4471991383847
 20
-149.331453413188
 30
0.0
 10
104.8702568639734
 20
-149.3969102274077
 30
0.0
 10
104.8702568639734
 20
-149.3969102274077
 30
0.0
 10
104.836494928218
 20
-149.3355875277703
 30
0.0
 10
104.7961873110405
 20
-149.2532497456728
 30
0.0
 10
104.7961873110405
 20
-149.1347384609802
 30
0.0
 10
104.7961873110405
 20
-148.8808349237173
 30
0.0
 10
104.9825669767926
 20
-148.6438123543321
 30
0.0
 10
105.2957261564018
 20
-148.6438123543321
 30
0.0
 10
105.612847195819
 20
-148.6438123543321
 30
0.0
 10
105.8474581983645
 20
-148.8680880704219
 30
0.0
 10
105.8474581983645
 20
-149.1705674540268
 30
0.0
  0
HATCH
  5
102
330
F2
100
AcDbEntity
  8
_U+30EC_U+30A4_U+30E4_U+30FC 1
 62
     7
420
 16777215
100
AcDbHatch
 10
0.0
 20
0.0
 30
0.0
210
0.0
220
0.0
230
1.0
  2
SOLID
 70
     1
 71
     0
 91
        1
 92
        1
 93
        1
 72
     4
 94
        3
 73
     0
 74
     1
 95
       53
 96
       49
 40
0.0
 40
0.0
 40
0.0
 40
0.0
 40
1.0
 40
1.0
 40
1.0
 40
2.0
 40
2.0
 40
2.0
 40
3.0
 40
3.0
 40
3.0
 40
4.0
 40
4.0
 40
4.0
 40
5.0
 40
5.0
 40
5.0
 40
6.0
 40
6.0
 40
6.0
 40
7.0
 40
7.0
 40
7.0
 40
8.0
 40
8.0
 40
8.0
 40
9.0
 40
9.0
 40
9.0
 40
10.0
 40
10.0
 40
10.0
 40
11.0
 40
11.0
 40
11.0
 40
12.0
 40
12.0
 40
12.0
 40
13.0
 40
13.0
 40
13.0
 40
14.0
 40
14.0
 40
14.0
 40
15.0
 40
15.0
 40
15.0
 40
16.0
 40
16.0
 40
16.0
 40
16.0
 10
105.8474581983645
 20
-149.1705674540268
 10
105.8474581983645
 20
-149.248771121542
 10
105.8305772304868
 20
-149.3504014383568
 10
105.7671874735582
 20
-149.4520317551717
 10
105.6572889275787
 20
-149.6253200580798
 10
105.5260307895907
 20
-149.6466796500883
 10
105.4183715556767
 20
-149.6656276752572
 10
105.4183715556767
 20
-149.6656276752572
 10
105.4183715556767
 20
-149.4434190164586
 10
105.4183715556767
 20
-149.4434190164586
 10
105.6169813104013
 20
-149.3886419982431
 10
105.6466091315745
 20
-149.2615179748374
 10
105.6466091315745
 20
-149.1685003967357
 10
105.6466091315745
 20
-149.0289740295831
 10
105.5470458720507
 20
-148.876700809135
 10
105.3146741815706
 20
-148.876700809135
 10
105.0587035870166
 20
-148.876700809135
 10
104.988768148666
 20
-149.056534793465
 10
104.988768148666
 20
-149.1771131354488
 10
104.988768148666
 20
-149.2088080139131
 10
104.988768148666
 20
-149.3504014383568
 10
105.1179592293629
 20
-149.4392849018763
 10
105.1179592293629
 20
-149.4392849018763
 10
105.099011204194
 20
-149.6149847716241
 10
105.099011204194
 20
-149.6149847716241
 10
105.099011204194
 20
-149.6149847716241
 10
104.2525512434681
 20
-149.4944064296403
 10
104.2525512434681
 20
-149.4944064296403
 10
104.2525512434681
 20
-149.4944064296403
 10
104.2525512434681
 20
-148.7158148499738
 10
104.2525512434681
 20
-148.7158148499738
 10
104.2525512434681
 20
-148.7158148499738
 10
104.4471991383847
 20
-148.7158148499738
 10
104.4471991383847
 20
-148.7158148499738
 10
104.4471991383847
 20
-148.7158148499738
 10
104.4471991383847
 20
-149.331453413188
 10
104.4471991383847
 20
-149.331453413188
 10
104.4471991383847
 20
-149.331453413188
 10
104.8702568639734
 20
-149.3969102274077
 10
104.8702568639734
 20
-149.3969102274077
 10
104.836494928218
 20
-149.3355875277703
 10
104.7961873110405
 20
-149.2532497456728
 10
104.7961873110405
 20
-149.1347384609802
 10
104.7961873110405
 20
-148.8808349237173
 10
104.9825669767926
 20
-148.6438123543321
 10
105.2957261564018
 20
-148.6438123543321
 10
105.612847195819
 20
-148.6438123543321
 10
105.8474581983645
 20
-148.8680880704219
 10
105.8474581983645
 20
-149.1705674540268
 97
        0
 97
        0
 75
     2
 76
     1
 98
        0
  0
ENDBLK
  5
F5
330
F2
100
AcDbEntity
  8
0
100
AcDbBlockEnd
  0
BLOCK
  5
109
330
107
100
AcDbEntity
  8
0
100
AcDbBlockBegin
  2
block 8
 70
     0
 10
0.0
 20
0.0
 30
0.0
  3
block 8
  1

  0
SPLINE
  5
10B
330
107
100
AcDbEntity
  8
_U+30EC_U+30A4_U+30E4_U+30FC 1
370
     0
100
AcDbSpline
210
0.0
220
0.0
230
1.0
 70
    11
 71
     3
 72
    17
 73
    13
 74
     0
 42
0.0000000001
 43
0.0000000001
 12
1.0
 22
0.0
 32
0.0
 13
1.0
 23
0.0
 33
0.0
 40
0.0
 40
0.0
 40
0.0
 40
0.0
 40
1.0
 40
1.0
 40
1.0
 40
2.0
 40
2.0
 40
2.0
 40
3.0
 40
3.0
 40
3.0
 40
4.0
 40
4.0
 40
4.0
 40
4.0
 10
106.3445854768861
 20
-158.1953395871873
 30
0.0
 10
106.2388210454889
 20
-158.0895751557901
 30
0.0
 10
106.1582058111341
 20
-158.0516791054524
 30
0.0
 10
106.0651882330323
 20
-158.0199842269881
 30
0.0
 10
106.0651882330323
 20
-158.0199842269881
 30
0.0
 10
106.1754312885603
 20
-157.8549641532446
 30
0.0
 10
106.1754312885603
 20
-157.8549641532446
 30
0.0
 10
106.2725829812444
 20
-157.8973388277132
 30
0.0
 10
106.3931613232281
 20
-157.9755424952284
 30
0.0
 10
106.446215793701
 20
-158.0303195134438
 30
0.0
 10
106.446215793701
 20
-158.0303195134438
 30
0.0
 10
106.3445854768861
 20
-158.1953395871873
 30
0.0
 10
106.3445854768861
 20
-158.1953395871873
 30
0.0
  0
SPLINE
  5
10C
330
107
100
AcDbEntity
  8
_U+30EC_U+30A4_U+30E4_U+30FC 1
370
     0
100
AcDbSpline
210
0.0
220
0.0
230
1.0
 70
    11
 71
     3
 72
   182
 73
   178
 74
     0
 42
0.0000000001
 43
0.0000000001
 12
1.0
 22
0.0
 32
0.0
 13
1.0
 23
0.0
 33
0.0
 40
0.0
 40
0.0
 40
0.0
 40
0.0
 40
1.0
 40
1.0
 40
1.0
 40
2.0
 40
2.0
 40
2.0
 40
3.0
 40
3.0
 40
3.0
 40
4.0
 40
4.0
 40
4.0
 40
5.0
 40
5.0
 40
5.0
 40
6.0
 40
6.0
 40
6.0
 40
7.0
 40
7.0
 40
7.0
 40
8.0
 40
8.0
 40
8.0
 40
9.0
 40
9.0
 40
9.0
 40
10.0
 40
10.0
 40
10.0
 40
11.0
 40
11.0
 40
11.0
 40
12.0
 40
12.0
 40
12.0
 40
13.0
 40
13.0
 40
13.0
 40
14.0
 40
14.0
 40
14.0
 40
15.0
 40
15.0
 40
15.0
 40
16.0
 40
16.0
 40
16.0
 40
17.0
 40
17.0
 40
17.0
 40
18.0
 40
18.0
 40
18.0
 40
19.0
 40
19.0
 40
19.0
 40
20.0
 40
20.0
 40
20.0
 40
21.0
 40
21.0
 40
21.0
 40
22.0
 40
22.0
 40
22.0
 40
23.0
 40
23.0
 40
23.0
 40
24.0
 40
24.0
 40
24.0
 40
25.0
 40
25.0
 40
25.0
 40
26.0
 40
26.0
 40
26.0
 40
27.0
 40
27.0
 40
27.0
 40
28.0
 40
28.0
 40
28.0
 40
29.0
 40
29.0
 40
29.0
 40
30.0
 40
30.0
 40
30.0
 40
31.0
 40
31.0
 40
31.0
 40
32.0
 40
32.0
 40
32.0
 40
33.0
 40
33.0
 40
33.0
 40
34.0
 40
34.0
 40
34.0
 40
35.0
 40
35.0
 40
35.0
 40
36.0
 40
36.0
 40
36.0
 40
37.0
 40
37.0
 40
37.0
 40
38.0
 40
38.0
 40
38.0
 40
39.0
 40
39.0
 40
39.0
 40
40.0
 40
40.0
 40
40.0
 40
41.0
 40
41.0
 40
41.0
 40
42.0
 40
42.0
 40
42.0
 40
43.0
 40
43.0
 40
43.0
 40
44.0
 40
44.0
 40
44.0
 40
45.0
 40
45.0
 40
45.0
 40
46.0
 40
46.0
 40
46.0
 40
47.0
 40
47.0
 40
47.0
 40
48.0
 40
48.0
 40
48.0
 40
49.0
 40
49.0
 40
49.0
 40
50.0
 40
50.0
 40
50.0
 40
51.0
 40
51.0
 40
51.0
 40
52.0
 40
52.0
 40
52.0
 40
53.0
 40
53.0
 40
53.0
 40
54.0
 40
54.0
 40
54.0
 40
55.0
 40
55.0
 40
55.0
 40
56.0
 40
56.0
 40
56.0
 40
57.0
 40
57.0
 40
57.0
 40
58.0
 40
58.0
 40
58.0
 40
59.0
 40
59.0
 40
59.0
 40
59.0
 10
107.3894829375624
 20
-159.3739067526913
 30
0.0
 10
107.3894829375624
 20
-159.3739067526913
 30
0.0
 10
106.7528292918882
 20
-159.3739067526913
 30
0.0
 10
106.7528292918882
 20
-159.3739067526913
 30
0.0
 10
106.5392333718027
 20
-159.3739067526913
 30
0.0
 10
106.3232258848775
 20
-159.3780408672735
 30
0.0
 10
106.109629964792
 20
-159.390787720569
 30
0.0
 10
106.109629964792
 20
-159.390787720569
 30
0.0
 10
106.109629964792
 20
-159.1833929723569
 30
0.0
 10
106.109629964792
 20
-159.1833929723569
 30
0.0
 10
106.3318386235907
 20
-159.1961398256524
 30
0.0
 10
106.6553330896556
 20
-159.2002739402347
 30
0.0
 10
106.7528292918882
 20
-159.2002739402347
 30
0.0
 10
106.7528292918882
 20
-159.2002739402347
 30
0.0
 10
106.9729708933957
 20
-159.2002739402347
 30
0.0
 10
106.9729708933957
 20
-159.2002739402347
 30
0.0
 10
106.9729708933957
 20
-159.2002739402347
 30
0.0
 10
106.9729708933957
 20
-159.0586805157909
 30
0.0
 10
106.9729708933957
 20
-159.0586805157909
 30
0.0
 10
106.9729708933957
 20
-159.0586805157909
 30
0.0
 10
106.8120849342345
 20
-159.0586805157909
 30
0.0
 10
106.8120849342345
 20
-159.0586805157909
 30
0.0
 10
106.647064860491
 20
-159.0586805157909
 30
0.0
 10
106.4820447867476
 20
-159.0628146303732
 30
0.0
 10
106.3170247130041
 20
-159.0776285409598
 30
0.0
 10
106.3170247130041
 20
-159.0776285409598
 30
0.0
 10
106.3170247130041
 20
-158.8681667354566
 30
0.0
 10
106.3170247130041
 20
-158.8681667354566
 30
0.0
 10
106.488245958621
 20
-158.8829806460431
 30
0.0
 10
106.7359483240105
 20
-158.8871147606255
 30
0.0
 10
106.8120849342345
 20
-158.8871147606255
 30
0.0
 10
106.8120849342345
 20
-158.8871147606255
 30
0.0
 10
106.9729708933957
 20
-158.8871147606255
 30
0.0
 10
106.9729708933957
 20
-158.8871147606255
 30
0.0
 10
106.9684922692648
 20
-158.8154567745323
 30
0.0
 10
106.9684922692648
 20
-158.8089110931103
 30
0.0
 10
106.9622910973914
 20
-158.756201132186
 30
0.0
 10
106.9622910973914
 20
-158.756201132186
 30
0.0
 10
107.101817464544
 20
-158.7710150427725
 30
0.0
 10
107.101817464544
 20
-158.7710150427725
 30
0.0
 10
107.101817464544
 20
-158.7710150427725
 30
0.0
 10
107.0025987145688
 20
-158.5994492876071
 30
0.0
 10
107.0025987145688
 20
-158.5994492876071
 30
0.0
 10
107.0491075036197
 20
-158.6059949690291
 30
0.0
 10
107.1231770565525
 20
-158.6142631981937
 30
0.0
 10
107.1400580244303
 20
-158.6142631981937
 30
0.0
 10
107.1907009280634
 20
-158.6142631981937
 30
0.0
 10
107.2075818959412
 20
-158.5932481157336
 30
0.0
 10
107.2075818959412
 20
-158.5360595306785
 30
0.0
 10
107.2075818959412
 20
-158.5360595306785
 30
0.0
 10
107.2075818959412
 20
-158.398600220817
 30
0.0
 10
107.2075818959412
 20
-158.398600220817
 30
0.0
 10
107.2075818959412
 20
-158.398600220817
 30
0.0
 10
107.101817464544
 20
-158.398600220817
 30
0.0
 10
107.101817464544
 20
-158.398600220817
 30
0.0
 10
106.9684922692648
 20
-158.398600220817
 30
0.0
 10
106.8120849342345
 20
-158.398600220817
 30
0.0
 10
106.6894395349596
 20
-158.4113470741125
 30
0.0
 10
106.6894395349596
 20
-158.4113470741125
 30
0.0
 10
106.6894395349596
 20
-158.2208332937781
 30
0.0
 10
106.6894395349596
 20
-158.2208332937781
 30
0.0
 10
106.8565266659942
 20
-158.2377142616559
 30
0.0
 10
107.0870035539574
 20
-158.239781318947
 30
0.0
 10
107.101817464544
 20
-158.239781318947
 30
0.0
 10
107.101817464544
 20
-158.239781318947
 30
0.0
 10
107.2075818959412
 20
-158.239781318947
 30
0.0
 10
107.2075818959412
 20
-158.239781318947
 30
0.0
 10
107.2075818959412
 20
-158.239781318947
 30
0.0
 10
107.2075818959412
 20
-158.1088676905075
 30
0.0
 10
107.2075818959412
 20
-158.1088676905075
 30
0.0
 10
107.2075818959412
 20
-158.1088676905075
 30
0.0
 10
107.1696858456034
 20
-158.1088676905075
 30
0.0
 10
107.1696858456034
 20
-158.1088676905075
 30
0.0
 10
107.1252441138437
 20
-158.1088676905075
 30
0.0
 10
107.0001871477291
 20
-158.1130018050898
 30
0.0
 10
106.9113036842097
 20
-158.1212700342544
 30
0.0
 10
106.9113036842097
 20
-158.1212700342544
 30
0.0
 10
106.9113036842097
 20
-158.0409993094481
 30
0.0
 10
106.9113036842097
 20
-158.0409993094481
 30
0.0
 10
106.8585937232854
 20
-158.0792398693344
 30
0.0
 10
106.8331000166945
 20
-158.0940537799209
 30
0.0
 10
106.7907253422259
 20
-158.1171359196721
 30
0.0
 10
106.7907253422259
 20
-158.1171359196721
 30
0.0
 10
106.6026231287313
 20
-157.9882893485238
 30
0.0
 10
106.6026231287313
 20
-157.9882893485238
 30
0.0
 10
106.6808267962465
 20
-157.9541829032198
 30
0.0
 10
106.8375786408253
 20
-157.8907931462912
 30
0.0
 10
106.9939859758557
 20
-157.7471326645563
 30
0.0
 10
107.0763237579531
 20
-157.6685844874926
 30
0.0
 10
107.1548719350168
 20
-157.584179648104
 30
0.0
 10
107.2075818959412
 20
-157.4825493312891
 30
0.0
 10
107.2075818959412
 20
-157.4825493312891
 30
0.0
 10
107.4191107587355
 20
-157.5438720309265
 30
0.0
 10
107.4191107587355
 20
-157.5438720309265
 30
0.0
 10
107.4384032934529
 20
-157.5500732028
 30
0.0
 10
107.4487385799086
 20
-157.5586859415131
 30
0.0
 10
107.4487385799086
 20
-157.5714327948085
 30
0.0
 10
107.4487385799086
 20
-157.5883137626863
 30
0.0
 10
107.4359917266132
 20
-157.5945149345597
 30
0.0
 10
107.4108425295709
 20
-157.6072617878551
 30
0.0
 10
107.4911132543772
 20
-157.7047579900877
 30
0.0
 10
107.6540662708295
 20
-157.8019096827718
 30
0.0
 10
107.687828206585
 20
-157.8208577079406
 30
0.0
 10
107.8380343697419
 20
-157.9097411714601
 30
0.0
 10
107.9524115398522
 20
-157.9373019353421
 30
0.0
 10
108.0306152073673
 20
-157.9562499605109
 30
0.0
 10
108.0306152073673
 20
-157.9562499605109
 30
0.0
 10
107.9121039226748
 20
-158.1257486583852
 30
0.0
 10
107.9121039226748
 20
-158.1257486583852
 30
0.0
 10
107.8273545737376
 20
-158.0961208372121
 30
0.0
 10
107.7767116701044
 20
-158.0771728120432
 30
0.0
 10
107.6582003854118
 20
-158.0113714882749
 30
0.0
 10
107.6582003854118
 20
-158.0113714882749
 30
0.0
 10
107.6582003854118
 20
-158.1212700342544
 30
0.0
 10
107.6582003854118
 20
-158.1212700342544
 30
0.0
 10
107.5758626033144
 20
-158.1130018050898
 30
0.0
 10
107.4487385799086
 20
-158.1088676905075
 30
0.0
 10
107.3960286189843
 20
-158.1088676905075
 30
0.0
 10
107.3960286189843
 20
-158.1088676905075
 30
0.0
 10
107.3960286189843
 20
-158.239781318947
 30
0.0
 10
107.3960286189843
 20
-158.239781318947
 30
0.0
 10
107.3960286189843
 20
-158.239781318947
 30
0.0
 10
107.5166069609681
 20
-158.239781318947
 30
0.0
 10
107.5166069609681
 20
-158.239781318947
 30
0.0
 10
107.5186740182592
 20
-158.239781318947
 30
0.0
 10
107.7512179635136
 20
-158.2377142616559
 30
0.0
 10
107.9289848905525
 20
-158.2208332937781
 30
0.0
 10
107.9289848905525
 20
-158.2208332937781
 30
0.0
 10
107.9289848905525
 20
-158.4113470741125
 30
0.0
 10
107.9289848905525
 20
-158.4113470741125
 30
0.0
 10
107.8001383194041
 20
-158.398600220817
 30
0.0
 10
107.6433864748253
 20
-158.398600220817
 30
0.0
 10
107.5166069609681
 20
-158.398600220817
 30
0.0
 10
107.5166069609681
 20
-158.398600220817
 30
0.0
 10
107.3960286189843
 20
-158.398600220817
 30
0.0
 10
107.3960286189843
 20
-158.398600220817
 30
0.0
 10
107.3960286189843
 20
-158.398600220817
 30
0.0
 10
107.3960286189843
 20
-158.6249429941979
 30
0.0
 10
107.3960286189843
 20
-158.6249429941979
 30
0.0
 10
107.3960286189843
 20
-158.7434542788905
 30
0.0
 10
107.3705349123935
 20
-158.7792832719371
 30
0.0
 10
107.2096489532323
 20
-158.7940971825237
 30
0.0
 10
107.2141275773631
 20
-158.8130452076926
 30
0.0
 10
107.2075818959412
 20
-158.8237250036969
 30
0.0
 10
107.1696858456034
 20
-158.8471516529966
 30
0.0
 10
107.1676187883123
 20
-158.8660996781654
 30
0.0
 10
107.1676187883123
 20
-158.8723008500389
 30
0.0
 10
107.1652072214726
 20
-158.8871147606255
 30
0.0
 10
107.1652072214726
 20
-158.8871147606255
 30
0.0
 10
107.3026665313341
 20
-158.8871147606255
 30
0.0
 10
107.3026665313341
 20
-158.8871147606255
 30
0.0
 10
107.4676866050775
 20
-158.8871147606255
 30
0.0
 10
107.6351182456607
 20
-158.8829806460431
 30
0.0
 10
107.8022053766953
 20
-158.8681667354566
 30
0.0
 10
107.8022053766953
 20
-158.8681667354566
 30
0.0
 10
107.8022053766953
 20
-159.0755614836686
 30
0.0
 10
107.8022053766953
 20
-159.0755614836686
 30
0.0
 10
107.5861978897701
 20
-159.0586805157909
 30
0.0
 10
107.3219590660515
 20
-159.0586805157909
 30
0.0
 10
107.3026665313341
 20
-159.0586805157909
 30
0.0
 10
107.3026665313341
 20
-159.0586805157909
 30
0.0
 10
107.1631401641814
 20
-159.0586805157909
 30
0.0
 10
107.1631401641814
 20
-159.0586805157909
 30
0.0
 10
107.1631401641814
 20
-159.0586805157909
 30
0.0
 10
107.1631401641814
 20
-159.2002739402347
 30
0.0
 10
107.1631401641814
 20
-159.2002739402347
 30
0.0
 10
107.1631401641814
 20
-159.2002739402347
 30
0.0
 10
107.3894829375624
 20
-159.2002739402347
 30
0.0
 10
107.3894829375624
 20
-159.2002739402347
 30
0.0
 10
107.6054904244875
 20
-159.2002739402347
 30
0.0
 10
107.8232204591553
 20
-159.1961398256524
 30
0.0
 10
108.0388834365319
 20
-159.1833929723569
 30
0.0
 10
108.0388834365319
 20
-159.1833929723569
 30
0.0
 10
108.0388834365319
 20
-159.390787720569
 30
0.0
 10
108.0388834365319
 20
-159.390787720569
 30
0.0
 10
107.7577636449356
 20
-159.3739067526913
 30
0.0
 10
107.4129095868621
 20
-159.3739067526913
 30
0.0
 10
107.3894829375624
 20
-159.3739067526913
 30
0.0
  0
SPLINE
  5
10D
330
107
100
AcDbEntity
  8
_U+30EC_U+30A4_U+30E4_U+30FC 1
370
     0
100
AcDbSpline
210
0.0
220
0.0
230
1.0
 70
    11
 71
     3
 72
    23
 73
    19
 74
     0
 42
0.0000000001
 43
0.0000000001
 12
1.0
 22
0.0
 32
0.0
 13
1.0
 23
0.0
 33
0.0
 40
0.0
 40
0.0
 40
0.0
 40
0.0
 40
1.0
 40
1.0
 40
1.0
 40
2.0
 40
2.0
 40
2.0
 40
3.0
 40
3.0
 40
3.0
 40
4.0
 40
4.0
 40
4.0
 40
5.0
 40
5.0
 40
5.0
 40
6.0
 40
6.0
 40
6.0
 40
6.0
 10
106.2705159239532
 20
-158.7455213361817
 30
0.0
 10
106.2705159239532
 20
-158.7665364186417
 30
0.0
 10
106.2725829812444
 20
-158.804776978528
 30
0.0
 10
106.2470892746535
 20
-158.804776978528
 30
0.0
 10
106.2367539881978
 20
-158.804776978528
 30
0.0
 10
106.2281412494846
 20
-158.798231297106
 30
0.0
 10
106.2174614534804
 20
-158.7813503292283
 30
0.0
 10
106.2174614534804
 20
-158.7813503292283
 30
0.0
 10
106.1137640793743
 20
-158.5994492876071
 30
0.0
 10
106.1137640793743
 20
-158.5994492876071
 30
0.0
 10
106.3297715662995
 20
-158.4706027164588
 30
0.0
 10
106.5264865185073
 20
-158.1932725298961
 30
0.0
 10
106.5729953075581
 20
-158.1212700342544
 30
0.0
 10
106.5729953075581
 20
-158.1212700342544
 30
0.0
 10
106.6449978031999
 20
-158.3011040185845
 30
0.0
 10
106.6449978031999
 20
-158.3011040185845
 30
0.0
 10
106.5116726079207
 20
-158.4978189707922
 30
0.0
 10
106.335972738173
 20
-158.6821315792531
 30
0.0
 10
106.2705159239532
 20
-158.7455213361817
 30
0.0
  0
SPLINE
  5
10E
330
107
100
AcDbEntity
  8
_U+30EC_U+30A4_U+30E4_U+30FC 1
370
     0
100
AcDbSpline
210
0.0
220
0.0
230
1.0
 70
    11
 71
     3
 72
    17
 73
    13
 74
     0
 42
0.0000000001
 43
0.0000000001
 12
1.0
 22
0.0
 32
0.0
 13
1.0
 23
0.0
 33
0.0
 40
0.0
 40
0.0
 40
0.0
 40
0.0
 40
1.0
 40
1.0
 40
1.0
 40
2.0
 40
2.0
 40
2.0
 40
3.0
 40
3.0
 40
3.0
 40
4.0
 40
4.0
 40
4.0
 40
4.0
 10
106.5244194612161
 20
-157.8504855291138
 30
0.0
 10
106.4630967615787
 20
-157.7743489188898
 30
0.0
 10
106.3339056808818
 20
-157.6982123086657
 30
0.0
 10
106.2302083067758
 20
-157.6685844874926
 30
0.0
 10
106.2302083067758
 20
-157.6685844874926
 30
0.0
 10
106.3256374517172
 20
-157.5035644137491
 30
0.0
 10
106.3256374517172
 20
-157.5035644137491
 30
0.0
 10
106.4269232589835
 20
-157.5397379163443
 30
0.0
 10
106.5326876903807
 20
-157.5969265013994
 30
0.0
 10
106.6215711539002
 20
-157.6771972262057
 30
0.0
 10
106.6215711539002
 20
-157.6771972262057
 30
0.0
 10
106.5244194612161
 20
-157.8504855291138
 30
0.0
 10
106.5244194612161
 20
-157.8504855291138
 30
0.0
  0
SPLINE
  5
10F
330
107
100
AcDbEntity
  8
_U+30EC_U+30A4_U+30E4_U+30FC 1
370
     0
100
AcDbSpline
210
0.0
220
0.0
230
1.0
 70
    11
 71
     3
 72
    23
 73
    19
 74
     0
 42
0.0000000001
 43
0.0000000001
 12
1.0
 22
0.0
 32
0.0
 13
1.0
 23
0.0
 33
0.0
 40
0.0
 40
0.0
 40
0.0
 40
0.0
 40
1.0
 40
1.0
 40
1.0
 40
2.0
 40
2.0
 40
2.0
 40
3.0
 40
3.0
 40
3.0
 40
4.0
 40
4.0
 40
4.0
 40
5.0
 40
5.0
 40
5.0
 40
6.0
 40
6.0
 40
6.0
 40
6.0
 10
106.977105007978
 20
-158.5550075558474
 30
0.0
 10
106.9557454159694
 20
-158.5784342051471
 30
0.0
 10
106.8585937232854
 20
-158.6903998084177
 30
0.0
 10
106.7190673561327
 20
-158.7710150427725
 30
0.0
 10
106.7190673561327
 20
-158.7710150427725
 30
0.0
 10
106.5519802250981
 20
-158.6504367007888
 30
0.0
 10
106.5519802250981
 20
-158.6504367007888
 30
0.0
 10
106.702186388255
 20
-158.5743000905648
 30
0.0
 10
106.8014051382302
 20
-158.4788709456234
 30
0.0
 10
106.8499809845722
 20
-158.426160984699
 30
0.0
 10
106.8499809845722
 20
-158.426160984699
 30
0.0
 10
107.0236137970288
 20
-158.5084987667965
 30
0.0
 10
107.0236137970288
 20
-158.5084987667965
 30
0.0
 10
107.0318820261934
 20
-158.5126328813788
 30
0.0
 10
107.0404947649066
 20
-158.5191785628008
 30
0.0
 10
107.0404947649066
 20
-158.529858358805
 30
0.0
 10
107.0404947649066
 20
-158.5550075558474
 30
0.0
 10
107.0046657718599
 20
-158.5550075558474
 30
0.0
 10
106.977105007978
 20
-158.5550075558474
 30
0.0
  0
SPLINE
  5
110
330
107
100
AcDbEntity
  8
_U+30EC_U+30A4_U+30E4_U+30FC 1
370
     0
100
AcDbSpline
210
0.0
220
0.0
230
1.0
 70
    11
 71
     3
 72
    20
 73
    16
 74
     0
 42
0.0000000001
 43
0.0000000001
 12
1.0
 22
0.0
 32
0.0
 13
1.0
 23
0.0
 33
0.0
 40
0.0
 40
0.0
 40
0.0
 40
0.0
 40
1.0
 40
1.0
 40
1.0
 40
2.0
 40
2.0
 40
2.0
 40
3.0
 40
3.0
 40
3.0
 40
4.0
 40
4.0
 40
4.0
 40
5.0
 40
5.0
 40
5.0
 40
5.0
 10
107.2754502770006
 20
-157.7130262192523
 30
0.0
 10
107.2372097171143
 20
-157.7619465751428
 30
0.0
 10
107.1758870174769
 20
-157.840150242658
 30
0.0
 10
107.0363606503243
 20
-157.9500487886375
 30
0.0
 10
107.1166313751306
 20
-157.9541829032198
 30
0.0
 10
107.1462591963037
 20
-157.9541829032198
 30
0.0
 10
107.1696858456034
 20
-157.9541829032198
 30
0.0
 10
107.1696858456034
 20
-157.9541829032198
 30
0.0
 10
107.3980956762755
 20
-157.9541829032198
 30
0.0
 10
107.3980956762755
 20
-157.9541829032198
 30
0.0
 10
107.4297905547398
 20
-157.9541829032198
 30
0.0
 10
107.4783664010818
 20
-157.9521158459286
 30
0.0
 10
107.5524359540147
 20
-157.9500487886375
 30
0.0
 10
107.4404703507441
 20
-157.8759792357046
 30
0.0
 10
107.3915499948535
 20
-157.8294704466537
 30
0.0
 10
107.2754502770006
 20
-157.7130262192523
 30
0.0
  0
SPLINE
  5
111
330
107
100
AcDbEntity
  8
_U+30EC_U+30A4_U+30E4_U+30FC 1
370
     0
100
AcDbSpline
210
0.0
220
0.0
230
1.0
 70
    11
 71
     3
 72
    17
 73
    13
 74
     0
 42
0.0000000001
 43
0.0000000001
 12
1.0
 22
0.0
 32
0.0
 13
1.0
 23
0.0
 33
0.0
 40
0.0
 40
0.0
 40
0.0
 40
0.0
 40
1.0
 40
1.0
 40
1.0
 40
2.0
 40
2.0
 40
2.0
 40
3.0
 40
3.0
 40
3.0
 40
4.0
 40
4.0
 40
4.0
 40
4.0
 10
107.8359673124507
 20
-158.7686034759328
 30
0.0
 10
107.7005750598804
 20
-158.6566378726622
 30
0.0
 10
107.5948106284832
 20
-158.5932481157336
 30
0.0
 10
107.4762993437907
 20
-158.529858358805
 30
0.0
 10
107.4762993437907
 20
-158.529858358805
 30
0.0
 10
107.6030788576478
 20
-158.4175482459859
 30
0.0
 10
107.6030788576478
 20
-158.4175482459859
 30
0.0
 10
107.7343369956359
 20
-158.4640570350368
 30
0.0
 10
107.8442355416153
 20
-158.5212456200919
 30
0.0
 10
107.9692925077299
 20
-158.6228759369068
 30
0.0
 10
107.9692925077299
 20
-158.6228759369068
 30
0.0
 10
107.8359673124507
 20
-158.7686034759328
 30
0.0
 10
107.8359673124507
 20
-158.7686034759328
 30
0.0
  0
HATCH
  5
112
330
107
100
AcDbEntity
  8
_U+30EC_U+30A4_U+30E4_U+30FC 1
 62
     7
420
 16777215
100
AcDbHatch
 10
0.0
 20
0.0
 30
0.0
210
0.0
220
0.0
230
1.0
  2
SOLID
 70
     1
 71
     0
 91
        7
 92
        1
 93
        1
 72
     4
 94
        3
 73
     0
 74
     1
 95
       17
 96
       13
 40
0.0
 40
0.0
 40
0.0
 40
0.0
 40
1.0
 40
1.0
 40
1.0
 40
2.0
 40
2.0
 40
2.0
 40
3.0
 40
3.0
 40
3.0
 40
4.0
 40
4.0
 40
4.0
 40
4.0
 10
106.3445854768861
 20
-158.1953395871873
 10
106.2388210454889
 20
-158.0895751557901
 10
106.1582058111341
 20
-158.0516791054524
 10
106.0651882330323
 20
-158.0199842269881
 10
106.0651882330323
 20
-158.0199842269881
 10
106.1754312885603
 20
-157.8549641532446
 10
106.1754312885603
 20
-157.8549641532446
 10
106.2725829812444
 20
-157.8973388277132
 10
106.3931613232281
 20
-157.9755424952284
 10
106.446215793701
 20
-158.0303195134438
 10
106.446215793701
 20
-158.0303195134438
 10
106.3445854768861
 20
-158.1953395871873
 10
106.3445854768861
 20
-158.1953395871873
 97
        0
 97
        0
 92
        1
 93
        1
 72
     4
 94
        3
 73
     0
 74
     1
 95
      182
 96
      178
 40
0.0
 40
0.0
 40
0.0
 40
0.0
 40
1.0
 40
1.0
 40
1.0
 40
2.0
 40
2.0
 40
2.0
 40
3.0
 40
3.0
 40
3.0
 40
4.0
 40
4.0
 40
4.0
 40
5.0
 40
5.0
 40
5.0
 40
6.0
 40
6.0
 40
6.0
 40
7.0
 40
7.0
 40
7.0
 40
8.0
 40
8.0
 40
8.0
 40
9.0
 40
9.0
 40
9.0
 40
10.0
 40
10.0
 40
10.0
 40
11.0
 40
11.0
 40
11.0
 40
12.0
 40
12.0
 40
12.0
 40
13.0
 40
13.0
 40
13.0
 40
14.0
 40
14.0
 40
14.0
 40
15.0
 40
15.0
 40
15.0
 40
16.0
 40
16.0
 40
16.0
 40
17.0
 40
17.0
 40
17.0
 40
18.0
 40
18.0
 40
18.0
 40
19.0
 40
19.0
 40
19.0
 40
20.0
 40
20.0
 40
20.0
 40
21.0
 40
21.0
 40
21.0
 40
22.0
 40
22.0
 40
22.0
 40
23.0
 40
23.0
 40
23.0
 40
24.0
 40
24.0
 40
24.0
 40
25.0
 40
25.0
 40
25.0
 40
26.0
 40
26.0
 40
26.0
 40
27.0
 40
27.0
 40
27.0
 40
28.0
 40
28.0
 40
28.0
 40
29.0
 40
29.0
 40
29.0
 40
30.0
 40
30.0
 40
30.0
 40
31.0
 40
31.0
 40
31.0
 40
32.0
 40
32.0
 40
32.0
 40
33.0
 40
33.0
 40
33.0
 40
34.0
 40
34.0
 40
34.0
 40
35.0
 40
35.0
 40
35.0
 40
36.0
 40
36.0
 40
36.0
 40
37.0
 40
37.0
 40
37.0
 40
38.0
 40
38.0
 40
38.0
 40
39.0
 40
39.0
 40
39.0
 40
40.0
 40
40.0
 40
40.0
 40
41.0
 40
41.0
 40
41.0
 40
42.0
 40
42.0
 40
42.0
 40
43.0
 40
43.0
 40
43.0
 40
44.0
 40
44.0
 40
44.0
 40
45.0
 40
45.0
 40
45.0
 40
46.0
 40
46.0
 40
46.0
 40
47.0
 40
47.0
 40
47.0
 40
48.0
 40
48.0
 40
48.0
 40
49.0
 40
49.0
 40
49.0
 40
50.0
 40
50.0
 40
50.0
 40
51.0
 40
51.0
 40
51.0
 40
52.0
 40
52.0
 40
52.0
 40
53.0
 40
53.0
 40
53.0
 40
54.0
 40
54.0
 40
54.0
 40
55.0
 40
55.0
 40
55.0
 40
56.0
 40
56.0
 40
56.0
 40
57.0
 40
57.0
 40
57.0
 40
58.0
 40
58.0
 40
58.0
 40
59.0
 40
59.0
 40
59.0
 40
59.0
 10
107.3894829375624
 20
-159.3739067526913
 10
107.3894829375624
 20
-159.3739067526913
 10
106.7528292918882
 20
-159.3739067526913
 10
106.7528292918882
 20
-159.3739067526913
 10
106.5392333718027
 20
-159.3739067526913
 10
106.3232258848775
 20
-159.3780408672735
 10
106.109629964792
 20
-159.390787720569
 10
106.109629964792
 20
-159.390787720569
 10
106.109629964792
 20
-159.1833929723569
 10
106.109629964792
 20
-159.1833929723569
 10
106.3318386235907
 20
-159.1961398256524
 10
106.6553330896556
 20
-159.2002739402347
 10
106.7528292918882
 20
-159.2002739402347
 10
106.7528292918882
 20
-159.2002739402347
 10
106.9729708933957
 20
-159.2002739402347
 10
106.9729708933957
 20
-159.2002739402347
 10
106.9729708933957
 20
-159.2002739402347
 10
106.9729708933957
 20
-159.0586805157909
 10
106.9729708933957
 20
-159.0586805157909
 10
106.9729708933957
 20
-159.0586805157909
 10
106.8120849342345
 20
-159.0586805157909
 10
106.8120849342345
 20
-159.0586805157909
 10
106.647064860491
 20
-159.0586805157909
 10
106.4820447867476
 20
-159.0628146303732
 10
106.3170247130041
 20
-159.0776285409598
 10
106.3170247130041
 20
-159.0776285409598
 10
106.3170247130041
 20
-158.8681667354566
 10
106.3170247130041
 20
-158.8681667354566
 10
106.488245958621
 20
-158.8829806460431
 10
106.7359483240105
 20
-158.8871147606255
 10
106.8120849342345
 20
-158.8871147606255
 10
106.8120849342345
 20
-158.8871147606255
 10
106.9729708933957
 20
-158.8871147606255
 10
106.9729708933957
 20
-158.8871147606255
 10
106.9684922692648
 20
-158.8154567745323
 10
106.9684922692648
 20
-158.8089110931103
 10
106.9622910973914
 20
-158.756201132186
 10
106.9622910973914
 20
-158.756201132186
 10
107.101817464544
 20
-158.7710150427725
 10
107.101817464544
 20
-158.7710150427725
 10
107.101817464544
 20
-158.7710150427725
 10
107.0025987145688
 20
-158.5994492876071
 10
107.0025987145688
 20
-158.5994492876071
 10
107.0491075036197
 20
-158.6059949690291
 10
107.1231770565525
 20
-158.6142631981937
 10
107.1400580244303
 20
-158.6142631981937
 10
107.1907009280634
 20
-158.6142631981937
 10
107.2075818959412
 20
-158.5932481157336
 10
107.2075818959412
 20
-158.5360595306785
 10
107.2075818959412
 20
-158.5360595306785
 10
107.2075818959412
 20
-158.398600220817
 10
107.2075818959412
 20
-158.398600220817
 10
107.2075818959412
 20
-158.398600220817
 10
107.101817464544
 20
-158.398600220817
 10
107.101817464544
 20
-158.398600220817
 10
106.9684922692648
 20
-158.398600220817
 10
106.8120849342345
 20
-158.398600220817
 10
106.6894395349596
 20
-158.4113470741125
 10
106.6894395349596
 20
-158.4113470741125
 10
106.6894395349596
 20
-158.2208332937781
 10
106.6894395349596
 20
-158.2208332937781
 10
106.8565266659942
 20
-158.2377142616559
 10
107.0870035539574
 20
-158.239781318947
 10
107.101817464544
 20
-158.239781318947
 10
107.101817464544
 20
-158.239781318947
 10
107.2075818959412
 20
-158.239781318947
 10
107.2075818959412
 20
-158.239781318947
 10
107.2075818959412
 20
-158.239781318947
 10
107.2075818959412
 20
-158.1088676905075
 10
107.2075818959412
 20
-158.1088676905075
 10
107.2075818959412
 20
-158.1088676905075
 10
107.1696858456034
 20
-158.1088676905075
 10
107.1696858456034
 20
-158.1088676905075
 10
107.1252441138437
 20
-158.1088676905075
 10
107.0001871477291
 20
-158.1130018050898
 10
106.9113036842097
 20
-158.1212700342544
 10
106.9113036842097
 20
-158.1212700342544
 10
106.9113036842097
 20
-158.0409993094481
 10
106.9113036842097
 20
-158.0409993094481
 10
106.8585937232854
 20
-158.0792398693344
 10
106.8331000166945
 20
-158.0940537799209
 10
106.7907253422259
 20
-158.1171359196721
 10
106.7907253422259
 20
-158.1171359196721
 10
106.6026231287313
 20
-157.9882893485238
 10
106.6026231287313
 20
-157.9882893485238
 10
106.6808267962465
 20
-157.9541829032198
 10
106.8375786408253
 20
-157.8907931462912
 10
106.9939859758557
 20
-157.7471326645563
 10
107.0763237579531
 20
-157.6685844874926
 10
107.1548719350168
 20
-157.584179648104
 10
107.2075818959412
 20
-157.4825493312891
 10
107.2075818959412
 20
-157.4825493312891
 10
107.4191107587355
 20
-157.5438720309265
 10
107.4191107587355
 20
-157.5438720309265
 10
107.4384032934529
 20
-157.5500732028
 10
107.4487385799086
 20
-157.5586859415131
 10
107.4487385799086
 20
-157.5714327948085
 10
107.4487385799086
 20
-157.5883137626863
 10
107.4359917266132
 20
-157.5945149345597
 10
107.4108425295709
 20
-157.6072617878551
 10
107.4911132543772
 20
-157.7047579900877
 10
107.6540662708295
 20
-157.8019096827718
 10
107.687828206585
 20
-157.8208577079406
 10
107.8380343697419
 20
-157.9097411714601
 10
107.9524115398522
 20
-157.9373019353421
 10
108.0306152073673
 20
-157.9562499605109
 10
108.0306152073673
 20
-157.9562499605109
 10
107.9121039226748
 20
-158.1257486583852
 10
107.9121039226748
 20
-158.1257486583852
 10
107.8273545737376
 20
-158.0961208372121
 10
107.7767116701044
 20
-158.0771728120432
 10
107.6582003854118
 20
-158.0113714882749
 10
107.6582003854118
 20
-158.0113714882749
 10
107.6582003854118
 20
-158.1212700342544
 10
107.6582003854118
 20
-158.1212700342544
 10
107.5758626033144
 20
-158.1130018050898
 10
107.4487385799086
 20
-158.1088676905075
 10
107.3960286189843
 20
-158.1088676905075
 10
107.3960286189843
 20
-158.1088676905075
 10
107.3960286189843
 20
-158.239781318947
 10
107.3960286189843
 20
-158.239781318947
 10
107.3960286189843
 20
-158.239781318947
 10
107.5166069609681
 20
-158.239781318947
 10
107.5166069609681
 20
-158.239781318947
 10
107.5186740182592
 20
-158.239781318947
 10
107.7512179635136
 20
-158.2377142616559
 10
107.9289848905525
 20
-158.2208332937781
 10
107.9289848905525
 20
-158.2208332937781
 10
107.9289848905525
 20
-158.4113470741125
 10
107.9289848905525
 20
-158.4113470741125
 10
107.8001383194041
 20
-158.398600220817
 10
107.6433864748253
 20
-158.398600220817
 10
107.5166069609681
 20
-158.398600220817
 10
107.5166069609681
 20
-158.398600220817
 10
107.3960286189843
 20
-158.398600220817
 10
107.3960286189843
 20
-158.398600220817
 10
107.3960286189843
 20
-158.398600220817
 10
107.3960286189843
 20
-158.6249429941979
 10
107.3960286189843
 20
-158.6249429941979
 10
107.3960286189843
 20
-158.7434542788905
 10
107.3705349123935
 20
-158.7792832719371
 10
107.2096489532323
 20
-158.7940971825237
 10
107.2141275773631
 20
-158.8130452076926
 10
107.2075818959412
 20
-158.8237250036969
 10
107.1696858456034
 20
-158.8471516529966
 10
107.1676187883123
 20
-158.8660996781654
 10
107.1676187883123
 20
-158.8723008500389
 10
107.1652072214726
 20
-158.8871147606255
 10
107.1652072214726
 20
-158.8871147606255
 10
107.3026665313341
 20
-158.8871147606255
 10
107.3026665313341
 20
-158.8871147606255
 10
107.4676866050775
 20
-158.8871147606255
 10
107.6351182456607
 20
-158.8829806460431
 10
107.8022053766953
 20
-158.8681667354566
 10
107.8022053766953
 20
-158.8681667354566
 10
107.8022053766953
 20
-159.0755614836686
 10
107.8022053766953
 20
-159.0755614836686
 10
107.5861978897701
 20
-159.0586805157909
 10
107.3219590660515
 20
-159.0586805157909
 10
107.3026665313341
 20
-159.0586805157909
 10
107.3026665313341
 20
-159.0586805157909
 10
107.1631401641814
 20
-159.0586805157909
 10
107.1631401641814
 20
-159.0586805157909
 10
107.1631401641814
 20
-159.0586805157909
 10
107.1631401641814
 20
-159.2002739402347
 10
107.1631401641814
 20
-159.2002739402347
 10
107.1631401641814
 20
-159.2002739402347
 10
107.3894829375624
 20
-159.2002739402347
 10
107.3894829375624
 20
-159.2002739402347
 10
107.6054904244875
 20
-159.2002739402347
 10
107.8232204591553
 20
-159.1961398256524
 10
108.0388834365319
 20
-159.1833929723569
 10
108.0388834365319
 20
-159.1833929723569
 10
108.0388834365319
 20
-159.390787720569
 10
108.0388834365319
 20
-159.390787720569
 10
107.7577636449356
 20
-159.3739067526913
 10
107.4129095868621
 20
-159.3739067526913
 10
107.3894829375624
 20
-159.3739067526913
 97
        0
 97
        0
 92
        1
 93
        1
 72
     4
 94
        3
 73
     0
 74
     1
 95
       23
 96
       19
 40
0.0
 40
0.0
 40
0.0
 40
0.0
 40
1.0
 40
1.0
 40
1.0
 40
2.0
 40
2.0
 40
2.0
 40
3.0
 40
3.0
 40
3.0
 40
4.0
 40
4.0
 40
4.0
 40
5.0
 40
5.0
 40
5.0
 40
6.0
 40
6.0
 40
6.0
 40
6.0
 10
106.2705159239532
 20
-158.7455213361817
 10
106.2705159239532
 20
-158.7665364186417
 10
106.2725829812444
 20
-158.804776978528
 10
106.2470892746535
 20
-158.804776978528
 10
106.2367539881978
 20
-158.804776978528
 10
106.2281412494846
 20
-158.798231297106
 10
106.2174614534804
 20
-158.7813503292283
 10
106.2174614534804
 20
-158.7813503292283
 10
106.1137640793743
 20
-158.5994492876071
 10
106.1137640793743
 20
-158.5994492876071
 10
106.3297715662995
 20
-158.4706027164588
 10
106.5264865185073
 20
-158.1932725298961
 10
106.5729953075581
 20
-158.1212700342544
 10
106.5729953075581
 20
-158.1212700342544
 10
106.6449978031999
 20
-158.3011040185845
 10
106.6449978031999
 20
-158.3011040185845
 10
106.5116726079207
 20
-158.4978189707922
 10
106.335972738173
 20
-158.6821315792531
 10
106.2705159239532
 20
-158.7455213361817
 97
        0
 97
        0
 92
        1
 93
        1
 72
     4
 94
        3
 73
     0
 74
     1
 95
       17
 96
       13
 40
0.0
 40
0.0
 40
0.0
 40
0.0
 40
1.0
 40
1.0
 40
1.0
 40
2.0
 40
2.0
 40
2.0
 40
3.0
 40
3.0
 40
3.0
 40
4.0
 40
4.0
 40
4.0
 40
4.0
 10
106.5244194612161
 20
-157.8504855291138
 10
106.4630967615787
 20
-157.7743489188898
 10
106.3339056808818
 20
-157.6982123086657
 10
106.2302083067758
 20
-157.6685844874926
 10
106.2302083067758
 20
-157.6685844874926
 10
106.3256374517172
 20
-157.5035644137491
 10
106.3256374517172
 20
-157.5035644137491
 10
106.4269232589835
 20
-157.5397379163443
 10
106.5326876903807
 20
-157.5969265013994
 10
106.6215711539002
 20
-157.6771972262057
 10
106.6215711539002
 20
-157.6771972262057
 10
106.5244194612161
 20
-157.8504855291138
 10
106.5244194612161
 20
-157.8504855291138
 97
        0
 97
        0
 92
        1
 93
        1
 72
     4
 94
        3
 73
     0
 74
     1
 95
       23
 96
       19
 40
0.0
 40
0.0
 40
0.0
 40
0.0
 40
1.0
 40
1.0
 40
1.0
 40
2.0
 40
2.0
 40
2.0
 40
3.0
 40
3.0
 40
3.0
 40
4.0
 40
4.0
 40
4.0
 40
5.0
 40
5.0
 40
5.0
 40
6.0
 40
6.0
 40
6.0
 40
6.0
 10
106.977105007978
 20
-158.5550075558474
 10
106.9557454159694
 20
-158.5784342051471
 10
106.8585937232854
 20
-158.6903998084177
 10
106.7190673561327
 20
-158.7710150427725
 10
106.7190673561327
 20
-158.7710150427725
 10
106.5519802250981
 20
-158.6504367007888
 10
106.5519802250981
 20
-158.6504367007888
 10
106.702186388255
 20
-158.5743000905648
 10
106.8014051382302
 20
-158.4788709456234
 10
106.8499809845722
 20
-158.426160984699
 10
106.8499809845722
 20
-158.426160984699
 10
107.0236137970288
 20
-158.5084987667965
 10
107.0236137970288
 20
-158.5084987667965
 10
107.0318820261934
 20
-158.5126328813788
 10
107.0404947649066
 20
-158.5191785628008
 10
107.0404947649066
 20
-158.529858358805
 10
107.0404947649066
 20
-158.5550075558474
 10
107.0046657718599
 20
-158.5550075558474
 10
106.977105007978
 20
-158.5550075558474
 97
        0
 97
        0
 92
        1
 93
        1
 72
     4
 94
        3
 73
     0
 74
     1
 95
       20
 96
       16
 40
0.0
 40
0.0
 40
0.0
 40
0.0
 40
1.0
 40
1.0
 40
1.0
 40
2.0
 40
2.0
 40
2.0
 40
3.0
 40
3.0
 40
3.0
 40
4.0
 40
4.0
 40
4.0
 40
5.0
 40
5.0
 40
5.0
 40
5.0
 10
107.2754502770006
 20
-157.7130262192523
 10
107.2372097171143
 20
-157.7619465751428
 10
107.1758870174769
 20
-157.840150242658
 10
107.0363606503243
 20
-157.9500487886375
 10
107.1166313751306
 20
-157.9541829032198
 10
107.1462591963037
 20
-157.9541829032198
 10
107.1696858456034
 20
-157.9541829032198
 10
107.1696858456034
 20
-157.9541829032198
 10
107.3980956762755
 20
-157.9541829032198
 10
107.3980956762755
 20
-157.9541829032198
 10
107.4297905547398
 20
-157.9541829032198
 10
107.4783664010818
 20
-157.9521158459286
 10
107.5524359540147
 20
-157.9500487886375
 10
107.4404703507441
 20
-157.8759792357046
 10
107.3915499948535
 20
-157.8294704466537
 10
107.2754502770006
 20
-157.7130262192523
 97
        0
 97
        0
 92
        1
 93
        1
 72
     4
 94
        3
 73
     0
 74
     1
 95
       17
 96
       13
 40
0.0
 40
0.0
 40
0.0
 40
0.0
 40
1.0
 40
1.0
 40
1.0
 40
2.0
 40
2.0
 40
2.0
 40
3.0
 40
3.0
 40
3.0
 40
4.0
 40
4.0
 40
4.0
 40
4.0
 10
107.8359673124507
 20
-158.7686034759328
 10
107.7005750598804
 20
-158.6566378726622
 10
107.5948106284832
 20
-158.5932481157336
 10
107.4762993437907
 20
-158.529858358805
 10
107.4762993437907
 20
-158.529858358805
 10
107.6030788576478
 20
-158.4175482459859
 10
107.6030788576478
 20
-158.4175482459859
 10
107.7343369956359
 20
-158.4640570350368
 10
107.8442355416153
 20
-158.5212456200919
 10
107.9692925077299
 20
-158.6228759369068
 10
107.9692925077299
 20
-158.6228759369068
 10
107.8359673124507
 20
-158.7686034759328
 10
107.8359673124507
 20
-158.7686034759328
 97
        0
 97
        0
 75
     2
 76
     1
 98
        0
  0
SPLINE
  5
113
330
107
100
AcDbEntity
  8
_U+30EC_U+30A4_U+30E4_U+30FC 1
370
     0
100
AcDbSpline
210
0.0
220
0.0
230
1.0
 70
    11
 71
     3
 72
   113
 73
   109
 74
     0
 42
0.0000000001
 43
0.0000000001
 12
1.0
 22
0.0
 32
0.0
 13
1.0
 23
0.0
 33
0.0
 40
0.0
 40
0.0
 40
0.0
 40
0.0
 40
1.0
 40
1.0
 40
1.0
 40
2.0
 40
2.0
 40
2.0
 40
3.0
 40
3.0
 40
3.0
 40
4.0
 40
4.0
 40
4.0
 40
5.0
 40
5.0
 40
5.0
 40
6.0
 40
6.0
 40
6.0
 40
7.0
 40
7.0
 40
7.0
 40
8.0
 40
8.0
 40
8.0
 40
9.0
 40
9.0
 40
9.0
 40
10.0
 40
10.0
 40
10.0
 40
11.0
 40
11.0
 40
11.0
 40
12.0
 40
12.0
 40
12.0
 40
13.0
 40
13.0
 40
13.0
 40
14.0
 40
14.0
 40
14.0
 40
15.0
 40
15.0
 40
15.0
 40
16.0
 40
16.0
 40
16.0
 40
17.0
 40
17.0
 40
17.0
 40
18.0
 40
18.0
 40
18.0
 40
19.0
 40
19.0
 40
19.0
 40
20.0
 40
20.0
 40
20.0
 40
21.0
 40
21.0
 40
21.0
 40
22.0
 40
22.0
 40
22.0
 40
23.0
 40
23.0
 40
23.0
 40
24.0
 40
24.0
 40
24.0
 40
25.0
 40
25.0
 40
25.0
 40
26.0
 40
26.0
 40
26.0
 40
27.0
 40
27.0
 40
27.0
 40
28.0
 40
28.0
 40
28.0
 40
29.0
 40
29.0
 40
29.0
 40
30.0
 40
30.0
 40
30.0
 40
31.0
 40
31.0
 40
31.0
 40
32.0
 40
32.0
 40
32.0
 40
33.0
 40
33.0
 40
33.0
 40
34.0
 40
34.0
 40
34.0
 40
35.0
 40
35.0
 40
35.0
 40
36.0
 40
36.0
 40
36.0
 40
36.0
 10
109.715611409203
 20
-158.7455213361817
 30
0.0
 10
109.715611409203
 20
-158.7455213361817
 30
0.0
 10
109.8151746687268
 20
-158.8450845957054
 30
0.0
 10
109.8151746687268
 20
-158.8450845957054
 30
0.0
 10
109.825854464731
 20
-158.8554198821612
 30
0.0
 10
109.8361897511868
 20
-158.8681667354566
 30
0.0
 10
109.8361897511868
 20
-158.8829806460431
 30
0.0
 10
109.8361897511868
 20
-158.8850477033343
 30
0.0
 10
109.8361897511868
 20
-158.9146755245075
 30
0.0
 10
109.798293700849
 20
-158.9146755245075
 30
0.0
 10
109.7896809621359
 20
-158.9146755245075
 30
0.0
 10
109.7493733449585
 20
-158.9105414099251
 30
0.0
 10
109.743172173085
 20
-158.9105414099251
 30
0.0
 10
109.7028645559076
 20
-158.9422362883894
 30
0.0
 10
109.6563557668567
 20
-158.9759982241449
 30
0.0
 10
109.5571370168816
 20
-159.0331868092
 30
0.0
 10
109.7028645559076
 20
-159.1410182978884
 30
0.0
 10
109.8616834577776
 20
-159.1982068829435
 30
0.0
 10
110.1345350202094
 20
-159.2364474428298
 30
0.0
 10
110.1345350202094
 20
-159.2364474428298
 30
0.0
 10
109.9843288570525
 20
-159.411802803029
 30
0.0
 10
109.9843288570525
 20
-159.411802803029
 30
0.0
 10
109.722157090625
 20
-159.3398003073873
 30
0.0
 10
109.5654052460462
 20
-159.2512613534164
 30
0.0
 10
109.4892686358221
 20
-159.1982068829435
 30
0.0
 10
109.3390624726652
 20
-159.0965765661286
 30
0.0
 10
109.1954019909303
 20
-158.9336235496763
 30
0.0
 10
109.1192653807063
 20
-158.7686034759328
 30
0.0
 10
109.0513969996469
 20
-158.8344047997011
 30
0.0
 10
108.977327446714
 20
-158.8871147606255
 30
0.0
 10
108.8991237791988
 20
-158.936035116516
 30
0.0
 10
108.8991237791988
 20
-158.936035116516
 30
0.0
 10
108.8991237791988
 20
-159.1875270869392
 30
0.0
 10
108.8991237791988
 20
-159.1875270869392
 30
0.0
 10
109.0620767956512
 20
-159.1623778898969
 30
0.0
 10
109.2481119518546
 20
-159.1179361581372
 30
0.0
 10
109.3115017087832
 20
-159.1031222475506
 30
0.0
 10
109.3115017087832
 20
-159.1031222475506
 30
0.0
 10
109.2818738876101
 20
-159.2722764358764
 30
0.0
 10
109.2818738876101
 20
-159.2722764358764
 30
0.0
 10
109.2798068303189
 20
-159.2722764358764
 30
0.0
 10
109.2608588051501
 20
-159.2784776077498
 30
0.0
 10
109.2587917478589
 20
-159.2784776077498
 30
0.0
 10
109.06000973836
 20
-159.3167181676361
 30
0.0
 10
108.7427164441685
 20
-159.3821749818559
 30
0.0
 10
108.5456569824122
 20
-159.418348484451
 30
0.0
 10
108.5353216959565
 20
-159.4352294523287
 30
0.0
 10
108.5118950466567
 20
-159.466924330793
 30
0.0
 10
108.4888129069056
 20
-159.466924330793
 30
0.0
 10
108.4612521430236
 20
-159.466924330793
 30
0.0
 10
108.4571180284413
 20
-159.4479763056241
 30
0.0
 10
108.4547064616016
 20
-159.4286837709067
 30
0.0
 10
108.4547064616016
 20
-159.4286837709067
 30
0.0
 10
108.4295572645593
 20
-159.2553954679987
 30
0.0
 10
108.4295572645593
 20
-159.2553954679987
 30
0.0
 10
108.5036268174921
 20
-159.2467827292855
 30
0.0
 10
108.6114583061805
 20
-159.2340358759901
 30
0.0
 10
108.7192897948688
 20
-159.2130207935301
 30
0.0
 10
108.7192897948688
 20
-159.2130207935301
 30
0.0
 10
108.7192897948688
 20
-159.0352538664912
 30
0.0
 10
108.7192897948688
 20
-159.0352538664912
 30
0.0
 10
108.5752848035853
 20
-159.1072563621329
 30
0.0
 10
108.4802001681925
 20
-159.1368841833061
 30
0.0
 10
108.315180094449
 20
-159.1665120044792
 30
0.0
 10
108.315180094449
 20
-159.1665120044792
 30
0.0
 10
108.1946017524652
 20
-158.9973578161535
 30
0.0
 10
108.1946017524652
 20
-158.9973578161535
 30
0.0
 10
108.5118950466567
 20
-158.9697970522714
 30
0.0
 10
108.7044758842822
 20
-158.8767794741697
 30
0.0
 10
108.8822428113211
 20
-158.7434542788905
 30
0.0
 10
108.7361707627465
 20
-158.7434542788905
 30
0.0
 10
108.4357584364327
 20
-158.7475883934728
 30
0.0
 10
108.239043484225
 20
-158.7541340748948
 30
0.0
 10
108.239043484225
 20
-158.7541340748948
 30
0.0
 10
108.239043484225
 20
-158.5763671478559
 30
0.0
 10
108.239043484225
 20
-158.5763671478559
 30
0.0
 10
108.3933837619642
 20
-158.5825683197294
 30
0.0
 10
108.6896619736956
 20
-158.5891140011513
 30
0.0
 10
108.873630072608
 20
-158.5891140011513
 30
0.0
 10
108.873630072608
 20
-158.5891140011513
 30
0.0
 10
109.0851589354023
 20
-158.5891140011513
 30
0.0
 10
109.0851589354023
 20
-158.5891140011513
 30
0.0
 10
109.0851589354023
 20
-158.4936848562099
 30
0.0
 10
109.0830918781112
 20
-158.4430419525767
 30
0.0
 10
109.0768907062377
 20
-158.3965331635259
 30
0.0
 10
109.0768907062377
 20
-158.3965331635259
 30
0.0
 10
109.2925536836144
 20
-158.4134141314036
 30
0.0
 10
109.2925536836144
 20
-158.4134141314036
 30
0.0
 10
109.3411295299564
 20
-158.4175482459859
 30
0.0
 10
109.3497422686695
 20
-158.4323621565725
 30
0.0
 10
109.3497422686695
 20
-158.447176067159
 30
0.0
 10
109.3497422686695
 20
-158.4726697737499
 30
0.0
 10
109.3328613007918
 20
-158.4809380029145
 30
0.0
 10
109.2818738876101
 20
-158.5064317095053
 30
0.0
 10
109.2798068303189
 20
-158.5319254160962
 30
0.0
 10
109.2798068303189
 20
-158.5381265879696
 30
0.0
 10
109.2777397730278
 20
-158.5891140011513
 30
0.0
 10
109.2777397730278
 20
-158.5891140011513
 30
0.0
 10
109.508216660991
 20
-158.5891140011513
 30
0.0
 10
109.508216660991
 20
-158.5891140011513
 30
0.0
 10
109.6732367347345
 20
-158.5891140011513
 30
0.0
 10
109.9653808318837
 20
-158.5825683197294
 30
0.0
 10
110.1452148162137
 20
-158.5763671478559
 30
0.0
 10
110.1452148162137
 20
-158.5763671478559
 30
0.0
 10
110.1452148162137
 20
-158.7541340748948
 30
0.0
 10
110.1452148162137
 20
-158.7541340748948
 30
0.0
 10
110.0160237355168
 20
-158.749655450764
 30
0.0
 10
109.9929415957657
 20
-158.749655450764
 30
0.0
 10
109.715611409203
 20
-158.7455213361817
 30
0.0
  0
SPLINE
  5
114
330
107
100
AcDbEntity
  8
_U+30EC_U+30A4_U+30E4_U+30FC 1
370
     0
100
AcDbSpline
210
0.0
220
0.0
230
1.0
 70
    11
 71
     3
 72
    23
 73
    19
 74
     0
 42
0.0000000001
 43
0.0000000001
 12
1.0
 22
0.0
 32
0.0
 13
1.0
 23
0.0
 33
0.0
 40
0.0
 40
0.0
 40
0.0
 40
0.0
 40
1.0
 40
1.0
 40
1.0
 40
2.0
 40
2.0
 40
2.0
 40
3.0
 40
3.0
 40
3.0
 40
4.0
 40
4.0
 40
4.0
 40
5.0
 40
5.0
 40
5.0
 40
6.0
 40
6.0
 40
6.0
 40
6.0
 10
108.4316243218504
 20
-158.3944661062347
 30
0.0
 10
108.4147433539727
 20
-158.4344292138636
 30
0.0
 10
108.4081976725507
 20
-158.4513101817413
 30
0.0
 10
108.3871825900907
 20
-158.4513101817413
 30
0.0
 10
108.3723686795041
 20
-158.4513101817413
 30
0.0
 10
108.3616888834999
 20
-158.4344292138636
 30
0.0
 10
108.3554877116264
 20
-158.4216823605682
 30
0.0
 10
108.3554877116264
 20
-158.4216823605682
 30
0.0
 10
108.2559244521027
 20
-158.2566622868247
 30
0.0
 10
108.2559244521027
 20
-158.2566622868247
 30
0.0
 10
108.3575547689176
 20
-158.2249674083604
 30
0.0
 10
108.5077609320744
 20
-158.170190390145
 30
0.0
 10
108.7065429415734
 20
-158.0072373736926
 30
0.0
 10
108.7065429415734
 20
-158.0072373736926
 30
0.0
 10
108.7637315266285
 20
-158.1805256766007
 30
0.0
 10
108.7637315266285
 20
-158.1805256766007
 30
0.0
 10
108.6707139485268
 20
-158.2632079682467
 30
0.0
 10
108.5818304850073
 20
-158.3203965533019
 30
0.0
 10
108.4316243218504
 20
-158.3944661062347
 30
0.0
  0
SPLINE
  5
115
330
107
100
AcDbEntity
  8
_U+30EC_U+30A4_U+30E4_U+30FC 1
370
     0
100
AcDbSpline
210
0.0
220
0.0
230
1.0
 70
    11
 71
     3
 72
    17
 73
    13
 74
     0
 42
0.0000000001
 43
0.0000000001
 12
1.0
 22
0.0
 32
0.0
 13
1.0
 23
0.0
 33
0.0
 40
0.0
 40
0.0
 40
0.0
 40
0.0
 40
1.0
 40
1.0
 40
1.0
 40
2.0
 40
2.0
 40
2.0
 40
3.0
 40
3.0
 40
3.0
 40
4.0
 40
4.0
 40
4.0
 40
4.0
 10
108.5838975422985
 20
-157.9290337061775
 30
0.0
 10
108.5542697211253
 20
-157.888726089
 30
0.0
 10
108.4864013400659
 20
-157.791574396316
 30
0.0
 10
108.3045002984447
 20
-157.681331340788
 30
0.0
 10
108.3045002984447
 20
-157.681331340788
 30
0.0
 10
108.4316243218504
 20
-157.5480061455089
 30
0.0
 10
108.4316243218504
 20
-157.5480061455089
 30
0.0
 10
108.6176594780539
 20
-157.6496364623237
 30
0.0
 10
108.6748480631091
 20
-157.7385199258431
 30
0.0
 10
108.7024088269911
 20
-157.7808946003117
 30
0.0
 10
108.7024088269911
 20
-157.7808946003117
 30
0.0
 10
108.5838975422985
 20
-157.9290337061775
 30
0.0
 10
108.5838975422985
 20
-157.9290337061775
 30
0.0
  0
SPLINE
  5
116
330
107
100
AcDbEntity
  8
_U+30EC_U+30A4_U+30E4_U+30FC 1
370
     0
100
AcDbSpline
210
0.0
220
0.0
230
1.0
 70
    11
 71
     3
 72
    38
 73
    34
 74
     0
 42
0.0000000001
 43
0.0000000001
 12
1.0
 22
0.0
 32
0.0
 13
1.0
 23
0.0
 33
0.0
 40
0.0
 40
0.0
 40
0.0
 40
0.0
 40
1.0
 40
1.0
 40
1.0
 40
2.0
 40
2.0
 40
2.0
 40
3.0
 40
3.0
 40
3.0
 40
4.0
 40
4.0
 40
4.0
 40
5.0
 40
5.0
 40
5.0
 40
6.0
 40
6.0
 40
6.0
 40
7.0
 40
7.0
 40
7.0
 40
8.0
 40
8.0
 40
8.0
 40
9.0
 40
9.0
 40
9.0
 40
10.0
 40
10.0
 40
10.0
 40
11.0
 40
11.0
 40
11.0
 40
11.0
 10
108.9518337401232
 20
-157.6241427557329
 30
0.0
 10
108.949766682832
 20
-157.6709960543322
 30
0.0
 10
108.9476996255409
 20
-157.7870957721852
 30
0.0
 10
108.9476996255409
 20
-157.8315375039449
 30
0.0
 10
108.9476996255409
 20
-157.8315375039449
 30
0.0
 10
108.9476996255409
 20
-158.1784586193096
 30
0.0
 10
108.9476996255409
 20
-158.1784586193096
 30
0.0
 10
108.9476996255409
 20
-158.2652750255378
 30
0.0
 10
108.949766682832
 20
-158.4068684499816
 30
0.0
 10
108.9604464788363
 20
-158.5274467919654
 30
0.0
 10
108.9604464788363
 20
-158.5274467919654
 30
0.0
 10
108.769932698502
 20
-158.5274467919654
 30
0.0
 10
108.769932698502
 20
-158.5274467919654
 30
0.0
 10
108.7744113226328
 20
-158.4640570350368
 30
0.0
 10
108.7785454372151
 20
-158.4113470741125
 30
0.0
 10
108.7806124945062
 20
-158.3562255463484
 30
0.0
 10
108.7826795517974
 20
-158.2335801470736
 30
0.0
 10
108.7847466090885
 20
-158.218766236487
 30
0.0
 10
108.7847466090885
 20
-158.1743245047273
 30
0.0
 10
108.7847466090885
 20
-158.1743245047273
 30
0.0
 10
108.7847466090885
 20
-157.8528970959534
 30
0.0
 10
108.7847466090885
 20
-157.8528970959534
 30
0.0
 10
108.7847466090885
 20
-157.7977755681895
 30
0.0
 10
108.7719997557931
 20
-157.5586859415131
 30
0.0
 10
108.769932698502
 20
-157.5080430378799
 30
0.0
 10
108.769932698502
 20
-157.5080430378799
 30
0.0
 10
108.9711262748406
 20
-157.5356038017619
 30
0.0
 10
108.9711262748406
 20
-157.5356038017619
 30
0.0
 10
108.9921413573006
 20
-157.5376708590531
 30
0.0
 10
109.0238362357649
 20
-157.5418049736354
 30
0.0
 10
109.0238362357649
 20
-157.5672986802262
 30
0.0
 10
109.0238362357649
 20
-157.5945149345597
 30
0.0
 10
108.9731933321317
 20
-157.6158745265683
 30
0.0
 10
108.9518337401232
 20
-157.6241427557329
 30
0.0
  0
SPLINE
  5
117
330
107
100
AcDbEntity
  8
_U+30EC_U+30A4_U+30E4_U+30FC 1
370
     0
100
AcDbSpline
210
0.0
220
0.0
230
1.0
 70
    11
 71
     3
 72
    83
 73
    79
 74
     0
 42
0.0000000001
 43
0.0000000001
 12
1.0
 22
0.0
 32
0.0
 13
1.0
 23
0.0
 33
0.0
 40
0.0
 40
0.0
 40
0.0
 40
0.0
 40
1.0
 40
1.0
 40
1.0
 40
2.0
 40
2.0
 40
2.0
 40
3.0
 40
3.0
 40
3.0
 40
4.0
 40
4.0
 40
4.0
 40
5.0
 40
5.0
 40
5.0
 40
6.0
 40
6.0
 40
6.0
 40
7.0
 40
7.0
 40
7.0
 40
8.0
 40
8.0
 40
8.0
 40
9.0
 40
9.0
 40
9.0
 40
10.0
 40
10.0
 40
10.0
 40
11.0
 40
11.0
 40
11.0
 40
12.0
 40
12.0
 40
12.0
 40
13.0
 40
13.0
 40
13.0
 40
14.0
 40
14.0
 40
14.0
 40
15.0
 40
15.0
 40
15.0
 40
16.0
 40
16.0
 40
16.0
 40
17.0
 40
17.0
 40
17.0
 40
18.0
 40
18.0
 40
18.0
 40
19.0
 40
19.0
 40
19.0
 40
20.0
 40
20.0
 40
20.0
 40
21.0
 40
21.0
 40
21.0
 40
22.0
 40
22.0
 40
22.0
 40
23.0
 40
23.0
 40
23.0
 40
24.0
 40
24.0
 40
24.0
 40
25.0
 40
25.0
 40
25.0
 40
26.0
 40
26.0
 40
26.0
 40
26.0
 10
109.7538519690893
 20
-157.9459146740552
 30
0.0
 10
109.7538519690893
 20
-157.9459146740552
 30
0.0
 10
109.6563557668567
 20
-157.9459146740552
 30
0.0
 10
109.6563557668567
 20
-157.9459146740552
 30
0.0
 10
109.6563557668567
 20
-157.9459146740552
 30
0.0
 10
109.6563557668567
 20
-158.1932725298961
 30
0.0
 10
109.6563557668567
 20
-158.1932725298961
 30
0.0
 10
109.6563557668567
 20
-158.1932725298961
 30
0.0
 10
109.7390380585027
 20
-158.1932725298961
 30
0.0
 10
109.7390380585027
 20
-158.1932725298961
 30
0.0
 10
109.8044948727225
 20
-158.1932725298961
 30
0.0
 10
109.9440212398751
 20
-158.1891384153138
 30
0.0
 10
110.0435844993988
 20
-158.1805256766007
 30
0.0
 10
110.0435844993988
 20
-158.1805256766007
 30
0.0
 10
110.0435844993988
 20
-158.3603596609308
 30
0.0
 10
110.0435844993988
 20
-158.3603596609308
 30
0.0
 10
109.9505669212971
 20
-158.3520914317662
 30
0.0
 10
109.8003607581402
 20
-158.3479573171838
 30
0.0
 10
109.7390380585027
 20
-158.3479573171838
 30
0.0
 10
109.7390380585027
 20
-158.3479573171838
 30
0.0
 10
109.4341471080581
 20
-158.3479573171838
 30
0.0
 10
109.4341471080581
 20
-158.3479573171838
 30
0.0
 10
109.3814371471338
 20
-158.3479573171838
 30
0.0
 10
109.2353650985592
 20
-158.3520914317662
 30
0.0
 10
109.1296006671621
 20
-158.3603596609308
 30
0.0
 10
109.1296006671621
 20
-158.3603596609308
 30
0.0
 10
109.1296006671621
 20
-158.1805256766007
 30
0.0
 10
109.1296006671621
 20
-158.1805256766007
 30
0.0
 10
109.2291639266858
 20
-158.1891384153138
 30
0.0
 10
109.3686902938384
 20
-158.1932725298961
 30
0.0
 10
109.4341471080581
 20
-158.1932725298961
 30
0.0
 10
109.4341471080581
 20
-158.1932725298961
 30
0.0
 10
109.4785888398179
 20
-158.1932725298961
 30
0.0
 10
109.4785888398179
 20
-158.1932725298961
 30
0.0
 10
109.4785888398179
 20
-158.1932725298961
 30
0.0
 10
109.4785888398179
 20
-157.9459146740552
 30
0.0
 10
109.4785888398179
 20
-157.9459146740552
 30
0.0
 10
109.4785888398179
 20
-157.9459146740552
 30
0.0
 10
109.4048637964335
 20
-157.9459146740552
 30
0.0
 10
109.4048637964335
 20
-157.9459146740552
 30
0.0
 10
109.3431965872475
 20
-157.9459146740552
 30
0.0
 10
109.1761094562129
 20
-157.9500487886375
 30
0.0
 10
109.0555311142292
 20
-157.9586615273506
 30
0.0
 10
109.0555311142292
 20
-157.9586615273506
 30
0.0
 10
109.0555311142292
 20
-157.7808946003117
 30
0.0
 10
109.0555311142292
 20
-157.7808946003117
 30
0.0
 10
109.1699082843395
 20
-157.7870957721852
 30
0.0
 10
109.328382676661
 20
-157.791574396316
 30
0.0
 10
109.4048637964335
 20
-157.791574396316
 30
0.0
 10
109.4048637964335
 20
-157.791574396316
 30
0.0
 10
109.4765217825267
 20
-157.791574396316
 30
0.0
 10
109.4765217825267
 20
-157.791574396316
 30
0.0
 10
109.4723876679444
 20
-157.6389566663194
 30
0.0
 10
109.4703206106533
 20
-157.605194730564
 30
0.0
 10
109.4637749292313
 20
-157.5121771524622
 30
0.0
 10
109.4637749292313
 20
-157.5121771524622
 30
0.0
 10
109.6756483015741
 20
-157.5356038017619
 30
0.0
 10
109.6756483015741
 20
-157.5356038017619
 30
0.0
 10
109.7007974986165
 20
-157.5376708590531
 30
0.0
 10
109.7242241479162
 20
-157.5418049736354
 30
0.0
 10
109.7242241479162
 20
-157.5648871133866
 30
0.0
 10
109.7242241479162
 20
-157.5969265013994
 30
0.0
 10
109.6797824161564
 20
-157.6138074692771
 30
0.0
 10
109.6563557668567
 20
-157.6220756984417
 30
0.0
 10
109.6563557668567
 20
-157.6220756984417
 30
0.0
 10
109.6563557668567
 20
-157.791574396316
 30
0.0
 10
109.6563557668567
 20
-157.791574396316
 30
0.0
 10
109.6563557668567
 20
-157.791574396316
 30
0.0
 10
109.7538519690893
 20
-157.791574396316
 30
0.0
 10
109.7538519690893
 20
-157.791574396316
 30
0.0
 10
109.8299885793133
 20
-157.791574396316
 30
0.0
 10
109.9884629716348
 20
-157.7870957721852
 30
0.0
 10
110.1049071990363
 20
-157.7808946003117
 30
0.0
 10
110.1049071990363
 20
-157.7808946003117
 30
0.0
 10
110.1049071990363
 20
-157.9586615273506
 30
0.0
 10
110.1049071990363
 20
-157.9586615273506
 30
0.0
 10
109.997075710348
 20
-157.9521158459286
 30
0.0
 10
109.8234428978914
 20
-157.9459146740552
 30
0.0
 10
109.7538519690893
 20
-157.9459146740552
 30
0.0
  0
SPLINE
  5
118
330
107
100
AcDbEntity
  8
_U+30EC_U+30A4_U+30E4_U+30FC 1
370
     0
100
AcDbSpline
210
0.0
220
0.0
230
1.0
 70
    11
 71
     3
 72
    17
 73
    13
 74
     0
 42
0.0000000001
 43
0.0000000001
 12
1.0
 22
0.0
 32
0.0
 13
1.0
 23
0.0
 33
0.0
 40
0.0
 40
0.0
 40
0.0
 40
0.0
 40
1.0
 40
1.0
 40
1.0
 40
2.0
 40
2.0
 40
2.0
 40
3.0
 40
3.0
 40
3.0
 40
4.0
 40
4.0
 40
4.0
 40
4.0
 10
109.508216660991
 20
-158.7434542788905
 30
0.0
 10
109.508216660991
 20
-158.7434542788905
 30
0.0
 10
109.3053005369098
 20
-158.7434542788905
 30
0.0
 10
109.3053005369098
 20
-158.7434542788905
 30
0.0
 10
109.3328613007918
 20
-158.8027099212368
 30
0.0
 10
109.3876383190073
 20
-158.8747124168785
 30
0.0
 10
109.4151990828893
 20
-158.9039957285032
 30
0.0
 10
109.4427598467713
 20
-158.8895263274651
 30
0.0
 10
109.5571370168816
 20
-158.825792060988
 30
0.0
 10
109.6480875376921
 20
-158.7434542788905
 30
0.0
 10
109.6480875376921
 20
-158.7434542788905
 30
0.0
 10
109.508216660991
 20
-158.7434542788905
 30
0.0
 10
109.508216660991
 20
-158.7434542788905
 30
0.0
  0
HATCH
  5
119
330
107
100
AcDbEntity
  8
_U+30EC_U+30A4_U+30E4_U+30FC 1
 62
     7
420
 16777215
100
AcDbHatch
 10
0.0
 20
0.0
 30
0.0
210
0.0
220
0.0
230
1.0
  2
SOLID
 70
     1
 71
     0
 91
        6
 92
        1
 93
        1
 72
     4
 94
        3
 73
     0
 74
     1
 95
      113
 96
      109
 40
0.0
 40
0.0
 40
0.0
 40
0.0
 40
1.0
 40
1.0
 40
1.0
 40
2.0
 40
2.0
 40
2.0
 40
3.0
 40
3.0
 40
3.0
 40
4.0
 40
4.0
 40
4.0
 40
5.0
 40
5.0
 40
5.0
 40
6.0
 40
6.0
 40
6.0
 40
7.0
 40
7.0
 40
7.0
 40
8.0
 40
8.0
 40
8.0
 40
9.0
 40
9.0
 40
9.0
 40
10.0
 40
10.0
 40
10.0
 40
11.0
 40
11.0
 40
11.0
 40
12.0
 40
12.0
 40
12.0
 40
13.0
 40
13.0
 40
13.0
 40
14.0
 40
14.0
 40
14.0
 40
15.0
 40
15.0
 40
15.0
 40
16.0
 40
16.0
 40
16.0
 40
17.0
 40
17.0
 40
17.0
 40
18.0
 40
18.0
 40
18.0
 40
19.0
 40
19.0
 40
19.0
 40
20.0
 40
20.0
 40
20.0
 40
21.0
 40
21.0
 40
21.0
 40
22.0
 40
22.0
 40
22.0
 40
23.0
 40
23.0
 40
23.0
 40
24.0
 40
24.0
 40
24.0
 40
25.0
 40
25.0
 40
25.0
 40
26.0
 40
26.0
 40
26.0
 40
27.0
 40
27.0
 40
27.0
 40
28.0
 40
28.0
 40
28.0
 40
29.0
 40
29.0
 40
29.0
 40
30.0
 40
30.0
 40
30.0
 40
31.0
 40
31.0
 40
31.0
 40
32.0
 40
32.0
 40
32.0
 40
33.0
 40
33.0
 40
33.0
 40
34.0
 40
34.0
 40
34.0
 40
35.0
 40
35.0
 40
35.0
 40
36.0
 40
36.0
 40
36.0
 40
36.0
 10
109.715611409203
 20
-158.7455213361817
 10
109.715611409203
 20
-158.7455213361817
 10
109.8151746687268
 20
-158.8450845957054
 10
109.8151746687268
 20
-158.8450845957054
 10
109.825854464731
 20
-158.8554198821612
 10
109.8361897511868
 20
-158.8681667354566
 10
109.8361897511868
 20
-158.8829806460431
 10
109.8361897511868
 20
-158.8850477033343
 10
109.8361897511868
 20
-158.9146755245075
 10
109.798293700849
 20
-158.9146755245075
 10
109.7896809621359
 20
-158.9146755245075
 10
109.7493733449585
 20
-158.9105414099251
 10
109.743172173085
 20
-158.9105414099251
 10
109.7028645559076
 20
-158.9422362883894
 10
109.6563557668567
 20
-158.9759982241449
 10
109.5571370168816
 20
-159.0331868092
 10
109.7028645559076
 20
-159.1410182978884
 10
109.8616834577776
 20
-159.1982068829435
 10
110.1345350202094
 20
-159.2364474428298
 10
110.1345350202094
 20
-159.2364474428298
 10
109.9843288570525
 20
-159.411802803029
 10
109.9843288570525
 20
-159.411802803029
 10
109.722157090625
 20
-159.3398003073873
 10
109.5654052460462
 20
-159.2512613534164
 10
109.4892686358221
 20
-159.1982068829435
 10
109.3390624726652
 20
-159.0965765661286
 10
109.1954019909303
 20
-158.9336235496763
 10
109.1192653807063
 20
-158.7686034759328
 10
109.0513969996469
 20
-158.8344047997011
 10
108.977327446714
 20
-158.8871147606255
 10
108.8991237791988
 20
-158.936035116516
 10
108.8991237791988
 20
-158.936035116516
 10
108.8991237791988
 20
-159.1875270869392
 10
108.8991237791988
 20
-159.1875270869392
 10
109.0620767956512
 20
-159.1623778898969
 10
109.2481119518546
 20
-159.1179361581372
 10
109.3115017087832
 20
-159.1031222475506
 10
109.3115017087832
 20
-159.1031222475506
 10
109.2818738876101
 20
-159.2722764358764
 10
109.2818738876101
 20
-159.2722764358764
 10
109.2798068303189
 20
-159.2722764358764
 10
109.2608588051501
 20
-159.2784776077498
 10
109.2587917478589
 20
-159.2784776077498
 10
109.06000973836
 20
-159.3167181676361
 10
108.7427164441685
 20
-159.3821749818559
 10
108.5456569824122
 20
-159.418348484451
 10
108.5353216959565
 20
-159.4352294523287
 10
108.5118950466567
 20
-159.466924330793
 10
108.4888129069056
 20
-159.466924330793
 10
108.4612521430236
 20
-159.466924330793
 10
108.4571180284413
 20
-159.4479763056241
 10
108.4547064616016
 20
-159.4286837709067
 10
108.4547064616016
 20
-159.4286837709067
 10
108.4295572645593
 20
-159.2553954679987
 10
108.4295572645593
 20
-159.2553954679987
 10
108.5036268174921
 20
-159.2467827292855
 10
108.6114583061805
 20
-159.2340358759901
 10
108.7192897948688
 20
-159.2130207935301
 10
108.7192897948688
 20
-159.2130207935301
 10
108.7192897948688
 20
-159.0352538664912
 10
108.7192897948688
 20
-159.0352538664912
 10
108.5752848035853
 20
-159.1072563621329
 10
108.4802001681925
 20
-159.1368841833061
 10
108.315180094449
 20
-159.1665120044792
 10
108.315180094449
 20
-159.1665120044792
 10
108.1946017524652
 20
-158.9973578161535
 10
108.1946017524652
 20
-158.9973578161535
 10
108.5118950466567
 20
-158.9697970522714
 10
108.7044758842822
 20
-158.8767794741697
 10
108.8822428113211
 20
-158.7434542788905
 10
108.7361707627465
 20
-158.7434542788905
 10
108.4357584364327
 20
-158.7475883934728
 10
108.239043484225
 20
-158.7541340748948
 10
108.239043484225
 20
-158.7541340748948
 10
108.239043484225
 20
-158.5763671478559
 10
108.239043484225
 20
-158.5763671478559
 10
108.3933837619642
 20
-158.5825683197294
 10
108.6896619736956
 20
-158.5891140011513
 10
108.873630072608
 20
-158.5891140011513
 10
108.873630072608
 20
-158.5891140011513
 10
109.0851589354023
 20
-158.5891140011513
 10
109.0851589354023
 20
-158.5891140011513
 10
109.0851589354023
 20
-158.4936848562099
 10
109.0830918781112
 20
-158.4430419525767
 10
109.0768907062377
 20
-158.3965331635259
 10
109.0768907062377
 20
-158.3965331635259
 10
109.2925536836144
 20
-158.4134141314036
 10
109.2925536836144
 20
-158.4134141314036
 10
109.3411295299564
 20
-158.4175482459859
 10
109.3497422686695
 20
-158.4323621565725
 10
109.3497422686695
 20
-158.447176067159
 10
109.3497422686695
 20
-158.4726697737499
 10
109.3328613007918
 20
-158.4809380029145
 10
109.2818738876101
 20
-158.5064317095053
 10
109.2798068303189
 20
-158.5319254160962
 10
109.2798068303189
 20
-158.5381265879696
 10
109.2777397730278
 20
-158.5891140011513
 10
109.2777397730278
 20
-158.5891140011513
 10
109.508216660991
 20
-158.5891140011513
 10
109.508216660991
 20
-158.5891140011513
 10
109.6732367347345
 20
-158.5891140011513
 10
109.9653808318837
 20
-158.5825683197294
 10
110.1452148162137
 20
-158.5763671478559
 10
110.1452148162137
 20
-158.5763671478559
 10
110.1452148162137
 20
-158.7541340748948
 10
110.1452148162137
 20
-158.7541340748948
 10
110.0160237355168
 20
-158.749655450764
 10
109.9929415957657
 20
-158.749655450764
 10
109.715611409203
 20
-158.7455213361817
 97
        0
 97
        0
 92
        1
 93
        1
 72
     4
 94
        3
 73
     0
 74
     1
 95
       23
 96
       19
 40
0.0
 40
0.0
 40
0.0
 40
0.0
 40
1.0
 40
1.0
 40
1.0
 40
2.0
 40
2.0
 40
2.0
 40
3.0
 40
3.0
 40
3.0
 40
4.0
 40
4.0
 40
4.0
 40
5.0
 40
5.0
 40
5.0
 40
6.0
 40
6.0
 40
6.0
 40
6.0
 10
108.4316243218504
 20
-158.3944661062347
 10
108.4147433539727
 20
-158.4344292138636
 10
108.4081976725507
 20
-158.4513101817413
 10
108.3871825900907
 20
-158.4513101817413
 10
108.3723686795041
 20
-158.4513101817413
 10
108.3616888834999
 20
-158.4344292138636
 10
108.3554877116264
 20
-158.4216823605682
 10
108.3554877116264
 20
-158.4216823605682
 10
108.2559244521027
 20
-158.2566622868247
 10
108.2559244521027
 20
-158.2566622868247
 10
108.3575547689176
 20
-158.2249674083604
 10
108.5077609320744
 20
-158.170190390145
 10
108.7065429415734
 20
-158.0072373736926
 10
108.7065429415734
 20
-158.0072373736926
 10
108.7637315266285
 20
-158.1805256766007
 10
108.7637315266285
 20
-158.1805256766007
 10
108.6707139485268
 20
-158.2632079682467
 10
108.5818304850073
 20
-158.3203965533019
 10
108.4316243218504
 20
-158.3944661062347
 97
        0
 97
        0
 92
        1
 93
        1
 72
     4
 94
        3
 73
     0
 74
     1
 95
       17
 96
       13
 40
0.0
 40
0.0
 40
0.0
 40
0.0
 40
1.0
 40
1.0
 40
1.0
 40
2.0
 40
2.0
 40
2.0
 40
3.0
 40
3.0
 40
3.0
 40
4.0
 40
4.0
 40
4.0
 40
4.0
 10
108.5838975422985
 20
-157.9290337061775
 10
108.5542697211253
 20
-157.888726089
 10
108.4864013400659
 20
-157.791574396316
 10
108.3045002984447
 20
-157.681331340788
 10
108.3045002984447
 20
-157.681331340788
 10
108.4316243218504
 20
-157.5480061455089
 10
108.4316243218504
 20
-157.5480061455089
 10
108.6176594780539
 20
-157.6496364623237
 10
108.6748480631091
 20
-157.7385199258431
 10
108.7024088269911
 20
-157.7808946003117
 10
108.7024088269911
 20
-157.7808946003117
 10
108.5838975422985
 20
-157.9290337061775
 10
108.5838975422985
 20
-157.9290337061775
 97
        0
 97
        0
 92
        1
 93
        1
 72
     4
 94
        3
 73
     0
 74
     1
 95
       38
 96
       34
 40
0.0
 40
0.0
 40
0.0
 40
0.0
 40
1.0
 40
1.0
 40
1.0
 40
2.0
 40
2.0
 40
2.0
 40
3.0
 40
3.0
 40
3.0
 40
4.0
 40
4.0
 40
4.0
 40
5.0
 40
5.0
 40
5.0
 40
6.0
 40
6.0
 40
6.0
 40
7.0
 40
7.0
 40
7.0
 40
8.0
 40
8.0
 40
8.0
 40
9.0
 40
9.0
 40
9.0
 40
10.0
 40
10.0
 40
10.0
 40
11.0
 40
11.0
 40
11.0
 40
11.0
 10
108.9518337401232
 20
-157.6241427557329
 10
108.949766682832
 20
-157.6709960543322
 10
108.9476996255409
 20
-157.7870957721852
 10
108.9476996255409
 20
-157.8315375039449
 10
108.9476996255409
 20
-157.8315375039449
 10
108.9476996255409
 20
-158.1784586193096
 10
108.9476996255409
 20
-158.1784586193096
 10
108.9476996255409
 20
-158.2652750255378
 10
108.949766682832
 20
-158.4068684499816
 10
108.9604464788363
 20
-158.5274467919654
 10
108.9604464788363
 20
-158.5274467919654
 10
108.769932698502
 20
-158.5274467919654
 10
108.769932698502
 20
-158.5274467919654
 10
108.7744113226328
 20
-158.4640570350368
 10
108.7785454372151
 20
-158.4113470741125
 10
108.7806124945062
 20
-158.3562255463484
 10
108.7826795517974
 20
-158.2335801470736
 10
108.7847466090885
 20
-158.218766236487
 10
108.7847466090885
 20
-158.1743245047273
 10
108.7847466090885
 20
-158.1743245047273
 10
108.7847466090885
 20
-157.8528970959534
 10
108.7847466090885
 20
-157.8528970959534
 10
108.7847466090885
 20
-157.7977755681895
 10
108.7719997557931
 20
-157.5586859415131
 10
108.769932698502
 20
-157.5080430378799
 10
108.769932698502
 20
-157.5080430378799
 10
108.9711262748406
 20
-157.5356038017619
 10
108.9711262748406
 20
-157.5356038017619
 10
108.9921413573006
 20
-157.5376708590531
 10
109.0238362357649
 20
-157.5418049736354
 10
109.0238362357649
 20
-157.5672986802262
 10
109.0238362357649
 20
-157.5945149345597
 10
108.9731933321317
 20
-157.6158745265683
 10
108.9518337401232
 20
-157.6241427557329
 97
        0
 97
        0
 92
        1
 93
        1
 72
     4
 94
        3
 73
     0
 74
     1
 95
       83
 96
       79
 40
0.0
 40
0.0
 40
0.0
 40
0.0
 40
1.0
 40
1.0
 40
1.0
 40
2.0
 40
2.0
 40
2.0
 40
3.0
 40
3.0
 40
3.0
 40
4.0
 40
4.0
 40
4.0
 40
5.0
 40
5.0
 40
5.0
 40
6.0
 40
6.0
 40
6.0
 40
7.0
 40
7.0
 40
7.0
 40
8.0
 40
8.0
 40
8.0
 40
9.0
 40
9.0
 40
9.0
 40
10.0
 40
10.0
 40
10.0
 40
11.0
 40
11.0
 40
11.0
 40
12.0
 40
12.0
 40
12.0
 40
13.0
 40
13.0
 40
13.0
 40
14.0
 40
14.0
 40
14.0
 40
15.0
 40
15.0
 40
15.0
 40
16.0
 40
16.0
 40
16.0
 40
17.0
 40
17.0
 40
17.0
 40
18.0
 40
18.0
 40
18.0
 40
19.0
 40
19.0
 40
19.0
 40
20.0
 40
20.0
 40
20.0
 40
21.0
 40
21.0
 40
21.0
 40
22.0
 40
22.0
 40
22.0
 40
23.0
 40
23.0
 40
23.0
 40
24.0
 40
24.0
 40
24.0
 40
25.0
 40
25.0
 40
25.0
 40
26.0
 40
26.0
 40
26.0
 40
26.0
 10
109.7538519690893
 20
-157.9459146740552
 10
109.7538519690893
 20
-157.9459146740552
 10
109.6563557668567
 20
-157.9459146740552
 10
109.6563557668567
 20
-157.9459146740552
 10
109.6563557668567
 20
-157.9459146740552
 10
109.6563557668567
 20
-158.1932725298961
 10
109.6563557668567
 20
-158.1932725298961
 10
109.6563557668567
 20
-158.1932725298961
 10
109.7390380585027
 20
-158.1932725298961
 10
109.7390380585027
 20
-158.1932725298961
 10
109.8044948727225
 20
-158.1932725298961
 10
109.9440212398751
 20
-158.1891384153138
 10
110.0435844993988
 20
-158.1805256766007
 10
110.0435844993988
 20
-158.1805256766007
 10
110.0435844993988
 20
-158.3603596609308
 10
110.0435844993988
 20
-158.3603596609308
 10
109.9505669212971
 20
-158.3520914317662
 10
109.8003607581402
 20
-158.3479573171838
 10
109.7390380585027
 20
-158.3479573171838
 10
109.7390380585027
 20
-158.3479573171838
 10
109.4341471080581
 20
-158.3479573171838
 10
109.4341471080581
 20
-158.3479573171838
 10
109.3814371471338
 20
-158.3479573171838
 10
109.2353650985592
 20
-158.3520914317662
 10
109.1296006671621
 20
-158.3603596609308
 10
109.1296006671621
 20
-158.3603596609308
 10
109.1296006671621
 20
-158.1805256766007
 10
109.1296006671621
 20
-158.1805256766007
 10
109.2291639266858
 20
-158.1891384153138
 10
109.3686902938384
 20
-158.1932725298961
 10
109.4341471080581
 20
-158.1932725298961
 10
109.4341471080581
 20
-158.1932725298961
 10
109.4785888398179
 20
-158.1932725298961
 10
109.4785888398179
 20
-158.1932725298961
 10
109.4785888398179
 20
-158.1932725298961
 10
109.4785888398179
 20
-157.9459146740552
 10
109.4785888398179
 20
-157.9459146740552
 10
109.4785888398179
 20
-157.9459146740552
 10
109.4048637964335
 20
-157.9459146740552
 10
109.4048637964335
 20
-157.9459146740552
 10
109.3431965872475
 20
-157.9459146740552
 10
109.1761094562129
 20
-157.9500487886375
 10
109.0555311142292
 20
-157.9586615273506
 10
109.0555311142292
 20
-157.9586615273506
 10
109.0555311142292
 20
-157.7808946003117
 10
109.0555311142292
 20
-157.7808946003117
 10
109.1699082843395
 20
-157.7870957721852
 10
109.328382676661
 20
-157.791574396316
 10
109.4048637964335
 20
-157.791574396316
 10
109.4048637964335
 20
-157.791574396316
 10
109.4765217825267
 20
-157.791574396316
 10
109.4765217825267
 20
-157.791574396316
 10
109.4723876679444
 20
-157.6389566663194
 10
109.4703206106533
 20
-157.605194730564
 10
109.4637749292313
 20
-157.5121771524622
 10
109.4637749292313
 20
-157.5121771524622
 10
109.6756483015741
 20
-157.5356038017619
 10
109.6756483015741
 20
-157.5356038017619
 10
109.7007974986165
 20
-157.5376708590531
 10
109.7242241479162
 20
-157.5418049736354
 10
109.7242241479162
 20
-157.5648871133866
 10
109.7242241479162
 20
-157.5969265013994
 10
109.6797824161564
 20
-157.6138074692771
 10
109.6563557668567
 20
-157.6220756984417
 10
109.6563557668567
 20
-157.6220756984417
 10
109.6563557668567
 20
-157.791574396316
 10
109.6563557668567
 20
-157.791574396316
 10
109.6563557668567
 20
-157.791574396316
 10
109.7538519690893
 20
-157.791574396316
 10
109.7538519690893
 20
-157.791574396316
 10
109.8299885793133
 20
-157.791574396316
 10
109.9884629716348
 20
-157.7870957721852
 10
110.1049071990363
 20
-157.7808946003117
 10
110.1049071990363
 20
-157.7808946003117
 10
110.1049071990363
 20
-157.9586615273506
 10
110.1049071990363
 20
-157.9586615273506
 10
109.997075710348
 20
-157.9521158459286
 10
109.8234428978914
 20
-157.9459146740552
 10
109.7538519690893
 20
-157.9459146740552
 97
        0
 97
        0
 92
        1
 93
        1
 72
     4
 94
        3
 73
     0
 74
     1
 95
       17
 96
       13
 40
0.0
 40
0.0
 40
0.0
 40
0.0
 40
1.0
 40
1.0
 40
1.0
 40
2.0
 40
2.0
 40
2.0
 40
3.0
 40
3.0
 40
3.0
 40
4.0
 40
4.0
 40
4.0
 40
4.0
 10
109.508216660991
 20
-158.7434542788905
 10
109.508216660991
 20
-158.7434542788905
 10
109.3053005369098
 20
-158.7434542788905
 10
109.3053005369098
 20
-158.7434542788905
 10
109.3328613007918
 20
-158.8027099212368
 10
109.3876383190073
 20
-158.8747124168785
 10
109.4151990828893
 20
-158.9039957285032
 10
109.4427598467713
 20
-158.8895263274651
 10
109.5571370168816
 20
-158.825792060988
 10
109.6480875376921
 20
-158.7434542788905
 10
109.6480875376921
 20
-158.7434542788905
 10
109.508216660991
 20
-158.7434542788905
 10
109.508216660991
 20
-158.7434542788905
 97
        0
 97
        0
 75
     2
 76
     1
 98
        0
  0
SPLINE
  5
11A
330
107
100
AcDbEntity
  8
_U+30EC_U+30A4_U+30E4_U+30FC 1
370
     0
100
AcDbSpline
210
0.0
220
0.0
230
1.0
 70
    11
 71
     3
 72
    77
 73
    73
 74
     0
 42
0.0000000001
 43
0.0000000001
 12
1.0
 22
0.0
 32
0.0
 13
1.0
 23
0.0
 33
0.0
 40
0.0
 40
0.0
 40
0.0
 40
0.0
 40
1.0
 40
1.0
 40
1.0
 40
2.0
 40
2.0
 40
2.0
 40
3.0
 40
3.0
 40
3.0
 40
4.0
 40
4.0
 40
4.0
 40
5.0
 40
5.0
 40
5.0
 40
6.0
 40
6.0
 40
6.0
 40
7.0
 40
7.0
 40
7.0
 40
8.0
 40
8.0
 40
8.0
 40
9.0
 40
9.0
 40
9.0
 40
10.0
 40
10.0
 40
10.0
 40
11.0
 40
11.0
 40
11.0
 40
12.0
 40
12.0
 40
12.0
 40
13.0
 40
13.0
 40
13.0
 40
14.0
 40
14.0
 40
14.0
 40
15.0
 40
15.0
 40
15.0
 40
16.0
 40
16.0
 40
16.0
 40
17.0
 40
17.0
 40
17.0
 40
18.0
 40
18.0
 40
18.0
 40
19.0
 40
19.0
 40
19.0
 40
20.0
 40
20.0
 40
20.0
 40
21.0
 40
21.0
 40
21.0
 40
22.0
 40
22.0
 40
22.0
 40
23.0
 40
23.0
 40
23.0
 40
24.0
 40
24.0
 40
24.0
 40
24.0
 10
111.9993652063752
 20
-159.3739067526913
 30
0.0
 10
111.9528564173243
 20
-159.3990559497336
 30
0.0
 10
111.8281439607582
 20
-159.411802803029
 30
0.0
 10
111.7495957836945
 20
-159.411802803029
 30
0.0
 10
111.7371934399476
 20
-159.411802803029
 30
0.0
 10
111.7116997333568
 20
-159.411802803029
 30
0.0
 10
111.6779377976014
 20
-159.4076686884467
 30
0.0
 10
111.6779377976014
 20
-159.4076686884467
 30
0.0
 10
111.5804415953688
 20
-159.1813259150658
 30
0.0
 10
111.5804415953688
 20
-159.1813259150658
 30
0.0
 10
111.6100694165419
 20
-159.1875270869392
 30
0.0
 10
111.6672580015971
 20
-159.1961398256524
 30
0.0
 10
111.7837022289985
 20
-159.1961398256524
 30
0.0
 10
111.8619058965137
 20
-159.1961398256524
 30
0.0
 10
111.8639729538048
 20
-159.1537651511838
 30
0.0
 10
111.8639729538048
 20
-159.0965765661286
 30
0.0
 10
111.8639729538048
 20
-159.0965765661286
 30
0.0
 10
111.8639729538048
 20
-158.7475883934728
 30
0.0
 10
111.8639729538048
 20
-158.7475883934728
 30
0.0
 10
111.8639729538048
 20
-158.7475883934728
 30
0.0
 10
111.404741725621
 20
-158.7475883934728
 30
0.0
 10
111.404741725621
 20
-158.7475883934728
 30
0.0
 10
111.4071532924607
 20
-158.8850477033343
 30
0.0
 10
111.4092203497519
 20
-159.0838297128332
 30
0.0
 10
111.4154215216253
 20
-159.2171549081124
 30
0.0
 10
111.4174885789165
 20
-159.2447156719944
 30
0.0
 10
111.4174885789165
 20
-159.2891574037541
 30
0.0
 10
111.4302354322119
 20
-159.3504801033916
 30
0.0
 10
111.4302354322119
 20
-159.3504801033916
 30
0.0
 10
111.1890787482444
 20
-159.3504801033916
 30
0.0
 10
111.1890787482444
 20
-159.3504801033916
 30
0.0
 10
111.2145724548352
 20
-159.2257676468255
 30
0.0
 10
111.2145724548352
 20
-158.8850477033343
 30
0.0
 10
111.2145724548352
 20
-158.7475883934728
 30
0.0
 10
111.2145724548352
 20
-158.7475883934728
 30
0.0
 10
110.7722221945292
 20
-158.7475883934728
 30
0.0
 10
110.7722221945292
 20
-158.7475883934728
 30
0.0
 10
110.749140054778
 20
-158.9549831416849
 30
0.0
 10
110.6836832405583
 20
-159.2237005895344
 30
0.0
 10
110.486623778802
 20
-159.4076686884467
 30
0.0
 10
110.486623778802
 20
-159.4076686884467
 30
0.0
 10
110.2985215653073
 20
-159.2850232891718
 30
0.0
 10
110.2985215653073
 20
-159.2850232891718
 30
0.0
 10
110.5524251025702
 20
-159.0648816876644
 30
0.0
 10
110.5841199810345
 20
-158.7327744828863
 30
0.0
 10
110.5841199810345
 20
-158.4006672781082
 30
0.0
 10
110.5841199810345
 20
-158.4006672781082
 30
0.0
 10
110.5841199810345
 20
-157.9648626992241
 30
0.0
 10
110.5841199810345
 20
-157.9648626992241
 30
0.0
 10
110.5841199810345
 20
-157.9290337061775
 30
0.0
 10
110.5820529237434
 20
-157.6961452513746
 30
0.0
 10
110.5734401850303
 20
-157.5945149345597
 30
0.0
 10
110.7133110617314
 20
-157.605194730564
 30
0.0
 10
110.9544677456989
 20
-157.605194730564
 30
0.0
 10
111.0981282274338
 20
-157.605194730564
 30
0.0
 10
111.0981282274338
 20
-157.605194730564
 30
0.0
 10
111.5573594556176
 20
-157.605194730564
 30
0.0
 10
111.5573594556176
 20
-157.605194730564
 30
0.0
 10
111.5721733662042
 20
-157.605194730564
 30
0.0
 10
111.92116153886
 20
-157.605194730564
 30
0.0
 10
112.0796359311815
 20
-157.5945149345597
 30
0.0
 10
112.0775688738903
 20
-157.6475694050326
 30
0.0
 10
112.0713677020169
 20
-157.8084553641937
 30
0.0
 10
112.0713677020169
 20
-157.8590982678269
 30
0.0
 10
112.0713677020169
 20
-157.8590982678269
 30
0.0
 10
112.0713677020169
 20
-158.4661240923279
 30
0.0
 10
112.0713677020169
 20
-158.4661240923279
 30
0.0
 10
112.0713677020169
 20
-158.4854166270453
 30
0.0
 10
112.0817029884726
 20
-159.0566134584998
 30
0.0
 10
112.0817029884726
 20
-159.1685790617704
 30
0.0
 10
112.0817029884726
 20
-159.2257676468255
 30
0.0
 10
112.0817029884726
 20
-159.3273979636404
 30
0.0
 10
111.9993652063752
 20
-159.3739067526913
 30
0.0
  0
POLYLINE
  5
11B
330
107
100
AcDbEntity
  8
_U+30EC_U+30A4_U+30E4_U+30FC 1
370
     0
100
AcDb2dPolyline
 66
     1
 10
0.0
 20
0.0
 30
0.0
  0
VERTEX
  5
11C
330
11B
100
AcDbEntity
  8
_U+30EC_U+30A4_U+30E4_U+30FC 1
370
     0
100
AcDbVertex
100
AcDb2dVertex
 10
111.2145724548352
 20
-157.7870957721852
 30
0.0
  0
VERTEX
  5
11D
330
11B
100
AcDbEntity
  8
_U+30EC_U+30A4_U+30E4_U+30FC 1
370
     0
100
AcDbVertex
100
AcDb2dVertex
 10
110.77670081866
 20
-157.7870957721852
 30
0.0
  0
VERTEX
  5
11E
330
11B
100
AcDbEntity
  8
_U+30EC_U+30A4_U+30E4_U+30FC 1
370
     0
100
AcDbVertex
100
AcDb2dVertex
 10
110.77670081866
 20
-158.0916422130813
 30
0.0
  0
VERTEX
  5
11F
330
11B
100
AcDbEntity
  8
_U+30EC_U+30A4_U+30E4_U+30FC 1
370
     0
100
AcDbVertex
100
AcDb2dVertex
 10
111.2145724548352
 20
-158.0916422130813
 30
0.0
  0
VERTEX
  5
120
330
11B
100
AcDbEntity
  8
_U+30EC_U+30A4_U+30E4_U+30FC 1
370
     0
100
AcDbVertex
100
AcDb2dVertex
 10
111.2145724548352
 20
-157.7870957721852
 30
0.0
  0
SEQEND
  5
121
330
11B
100
AcDbEntity
  8
_U+30EC_U+30A4_U+30E4_U+30FC 1
370
     0
  0
POLYLINE
  5
122
330
107
100
AcDbEntity
  8
_U+30EC_U+30A4_U+30E4_U+30FC 1
370
     0
100
AcDb2dPolyline
 66
     1
 10
0.0
 20
0.0
 30
0.0
  0
VERTEX
  5
123
330
122
100
AcDbEntity
  8
_U+30EC_U+30A4_U+30E4_U+30FC 1
370
     0
100
AcDbVertex
100
AcDb2dVertex
 10
111.2145724548352
 20
-158.2590738536644
 30
0.0
  0
VERTEX
  5
124
330
122
100
AcDbEntity
  8
_U+30EC_U+30A4_U+30E4_U+30FC 1
370
     0
100
AcDbVertex
100
AcDb2dVertex
 10
110.77670081866
 20
-158.2590738536644
 30
0.0
  0
VERTEX
  5
125
330
122
100
AcDbEntity
  8
_U+30EC_U+30A4_U+30E4_U+30FC 1
370
     0
100
AcDbVertex
100
AcDb2dVertex
 10
110.77670081866
 20
-158.5677544091428
 30
0.0
  0
VERTEX
  5
126
330
122
100
AcDbEntity
  8
_U+30EC_U+30A4_U+30E4_U+30FC 1
370
     0
100
AcDbVertex
100
AcDb2dVertex
 10
111.2145724548352
 20
-158.5677544091428
 30
0.0
  0
VERTEX
  5
127
330
122
100
AcDbEntity
  8
_U+30EC_U+30A4_U+30E4_U+30FC 1
370
     0
100
AcDbVertex
100
AcDb2dVertex
 10
111.2145724548352
 20
-158.2590738536644
 30
0.0
  0
SEQEND
  5
128
330
122
100
AcDbEntity
  8
_U+30EC_U+30A4_U+30E4_U+30FC 1
370
     0
  0
POLYLINE
  5
129
330
107
100
AcDbEntity
  8
_U+30EC_U+30A4_U+30E4_U+30FC 1
370
     0
100
AcDb2dPolyline
 66
     1
 10
0.0
 20
0.0
 30
0.0
  0
VERTEX
  5
12A
330
129
100
AcDbEntity
  8
_U+30EC_U+30A4_U+30E4_U+30FC 1
370
     0
100
AcDbVertex
100
AcDb2dVertex
 10
111.8639729538048
 20
-157.7870957721852
 30
0.0
  0
VERTEX
  5
12B
330
129
100
AcDbEntity
  8
_U+30EC_U+30A4_U+30E4_U+30FC 1
370
     0
100
AcDbVertex
100
AcDb2dVertex
 10
111.404741725621
 20
-157.7870957721852
 30
0.0
  0
VERTEX
  5
12C
330
129
100
AcDbEntity
  8
_U+30EC_U+30A4_U+30E4_U+30FC 1
370
     0
100
AcDbVertex
100
AcDb2dVertex
 10
111.404741725621
 20
-158.0916422130813
 30
0.0
  0
VERTEX
  5
12D
330
129
100
AcDbEntity
  8
_U+30EC_U+30A4_U+30E4_U+30FC 1
370
     0
100
AcDbVertex
100
AcDb2dVertex
 10
111.8639729538048
 20
-158.0916422130813
 30
0.0
  0
VERTEX
  5
12E
330
129
100
AcDbEntity
  8
_U+30EC_U+30A4_U+30E4_U+30FC 1
370
     0
100
AcDbVertex
100
AcDb2dVertex
 10
111.8639729538048
 20
-157.7870957721852
 30
0.0
  0
SEQEND
  5
12F
330
129
100
AcDbEntity
  8
_U+30EC_U+30A4_U+30E4_U+30FC 1
370
     0
  0
POLYLINE
  5
130
330
107
100
AcDbEntity
  8
_U+30EC_U+30A4_U+30E4_U+30FC 1
370
     0
100
AcDb2dPolyline
 66
     1
 10
0.0
 20
0.0
 30
0.0
  0
VERTEX
  5
131
330
130
100
AcDbEntity
  8
_U+30EC_U+30A4_U+30E4_U+30FC 1
370
     0
100
AcDbVertex
100
AcDb2dVertex
 10
111.8639729538048
 20
-158.2590738536644
 30
0.0
  0
VERTEX
  5
132
330
130
100
AcDbEntity
  8
_U+30EC_U+30A4_U+30E4_U+30FC 1
370
     0
100
AcDbVertex
100
AcDb2dVertex
 10
111.404741725621
 20
-158.2590738536644
 30
0.0
  0
VERTEX
  5
133
330
130
100
AcDbEntity
  8
_U+30EC_U+30A4_U+30E4_U+30FC 1
370
     0
100
AcDbVertex
100
AcDb2dVertex
 10
111.404741725621
 20
-158.5677544091428
 30
0.0
  0
VERTEX
  5
134
330
130
100
AcDbEntity
  8
_U+30EC_U+30A4_U+30E4_U+30FC 1
370
     0
100
AcDbVertex
100
AcDb2dVertex
 10
111.8639729538048
 20
-158.5677544091428
 30
0.0
  0
VERTEX
  5
135
330
130
100
AcDbEntity
  8
_U+30EC_U+30A4_U+30E4_U+30FC 1
370
     0
100
AcDbVertex
100
AcDb2dVertex
 10
111.8639729538048
 20
-158.2590738536644
 30
0.0
  0
SEQEND
  5
136
330
130
100
AcDbEntity
  8
_U+30EC_U+30A4_U+30E4_U+30FC 1
370
     0
  0
HATCH
  5
137
330
107
100
AcDbEntity
  8
_U+30EC_U+30A4_U+30E4_U+30FC 1
 62
     7
420
 16777215
100
AcDbHatch
 10
0.0
 20
0.0
 30
0.0
210
0.0
220
0.0
230
1.0
  2
SOLID
 70
     1
 71
     0
 91
        5
 92
        1
 93
        1
 72
     4
 94
        3
 73
     0
 74
     1
 95
       77
 96
       73
 40
0.0
 40
0.0
 40
0.0
 40
0.0
 40
1.0
 40
1.0
 40
1.0
 40
2.0
 40
2.0
 40
2.0
 40
3.0
 40
3.0
 40
3.0
 40
4.0
 40
4.0
 40
4.0
 40
5.0
 40
5.0
 40
5.0
 40
6.0
 40
6.0
 40
6.0
 40
7.0
 40
7.0
 40
7.0
 40
8.0
 40
8.0
 40
8.0
 40
9.0
 40
9.0
 40
9.0
 40
10.0
 40
10.0
 40
10.0
 40
11.0
 40
11.0
 40
11.0
 40
12.0
 40
12.0
 40
12.0
 40
13.0
 40
13.0
 40
13.0
 40
14.0
 40
14.0
 40
14.0
 40
15.0
 40
15.0
 40
15.0
 40
16.0
 40
16.0
 40
16.0
 40
17.0
 40
17.0
 40
17.0
 40
18.0
 40
18.0
 40
18.0
 40
19.0
 40
19.0
 40
19.0
 40
20.0
 40
20.0
 40
20.0
 40
21.0
 40
21.0
 40
21.0
 40
22.0
 40
22.0
 40
22.0
 40
23.0
 40
23.0
 40
23.0
 40
24.0
 40
24.0
 40
24.0
 40
24.0
 10
111.9993652063752
 20
-159.3739067526913
 10
111.9528564173243
 20
-159.3990559497336
 10
111.8281439607582
 20
-159.411802803029
 10
111.7495957836945
 20
-159.411802803029
 10
111.7371934399476
 20
-159.411802803029
 10
111.7116997333568
 20
-159.411802803029
 10
111.6779377976014
 20
-159.4076686884467
 10
111.6779377976014
 20
-159.4076686884467
 10
111.5804415953688
 20
-159.1813259150658
 10
111.5804415953688
 20
-159.1813259150658
 10
111.6100694165419
 20
-159.1875270869392
 10
111.6672580015971
 20
-159.1961398256524
 10
111.7837022289985
 20
-159.1961398256524
 10
111.8619058965137
 20
-159.1961398256524
 10
111.8639729538048
 20
-159.1537651511838
 10
111.8639729538048
 20
-159.0965765661286
 10
111.8639729538048
 20
-159.0965765661286
 10
111.8639729538048
 20
-158.7475883934728
 10
111.8639729538048
 20
-158.7475883934728
 10
111.8639729538048
 20
-158.7475883934728
 10
111.404741725621
 20
-158.7475883934728
 10
111.404741725621
 20
-158.7475883934728
 10
111.4071532924607
 20
-158.8850477033343
 10
111.4092203497519
 20
-159.0838297128332
 10
111.4154215216253
 20
-159.2171549081124
 10
111.4174885789165
 20
-159.2447156719944
 10
111.4174885789165
 20
-159.2891574037541
 10
111.4302354322119
 20
-159.3504801033916
 10
111.4302354322119
 20
-159.3504801033916
 10
111.1890787482444
 20
-159.3504801033916
 10
111.1890787482444
 20
-159.3504801033916
 10
111.2145724548352
 20
-159.2257676468255
 10
111.2145724548352
 20
-158.8850477033343
 10
111.2145724548352
 20
-158.7475883934728
 10
111.2145724548352
 20
-158.7475883934728
 10
110.7722221945292
 20
-158.7475883934728
 10
110.7722221945292
 20
-158.7475883934728
 10
110.749140054778
 20
-158.9549831416849
 10
110.6836832405583
 20
-159.2237005895344
 10
110.486623778802
 20
-159.4076686884467
 10
110.486623778802
 20
-159.4076686884467
 10
110.2985215653073
 20
-159.2850232891718
 10
110.2985215653073
 20
-159.2850232891718
 10
110.5524251025702
 20
-159.0648816876644
 10
110.5841199810345
 20
-158.7327744828863
 10
110.5841199810345
 20
-158.4006672781082
 10
110.5841199810345
 20
-158.4006672781082
 10
110.5841199810345
 20
-157.9648626992241
 10
110.5841199810345
 20
-157.9648626992241
 10
110.5841199810345
 20
-157.9290337061775
 10
110.5820529237434
 20
-157.6961452513746
 10
110.5734401850303
 20
-157.5945149345597
 10
110.7133110617314
 20
-157.605194730564
 10
110.9544677456989
 20
-157.605194730564
 10
111.0981282274338
 20
-157.605194730564
 10
111.0981282274338
 20
-157.605194730564
 10
111.5573594556176
 20
-157.605194730564
 10
111.5573594556176
 20
-157.605194730564
 10
111.5721733662042
 20
-157.605194730564
 10
111.92116153886
 20
-157.605194730564
 10
112.0796359311815
 20
-157.5945149345597
 10
112.0775688738903
 20
-157.6475694050326
 10
112.0713677020169
 20
-157.8084553641937
 10
112.0713677020169
 20
-157.8590982678269
 10
112.0713677020169
 20
-157.8590982678269
 10
112.0713677020169
 20
-158.4661240923279
 10
112.0713677020169
 20
-158.4661240923279
 10
112.0713677020169
 20
-158.4854166270453
 10
112.0817029884726
 20
-159.0566134584998
 10
112.0817029884726
 20
-159.1685790617704
 10
112.0817029884726
 20
-159.2257676468255
 10
112.0817029884726
 20
-159.3273979636404
 10
111.9993652063752
 20
-159.3739067526913
 97
        0
 97
        0
 92
        1
 93
        4
 72
     1
 10
111.2145724548352
 20
-157.7870957721852
 11
110.77670081866
 21
-157.7870957721852
 72
     1
 10
110.77670081866
 20
-157.7870957721852
 11
110.77670081866
 21
-158.0916422130813
 72
     1
 10
110.77670081866
 20
-158.0916422130813
 11
111.2145724548352
 21
-158.0916422130813
 72
     1
 10
111.2145724548352
 20
-158.0916422130813
 11
111.2145724548352
 21
-157.7870957721852
 97
        0
 92
        1
 93
        4
 72
     1
 10
111.2145724548352
 20
-158.2590738536644
 11
110.77670081866
 21
-158.2590738536644
 72
     1
 10
110.77670081866
 20
-158.2590738536644
 11
110.77670081866
 21
-158.5677544091428
 72
     1
 10
110.77670081866
 20
-158.5677544091428
 11
111.2145724548352
 21
-158.5677544091428
 72
     1
 10
111.2145724548352
 20
-158.5677544091428
 11
111.2145724548352
 21
-158.2590738536644
 97
        0
 92
        1
 93
        4
 72
     1
 10
111.8639729538048
 20
-157.7870957721852
 11
111.404741725621
 21
-157.7870957721852
 72
     1
 10
111.404741725621
 20
-157.7870957721852
 11
111.404741725621
 21
-158.0916422130813
 72
     1
 10
111.404741725621
 20
-158.0916422130813
 11
111.8639729538048
 21
-158.0916422130813
 72
     1
 10
111.8639729538048
 20
-158.0916422130813
 11
111.8639729538048
 21
-157.7870957721852
 97
        0
 92
        1
 93
        4
 72
     1
 10
111.8639729538048
 20
-158.2590738536644
 11
111.404741725621
 21
-158.2590738536644
 72
     1
 10
111.404741725621
 20
-158.2590738536644
 11
111.404741725621
 21
-158.5677544091428
 72
     1
 10
111.404741725621
 20
-158.5677544091428
 11
111.8639729538048
 21
-158.5677544091428
 72
     1
 10
111.8639729538048
 20
-158.5677544091428
 11
111.8639729538048
 21
-158.2590738536644
 97
        0
 75
     2
 76
     1
 98
        0
  0
SPLINE
  5
138
330
107
100
AcDbEntity
  8
_U+30EC_U+30A4_U+30E4_U+30FC 1
370
     0
100
AcDbSpline
210
0.0
220
0.0
230
1.0
 70
    11
 71
     3
 72
    44
 73
    40
 74
     0
 42
0.0000000001
 43
0.0000000001
 12
1.0
 22
0.0
 32
0.0
 13
1.0
 23
0.0
 33
0.0
 40
0.0
 40
0.0
 40
0.0
 40
0.0
 40
1.0
 40
1.0
 40
1.0
 40
2.0
 40
2.0
 40
2.0
 40
3.0
 40
3.0
 40
3.0
 40
4.0
 40
4.0
 40
4.0
 40
5.0
 40
5.0
 40
5.0
 40
6.0
 40
6.0
 40
6.0
 40
7.0
 40
7.0
 40
7.0
 40
8.0
 40
8.0
 40
8.0
 40
9.0
 40
9.0
 40
9.0
 40
10.0
 40
10.0
 40
10.0
 40
11.0
 40
11.0
 40
11.0
 40
12.0
 40
12.0
 40
12.0
 40
13.0
 40
13.0
 40
13.0
 40
13.0
 10
107.5479573298838
 20
-160.6637505023688
 30
0.0
 10
107.4359917266132
 20
-161.0316867001935
 30
0.0
 10
107.3853488229801
 20
-161.1905056020635
 30
0.0
 10
107.1886338707723
 20
-161.4399305151956
 30
0.0
 10
107.0043212623114
 20
-161.6707519127073
 30
0.0
 10
106.7676432024748
 20
-161.8567870689108
 30
0.0
 10
106.488245958621
 20
-161.9498046470126
 30
0.0
 10
106.488245958621
 20
-161.9498046470126
 30
0.0
 10
106.2956651209955
 20
-161.7699706626825
 30
0.0
 10
106.2956651209955
 20
-161.7699706626825
 30
0.0
 10
106.9367973908005
 20
-161.6176974422345
 30
0.0
 10
107.2668375382875
 20
-161.0613145213666
 30
0.0
 10
107.3302272952161
 20
-160.6213758279002
 30
0.0
 10
107.3302272952161
 20
-160.6213758279002
 30
0.0
 10
106.564382568845
 20
-160.6213758279002
 30
0.0
 10
106.564382568845
 20
-160.6213758279002
 30
0.0
 10
106.4713649907433
 20
-160.6213758279002
 30
0.0
 10
106.2873968918309
 20
-160.6255099424825
 30
0.0
 10
106.1306450472521
 20
-160.6444579676514
 30
0.0
 10
106.1306450472521
 20
-160.6444579676514
 30
0.0
 10
106.1306450472521
 20
-160.4246608756925
 30
0.0
 10
106.1306450472521
 20
-160.4246608756925
 30
0.0
 10
106.2174614534804
 20
-160.4456759581525
 30
0.0
 10
106.4692979334521
 20
-160.4456759581525
 30
0.0
 10
106.5685166834273
 20
-160.4456759581525
 30
0.0
 10
106.5685166834273
 20
-160.4456759581525
 30
0.0
 10
107.0001871477291
 20
-160.4456759581525
 30
0.0
 10
107.0001871477291
 20
-160.4456759581525
 30
0.0
 10
107.0425618221977
 20
-160.4456759581525
 30
0.0
 10
107.2771728247432
 20
-160.4436089008613
 30
0.0
 10
107.3154133846295
 20
-160.4374077289879
 30
0.0
 10
107.3577880590981
 20
-160.4308620475659
 30
0.0
 10
107.3598551163892
 20
-160.4287949902748
 30
0.0
 10
107.4211778160267
 20
-160.3884873730973
 30
0.0
 10
107.4211778160267
 20
-160.3884873730973
 30
0.0
 10
107.6092800295213
 20
-160.543172160385
 30
0.0
 10
107.6092800295213
 20
-160.543172160385
 30
0.0
 10
107.5799967178967
 20
-160.5727999815582
 30
0.0
 10
107.5651828073101
 20
-160.6044948600225
 30
0.0
 10
107.5479573298838
 20
-160.6637505023688
 30
0.0
  0
SPLINE
  5
139
330
107
100
AcDbEntity
  8
_U+30EC_U+30A4_U+30E4_U+30FC 1
370
     0
100
AcDbSpline
210
0.0
220
0.0
230
1.0
 70
    11
 71
     3
 72
    17
 73
    13
 74
     0
 42
0.0000000001
 43
0.0000000001
 12
1.0
 22
0.0
 32
0.0
 13
1.0
 23
0.0
 33
0.0
 40
0.0
 40
0.0
 40
0.0
 40
0.0
 40
1.0
 40
1.0
 40
1.0
 40
2.0
 40
2.0
 40
2.0
 40
3.0
 40
3.0
 40
3.0
 40
4.0
 40
4.0
 40
4.0
 40
4.0
 10
107.757419135387
 20
-160.4646239833214
 30
0.0
 10
107.6306396215299
 20
-160.4646239833214
 30
0.0
 10
107.529009304715
 20
-160.363338176055
 30
0.0
 10
107.529009304715
 20
-160.2362141526493
 30
0.0
 10
107.529009304715
 20
-160.1094346387921
 30
0.0
 10
107.6306396215299
 20
-160.0057372646861
 30
0.0
 10
107.757419135387
 20
-160.0057372646861
 30
0.0
 10
107.8845431587928
 20
-160.0057372646861
 30
0.0
 10
107.9882405328988
 20
-160.1094346387921
 30
0.0
 10
107.9882405328988
 20
-160.2362141526493
 30
0.0
 10
107.9882405328988
 20
-160.363338176055
 30
0.0
 10
107.8845431587928
 20
-160.4646239833214
 30
0.0
 10
107.757419135387
 20
-160.4646239833214
 30
0.0
  0
SPLINE
  5
13A
330
107
100
AcDbEntity
  8
_U+30EC_U+30A4_U+30E4_U+30FC 1
370
     0
100
AcDbSpline
210
0.0
220
0.0
230
1.0
 70
    11
 71
     3
 72
    17
 73
    13
 74
     0
 42
0.0000000001
 43
0.0000000001
 12
1.0
 22
0.0
 32
0.0
 13
1.0
 23
0.0
 33
0.0
 40
0.0
 40
0.0
 40
0.0
 40
0.0
 40
1.0
 40
1.0
 40
1.0
 40
2.0
 40
2.0
 40
2.0
 40
3.0
 40
3.0
 40
3.0
 40
4.0
 40
4.0
 40
4.0
 40
4.0
 10
107.7553520780959
 20
-160.1345838358344
 30
0.0
 10
107.7005750598804
 20
-160.1345838358344
 30
0.0
 10
107.6561333281207
 20
-160.1790255675942
 30
0.0
 10
107.6561333281207
 20
-160.2341470953581
 30
0.0
 10
107.6561333281207
 20
-160.2913356804133
 30
0.0
 10
107.7005750598804
 20
-160.3399115267553
 30
0.0
 10
107.7594861926782
 20
-160.3399115267553
 30
0.0
 10
107.8187418350245
 20
-160.3399115267553
 30
0.0
 10
107.8590494522019
 20
-160.2892686231221
 30
0.0
 10
107.8590494522019
 20
-160.2362141526493
 30
0.0
 10
107.8590494522019
 20
-160.1790255675942
 30
0.0
 10
107.812540663151
 20
-160.1345838358344
 30
0.0
 10
107.7553520780959
 20
-160.1345838358344
 30
0.0
  0
HATCH
  5
13B
330
107
100
AcDbEntity
  8
_U+30EC_U+30A4_U+30E4_U+30FC 1
 62
     7
420
 16777215
100
AcDbHatch
 10
0.0
 20
0.0
 30
0.0
210
0.0
220
0.0
230
1.0
  2
SOLID
 70
     1
 71
     0
 91
        3
 92
        1
 93
        1
 72
     4
 94
        3
 73
     0
 74
     1
 95
       44
 96
       40
 40
0.0
 40
0.0
 40
0.0
 40
0.0
 40
1.0
 40
1.0
 40
1.0
 40
2.0
 40
2.0
 40
2.0
 40
3.0
 40
3.0
 40
3.0
 40
4.0
 40
4.0
 40
4.0
 40
5.0
 40
5.0
 40
5.0
 40
6.0
 40
6.0
 40
6.0
 40
7.0
 40
7.0
 40
7.0
 40
8.0
 40
8.0
 40
8.0
 40
9.0
 40
9.0
 40
9.0
 40
10.0
 40
10.0
 40
10.0
 40
11.0
 40
11.0
 40
11.0
 40
12.0
 40
12.0
 40
12.0
 40
13.0
 40
13.0
 40
13.0
 40
13.0
 10
107.5479573298838
 20
-160.6637505023688
 10
107.4359917266132
 20
-161.0316867001935
 10
107.3853488229801
 20
-161.1905056020635
 10
107.1886338707723
 20
-161.4399305151956
 10
107.0043212623114
 20
-161.6707519127073
 10
106.7676432024748
 20
-161.8567870689108
 10
106.488245958621
 20
-161.9498046470126
 10
106.488245958621
 20
-161.9498046470126
 10
106.2956651209955
 20
-161.7699706626825
 10
106.2956651209955
 20
-161.7699706626825
 10
106.9367973908005
 20
-161.6176974422345
 10
107.2668375382875
 20
-161.0613145213666
 10
107.3302272952161
 20
-160.6213758279002
 10
107.3302272952161
 20
-160.6213758279002
 10
106.564382568845
 20
-160.6213758279002
 10
106.564382568845
 20
-160.6213758279002
 10
106.4713649907433
 20
-160.6213758279002
 10
106.2873968918309
 20
-160.6255099424825
 10
106.1306450472521
 20
-160.6444579676514
 10
106.1306450472521
 20
-160.6444579676514
 10
106.1306450472521
 20
-160.4246608756925
 10
106.1306450472521
 20
-160.4246608756925
 10
106.2174614534804
 20
-160.4456759581525
 10
106.4692979334521
 20
-160.4456759581525
 10
106.5685166834273
 20
-160.4456759581525
 10
106.5685166834273
 20
-160.4456759581525
 10
107.0001871477291
 20
-160.4456759581525
 10
107.0001871477291
 20
-160.4456759581525
 10
107.0425618221977
 20
-160.4456759581525
 10
107.2771728247432
 20
-160.4436089008613
 10
107.3154133846295
 20
-160.4374077289879
 10
107.3577880590981
 20
-160.4308620475659
 10
107.3598551163892
 20
-160.4287949902748
 10
107.4211778160267
 20
-160.3884873730973
 10
107.4211778160267
 20
-160.3884873730973
 10
107.6092800295213
 20
-160.543172160385
 10
107.6092800295213
 20
-160.543172160385
 10
107.5799967178967
 20
-160.5727999815582
 10
107.5651828073101
 20
-160.6044948600225
 10
107.5479573298838
 20
-160.6637505023688
 97
        0
 97
        0
 92
        1
 93
        1
 72
     4
 94
        3
 73
     0
 74
     1
 95
       17
 96
       13
 40
0.0
 40
0.0
 40
0.0
 40
0.0
 40
1.0
 40
1.0
 40
1.0
 40
2.0
 40
2.0
 40
2.0
 40
3.0
 40
3.0
 40
3.0
 40
4.0
 40
4.0
 40
4.0
 40
4.0
 10
107.757419135387
 20
-160.4646239833214
 10
107.6306396215299
 20
-160.4646239833214
 10
107.529009304715
 20
-160.363338176055
 10
107.529009304715
 20
-160.2362141526493
 10
107.529009304715
 20
-160.1094346387921
 10
107.6306396215299
 20
-160.0057372646861
 10
107.757419135387
 20
-160.0057372646861
 10
107.8845431587928
 20
-160.0057372646861
 10
107.9882405328988
 20
-160.1094346387921
 10
107.9882405328988
 20
-160.2362141526493
 10
107.9882405328988
 20
-160.363338176055
 10
107.8845431587928
 20
-160.4646239833214
 10
107.757419135387
 20
-160.4646239833214
 97
        0
 97
        0
 92
        1
 93
        1
 72
     4
 94
        3
 73
     0
 74
     1
 95
       17
 96
       13
 40
0.0
 40
0.0
 40
0.0
 40
0.0
 40
1.0
 40
1.0
 40
1.0
 40
2.0
 40
2.0
 40
2.0
 40
3.0
 40
3.0
 40
3.0
 40
4.0
 40
4.0
 40
4.0
 40
4.0
 10
107.7553520780959
 20
-160.1345838358344
 10
107.7005750598804
 20
-160.1345838358344
 10
107.6561333281207
 20
-160.1790255675942
 10
107.6561333281207
 20
-160.2341470953581
 10
107.6561333281207
 20
-160.2913356804133
 10
107.7005750598804
 20
-160.3399115267553
 10
107.7594861926782
 20
-160.3399115267553
 10
107.8187418350245
 20
-160.3399115267553
 10
107.8590494522019
 20
-160.2892686231221
 10
107.8590494522019
 20
-160.2362141526493
 10
107.8590494522019
 20
-160.1790255675942
 10
107.812540663151
 20
-160.1345838358344
 10
107.7553520780959
 20
-160.1345838358344
 97
        0
 97
        0
 75
     2
 76
     1
 98
        0
  0
SPLINE
  5
13C
330
107
100
AcDbEntity
  8
_U+30EC_U+30A4_U+30E4_U+30FC 1
370
     0
100
AcDbSpline
210
0.0
220
0.0
230
1.0
 70
    11
 71
     3
 72
    50
 73
    46
 74
     0
 42
0.0000000001
 43
0.0000000001
 12
1.0
 22
0.0
 32
0.0
 13
1.0
 23
0.0
 33
0.0
 40
0.0
 40
0.0
 40
0.0
 40
0.0
 40
1.0
 40
1.0
 40
1.0
 40
2.0
 40
2.0
 40
2.0
 40
3.0
 40
3.0
 40
3.0
 40
4.0
 40
4.0
 40
4.0
 40
5.0
 40
5.0
 40
5.0
 40
6.0
 40
6.0
 40
6.0
 40
7.0
 40
7.0
 40
7.0
 40
8.0
 40
8.0
 40
8.0
 40
9.0
 40
9.0
 40
9.0
 40
10.0
 40
10.0
 40
10.0
 40
11.0
 40
11.0
 40
11.0
 40
12.0
 40
12.0
 40
12.0
 40
13.0
 40
13.0
 40
13.0
 40
14.0
 40
14.0
 40
14.0
 40
15.0
 40
15.0
 40
15.0
 40
15.0
 10
109.5526583927507
 20
-160.9724310578472
 30
0.0
 10
109.474110215687
 20
-161.1501979848861
 30
0.0
 10
109.3387179631167
 20
-161.3575927330981
 30
0.0
 10
109.2012586532553
 20
-161.4971191002507
 30
0.0
 10
109.0321044649295
 20
-161.6683403458676
 30
0.0
 10
108.8691514484772
 20
-161.7572238093871
 30
0.0
 10
108.5497910969945
 20
-161.8991617433794
 30
0.0
 10
108.5497910969945
 20
-161.8991617433794
 30
0.0
 10
108.3806369086687
 20
-161.7107150203362
 30
0.0
 10
108.3806369086687
 20
-161.7107150203362
 30
0.0
 10
108.5666720648722
 20
-161.6876328805851
 30
0.0
 10
108.7378933104891
 20
-161.6008164743567
 30
0.0
 10
108.8905110404857
 20
-161.4950520429596
 30
0.0
 10
109.1526828069132
 20
-161.3131510013384
 30
0.0
 10
109.3431965872475
 20
-160.9999918217292
 30
0.0
 10
109.3917724335896
 20
-160.818090780108
 30
0.0
 10
109.3917724335896
 20
-160.818090780108
 30
0.0
 10
108.7210123426114
 20
-160.818090780108
 30
0.0
 10
108.7210123426114
 20
-160.818090780108
 30
0.0
 10
108.5625379502899
 20
-160.818090780108
 30
0.0
 10
108.2703938531407
 20
-160.8263590092726
 30
0.0
 10
108.1181206326927
 20
-160.8435844866988
 30
0.0
 10
108.1181206326927
 20
-160.8435844866988
 30
0.0
 10
108.1181206326927
 20
-160.6148301464783
 30
0.0
 10
108.1181206326927
 20
-160.6148301464783
 30
0.0
 10
108.1522270779967
 20
-160.6213758279002
 30
0.0
 10
108.177376275039
 20
-160.6275769997737
 30
0.0
 10
108.2304307455118
 20
-160.631711114356
 30
0.0
 10
108.3317165527782
 20
-160.6382567957779
 30
0.0
 10
108.5287760145345
 20
-160.6403238530691
 30
0.0
 10
108.6131808539231
 20
-160.6403238530691
 30
0.0
 10
108.6131808539231
 20
-160.6403238530691
 30
0.0
 10
109.1189208711578
 20
-160.6403238530691
 30
0.0
 10
109.1189208711578
 20
-160.6403238530691
 30
0.0
 10
109.1864447426687
 20
-160.6403238530691
 30
0.0
 10
109.3325167912433
 20
-160.6361897384868
 30
0.0
 10
109.3938394908807
 20
-160.6296440570648
 30
0.0
 10
109.4658419865224
 20
-160.6213758279002
 30
0.0
 10
109.4934027504044
 20
-160.6065619173137
 30
0.0
 10
109.5271646861599
 20
-160.5831352680139
 30
0.0
 10
109.5271646861599
 20
-160.5831352680139
 30
0.0
 10
109.6921847599033
 20
-160.7502223990486
 30
0.0
 10
109.6921847599033
 20
-160.7502223990486
 30
0.0
 10
109.6222493215528
 20
-160.818090780108
 30
0.0
 10
109.5757405325019
 20
-160.921788154214
 30
0.0
 10
109.5526583927507
 20
-160.9724310578472
 30
0.0
  0
SPLINE
  5
13D
330
107
100
AcDbEntity
  8
_U+30EC_U+30A4_U+30E4_U+30FC 1
370
     0
100
AcDbSpline
210
0.0
220
0.0
230
1.0
 70
    11
 71
     3
 72
    29
 73
    25
 74
     0
 42
0.0000000001
 43
0.0000000001
 12
1.0
 22
0.0
 32
0.0
 13
1.0
 23
0.0
 33
0.0
 40
0.0
 40
0.0
 40
0.0
 40
0.0
 40
1.0
 40
1.0
 40
1.0
 40
2.0
 40
2.0
 40
2.0
 40
3.0
 40
3.0
 40
3.0
 40
4.0
 40
4.0
 40
4.0
 40
5.0
 40
5.0
 40
5.0
 40
6.0
 40
6.0
 40
6.0
 40
7.0
 40
7.0
 40
7.0
 40
8.0
 40
8.0
 40
8.0
 40
8.0
 10
109.0596652288115
 20
-160.3464572081773
 30
0.0
 10
109.0596652288115
 20
-160.3464572081773
 30
0.0
 10
108.7189452853203
 20
-160.3464572081773
 30
0.0
 10
108.7189452853203
 20
-160.3464572081773
 30
0.0
 10
108.6049126247585
 20
-160.3464572081773
 30
0.0
 10
108.4884683973571
 20
-160.3505913227596
 30
0.0
 10
108.3740912272468
 20
-160.3654052333462
 30
0.0
 10
108.3740912272468
 20
-160.3654052333462
 30
0.0
 10
108.3740912272468
 20
-160.155943427843
 30
0.0
 10
108.3740912272468
 20
-160.155943427843
 30
0.0
 10
108.4926025119394
 20
-160.1707573384296
 30
0.0
 10
108.6662353243959
 20
-160.1748914530118
 30
0.0
 10
108.7189452853203
 20
-160.1748914530118
 30
0.0
 10
108.7189452853203
 20
-160.1748914530118
 30
0.0
 10
109.0596652288115
 20
-160.1748914530118
 30
0.0
 10
109.0596652288115
 20
-160.1748914530118
 30
0.0
 10
109.1761094562129
 20
-160.1748914530118
 30
0.0
 10
109.2922091740658
 20
-160.1707573384296
 30
0.0
 10
109.4086534014673
 20
-160.155943427843
 30
0.0
 10
109.4086534014673
 20
-160.155943427843
 30
0.0
 10
109.4086534014673
 20
-160.3654052333462
 30
0.0
 10
109.4086534014673
 20
-160.3654052333462
 30
0.0
 10
109.2584472383104
 20
-160.3464572081773
 30
0.0
 10
109.0744791393981
 20
-160.3464572081773
 30
0.0
 10
109.0596652288115
 20
-160.3464572081773
 30
0.0
  0
HATCH
  5
13E
330
107
100
AcDbEntity
  8
_U+30EC_U+30A4_U+30E4_U+30FC 1
 62
     7
420
 16777215
100
AcDbHatch
 10
0.0
 20
0.0
 30
0.0
210
0.0
220
0.0
230
1.0
  2
SOLID
 70
     1
 71
     0
 91
        2
 92
        1
 93
        1
 72
     4
 94
        3
 73
     0
 74
     1
 95
       50
 96
       46
 40
0.0
 40
0.0
 40
0.0
 40
0.0
 40
1.0
 40
1.0
 40
1.0
 40
2.0
 40
2.0
 40
2.0
 40
3.0
 40
3.0
 40
3.0
 40
4.0
 40
4.0
 40
4.0
 40
5.0
 40
5.0
 40
5.0
 40
6.0
 40
6.0
 40
6.0
 40
7.0
 40
7.0
 40
7.0
 40
8.0
 40
8.0
 40
8.0
 40
9.0
 40
9.0
 40
9.0
 40
10.0
 40
10.0
 40
10.0
 40
11.0
 40
11.0
 40
11.0
 40
12.0
 40
12.0
 40
12.0
 40
13.0
 40
13.0
 40
13.0
 40
14.0
 40
14.0
 40
14.0
 40
15.0
 40
15.0
 40
15.0
 40
15.0
 10
109.5526583927507
 20
-160.9724310578472
 10
109.474110215687
 20
-161.1501979848861
 10
109.3387179631167
 20
-161.3575927330981
 10
109.2012586532553
 20
-161.4971191002507
 10
109.0321044649295
 20
-161.6683403458676
 10
108.8691514484772
 20
-161.7572238093871
 10
108.5497910969945
 20
-161.8991617433794
 10
108.5497910969945
 20
-161.8991617433794
 10
108.3806369086687
 20
-161.7107150203362
 10
108.3806369086687
 20
-161.7107150203362
 10
108.5666720648722
 20
-161.6876328805851
 10
108.7378933104891
 20
-161.6008164743567
 10
108.8905110404857
 20
-161.4950520429596
 10
109.1526828069132
 20
-161.3131510013384
 10
109.3431965872475
 20
-160.9999918217292
 10
109.3917724335896
 20
-160.818090780108
 10
109.3917724335896
 20
-160.818090780108
 10
108.7210123426114
 20
-160.818090780108
 10
108.7210123426114
 20
-160.818090780108
 10
108.5625379502899
 20
-160.818090780108
 10
108.2703938531407
 20
-160.8263590092726
 10
108.1181206326927
 20
-160.8435844866988
 10
108.1181206326927
 20
-160.8435844866988
 10
108.1181206326927
 20
-160.6148301464783
 10
108.1181206326927
 20
-160.6148301464783
 10
108.1522270779967
 20
-160.6213758279002
 10
108.177376275039
 20
-160.6275769997737
 10
108.2304307455118
 20
-160.631711114356
 10
108.3317165527782
 20
-160.6382567957779
 10
108.5287760145345
 20
-160.6403238530691
 10
108.6131808539231
 20
-160.6403238530691
 10
108.6131808539231
 20
-160.6403238530691
 10
109.1189208711578
 20
-160.6403238530691
 10
109.1189208711578
 20
-160.6403238530691
 10
109.1864447426687
 20
-160.6403238530691
 10
109.3325167912433
 20
-160.6361897384868
 10
109.3938394908807
 20
-160.6296440570648
 10
109.4658419865224
 20
-160.6213758279002
 10
109.4934027504044
 20
-160.6065619173137
 10
109.5271646861599
 20
-160.5831352680139
 10
109.5271646861599
 20
-160.5831352680139
 10
109.6921847599033
 20
-160.7502223990486
 10
109.6921847599033
 20
-160.7502223990486
 10
109.6222493215528
 20
-160.818090780108
 10
109.5757405325019
 20
-160.921788154214
 10
109.5526583927507
 20
-160.9724310578472
 97
        0
 97
        0
 92
        1
 93
        1
 72
     4
 94
        3
 73
     0
 74
     1
 95
       29
 96
       25
 40
0.0
 40
0.0
 40
0.0
 40
0.0
 40
1.0
 40
1.0
 40
1.0
 40
2.0
 40
2.0
 40
2.0
 40
3.0
 40
3.0
 40
3.0
 40
4.0
 40
4.0
 40
4.0
 40
5.0
 40
5.0
 40
5.0
 40
6.0
 40
6.0
 40
6.0
 40
7.0
 40
7.0
 40
7.0
 40
8.0
 40
8.0
 40
8.0
 40
8.0
 10
109.0596652288115
 20
-160.3464572081773
 10
109.0596652288115
 20
-160.3464572081773
 10
108.7189452853203
 20
-160.3464572081773
 10
108.7189452853203
 20
-160.3464572081773
 10
108.6049126247585
 20
-160.3464572081773
 10
108.4884683973571
 20
-160.3505913227596
 10
108.3740912272468
 20
-160.3654052333462
 10
108.3740912272468
 20
-160.3654052333462
 10
108.3740912272468
 20
-160.155943427843
 10
108.3740912272468
 20
-160.155943427843
 10
108.4926025119394
 20
-160.1707573384296
 10
108.6662353243959
 20
-160.1748914530118
 10
108.7189452853203
 20
-160.1748914530118
 10
108.7189452853203
 20
-160.1748914530118
 10
109.0596652288115
 20
-160.1748914530118
 10
109.0596652288115
 20
-160.1748914530118
 10
109.1761094562129
 20
-160.1748914530118
 10
109.2922091740658
 20
-160.1707573384296
 10
109.4086534014673
 20
-160.155943427843
 10
109.4086534014673
 20
-160.155943427843
 10
109.4086534014673
 20
-160.3654052333462
 10
109.4086534014673
 20
-160.3654052333462
 10
109.2584472383104
 20
-160.3464572081773
 10
109.0744791393981
 20
-160.3464572081773
 10
109.0596652288115
 20
-160.3464572081773
 97
        0
 97
        0
 75
     2
 76
     1
 98
        0
  0
SPLINE
  5
13F
330
107
100
AcDbEntity
  8
_U+30EC_U+30A4_U+30E4_U+30FC 1
370
     0
100
AcDbSpline
210
0.0
220
0.0
230
1.0
 70
    11
 71
     3
 72
    50
 73
    46
 74
     0
 42
0.0000000001
 43
0.0000000001
 12
1.0
 22
0.0
 32
0.0
 13
1.0
 23
0.0
 33
0.0
 40
0.0
 40
0.0
 40
0.0
 40
0.0
 40
1.0
 40
1.0
 40
1.0
 40
2.0
 40
2.0
 40
2.0
 40
3.0
 40
3.0
 40
3.0
 40
4.0
 40
4.0
 40
4.0
 40
5.0
 40
5.0
 40
5.0
 40
6.0
 40
6.0
 40
6.0
 40
7.0
 40
7.0
 40
7.0
 40
8.0
 40
8.0
 40
8.0
 40
9.0
 40
9.0
 40
9.0
 40
10.0
 40
10.0
 40
10.0
 40
11.0
 40
11.0
 40
11.0
 40
12.0
 40
12.0
 40
12.0
 40
13.0
 40
13.0
 40
13.0
 40
14.0
 40
14.0
 40
14.0
 40
15.0
 40
15.0
 40
15.0
 40
15.0
 10
111.2628037916288
 20
-160.3316432975907
 30
0.0
 10
111.0533419861256
 20
-160.5452392176762
 30
0.0
 10
110.9816840000324
 20
-160.6172417133179
 30
0.0
 10
110.8397460660401
 20
-160.735408488462
 30
0.0
 10
110.8397460660401
 20
-160.735408488462
 30
0.0
 10
110.8397460660401
 20
-161.3024712053341
 30
0.0
 10
110.8397460660401
 20
-161.3024712053341
 30
0.0
 10
110.8397460660401
 20
-161.452677368491
 30
0.0
 10
110.846291747462
 20
-161.4716253936599
 30
0.0
 10
110.8504258620443
 20
-161.6493923206988
 30
0.0
 10
110.8524929193355
 20
-161.7806504586868
 30
0.0
 10
110.8586940912089
 20
-161.8292263050288
 30
0.0
 10
110.8652397726309
 20
-161.8884819473751
 30
0.0
 10
110.8652397726309
 20
-161.8884819473751
 30
0.0
 10
110.63889699925
 20
-161.8884819473751
 30
0.0
 10
110.63889699925
 20
-161.8884819473751
 30
0.0
 10
110.6430311138323
 20
-161.8440402156154
 30
0.0
 10
110.6471652284146
 20
-161.7975314265645
 30
0.0
 10
110.6471652284146
 20
-161.7889186878514
 30
0.0
 10
110.6471652284146
 20
-161.7086479630451
 30
0.0
 10
110.6516438525454
 20
-161.3575927330981
 30
0.0
 10
110.6516438525454
 20
-161.2855902374564
 30
0.0
 10
110.6516438525454
 20
-161.2855902374564
 30
0.0
 10
110.6516438525454
 20
-160.8794134797454
 30
0.0
 10
110.6516438525454
 20
-160.8794134797454
 30
0.0
 10
110.4697428109242
 20
-161.0041259363115
 30
0.0
 10
110.2750949160076
 20
-161.1143689918395
 30
0.0
 10
110.0718342823779
 20
-161.2008408885193
 30
0.0
 10
110.0718342823779
 20
-161.2008408885193
 30
0.0
 10
109.8689181582967
 20
-161.0378878720669
 30
0.0
 10
109.8689181582967
 20
-161.0378878720669
 30
0.0
 10
109.9915635575716
 20
-161.0020588790203
 30
0.0
 10
110.2475341521256
 20
-160.9279893260874
 30
0.0
 10
110.5923882101991
 20
-160.6720187315334
 30
0.0
 10
110.8080511875758
 20
-160.5135443392119
 30
0.0
 10
111.0006320252012
 20
-160.3250976161687
 30
0.0
 10
111.1529052456493
 20
-160.1049560146613
 30
0.0
 10
111.1529052456493
 20
-160.1049560146613
 30
0.0
 10
111.3454860832747
 20
-160.2489610059447
 30
0.0
 10
111.3454860832747
 20
-160.2489610059447
 30
0.0
 10
111.3582329365702
 20
-160.259640801949
 30
0.0
 10
111.3665011657348
 20
-160.2744547125356
 30
0.0
 10
111.3665011657348
 20
-160.287201565831
 30
0.0
 10
111.3665011657348
 20
-160.3271646734599
 30
0.0
 10
111.328605115397
 20
-160.3271646734599
 30
0.0
 10
111.2628037916288
 20
-160.3316432975907
 30
0.0
  0
HATCH
  5
140
330
107
100
AcDbEntity
  8
_U+30EC_U+30A4_U+30E4_U+30FC 1
 62
     7
420
 16777215
100
AcDbHatch
 10
0.0
 20
0.0
 30
0.0
210
0.0
220
0.0
230
1.0
  2
SOLID
 70
     1
 71
     0
 91
        1
 92
        1
 93
        1
 72
     4
 94
        3
 73
     0
 74
     1
 95
       50
 96
       46
 40
0.0
 40
0.0
 40
0.0
 40
0.0
 40
1.0
 40
1.0
 40
1.0
 40
2.0
 40
2.0
 40
2.0
 40
3.0
 40
3.0
 40
3.0
 40
4.0
 40
4.0
 40
4.0
 40
5.0
 40
5.0
 40
5.0
 40
6.0
 40
6.0
 40
6.0
 40
7.0
 40
7.0
 40
7.0
 40
8.0
 40
8.0
 40
8.0
 40
9.0
 40
9.0
 40
9.0
 40
10.0
 40
10.0
 40
10.0
 40
11.0
 40
11.0
 40
11.0
 40
12.0
 40
12.0
 40
12.0
 40
13.0
 40
13.0
 40
13.0
 40
14.0
 40
14.0
 40
14.0
 40
15.0
 40
15.0
 40
15.0
 40
15.0
 10
111.2628037916288
 20
-160.3316432975907
 10
111.0533419861256
 20
-160.5452392176762
 10
110.9816840000324
 20
-160.6172417133179
 10
110.8397460660401
 20
-160.735408488462
 10
110.8397460660401
 20
-160.735408488462
 10
110.8397460660401
 20
-161.3024712053341
 10
110.8397460660401
 20
-161.3024712053341
 10
110.8397460660401
 20
-161.452677368491
 10
110.846291747462
 20
-161.4716253936599
 10
110.8504258620443
 20
-161.6493923206988
 10
110.8524929193355
 20
-161.7806504586868
 10
110.8586940912089
 20
-161.8292263050288
 10
110.8652397726309
 20
-161.8884819473751
 10
110.8652397726309
 20
-161.8884819473751
 10
110.63889699925
 20
-161.8884819473751
 10
110.63889699925
 20
-161.8884819473751
 10
110.6430311138323
 20
-161.8440402156154
 10
110.6471652284146
 20
-161.7975314265645
 10
110.6471652284146
 20
-161.7889186878514
 10
110.6471652284146
 20
-161.7086479630451
 10
110.6516438525454
 20
-161.3575927330981
 10
110.6516438525454
 20
-161.2855902374564
 10
110.6516438525454
 20
-161.2855902374564
 10
110.6516438525454
 20
-160.8794134797454
 10
110.6516438525454
 20
-160.8794134797454
 10
110.4697428109242
 20
-161.0041259363115
 10
110.2750949160076
 20
-161.1143689918395
 10
110.0718342823779
 20
-161.2008408885193
 10
110.0718342823779
 20
-161.2008408885193
 10
109.8689181582967
 20
-161.0378878720669
 10
109.8689181582967
 20
-161.0378878720669
 10
109.9915635575716
 20
-161.0020588790203
 10
110.2475341521256
 20
-160.9279893260874
 10
110.5923882101991
 20
-160.6720187315334
 10
110.8080511875758
 20
-160.5135443392119
 10
111.0006320252012
 20
-160.3250976161687
 10
111.1529052456493
 20
-160.1049560146613
 10
111.1529052456493
 20
-160.1049560146613
 10
111.3454860832747
 20
-160.2489610059447
 10
111.3454860832747
 20
-160.2489610059447
 10
111.3582329365702
 20
-160.259640801949
 10
111.3665011657348
 20
-160.2744547125356
 10
111.3665011657348
 20
-160.287201565831
 10
111.3665011657348
 20
-160.3271646734599
 10
111.328605115397
 20
-160.3271646734599
 10
111.2628037916288
 20
-160.3316432975907
 97
        0
 97
        0
 75
     2
 76
     1
 98
        0
  0
SPLINE
  5
141
330
107
100
AcDbEntity
  8
_U+30EC_U+30A4_U+30E4_U+30FC 1
370
     0
100
AcDbSpline
210
0.0
220
0.0
230
1.0
 70
    11
 71
     3
 72
    50
 73
    46
 74
     0
 42
0.0000000001
 43
0.0000000001
 12
1.0
 22
0.0
 32
0.0
 13
1.0
 23
0.0
 33
0.0
 40
0.0
 40
0.0
 40
0.0
 40
0.0
 40
1.0
 40
1.0
 40
1.0
 40
2.0
 40
2.0
 40
2.0
 40
3.0
 40
3.0
 40
3.0
 40
4.0
 40
4.0
 40
4.0
 40
5.0
 40
5.0
 40
5.0
 40
6.0
 40
6.0
 40
6.0
 40
7.0
 40
7.0
 40
7.0
 40
8.0
 40
8.0
 40
8.0
 40
9.0
 40
9.0
 40
9.0
 40
10.0
 40
10.0
 40
10.0
 40
11.0
 40
11.0
 40
11.0
 40
12.0
 40
12.0
 40
12.0
 40
13.0
 40
13.0
 40
13.0
 40
14.0
 40
14.0
 40
14.0
 40
15.0
 40
15.0
 40
15.0
 40
15.0
 10
112.9712266427641
 20
-160.8583983972854
 30
0.0
 10
112.9099039431267
 20
-160.9300563833786
 30
0.0
 10
112.6494547244418
 20
-161.2473496775701
 30
0.0
 10
112.5926106489352
 20
-161.3110839440472
 30
0.0
 10
112.6770154883238
 20
-161.4082356367313
 30
0.0
 10
112.7280029015055
 20
-161.4716253936599
 30
0.0
 10
112.7934597157252
 20
-161.5625759144705
 30
0.0
 10
112.7934597157252
 20
-161.5625759144705
 30
0.0
 10
112.6094916168129
 20
-161.7003797338805
 30
0.0
 10
112.6094916168129
 20
-161.7003797338805
 30
0.0
 10
112.4740993642426
 20
-161.4885063615376
 30
0.0
 10
112.3025336090771
 20
-161.2645751549964
 30
0.0
 10
112.0086669641853
 20
-161.0654486359489
 30
0.0
 10
112.0086669641853
 20
-161.0654486359489
 30
0.0
 10
112.1568060700511
 20
-160.9111083582097
 30
0.0
 10
112.1568060700511
 20
-160.9111083582097
 30
0.0
 10
112.2667046160306
 20
-160.9913790830161
 30
0.0
 10
112.3704019901366
 20
-161.0802625465355
 30
0.0
 10
112.4675536828206
 20
-161.1756916914769
 30
0.0
 10
112.53542206388
 20
-161.0995550812529
 30
0.0
 10
112.7383381879612
 20
-160.8559868304457
 30
0.0
 10
112.8716633832404
 20
-160.6275769997737
 30
0.0
 10
112.8716633832404
 20
-160.6275769997737
 30
0.0
 10
112.1988362349711
 20
-160.6275769997737
 30
0.0
 10
112.1988362349711
 20
-160.6275769997737
 30
0.0
 10
112.0741237784051
 20
-160.6275769997737
 30
0.0
 10
111.8222872984333
 20
-160.6361897384868
 30
0.0
 10
111.6128254929301
 20
-160.6465250249425
 30
0.0
 10
111.6128254929301
 20
-160.6465250249425
 30
0.0
 10
111.6128254929301
 20
-160.4267279329836
 30
0.0
 10
111.6128254929301
 20
-160.4267279329836
 30
0.0
 10
111.797138101391
 20
-160.4456759581525
 30
0.0
 10
112.0021212827634
 20
-160.4498100727348
 30
0.0
 10
112.1905680058065
 20
-160.4498100727348
 30
0.0
 10
112.1905680058065
 20
-160.4498100727348
 30
0.0
 10
112.6938964562015
 20
-160.4498100727348
 30
0.0
 10
112.6938964562015
 20
-160.4498100727348
 30
0.0
 10
113.0325493424016
 20
-160.4498100727348
 30
0.0
 10
113.0769910741613
 20
-160.4349961621482
 30
0.0
 10
113.1593288562588
 20
-160.3950330545193
 30
0.0
 10
113.1593288562588
 20
-160.3950330545193
 30
0.0
 10
113.3264159872934
 20
-160.5535074468408
 30
0.0
 10
113.3264159872934
 20
-160.5535074468408
 30
0.0
 10
113.1741427668454
 20
-160.6255099424825
 30
0.0
 10
113.0304822851104
 20
-160.7884629589348
 30
0.0
 10
112.9712266427641
 20
-160.8583983972854
 30
0.0
  0
HATCH
  5
142
330
107
100
AcDbEntity
  8
_U+30EC_U+30A4_U+30E4_U+30FC 1
 62
     7
420
 16777215
100
AcDbHatch
 10
0.0
 20
0.0
 30
0.0
210
0.0
220
0.0
230
1.0
  2
SOLID
 70
     1
 71
     0
 91
        1
 92
        1
 93
        1
 72
     4
 94
        3
 73
     0
 74
     1
 95
       50
 96
       46
 40
0.0
 40
0.0
 40
0.0
 40
0.0
 40
1.0
 40
1.0
 40
1.0
 40
2.0
 40
2.0
 40
2.0
 40
3.0
 40
3.0
 40
3.0
 40
4.0
 40
4.0
 40
4.0
 40
5.0
 40
5.0
 40
5.0
 40
6.0
 40
6.0
 40
6.0
 40
7.0
 40
7.0
 40
7.0
 40
8.0
 40
8.0
 40
8.0
 40
9.0
 40
9.0
 40
9.0
 40
10.0
 40
10.0
 40
10.0
 40
11.0
 40
11.0
 40
11.0
 40
12.0
 40
12.0
 40
12.0
 40
13.0
 40
13.0
 40
13.0
 40
14.0
 40
14.0
 40
14.0
 40
15.0
 40
15.0
 40
15.0
 40
15.0
 10
112.9712266427641
 20
-160.8583983972854
 10
112.9099039431267
 20
-160.9300563833786
 10
112.6494547244418
 20
-161.2473496775701
 10
112.5926106489352
 20
-161.3110839440472
 10
112.6770154883238
 20
-161.4082356367313
 10
112.7280029015055
 20
-161.4716253936599
 10
112.7934597157252
 20
-161.5625759144705
 10
112.7934597157252
 20
-161.5625759144705
 10
112.6094916168129
 20
-161.7003797338805
 10
112.6094916168129
 20
-161.7003797338805
 10
112.4740993642426
 20
-161.4885063615376
 10
112.3025336090771
 20
-161.2645751549964
 10
112.0086669641853
 20
-161.0654486359489
 10
112.0086669641853
 20
-161.0654486359489
 10
112.1568060700511
 20
-160.9111083582097
 10
112.1568060700511
 20
-160.9111083582097
 10
112.2667046160306
 20
-160.9913790830161
 10
112.3704019901366
 20
-161.0802625465355
 10
112.4675536828206
 20
-161.1756916914769
 10
112.53542206388
 20
-161.0995550812529
 10
112.7383381879612
 20
-160.8559868304457
 10
112.8716633832404
 20
-160.6275769997737
 10
112.8716633832404
 20
-160.6275769997737
 10
112.1988362349711
 20
-160.6275769997737
 10
112.1988362349711
 20
-160.6275769997737
 10
112.0741237784051
 20
-160.6275769997737
 10
111.8222872984333
 20
-160.6361897384868
 10
111.6128254929301
 20
-160.6465250249425
 10
111.6128254929301
 20
-160.6465250249425
 10
111.6128254929301
 20
-160.4267279329836
 10
111.6128254929301
 20
-160.4267279329836
 10
111.797138101391
 20
-160.4456759581525
 10
112.0021212827634
 20
-160.4498100727348
 10
112.1905680058065
 20
-160.4498100727348
 10
112.1905680058065
 20
-160.4498100727348
 10
112.6938964562015
 20
-160.4498100727348
 10
112.6938964562015
 20
-160.4498100727348
 10
113.0325493424016
 20
-160.4498100727348
 10
113.0769910741613
 20
-160.4349961621482
 10
113.1593288562588
 20
-160.3950330545193
 10
113.1593288562588
 20
-160.3950330545193
 10
113.3264159872934
 20
-160.5535074468408
 10
113.3264159872934
 20
-160.5535074468408
 10
113.1741427668454
 20
-160.6255099424825
 10
113.0304822851104
 20
-160.7884629589348
 10
112.9712266427641
 20
-160.8583983972854
 97
        0
 97
        0
 75
     2
 76
     1
 98
        0
  0
SPLINE
  5
143
330
107
100
AcDbEntity
  8
_U+30EC_U+30A4_U+30E4_U+30FC 1
370
     0
100
AcDbSpline
210
0.0
220
0.0
230
1.0
 70
    11
 71
     3
 72
    29
 73
    25
 74
     0
 42
0.0000000001
 43
0.0000000001
 12
1.0
 22
0.0
 32
0.0
 13
1.0
 23
0.0
 33
0.0
 40
0.0
 40
0.0
 40
0.0
 40
0.0
 40
1.0
 40
1.0
 40
1.0
 40
2.0
 40
2.0
 40
2.0
 40
3.0
 40
3.0
 40
3.0
 40
4.0
 40
4.0
 40
4.0
 40
5.0
 40
5.0
 40
5.0
 40
6.0
 40
6.0
 40
6.0
 40
7.0
 40
7.0
 40
7.0
 40
8.0
 40
8.0
 40
8.0
 40
8.0
 10
114.5949001449624
 20
-161.1016221385441
 30
0.0
 10
114.5949001449624
 20
-161.1016221385441
 30
0.0
 10
114.1105197197363
 20
-161.1016221385441
 30
0.0
 10
114.1105197197363
 20
-161.1016221385441
 30
0.0
 10
114.0829589558543
 20
-161.1016221385441
 30
0.0
 10
113.7656656616628
 20
-161.1016221385441
 30
0.0
 10
113.5541367988684
 20
-161.1267713355864
 30
0.0
 10
113.5541367988684
 20
-161.1267713355864
 30
0.0
 10
113.5541367988684
 20
-160.8962944476231
 30
0.0
 10
113.5541367988684
 20
-160.8962944476231
 30
0.0
 10
113.7126111911899
 20
-160.9197210969228
 30
0.0
 10
113.9031249715242
 20
-160.921788154214
 30
0.0
 10
114.1105197197363
 20
-160.921788154214
 30
0.0
 10
114.1105197197363
 20
-160.921788154214
 30
0.0
 10
114.5949001449624
 20
-160.921788154214
 30
0.0
 10
114.5949001449624
 20
-160.921788154214
 30
0.0
 10
114.7809353011659
 20
-160.921788154214
 30
0.0
 10
114.9673149669179
 20
-160.9197210969228
 30
0.0
 10
115.1512830658302
 20
-160.8962944476231
 30
0.0
 10
115.1512830658302
 20
-160.8962944476231
 30
0.0
 10
115.1512830658302
 20
-161.1267713355864
 30
0.0
 10
115.1512830658302
 20
-161.1267713355864
 30
0.0
 10
114.9673149669179
 20
-161.1036891958352
 30
0.0
 10
114.7196126015284
 20
-161.1016221385441
 30
0.0
 10
114.5949001449624
 20
-161.1016221385441
 30
0.0
  0
HATCH
  5
144
330
107
100
AcDbEntity
  8
_U+30EC_U+30A4_U+30E4_U+30FC 1
 62
     7
420
 16777215
100
AcDbHatch
 10
0.0
 20
0.0
 30
0.0
210
0.0
220
0.0
230
1.0
  2
SOLID
 70
     1
 71
     0
 91
        1
 92
        1
 93
        1
 72
     4
 94
        3
 73
     0
 74
     1
 95
       29
 96
       25
 40
0.0
 40
0.0
 40
0.0
 40
0.0
 40
1.0
 40
1.0
 40
1.0
 40
2.0
 40
2.0
 40
2.0
 40
3.0
 40
3.0
 40
3.0
 40
4.0
 40
4.0
 40
4.0
 40
5.0
 40
5.0
 40
5.0
 40
6.0
 40
6.0
 40
6.0
 40
7.0
 40
7.0
 40
7.0
 40
8.0
 40
8.0
 40
8.0
 40
8.0
 10
114.5949001449624
 20
-161.1016221385441
 10
114.5949001449624
 20
-161.1016221385441
 10
114.1105197197363
 20
-161.1016221385441
 10
114.1105197197363
 20
-161.1016221385441
 10
114.0829589558543
 20
-161.1016221385441
 10
113.7656656616628
 20
-161.1016221385441
 10
113.5541367988684
 20
-161.1267713355864
 10
113.5541367988684
 20
-161.1267713355864
 10
113.5541367988684
 20
-160.8962944476231
 10
113.5541367988684
 20
-160.8962944476231
 10
113.7126111911899
 20
-160.9197210969228
 10
113.9031249715242
 20
-160.921788154214
 10
114.1105197197363
 20
-160.921788154214
 10
114.1105197197363
 20
-160.921788154214
 10
114.5949001449624
 20
-160.921788154214
 10
114.5949001449624
 20
-160.921788154214
 10
114.7809353011659
 20
-160.921788154214
 10
114.9673149669179
 20
-160.9197210969228
 10
115.1512830658302
 20
-160.8962944476231
 10
115.1512830658302
 20
-160.8962944476231
 10
115.1512830658302
 20
-161.1267713355864
 10
115.1512830658302
 20
-161.1267713355864
 10
114.9673149669179
 20
-161.1036891958352
 10
114.7196126015284
 20
-161.1016221385441
 10
114.5949001449624
 20
-161.1016221385441
 97
        0
 97
        0
 75
     2
 76
     1
 98
        0
  0
ENDBLK
  5
10A
330
107
100
AcDbEntity
  8
0
100
AcDbBlockEnd
  0
ENDSEC
  0
SECTION
  2
ENTITIES
  0
POLYLINE
  5
41
330
1F
100
AcDbEntity
  8
_U+30EC_U+30A4_U+30E4_U+30FC 1
 62
     7
420
 16777215
370
    25
100
AcDb2dPolyline
 66
     1
 10
0.0
 20
0.0
 30
0.0
  0
VERTEX
  5
42
330
41
100
AcDbEntity
  8
_U+30EC_U+30A4_U+30E4_U+30FC 1
 62
     7
420
 16777215
370
    25
100
AcDbVertex
100
AcDb2dVertex
 10
87.09959638901529
 20
-142.0612827422625
 30
0.0
  0
VERTEX
  5
43
330
41
100
AcDbEntity
  8
_U+30EC_U+30A4_U+30E4_U+30FC 1
 62
     7
420
 16777215
370
    25
100
AcDbVertex
100
AcDb2dVertex
 10
94.09951871043239
 20
-142.0612827422625
 30
0.0
  0
SEQEND
  5
44
330
41
100
AcDbEntity
  8
_U+30EC_U+30A4_U+30E4_U+30FC 1
 62
     7
420
 16777215
370
    25
  0
POLYLINE
  5
45
330
1F
100
AcDbEntity
  8
_U+30EC_U+30A4_U+30E4_U+30FC 1
 62
     7
420
 16777215
370
    25
100
AcDb2dPolyline
 66
     1
 10
0.0
 20
0.0
 30
0.0
  0
VERTEX
  5
46
330
45
100
AcDbEntity
  8
_U+30EC_U+30A4_U+30E4_U+30FC 1
 62
     7
420
 16777215
370
    25
100
AcDbVertex
100
AcDb2dVertex
 10
118.0992372648152
 20
-142.0612827422625
 30
0.0
  0
VERTEX
  5
47
330
45
100
AcDbEntity
  8
_U+30EC_U+30A4_U+30E4_U+30FC 1
 62
     7
420
 16777215
370
    25
100
AcDbVertex
100
AcDb2dVertex
 10
118.0992372648152
 20
-143.0610196864569
 30
0.0
  0
SEQEND
  5
48
330
45
100
AcDbEntity
  8
_U+30EC_U+30A4_U+30E4_U+30FC 1
 62
     7
420
 16777215
370
    25
  0
POLYLINE
  5
49
330
1F
100
AcDbEntity
  8
_U+30EC_U+30A4_U+30E4_U+30FC 1
 62
     7
420
 16777215
370
    25
100
AcDb2dPolyline
 66
     1
 10
0.0
 20
0.0
 30
0.0
  0
VERTEX
  5
4A
330
49
100
AcDbEntity
  8
_U+30EC_U+30A4_U+30E4_U+30FC 1
 62
     7
420
 16777215
370
    25
100
AcDbVertex
100
AcDb2dVertex
 10
96.09973338162489
 20
-143.0610196864569
 30
0.0
  0
VERTEX
  5
4B
330
49
100
AcDbEntity
  8
_U+30EC_U+30A4_U+30E4_U+30FC 1
 62
     7
420
 16777215
370
    25
100
AcDbVertex
100
AcDb2dVertex
 10
118.0992372648152
 20
-143.0610196864569
 30
0.0
  0
SEQEND
  5
4C
330
49
100
AcDbEntity
  8
_U+30EC_U+30A4_U+30E4_U+30FC 1
 62
     7
420
 16777215
370
    25
  0
POLYLINE
  5
4D
330
1F
100
AcDbEntity
  8
_U+30EC_U+30A4_U+30E4_U+30FC 1
 62
     7
420
 16777215
370
    25
100
AcDb2dPolyline
 66
     1
 10
0.0
 20
0.0
 30
0.0
  0
VERTEX
  5
4E
330
4D
100
AcDbEntity
  8
_U+30EC_U+30A4_U+30E4_U+30FC 1
 62
     7
420
 16777215
370
    25
100
AcDbVertex
100
AcDb2dVertex
 10
93.09974651371648
 20
-143.0610196864569
 30
0.0
  0
VERTEX
  5
4F
330
4D
100
AcDbEntity
  8
_U+30EC_U+30A4_U+30E4_U+30FC 1
 62
     7
420
 16777215
370
    25
100
AcDbVertex
100
AcDb2dVertex
 10
93.09974651371648
 20
-154.0612305170405
 30
0.0
  0
SEQEND
  5
50
330
4D
100
AcDbEntity
  8
_U+30EC_U+30A4_U+30E4_U+30FC 1
 62
     7
420
 16777215
370
    25
  0
POLYLINE
  5
51
330
1F
100
AcDbEntity
  8
_U+30EC_U+30A4_U+30E4_U+30FC 1
 62
     7
420
 16777215
370
    25
100
AcDb2dPolyline
 66
     1
 10
0.0
 20
0.0
 30
0.0
  0
VERTEX
  5
52
330
51
100
AcDbEntity
  8
_U+30EC_U+30A4_U+30E4_U+30FC 1
 62
     7
420
 16777215
370
    25
100
AcDbVertex
100
AcDb2dVertex
 10
103.0994793141576
 20
-153.061458295068
 30
0.0
  0
VERTEX
  5
53
330
51
100
AcDbEntity
  8
_U+30EC_U+30A4_U+30E4_U+30FC 1
 62
     7
420
 16777215
370
    25
100
AcDbVertex
100
AcDb2dVertex
 10
103.0994793141576
 20
-153.5609916282762
 30
0.0
  0
SEQEND
  5
54
330
51
100
AcDbEntity
  8
_U+30EC_U+30A4_U+30E4_U+30FC 1
 62
     7
420
 16777215
370
    25
  0
POLYLINE
  5
55
330
1F
100
AcDbEntity
  8
_U+30EC_U+30A4_U+30E4_U+30FC 1
 62
     7
420
 16777215
370
    25
100
AcDb2dPolyline
 66
     1
 10
0.0
 20
0.0
 30
0.0
  0
VERTEX
  5
56
330
55
100
AcDbEntity
  8
_U+30EC_U+30A4_U+30E4_U+30FC 1
 62
     7
420
 16777215
370
    25
100
AcDbVertex
100
AcDb2dVertex
 10
96.09973338162489
 20
-153.061458295068
 30
0.0
  0
VERTEX
  5
57
330
55
100
AcDbEntity
  8
_U+30EC_U+30A4_U+30E4_U+30FC 1
 62
     7
420
 16777215
370
    25
100
AcDbVertex
100
AcDb2dVertex
 10
103.0994793141576
 20
-153.061458295068
 30
0.0
  0
SEQEND
  5
58
330
55
100
AcDbEntity
  8
_U+30EC_U+30A4_U+30E4_U+30FC 1
 62
     7
420
 16777215
370
    25
  0
POLYLINE
  5
59
330
1F
100
AcDbEntity
  8
_U+30EC_U+30A4_U+30E4_U+30FC 1
 62
     7
420
 16777215
370
    25
100
AcDb2dPolyline
 66
     1
 10
0.0
 20
0.0
 30
0.0
  0
VERTEX
  5
5A
330
59
100
AcDbEntity
  8
_U+30EC_U+30A4_U+30E4_U+30FC 1
 62
     7
420
 16777215
370
    25
100
AcDbVertex
100
AcDb2dVertex
 10
95.0992909071483
 20
-142.0612827422625
 30
0.0
  0
VERTEX
  5
5B
330
59
100
AcDbEntity
  8
_U+30EC_U+30A4_U+30E4_U+30FC 1
 62
     7
420
 16777215
370
    25
100
AcDbVertex
100
AcDb2dVertex
 10
118.0992372648152
 20
-142.0612827422625
 30
0.0
  0
SEQEND
  5
5C
330
59
100
AcDbEntity
  8
_U+30EC_U+30A4_U+30E4_U+30FC 1
 62
     7
420
 16777215
370
    25
  0
POLYLINE
  5
5D
330
1F
100
AcDbEntity
  8
_U+30EC_U+30A4_U+30E4_U+30FC 1
 62
     7
420
 16777215
370
    25
100
AcDb2dPolyline
 66
     1
 10
0.0
 20
0.0
 30
0.0
  0
VERTEX
  5
5E
330
5D
100
AcDbEntity
  8
_U+30EC_U+30A4_U+30E4_U+30FC 1
 62
     7
420
 16777215
370
    25
100
AcDbVertex
100
AcDb2dVertex
 10
94.09951871043239
 20
-142.0612827422625
 30
0.0
  0
VERTEX
  5
5F
330
5D
100
AcDbEntity
  8
_U+30EC_U+30A4_U+30E4_U+30FC 1
 62
     7
420
 16777215
370
    25
100
AcDbVertex
100
AcDb2dVertex
 10
94.09951871043239
 20
-153.061458295068
 30
0.0
  0
SEQEND
  5
60
330
5D
100
AcDbEntity
  8
_U+30EC_U+30A4_U+30E4_U+30FC 1
 62
     7
420
 16777215
370
    25
  0
POLYLINE
  5
61
330
1F
100
AcDbEntity
  8
_U+30EC_U+30A4_U+30E4_U+30FC 1
 62
     7
420
 16777215
370
    25
100
AcDb2dPolyline
 66
     1
 10
0.0
 20
0.0
 30
0.0
  0
VERTEX
  5
62
330
61
100
AcDbEntity
  8
_U+30EC_U+30A4_U+30E4_U+30FC 1
 62
     7
420
 16777215
370
    25
100
AcDbVertex
100
AcDb2dVertex
 10
95.0992909071483
 20
-142.0612827422625
 30
0.0
  0
VERTEX
  5
63
330
61
100
AcDbEntity
  8
_U+30EC_U+30A4_U+30E4_U+30FC 1
 62
     7
420
 16777215
370
    25
100
AcDbVertex
100
AcDb2dVertex
 10
95.0992909071483
 20
-153.061458295068
 30
0.0
  0
SEQEND
  5
64
330
61
100
AcDbEntity
  8
_U+30EC_U+30A4_U+30E4_U+30FC 1
 62
     7
420
 16777215
370
    25
  0
POLYLINE
  5
65
330
1F
100
AcDbEntity
  8
_U+30EC_U+30A4_U+30E4_U+30FC 1
 62
     7
420
 16777215
370
    25
100
AcDb2dPolyline
 66
     1
 10
0.0
 20
0.0
 30
0.0
  0
VERTEX
  5
66
330
65
100
AcDbEntity
  8
_U+30EC_U+30A4_U+30E4_U+30FC 1
 62
     7
420
 16777215
370
    25
100
AcDbVertex
100
AcDb2dVertex
 10
96.09973338162489
 20
-143.0610196864569
 30
0.0
  0
VERTEX
  5
67
330
65
100
AcDbEntity
  8
_U+30EC_U+30A4_U+30E4_U+30FC 1
 62
     7
420
 16777215
370
    25
100
AcDbVertex
100
AcDb2dVertex
 10
96.09973338162489
 20
-153.061458295068
 30
0.0
  0
SEQEND
  5
68
330
65
100
AcDbEntity
  8
_U+30EC_U+30A4_U+30E4_U+30FC 1
 62
     7
420
 16777215
370
    25
  0
POLYLINE
  5
69
330
1F
100
AcDbEntity
  8
_U+30EC_U+30A4_U+30E4_U+30FC 1
 62
     7
420
 16777215
370
    25
100
AcDb2dPolyline
 66
     1
 10
0.0
 20
0.0
 30
0.0
  0
VERTEX
  5
6A
330
69
100
AcDbEntity
  8
_U+30EC_U+30A4_U+30E4_U+30FC 1
 62
     7
420
 16777215
370
    25
100
AcDbVertex
100
AcDb2dVertex
 10
94.09951871043239
 20
-153.061458295068
 30
0.0
  0
VERTEX
  5
6B
330
69
100
AcDbEntity
  8
_U+30EC_U+30A4_U+30E4_U+30FC 1
 62
     7
420
 16777215
370
    25
100
AcDbVertex
100
AcDb2dVertex
 10
95.0992909071483
 20
-153.061458295068
 30
0.0
  0
SEQEND
  5
6C
330
69
100
AcDbEntity
  8
_U+30EC_U+30A4_U+30E4_U+30FC 1
 62
     7
420
 16777215
370
    25
  0
POLYLINE
  5
6D
330
1F
100
AcDbEntity
  8
_U+30EC_U+30A4_U+30E4_U+30FC 1
 62
     7
420
 16777215
370
    25
100
AcDb2dPolyline
 66
     1
 10
0.0
 20
0.0
 30
0.0
  0
VERTEX
  5
6E
330
6D
100
AcDbEntity
  8
_U+30EC_U+30A4_U+30E4_U+30FC 1
 62
     7
420
 16777215
370
    25
100
AcDbVertex
100
AcDb2dVertex
 10
87.09959638901529
 20
-142.0612827422625
 30
0.0
  0
VERTEX
  5
6F
330
6D
100
AcDbEntity
  8
_U+30EC_U+30A4_U+30E4_U+30FC 1
 62
     7
420
 16777215
370
    25
100
AcDbVertex
100
AcDb2dVertex
 10
87.09959638901529
 20
-143.0610196864569
 30
0.0
  0
SEQEND
  5
70
330
6D
100
AcDbEntity
  8
_U+30EC_U+30A4_U+30E4_U+30FC 1
 62
     7
420
 16777215
370
    25
  0
POLYLINE
  5
71
330
1F
100
AcDbEntity
  8
_U+30EC_U+30A4_U+30E4_U+30FC 1
 62
     7
420
 16777215
370
    25
100
AcDb2dPolyline
 66
     1
 10
0.0
 20
0.0
 30
0.0
  0
VERTEX
  5
72
330
71
100
AcDbEntity
  8
_U+30EC_U+30A4_U+30E4_U+30FC 1
 62
     7
420
 16777215
370
    25
100
AcDbVertex
100
AcDb2dVertex
 10
87.09959638901529
 20
-143.0610196864569
 30
0.0
  0
VERTEX
  5
73
330
71
100
AcDbEntity
  8
_U+30EC_U+30A4_U+30E4_U+30FC 1
 62
     7
420
 16777215
370
    25
100
AcDbVertex
100
AcDb2dVertex
 10
93.09974651371648
 20
-143.0610196864569
 30
0.0
  0
SEQEND
  5
74
330
71
100
AcDbEntity
  8
_U+30EC_U+30A4_U+30E4_U+30FC 1
 62
     7
420
 16777215
370
    25
  0
POLYLINE
  5
75
330
1F
100
AcDbEntity
  8
_U+30EC_U+30A4_U+30E4_U+30FC 1
 62
     7
420
 16777215
370
    25
100
AcDb2dPolyline
 66
     1
 10
0.0
 20
0.0
 30
0.0
  0
VERTEX
  5
76
330
75
100
AcDbEntity
  8
_U+30EC_U+30A4_U+30E4_U+30FC 1
 62
     7
420
 16777215
370
    25
100
AcDbVertex
100
AcDb2dVertex
 10
93.09974651371648
 20
-154.0612305170405
 30
0.0
  0
VERTEX
  5
77
330
75
100
AcDbEntity
  8
_U+30EC_U+30A4_U+30E4_U+30FC 1
 62
     7
420
 16777215
370
    25
100
AcDbVertex
100
AcDb2dVertex
 10
103.0994793141576
 20
-153.5609916282762
 30
0.0
  0
SEQEND
  5
78
330
75
100
AcDbEntity
  8
_U+30EC_U+30A4_U+30E4_U+30FC 1
 62
     7
420
 16777215
370
    25
  0
SPLINE
  5
79
330
1F
100
AcDbEntity
  8
_U+30EC_U+30A4_U+30E4_U+30FC 1
 62
     7
420
 16777215
370
     9
100
AcDbSpline
210
0.0
220
0.0
230
1.0
 70
    11
 71
     3
 72
    17
 73
    13
 74
     0
 42
0.0000000001
 43
0.0000000001
 12
1.0
 22
0.0
 32
0.0
 13
1.0
 23
0.0
 33
0.0
 40
0.0
 40
0.0
 40
0.0
 40
0.0
 40
1.0
 40
1.0
 40
1.0
 40
2.0
 40
2.0
 40
2.0
 40
3.0
 40
3.0
 40
3.0
 40
4.0
 40
4.0
 40
4.0
 40
4.0
 10
118.1991439289331
 20
-138.0615235765956
 30
0.0
 10
118.1991439289331
 20
-138.0057141321652
 30
0.0
 10
118.1543764300752
 20
-137.9609113543988
 30
0.0
 10
118.0992372648152
 20
-137.9609113543988
 30
0.0
 10
118.0441333773321
 20
-137.9609113543988
 30
0.0
 10
117.9993306006974
 20
-138.0057141321652
 30
0.0
 10
117.9993306006974
 20
-138.0615235765956
 30
0.0
 10
117.9993306006974
 20
-138.1166274654709
 30
0.0
 10
118.0441333773321
 20
-138.1614302432376
 30
0.0
 10
118.0992372648152
 20
-138.1614302432376
 30
0.0
 10
118.1543764300752
 20
-138.1614302432376
 30
0.0
 10
118.1991439289331
 20
-138.1166274654709
 30
0.0
 10
118.1991439289331
 20
-138.0615235765956
 30
0.0
  0
SPLINE
  5
7A
330
1F
100
AcDbEntity
  8
_U+30EC_U+30A4_U+30E4_U+30FC 1
 62
     7
420
 16777215
370
     9
100
AcDbSpline
210
0.0
220
0.0
230
1.0
 70
    11
 71
     3
 72
    17
 73
    13
 74
     0
 42
0.0000000001
 43
0.0000000001
 12
1.0
 22
0.0
 32
0.0
 13
1.0
 23
0.0
 33
0.0
 40
0.0
 40
0.0
 40
0.0
 40
0.0
 40
1.0
 40
1.0
 40
1.0
 40
2.0
 40
2.0
 40
2.0
 40
3.0
 40
3.0
 40
3.0
 40
4.0
 40
4.0
 40
4.0
 40
4.0
 10
122.1996085490949
 20
-142.0612827422625
 30
0.0
 10
122.1996085490949
 20
-142.0061435756094
 30
0.0
 10
122.1548057724602
 20
-141.9613760756209
 30
0.0
 10
122.0997018849771
 20
-141.9613760756209
 30
0.0
 10
122.0438924419565
 20
-141.9613760756209
 30
0.0
 10
121.9990896653217
 20
-142.0061435756094
 30
0.0
 10
121.9990896653217
 20
-142.0612827422625
 30
0.0
 10
121.9990896653217
 20
-142.1163866311374
 30
0.0
 10
122.0438924419565
 20
-142.1611894089041
 30
0.0
 10
122.0997018849771
 20
-142.1611894089041
 30
0.0
 10
122.1548057724602
 20
-142.1611894089041
 30
0.0
 10
122.1996085490949
 20
-142.1163866311374
 30
0.0
 10
122.1996085490949
 20
-142.0612827422625
 30
0.0
  0
SPLINE
  5
7B
330
1F
100
AcDbEntity
  8
_U+30EC_U+30A4_U+30E4_U+30FC 1
 62
     7
420
 16777215
370
     9
100
AcDbSpline
210
0.0
220
0.0
230
1.0
 70
    11
 71
     3
 72
    17
 73
    13
 74
     0
 42
0.0000000001
 43
0.0000000001
 12
1.0
 22
0.0
 32
0.0
 13
1.0
 23
0.0
 33
0.0
 40
0.0
 40
0.0
 40
0.0
 40
0.0
 40
1.0
 40
1.0
 40
1.0
 40
2.0
 40
2.0
 40
2.0
 40
3.0
 40
3.0
 40
3.0
 40
4.0
 40
4.0
 40
4.0
 40
4.0
 10
122.1996085490949
 20
-143.0610196864569
 30
0.0
 10
122.1996085490949
 20
-143.005915797582
 30
0.0
 10
122.1548057724602
 20
-142.9611130198153
 30
0.0
 10
122.0997018849771
 20
-142.9611130198153
 30
0.0
 10
122.0438924419565
 20
-142.9611130198153
 30
0.0
 10
121.9990896653217
 20
-143.005915797582
 30
0.0
 10
121.9990896653217
 20
-143.0610196864569
 30
0.0
 10
121.9990896653217
 20
-143.11615885311
 30
0.0
 10
122.0438924419565
 20
-143.1609263530985
 30
0.0
 10
122.0997018849771
 20
-143.1609263530985
 30
0.0
 10
122.1548057724602
 20
-143.1609263530985
 30
0.0
 10
122.1996085490949
 20
-143.11615885311
 30
0.0
 10
122.1996085490949
 20
-143.0610196864569
 30
0.0
  0
SPLINE
  5
7C
330
1F
100
AcDbEntity
  8
_U+30EC_U+30A4_U+30E4_U+30FC 1
 62
     7
420
 16777215
370
     9
100
AcDbSpline
210
0.0
220
0.0
230
1.0
 70
    11
 71
     3
 72
    17
 73
    13
 74
     0
 42
0.0000000001
 43
0.0000000001
 12
1.0
 22
0.0
 32
0.0
 13
1.0
 23
0.0
 33
0.0
 40
0.0
 40
0.0
 40
0.0
 40
0.0
 40
1.0
 40
1.0
 40
1.0
 40
2.0
 40
2.0
 40
2.0
 40
3.0
 40
3.0
 40
3.0
 40
4.0
 40
4.0
 40
4.0
 40
4.0
 10
103.1993859782754
 20
-158.0609896827067
 30
0.0
 10
103.1993859782754
 20
-158.0058505160543
 30
0.0
 10
103.1545832016407
 20
-157.9610830160651
 30
0.0
 10
103.0994793141576
 20
-157.9610830160651
 30
0.0
 10
103.0443401488976
 20
-157.9610830160651
 30
0.0
 10
102.9995726500398
 20
-158.0058505160543
 30
0.0
 10
102.9995726500398
 20
-158.0609896827067
 30
0.0
 10
102.9995726500398
 20
-158.1160935715823
 30
0.0
 10
103.0443401488976
 20
-158.1608963493484
 30
0.0
 10
103.0994793141576
 20
-158.1608963493484
 30
0.0
 10
103.1545832016407
 20
-158.1608963493484
 30
0.0
 10
103.1993859782754
 20
-158.1160935715823
 30
0.0
 10
103.1993859782754
 20
-158.0609896827067
 30
0.0
  0
SPLINE
  5
7D
330
1F
100
AcDbEntity
  8
_U+30EC_U+30A4_U+30E4_U+30FC 1
 62
     7
420
 16777215
370
     9
100
AcDbSpline
210
0.0
220
0.0
230
1.0
 70
    11
 71
     3
 72
    17
 73
    13
 74
     0
 42
0.0000000001
 43
0.0000000001
 12
1.0
 22
0.0
 32
0.0
 13
1.0
 23
0.0
 33
0.0
 40
0.0
 40
0.0
 40
0.0
 40
0.0
 40
1.0
 40
1.0
 40
1.0
 40
2.0
 40
2.0
 40
2.0
 40
3.0
 40
3.0
 40
3.0
 40
4.0
 40
4.0
 40
4.0
 40
4.0
 10
93.19965553225568
 20
-158.0609896827067
 30
0.0
 10
93.19965553225568
 20
-158.0058505160543
 30
0.0
 10
93.15485275448896
 20
-157.9610830160651
 30
0.0
 10
93.09974651371648
 20
-157.9610830160651
 30
0.0
 10
93.04393707069585
 20
-157.9610830160651
 30
0.0
 10
92.9991342940611
 20
-158.0058505160543
 30
0.0
 10
92.9991342940611
 20
-158.0609896827067
 30
0.0
 10
92.9991342940611
 20
-158.1160935715823
 30
0.0
 10
93.04393707069585
 20
-158.1608963493484
 30
0.0
 10
93.09974651371648
 20
-158.1608963493484
 30
0.0
 10
93.15485275448896
 20
-158.1608963493484
 30
0.0
 10
93.19965553225568
 20
-158.1160935715823
 30
0.0
 10
93.19965553225568
 20
-158.0609896827067
 30
0.0
  0
SPLINE
  5
7E
330
1F
100
AcDbEntity
  8
_U+30EC_U+30A4_U+30E4_U+30FC 1
 62
     7
420
 16777215
370
     9
100
AcDbSpline
210
0.0
220
0.0
230
1.0
 70
    11
 71
     3
 72
    17
 73
    13
 74
     0
 42
0.0000000001
 43
0.0000000001
 12
1.0
 22
0.0
 32
0.0
 13
1.0
 23
0.0
 33
0.0
 40
0.0
 40
0.0
 40
0.0
 40
0.0
 40
1.0
 40
1.0
 40
1.0
 40
2.0
 40
2.0
 40
2.0
 40
3.0
 40
3.0
 40
3.0
 40
4.0
 40
4.0
 40
4.0
 40
4.0
 10
107.1989686540154
 20
-153.061458295068
 30
0.0
 10
107.1989686540154
 20
-153.0056488506375
 30
0.0
 10
107.1541658773806
 20
-152.9608460728708
 30
0.0
 10
107.0990619898975
 20
-152.9608460728708
 30
0.0
 10
107.0439228246376
 20
-152.9608460728708
 30
0.0
 10
106.9991553257797
 20
-153.0056488506375
 30
0.0
 10
106.9991553257797
 20
-153.061458295068
 30
0.0
 10
106.9991553257797
 20
-153.1165974617211
 30
0.0
 10
107.0439228246376
 20
-153.1613649617096
 30
0.0
 10
107.0990619898975
 20
-153.1613649617096
 30
0.0
 10
107.1541658773806
 20
-153.1613649617096
 30
0.0
 10
107.1989686540154
 20
-153.1165974617211
 30
0.0
 10
107.1989686540154
 20
-153.061458295068
 30
0.0
  0
SPLINE
  5
7F
330
1F
100
AcDbEntity
  8
_U+30EC_U+30A4_U+30E4_U+30FC 1
 62
     7
420
 16777215
370
     9
100
AcDbSpline
210
0.0
220
0.0
230
1.0
 70
    11
 71
     3
 72
    17
 73
    13
 74
     0
 42
0.0000000001
 43
0.0000000001
 12
1.0
 22
0.0
 32
0.0
 13
1.0
 23
0.0
 33
0.0
 40
0.0
 40
0.0
 40
0.0
 40
0.0
 40
1.0
 40
1.0
 40
1.0
 40
2.0
 40
2.0
 40
2.0
 40
3.0
 40
3.0
 40
3.0
 40
4.0
 40
4.0
 40
4.0
 40
4.0
 10
122.1996085490949
 20
-153.061458295068
 30
0.0
 10
122.1996085490949
 20
-153.0056488506375
 30
0.0
 10
122.1548057724602
 20
-152.9608460728708
 30
0.0
 10
122.0997018849771
 20
-152.9608460728708
 30
0.0
 10
122.0438924419565
 20
-152.9608460728708
 30
0.0
 10
121.9990896653217
 20
-153.0056488506375
 30
0.0
 10
121.9990896653217
 20
-153.061458295068
 30
0.0
 10
121.9990896653217
 20
-153.1165974617211
 30
0.0
 10
122.0438924419565
 20
-153.1613649617096
 30
0.0
 10
122.0997018849771
 20
-153.1613649617096
 30
0.0
 10
122.1548057724602
 20
-153.1613649617096
 30
0.0
 10
122.1996085490949
 20
-153.1165974617211
 30
0.0
 10
122.1996085490949
 20
-153.061458295068
 30
0.0
  0
SPLINE
  5
80
330
1F
100
AcDbEntity
  8
_U+30EC_U+30A4_U+30E4_U+30FC 1
 62
     7
420
 16777215
370
     9
100
AcDbSpline
210
0.0
220
0.0
230
1.0
 70
    11
 71
     3
 72
    17
 73
    13
 74
     0
 42
0.0000000001
 43
0.0000000001
 12
1.0
 22
0.0
 32
0.0
 13
1.0
 23
0.0
 33
0.0
 40
0.0
 40
0.0
 40
0.0
 40
0.0
 40
1.0
 40
1.0
 40
1.0
 40
2.0
 40
2.0
 40
2.0
 40
3.0
 40
3.0
 40
3.0
 40
4.0
 40
4.0
 40
4.0
 40
4.0
 10
107.1989686540154
 20
-153.5609916282762
 30
0.0
 10
107.1989686540154
 20
-153.5058877394013
 30
0.0
 10
107.1541658773806
 20
-153.4610849616345
 30
0.0
 10
107.0990619898975
 20
-153.4610849616345
 30
0.0
 10
107.0439228246376
 20
-153.4610849616345
 30
0.0
 10
106.9991553257797
 20
-153.5058877394013
 30
0.0
 10
106.9991553257797
 20
-153.5609916282762
 30
0.0
 10
106.9991553257797
 20
-153.6161307949292
 30
0.0
 10
107.0439228246376
 20
-153.6608982949178
 30
0.0
 10
107.0990619898975
 20
-153.6608982949178
 30
0.0
 10
107.1541658773806
 20
-153.6608982949178
 30
0.0
 10
107.1989686540154
 20
-153.6161307949292
 30
0.0
 10
107.1989686540154
 20
-153.5609916282762
 30
0.0
  0
SPLINE
  5
81
330
1F
100
AcDbEntity
  8
_U+30EC_U+30A4_U+30E4_U+30FC 1
 62
     7
420
 16777215
370
     9
100
AcDbSpline
210
0.0
220
0.0
230
1.0
 70
    11
 71
     3
 72
    17
 73
    13
 74
     0
 42
0.0000000001
 43
0.0000000001
 12
1.0
 22
0.0
 32
0.0
 13
1.0
 23
0.0
 33
0.0
 40
0.0
 40
0.0
 40
0.0
 40
0.0
 40
1.0
 40
1.0
 40
1.0
 40
2.0
 40
2.0
 40
2.0
 40
3.0
 40
3.0
 40
3.0
 40
4.0
 40
4.0
 40
4.0
 40
4.0
 10
87.19950305313311
 20
-138.0615235765956
 30
0.0
 10
87.19950305313311
 20
-138.0057141321652
 30
0.0
 10
87.15470027649836
 20
-137.9609113543988
 30
0.0
 10
87.09959638901529
 20
-137.9609113543988
 30
0.0
 10
87.04378694599465
 20
-137.9609113543988
 30
0.0
 10
86.99898416935989
 20
-138.0057141321652
 30
0.0
 10
86.99898416935989
 20
-138.0615235765956
 30
0.0
 10
86.99898416935989
 20
-138.1166274654709
 30
0.0
 10
87.04378694599465
 20
-138.1614302432376
 30
0.0
 10
87.09959638901529
 20
-138.1614302432376
 30
0.0
 10
87.15470027649836
 20
-138.1614302432376
 30
0.0
 10
87.19950305313311
 20
-138.1166274654709
 30
0.0
 10
87.19950305313311
 20
-138.0615235765956
 30
0.0
  0
SPLINE
  5
82
330
1F
100
AcDbEntity
  8
_U+30EC_U+30A4_U+30E4_U+30FC 1
 62
     7
420
 16777215
370
     9
100
AcDbSpline
210
0.0
220
0.0
230
1.0
 70
    11
 71
     3
 72
    17
 73
    13
 74
     0
 42
0.0000000001
 43
0.0000000001
 12
1.0
 22
0.0
 32
0.0
 13
1.0
 23
0.0
 33
0.0
 40
0.0
 40
0.0
 40
0.0
 40
0.0
 40
1.0
 40
1.0
 40
1.0
 40
2.0
 40
2.0
 40
2.0
 40
3.0
 40
3.0
 40
3.0
 40
4.0
 40
4.0
 40
4.0
 40
4.0
 10
87.19950305313311
 20
-158.0609896827067
 30
0.0
 10
87.19950305313311
 20
-158.0058505160543
 30
0.0
 10
87.15470027649836
 20
-157.9610830160651
 30
0.0
 10
87.09959638901529
 20
-157.9610830160651
 30
0.0
 10
87.04378694599465
 20
-157.9610830160651
 30
0.0
 10
86.99898416935989
 20
-158.0058505160543
 30
0.0
 10
86.99898416935989
 20
-158.0609896827067
 30
0.0
 10
86.99898416935989
 20
-158.1160935715823
 30
0.0
 10
87.04378694599465
 20
-158.1608963493484
 30
0.0
 10
87.09959638901529
 20
-158.1608963493484
 30
0.0
 10
87.15470027649836
 20
-158.1608963493484
 30
0.0
 10
87.19950305313311
 20
-158.1160935715823
 30
0.0
 10
87.19950305313311
 20
-158.0609896827067
 30
0.0
  0
POLYLINE
  5
83
330
1F
100
AcDbEntity
  8
_U+30EC_U+30A4_U+30E4_U+30FC 1
 62
     7
420
 16777215
370
     9
100
AcDb2dPolyline
 66
     1
 10
0.0
 20
0.0
 30
0.0
  0
VERTEX
  5
84
330
83
100
AcDbEntity
  8
_U+30EC_U+30A4_U+30E4_U+30FC 1
 62
     7
420
 16777215
370
     9
100
AcDbVertex
100
AcDb2dVertex
 10
122.0997018849771
 20
-142.0612827422625
 30
0.0
  0
VERTEX
  5
85
330
83
100
AcDbEntity
  8
_U+30EC_U+30A4_U+30E4_U+30FC 1
 62
     7
420
 16777215
370
     9
100
AcDbVertex
100
AcDb2dVertex
 10
122.0997018849771
 20
-138.2909702432051
 30
0.0
  0
SEQEND
  5
86
330
83
100
AcDbEntity
  8
_U+30EC_U+30A4_U+30E4_U+30FC 1
 62
     7
420
 16777215
370
     9
  0
POLYLINE
  5
87
330
1F
100
AcDbEntity
  8
_U+30EC_U+30A4_U+30E4_U+30FC 1
 62
     7
420
 16777215
370
     9
100
AcDb2dPolyline
 66
     1
 10
0.0
 20
0.0
 30
0.0
  0
VERTEX
  5
88
330
87
100
AcDbEntity
  8
_U+30EC_U+30A4_U+30E4_U+30FC 1
 62
     7
420
 16777215
370
     9
100
AcDbVertex
100
AcDb2dVertex
 10
122.0997018849771
 20
-142.0612827422625
 30
0.0
  0
VERTEX
  5
89
330
87
100
AcDbEntity
  8
_U+30EC_U+30A4_U+30E4_U+30FC 1
 62
     7
420
 16777215
370
     9
100
AcDbVertex
100
AcDb2dVertex
 10
122.0997018849771
 20
-143.0610196864569
 30
0.0
  0
SEQEND
  5
8A
330
87
100
AcDbEntity
  8
_U+30EC_U+30A4_U+30E4_U+30FC 1
 62
     7
420
 16777215
370
     9
  0
POLYLINE
  5
8B
330
1F
100
AcDbEntity
  8
_U+30EC_U+30A4_U+30E4_U+30FC 1
 62
     7
420
 16777215
370
     9
100
AcDb2dPolyline
 66
     1
 10
0.0
 20
0.0
 30
0.0
  0
VERTEX
  5
8C
330
8B
100
AcDbEntity
  8
_U+30EC_U+30A4_U+30E4_U+30FC 1
 62
     7
420
 16777215
370
     9
100
AcDbVertex
100
AcDb2dVertex
 10
120.639660533337
 20
-142.0612827422625
 30
0.0
  0
VERTEX
  5
8D
330
8B
100
AcDbEntity
  8
_U+30EC_U+30A4_U+30E4_U+30FC 1
 62
     7
420
 16777215
370
     9
100
AcDbVertex
100
AcDb2dVertex
 10
123.099474081693
 20
-142.0612827422625
 30
0.0
  0
SEQEND
  5
8E
330
8B
100
AcDbEntity
  8
_U+30EC_U+30A4_U+30E4_U+30FC 1
 62
     7
420
 16777215
370
     9
  0
POLYLINE
  5
8F
330
1F
100
AcDbEntity
  8
_U+30EC_U+30A4_U+30E4_U+30FC 1
 62
     7
420
 16777215
370
     9
100
AcDb2dPolyline
 66
     1
 10
0.0
 20
0.0
 30
0.0
  0
VERTEX
  5
90
330
8F
100
AcDbEntity
  8
_U+30EC_U+30A4_U+30E4_U+30FC 1
 62
     7
420
 16777215
370
     9
100
AcDbVertex
100
AcDb2dVertex
 10
120.639660533337
 20
-143.0610196864569
 30
0.0
  0
VERTEX
  5
91
330
8F
100
AcDbEntity
  8
_U+30EC_U+30A4_U+30E4_U+30FC 1
 62
     7
420
 16777215
370
     9
100
AcDbVertex
100
AcDb2dVertex
 10
123.099474081693
 20
-143.0610196864569
 30
0.0
  0
SEQEND
  5
92
330
8F
100
AcDbEntity
  8
_U+30EC_U+30A4_U+30E4_U+30FC 1
 62
     7
420
 16777215
370
     9
  0
INSERT
  5
94
330
1F
100
AcDbEntity
  8
_U+30EC_U+30A4_U+30E4_U+30FC 1
100
AcDbBlockReference
  2
block 2
 10
0.0
 20
0.0
 30
0.0
  0
POLYLINE
  5
99
330
1F
100
AcDbEntity
  8
_U+30EC_U+30A4_U+30E4_U+30FC 1
 62
     7
420
 16777215
370
     9
100
AcDb2dPolyline
 66
     1
 10
0.0
 20
0.0
 30
0.0
  0
VERTEX
  5
9A
330
99
100
AcDbEntity
  8
_U+30EC_U+30A4_U+30E4_U+30FC 1
 62
     7
420
 16777215
370
     9
100
AcDbVertex
100
AcDb2dVertex
 10
122.0997018849771
 20
-143.0610196864569
 30
0.0
  0
VERTEX
  5
9B
330
99
100
AcDbEntity
  8
_U+30EC_U+30A4_U+30E4_U+30FC 1
 62
     7
420
 16777215
370
     9
100
AcDbVertex
100
AcDb2dVertex
 10
122.0997018849771
 20
-153.061458295068
 30
0.0
  0
SEQEND
  5
9C
330
99
100
AcDbEntity
  8
_U+30EC_U+30A4_U+30E4_U+30FC 1
 62
     7
420
 16777215
370
     9
  0
POLYLINE
  5
9D
330
1F
100
AcDbEntity
  8
_U+30EC_U+30A4_U+30E4_U+30FC 1
 62
     7
420
 16777215
370
     9
100
AcDb2dPolyline
 66
     1
 10
0.0
 20
0.0
 30
0.0
  0
VERTEX
  5
9E
330
9D
100
AcDbEntity
  8
_U+30EC_U+30A4_U+30E4_U+30FC 1
 62
     7
420
 16777215
370
     9
100
AcDbVertex
100
AcDb2dVertex
 10
105.6390206382574
 20
-153.061458295068
 30
0.0
  0
VERTEX
  5
9F
330
9D
100
AcDbEntity
  8
_U+30EC_U+30A4_U+30E4_U+30FC 1
 62
     7
420
 16777215
370
     9
100
AcDbVertex
100
AcDb2dVertex
 10
123.099474081693
 20
-153.061458295068
 30
0.0
  0
SEQEND
  5
A0
330
9D
100
AcDbEntity
  8
_U+30EC_U+30A4_U+30E4_U+30FC 1
 62
     7
420
 16777215
370
     9
  0
INSERT
  5
A2
330
1F
100
AcDbEntity
  8
_U+30EC_U+30A4_U+30E4_U+30FC 1
100
AcDbBlockReference
  2
block 3
 10
0.0
 20
0.0
 30
0.0
  0
POLYLINE
  5
AA
330
1F
100
AcDbEntity
  8
_U+30EC_U+30A4_U+30E4_U+30FC 1
 62
     7
420
 16777215
370
     9
100
AcDb2dPolyline
 66
     1
 10
0.0
 20
0.0
 30
0.0
  0
VERTEX
  5
AB
330
AA
100
AcDbEntity
  8
_U+30EC_U+30A4_U+30E4_U+30FC 1
 62
     7
420
 16777215
370
     9
100
AcDbVertex
100
AcDb2dVertex
 10
93.09974651371648
 20
-158.0609896827067
 30
0.0
  0
VERTEX
  5
AC
330
AA
100
AcDbEntity
  8
_U+30EC_U+30A4_U+30E4_U+30FC 1
 62
     7
420
 16777215
370
     9
100
AcDbVertex
100
AcDb2dVertex
 10
103.0994793141576
 20
-158.0609896827067
 30
0.0
  0
SEQEND
  5
AD
330
AA
100
AcDbEntity
  8
_U+30EC_U+30A4_U+30E4_U+30FC 1
 62
     7
420
 16777215
370
     9
  0
POLYLINE
  5
AE
330
1F
100
AcDbEntity
  8
_U+30EC_U+30A4_U+30E4_U+30FC 1
 62
     7
420
 16777215
370
     9
100
AcDb2dPolyline
 66
     1
 10
0.0
 20
0.0
 30
0.0
  0
VERTEX
  5
AF
330
AE
100
AcDbEntity
  8
_U+30EC_U+30A4_U+30E4_U+30FC 1
 62
     7
420
 16777215
370
     9
100
AcDbVertex
100
AcDb2dVertex
 10
93.09974651371648
 20
-156.600948294183
 30
0.0
  0
VERTEX
  5
B0
330
AE
100
AcDbEntity
  8
_U+30EC_U+30A4_U+30E4_U+30FC 1
 62
     7
420
 16777215
370
     9
100
AcDbVertex
100
AcDb2dVertex
 10
93.09974651371648
 20
-159.0614321824567
 30
0.0
  0
SEQEND
  5
B1
330
AE
100
AcDbEntity
  8
_U+30EC_U+30A4_U+30E4_U+30FC 1
 62
     7
420
 16777215
370
     9
  0
POLYLINE
  5
B2
330
1F
100
AcDbEntity
  8
_U+30EC_U+30A4_U+30E4_U+30FC 1
 62
     7
420
 16777215
370
     9
100
AcDb2dPolyline
 66
     1
 10
0.0
 20
0.0
 30
0.0
  0
VERTEX
  5
B3
330
B2
100
AcDbEntity
  8
_U+30EC_U+30A4_U+30E4_U+30FC 1
 62
     7
420
 16777215
370
     9
100
AcDbVertex
100
AcDb2dVertex
 10
103.0994793141576
 20
-155.9008960721361
 30
0.0
  0
VERTEX
  5
B4
330
B2
100
AcDbEntity
  8
_U+30EC_U+30A4_U+30E4_U+30FC 1
 62
     7
420
 16777215
370
     9
100
AcDbVertex
100
AcDb2dVertex
 10
103.0994793141576
 20
-159.0614321824567
 30
0.0
  0
SEQEND
  5
B5
330
B2
100
AcDbEntity
  8
_U+30EC_U+30A4_U+30E4_U+30FC 1
 62
     7
420
 16777215
370
     9
  0
INSERT
  5
B7
330
1F
100
AcDbEntity
  8
_U+30EC_U+30A4_U+30E4_U+30FC 1
100
AcDbBlockReference
  2
block 4
 10
0.0
 20
0.0
 30
0.0
  0
POLYLINE
  5
BF
330
1F
100
AcDbEntity
  8
_U+30EC_U+30A4_U+30E4_U+30FC 1
 62
     7
420
 16777215
370
     9
100
AcDb2dPolyline
 66
     1
 10
0.0
 20
0.0
 30
0.0
  0
VERTEX
  5
C0
330
BF
100
AcDbEntity
  8
_U+30EC_U+30A4_U+30E4_U+30FC 1
 62
     7
420
 16777215
370
     9
100
AcDbVertex
100
AcDb2dVertex
 10
87.09959638901529
 20
-158.0609896827067
 30
0.0
  0
VERTEX
  5
C1
330
BF
100
AcDbEntity
  8
_U+30EC_U+30A4_U+30E4_U+30FC 1
 62
     7
420
 16777215
370
     9
100
AcDbVertex
100
AcDb2dVertex
 10
93.09974651371648
 20
-158.0609896827067
 30
0.0
  0
SEQEND
  5
C2
330
BF
100
AcDbEntity
  8
_U+30EC_U+30A4_U+30E4_U+30FC 1
 62
     7
420
 16777215
370
     9
  0
POLYLINE
  5
C3
330
1F
100
AcDbEntity
  8
_U+30EC_U+30A4_U+30E4_U+30FC 1
 62
     7
420
 16777215
370
     9
100
AcDb2dPolyline
 66
     1
 10
0.0
 20
0.0
 30
0.0
  0
VERTEX
  5
C4
330
C3
100
AcDbEntity
  8
_U+30EC_U+30A4_U+30E4_U+30FC 1
 62
     7
420
 16777215
370
     9
100
AcDbVertex
100
AcDb2dVertex
 10
87.09959638901529
 20
-145.6014430191553
 30
0.0
  0
VERTEX
  5
C5
330
C3
100
AcDbEntity
  8
_U+30EC_U+30A4_U+30E4_U+30FC 1
 62
     7
420
 16777215
370
     9
100
AcDbVertex
100
AcDb2dVertex
 10
87.09959638901529
 20
-159.0614321824567
 30
0.0
  0
SEQEND
  5
C6
330
C3
100
AcDbEntity
  8
_U+30EC_U+30A4_U+30E4_U+30FC 1
 62
     7
420
 16777215
370
     9
  0
INSERT
  5
C8
330
1F
100
AcDbEntity
  8
_U+30EC_U+30A4_U+30E4_U+30FC 1
100
AcDbBlockReference
  2
block 5
 10
0.0
 20
0.0
 30
0.0
  0
POLYLINE
  5
CE
330
1F
100
AcDbEntity
  8
_U+30EC_U+30A4_U+30E4_U+30FC 1
 62
     7
420
 16777215
370
     9
100
AcDb2dPolyline
 66
     1
 10
0.0
 20
0.0
 30
0.0
  0
VERTEX
  5
CF
330
CE
100
AcDbEntity
  8
_U+30EC_U+30A4_U+30E4_U+30FC 1
 62
     7
420
 16777215
370
     9
100
AcDbVertex
100
AcDb2dVertex
 10
118.0992372648152
 20
-138.0615235765956
 30
0.0
  0
VERTEX
  5
D0
330
CE
100
AcDbEntity
  8
_U+30EC_U+30A4_U+30E4_U+30FC 1
 62
     7
420
 16777215
370
     9
100
AcDbVertex
100
AcDb2dVertex
 10
87.09959638901529
 20
-138.0615235765956
 30
0.0
  0
SEQEND
  5
D1
330
CE
100
AcDbEntity
  8
_U+30EC_U+30A4_U+30E4_U+30FC 1
 62
     7
420
 16777215
370
     9
  0
POLYLINE
  5
D2
330
1F
100
AcDbEntity
  8
_U+30EC_U+30A4_U+30E4_U+30FC 1
 62
     7
420
 16777215
370
     9
100
AcDb2dPolyline
 66
     1
 10
0.0
 20
0.0
 30
0.0
  0
VERTEX
  5
D3
330
D2
100
AcDbEntity
  8
_U+30EC_U+30A4_U+30E4_U+30FC 1
 62
     7
420
 16777215
370
     9
100
AcDbVertex
100
AcDb2dVertex
 10
118.0992372648152
 20
-139.5208594095641
 30
0.0
  0
VERTEX
  5
D4
330
D2
100
AcDbEntity
  8
_U+30EC_U+30A4_U+30E4_U+30FC 1
 62
     7
420
 16777215
370
     9
100
AcDbVertex
100
AcDb2dVertex
 10
118.0992372648152
 20
-137.0610457990682
 30
0.0
  0
SEQEND
  5
D5
330
D2
100
AcDbEntity
  8
_U+30EC_U+30A4_U+30E4_U+30FC 1
 62
     7
420
 16777215
370
     9
  0
POLYLINE
  5
D6
330
1F
100
AcDbEntity
  8
_U+30EC_U+30A4_U+30E4_U+30FC 1
 62
     7
420
 16777215
370
     9
100
AcDb2dPolyline
 66
     1
 10
0.0
 20
0.0
 30
0.0
  0
VERTEX
  5
D7
330
D6
100
AcDbEntity
  8
_U+30EC_U+30A4_U+30E4_U+30FC 1
 62
     7
420
 16777215
370
     9
100
AcDbVertex
100
AcDb2dVertex
 10
87.09959638901529
 20
-139.5208594095641
 30
0.0
  0
VERTEX
  5
D8
330
D6
100
AcDbEntity
  8
_U+30EC_U+30A4_U+30E4_U+30FC 1
 62
     7
420
 16777215
370
     9
100
AcDbVertex
100
AcDb2dVertex
 10
87.09959638901529
 20
-137.0610457990682
 30
0.0
  0
SEQEND
  5
D9
330
D6
100
AcDbEntity
  8
_U+30EC_U+30A4_U+30E4_U+30FC 1
 62
     7
420
 16777215
370
     9
  0
INSERT
  5
DB
330
1F
100
AcDbEntity
  8
_U+30EC_U+30A4_U+30E4_U+30FC 1
100
AcDbBlockReference
  2
block 6
 10
0.0
 20
0.0
 30
0.0
  0
POLYLINE
  5
E2
330
1F
100
AcDbEntity
  8
_U+30EC_U+30A4_U+30E4_U+30FC 1
 62
     7
420
 16777215
370
     9
100
AcDb2dPolyline
 66
     1
 10
0.0
 20
0.0
 30
0.0
  0
VERTEX
  5
E3
330
E2
100
AcDbEntity
  8
_U+30EC_U+30A4_U+30E4_U+30FC 1
 62
     7
420
 16777215
370
     9
100
AcDbVertex
100
AcDb2dVertex
 10
107.0990619898975
 20
-153.061458295068
 30
0.0
  0
VERTEX
  5
E4
330
E2
100
AcDbEntity
  8
_U+30EC_U+30A4_U+30E4_U+30FC 1
 62
     7
420
 16777215
370
     9
100
AcDbVertex
100
AcDb2dVertex
 10
107.0990619898975
 20
-147.8035524630491
 30
0.0
  0
SEQEND
  5
E5
330
E2
100
AcDbEntity
  8
_U+30EC_U+30A4_U+30E4_U+30FC 1
 62
     7
420
 16777215
370
     9
  0
POLYLINE
  5
E6
330
1F
100
AcDbEntity
  8
_U+30EC_U+30A4_U+30E4_U+30FC 1
 62
     7
420
 16777215
370
     9
100
AcDb2dPolyline
 66
     1
 10
0.0
 20
0.0
 30
0.0
  0
VERTEX
  5
E7
330
E6
100
AcDbEntity
  8
_U+30EC_U+30A4_U+30E4_U+30FC 1
 62
     7
420
 16777215
370
     9
100
AcDbVertex
100
AcDb2dVertex
 10
107.0990619898975
 20
-153.061458295068
 30
0.0
  0
VERTEX
  5
E8
330
E6
100
AcDbEntity
  8
_U+30EC_U+30A4_U+30E4_U+30FC 1
 62
     7
420
 16777215
370
     9
100
AcDbVertex
100
AcDb2dVertex
 10
107.0990619898975
 20
-154.5614694058042
 30
0.0
  0
SEQEND
  5
E9
330
E6
100
AcDbEntity
  8
_U+30EC_U+30A4_U+30E4_U+30FC 1
 62
     7
420
 16777215
370
     9
  0
POLYLINE
  5
EA
330
1F
100
AcDbEntity
  8
_U+30EC_U+30A4_U+30E4_U+30FC 1
 62
     7
420
 16777215
370
     9
100
AcDb2dPolyline
 66
     1
 10
0.0
 20
0.0
 30
0.0
  0
VERTEX
  5
EB
330
EA
100
AcDbEntity
  8
_U+30EC_U+30A4_U+30E4_U+30FC 1
 62
     7
420
 16777215
370
     9
100
AcDbVertex
100
AcDb2dVertex
 10
105.6390206382574
 20
-153.061458295068
 30
0.0
  0
VERTEX
  5
EC
330
EA
100
AcDbEntity
  8
_U+30EC_U+30A4_U+30E4_U+30FC 1
 62
     7
420
 16777215
370
     9
100
AcDbVertex
100
AcDb2dVertex
 10
108.0995044643741
 20
-153.061458295068
 30
0.0
  0
SEQEND
  5
ED
330
EA
100
AcDbEntity
  8
_U+30EC_U+30A4_U+30E4_U+30FC 1
 62
     7
420
 16777215
370
     9
  0
POLYLINE
  5
EE
330
1F
100
AcDbEntity
  8
_U+30EC_U+30A4_U+30E4_U+30FC 1
 62
     7
420
 16777215
370
     9
100
AcDb2dPolyline
 66
     1
 10
0.0
 20
0.0
 30
0.0
  0
VERTEX
  5
EF
330
EE
100
AcDbEntity
  8
_U+30EC_U+30A4_U+30E4_U+30FC 1
 62
     7
420
 16777215
370
     9
100
AcDbVertex
100
AcDb2dVertex
 10
105.6390206382574
 20
-153.5609916282762
 30
0.0
  0
VERTEX
  5
F0
330
EE
100
AcDbEntity
  8
_U+30EC_U+30A4_U+30E4_U+30FC 1
 62
     7
420
 16777215
370
     9
100
AcDbVertex
100
AcDb2dVertex
 10
108.0995044643741
 20
-153.5609916282762
 30
0.0
  0
SEQEND
  5
F1
330
EE
100
AcDbEntity
  8
_U+30EC_U+30A4_U+30E4_U+30FC 1
 62
     7
420
 16777215
370
     9
  0
INSERT
  5
F3
330
1F
100
AcDbEntity
  8
_U+30EC_U+30A4_U+30E4_U+30FC 1
100
AcDbBlockReference
  2
block 7
 10
0.0
 20
0.0
 30
0.0
  0
POLYLINE
  5
103
330
1F
100
AcDbEntity
  8
_U+30EC_U+30A4_U+30E4_U+30FC 1
 62
     7
420
 16777215
370
     9
100
AcDb2dPolyline
 66
     1
 10
0.0
 20
0.0
 30
0.0
  0
VERTEX
  5
104
330
103
100
AcDbEntity
  8
_U+30EC_U+30A4_U+30E4_U+30FC 1
 62
     7
420
 16777215
370
     9
100
AcDbVertex
100
AcDb2dVertex
 10
103.0994793141576
 20
-154.0371005170465
 30
0.0
  0
VERTEX
  5
105
330
103
100
AcDbEntity
  8
_U+30EC_U+30A4_U+30E4_U+30FC 1
 62
     7
420
 16777215
370
     9
100
AcDbVertex
100
AcDb2dVertex
 10
106.756620609745
 20
-157.0853474607289
 30
0.0
  0
SEQEND
  5
106
330
103
100
AcDbEntity
  8
_U+30EC_U+30A4_U+30E4_U+30FC 1
 62
     7
420
 16777215
370
     9
  0
INSERT
  5
108
330
1F
100
AcDbEntity
  8
_U+30EC_U+30A4_U+30E4_U+30FC 1
100
AcDbBlockReference
  2
block 8
 10
0.0
 20
0.0
 30
0.0
  0
POLYLINE
  5
145
330
1F
100
AcDbEntity
  8
_U+30EC_U+30A4_U+30E4_U+30FC 1
  6
AI-Linetype-1
 62
   154
420
    23468
370
    25
100
AcDb2dPolyline
 66
     1
 10
0.0
 20
0.0
 30
0.0
  0
VERTEX
  5
146
330
145
100
AcDbEntity
  8
_U+30EC_U+30A4_U+30E4_U+30FC 1
  6
AI-Linetype-1
 62
   154
420
    23468
370
    25
100
AcDbVertex
100
AcDb2dVertex
 10
87.09959638901529
 20
-143.5612585752209
 30
0.0
  0
VERTEX
  5
147
330
145
100
AcDbEntity
  8
_U+30EC_U+30A4_U+30E4_U+30FC 1
  6
AI-Linetype-1
 62
   154
420
    23468
370
    25
100
AcDbVertex
100
AcDb2dVertex
 10
92.59950763758975
 20
-143.5612585752209
 30
0.0
  0
VERTEX
  5
148
330
145
100
AcDbEntity
  8
_U+30EC_U+30A4_U+30E4_U+30FC 1
  6
AI-Linetype-1
 62
   154
420
    23468
370
    25
100
AcDbVertex
100
AcDb2dVertex
 10
92.59950763758975
 20
-154.5614694058042
 30
0.0
  0
VERTEX
  5
149
330
145
100
AcDbEntity
  8
_U+30EC_U+30A4_U+30E4_U+30FC 1
  6
AI-Linetype-1
 62
   154
420
    23468
370
    25
100
AcDbVertex
100
AcDb2dVertex
 10
103.0994793141576
 20
-154.0371005170465
 30
0.0
  0
SEQEND
  5
14B
330
145
100
AcDbEntity
  8
_U+30EC_U+30A4_U+30E4_U+30FC 1
  6
AI-Linetype-1
 62
   154
420
    23468
370
    25
  0
ENDSEC
  0
SECTION
  2
OBJECTS
  0
DICTIONARY
  5
C
330
0
100
AcDbDictionary
281
     1
  3
ACAD_GROUP
350
D
  3
ACAD_LAYOUT
350
1A
  3
ACAD_MATERIAL
350
3B
  3
ACAD_MLEADERSTYLE
350
14D
  3
ACAD_MLINESTYLE
350
17
  3
ACAD_PLOTSETTINGS
350
19
  3
ACAD_PLOTSTYLENAME
350
E
  3
ACAD_TABLESTYLE
350
14C
  3
ACAD_VISUALSTYLE
350
2A
  0
SUN
  5
3F
330
29
100
AcDbSun
 90
        1
290
     0
 63
     7
421
 16777215
 40
1.0
291
     1
 91
  2455826
 92
 54000000
292
     0
 70
     2
 71
   256
280
     1
  0
DICTIONARY
  5
D
102
{ACAD_REACTORS
330
C
102
}
330
C
100
AcDbDictionary
281
     1
  0
DICTIONARY
  5
1A
102
{ACAD_REACTORS
330
C
102
}
330
C
100
AcDbDictionary
281
     1
  3
Layout1
350
1E
  3
Layout2
350
26
  3
Model
350
22
  0
DICTIONARY
  5
3B
102
{ACAD_REACTORS
330
C
102
}
330
C
100
AcDbDictionary
281
     1
  3
ByBlock
350
3D
  3
ByLayer
350
3C
  3
Global
350
3E
  0
DICTIONARY
  5
14D
102
{ACAD_REACTORS
330
C
102
}
330
C
100
AcDbDictionary
281
     1
  0
DICTIONARY
  5
17
102
{ACAD_REACTORS
330
C
102
}
330
C
100
AcDbDictionary
281
     1
  3
Standard
350
18
  0
DICTIONARY
  5
19
102
{ACAD_REACTORS
330
C
102
}
330
C
100
AcDbDictionary
281
     1
  0
ACDBDICTIONARYWDFLT
  5
E
102
{ACAD_REACTORS
330
C
102
}
330
C
100
AcDbDictionary
281
     1
  3
Normal
350
F
100
AcDbDictionaryWithDefault
340
F
  0
DICTIONARY
  5
14C
102
{ACAD_REACTORS
330
C
102
}
330
C
100
AcDbDictionary
281
     1
  0
DICTIONARY
  5
2A
102
{ACAD_REACTORS
330
C
102
}
330
C
100
AcDbDictionary
281
     1
  3
2dWireframe
350
2F
  3
3D Hidden
350
31
  3
3dWireframe
350
30
  3
Basic
350
32
  3
Brighten
350
36
  3
ColorChange
350
3A
  3
Conceptual
350
34
  3
Dim
350
35
  3
Facepattern
350
39
  3
Flat
350
2B
  3
FlatWithEdges
350
2C
  3
Gouraud
350
2D
  3
GouraudWithEdges
350
2E
  3
Linepattern
350
38
  3
Realistic
350
33
  3
Thicken
350
37
  0
LAYOUT
  5
1E
102
{ACAD_REACTORS
330
1A
102
}
330
1A
100
AcDbPlotSettings
  1

  2
none_device
  4

  6

 40
0.0
 41
0.0
 42
0.0
 43
0.0
 44
0.0
 45
0.0
 46
0.0
 47
0.0
 48
0.0
 49
0.0
140
0.0
141
0.0
142
1.0
143
1.0
 70
   688
 72
     0
 73
     0
 74
     5
  7

 75
    16
 76
     0
 77
     2
 78
   300
147
1.0
148
0.0
149
0.0
100
AcDbLayout
  1
Layout1
 70
     1
 71
     1
 10
0.0
 20
0.0
 11
12.0
 21
9.0
 12
0.0
 22
0.0
 32
0.0
 14
1.000000000000000E+20
 24
1.000000000000000E+20
 34
1.000000000000000E+20
 15
-1.000000000000000E+20
 25
-1.000000000000000E+20
 35
-1.000000000000000E+20
146
0.0
 13
0.0
 23
0.0
 33
0.0
 16
1.0
 26
0.0
 36
0.0
 17
0.0
 27
1.0
 37
0.0
 76
     0
330
1B
  0
LAYOUT
  5
26
102
{ACAD_REACTORS
330
1A
102
}
330
1A
100
AcDbPlotSettings
  1

  2
none_device
  4

  6

 40
0.0
 41
0.0
 42
0.0
 43
0.0
 44
0.0
 45
0.0
 46
0.0
 47
0.0
 48
0.0
 49
0.0
140
0.0
141
0.0
142
1.0
143
1.0
 70
   688
 72
     0
 73
     0
 74
     5
  7

 75
    16
 76
     0
 77
     2
 78
   300
147
1.0
148
0.0
149
0.0
100
AcDbLayout
  1
Layout2
 70
     1
 71
     2
 10
0.0
 20
0.0
 11
0.0
 21
0.0
 12
0.0
 22
0.0
 32
0.0
 14
0.0
 24
0.0
 34
0.0
 15
0.0
 25
0.0
 35
0.0
146
0.0
 13
0.0
 23
0.0
 33
0.0
 16
1.0
 26
0.0
 36
0.0
 17
0.0
 27
1.0
 37
0.0
 76
     0
330
23
  0
LAYOUT
  5
22
102
{ACAD_REACTORS
330
1A
102
}
330
1A
100
AcDbPlotSettings
  1

  2
none_device
  4

  6

 40
0.0
 41
0.0
 42
0.0
 43
0.0
 44
0.0
 45
0.0
 46
0.0
 47
0.0
 48
0.0
 49
0.0
140
0.0
141
0.0
142
1.0
143
1.0
 70
  1712
 72
     0
 73
     0
 74
     0
  7

 75
     0
 76
     0
 77
     2
 78
   300
147
1.0
148
0.0
149
0.0
100
AcDbLayout
  1
Model
 70
     1
 71
     0
 10
0.0
 20
0.0
 11
12.0
 21
9.0
 12
0.0
 22
0.0
 32
0.0
 14
1.000000000000000E+20
 24
1.000000000000000E+20
 34
1.000000000000000E+20
 15
-1.000000000000000E+20
 25
-1.000000000000000E+20
 35
-1.000000000000000E+20
146
0.0
 13
0.0
 23
0.0
 33
0.0
 16
1.0
 26
0.0
 36
0.0
 17
0.0
 27
1.0
 37
0.0
 76
     0
330
1F
331
29
  0
MATERIAL
  5
3D
102
{ACAD_REACTORS
330
3B
102
}
330
3B
100
AcDbMaterial
  1
ByBlock
 72
     1
 94
      127
  0
MATERIAL
  5
3C
102
{ACAD_REACTORS
330
3B
102
}
330
3B
100
AcDbMaterial
  1
ByLayer
 72
     1
 94
      127
  0
MATERIAL
  5
3E
102
{ACAD_REACTORS
330
3B
102
}
330
3B
100
AcDbMaterial
  1
Global
 72
     1
 94
      127
  0
MLINESTYLE
  5
18
102
{ACAD_REACTORS
330
17
102
}
330
17
100
AcDbMlineStyle
  2
Standard
 70
     0
  3

 62
   256
 51
90.0
 52
90.0
 71
     2
 49
0.5
 62
   256
  6
BYLAYER
 49
-0.5
 62
   256
  6
BYLAYER
  0
ACDBPLACEHOLDER
  5
F
102
{ACAD_REACTORS
330
E
102
}
330
E
  0
VISUALSTYLE
  5
2F
102
{ACAD_REACTORS
330
2A
102
}
330
2A
100
AcDbVisualStyle
  2
2dWireframe
 70
     4
177
     2
291
     0
 71
     0
176
     1
 72
     2
176
     1
 73
     0
176
     1
 90
        0
176
     1
 40
-0.6
176
     1
 41
-30.0
176
     1
 62
     5
 63
     7
421
 16777215
176
     1
 74
     1
176
     1
 91
        4
176
     1
 64
     7
176
     1
 65
   257
176
     1
 75
     1
176
     1
175
     1
176
     1
 42
1.0
176
     1
 92
        0
176
     1
 66
   257
176
     1
 43
1.0
176
     1
 76
     1
176
     1
 77
     6
176
     1
 78
     2
176
     1
 67
     7
176
     1
 79
     5
176
     1
170
     0
176
     1
171
     0
176
     1
290
     0
176
     1
 93
        1
176
     1
 44
0.0
176
     1
173
     0
176
     1
  0
VISUALSTYLE
  5
31
102
{ACAD_REACTORS
330
2A
102
}
330
2A
100
AcDbVisualStyle
  2
3D Hidden
 70
     6
177
     2
291
     0
 71
     1
176
     1
 72
     2
176
     1
 73
     2
176
     1
 90
        0
176
     1
 40
-0.6
176
     1
 41
-30.0
176
     1
 62
     5
 63
     7
421
 16777215
176
     1
 74
     2
176
     1
 91
        2
176
     1
 64
     7
176
     1
 65
   257
176
     1
 75
     2
176
     1
175
     1
176
     1
 42
40.0
176
     1
 92
        0
176
     1
 66
   257
176
     1
 43
1.0
176
     1
 76
     1
176
     1
 77
     6
176
     1
 78
     2
176
     1
 67
     7
176
     1
 79
     3
176
     1
170
     0
176
     1
171
     0
176
     1
290
     0
176
     1
 93
        1
176
     1
 44
0.0
176
     1
173
     0
176
     1
  0
VISUALSTYLE
  5
30
102
{ACAD_REACTORS
330
2A
102
}
330
2A
100
AcDbVisualStyle
  2
3dWireframe
 70
     5
177
     2
291
     0
 71
     0
176
     1
 72
     2
176
     1
 73
     0
176
     1
 90
        0
176
     1
 40
-0.6
176
     1
 41
-30.0
176
     1
 62
     5
 63
     7
421
 16777215
176
     1
 74
     1
176
     1
 91
        4
176
     1
 64
     7
176
     1
 65
   257
176
     1
 75
     1
176
     1
175
     1
176
     1
 42
1.0
176
     1
 92
        0
176
     1
 66
   257
176
     1
 43
1.0
176
     1
 76
     1
176
     1
 77
     6
176
     1
 78
     2
176
     1
 67
     7
176
     1
 79
     5
176
     1
170
     0
176
     1
171
     0
176
     1
290
     0
176
     1
 93
        1
176
     1
 44
0.0
176
     1
173
     0
176
     1
  0
VISUALSTYLE
  5
32
102
{ACAD_REACTORS
330
2A
102
}
330
2A
100
AcDbVisualStyle
  2
Basic
 70
     7
177
     2
291
     1
 71
     1
176
     1
 72
     0
176
     1
 73
     1
176
     1
 90
        0
176
     1
 40
-0.6
176
     1
 41
-30.0
176
     1
 62
     5
 63
     7
421
 16777215
176
     1
 74
     0
176
     1
 91
        4
176
     1
 64
     7
176
     1
 65
   257
176
     1
 75
     1
176
     1
175
     1
176
     1
 42
1.0
176
     1
 92
        8
176
     1
 66
     7
176
     1
 43
1.0
176
     1
 76
     1
176
     1
 77
     6
176
     1
 78
     2
176
     1
 67
     7
176
     1
 79
     5
176
     1
170
     0
176
     1
171
     0
176
     1
290
     0
176
     1
 93
        1
176
     1
 44
0.0
176
     1
173
     0
176
     1
  0
VISUALSTYLE
  5
36
102
{ACAD_REACTORS
330
2A
102
}
330
2A
100
AcDbVisualStyle
  2
Brighten
 70
    12
177
     2
291
     1
 71
     2
176
     1
 72
     2
176
     1
 73
     0
176
     1
 90
        0
176
     1
 40
-0.6
176
     1
 41
-30.0
176
     1
 62
     5
 63
     7
421
 16777215
176
     1
 74
     1
176
     1
 91
        4
176
     1
 64
     7
176
     1
 65
   257
176
     1
 75
     1
176
     1
175
     1
176
     1
 42
1.0
176
     1
 92
        8
176
     1
 66
     7
176
     1
 43
1.0
176
     1
 76
     1
176
     1
 77
     6
176
     1
 78
     2
176
     1
 67
     7
176
     1
 79
     5
176
     1
170
     0
176
     1
171
     0
176
     1
290
     0
176
     1
 93
        1
176
     1
 44
50.0
176
     1
173
     0
176
     1
  0
VISUALSTYLE
  5
3A
102
{ACAD_REACTORS
330
2A
102
}
330
2A
100
AcDbVisualStyle
  2
ColorChange
 70
    16
177
     2
291
     1
 71
     2
176
     1
 72
     2
176
     1
 73
     3
176
     1
 90
        0
176
     1
 40
-0.6
176
     1
 41
-30.0
176
     1
 62
     5
 63
     8
421
  8421504
176
     1
 74
     1
176
     1
 91
        4
176
     1
 64
     7
176
     1
 65
   257
176
     1
 75
     1
176
     1
175
     1
176
     1
 42
1.0
176
     1
 92
        8
176
     1
 66
     8
424
  8421504
176
     1
 43
1.0
176
     1
 76
     1
176
     1
 77
     6
176
     1
 78
     2
176
     1
 67
     7
176
     1
 79
     5
176
     1
170
     0
176
     1
171
     0
176
     1
290
     0
176
     1
 93
        1
176
     1
 44
0.0
176
     1
173
     0
176
     1
  0
VISUALSTYLE
  5
34
102
{ACAD_REACTORS
330
2A
102
}
330
2A
100
AcDbVisualStyle
  2
Conceptual
 70
     9
177
     2
291
     0
 71
     3
176
     1
 72
     2
176
     1
 73
     0
176
     1
 90
        0
176
     1
 40
-0.6
176
     1
 41
-30.0
176
     1
 62
     5
 63
     7
421
 16777215
176
     1
 74
     2
176
     1
 91
        2
176
     1
 64
     7
176
     1
 65
   257
176
     1
 75
     1
176
     1
175
     1
176
     1
 42
40.0
176
     1
 92
        8
176
     1
 66
     7
176
     1
 43
1.0
176
     1
 76
     1
176
     1
 77
     6
176
     1
 78
     2
176
     1
 67
     7
176
     1
 79
     3
176
     1
170
     0
176
     1
171
     0
176
     1
290
     0
176
     1
 93
        1
176
     1
 44
0.0
176
     1
173
     0
176
     1
  0
VISUALSTYLE
  5
35
102
{ACAD_REACTORS
330
2A
102
}
330
2A
100
AcDbVisualStyle
  2
Dim
 70
    11
177
     2
291
     1
 71
     2
176
     1
 72
     2
176
     1
 73
     0
176
     1
 90
        0
176
     1
 40
-0.6
176
     1
 41
-30.0
176
     1
 62
     5
 63
     7
421
 16777215
176
     1
 74
     1
176
     1
 91
        4
176
     1
 64
     7
176
     1
 65
   257
176
     1
 75
     1
176
     1
175
     1
176
     1
 42
1.0
176
     1
 92
        8
176
     1
 66
     7
176
     1
 43
1.0
176
     1
 76
     1
176
     1
 77
     6
176
     1
 78
     2
176
     1
 67
     7
176
     1
 79
     5
176
     1
170
     0
176
     1
171
     0
176
     1
290
     0
176
     1
 93
        1
176
     1
 44
-50.0
176
     1
173
     0
176
     1
  0
VISUALSTYLE
  5
39
102
{ACAD_REACTORS
330
2A
102
}
330
2A
100
AcDbVisualStyle
  2
Facepattern
 70
    15
177
     2
291
     1
 71
     2
176
     1
 72
     2
176
     1
 73
     0
176
     1
 90
        0
176
     1
 40
-0.6
176
     1
 41
-30.0
176
     1
 62
     5
 63
     7
421
 16777215
176
     1
 74
     1
176
     1
 91
        4
176
     1
 64
     7
176
     1
 65
   257
176
     1
 75
     1
176
     1
175
     1
176
     1
 42
1.0
176
     1
 92
        8
176
     1
 66
     7
176
     1
 43
1.0
176
     1
 76
     1
176
     1
 77
     6
176
     1
 78
     2
176
     1
 67
     7
176
     1
 79
     5
176
     1
170
     0
176
     1
171
     0
176
     1
290
     0
176
     1
 93
        1
176
     1
 44
0.0
176
     1
173
     0
176
     1
  0
VISUALSTYLE
  5
2B
102
{ACAD_REACTORS
330
2A
102
}
330
2A
100
AcDbVisualStyle
  2
Flat
 70
     0
177
     2
291
     1
 71
     2
176
     1
 72
     1
176
     1
 73
     1
176
     1
 90
        2
176
     1
 40
-0.6
176
     1
 41
30.0
176
     1
 62
     5
 63
     7
421
 16777215
176
     1
 74
     0
176
     1
 91
        4
176
     1
 64
     7
176
     1
 65
   257
176
     1
 75
     1
176
     1
175
     1
176
     1
 42
1.0
176
     1
 92
        8
176
     1
 66
     7
176
     1
 43
1.0
176
     1
 76
     1
176
     1
 77
     6
176
     1
 78
     2
176
     1
 67
     7
176
     1
 79
     5
176
     1
170
     0
176
     1
171
     0
176
     1
290
     0
176
     1
 93
       13
176
     1
 44
0.0
176
     1
173
     0
176
     1
  0
VISUALSTYLE
  5
2C
102
{ACAD_REACTORS
330
2A
102
}
330
2A
100
AcDbVisualStyle
  2
FlatWithEdges
 70
     1
177
     2
291
     1
 71
     2
176
     1
 72
     1
176
     1
 73
     1
176
     1
 90
        2
176
     1
 40
-0.6
176
     1
 41
30.0
176
     1
 62
     5
 63
     7
421
 16777215
176
     1
 74
     1
176
     1
 91
        4
176
     1
 64
     7
176
     1
 65
   257
176
     1
 75
     1
176
     1
175
     1
176
     1
 42
1.0
176
     1
 92
        0
176
     1
 66
   257
176
     1
 43
1.0
176
     1
 76
     1
176
     1
 77
     6
176
     1
 78
     2
176
     1
 67
     7
176
     1
 79
     5
176
     1
170
     0
176
     1
171
     0
176
     1
290
     0
176
     1
 93
       13
176
     1
 44
0.0
176
     1
173
     0
176
     1
  0
VISUALSTYLE
  5
2D
102
{ACAD_REACTORS
330
2A
102
}
330
2A
100
AcDbVisualStyle
  2
Gouraud
 70
     2
177
     2
291
     1
 71
     2
176
     1
 72
     2
176
     1
 73
     1
176
     1
 90
        2
176
     1
 40
-0.6
176
     1
 41
30.0
176
     1
 62
     5
 63
     7
421
 16777215
176
     1
 74
     0
176
     1
 91
        4
176
     1
 64
     7
176
     1
 65
   257
176
     1
 75
     1
176
     1
175
     1
176
     1
 42
1.0
176
     1
 92
        0
176
     1
 66
     7
176
     1
 43
1.0
176
     1
 76
     1
176
     1
 77
     6
176
     1
 78
     2
176
     1
 67
     7
176
     1
 79
     5
176
     1
170
     0
176
     1
171
     0
176
     1
290
     0
176
     1
 93
       13
176
     1
 44
0.0
176
     1
173
     0
176
     1
  0
VISUALSTYLE
  5
2E
102
{ACAD_REACTORS
330
2A
102
}
330
2A
100
AcDbVisualStyle
  2
GouraudWithEdges
 70
     3
177
     2
291
     1
 71
     2
176
     1
 72
     2
176
     1
 73
     1
176
     1
 90
        2
176
     1
 40
-0.6
176
     1
 41
30.0
176
     1
 62
     5
 63
     7
421
 16777215
176
     1
 74
     1
176
     1
 91
        4
176
     1
 64
     7
176
     1
 65
   257
176
     1
 75
     1
176
     1
175
     1
176
     1
 42
1.0
176
     1
 92
        0
176
     1
 66
   257
176
     1
 43
1.0
176
     1
 76
     1
176
     1
 77
     6
176
     1
 78
     2
176
     1
 67
     7
176
     1
 79
     5
176
     1
170
     0
176
     1
171
     0
176
     1
290
     0
176
     1
 93
       13
176
     1
 44
0.0
176
     1
173
     0
176
     1
  0
VISUALSTYLE
  5
38
102
{ACAD_REACTORS
330
2A
102
}
330
2A
100
AcDbVisualStyle
  2
Linepattern
 70
    14
177
     2
291
     1
 71
     2
176
     1
 72
     2
176
     1
 73
     0
176
     1
 90
        0
176
     1
 40
-0.6
176
     1
 41
-30.0
176
     1
 62
     5
 63
     7
421
 16777215
176
     1
 74
     1
176
     1
 91
        4
176
     1
 64
     7
176
     1
 65
   257
176
     1
 75
     7
176
     1
175
     7
176
     1
 42
1.0
176
     1
 92
        8
176
     1
 66
     7
176
     1
 43
1.0
176
     1
 76
     1
176
     1
 77
     6
176
     1
 78
     2
176
     1
 67
     7
176
     1
 79
     5
176
     1
170
     0
176
     1
171
     0
176
     1
290
     0
176
     1
 93
        1
176
     1
 44
0.0
176
     1
173
     0
176
     1
  0
VISUALSTYLE
  5
33
102
{ACAD_REACTORS
330
2A
102
}
330
2A
100
AcDbVisualStyle
  2
Realistic
 70
     8
177
     2
291
     0
 71
     2
176
     1
 72
     2
176
     1
 73
     0
176
     1
 90
        0
176
     1
 40
-0.6
176
     1
 41
-30.0
176
     1
 62
     5
 63
     7
421
 16777215
176
     1
 74
     1
176
     1
 91
        0
176
     1
 64
     7
176
     1
 65
   257
176
     1
 75
     1
176
     1
175
     1
176
     1
 42
1.0
176
     1
 92
        8
176
     1
 66
     8
424
  7895160
176
     1
 43
1.0
176
     1
 76
     1
176
     1
 77
     6
176
     1
 78
     2
176
     1
 67
     7
176
     1
 79
     5
176
     1
170
     0
176
     1
171
     0
176
     1
290
     0
176
     1
 93
       13
176
     1
 44
0.0
176
     1
173
     0
176
     1
  0
VISUALSTYLE
  5
37
102
{ACAD_REACTORS
330
2A
102
}
330
2A
100
AcDbVisualStyle
  2
Thicken
 70
    13
177
     2
291
     1
 71
     2
176
     1
 72
     2
176
     1
 73
     0
176
     1
 90
        0
176
     1
 40
-0.6
176
     1
 41
-30.0
176
     1
 62
     5
 63
     7
421
 16777215
176
     1
 74
     1
176
     1
 91
        4
176
     1
 64
     7
176
     1
 65
   257
176
     1
 75
     1
176
     1
175
     1
176
     1
 42
1.0
176
     1
 92
       12
176
     1
 66
     7
176
     1
 43
1.0
176
     1
 76
     1
176
     1
 77
     6
176
     1
 78
     2
176
     1
 67
     7
176
     1
 79
     5
176
     1
170
     0
176
     1
171
     0
176
     1
290
     0
176
     1
 93
        1
176
     1
 44
0.0
176
     1
173
     0
176
     1
  0
ENDSEC
  0
EOF
