  0
SECTION
  2
HEADER
  9
$ACADVER
  1
AC1024
  9
$ACADMAINTVER
 70
     6
  9
$DWGCODEPAGE
  3
UNDEFINED
  9
$INSBASE
 10
0.0
 20
0.0
 30
0.0
  9
$EXTMIN
 10
1.000000000000000E+20
 20
1.000000000000000E+20
 30
1.000000000000000E+20
  9
$EXTMAX
 10
-1.000000000000000E+20
 20
-1.000000000000000E+20
 30
-1.000000000000000E+20
  9
$LIMMIN
 10
0.0
 20
0.0
  9
$LIMMAX
 10
12.0
 20
9.0
  9
$ORTHOMODE
 70
     0
  9
$REGENMODE
 70
     1
  9
$FILLMODE
 70
     1
  9
$QTEXTMODE
 70
     0
  9
$MIRRTEXT
 70
     1
  9
$LTSCALE
 40
1.0
  9
$ATTMODE
 70
     1
  9
$TEXTSIZE
 40
0.2
  9
$TRACEWID
 40
0.05
  9
$TEXTSTYLE
  7
Standard
  9
$CLAYER
  8
0
  9
$CELTYPE
  6
ByLayer
  9
$CECOLOR
 62
   256
  9
$CELTSCALE
 40
1.0
  9
$DISPSILH
 70
     0
  9
$DIMSCALE
 40
1.0
  9
$DIMASZ
 40
0.18
  9
$DIMEXO
 40
0.0625
  9
$DIMDLI
 40
0.38
  9
$DIMRND
 40
0.0
  9
$DIMDLE
 40
0.0
  9
$DIMEXE
 40
0.18
  9
$DIMTP
 40
0.0
  9
$DIMTM
 40
0.0
  9
$DIMTXT
 40
0.18
  9
$DIMCEN
 40
0.09
  9
$DIMTSZ
 40
0.0
  9
$DIMTOL
 70
     0
  9
$DIMLIM
 70
     0
  9
$DIMTIH
 70
     1
  9
$DIMTOH
 70
     1
  9
$DIMSE1
 70
     0
  9
$DIMSE2
 70
     0
  9
$DIMTAD
 70
     0
  9
$DIMZIN
 70
     0
  9
$DIMBLK
  1

  9
$DIMASO
 70
     1
  9
$DIMSHO
 70
     1
  9
$DIMPOST
  1

  9
$DIMAPOST
  1

  9
$DIMALT
 70
     0
  9
$DIMALTD
 70
     2
  9
$DIMALTF
 40
25.4
  9
$DIMLFAC
 40
1.0
  9
$DIMTOFL
 70
     0
  9
$DIMTVP
 40
0.0
  9
$DIMTIX
 70
     0
  9
$DIMSOXD
 70
     0
  9
$DIMSAH
 70
     0
  9
$DIMBLK1
  1

  9
$DIMBLK2
  1

  9
$DIMSTYLE
  2
Standard
  9
$DIMCLRD
 70
     0
  9
$DIMCLRE
 70
     0
  9
$DIMCLRT
 70
     0
  9
$DIMTFAC
 40
1.0
  9
$DIMGAP
 40
0.09
  9
$DIMJUST
 70
     0
  9
$DIMSD1
 70
     0
  9
$DIMSD2
 70
     0
  9
$DIMTOLJ
 70
     1
  9
$DIMTZIN
 70
     0
  9
$DIMALTZ
 70
     0
  9
$DIMALTTZ
 70
     0
  9
$DIMUPT
 70
     0
  9
$DIMDEC
 70
     4
  9
$DIMTDEC
 70
     4
  9
$DIMALTU
 70
     2
  9
$DIMALTTD
 70
     2
  9
$DIMTXSTY
  7
Standard
  9
$DIMAUNIT
 70
     0
  9
$DIMADEC
 70
     0
  9
$DIMALTRND
 40
0.0
  9
$DIMAZIN
 70
     0
  9
$DIMDSEP
 70
    46
  9
$DIMATFIT
 70
     3
  9
$DIMFRAC
 70
     0
  9
$DIMLDRBLK
  1

  9
$DIMLUNIT
 70
     2
  9
$DIMLWD
 70
    -2
  9
$DIMLWE
 70
    -2
  9
$DIMTMOVE
 70
     0
  9
$DIMFXL
 40
1.0
  9
$DIMFXLON
 70
     0
  9
$DIMJOGANG
 40
0.7853981633974483
  9
$DIMTFILL
 70
     0
  9
$DIMTFILLCLR
 70
     0
  9
$DIMARCSYM
 70
     0
  9
$DIMLTYPE
  6

  9
$DIMLTEX1
  6

  9
$DIMLTEX2
  6

  9
$DIMTXTDIRECTION
 70
     0
  9
$LUNITS
 70
     2
  9
$LUPREC
 70
     4
  9
$SKETCHINC
 40
0.1
  9
$FILLETRAD
 40
0.5
  9
$AUNITS
 70
     0
  9
$AUPREC
 70
     0
  9
$MENU
  1
.
  9
$ELEVATION
 40
0.0
  9
$PELEVATION
 40
0.0
  9
$THICKNESS
 40
0.0
  9
$LIMCHECK
 70
     0
  9
$CHAMFERA
 40
0.5
  9
$CHAMFERB
 40
0.5
  9
$CHAMFERC
 40
1.0
  9
$CHAMFERD
 40
0.0
  9
$SKPOLY
 70
     0
  9
$TDCREATE
 40
2457917.610127315
  9
$TDUCREATE
 40
2457917.235127315
  9
$TDUPDATE
 40
2457917.610127315
  9
$TDUUPDATE
 40
2457917.235127315
  9
$TDINDWG
 40
0.0000000116
  9
$TDUSRTIMER
 40
0.0000000116
  9
$USRTIMER
 70
     1
  9
$ANGBASE
 50
0.0
  9
$ANGDIR
 70
     0
  9
$PDMODE
 70
     0
  9
$PDSIZE
 40
0.0
  9
$PLINEWID
 40
0.0
  9
$SPLFRAME
 70
     0
  9
$SPLINETYPE
 70
     6
  9
$SPLINESEGS
 70
     8
  9
$HANDSEED
  5
15A
  9
$SURFTAB1
 70
     6
  9
$SURFTAB2
 70
     6
  9
$SURFTYPE
 70
     6
  9
$SURFU
 70
     6
  9
$SURFV
 70
     6
  9
$UCSBASE
  2

  9
$UCSNAME
  2

  9
$UCSORG
 10
0.0
 20
0.0
 30
0.0
  9
$UCSXDIR
 10
1.0
 20
0.0
 30
0.0
  9
$UCSYDIR
 10
0.0
 20
1.0
 30
0.0
  9
$UCSORTHOREF
  2

  9
$UCSORTHOVIEW
 70
     0
  9
$UCSORGTOP
 10
0.0
 20
0.0
 30
0.0
  9
$UCSORGBOTTOM
 10
0.0
 20
0.0
 30
0.0
  9
$UCSORGLEFT
 10
0.0
 20
0.0
 30
0.0
  9
$UCSORGRIGHT
 10
0.0
 20
0.0
 30
0.0
  9
$UCSORGFRONT
 10
0.0
 20
0.0
 30
0.0
  9
$UCSORGBACK
 10
0.0
 20
0.0
 30
0.0
  9
$PUCSBASE
  2

  9
$PUCSNAME
  2

  9
$PUCSORG
 10
0.0
 20
0.0
 30
0.0
  9
$PUCSXDIR
 10
1.0
 20
0.0
 30
0.0
  9
$PUCSYDIR
 10
0.0
 20
1.0
 30
0.0
  9
$PUCSORTHOREF
  2

  9
$PUCSORTHOVIEW
 70
     0
  9
$PUCSORGTOP
 10
0.0
 20
0.0
 30
0.0
  9
$PUCSORGBOTTOM
 10
0.0
 20
0.0
 30
0.0
  9
$PUCSORGLEFT
 10
0.0
 20
0.0
 30
0.0
  9
$PUCSORGRIGHT
 10
0.0
 20
0.0
 30
0.0
  9
$PUCSORGFRONT
 10
0.0
 20
0.0
 30
0.0
  9
$PUCSORGBACK
 10
0.0
 20
0.0
 30
0.0
  9
$USERI1
 70
     0
  9
$USERI2
 70
     0
  9
$USERI3
 70
     0
  9
$USERI4
 70
     0
  9
$USERI5
 70
     0
  9
$USERR1
 40
0.0
  9
$USERR2
 40
0.0
  9
$USERR3
 40
0.0
  9
$USERR4
 40
0.0
  9
$USERR5
 40
0.0
  9
$WORLDVIEW
 70
     1
  9
$SHADEDGE
 70
     3
  9
$SHADEDIF
 70
    70
  9
$TILEMODE
 70
     1
  9
$MAXACTVP
 70
    64
  9
$PINSBASE
 10
0.0
 20
0.0
 30
0.0
  9
$PLIMCHECK
 70
     0
  9
$PEXTMIN
 10
1.000000000000000E+20
 20
1.000000000000000E+20
 30
1.000000000000000E+20
  9
$PEXTMAX
 10
-1.000000000000000E+20
 20
-1.000000000000000E+20
 30
-1.000000000000000E+20
  9
$PLIMMIN
 10
0.0
 20
0.0
  9
$PLIMMAX
 10
12.0
 20
9.0
  9
$UNITMODE
 70
     0
  9
$VISRETAIN
 70
     1
  9
$PLINEGEN
 70
     0
  9
$PSLTSCALE
 70
     1
  9
$TREEDEPTH
 70
  3020
  9
$CMLSTYLE
  2
Standard
  9
$CMLJUST
 70
     0
  9
$CMLSCALE
 40
1.0
  9
$PROXYGRAPHICS
 70
     1
  9
$MEASUREMENT
 70
     0
  9
$CELWEIGHT
370
    -1
  9
$ENDCAPS
280
     0
  9
$JOINSTYLE
280
     0
  9
$LWDISPLAY
290
     1
  9
$INSUNITS
 70
     1
  9
$HYPERLINKBASE
  1

  9
$STYLESHEET
  1

  9
$XEDIT
290
     1
  9
$CEPSNTYPE
380
     0
  9
$PSTYLEMODE
290
     1
  9
$FINGERPRINTGUID
  2
{9D334DA8-9389-27A4-F7E5-083DC55AA106}
  9
$VERSIONGUID
  2
{FAEB1C32-E019-11D5-929B-00C0DF256EC4}
  9
$EXTNAMES
290
     1
  9
$PSVPSCALE
 40
0.0
  9
$OLESTARTUP
290
     0
  9
$SORTENTS
280
   127
  9
$INDEXCTL
280
     0
  9
$HIDETEXT
280
     1
  9
$XCLIPFRAME
280
     2
  9
$HALOGAP
280
     0
  9
$OBSCOLOR
 70
   257
  9
$OBSLTYPE
280
     0
  9
$INTERSECTIONDISPLAY
280
     0
  9
$INTERSECTIONCOLOR
 70
   257
  9
$DIMASSOC
280
     2
  9
$PROJECTNAME
  1

  9
$CAMERADISPLAY
290
     0
  9
$LENSLENGTH
 40
50.0
  9
$CAMERAHEIGHT
 40
0.0
  9
$STEPSPERSEC
 40
2.0
  9
$STEPSIZE
 40
6.0
  9
$3DDWFPREC
 40
2.0
  9
$PSOLWIDTH
 40
0.25
  9
$PSOLHEIGHT
 40
4.0
  9
$LOFTANG1
 40
1.570796326794897
  9
$LOFTANG2
 40
1.570796326794897
  9
$LOFTMAG1
 40
0.0
  9
$LOFTMAG2
 40
0.0
  9
$LOFTPARAM
 70
     7
  9
$LOFTNORMALS
280
     1
  9
$LATITUDE
 40
37.795
  9
$LONGITUDE
 40
-122.394
  9
$NORTHDIRECTION
 40
0.0
  9
$TIMEZONE
 70
 -8000
  9
$LIGHTGLYPHDISPLAY
280
     1
  9
$TILEMODELIGHTSYNCH
280
     1
  9
$CMATERIAL
347
3C
  9
$SOLIDHIST
280
     1
  9
$SHOWHIST
280
     1
  9
$DWFFRAME
280
     2
  9
$DGNFRAME
280
     2
  9
$REALWORLDSCALE
290
     1
  9
$INTERFERECOLOR
 62
   256
  9
$CSHADOW
280
     0
  9
$SHADOWPLANELOCATION
 40
0.0
  0
ENDSEC
  0
SECTION
  2
CLASSES
  0
CLASS
  1
ACDBDICTIONARYWDFLT
  2
AcDbDictionaryWithDefault
  3
ObjectDBX Classes
 90
        0
 91
        4
280
     0
281
     0
  0
CLASS
  1
VISUALSTYLE
  2
AcDbVisualStyle
  3
ObjectDBX Classes
 90
     4095
 91
        4
280
     0
281
     0
  0
CLASS
  1
MATERIAL
  2
AcDbMaterial
  3
ObjectDBX Classes
 90
     1153
 91
        4
280
     0
281
     0
  0
CLASS
  1
SUN
  2
AcDbSun
  3
SCENEOE
 90
     1024
 91
        4
280
     0
281
     0
  0
ENDSEC
  0
SECTION
  2
TABLES
  0
TABLE
  2
VPORT
  5
8
330
0
100
AcDbSymbolTable
 70
     1
  0
VPORT
  5
29
330
8
100
AcDbSymbolTableRecord
100
AcDbViewportTableRecord
  2
*Active
 70
     0
 10
0.0
 20
0.0
 11
1.0
 21
1.0
 12
0.0
 22
0.0
 13
0.0
 23
0.0
 14
0.5
 24
0.5
 15
0.5
 25
0.5
 16
0.0
 26
0.0
 36
1.0
 17
105.0008280156501
 27
-148.4999710739862
 37
0.0
 40
296.9999421479724
 41
0.7070764206636528
 42
50.0
 43
0.0
 44
0.0
 50
0.0
 51
0.0
 71
     0
 72
   100
 73
     1
 74
     3
 75
     0
 76
     0
 77
     0
 78
     0
281
     0
 65
     1
110
0.0
120
0.0
130
0.0
111
1.0
121
0.0
131
0.0
112
0.0
122
1.0
132
0.0
 79
     0
146
0.0
 60
     3
 61
     5
292
     1
282
     1
141
0.0
142
0.0
 63
   250
361
3F
  0
ENDTAB
  0
TABLE
  2
LTYPE
  5
5
330
0
100
AcDbSymbolTable
 70
     3
  0
LTYPE
  5
14
330
5
100
AcDbSymbolTableRecord
100
AcDbLinetypeTableRecord
  2
ByBlock
 70
     0
  3

 72
    65
 73
     0
 40
0.0
  0
LTYPE
  5
15
330
5
100
AcDbSymbolTableRecord
100
AcDbLinetypeTableRecord
  2
ByLayer
 70
     0
  3

 72
    65
 73
     0
 40
0.0
  0
LTYPE
  5
16
330
5
100
AcDbSymbolTableRecord
100
AcDbLinetypeTableRecord
  2
Continuous
 70
     0
  3
Solid line
 72
    65
 73
     0
 40
0.0
  0
LTYPE
  5
150
330
5
100
AcDbSymbolTableRecord
100
AcDbLinetypeTableRecord
  2
AI-Linetype-1
 70
     0
  3
Adobe Illustrator Linetype No. 1
 72
    65
 73
     2
 40
1.411111110758333
 49
0.7055555553791667
 74
     0
 49
-0.7055555553791667
 74
     0
  0
LTYPE
  5
156
330
5
100
AcDbSymbolTableRecord
100
AcDbLinetypeTableRecord
  2
AI-Linetype-2
 70
     0
  3
Adobe Illustrator Linetype No. 2
 72
    65
 73
     2
 40
1.411111110758333
 49
0.7055555553791667
 74
     0
 49
-0.7055555553791667
 74
     0
  0
ENDTAB
  0
TABLE
  2
LAYER
  5
2
330
0
100
AcDbSymbolTable
 70
     2
  0
LAYER
  5
10
330
2
100
AcDbSymbolTableRecord
100
AcDbLayerTableRecord
  2
0
 70
     0
 62
     7
  6
Continuous
370
    -3
390
F
347
3E
  0
LAYER
  5
40
330
2
100
AcDbSymbolTableRecord
100
AcDbLayerTableRecord
  2
_U+30EC_U+30A4_U+30E4_U+30FC 1
 70
     0
 62
     7
  6
Continuous
370
    -3
390
F
347
3E
  0
ENDTAB
  0
TABLE
  2
STYLE
  5
3
330
0
100
AcDbSymbolTable
 70
     1
  0
STYLE
  5
11
330
3
100
AcDbSymbolTableRecord
100
AcDbTextStyleTableRecord
  2
Standard
 70
     0
 40
0.0
 41
1.0
 50
0.0
 71
     0
 42
0.2
  3
txt
  4

  0
ENDTAB
  0
TABLE
  2
VIEW
  5
6
330
0
100
AcDbSymbolTable
 70
     0
  0
ENDTAB
  0
TABLE
  2
UCS
  5
7
330
0
100
AcDbSymbolTable
 70
     0
  0
ENDTAB
  0
TABLE
  2
APPID
  5
9
330
0
100
AcDbSymbolTable
 70
     1
  0
APPID
  5
12
330
9
100
AcDbSymbolTableRecord
100
AcDbRegAppTableRecord
  2
ACAD
 70
     0
  0
ENDTAB
  0
TABLE
  2
DIMSTYLE
  5
A
330
0
100
AcDbSymbolTable
 70
     1
100
AcDbDimStyleTable
  0
DIMSTYLE
105
27
330
A
100
AcDbSymbolTableRecord
100
AcDbDimStyleTableRecord
  2
Standard
 70
     0
178
     0
340
11
  0
ENDTAB
  0
TABLE
  2
BLOCK_RECORD
  5
1
330
0
100
AcDbSymbolTable
 70
     8
  0
BLOCK_RECORD
  5
1F
330
1
100
AcDbSymbolTableRecord
100
AcDbBlockTableRecord
  2
*Model_Space
340
22
 70
     0
280
     1
281
     0
  0
BLOCK_RECORD
  5
1B
330
1
100
AcDbSymbolTableRecord
100
AcDbBlockTableRecord
  2
*Paper_Space
340
1E
 70
     0
280
     1
281
     0
  0
BLOCK_RECORD
  5
23
330
1
100
AcDbSymbolTableRecord
100
AcDbBlockTableRecord
  2
*Paper_Space0
340
26
 70
     0
280
     1
281
     0
  0
BLOCK_RECORD
  5
92
330
1
100
AcDbSymbolTableRecord
100
AcDbBlockTableRecord
  2
block 2
340
0
102
{BLKREFS
331
93
102
}
 70
     0
280
     1
281
     0
  0
BLOCK_RECORD
  5
A4
330
1
100
AcDbSymbolTableRecord
100
AcDbBlockTableRecord
  2
block 3
340
0
102
{BLKREFS
331
A5
102
}
 70
     0
280
     1
281
     0
  0
BLOCK_RECORD
  5
B5
330
1
100
AcDbSymbolTableRecord
100
AcDbBlockTableRecord
  2
block 4
340
0
102
{BLKREFS
331
B6
102
}
 70
     0
280
     1
281
     0
  0
BLOCK_RECORD
  5
CC
330
1
100
AcDbSymbolTableRecord
100
AcDbBlockTableRecord
  2
block 5
340
0
102
{BLKREFS
331
CD
102
}
 70
     0
280
     1
281
     0
  0
BLOCK_RECORD
  5
E9
330
1
100
AcDbSymbolTableRecord
100
AcDbBlockTableRecord
  2
block 6
340
0
102
{BLKREFS
331
EA
102
}
 70
     0
280
     1
281
     0
  0
BLOCK_RECORD
  5
FA
330
1
100
AcDbSymbolTableRecord
100
AcDbBlockTableRecord
  2
block 7
340
0
102
{BLKREFS
331
FB
102
}
 70
     0
280
     1
281
     0
  0
BLOCK_RECORD
  5
10F
330
1
100
AcDbSymbolTableRecord
100
AcDbBlockTableRecord
  2
block 8
340
0
102
{BLKREFS
331
110
102
}
 70
     0
280
     1
281
     0
  0
ENDTAB
  0
ENDSEC
  0
SECTION
  2
BLOCKS
  0
BLOCK
  5
20
330
1F
100
AcDbEntity
  8
0
100
AcDbBlockBegin
  2
*Model_Space
 70
     0
 10
0.0
 20
0.0
 30
0.0
  3
*Model_Space
  1

  0
ENDBLK
  5
21
330
1F
100
AcDbEntity
  8
0
100
AcDbBlockEnd
  0
BLOCK
  5
1C
330
1B
100
AcDbEntity
 67
     1
  8
0
100
AcDbBlockBegin
  2
*Paper_Space
 70
     0
 10
0.0
 20
0.0
 30
0.0
  3
*Paper_Space
  1

  0
ENDBLK
  5
1D
330
1B
100
AcDbEntity
 67
     1
  8
0
100
AcDbBlockEnd
  0
BLOCK
  5
24
330
23
100
AcDbEntity
  8
0
100
AcDbBlockBegin
  2
*Paper_Space0
 70
     0
 10
0.0
 20
0.0
 30
0.0
  3
*Paper_Space0
  1

  0
ENDBLK
  5
25
330
23
100
AcDbEntity
  8
0
100
AcDbBlockEnd
  0
BLOCK
  5
94
330
92
100
AcDbEntity
  8
0
100
AcDbBlockBegin
  2
block 2
 70
     0
 10
0.0
 20
0.0
 30
0.0
  3
block 2
  1

  0
SPLINE
  5
96
330
92
100
AcDbEntity
  8
_U+30EC_U+30A4_U+30E4_U+30FC 1
370
     0
100
AcDbSpline
210
0.0
220
0.0
230
1.0
 70
    11
 71
     3
 72
    26
 73
    22
 74
     0
 42
0.0000000001
 43
0.0000000001
 12
1.0
 22
0.0
 32
0.0
 13
1.0
 23
0.0
 33
0.0
 40
0.0
 40
0.0
 40
0.0
 40
0.0
 40
1.0
 40
1.0
 40
1.0
 40
2.0
 40
2.0
 40
2.0
 40
3.0
 40
3.0
 40
3.0
 40
4.0
 40
4.0
 40
4.0
 40
5.0
 40
5.0
 40
5.0
 40
6.0
 40
6.0
 40
6.0
 40
7.0
 40
7.0
 40
7.0
 40
7.0
 10
120.2066161808858
 20
-140.8113877686166
 30
0.0
 10
120.2066161808858
 20
-140.8113877686166
 30
0.0
 10
119.1024630778633
 20
-140.8113877686166
 30
0.0
 10
119.1024630778633
 20
-140.8113877686166
 30
0.0
 10
119.1024630778633
 20
-140.8113877686166
 30
0.0
 10
119.1024630778633
 20
-141.1414279161035
 30
0.0
 10
119.1024630778633
 20
-141.1414279161035
 30
0.0
 10
119.1024630778633
 20
-141.1414279161035
 30
0.0
 10
118.9543239719975
 20
-141.1414279161035
 30
0.0
 10
118.9543239719975
 20
-141.1414279161035
 30
0.0
 10
118.939510061411
 20
-140.8093207113255
 30
0.0
 10
118.7765570449587
 20
-140.7628119222746
 30
0.0
 10
118.6621798748483
 20
-140.7331841011014
 30
0.0
 10
118.6621798748483
 20
-140.7331841011014
 30
0.0
 10
118.6621798748483
 20
-140.5871120525268
 30
0.0
 10
118.6621798748483
 20
-140.5871120525268
 30
0.0
 10
118.6621798748483
 20
-140.5871120525268
 30
0.0
 10
120.2066161808858
 20
-140.5871120525268
 30
0.0
 10
120.2066161808858
 20
-140.5871120525268
 30
0.0
 10
120.2066161808858
 20
-140.5871120525268
 30
0.0
 10
120.2066161808858
 20
-140.8113877686166
 30
0.0
 10
120.2066161808858
 20
-140.8113877686166
 30
0.0
  0
HATCH
  5
97
330
92
100
AcDbEntity
  8
_U+30EC_U+30A4_U+30E4_U+30FC 1
 62
     7
420
 16777215
100
AcDbHatch
 10
0.0
 20
0.0
 30
0.0
210
0.0
220
0.0
230
1.0
  2
SOLID
 70
     1
 71
     0
 91
        1
 92
        1
 93
        1
 72
     4
 94
        3
 73
     0
 74
     1
 95
       26
 96
       22
 40
0.0
 40
0.0
 40
0.0
 40
0.0
 40
1.0
 40
1.0
 40
1.0
 40
2.0
 40
2.0
 40
2.0
 40
3.0
 40
3.0
 40
3.0
 40
4.0
 40
4.0
 40
4.0
 40
5.0
 40
5.0
 40
5.0
 40
6.0
 40
6.0
 40
6.0
 40
7.0
 40
7.0
 40
7.0
 40
7.0
 10
120.2066161808858
 20
-140.8113877686166
 10
120.2066161808858
 20
-140.8113877686166
 10
119.1024630778633
 20
-140.8113877686166
 10
119.1024630778633
 20
-140.8113877686166
 10
119.1024630778633
 20
-140.8113877686166
 10
119.1024630778633
 20
-141.1414279161035
 10
119.1024630778633
 20
-141.1414279161035
 10
119.1024630778633
 20
-141.1414279161035
 10
118.9543239719975
 20
-141.1414279161035
 10
118.9543239719975
 20
-141.1414279161035
 10
118.939510061411
 20
-140.8093207113255
 10
118.7765570449587
 20
-140.7628119222746
 10
118.6621798748483
 20
-140.7331841011014
 10
118.6621798748483
 20
-140.7331841011014
 10
118.6621798748483
 20
-140.5871120525268
 10
118.6621798748483
 20
-140.5871120525268
 10
118.6621798748483
 20
-140.5871120525268
 10
120.2066161808858
 20
-140.5871120525268
 10
120.2066161808858
 20
-140.5871120525268
 10
120.2066161808858
 20
-140.5871120525268
 10
120.2066161808858
 20
-140.8113877686166
 10
120.2066161808858
 20
-140.8113877686166
 97
        0
 97
        0
 75
     2
 76
     1
 98
        0
  0
ENDBLK
  5
95
330
92
100
AcDbEntity
  8
0
100
AcDbBlockEnd
  0
BLOCK
  5
A6
330
A4
100
AcDbEntity
  8
0
100
AcDbBlockBegin
  2
block 3
 70
     0
 10
0.0
 20
0.0
 30
0.0
  3
block 3
  1

  0
SPLINE
  5
A8
330
A4
100
AcDbEntity
  8
_U+30EC_U+30A4_U+30E4_U+30FC 1
370
     0
100
AcDbSpline
210
0.0
220
0.0
230
1.0
 70
    11
 71
     3
 72
    26
 73
    22
 74
     0
 42
0.0000000001
 43
0.0000000001
 12
1.0
 22
0.0
 32
0.0
 13
1.0
 23
0.0
 33
0.0
 40
0.0
 40
0.0
 40
0.0
 40
0.0
 40
1.0
 40
1.0
 40
1.0
 40
2.0
 40
2.0
 40
2.0
 40
3.0
 40
3.0
 40
3.0
 40
4.0
 40
4.0
 40
4.0
 40
5.0
 40
5.0
 40
5.0
 40
6.0
 40
6.0
 40
6.0
 40
7.0
 40
7.0
 40
7.0
 40
7.0
 10
97.79523652069008
 20
-154.9631510029259
 30
0.0
 10
97.79523652069008
 20
-154.9631510029259
 30
0.0
 10
97.79523652069008
 20
-153.8589978999033
 30
0.0
 10
97.79523652069008
 20
-153.8589978999033
 30
0.0
 10
97.79523652069008
 20
-153.8589978999033
 30
0.0
 10
97.46519637320316
 20
-153.8589978999033
 30
0.0
 10
97.46519637320316
 20
-153.8589978999033
 30
0.0
 10
97.46519637320316
 20
-153.8589978999033
 30
0.0
 10
97.46519637320316
 20
-153.7108587940376
 30
0.0
 10
97.46519637320316
 20
-153.7108587940376
 30
0.0
 10
97.79730357798124
 20
-153.696044883451
 30
0.0
 10
97.8438123670321
 20
-153.5330918669987
 30
0.0
 10
97.87344018820525
 20
-153.4187146968884
 30
0.0
 10
97.87344018820525
 20
-153.4187146968884
 30
0.0
 10
98.01951223677985
 20
-153.4187146968884
 30
0.0
 10
98.01951223677985
 20
-153.4187146968884
 30
0.0
 10
98.01951223677985
 20
-153.4187146968884
 30
0.0
 10
98.01951223677985
 20
-154.9631510029259
 30
0.0
 10
98.01951223677985
 20
-154.9631510029259
 30
0.0
 10
98.01951223677985
 20
-154.9631510029259
 30
0.0
 10
97.79523652069008
 20
-154.9631510029259
 30
0.0
 10
97.79523652069008
 20
-154.9631510029259
 30
0.0
  0
HATCH
  5
A9
330
A4
100
AcDbEntity
  8
_U+30EC_U+30A4_U+30E4_U+30FC 1
 62
     7
420
 16777215
100
AcDbHatch
 10
0.0
 20
0.0
 30
0.0
210
0.0
220
0.0
230
1.0
  2
SOLID
 70
     1
 71
     0
 91
        1
 92
        1
 93
        1
 72
     4
 94
        3
 73
     0
 74
     1
 95
       26
 96
       22
 40
0.0
 40
0.0
 40
0.0
 40
0.0
 40
1.0
 40
1.0
 40
1.0
 40
2.0
 40
2.0
 40
2.0
 40
3.0
 40
3.0
 40
3.0
 40
4.0
 40
4.0
 40
4.0
 40
5.0
 40
5.0
 40
5.0
 40
6.0
 40
6.0
 40
6.0
 40
7.0
 40
7.0
 40
7.0
 40
7.0
 10
97.79523652069008
 20
-154.9631510029259
 10
97.79523652069008
 20
-154.9631510029259
 10
97.79523652069008
 20
-153.8589978999033
 10
97.79523652069008
 20
-153.8589978999033
 10
97.79523652069008
 20
-153.8589978999033
 10
97.46519637320316
 20
-153.8589978999033
 10
97.46519637320316
 20
-153.8589978999033
 10
97.46519637320316
 20
-153.8589978999033
 10
97.46519637320316
 20
-153.7108587940376
 10
97.46519637320316
 20
-153.7108587940376
 10
97.79730357798124
 20
-153.696044883451
 10
97.8438123670321
 20
-153.5330918669987
 10
97.87344018820525
 20
-153.4187146968884
 10
97.87344018820525
 20
-153.4187146968884
 10
98.01951223677985
 20
-153.4187146968884
 10
98.01951223677985
 20
-153.4187146968884
 10
98.01951223677985
 20
-153.4187146968884
 10
98.01951223677985
 20
-154.9631510029259
 10
98.01951223677985
 20
-154.9631510029259
 10
98.01951223677985
 20
-154.9631510029259
 10
97.79523652069008
 20
-154.9631510029259
 10
97.79523652069008
 20
-154.9631510029259
 97
        0
 97
        0
 75
     2
 76
     1
 98
        0
  0
SPLINE
  5
AA
330
A4
100
AcDbEntity
  8
_U+30EC_U+30A4_U+30E4_U+30FC 1
370
     0
100
AcDbSpline
210
0.0
220
0.0
230
1.0
 70
    11
 71
     3
 72
    29
 73
    25
 74
     0
 42
0.0000000001
 43
0.0000000001
 12
1.0
 22
0.0
 32
0.0
 13
1.0
 23
0.0
 33
0.0
 40
0.0
 40
0.0
 40
0.0
 40
0.0
 40
1.0
 40
1.0
 40
1.0
 40
2.0
 40
2.0
 40
2.0
 40
3.0
 40
3.0
 40
3.0
 40
4.0
 40
4.0
 40
4.0
 40
5.0
 40
5.0
 40
5.0
 40
6.0
 40
6.0
 40
6.0
 40
7.0
 40
7.0
 40
7.0
 40
8.0
 40
8.0
 40
8.0
 40
8.0
 10
99.41856551333981
 20
-154.785384075887
 30
0.0
 10
99.31038951510297
 20
-154.9948458813902
 30
0.0
 10
99.13710121219489
 20
-155.013793906559
 30
0.0
 10
99.02065698479345
 20
-155.013793906559
 30
0.0
 10
98.85977102563228
 20
-155.013793906559
 30
0.0
 10
98.71817760118851
 20
-154.9672851175082
 30
0.0
 10
98.62309296579562
 20
-154.785384075887
 30
0.0
 10
98.5193955916896
 20
-154.5907361809704
 30
0.0
 10
98.50010305697221
 20
-154.3540581211337
 30
0.0
 10
98.50010305697221
 20
-154.1911051046814
 30
0.0
 10
98.50010305697221
 20
-154.047100113398
 30
0.0
 10
98.51732853439844
 20
-153.7952636334262
 30
0.0
 10
98.62309296579562
 20
-153.5964816239273
 30
0.0
 10
98.73092445448394
 20
-153.3935654998461
 30
0.0
 10
98.8918104136451
 20
-153.3701388505464
 30
0.0
 10
99.02065698479345
 20
-153.3701388505464
 30
0.0
 10
99.17947588666347
 20
-153.3701388505464
 30
0.0
 10
99.32313636839838
 20
-153.4145805823061
 30
0.0
 10
99.41856551333981
 20
-153.5964816239273
 30
0.0
 10
99.51778426331501
 20
-153.7890624615527
 30
0.0
 10
99.5412109126147
 20
-154.0174722922248
 30
0.0
 10
99.5412109126147
 20
-154.1911051046814
 30
0.0
 10
99.5412109126147
 20
-154.3623263502983
 30
0.0
 10
99.51985132060615
 20
-154.5928032382615
 30
0.0
 10
99.41856551333981
 20
-154.785384075887
 30
0.0
  0
SPLINE
  5
AB
330
A4
100
AcDbEntity
  8
_U+30EC_U+30A4_U+30E4_U+30FC 1
370
     0
100
AcDbSpline
210
0.0
220
0.0
230
1.0
 70
    11
 71
     3
 72
    17
 73
    13
 74
     0
 42
0.0000000001
 43
0.0000000001
 12
1.0
 22
0.0
 32
0.0
 13
1.0
 23
0.0
 33
0.0
 40
0.0
 40
0.0
 40
0.0
 40
0.0
 40
1.0
 40
1.0
 40
1.0
 40
2.0
 40
2.0
 40
2.0
 40
3.0
 40
3.0
 40
3.0
 40
4.0
 40
4.0
 40
4.0
 40
4.0
 10
99.02065698479345
 20
-153.5627196881718
 30
0.0
 10
98.77088756211283
 20
-153.5627196881718
 30
0.0
 10
98.72437877306197
 20
-153.8462510466079
 30
0.0
 10
98.72437877306197
 20
-154.1911051046814
 30
0.0
 10
98.72437877306197
 20
-154.5104654561641
 30
0.0
 10
98.76055227565709
 20
-154.8191460116424
 30
0.0
 10
99.02065698479345
 20
-154.8191460116424
 30
0.0
 10
99.26835935018292
 20
-154.8191460116424
 30
0.0
 10
99.31693519652494
 20
-154.538026220046
 30
0.0
 10
99.31693519652494
 20
-154.1911051046814
 30
0.0
 10
99.31693519652494
 20
-153.8714002436502
 30
0.0
 10
99.27869463663866
 20
-153.5627196881718
 30
0.0
 10
99.02065698479345
 20
-153.5627196881718
 30
0.0
  0
HATCH
  5
AC
330
A4
100
AcDbEntity
  8
_U+30EC_U+30A4_U+30E4_U+30FC 1
 62
     7
420
 16777215
100
AcDbHatch
 10
0.0
 20
0.0
 30
0.0
210
0.0
220
0.0
230
1.0
  2
SOLID
 70
     1
 71
     0
 91
        2
 92
        1
 93
        1
 72
     4
 94
        3
 73
     0
 74
     1
 95
       29
 96
       25
 40
0.0
 40
0.0
 40
0.0
 40
0.0
 40
1.0
 40
1.0
 40
1.0
 40
2.0
 40
2.0
 40
2.0
 40
3.0
 40
3.0
 40
3.0
 40
4.0
 40
4.0
 40
4.0
 40
5.0
 40
5.0
 40
5.0
 40
6.0
 40
6.0
 40
6.0
 40
7.0
 40
7.0
 40
7.0
 40
8.0
 40
8.0
 40
8.0
 40
8.0
 10
99.41856551333981
 20
-154.785384075887
 10
99.31038951510297
 20
-154.9948458813902
 10
99.13710121219489
 20
-155.013793906559
 10
99.02065698479345
 20
-155.013793906559
 10
98.85977102563228
 20
-155.013793906559
 10
98.71817760118851
 20
-154.9672851175082
 10
98.62309296579562
 20
-154.785384075887
 10
98.5193955916896
 20
-154.5907361809704
 10
98.50010305697221
 20
-154.3540581211337
 10
98.50010305697221
 20
-154.1911051046814
 10
98.50010305697221
 20
-154.047100113398
 10
98.51732853439844
 20
-153.7952636334262
 10
98.62309296579562
 20
-153.5964816239273
 10
98.73092445448394
 20
-153.3935654998461
 10
98.8918104136451
 20
-153.3701388505464
 10
99.02065698479345
 20
-153.3701388505464
 10
99.17947588666347
 20
-153.3701388505464
 10
99.32313636839838
 20
-153.4145805823061
 10
99.41856551333981
 20
-153.5964816239273
 10
99.51778426331501
 20
-153.7890624615527
 10
99.5412109126147
 20
-154.0174722922248
 10
99.5412109126147
 20
-154.1911051046814
 10
99.5412109126147
 20
-154.3623263502983
 10
99.51985132060615
 20
-154.5928032382615
 10
99.41856551333981
 20
-154.785384075887
 97
        0
 97
        0
 92
        1
 93
        1
 72
     4
 94
        3
 73
     0
 74
     1
 95
       17
 96
       13
 40
0.0
 40
0.0
 40
0.0
 40
0.0
 40
1.0
 40
1.0
 40
1.0
 40
2.0
 40
2.0
 40
2.0
 40
3.0
 40
3.0
 40
3.0
 40
4.0
 40
4.0
 40
4.0
 40
4.0
 10
99.02065698479345
 20
-153.5627196881718
 10
98.77088756211283
 20
-153.5627196881718
 10
98.72437877306197
 20
-153.8462510466079
 10
98.72437877306197
 20
-154.1911051046814
 10
98.72437877306197
 20
-154.5104654561641
 10
98.76055227565709
 20
-154.8191460116424
 10
99.02065698479345
 20
-154.8191460116424
 10
99.26835935018292
 20
-154.8191460116424
 10
99.31693519652494
 20
-154.538026220046
 10
99.31693519652494
 20
-154.1911051046814
 10
99.31693519652494
 20
-153.8714002436502
 10
99.27869463663866
 20
-153.5627196881718
 10
99.02065698479345
 20
-153.5627196881718
 97
        0
 97
        0
 75
     2
 76
     1
 98
        0
  0
ENDBLK
  5
A7
330
A4
100
AcDbEntity
  8
0
100
AcDbBlockEnd
  0
BLOCK
  5
B7
330
B5
100
AcDbEntity
  8
0
100
AcDbBlockBegin
  2
block 4
 70
     0
 10
0.0
 20
0.0
 30
0.0
  3
block 4
  1

  0
SPLINE
  5
B9
330
B5
100
AcDbEntity
  8
_U+30EC_U+30A4_U+30E4_U+30FC 1
370
     0
100
AcDbSpline
210
0.0
220
0.0
230
1.0
 70
    11
 71
     3
 72
    32
 73
    28
 74
     0
 42
0.0000000001
 43
0.0000000001
 12
1.0
 22
0.0
 32
0.0
 13
1.0
 23
0.0
 33
0.0
 40
0.0
 40
0.0
 40
0.0
 40
0.0
 40
1.0
 40
1.0
 40
1.0
 40
2.0
 40
2.0
 40
2.0
 40
3.0
 40
3.0
 40
3.0
 40
4.0
 40
4.0
 40
4.0
 40
5.0
 40
5.0
 40
5.0
 40
6.0
 40
6.0
 40
6.0
 40
7.0
 40
7.0
 40
7.0
 40
8.0
 40
8.0
 40
8.0
 40
9.0
 40
9.0
 40
9.0
 40
9.0
 10
90.5147162317116
 20
-155.013793906559
 30
0.0
 10
89.99846867324692
 20
-155.013793906559
 30
0.0
 10
89.99002818930805
 20
-154.4598225525309
 30
0.0
 10
89.99002818930805
 20
-154.2458821228969
 30
0.0
 10
89.99002818930805
 20
-154.0154052349337
 30
0.0
 10
90.00914846925119
 20
-153.3680717932552
 30
0.0
 10
90.55278453682361
 20
-153.3680717932552
 30
0.0
 10
90.72624509450594
 20
-153.3680717932552
 30
0.0
 10
90.97153589305573
 20
-153.4380072316058
 30
0.0
 10
91.009776452942
 20
-153.7701144363839
 30
0.0
 10
91.009776452942
 20
-153.7701144363839
 30
0.0
 10
90.79600827808225
 20
-153.7701144363839
 30
0.0
 10
90.79600827808225
 20
-153.7701144363839
 30
0.0
 10
90.78550073685224
 20
-153.7129258513287
 30
0.0
 10
90.75380585838793
 20
-153.564786745463
 30
0.0
 10
90.55071747953247
 20
-153.564786745463
 30
0.0
 10
90.25874563715755
 20
-153.564786745463
 30
0.0
 10
90.21843801998011
 20
-153.8927598356588
 30
0.0
 10
90.20586342145896
 20
-154.0977430170311
 30
0.0
 10
90.2988809995607
 20
-154.019539349516
 30
0.0
 10
90.36657712584586
 20
-153.9602837071697
 30
0.0
 10
90.54847816746705
 20
-153.9602837071697
 30
0.0
 10
90.7283121517971
 20
-153.9602837071697
 30
0.0
 10
91.03079153540203
 20
-154.0684597054065
 30
0.0
 10
91.03079153540203
 20
-154.4746364631175
 30
0.0
 10
91.03079153540203
 20
-154.7939968146001
 30
0.0
 10
90.83200952590312
 20
-155.013793906559
 30
0.0
 10
90.5147162317116
 20
-155.013793906559
 30
0.0
  0
SPLINE
  5
BA
330
B5
100
AcDbEntity
  8
_U+30EC_U+30A4_U+30E4_U+30FC 1
370
     0
100
AcDbSpline
210
0.0
220
0.0
230
1.0
 70
    11
 71
     3
 72
    17
 73
    13
 74
     0
 42
0.0000000001
 43
0.0000000001
 12
1.0
 22
0.0
 32
0.0
 13
1.0
 23
0.0
 33
0.0
 40
0.0
 40
0.0
 40
0.0
 40
0.0
 40
1.0
 40
1.0
 40
1.0
 40
2.0
 40
2.0
 40
2.0
 40
3.0
 40
3.0
 40
3.0
 40
4.0
 40
4.0
 40
4.0
 40
4.0
 10
90.53159719958933
 20
-154.1549316020863
 30
0.0
 10
90.26925317838756
 20
-154.1549316020863
 30
0.0
 10
90.23118487327554
 20
-154.3664604648806
 30
0.0
 10
90.23118487327554
 20
-154.4829046922821
 30
0.0
 10
90.23118487327554
 20
-154.6586045620298
 30
0.0
 10
90.3264417634427
 20
-154.8215575784821
 30
0.0
 10
90.51040986235505
 20
-154.8215575784821
 30
0.0
 10
90.63098820433879
 20
-154.8215575784821
 30
0.0
 10
90.80668807408652
 20
-154.7623019361358
 30
0.0
 10
90.80668807408652
 20
-154.4767035204086
 30
0.0
 10
90.80668807408652
 20
-154.2524278043188
 30
0.0
 10
90.66698945215964
 20
-154.1549316020863
 30
0.0
 10
90.53159719958933
 20
-154.1549316020863
 30
0.0
  0
HATCH
  5
BB
330
B5
100
AcDbEntity
  8
_U+30EC_U+30A4_U+30E4_U+30FC 1
 62
     7
420
 16777215
100
AcDbHatch
 10
0.0
 20
0.0
 30
0.0
210
0.0
220
0.0
230
1.0
  2
SOLID
 70
     1
 71
     0
 91
        2
 92
        1
 93
        1
 72
     4
 94
        3
 73
     0
 74
     1
 95
       32
 96
       28
 40
0.0
 40
0.0
 40
0.0
 40
0.0
 40
1.0
 40
1.0
 40
1.0
 40
2.0
 40
2.0
 40
2.0
 40
3.0
 40
3.0
 40
3.0
 40
4.0
 40
4.0
 40
4.0
 40
5.0
 40
5.0
 40
5.0
 40
6.0
 40
6.0
 40
6.0
 40
7.0
 40
7.0
 40
7.0
 40
8.0
 40
8.0
 40
8.0
 40
9.0
 40
9.0
 40
9.0
 40
9.0
 10
90.5147162317116
 20
-155.013793906559
 10
89.99846867324692
 20
-155.013793906559
 10
89.99002818930805
 20
-154.4598225525309
 10
89.99002818930805
 20
-154.2458821228969
 10
89.99002818930805
 20
-154.0154052349337
 10
90.00914846925119
 20
-153.3680717932552
 10
90.55278453682361
 20
-153.3680717932552
 10
90.72624509450594
 20
-153.3680717932552
 10
90.97153589305573
 20
-153.4380072316058
 10
91.009776452942
 20
-153.7701144363839
 10
91.009776452942
 20
-153.7701144363839
 10
90.79600827808225
 20
-153.7701144363839
 10
90.79600827808225
 20
-153.7701144363839
 10
90.78550073685224
 20
-153.7129258513287
 10
90.75380585838793
 20
-153.564786745463
 10
90.55071747953247
 20
-153.564786745463
 10
90.25874563715755
 20
-153.564786745463
 10
90.21843801998011
 20
-153.8927598356588
 10
90.20586342145896
 20
-154.0977430170311
 10
90.2988809995607
 20
-154.019539349516
 10
90.36657712584586
 20
-153.9602837071697
 10
90.54847816746705
 20
-153.9602837071697
 10
90.7283121517971
 20
-153.9602837071697
 10
91.03079153540203
 20
-154.0684597054065
 10
91.03079153540203
 20
-154.4746364631175
 10
91.03079153540203
 20
-154.7939968146001
 10
90.83200952590312
 20
-155.013793906559
 10
90.5147162317116
 20
-155.013793906559
 97
        0
 97
        0
 92
        1
 93
        1
 72
     4
 94
        3
 73
     0
 74
     1
 95
       17
 96
       13
 40
0.0
 40
0.0
 40
0.0
 40
0.0
 40
1.0
 40
1.0
 40
1.0
 40
2.0
 40
2.0
 40
2.0
 40
3.0
 40
3.0
 40
3.0
 40
4.0
 40
4.0
 40
4.0
 40
4.0
 10
90.53159719958933
 20
-154.1549316020863
 10
90.26925317838756
 20
-154.1549316020863
 10
90.23118487327554
 20
-154.3664604648806
 10
90.23118487327554
 20
-154.4829046922821
 10
90.23118487327554
 20
-154.6586045620298
 10
90.3264417634427
 20
-154.8215575784821
 10
90.51040986235505
 20
-154.8215575784821
 10
90.63098820433879
 20
-154.8215575784821
 10
90.80668807408652
 20
-154.7623019361358
 10
90.80668807408652
 20
-154.4767035204086
 10
90.80668807408652
 20
-154.2524278043188
 10
90.66698945215964
 20
-154.1549316020863
 10
90.53159719958933
 20
-154.1549316020863
 97
        0
 97
        0
 75
     2
 76
     1
 98
        0
  0
ENDBLK
  5
B8
330
B5
100
AcDbEntity
  8
0
100
AcDbBlockEnd
  0
BLOCK
  5
CE
330
CC
100
AcDbEntity
  8
0
100
AcDbBlockBegin
  2
block 5
 70
     0
 10
0.0
 20
0.0
 30
0.0
  3
block 5
  1

  0
SPLINE
  5
D0
330
CC
100
AcDbEntity
  8
_U+30EC_U+30A4_U+30E4_U+30FC 1
370
     0
100
AcDbSpline
210
0.0
220
0.0
230
1.0
 70
    11
 71
     3
 72
    29
 73
    25
 74
     0
 42
0.0000000001
 43
0.0000000001
 12
1.0
 22
0.0
 32
0.0
 13
1.0
 23
0.0
 33
0.0
 40
0.0
 40
0.0
 40
0.0
 40
0.0
 40
1.0
 40
1.0
 40
1.0
 40
2.0
 40
2.0
 40
2.0
 40
3.0
 40
3.0
 40
3.0
 40
4.0
 40
4.0
 40
4.0
 40
5.0
 40
5.0
 40
5.0
 40
6.0
 40
6.0
 40
6.0
 40
7.0
 40
7.0
 40
7.0
 40
8.0
 40
8.0
 40
8.0
 40
8.0
 10
106.0283257113401
 20
-148.6820529142184
 30
0.0
 10
106.2377875168433
 20
-148.7902289124552
 30
0.0
 10
106.2567355420122
 20
-148.9635172153633
 30
0.0
 10
106.2567355420122
 20
-149.0799614427647
 30
0.0
 10
106.2567355420122
 20
-149.2408474019259
 30
0.0
 10
106.2102267529613
 20
-149.3824408263697
 30
0.0
 10
106.0283257113401
 20
-149.4775254617626
 30
0.0
 10
105.8336778164235
 20
-149.5812228358686
 30
0.0
 10
105.5969997565869
 20
-149.600515370586
 30
0.0
 10
105.4340467401345
 20
-149.600515370586
 30
0.0
 10
105.2900417488511
 20
-149.600515370586
 30
0.0
 10
105.0382052688793
 20
-149.5832898931597
 30
0.0
 10
104.8394232593804
 20
-149.4775254617626
 30
0.0
 10
104.6365071352992
 20
-149.3696939730742
 30
0.0
 10
104.6130804859995
 20
-149.2088080139131
 30
0.0
 10
104.6130804859995
 20
-149.0799614427647
 30
0.0
 10
104.6130804859995
 20
-148.9211425408947
 30
0.0
 10
104.6575222177592
 20
-148.7774820591598
 30
0.0
 10
104.8394232593804
 20
-148.6820529142184
 30
0.0
 10
105.0320040970059
 20
-148.5828341642432
 30
0.0
 10
105.260413927678
 20
-148.5594075149435
 30
0.0
 10
105.4340467401345
 20
-148.5594075149435
 30
0.0
 10
105.6052679857515
 20
-148.5594075149435
 30
0.0
 10
105.8357448737147
 20
-148.580767106952
 30
0.0
 10
106.0283257113401
 20
-148.6820529142184
 30
0.0
  0
SPLINE
  5
D1
330
CC
100
AcDbEntity
  8
_U+30EC_U+30A4_U+30E4_U+30FC 1
370
     0
100
AcDbSpline
210
0.0
220
0.0
230
1.0
 70
    11
 71
     3
 72
    17
 73
    13
 74
     0
 42
0.0000000001
 43
0.0000000001
 12
1.0
 22
0.0
 32
0.0
 13
1.0
 23
0.0
 33
0.0
 40
0.0
 40
0.0
 40
0.0
 40
0.0
 40
1.0
 40
1.0
 40
1.0
 40
2.0
 40
2.0
 40
2.0
 40
3.0
 40
3.0
 40
3.0
 40
4.0
 40
4.0
 40
4.0
 40
4.0
 10
104.805661323625
 20
-149.0799614427647
 30
0.0
 10
104.805661323625
 20
-149.3297308654454
 30
0.0
 10
105.089192682061
 20
-149.3762396544962
 30
0.0
 10
105.4340467401345
 20
-149.3762396544962
 30
0.0
 10
105.7534070916172
 20
-149.3762396544962
 30
0.0
 10
106.0620876470956
 20
-149.3400661519011
 30
0.0
 10
106.0620876470956
 20
-149.0799614427647
 30
0.0
 10
106.0620876470956
 20
-148.8322590773753
 30
0.0
 10
105.7809678554992
 20
-148.7836832310333
 30
0.0
 10
105.4340467401345
 20
-148.7836832310333
 30
0.0
 10
105.1143418791034
 20
-148.7836832310333
 30
0.0
 10
104.805661323625
 20
-148.8219237909195
 30
0.0
 10
104.805661323625
 20
-149.0799614427647
 30
0.0
  0
HATCH
  5
D2
330
CC
100
AcDbEntity
  8
_U+30EC_U+30A4_U+30E4_U+30FC 1
 62
     7
420
 16777215
100
AcDbHatch
 10
0.0
 20
0.0
 30
0.0
210
0.0
220
0.0
230
1.0
  2
SOLID
 70
     1
 71
     0
 91
        2
 92
        1
 93
        1
 72
     4
 94
        3
 73
     0
 74
     1
 95
       29
 96
       25
 40
0.0
 40
0.0
 40
0.0
 40
0.0
 40
1.0
 40
1.0
 40
1.0
 40
2.0
 40
2.0
 40
2.0
 40
3.0
 40
3.0
 40
3.0
 40
4.0
 40
4.0
 40
4.0
 40
5.0
 40
5.0
 40
5.0
 40
6.0
 40
6.0
 40
6.0
 40
7.0
 40
7.0
 40
7.0
 40
8.0
 40
8.0
 40
8.0
 40
8.0
 10
106.0283257113401
 20
-148.6820529142184
 10
106.2377875168433
 20
-148.7902289124552
 10
106.2567355420122
 20
-148.9635172153633
 10
106.2567355420122
 20
-149.0799614427647
 10
106.2567355420122
 20
-149.2408474019259
 10
106.2102267529613
 20
-149.3824408263697
 10
106.0283257113401
 20
-149.4775254617626
 10
105.8336778164235
 20
-149.5812228358686
 10
105.5969997565869
 20
-149.600515370586
 10
105.4340467401345
 20
-149.600515370586
 10
105.2900417488511
 20
-149.600515370586
 10
105.0382052688793
 20
-149.5832898931597
 10
104.8394232593804
 20
-149.4775254617626
 10
104.6365071352992
 20
-149.3696939730742
 10
104.6130804859995
 20
-149.2088080139131
 10
104.6130804859995
 20
-149.0799614427647
 10
104.6130804859995
 20
-148.9211425408947
 10
104.6575222177592
 20
-148.7774820591598
 10
104.8394232593804
 20
-148.6820529142184
 10
105.0320040970059
 20
-148.5828341642432
 10
105.260413927678
 20
-148.5594075149435
 10
105.4340467401345
 20
-148.5594075149435
 10
105.6052679857515
 20
-148.5594075149435
 10
105.8357448737147
 20
-148.580767106952
 10
106.0283257113401
 20
-148.6820529142184
 97
        0
 97
        0
 92
        1
 93
        1
 72
     4
 94
        3
 73
     0
 74
     1
 95
       17
 96
       13
 40
0.0
 40
0.0
 40
0.0
 40
0.0
 40
1.0
 40
1.0
 40
1.0
 40
2.0
 40
2.0
 40
2.0
 40
3.0
 40
3.0
 40
3.0
 40
4.0
 40
4.0
 40
4.0
 40
4.0
 10
104.805661323625
 20
-149.0799614427647
 10
104.805661323625
 20
-149.3297308654454
 10
105.089192682061
 20
-149.3762396544962
 10
105.4340467401345
 20
-149.3762396544962
 10
105.7534070916172
 20
-149.3762396544962
 10
106.0620876470956
 20
-149.3400661519011
 10
106.0620876470956
 20
-149.0799614427647
 10
106.0620876470956
 20
-148.8322590773753
 10
105.7809678554992
 20
-148.7836832310333
 10
105.4340467401345
 20
-148.7836832310333
 10
105.1143418791034
 20
-148.7836832310333
 10
104.805661323625
 20
-148.8219237909195
 10
104.805661323625
 20
-149.0799614427647
 97
        0
 97
        0
 75
     2
 76
     1
 98
        0
  0
POLYLINE
  5
D3
330
CC
100
AcDbEntity
  8
_U+30EC_U+30A4_U+30E4_U+30FC 1
370
     0
100
AcDb2dPolyline
 66
     1
 10
0.0
 20
0.0
 30
0.0
  0
VERTEX
  5
D4
330
D3
100
AcDbEntity
  8
_U+30EC_U+30A4_U+30E4_U+30FC 1
370
     0
100
AcDbVertex
100
AcDb2dVertex
 10
106.206092638379
 20
-148.3430555184698
 30
0.0
  0
VERTEX
  5
D5
330
D3
100
AcDbEntity
  8
_U+30EC_U+30A4_U+30E4_U+30FC 1
370
     0
100
AcDbVertex
100
AcDb2dVertex
 10
105.9542561584073
 20
-148.3430555184698
 30
0.0
  0
VERTEX
  5
D6
330
D3
100
AcDbEntity
  8
_U+30EC_U+30A4_U+30E4_U+30FC 1
370
     0
100
AcDbVertex
100
AcDb2dVertex
 10
105.9542561584073
 20
-148.091219038498
 30
0.0
  0
VERTEX
  5
D7
330
D3
100
AcDbEntity
  8
_U+30EC_U+30A4_U+30E4_U+30FC 1
370
     0
100
AcDbVertex
100
AcDb2dVertex
 10
106.206092638379
 20
-148.091219038498
 30
0.0
  0
VERTEX
  5
D8
330
D3
100
AcDbEntity
  8
_U+30EC_U+30A4_U+30E4_U+30FC 1
370
     0
100
AcDbVertex
100
AcDb2dVertex
 10
106.206092638379
 20
-148.3430555184698
 30
0.0
  0
SEQEND
  5
D9
330
D3
100
AcDbEntity
  8
_U+30EC_U+30A4_U+30E4_U+30FC 1
370
     0
  0
HATCH
  5
DA
330
CC
100
AcDbEntity
  8
_U+30EC_U+30A4_U+30E4_U+30FC 1
 62
     7
420
 16777215
100
AcDbHatch
 10
0.0
 20
0.0
 30
0.0
210
0.0
220
0.0
230
1.0
  2
SOLID
 70
     1
 71
     0
 91
        1
 92
        1
 93
        4
 72
     1
 10
106.206092638379
 20
-148.3430555184698
 11
105.9542561584073
 21
-148.3430555184698
 72
     1
 10
105.9542561584073
 20
-148.3430555184698
 11
105.9542561584073
 21
-148.091219038498
 72
     1
 10
105.9542561584073
 20
-148.091219038498
 11
106.206092638379
 21
-148.091219038498
 72
     1
 10
106.206092638379
 20
-148.091219038498
 11
106.206092638379
 21
-148.3430555184698
 97
        0
 75
     2
 76
     1
 98
        0
  0
SPLINE
  5
DB
330
CC
100
AcDbEntity
  8
_U+30EC_U+30A4_U+30E4_U+30FC 1
370
     0
100
AcDbSpline
210
0.0
220
0.0
230
1.0
 70
    11
 71
     3
 72
    53
 73
    49
 74
     0
 42
0.0000000001
 43
0.0000000001
 12
1.0
 22
0.0
 32
0.0
 13
1.0
 23
0.0
 33
0.0
 40
0.0
 40
0.0
 40
0.0
 40
0.0
 40
1.0
 40
1.0
 40
1.0
 40
2.0
 40
2.0
 40
2.0
 40
3.0
 40
3.0
 40
3.0
 40
4.0
 40
4.0
 40
4.0
 40
5.0
 40
5.0
 40
5.0
 40
6.0
 40
6.0
 40
6.0
 40
7.0
 40
7.0
 40
7.0
 40
8.0
 40
8.0
 40
8.0
 40
9.0
 40
9.0
 40
9.0
 40
10.0
 40
10.0
 40
10.0
 40
11.0
 40
11.0
 40
11.0
 40
12.0
 40
12.0
 40
12.0
 40
13.0
 40
13.0
 40
13.0
 40
14.0
 40
14.0
 40
14.0
 40
15.0
 40
15.0
 40
15.0
 40
16.0
 40
16.0
 40
16.0
 40
16.0
 10
106.2567355420122
 20
-147.373950158469
 30
0.0
 10
106.2567355420122
 20
-147.4521538259842
 30
0.0
 10
106.2398545741345
 20
-147.5537841427991
 30
0.0
 10
106.1764648172059
 20
-147.6554144596139
 30
0.0
 10
106.0665662712264
 20
-147.828702762522
 30
0.0
 10
105.9353081332384
 20
-147.8500623545305
 30
0.0
 10
105.8274766445501
 20
-147.8690103796994
 30
0.0
 10
105.8274766445501
 20
-147.8690103796994
 30
0.0
 10
105.8274766445501
 20
-147.6468017209008
 30
0.0
 10
105.8274766445501
 20
-147.6468017209008
 30
0.0
 10
106.026258654049
 20
-147.5920247026853
 30
0.0
 10
106.0558864752221
 20
-147.4649006792796
 30
0.0
 10
106.0558864752221
 20
-147.3718831011779
 30
0.0
 10
106.0558864752221
 20
-147.2323567340252
 30
0.0
 10
105.9563232156984
 20
-147.0800835135772
 30
0.0
 10
105.7237792704441
 20
-147.0800835135772
 30
0.0
 10
105.46780867589
 20
-147.0800835135772
 30
0.0
 10
105.3978732375394
 20
-147.2599174979073
 30
0.0
 10
105.3978732375394
 20
-147.380495839891
 30
0.0
 10
105.3978732375394
 20
-147.4121907183553
 30
0.0
 10
105.3978732375394
 20
-147.5537841427991
 30
0.0
 10
105.5270643182363
 20
-147.6426676063185
 30
0.0
 10
105.5270643182363
 20
-147.6426676063185
 30
0.0
 10
105.5081162930674
 20
-147.8183674760662
 30
0.0
 10
105.5081162930674
 20
-147.8183674760662
 30
0.0
 10
105.5081162930674
 20
-147.8183674760662
 30
0.0
 10
104.6616563323415
 20
-147.6977891340825
 30
0.0
 10
104.6616563323415
 20
-147.6977891340825
 30
0.0
 10
104.6616563323415
 20
-147.6977891340825
 30
0.0
 10
104.6616563323415
 20
-146.919197554416
 30
0.0
 10
104.6616563323415
 20
-146.919197554416
 30
0.0
 10
104.6616563323415
 20
-146.919197554416
 30
0.0
 10
104.8563042272581
 20
-146.919197554416
 30
0.0
 10
104.8563042272581
 20
-146.919197554416
 30
0.0
 10
104.8563042272581
 20
-146.919197554416
 30
0.0
 10
104.8563042272581
 20
-147.5348361176302
 30
0.0
 10
104.8563042272581
 20
-147.5348361176302
 30
0.0
 10
104.8563042272581
 20
-147.5348361176302
 30
0.0
 10
105.2793619528468
 20
-147.6002929318499
 30
0.0
 10
105.2793619528468
 20
-147.6002929318499
 30
0.0
 10
105.2456000170914
 20
-147.5389702322125
 30
0.0
 10
105.205292399914
 20
-147.456632450115
 30
0.0
 10
105.205292399914
 20
-147.3381211654224
 30
0.0
 10
105.205292399914
 20
-147.0842176281595
 30
0.0
 10
105.391672065666
 20
-146.8471950587743
 30
0.0
 10
105.7048312452752
 20
-146.8471950587743
 30
0.0
 10
106.0221245394667
 20
-146.8471950587743
 30
0.0
 10
106.2567355420122
 20
-147.0714707748641
 30
0.0
 10
106.2567355420122
 20
-147.373950158469
 30
0.0
  0
HATCH
  5
DC
330
CC
100
AcDbEntity
  8
_U+30EC_U+30A4_U+30E4_U+30FC 1
 62
     7
420
 16777215
100
AcDbHatch
 10
0.0
 20
0.0
 30
0.0
210
0.0
220
0.0
230
1.0
  2
SOLID
 70
     1
 71
     0
 91
        1
 92
        1
 93
        1
 72
     4
 94
        3
 73
     0
 74
     1
 95
       53
 96
       49
 40
0.0
 40
0.0
 40
0.0
 40
0.0
 40
1.0
 40
1.0
 40
1.0
 40
2.0
 40
2.0
 40
2.0
 40
3.0
 40
3.0
 40
3.0
 40
4.0
 40
4.0
 40
4.0
 40
5.0
 40
5.0
 40
5.0
 40
6.0
 40
6.0
 40
6.0
 40
7.0
 40
7.0
 40
7.0
 40
8.0
 40
8.0
 40
8.0
 40
9.0
 40
9.0
 40
9.0
 40
10.0
 40
10.0
 40
10.0
 40
11.0
 40
11.0
 40
11.0
 40
12.0
 40
12.0
 40
12.0
 40
13.0
 40
13.0
 40
13.0
 40
14.0
 40
14.0
 40
14.0
 40
15.0
 40
15.0
 40
15.0
 40
16.0
 40
16.0
 40
16.0
 40
16.0
 10
106.2567355420122
 20
-147.373950158469
 10
106.2567355420122
 20
-147.4521538259842
 10
106.2398545741345
 20
-147.5537841427991
 10
106.1764648172059
 20
-147.6554144596139
 10
106.0665662712264
 20
-147.828702762522
 10
105.9353081332384
 20
-147.8500623545305
 10
105.8274766445501
 20
-147.8690103796994
 10
105.8274766445501
 20
-147.8690103796994
 10
105.8274766445501
 20
-147.6468017209008
 10
105.8274766445501
 20
-147.6468017209008
 10
106.026258654049
 20
-147.5920247026853
 10
106.0558864752221
 20
-147.4649006792796
 10
106.0558864752221
 20
-147.3718831011779
 10
106.0558864752221
 20
-147.2323567340252
 10
105.9563232156984
 20
-147.0800835135772
 10
105.7237792704441
 20
-147.0800835135772
 10
105.46780867589
 20
-147.0800835135772
 10
105.3978732375394
 20
-147.2599174979073
 10
105.3978732375394
 20
-147.380495839891
 10
105.3978732375394
 20
-147.4121907183553
 10
105.3978732375394
 20
-147.5537841427991
 10
105.5270643182363
 20
-147.6426676063185
 10
105.5270643182363
 20
-147.6426676063185
 10
105.5081162930674
 20
-147.8183674760662
 10
105.5081162930674
 20
-147.8183674760662
 10
105.5081162930674
 20
-147.8183674760662
 10
104.6616563323415
 20
-147.6977891340825
 10
104.6616563323415
 20
-147.6977891340825
 10
104.6616563323415
 20
-147.6977891340825
 10
104.6616563323415
 20
-146.919197554416
 10
104.6616563323415
 20
-146.919197554416
 10
104.6616563323415
 20
-146.919197554416
 10
104.8563042272581
 20
-146.919197554416
 10
104.8563042272581
 20
-146.919197554416
 10
104.8563042272581
 20
-146.919197554416
 10
104.8563042272581
 20
-147.5348361176302
 10
104.8563042272581
 20
-147.5348361176302
 10
104.8563042272581
 20
-147.5348361176302
 10
105.2793619528468
 20
-147.6002929318499
 10
105.2793619528468
 20
-147.6002929318499
 10
105.2456000170914
 20
-147.5389702322125
 10
105.205292399914
 20
-147.456632450115
 10
105.205292399914
 20
-147.3381211654224
 10
105.205292399914
 20
-147.0842176281595
 10
105.391672065666
 20
-146.8471950587743
 10
105.7048312452752
 20
-146.8471950587743
 10
106.0221245394667
 20
-146.8471950587743
 10
106.2567355420122
 20
-147.0714707748641
 10
106.2567355420122
 20
-147.373950158469
 97
        0
 97
        0
 75
     2
 76
     1
 98
        0
  0
ENDBLK
  5
CF
330
CC
100
AcDbEntity
  8
0
100
AcDbBlockEnd
  0
BLOCK
  5
EB
330
E9
100
AcDbEntity
  8
0
100
AcDbBlockBegin
  2
block 6
 70
     0
 10
0.0
 20
0.0
 30
0.0
  3
block 6
  1

  0
SPLINE
  5
ED
330
E9
100
AcDbEntity
  8
_U+30EC_U+30A4_U+30E4_U+30FC 1
370
     0
100
AcDbSpline
210
0.0
220
0.0
230
1.0
 70
    11
 71
     3
 72
    62
 73
    58
 74
     0
 42
0.0000000001
 43
0.0000000001
 12
1.0
 22
0.0
 32
0.0
 13
1.0
 23
0.0
 33
0.0
 40
0.0
 40
0.0
 40
0.0
 40
0.0
 40
1.0
 40
1.0
 40
1.0
 40
2.0
 40
2.0
 40
2.0
 40
3.0
 40
3.0
 40
3.0
 40
4.0
 40
4.0
 40
4.0
 40
5.0
 40
5.0
 40
5.0
 40
6.0
 40
6.0
 40
6.0
 40
7.0
 40
7.0
 40
7.0
 40
8.0
 40
8.0
 40
8.0
 40
9.0
 40
9.0
 40
9.0
 40
10.0
 40
10.0
 40
10.0
 40
11.0
 40
11.0
 40
11.0
 40
12.0
 40
12.0
 40
12.0
 40
13.0
 40
13.0
 40
13.0
 40
14.0
 40
14.0
 40
14.0
 40
15.0
 40
15.0
 40
15.0
 40
16.0
 40
16.0
 40
16.0
 40
17.0
 40
17.0
 40
17.0
 40
18.0
 40
18.0
 40
18.0
 40
19.0
 40
19.0
 40
19.0
 40
19.0
 10
101.8356445057911
 20
-138.5138535895035
 30
0.0
 10
101.7402153608497
 20
-138.5138535895035
 30
0.0
 10
101.5224853261819
 20
-138.4928385070435
 30
0.0
 10
101.3974283600673
 20
-138.30680335084
 30
0.0
 10
101.323703316683
 20
-138.1944932380208
 30
0.0
 10
101.3192246925521
 20
-138.0952744880456
 30
0.0
 10
101.3150905779698
 20
-138.0105251391085
 30
0.0
 10
101.3150905779698
 20
-138.0105251391085
 30
0.0
 10
101.5352321794773
 20
-138.0105251391085
 30
0.0
 10
101.5352321794773
 20
-138.0105251391085
 30
0.0
 10
101.5372992367685
 20
-138.0845946920413
 30
0.0
 10
101.5476345232242
 20
-138.3192056945869
 30
0.0
 10
101.8311658816603
 20
-138.3192056945869
 30
0.0
 10
101.9686251915217
 20
-138.3192056945869
 30
0.0
 10
102.1212429215183
 20
-138.2496147657848
 30
0.0
 10
102.1212429215183
 20
-138.0212049351128
 30
0.0
 10
102.1212429215183
 20
-137.9047607077113
 30
0.0
 10
102.083002361632
 20
-137.8561848613693
 30
0.0
 10
102.0513074831677
 20
-137.824489982905
 30
0.0
 10
101.9772379302349
 20
-137.7504204299721
 30
0.0
 10
101.8607937028334
 20
-137.7376735766767
 30
0.0
 10
101.8060166846179
 20
-137.7376735766767
 30
0.0
 10
101.7867241499006
 20
-137.7376735766767
 30
0.0
 10
101.7508951568539
 20
-137.7397406339678
 30
0.0
 10
101.7233343929719
 20
-137.7438747485502
 30
0.0
 10
101.7233343929719
 20
-137.7438747485502
 30
0.0
 10
101.7233343929719
 20
-137.5492268536335
 30
0.0
 10
101.7233343929719
 20
-137.5492268536335
 30
0.0
 10
101.7615749528582
 20
-137.5557725350555
 30
0.0
 10
101.8036051177783
 20
-137.5578395923467
 30
0.0
 10
101.8101507992002
 20
-137.5578395923467
 30
0.0
 10
101.87560761342
 20
-137.5578395923467
 30
0.0
 10
102.0743896229189
 20
-137.5364800003381
 30
0.0
 10
102.0743896229189
 20
-137.2998019405015
 30
0.0
 10
102.0743896229189
 20
-137.1220350134626
 30
0.0
 10
101.9434759944794
 20
-137.0669134856986
 30
0.0
 10
101.8332329389514
 20
-137.0669134856986
 30
0.0
 10
101.5689941152328
 20
-137.0669134856986
 30
0.0
 10
101.5603813765196
 20
-137.2998019405015
 30
0.0
 10
101.5562472619373
 20
-137.3714599265946
 30
0.0
 10
101.5562472619373
 20
-137.3714599265946
 30
0.0
 10
101.3529866283076
 20
-137.3714599265946
 30
0.0
 10
101.3529866283076
 20
-137.3714599265946
 30
0.0
 10
101.3615993670207
 20
-137.2467474700286
 30
0.0
 10
101.3891601309027
 20
-136.8701985334908
 30
0.0
 10
101.8459797922468
 20
-136.8701985334908
 30
0.0
 10
102.0702555083366
 20
-136.8701985334908
 30
0.0
 10
102.3114121923041
 20
-136.9973225568965
 30
0.0
 10
102.3114121923041
 20
-137.2932562590795
 30
0.0
 10
102.3114121923041
 20
-137.4796359248315
 30
0.0
 10
102.2163275569112
 20
-137.561973706929
 30
0.0
 10
102.1167642973875
 20
-137.6232964065664
 30
0.0
 10
102.1780869970249
 20
-137.6508571704484
 30
0.0
 10
102.3599880386461
 20
-137.7311278952547
 30
0.0
 10
102.3599880386461
 20
-138.0084580818173
 30
0.0
 10
102.3599880386461
 20
-138.3467664584689
 30
0.0
 10
102.1126301828052
 20
-138.5138535895035
 30
0.0
 10
101.8356445057911
 20
-138.5138535895035
 30
0.0
  0
HATCH
  5
EE
330
E9
100
AcDbEntity
  8
_U+30EC_U+30A4_U+30E4_U+30FC 1
 62
     7
420
 16777215
100
AcDbHatch
 10
0.0
 20
0.0
 30
0.0
210
0.0
220
0.0
230
1.0
  2
SOLID
 70
     1
 71
     0
 91
        1
 92
        1
 93
        1
 72
     4
 94
        3
 73
     0
 74
     1
 95
       62
 96
       58
 40
0.0
 40
0.0
 40
0.0
 40
0.0
 40
1.0
 40
1.0
 40
1.0
 40
2.0
 40
2.0
 40
2.0
 40
3.0
 40
3.0
 40
3.0
 40
4.0
 40
4.0
 40
4.0
 40
5.0
 40
5.0
 40
5.0
 40
6.0
 40
6.0
 40
6.0
 40
7.0
 40
7.0
 40
7.0
 40
8.0
 40
8.0
 40
8.0
 40
9.0
 40
9.0
 40
9.0
 40
10.0
 40
10.0
 40
10.0
 40
11.0
 40
11.0
 40
11.0
 40
12.0
 40
12.0
 40
12.0
 40
13.0
 40
13.0
 40
13.0
 40
14.0
 40
14.0
 40
14.0
 40
15.0
 40
15.0
 40
15.0
 40
16.0
 40
16.0
 40
16.0
 40
17.0
 40
17.0
 40
17.0
 40
18.0
 40
18.0
 40
18.0
 40
19.0
 40
19.0
 40
19.0
 40
19.0
 10
101.8356445057911
 20
-138.5138535895035
 10
101.7402153608497
 20
-138.5138535895035
 10
101.5224853261819
 20
-138.4928385070435
 10
101.3974283600673
 20
-138.30680335084
 10
101.323703316683
 20
-138.1944932380208
 10
101.3192246925521
 20
-138.0952744880456
 10
101.3150905779698
 20
-138.0105251391085
 10
101.3150905779698
 20
-138.0105251391085
 10
101.5352321794773
 20
-138.0105251391085
 10
101.5352321794773
 20
-138.0105251391085
 10
101.5372992367685
 20
-138.0845946920413
 10
101.5476345232242
 20
-138.3192056945869
 10
101.8311658816603
 20
-138.3192056945869
 10
101.9686251915217
 20
-138.3192056945869
 10
102.1212429215183
 20
-138.2496147657848
 10
102.1212429215183
 20
-138.0212049351128
 10
102.1212429215183
 20
-137.9047607077113
 10
102.083002361632
 20
-137.8561848613693
 10
102.0513074831677
 20
-137.824489982905
 10
101.9772379302349
 20
-137.7504204299721
 10
101.8607937028334
 20
-137.7376735766767
 10
101.8060166846179
 20
-137.7376735766767
 10
101.7867241499006
 20
-137.7376735766767
 10
101.7508951568539
 20
-137.7397406339678
 10
101.7233343929719
 20
-137.7438747485502
 10
101.7233343929719
 20
-137.7438747485502
 10
101.7233343929719
 20
-137.5492268536335
 10
101.7233343929719
 20
-137.5492268536335
 10
101.7615749528582
 20
-137.5557725350555
 10
101.8036051177783
 20
-137.5578395923467
 10
101.8101507992002
 20
-137.5578395923467
 10
101.87560761342
 20
-137.5578395923467
 10
102.0743896229189
 20
-137.5364800003381
 10
102.0743896229189
 20
-137.2998019405015
 10
102.0743896229189
 20
-137.1220350134626
 10
101.9434759944794
 20
-137.0669134856986
 10
101.8332329389514
 20
-137.0669134856986
 10
101.5689941152328
 20
-137.0669134856986
 10
101.5603813765196
 20
-137.2998019405015
 10
101.5562472619373
 20
-137.3714599265946
 10
101.5562472619373
 20
-137.3714599265946
 10
101.3529866283076
 20
-137.3714599265946
 10
101.3529866283076
 20
-137.3714599265946
 10
101.3615993670207
 20
-137.2467474700286
 10
101.3891601309027
 20
-136.8701985334908
 10
101.8459797922468
 20
-136.8701985334908
 10
102.0702555083366
 20
-136.8701985334908
 10
102.3114121923041
 20
-136.9973225568965
 10
102.3114121923041
 20
-137.2932562590795
 10
102.3114121923041
 20
-137.4796359248315
 10
102.2163275569112
 20
-137.561973706929
 10
102.1167642973875
 20
-137.6232964065664
 10
102.1780869970249
 20
-137.6508571704484
 10
102.3599880386461
 20
-137.7311278952547
 10
102.3599880386461
 20
-138.0084580818173
 10
102.3599880386461
 20
-138.3467664584689
 10
102.1126301828052
 20
-138.5138535895035
 10
101.8356445057911
 20
-138.5138535895035
 97
        0
 97
        0
 75
     2
 76
     1
 98
        0
  0
SPLINE
  5
EF
330
E9
100
AcDbEntity
  8
_U+30EC_U+30A4_U+30E4_U+30FC 1
370
     0
100
AcDbSpline
210
0.0
220
0.0
230
1.0
 70
    11
 71
     3
 72
    29
 73
    25
 74
     0
 42
0.0000000001
 43
0.0000000001
 12
1.0
 22
0.0
 32
0.0
 13
1.0
 23
0.0
 33
0.0
 40
0.0
 40
0.0
 40
0.0
 40
0.0
 40
1.0
 40
1.0
 40
1.0
 40
2.0
 40
2.0
 40
2.0
 40
3.0
 40
3.0
 40
3.0
 40
4.0
 40
4.0
 40
4.0
 40
5.0
 40
5.0
 40
5.0
 40
6.0
 40
6.0
 40
6.0
 40
7.0
 40
7.0
 40
7.0
 40
8.0
 40
8.0
 40
8.0
 40
8.0
 10
103.4186658812634
 20
-138.2854437588314
 30
0.0
 10
103.3104898830265
 20
-138.4949055643346
 30
0.0
 10
103.1372015801185
 20
-138.5138535895035
 30
0.0
 10
103.020757352717
 20
-138.5138535895035
 30
0.0
 10
102.8598713935559
 20
-138.5138535895035
 30
0.0
 10
102.7182779691121
 20
-138.4673448004526
 30
0.0
 10
102.6231933337192
 20
-138.2854437588314
 30
0.0
 10
102.5194959596132
 20
-138.0907958639148
 30
0.0
 10
102.5005479344443
 20
-137.8541178040782
 30
0.0
 10
102.5005479344443
 20
-137.6911647876258
 30
0.0
 10
102.5005479344443
 20
-137.5471597963424
 30
0.0
 10
102.517428902322
 20
-137.2953233163706
 30
0.0
 10
102.6231933337192
 20
-137.0965413068717
 30
0.0
 10
102.7310248224075
 20
-136.8936251827905
 30
0.0
 10
102.8919107815687
 20
-136.8701985334908
 30
0.0
 10
103.020757352717
 20
-136.8701985334908
 30
0.0
 10
103.1795762545871
 20
-136.8701985334908
 30
0.0
 10
103.323236736322
 20
-136.9146402652505
 30
0.0
 10
103.4186658812634
 20
-137.0965413068717
 30
0.0
 10
103.5178846312386
 20
-137.2891221444972
 30
0.0
 10
103.5413112805383
 20
-137.5175319751692
 30
0.0
 10
103.5413112805383
 20
-137.6911647876258
 30
0.0
 10
103.5413112805383
 20
-137.8623860332428
 30
0.0
 10
103.5199516885297
 20
-138.0928629212059
 30
0.0
 10
103.4186658812634
 20
-138.2854437588314
 30
0.0
  0
SPLINE
  5
F0
330
E9
100
AcDbEntity
  8
_U+30EC_U+30A4_U+30E4_U+30FC 1
370
     0
100
AcDbSpline
210
0.0
220
0.0
230
1.0
 70
    11
 71
     3
 72
    17
 73
    13
 74
     0
 42
0.0000000001
 43
0.0000000001
 12
1.0
 22
0.0
 32
0.0
 13
1.0
 23
0.0
 33
0.0
 40
0.0
 40
0.0
 40
0.0
 40
0.0
 40
1.0
 40
1.0
 40
1.0
 40
2.0
 40
2.0
 40
2.0
 40
3.0
 40
3.0
 40
3.0
 40
4.0
 40
4.0
 40
4.0
 40
4.0
 10
103.020757352717
 20
-137.0627793711162
 30
0.0
 10
102.771332439585
 20
-137.0627793711162
 30
0.0
 10
102.7244791409856
 20
-137.3463107295523
 30
0.0
 10
102.7244791409856
 20
-137.6911647876258
 30
0.0
 10
102.7244791409856
 20
-138.0105251391085
 30
0.0
 10
102.7606526435807
 20
-138.3192056945869
 30
0.0
 10
103.020757352717
 20
-138.3192056945869
 30
0.0
 10
103.2684597181065
 20
-138.3192056945869
 30
0.0
 10
103.3170355644485
 20
-138.0380859029905
 30
0.0
 10
103.3170355644485
 20
-137.6911647876258
 30
0.0
 10
103.3170355644485
 20
-137.3714599265946
 30
0.0
 10
103.2787950045623
 20
-137.0627793711162
 30
0.0
 10
103.020757352717
 20
-137.0627793711162
 30
0.0
  0
HATCH
  5
F1
330
E9
100
AcDbEntity
  8
_U+30EC_U+30A4_U+30E4_U+30FC 1
 62
     7
420
 16777215
100
AcDbHatch
 10
0.0
 20
0.0
 30
0.0
210
0.0
220
0.0
230
1.0
  2
SOLID
 70
     1
 71
     0
 91
        2
 92
        1
 93
        1
 72
     4
 94
        3
 73
     0
 74
     1
 95
       29
 96
       25
 40
0.0
 40
0.0
 40
0.0
 40
0.0
 40
1.0
 40
1.0
 40
1.0
 40
2.0
 40
2.0
 40
2.0
 40
3.0
 40
3.0
 40
3.0
 40
4.0
 40
4.0
 40
4.0
 40
5.0
 40
5.0
 40
5.0
 40
6.0
 40
6.0
 40
6.0
 40
7.0
 40
7.0
 40
7.0
 40
8.0
 40
8.0
 40
8.0
 40
8.0
 10
103.4186658812634
 20
-138.2854437588314
 10
103.3104898830265
 20
-138.4949055643346
 10
103.1372015801185
 20
-138.5138535895035
 10
103.020757352717
 20
-138.5138535895035
 10
102.8598713935559
 20
-138.5138535895035
 10
102.7182779691121
 20
-138.4673448004526
 10
102.6231933337192
 20
-138.2854437588314
 10
102.5194959596132
 20
-138.0907958639148
 10
102.5005479344443
 20
-137.8541178040782
 10
102.5005479344443
 20
-137.6911647876258
 10
102.5005479344443
 20
-137.5471597963424
 10
102.517428902322
 20
-137.2953233163706
 10
102.6231933337192
 20
-137.0965413068717
 10
102.7310248224075
 20
-136.8936251827905
 10
102.8919107815687
 20
-136.8701985334908
 10
103.020757352717
 20
-136.8701985334908
 10
103.1795762545871
 20
-136.8701985334908
 10
103.323236736322
 20
-136.9146402652505
 10
103.4186658812634
 20
-137.0965413068717
 10
103.5178846312386
 20
-137.2891221444972
 10
103.5413112805383
 20
-137.5175319751692
 10
103.5413112805383
 20
-137.6911647876258
 10
103.5413112805383
 20
-137.8623860332428
 10
103.5199516885297
 20
-138.0928629212059
 10
103.4186658812634
 20
-138.2854437588314
 97
        0
 97
        0
 92
        1
 93
        1
 72
     4
 94
        3
 73
     0
 74
     1
 95
       17
 96
       13
 40
0.0
 40
0.0
 40
0.0
 40
0.0
 40
1.0
 40
1.0
 40
1.0
 40
2.0
 40
2.0
 40
2.0
 40
3.0
 40
3.0
 40
3.0
 40
4.0
 40
4.0
 40
4.0
 40
4.0
 10
103.020757352717
 20
-137.0627793711162
 10
102.771332439585
 20
-137.0627793711162
 10
102.7244791409856
 20
-137.3463107295523
 10
102.7244791409856
 20
-137.6911647876258
 10
102.7244791409856
 20
-138.0105251391085
 10
102.7606526435807
 20
-138.3192056945869
 10
103.020757352717
 20
-138.3192056945869
 10
103.2684597181065
 20
-138.3192056945869
 10
103.3170355644485
 20
-138.0380859029905
 10
103.3170355644485
 20
-137.6911647876258
 10
103.3170355644485
 20
-137.3714599265946
 10
103.2787950045623
 20
-137.0627793711162
 10
103.020757352717
 20
-137.0627793711162
 97
        0
 97
        0
 75
     2
 76
     1
 98
        0
  0
ENDBLK
  5
EC
330
E9
100
AcDbEntity
  8
0
100
AcDbBlockEnd
  0
BLOCK
  5
FC
330
FA
100
AcDbEntity
  8
0
100
AcDbBlockBegin
  2
block 7
 70
     0
 10
0.0
 20
0.0
 30
0.0
  3
block 7
  1

  0
SPLINE
  5
FE
330
FA
100
AcDbEntity
  8
_U+30EC_U+30A4_U+30E4_U+30FC 1
370
     0
100
AcDbSpline
210
0.0
220
0.0
230
1.0
 70
    11
 71
     3
 72
    32
 73
    28
 74
     0
 42
0.0000000001
 43
0.0000000001
 12
1.0
 22
0.0
 32
0.0
 13
1.0
 23
0.0
 33
0.0
 40
0.0
 40
0.0
 40
0.0
 40
0.0
 40
1.0
 40
1.0
 40
1.0
 40
2.0
 40
2.0
 40
2.0
 40
3.0
 40
3.0
 40
3.0
 40
4.0
 40
4.0
 40
4.0
 40
5.0
 40
5.0
 40
5.0
 40
6.0
 40
6.0
 40
6.0
 40
7.0
 40
7.0
 40
7.0
 40
8.0
 40
8.0
 40
8.0
 40
9.0
 40
9.0
 40
9.0
 40
9.0
 10
120.257259084519
 20
-148.8260579055018
 30
0.0
 10
120.257259084519
 20
-149.3421332091922
 30
0.0
 10
119.7032877304909
 20
-149.3504014383568
 30
0.0
 10
119.4893473008568
 20
-149.3504014383568
 30
0.0
 10
119.2588704128936
 20
-149.3504014383568
 30
0.0
 10
118.6115369712152
 20
-149.331453413188
 30
0.0
 10
118.6115369712152
 20
-148.7878173456156
 30
0.0
 10
118.6115369712152
 20
-148.6145290427075
 30
0.0
 10
118.6814724095657
 20
-148.3688937346092
 30
0.0
 10
119.0135796143438
 20
-148.3309976842714
 30
0.0
 10
119.0135796143438
 20
-148.3309976842714
 30
0.0
 10
119.0135796143438
 20
-148.5445936043569
 30
0.0
 10
119.0135796143438
 20
-148.5445936043569
 30
0.0
 10
118.9563910292887
 20
-148.5552734003612
 30
0.0
 10
118.8082519234229
 20
-148.5869682788255
 30
0.0
 10
118.8082519234229
 20
-148.7898844029067
 30
0.0
 10
118.8082519234229
 20
-149.0820285000559
 30
0.0
 10
119.1362250136187
 20
-149.1219916076848
 30
0.0
 10
119.3412081949911
 20
-149.1347384609802
 30
0.0
 10
119.2630045274759
 20
-149.0417208828785
 30
0.0
 10
119.2037488851296
 20
-148.973852501819
 30
0.0
 10
119.2037488851296
 20
-148.7919514601979
 30
0.0
 10
119.2037488851296
 20
-148.6121174758678
 30
0.0
 10
119.3119248833665
 20
-148.3096380922629
 30
0.0
 10
119.7181016410774
 20
-148.3096380922629
 30
0.0
 10
120.0374619925601
 20
-148.3096380922629
 30
0.0
 10
120.257259084519
 20
-148.5087646113103
 30
0.0
 10
120.257259084519
 20
-148.8260579055018
 30
0.0
  0
SPLINE
  5
FF
330
FA
100
AcDbEntity
  8
_U+30EC_U+30A4_U+30E4_U+30FC 1
370
     0
100
AcDbSpline
210
0.0
220
0.0
230
1.0
 70
    11
 71
     3
 72
    17
 73
    13
 74
     0
 42
0.0000000001
 43
0.0000000001
 12
1.0
 22
0.0
 32
0.0
 13
1.0
 23
0.0
 33
0.0
 40
0.0
 40
0.0
 40
0.0
 40
0.0
 40
1.0
 40
1.0
 40
1.0
 40
2.0
 40
2.0
 40
2.0
 40
3.0
 40
3.0
 40
3.0
 40
4.0
 40
4.0
 40
4.0
 40
4.0
 10
119.3983967800462
 20
-148.8088324280756
 30
0.0
 10
119.3983967800462
 20
-149.0713487040516
 30
0.0
 10
119.6099256428406
 20
-149.1092447543894
 30
0.0
 10
119.726369870242
 20
-149.1092447543894
 30
0.0
 10
119.9020697399898
 20
-149.1092447543894
 30
0.0
 10
120.0650227564421
 20
-149.0141601189965
 30
0.0
 10
120.0650227564421
 20
-148.8301920200841
 30
0.0
 10
120.0650227564421
 20
-148.7096136781004
 30
0.0
 10
120.0057671140958
 20
-148.5339138083527
 30
0.0
 10
119.7201686983686
 20
-148.5339138083527
 30
0.0
 10
119.4958929822788
 20
-148.5339138083527
 30
0.0
 10
119.3983967800462
 20
-148.6737846850538
 30
0.0
 10
119.3983967800462
 20
-148.8088324280756
 30
0.0
  0
HATCH
  5
100
330
FA
100
AcDbEntity
  8
_U+30EC_U+30A4_U+30E4_U+30FC 1
 62
     7
420
 16777215
100
AcDbHatch
 10
0.0
 20
0.0
 30
0.0
210
0.0
220
0.0
230
1.0
  2
SOLID
 70
     1
 71
     0
 91
        2
 92
        1
 93
        1
 72
     4
 94
        3
 73
     0
 74
     1
 95
       32
 96
       28
 40
0.0
 40
0.0
 40
0.0
 40
0.0
 40
1.0
 40
1.0
 40
1.0
 40
2.0
 40
2.0
 40
2.0
 40
3.0
 40
3.0
 40
3.0
 40
4.0
 40
4.0
 40
4.0
 40
5.0
 40
5.0
 40
5.0
 40
6.0
 40
6.0
 40
6.0
 40
7.0
 40
7.0
 40
7.0
 40
8.0
 40
8.0
 40
8.0
 40
9.0
 40
9.0
 40
9.0
 40
9.0
 10
120.257259084519
 20
-148.8260579055018
 10
120.257259084519
 20
-149.3421332091922
 10
119.7032877304909
 20
-149.3504014383568
 10
119.4893473008568
 20
-149.3504014383568
 10
119.2588704128936
 20
-149.3504014383568
 10
118.6115369712152
 20
-149.331453413188
 10
118.6115369712152
 20
-148.7878173456156
 10
118.6115369712152
 20
-148.6145290427075
 10
118.6814724095657
 20
-148.3688937346092
 10
119.0135796143438
 20
-148.3309976842714
 10
119.0135796143438
 20
-148.3309976842714
 10
119.0135796143438
 20
-148.5445936043569
 10
119.0135796143438
 20
-148.5445936043569
 10
118.9563910292887
 20
-148.5552734003612
 10
118.8082519234229
 20
-148.5869682788255
 10
118.8082519234229
 20
-148.7898844029067
 10
118.8082519234229
 20
-149.0820285000559
 10
119.1362250136187
 20
-149.1219916076848
 10
119.3412081949911
 20
-149.1347384609802
 10
119.2630045274759
 20
-149.0417208828785
 10
119.2037488851296
 20
-148.973852501819
 10
119.2037488851296
 20
-148.7919514601979
 10
119.2037488851296
 20
-148.6121174758678
 10
119.3119248833665
 20
-148.3096380922629
 10
119.7181016410774
 20
-148.3096380922629
 10
120.0374619925601
 20
-148.3096380922629
 10
120.257259084519
 20
-148.5087646113103
 10
120.257259084519
 20
-148.8260579055018
 97
        0
 97
        0
 92
        1
 93
        1
 72
     4
 94
        3
 73
     0
 74
     1
 95
       17
 96
       13
 40
0.0
 40
0.0
 40
0.0
 40
0.0
 40
1.0
 40
1.0
 40
1.0
 40
2.0
 40
2.0
 40
2.0
 40
3.0
 40
3.0
 40
3.0
 40
4.0
 40
4.0
 40
4.0
 40
4.0
 10
119.3983967800462
 20
-148.8088324280756
 10
119.3983967800462
 20
-149.0713487040516
 10
119.6099256428406
 20
-149.1092447543894
 10
119.726369870242
 20
-149.1092447543894
 10
119.9020697399898
 20
-149.1092447543894
 10
120.0650227564421
 20
-149.0141601189965
 10
120.0650227564421
 20
-148.8301920200841
 10
120.0650227564421
 20
-148.7096136781004
 10
120.0057671140958
 20
-148.5339138083527
 10
119.7201686983686
 20
-148.5339138083527
 10
119.4958929822788
 20
-148.5339138083527
 10
119.3983967800462
 20
-148.6737846850538
 10
119.3983967800462
 20
-148.8088324280756
 97
        0
 97
        0
 75
     2
 76
     1
 98
        0
  0
POLYLINE
  5
101
330
FA
100
AcDbEntity
  8
_U+30EC_U+30A4_U+30E4_U+30FC 1
370
     0
100
AcDb2dPolyline
 66
     1
 10
0.0
 20
0.0
 30
0.0
  0
VERTEX
  5
102
330
101
100
AcDbEntity
  8
_U+30EC_U+30A4_U+30E4_U+30FC 1
370
     0
100
AcDbVertex
100
AcDb2dVertex
 10
120.2066161808858
 20
-148.0932860957892
 30
0.0
  0
VERTEX
  5
103
330
101
100
AcDbEntity
  8
_U+30EC_U+30A4_U+30E4_U+30FC 1
370
     0
100
AcDbVertex
100
AcDb2dVertex
 10
119.9547797009141
 20
-148.0932860957892
 30
0.0
  0
VERTEX
  5
104
330
101
100
AcDbEntity
  8
_U+30EC_U+30A4_U+30E4_U+30FC 1
370
     0
100
AcDbVertex
100
AcDb2dVertex
 10
119.9547797009141
 20
-147.8414496158174
 30
0.0
  0
VERTEX
  5
105
330
101
100
AcDbEntity
  8
_U+30EC_U+30A4_U+30E4_U+30FC 1
370
     0
100
AcDbVertex
100
AcDb2dVertex
 10
120.2066161808858
 20
-147.8414496158174
 30
0.0
  0
VERTEX
  5
106
330
101
100
AcDbEntity
  8
_U+30EC_U+30A4_U+30E4_U+30FC 1
370
     0
100
AcDbVertex
100
AcDb2dVertex
 10
120.2066161808858
 20
-148.0932860957892
 30
0.0
  0
SEQEND
  5
107
330
101
100
AcDbEntity
  8
_U+30EC_U+30A4_U+30E4_U+30FC 1
370
     0
  0
HATCH
  5
108
330
FA
100
AcDbEntity
  8
_U+30EC_U+30A4_U+30E4_U+30FC 1
 62
     7
420
 16777215
100
AcDbHatch
 10
0.0
 20
0.0
 30
0.0
210
0.0
220
0.0
230
1.0
  2
SOLID
 70
     1
 71
     0
 91
        1
 92
        1
 93
        4
 72
     1
 10
120.2066161808858
 20
-148.0932860957892
 11
119.9547797009141
 21
-148.0932860957892
 72
     1
 10
119.9547797009141
 20
-148.0932860957892
 11
119.9547797009141
 21
-147.8414496158174
 72
     1
 10
119.9547797009141
 20
-147.8414496158174
 11
120.2066161808858
 21
-147.8414496158174
 72
     1
 10
120.2066161808858
 20
-147.8414496158174
 11
120.2066161808858
 21
-148.0932860957892
 97
        0
 75
     2
 76
     1
 98
        0
  0
SPLINE
  5
109
330
FA
100
AcDbEntity
  8
_U+30EC_U+30A4_U+30E4_U+30FC 1
370
     0
100
AcDbSpline
210
0.0
220
0.0
230
1.0
 70
    11
 71
     3
 72
    53
 73
    49
 74
     0
 42
0.0000000001
 43
0.0000000001
 12
1.0
 22
0.0
 32
0.0
 13
1.0
 23
0.0
 33
0.0
 40
0.0
 40
0.0
 40
0.0
 40
0.0
 40
1.0
 40
1.0
 40
1.0
 40
2.0
 40
2.0
 40
2.0
 40
3.0
 40
3.0
 40
3.0
 40
4.0
 40
4.0
 40
4.0
 40
5.0
 40
5.0
 40
5.0
 40
6.0
 40
6.0
 40
6.0
 40
7.0
 40
7.0
 40
7.0
 40
8.0
 40
8.0
 40
8.0
 40
9.0
 40
9.0
 40
9.0
 40
10.0
 40
10.0
 40
10.0
 40
11.0
 40
11.0
 40
11.0
 40
12.0
 40
12.0
 40
12.0
 40
13.0
 40
13.0
 40
13.0
 40
14.0
 40
14.0
 40
14.0
 40
15.0
 40
15.0
 40
15.0
 40
16.0
 40
16.0
 40
16.0
 40
16.0
 10
120.257259084519
 20
-147.1241807357884
 30
0.0
 10
120.257259084519
 20
-147.2023844033036
 30
0.0
 10
120.2403781166413
 20
-147.3040147201185
 30
0.0
 10
120.1769883597127
 20
-147.4056450369333
 30
0.0
 10
120.0670898137332
 20
-147.5789333398414
 30
0.0
 10
119.9358316757452
 20
-147.6002929318499
 30
0.0
 10
119.8280001870569
 20
-147.6192409570188
 30
0.0
 10
119.8280001870569
 20
-147.6192409570188
 30
0.0
 10
119.8280001870569
 20
-147.3970322982202
 30
0.0
 10
119.8280001870569
 20
-147.3970322982202
 30
0.0
 10
120.0267821965558
 20
-147.3422552800047
 30
0.0
 10
120.056410017729
 20
-147.215131256599
 30
0.0
 10
120.056410017729
 20
-147.1221136784972
 30
0.0
 10
120.056410017729
 20
-146.9825873113446
 30
0.0
 10
119.9568467582052
 20
-146.8303140908966
 30
0.0
 10
119.7243028129509
 20
-146.8303140908966
 30
0.0
 10
119.4683322183968
 20
-146.8303140908966
 30
0.0
 10
119.3983967800462
 20
-147.0101480752266
 30
0.0
 10
119.3983967800462
 20
-147.1307264172104
 30
0.0
 10
119.3983967800462
 20
-147.1624212956747
 30
0.0
 10
119.3983967800462
 20
-147.3040147201185
 30
0.0
 10
119.5275878607431
 20
-147.3928981836379
 30
0.0
 10
119.5275878607431
 20
-147.3928981836379
 30
0.0
 10
119.5086398355742
 20
-147.5685980533856
 30
0.0
 10
119.5086398355742
 20
-147.5685980533856
 30
0.0
 10
119.5086398355742
 20
-147.5685980533856
 30
0.0
 10
118.6621798748483
 20
-147.4480197114019
 30
0.0
 10
118.6621798748483
 20
-147.4480197114019
 30
0.0
 10
118.6621798748483
 20
-147.4480197114019
 30
0.0
 10
118.6621798748483
 20
-146.6694281317354
 30
0.0
 10
118.6621798748483
 20
-146.6694281317354
 30
0.0
 10
118.6621798748483
 20
-146.6694281317354
 30
0.0
 10
118.856827769765
 20
-146.6694281317354
 30
0.0
 10
118.856827769765
 20
-146.6694281317354
 30
0.0
 10
118.856827769765
 20
-146.6694281317354
 30
0.0
 10
118.856827769765
 20
-147.2850666949496
 30
0.0
 10
118.856827769765
 20
-147.2850666949496
 30
0.0
 10
118.856827769765
 20
-147.2850666949496
 30
0.0
 10
119.2798854953536
 20
-147.3505235091693
 30
0.0
 10
119.2798854953536
 20
-147.3505235091693
 30
0.0
 10
119.2461235595982
 20
-147.2892008095319
 30
0.0
 10
119.2058159424208
 20
-147.2068630274344
 30
0.0
 10
119.2058159424208
 20
-147.0883517427418
 30
0.0
 10
119.2058159424208
 20
-146.8344482054789
 30
0.0
 10
119.3921956081728
 20
-146.5974256360937
 30
0.0
 10
119.705354787782
 20
-146.5974256360937
 30
0.0
 10
120.0226480819735
 20
-146.5974256360937
 30
0.0
 10
120.257259084519
 20
-146.8217013521835
 30
0.0
 10
120.257259084519
 20
-147.1241807357884
 30
0.0
  0
HATCH
  5
10A
330
FA
100
AcDbEntity
  8
_U+30EC_U+30A4_U+30E4_U+30FC 1
 62
     7
420
 16777215
100
AcDbHatch
 10
0.0
 20
0.0
 30
0.0
210
0.0
220
0.0
230
1.0
  2
SOLID
 70
     1
 71
     0
 91
        1
 92
        1
 93
        1
 72
     4
 94
        3
 73
     0
 74
     1
 95
       53
 96
       49
 40
0.0
 40
0.0
 40
0.0
 40
0.0
 40
1.0
 40
1.0
 40
1.0
 40
2.0
 40
2.0
 40
2.0
 40
3.0
 40
3.0
 40
3.0
 40
4.0
 40
4.0
 40
4.0
 40
5.0
 40
5.0
 40
5.0
 40
6.0
 40
6.0
 40
6.0
 40
7.0
 40
7.0
 40
7.0
 40
8.0
 40
8.0
 40
8.0
 40
9.0
 40
9.0
 40
9.0
 40
10.0
 40
10.0
 40
10.0
 40
11.0
 40
11.0
 40
11.0
 40
12.0
 40
12.0
 40
12.0
 40
13.0
 40
13.0
 40
13.0
 40
14.0
 40
14.0
 40
14.0
 40
15.0
 40
15.0
 40
15.0
 40
16.0
 40
16.0
 40
16.0
 40
16.0
 10
120.257259084519
 20
-147.1241807357884
 10
120.257259084519
 20
-147.2023844033036
 10
120.2403781166413
 20
-147.3040147201185
 10
120.1769883597127
 20
-147.4056450369333
 10
120.0670898137332
 20
-147.5789333398414
 10
119.9358316757452
 20
-147.6002929318499
 10
119.8280001870569
 20
-147.6192409570188
 10
119.8280001870569
 20
-147.6192409570188
 10
119.8280001870569
 20
-147.3970322982202
 10
119.8280001870569
 20
-147.3970322982202
 10
120.0267821965558
 20
-147.3422552800047
 10
120.056410017729
 20
-147.215131256599
 10
120.056410017729
 20
-147.1221136784972
 10
120.056410017729
 20
-146.9825873113446
 10
119.9568467582052
 20
-146.8303140908966
 10
119.7243028129509
 20
-146.8303140908966
 10
119.4683322183968
 20
-146.8303140908966
 10
119.3983967800462
 20
-147.0101480752266
 10
119.3983967800462
 20
-147.1307264172104
 10
119.3983967800462
 20
-147.1624212956747
 10
119.3983967800462
 20
-147.3040147201185
 10
119.5275878607431
 20
-147.3928981836379
 10
119.5275878607431
 20
-147.3928981836379
 10
119.5086398355742
 20
-147.5685980533856
 10
119.5086398355742
 20
-147.5685980533856
 10
119.5086398355742
 20
-147.5685980533856
 10
118.6621798748483
 20
-147.4480197114019
 10
118.6621798748483
 20
-147.4480197114019
 10
118.6621798748483
 20
-147.4480197114019
 10
118.6621798748483
 20
-146.6694281317354
 10
118.6621798748483
 20
-146.6694281317354
 10
118.6621798748483
 20
-146.6694281317354
 10
118.856827769765
 20
-146.6694281317354
 10
118.856827769765
 20
-146.6694281317354
 10
118.856827769765
 20
-146.6694281317354
 10
118.856827769765
 20
-147.2850666949496
 10
118.856827769765
 20
-147.2850666949496
 10
118.856827769765
 20
-147.2850666949496
 10
119.2798854953536
 20
-147.3505235091693
 10
119.2798854953536
 20
-147.3505235091693
 10
119.2461235595982
 20
-147.2892008095319
 10
119.2058159424208
 20
-147.2068630274344
 10
119.2058159424208
 20
-147.0883517427418
 10
119.2058159424208
 20
-146.8344482054789
 10
119.3921956081728
 20
-146.5974256360937
 10
119.705354787782
 20
-146.5974256360937
 10
120.0226480819735
 20
-146.5974256360937
 10
120.257259084519
 20
-146.8217013521835
 10
120.257259084519
 20
-147.1241807357884
 97
        0
 97
        0
 75
     2
 76
     1
 98
        0
  0
ENDBLK
  5
FD
330
FA
100
AcDbEntity
  8
0
100
AcDbBlockEnd
  0
BLOCK
  5
111
330
10F
100
AcDbEntity
  8
0
100
AcDbBlockBegin
  2
block 8
 70
     0
 10
0.0
 20
0.0
 30
0.0
  3
block 8
  1

  0
SPLINE
  5
113
330
10F
100
AcDbEntity
  8
_U+30EC_U+30A4_U+30E4_U+30FC 1
370
     0
100
AcDbSpline
210
0.0
220
0.0
230
1.0
 70
    11
 71
     3
 72
    17
 73
    13
 74
     0
 42
0.0000000001
 43
0.0000000001
 12
1.0
 22
0.0
 32
0.0
 13
1.0
 23
0.0
 33
0.0
 40
0.0
 40
0.0
 40
0.0
 40
0.0
 40
1.0
 40
1.0
 40
1.0
 40
2.0
 40
2.0
 40
2.0
 40
3.0
 40
3.0
 40
3.0
 40
4.0
 40
4.0
 40
4.0
 40
4.0
 10
106.7538628205338
 20
-156.399066801178
 30
0.0
 10
106.6480983891366
 20
-156.2933023697809
 30
0.0
 10
106.5674831547817
 20
-156.2550618098946
 30
0.0
 10
106.47446557668
 20
-156.2233669314303
 30
0.0
 10
106.47446557668
 20
-156.2233669314303
 30
0.0
 10
106.584708632208
 20
-156.0586913672353
 30
0.0
 10
106.584708632208
 20
-156.0586913672353
 30
0.0
 10
106.681860324892
 20
-156.1007215321554
 30
0.0
 10
106.8024386668758
 20
-156.1792697092191
 30
0.0
 10
106.8554931373486
 20
-156.2340467274346
 30
0.0
 10
106.8554931373486
 20
-156.2340467274346
 30
0.0
 10
106.7538628205338
 20
-156.399066801178
 30
0.0
 10
106.7538628205338
 20
-156.399066801178
 30
0.0
  0
SPLINE
  5
114
330
10F
100
AcDbEntity
  8
_U+30EC_U+30A4_U+30E4_U+30FC 1
370
     0
100
AcDbSpline
210
0.0
220
0.0
230
1.0
 70
    11
 71
     3
 72
   182
 73
   178
 74
     0
 42
0.0000000001
 43
0.0000000001
 12
1.0
 22
0.0
 32
0.0
 13
1.0
 23
0.0
 33
0.0
 40
0.0
 40
0.0
 40
0.0
 40
0.0
 40
1.0
 40
1.0
 40
1.0
 40
2.0
 40
2.0
 40
2.0
 40
3.0
 40
3.0
 40
3.0
 40
4.0
 40
4.0
 40
4.0
 40
5.0
 40
5.0
 40
5.0
 40
6.0
 40
6.0
 40
6.0
 40
7.0
 40
7.0
 40
7.0
 40
8.0
 40
8.0
 40
8.0
 40
9.0
 40
9.0
 40
9.0
 40
10.0
 40
10.0
 40
10.0
 40
11.0
 40
11.0
 40
11.0
 40
12.0
 40
12.0
 40
12.0
 40
13.0
 40
13.0
 40
13.0
 40
14.0
 40
14.0
 40
14.0
 40
15.0
 40
15.0
 40
15.0
 40
16.0
 40
16.0
 40
16.0
 40
17.0
 40
17.0
 40
17.0
 40
18.0
 40
18.0
 40
18.0
 40
19.0
 40
19.0
 40
19.0
 40
20.0
 40
20.0
 40
20.0
 40
21.0
 40
21.0
 40
21.0
 40
22.0
 40
22.0
 40
22.0
 40
23.0
 40
23.0
 40
23.0
 40
24.0
 40
24.0
 40
24.0
 40
25.0
 40
25.0
 40
25.0
 40
26.0
 40
26.0
 40
26.0
 40
27.0
 40
27.0
 40
27.0
 40
28.0
 40
28.0
 40
28.0
 40
29.0
 40
29.0
 40
29.0
 40
30.0
 40
30.0
 40
30.0
 40
31.0
 40
31.0
 40
31.0
 40
32.0
 40
32.0
 40
32.0
 40
33.0
 40
33.0
 40
33.0
 40
34.0
 40
34.0
 40
34.0
 40
35.0
 40
35.0
 40
35.0
 40
36.0
 40
36.0
 40
36.0
 40
37.0
 40
37.0
 40
37.0
 40
38.0
 40
38.0
 40
38.0
 40
39.0
 40
39.0
 40
39.0
 40
40.0
 40
40.0
 40
40.0
 40
41.0
 40
41.0
 40
41.0
 40
42.0
 40
42.0
 40
42.0
 40
43.0
 40
43.0
 40
43.0
 40
44.0
 40
44.0
 40
44.0
 40
45.0
 40
45.0
 40
45.0
 40
46.0
 40
46.0
 40
46.0
 40
47.0
 40
47.0
 40
47.0
 40
48.0
 40
48.0
 40
48.0
 40
49.0
 40
49.0
 40
49.0
 40
50.0
 40
50.0
 40
50.0
 40
51.0
 40
51.0
 40
51.0
 40
52.0
 40
52.0
 40
52.0
 40
53.0
 40
53.0
 40
53.0
 40
54.0
 40
54.0
 40
54.0
 40
55.0
 40
55.0
 40
55.0
 40
56.0
 40
56.0
 40
56.0
 40
57.0
 40
57.0
 40
57.0
 40
58.0
 40
58.0
 40
58.0
 40
59.0
 40
59.0
 40
59.0
 40
59.0
 10
107.79876028121
 20
-157.5772894571335
 30
0.0
 10
107.79876028121
 20
-157.5772894571335
 30
0.0
 10
107.1621066355359
 20
-157.5772894571335
 30
0.0
 10
107.1621066355359
 20
-157.5772894571335
 30
0.0
 10
106.9485107154504
 20
-157.5772894571335
 30
0.0
 10
106.7325032285252
 20
-157.5817680812643
 30
0.0
 10
106.5189073084397
 20
-157.5945149345597
 30
0.0
 10
106.5189073084397
 20
-157.5945149345597
 30
0.0
 10
106.5189073084397
 20
-157.3871201863477
 30
0.0
 10
106.5189073084397
 20
-157.3871201863477
 30
0.0
 10
106.7411159672383
 20
-157.3995225300946
 30
0.0
 10
107.0646104333033
 20
-157.4040011542254
 30
0.0
 10
107.1621066355359
 20
-157.4040011542254
 30
0.0
 10
107.1621066355359
 20
-157.4040011542254
 30
0.0
 10
107.3822482370433
 20
-157.4040011542254
 30
0.0
 10
107.3822482370433
 20
-157.4040011542254
 30
0.0
 10
107.3822482370433
 20
-157.4040011542254
 30
0.0
 10
107.3822482370433
 20
-157.2624077297816
 30
0.0
 10
107.3822482370433
 20
-157.2624077297816
 30
0.0
 10
107.3822482370433
 20
-157.2624077297816
 30
0.0
 10
107.2213622778822
 20
-157.2624077297816
 30
0.0
 10
107.2213622778822
 20
-157.2624077297816
 30
0.0
 10
107.0563422041387
 20
-157.2624077297816
 30
0.0
 10
106.8913221303952
 20
-157.2665418443639
 30
0.0
 10
106.7263020566518
 20
-157.2813557549505
 30
0.0
 10
106.7263020566518
 20
-157.2813557549505
 30
0.0
 10
106.7263020566518
 20
-157.0718939494473
 30
0.0
 10
106.7263020566518
 20
-157.0718939494473
 30
0.0
 10
106.8975233022687
 20
-157.0867078600339
 30
0.0
 10
107.1452256676581
 20
-157.0908419746162
 30
0.0
 10
107.2213622778822
 20
-157.0908419746162
 30
0.0
 10
107.2213622778822
 20
-157.0908419746162
 30
0.0
 10
107.3822482370433
 20
-157.0908419746162
 30
0.0
 10
107.3822482370433
 20
-157.0908419746162
 30
0.0
 10
107.3777696129125
 20
-157.019183988523
 30
0.0
 10
107.3777696129125
 20
-157.012638307101
 30
0.0
 10
107.3715684410391
 20
-156.9599283461767
 30
0.0
 10
107.3715684410391
 20
-156.9599283461767
 30
0.0
 10
107.5110948081917
 20
-156.9743977472147
 30
0.0
 10
107.5110948081917
 20
-156.9743977472147
 30
0.0
 10
107.5110948081917
 20
-156.9743977472147
 30
0.0
 10
107.4118760582165
 20
-156.8031765015978
 30
0.0
 10
107.4118760582165
 20
-156.8031765015978
 30
0.0
 10
107.4583848472674
 20
-156.8097221830198
 30
0.0
 10
107.5324544002002
 20
-156.8179904121844
 30
0.0
 10
107.5493353680779
 20
-156.8179904121844
 30
0.0
 10
107.5999782717111
 20
-156.8179904121844
 30
0.0
 10
107.6168592395888
 20
-156.7966308201759
 30
0.0
 10
107.6168592395888
 20
-156.7397867446692
 30
0.0
 10
107.6168592395888
 20
-156.7397867446692
 30
0.0
 10
107.6168592395888
 20
-156.6023274348078
 30
0.0
 10
107.6168592395888
 20
-156.6023274348078
 30
0.0
 10
107.6168592395888
 20
-156.6023274348078
 30
0.0
 10
107.5110948081917
 20
-156.6023274348078
 30
0.0
 10
107.5110948081917
 20
-156.6023274348078
 30
0.0
 10
107.3777696129125
 20
-156.6023274348078
 30
0.0
 10
107.2213622778822
 20
-156.6023274348078
 30
0.0
 10
107.0987168786073
 20
-156.6147297785546
 30
0.0
 10
107.0987168786073
 20
-156.6147297785546
 30
0.0
 10
107.0987168786073
 20
-156.4245605077689
 30
0.0
 10
107.0987168786073
 20
-156.4245605077689
 30
0.0
 10
107.2658040096419
 20
-156.4414414756466
 30
0.0
 10
107.4962808976051
 20
-156.4435085329377
 30
0.0
 10
107.5110948081917
 20
-156.4435085329377
 30
0.0
 10
107.5110948081917
 20
-156.4435085329377
 30
0.0
 10
107.6168592395888
 20
-156.4435085329377
 30
0.0
 10
107.6168592395888
 20
-156.4435085329377
 30
0.0
 10
107.6168592395888
 20
-156.4435085329377
 30
0.0
 10
107.6168592395888
 20
-156.3122503949497
 30
0.0
 10
107.6168592395888
 20
-156.3122503949497
 30
0.0
 10
107.6168592395888
 20
-156.3122503949497
 30
0.0
 10
107.5789631892511
 20
-156.3122503949497
 30
0.0
 10
107.5789631892511
 20
-156.3122503949497
 30
0.0
 10
107.5345214574914
 20
-156.3122503949497
 30
0.0
 10
107.4094644913768
 20
-156.316384509532
 30
0.0
 10
107.3205810278574
 20
-156.3249972482452
 30
0.0
 10
107.3205810278574
 20
-156.3249972482452
 30
0.0
 10
107.3205810278574
 20
-156.2447265234388
 30
0.0
 10
107.3205810278574
 20
-156.2447265234388
 30
0.0
 10
107.267871066933
 20
-156.2826225737766
 30
0.0
 10
107.2423773603422
 20
-156.2977809939117
 30
0.0
 10
107.2000026858736
 20
-156.3208631336628
 30
0.0
 10
107.2000026858736
 20
-156.3208631336628
 30
0.0
 10
107.011900472379
 20
-156.191672052966
 30
0.0
 10
107.011900472379
 20
-156.191672052966
 30
0.0
 10
107.0901041398942
 20
-156.1579101172105
 30
0.0
 10
107.246855984473
 20
-156.0945203602819
 30
0.0
 10
107.4032633195034
 20
-155.9505153689985
 30
0.0
 10
107.4856011016008
 20
-155.8723117014833
 30
0.0
 10
107.5641492786645
 20
-155.7879068620947
 30
0.0
 10
107.6168592395888
 20
-155.6862765452798
 30
0.0
 10
107.6168592395888
 20
-155.6862765452798
 30
0.0
 10
107.8283881023832
 20
-155.7475992449173
 30
0.0
 10
107.8283881023832
 20
-155.7475992449173
 30
0.0
 10
107.8476806371006
 20
-155.7538004167907
 30
0.0
 10
107.8580159235563
 20
-155.7624131555039
 30
0.0
 10
107.8580159235563
 20
-155.7748154992507
 30
0.0
 10
107.8580159235563
 20
-155.792040976677
 30
0.0
 10
107.8452690702609
 20
-155.7982421485505
 30
0.0
 10
107.8201198732186
 20
-155.8109890018459
 30
0.0
 10
107.9003905980249
 20
-155.9084852040784
 30
0.0
 10
108.0633436144772
 20
-156.0056368967625
 30
0.0
 10
108.0971055502327
 20
-156.0245849219314
 30
0.0
 10
108.2473117133896
 20
-156.1134683854508
 30
0.0
 10
108.3616888834999
 20
-156.1410291493328
 30
0.0
 10
108.439892551015
 20
-156.1599771745017
 30
0.0
 10
108.439892551015
 20
-156.1599771745017
 30
0.0
 10
108.3213812663224
 20
-156.329475872376
 30
0.0
 10
108.3213812663224
 20
-156.329475872376
 30
0.0
 10
108.2366319173853
 20
-156.2998480512028
 30
0.0
 10
108.1859890137521
 20
-156.2805555164854
 30
0.0
 10
108.0674777290595
 20
-156.2150987022657
 30
0.0
 10
108.0674777290595
 20
-156.2150987022657
 30
0.0
 10
108.0674777290595
 20
-156.3249972482452
 30
0.0
 10
108.0674777290595
 20
-156.3249972482452
 30
0.0
 10
107.9851399469621
 20
-156.316384509532
 30
0.0
 10
107.8580159235563
 20
-156.3122503949497
 30
0.0
 10
107.805305962632
 20
-156.3122503949497
 30
0.0
 10
107.805305962632
 20
-156.3122503949497
 30
0.0
 10
107.805305962632
 20
-156.4435085329377
 30
0.0
 10
107.805305962632
 20
-156.4435085329377
 30
0.0
 10
107.805305962632
 20
-156.4435085329377
 30
0.0
 10
107.9258843046157
 20
-156.4435085329377
 30
0.0
 10
107.9258843046157
 20
-156.4435085329377
 30
0.0
 10
107.9279513619069
 20
-156.4435085329377
 30
0.0
 10
108.1604953071613
 20
-156.4414414756466
 30
0.0
 10
108.3382622342002
 20
-156.4245605077689
 30
0.0
 10
108.3382622342002
 20
-156.4245605077689
 30
0.0
 10
108.3382622342002
 20
-156.6147297785546
 30
0.0
 10
108.3382622342002
 20
-156.6147297785546
 30
0.0
 10
108.2094156630518
 20
-156.6023274348078
 30
0.0
 10
108.052663818473
 20
-156.6023274348078
 30
0.0
 10
107.9258843046157
 20
-156.6023274348078
 30
0.0
 10
107.9258843046157
 20
-156.6023274348078
 30
0.0
 10
107.805305962632
 20
-156.6023274348078
 30
0.0
 10
107.805305962632
 20
-156.6023274348078
 30
0.0
 10
107.805305962632
 20
-156.6023274348078
 30
0.0
 10
107.805305962632
 20
-156.8283256986402
 30
0.0
 10
107.805305962632
 20
-156.8283256986402
 30
0.0
 10
107.805305962632
 20
-156.9468369833327
 30
0.0
 10
107.7798122560412
 20
-156.9830104859279
 30
0.0
 10
107.61892629688
 20
-156.9978243965144
 30
0.0
 10
107.6234049210108
 20
-157.0167724216833
 30
0.0
 10
107.6168592395888
 20
-157.0274522176876
 30
0.0
 10
107.5789631892511
 20
-157.0508788669873
 30
0.0
 10
107.5768961319599
 20
-157.0694823826076
 30
0.0
 10
107.5768961319599
 20
-157.0760280640296
 30
0.0
 10
107.5744845651203
 20
-157.0908419746162
 30
0.0
 10
107.5744845651203
 20
-157.0908419746162
 30
0.0
 10
107.7119438749817
 20
-157.0908419746162
 30
0.0
 10
107.7119438749817
 20
-157.0908419746162
 30
0.0
 10
107.8769639487252
 20
-157.0908419746162
 30
0.0
 10
108.0443955893084
 20
-157.0867078600339
 30
0.0
 10
108.211482720343
 20
-157.0718939494473
 30
0.0
 10
108.211482720343
 20
-157.0718939494473
 30
0.0
 10
108.211482720343
 20
-157.2789441881108
 30
0.0
 10
108.211482720343
 20
-157.2789441881108
 30
0.0
 10
107.9954752334178
 20
-157.2624077297816
 30
0.0
 10
107.7312364096991
 20
-157.2624077297816
 30
0.0
 10
107.7119438749817
 20
-157.2624077297816
 30
0.0
 10
107.7119438749817
 20
-157.2624077297816
 30
0.0
 10
107.5724175078291
 20
-157.2624077297816
 30
0.0
 10
107.5724175078291
 20
-157.2624077297816
 30
0.0
 10
107.5724175078291
 20
-157.2624077297816
 30
0.0
 10
107.5724175078291
 20
-157.4040011542254
 30
0.0
 10
107.5724175078291
 20
-157.4040011542254
 30
0.0
 10
107.5724175078291
 20
-157.4040011542254
 30
0.0
 10
107.79876028121
 20
-157.4040011542254
 30
0.0
 10
107.79876028121
 20
-157.4040011542254
 30
0.0
 10
108.0147677681352
 20
-157.4040011542254
 30
0.0
 10
108.232497802803
 20
-157.3995225300946
 30
0.0
 10
108.4481607801796
 20
-157.3871201863477
 30
0.0
 10
108.4481607801796
 20
-157.3871201863477
 30
0.0
 10
108.4481607801796
 20
-157.5945149345597
 30
0.0
 10
108.4481607801796
 20
-157.5945149345597
 30
0.0
 10
108.1670409885832
 20
-157.5772894571335
 30
0.0
 10
107.8221869305097
 20
-157.5772894571335
 30
0.0
 10
107.79876028121
 20
-157.5772894571335
 30
0.0
  0
SPLINE
  5
115
330
10F
100
AcDbEntity
  8
_U+30EC_U+30A4_U+30E4_U+30FC 1
370
     0
100
AcDbSpline
210
0.0
220
0.0
230
1.0
 70
    11
 71
     3
 72
    23
 73
    19
 74
     0
 42
0.0000000001
 43
0.0000000001
 12
1.0
 22
0.0
 32
0.0
 13
1.0
 23
0.0
 33
0.0
 40
0.0
 40
0.0
 40
0.0
 40
0.0
 40
1.0
 40
1.0
 40
1.0
 40
2.0
 40
2.0
 40
2.0
 40
3.0
 40
3.0
 40
3.0
 40
4.0
 40
4.0
 40
4.0
 40
5.0
 40
5.0
 40
5.0
 40
6.0
 40
6.0
 40
6.0
 40
6.0
 10
106.6797932676009
 20
-156.9489040406239
 30
0.0
 10
106.6797932676009
 20
-156.9702636326325
 30
0.0
 10
106.681860324892
 20
-157.0081596829702
 30
0.0
 10
106.6563666183012
 20
-157.0081596829702
 30
0.0
 10
106.6460313318454
 20
-157.0081596829702
 30
0.0
 10
106.6374185931323
 20
-157.0019585110967
 30
0.0
 10
106.626738797128
 20
-156.985077543219
 30
0.0
 10
106.626738797128
 20
-156.985077543219
 30
0.0
 10
106.523041423022
 20
-156.8031765015978
 30
0.0
 10
106.523041423022
 20
-156.8031765015978
 30
0.0
 10
106.7390489099472
 20
-156.6739854209009
 30
0.0
 10
106.935763862155
 20
-156.3969997438869
 30
0.0
 10
106.9822726512058
 20
-156.3249972482452
 30
0.0
 10
106.9822726512058
 20
-156.3249972482452
 30
0.0
 10
107.0542751468475
 20
-156.5048312325752
 30
0.0
 10
107.0542751468475
 20
-156.5048312325752
 30
0.0
 10
106.9209499515684
 20
-156.701546184783
 30
0.0
 10
106.7452500818206
 20
-156.8855142836953
 30
0.0
 10
106.6797932676009
 20
-156.9489040406239
 30
0.0
  0
SPLINE
  5
116
330
10F
100
AcDbEntity
  8
_U+30EC_U+30A4_U+30E4_U+30FC 1
370
     0
100
AcDbSpline
210
0.0
220
0.0
230
1.0
 70
    11
 71
     3
 72
    17
 73
    13
 74
     0
 42
0.0000000001
 43
0.0000000001
 12
1.0
 22
0.0
 32
0.0
 13
1.0
 23
0.0
 33
0.0
 40
0.0
 40
0.0
 40
0.0
 40
0.0
 40
1.0
 40
1.0
 40
1.0
 40
2.0
 40
2.0
 40
2.0
 40
3.0
 40
3.0
 40
3.0
 40
4.0
 40
4.0
 40
4.0
 40
4.0
 10
106.9336968048638
 20
-156.0542127431045
 30
0.0
 10
106.8723741052264
 20
-155.9780761328805
 30
0.0
 10
106.7431830245295
 20
-155.9019395226565
 30
0.0
 10
106.6394856504235
 20
-155.8723117014833
 30
0.0
 10
106.6394856504235
 20
-155.8723117014833
 30
0.0
 10
106.7349147953649
 20
-155.7072916277399
 30
0.0
 10
106.7349147953649
 20
-155.7072916277399
 30
0.0
 10
106.8362006026312
 20
-155.7431206207864
 30
0.0
 10
106.9419650340284
 20
-155.8003092058416
 30
0.0
 10
107.0308484975479
 20
-155.8809244401965
 30
0.0
 10
107.0308484975479
 20
-155.8809244401965
 30
0.0
 10
106.9336968048638
 20
-156.0542127431045
 30
0.0
 10
106.9336968048638
 20
-156.0542127431045
 30
0.0
  0
SPLINE
  5
117
330
10F
100
AcDbEntity
  8
_U+30EC_U+30A4_U+30E4_U+30FC 1
370
     0
100
AcDbSpline
210
0.0
220
0.0
230
1.0
 70
    11
 71
     3
 72
    23
 73
    19
 74
     0
 42
0.0000000001
 43
0.0000000001
 12
1.0
 22
0.0
 32
0.0
 13
1.0
 23
0.0
 33
0.0
 40
0.0
 40
0.0
 40
0.0
 40
0.0
 40
1.0
 40
1.0
 40
1.0
 40
2.0
 40
2.0
 40
2.0
 40
3.0
 40
3.0
 40
3.0
 40
4.0
 40
4.0
 40
4.0
 40
5.0
 40
5.0
 40
5.0
 40
6.0
 40
6.0
 40
6.0
 40
6.0
 10
107.3863823516256
 20
-156.7587347698381
 30
0.0
 10
107.3650227596171
 20
-156.7821614191378
 30
0.0
 10
107.267871066933
 20
-156.8941270224084
 30
0.0
 10
107.1283446997804
 20
-156.9743977472147
 30
0.0
 10
107.1283446997804
 20
-156.9743977472147
 30
0.0
 10
106.9612575687458
 20
-156.853819405231
 30
0.0
 10
106.9612575687458
 20
-156.853819405231
 30
0.0
 10
107.1114637319027
 20
-156.7780273045555
 30
0.0
 10
107.2106824818779
 20
-156.6825981596141
 30
0.0
 10
107.2592583282199
 20
-156.6298881986898
 30
0.0
 10
107.2592583282199
 20
-156.6298881986898
 30
0.0
 10
107.4328911406765
 20
-156.7122259807872
 30
0.0
 10
107.4328911406765
 20
-156.7122259807872
 30
0.0
 10
107.4411593698411
 20
-156.7163600953695
 30
0.0
 10
107.4497721085542
 20
-156.7229057767915
 30
0.0
 10
107.4497721085542
 20
-156.7332410632472
 30
0.0
 10
107.4497721085542
 20
-156.7587347698381
 30
0.0
 10
107.4139431155076
 20
-156.7587347698381
 30
0.0
 10
107.3863823516256
 20
-156.7587347698381
 30
0.0
  0
SPLINE
  5
118
330
10F
100
AcDbEntity
  8
_U+30EC_U+30A4_U+30E4_U+30FC 1
370
     0
100
AcDbSpline
210
0.0
220
0.0
230
1.0
 70
    11
 71
     3
 72
    20
 73
    16
 74
     0
 42
0.0000000001
 43
0.0000000001
 12
1.0
 22
0.0
 32
0.0
 13
1.0
 23
0.0
 33
0.0
 40
0.0
 40
0.0
 40
0.0
 40
0.0
 40
1.0
 40
1.0
 40
1.0
 40
2.0
 40
2.0
 40
2.0
 40
3.0
 40
3.0
 40
3.0
 40
4.0
 40
4.0
 40
4.0
 40
5.0
 40
5.0
 40
5.0
 40
5.0
 10
107.6847276206483
 20
-155.916753433243
 30
0.0
 10
107.646487060762
 20
-155.9656737891336
 30
0.0
 10
107.5851643611245
 20
-156.0435329471002
 30
0.0
 10
107.4456379939719
 20
-156.1537760026282
 30
0.0
 10
107.5259087187783
 20
-156.1579101172105
 30
0.0
 10
107.5555365399514
 20
-156.1579101172105
 30
0.0
 10
107.5789631892511
 20
-156.1579101172105
 30
0.0
 10
107.5789631892511
 20
-156.1579101172105
 30
0.0
 10
107.8073730199232
 20
-156.1579101172105
 30
0.0
 10
107.8073730199232
 20
-156.1579101172105
 30
0.0
 10
107.8390678983875
 20
-156.1579101172105
 30
0.0
 10
107.8876437447295
 20
-156.1558430599194
 30
0.0
 10
107.9617132976624
 20
-156.1537760026282
 30
0.0
 10
107.8497476943917
 20
-156.0797064496954
 30
0.0
 10
107.8008273385012
 20
-156.0331976606445
 30
0.0
 10
107.6847276206483
 20
-155.916753433243
 30
0.0
  0
SPLINE
  5
119
330
10F
100
AcDbEntity
  8
_U+30EC_U+30A4_U+30E4_U+30FC 1
370
     0
100
AcDbSpline
210
0.0
220
0.0
230
1.0
 70
    11
 71
     3
 72
    17
 73
    13
 74
     0
 42
0.0000000001
 43
0.0000000001
 12
1.0
 22
0.0
 32
0.0
 13
1.0
 23
0.0
 33
0.0
 40
0.0
 40
0.0
 40
0.0
 40
0.0
 40
1.0
 40
1.0
 40
1.0
 40
2.0
 40
2.0
 40
2.0
 40
3.0
 40
3.0
 40
3.0
 40
4.0
 40
4.0
 40
4.0
 40
4.0
 10
108.2452446560984
 20
-156.9723306899236
 30
0.0
 10
108.1098524035281
 20
-156.860365086653
 30
0.0
 10
108.0040879721309
 20
-156.7966308201759
 30
0.0
 10
107.8855766874383
 20
-156.7332410632472
 30
0.0
 10
107.8855766874383
 20
-156.7332410632472
 30
0.0
 10
108.0123562012955
 20
-156.6212754599766
 30
0.0
 10
108.0123562012955
 20
-156.6212754599766
 30
0.0
 10
108.1436143392835
 20
-156.6677842490275
 30
0.0
 10
108.253512885263
 20
-156.7249728340826
 30
0.0
 10
108.3785698513776
 20
-156.826258641349
 30
0.0
 10
108.3785698513776
 20
-156.826258641349
 30
0.0
 10
108.2452446560984
 20
-156.9723306899236
 30
0.0
 10
108.2452446560984
 20
-156.9723306899236
 30
0.0
  0
HATCH
  5
11A
330
10F
100
AcDbEntity
  8
_U+30EC_U+30A4_U+30E4_U+30FC 1
 62
     7
420
 16777215
100
AcDbHatch
 10
0.0
 20
0.0
 30
0.0
210
0.0
220
0.0
230
1.0
  2
SOLID
 70
     1
 71
     0
 91
        7
 92
        1
 93
        1
 72
     4
 94
        3
 73
     0
 74
     1
 95
       17
 96
       13
 40
0.0
 40
0.0
 40
0.0
 40
0.0
 40
1.0
 40
1.0
 40
1.0
 40
2.0
 40
2.0
 40
2.0
 40
3.0
 40
3.0
 40
3.0
 40
4.0
 40
4.0
 40
4.0
 40
4.0
 10
106.7538628205338
 20
-156.399066801178
 10
106.6480983891366
 20
-156.2933023697809
 10
106.5674831547817
 20
-156.2550618098946
 10
106.47446557668
 20
-156.2233669314303
 10
106.47446557668
 20
-156.2233669314303
 10
106.584708632208
 20
-156.0586913672353
 10
106.584708632208
 20
-156.0586913672353
 10
106.681860324892
 20
-156.1007215321554
 10
106.8024386668758
 20
-156.1792697092191
 10
106.8554931373486
 20
-156.2340467274346
 10
106.8554931373486
 20
-156.2340467274346
 10
106.7538628205338
 20
-156.399066801178
 10
106.7538628205338
 20
-156.399066801178
 97
        0
 97
        0
 92
        1
 93
        1
 72
     4
 94
        3
 73
     0
 74
     1
 95
      182
 96
      178
 40
0.0
 40
0.0
 40
0.0
 40
0.0
 40
1.0
 40
1.0
 40
1.0
 40
2.0
 40
2.0
 40
2.0
 40
3.0
 40
3.0
 40
3.0
 40
4.0
 40
4.0
 40
4.0
 40
5.0
 40
5.0
 40
5.0
 40
6.0
 40
6.0
 40
6.0
 40
7.0
 40
7.0
 40
7.0
 40
8.0
 40
8.0
 40
8.0
 40
9.0
 40
9.0
 40
9.0
 40
10.0
 40
10.0
 40
10.0
 40
11.0
 40
11.0
 40
11.0
 40
12.0
 40
12.0
 40
12.0
 40
13.0
 40
13.0
 40
13.0
 40
14.0
 40
14.0
 40
14.0
 40
15.0
 40
15.0
 40
15.0
 40
16.0
 40
16.0
 40
16.0
 40
17.0
 40
17.0
 40
17.0
 40
18.0
 40
18.0
 40
18.0
 40
19.0
 40
19.0
 40
19.0
 40
20.0
 40
20.0
 40
20.0
 40
21.0
 40
21.0
 40
21.0
 40
22.0
 40
22.0
 40
22.0
 40
23.0
 40
23.0
 40
23.0
 40
24.0
 40
24.0
 40
24.0
 40
25.0
 40
25.0
 40
25.0
 40
26.0
 40
26.0
 40
26.0
 40
27.0
 40
27.0
 40
27.0
 40
28.0
 40
28.0
 40
28.0
 40
29.0
 40
29.0
 40
29.0
 40
30.0
 40
30.0
 40
30.0
 40
31.0
 40
31.0
 40
31.0
 40
32.0
 40
32.0
 40
32.0
 40
33.0
 40
33.0
 40
33.0
 40
34.0
 40
34.0
 40
34.0
 40
35.0
 40
35.0
 40
35.0
 40
36.0
 40
36.0
 40
36.0
 40
37.0
 40
37.0
 40
37.0
 40
38.0
 40
38.0
 40
38.0
 40
39.0
 40
39.0
 40
39.0
 40
40.0
 40
40.0
 40
40.0
 40
41.0
 40
41.0
 40
41.0
 40
42.0
 40
42.0
 40
42.0
 40
43.0
 40
43.0
 40
43.0
 40
44.0
 40
44.0
 40
44.0
 40
45.0
 40
45.0
 40
45.0
 40
46.0
 40
46.0
 40
46.0
 40
47.0
 40
47.0
 40
47.0
 40
48.0
 40
48.0
 40
48.0
 40
49.0
 40
49.0
 40
49.0
 40
50.0
 40
50.0
 40
50.0
 40
51.0
 40
51.0
 40
51.0
 40
52.0
 40
52.0
 40
52.0
 40
53.0
 40
53.0
 40
53.0
 40
54.0
 40
54.0
 40
54.0
 40
55.0
 40
55.0
 40
55.0
 40
56.0
 40
56.0
 40
56.0
 40
57.0
 40
57.0
 40
57.0
 40
58.0
 40
58.0
 40
58.0
 40
59.0
 40
59.0
 40
59.0
 40
59.0
 10
107.79876028121
 20
-157.5772894571335
 10
107.79876028121
 20
-157.5772894571335
 10
107.1621066355359
 20
-157.5772894571335
 10
107.1621066355359
 20
-157.5772894571335
 10
106.9485107154504
 20
-157.5772894571335
 10
106.7325032285252
 20
-157.5817680812643
 10
106.5189073084397
 20
-157.5945149345597
 10
106.5189073084397
 20
-157.5945149345597
 10
106.5189073084397
 20
-157.3871201863477
 10
106.5189073084397
 20
-157.3871201863477
 10
106.7411159672383
 20
-157.3995225300946
 10
107.0646104333033
 20
-157.4040011542254
 10
107.1621066355359
 20
-157.4040011542254
 10
107.1621066355359
 20
-157.4040011542254
 10
107.3822482370433
 20
-157.4040011542254
 10
107.3822482370433
 20
-157.4040011542254
 10
107.3822482370433
 20
-157.4040011542254
 10
107.3822482370433
 20
-157.2624077297816
 10
107.3822482370433
 20
-157.2624077297816
 10
107.3822482370433
 20
-157.2624077297816
 10
107.2213622778822
 20
-157.2624077297816
 10
107.2213622778822
 20
-157.2624077297816
 10
107.0563422041387
 20
-157.2624077297816
 10
106.8913221303952
 20
-157.2665418443639
 10
106.7263020566518
 20
-157.2813557549505
 10
106.7263020566518
 20
-157.2813557549505
 10
106.7263020566518
 20
-157.0718939494473
 10
106.7263020566518
 20
-157.0718939494473
 10
106.8975233022687
 20
-157.0867078600339
 10
107.1452256676581
 20
-157.0908419746162
 10
107.2213622778822
 20
-157.0908419746162
 10
107.2213622778822
 20
-157.0908419746162
 10
107.3822482370433
 20
-157.0908419746162
 10
107.3822482370433
 20
-157.0908419746162
 10
107.3777696129125
 20
-157.019183988523
 10
107.3777696129125
 20
-157.012638307101
 10
107.3715684410391
 20
-156.9599283461767
 10
107.3715684410391
 20
-156.9599283461767
 10
107.5110948081917
 20
-156.9743977472147
 10
107.5110948081917
 20
-156.9743977472147
 10
107.5110948081917
 20
-156.9743977472147
 10
107.4118760582165
 20
-156.8031765015978
 10
107.4118760582165
 20
-156.8031765015978
 10
107.4583848472674
 20
-156.8097221830198
 10
107.5324544002002
 20
-156.8179904121844
 10
107.5493353680779
 20
-156.8179904121844
 10
107.5999782717111
 20
-156.8179904121844
 10
107.6168592395888
 20
-156.7966308201759
 10
107.6168592395888
 20
-156.7397867446692
 10
107.6168592395888
 20
-156.7397867446692
 10
107.6168592395888
 20
-156.6023274348078
 10
107.6168592395888
 20
-156.6023274348078
 10
107.6168592395888
 20
-156.6023274348078
 10
107.5110948081917
 20
-156.6023274348078
 10
107.5110948081917
 20
-156.6023274348078
 10
107.3777696129125
 20
-156.6023274348078
 10
107.2213622778822
 20
-156.6023274348078
 10
107.0987168786073
 20
-156.6147297785546
 10
107.0987168786073
 20
-156.6147297785546
 10
107.0987168786073
 20
-156.4245605077689
 10
107.0987168786073
 20
-156.4245605077689
 10
107.2658040096419
 20
-156.4414414756466
 10
107.4962808976051
 20
-156.4435085329377
 10
107.5110948081917
 20
-156.4435085329377
 10
107.5110948081917
 20
-156.4435085329377
 10
107.6168592395888
 20
-156.4435085329377
 10
107.6168592395888
 20
-156.4435085329377
 10
107.6168592395888
 20
-156.4435085329377
 10
107.6168592395888
 20
-156.3122503949497
 10
107.6168592395888
 20
-156.3122503949497
 10
107.6168592395888
 20
-156.3122503949497
 10
107.5789631892511
 20
-156.3122503949497
 10
107.5789631892511
 20
-156.3122503949497
 10
107.5345214574914
 20
-156.3122503949497
 10
107.4094644913768
 20
-156.316384509532
 10
107.3205810278574
 20
-156.3249972482452
 10
107.3205810278574
 20
-156.3249972482452
 10
107.3205810278574
 20
-156.2447265234388
 10
107.3205810278574
 20
-156.2447265234388
 10
107.267871066933
 20
-156.2826225737766
 10
107.2423773603422
 20
-156.2977809939117
 10
107.2000026858736
 20
-156.3208631336628
 10
107.2000026858736
 20
-156.3208631336628
 10
107.011900472379
 20
-156.191672052966
 10
107.011900472379
 20
-156.191672052966
 10
107.0901041398942
 20
-156.1579101172105
 10
107.246855984473
 20
-156.0945203602819
 10
107.4032633195034
 20
-155.9505153689985
 10
107.4856011016008
 20
-155.8723117014833
 10
107.5641492786645
 20
-155.7879068620947
 10
107.6168592395888
 20
-155.6862765452798
 10
107.6168592395888
 20
-155.6862765452798
 10
107.8283881023832
 20
-155.7475992449173
 10
107.8283881023832
 20
-155.7475992449173
 10
107.8476806371006
 20
-155.7538004167907
 10
107.8580159235563
 20
-155.7624131555039
 10
107.8580159235563
 20
-155.7748154992507
 10
107.8580159235563
 20
-155.792040976677
 10
107.8452690702609
 20
-155.7982421485505
 10
107.8201198732186
 20
-155.8109890018459
 10
107.9003905980249
 20
-155.9084852040784
 10
108.0633436144772
 20
-156.0056368967625
 10
108.0971055502327
 20
-156.0245849219314
 10
108.2473117133896
 20
-156.1134683854508
 10
108.3616888834999
 20
-156.1410291493328
 10
108.439892551015
 20
-156.1599771745017
 10
108.439892551015
 20
-156.1599771745017
 10
108.3213812663224
 20
-156.329475872376
 10
108.3213812663224
 20
-156.329475872376
 10
108.2366319173853
 20
-156.2998480512028
 10
108.1859890137521
 20
-156.2805555164854
 10
108.0674777290595
 20
-156.2150987022657
 10
108.0674777290595
 20
-156.2150987022657
 10
108.0674777290595
 20
-156.3249972482452
 10
108.0674777290595
 20
-156.3249972482452
 10
107.9851399469621
 20
-156.316384509532
 10
107.8580159235563
 20
-156.3122503949497
 10
107.805305962632
 20
-156.3122503949497
 10
107.805305962632
 20
-156.3122503949497
 10
107.805305962632
 20
-156.4435085329377
 10
107.805305962632
 20
-156.4435085329377
 10
107.805305962632
 20
-156.4435085329377
 10
107.9258843046157
 20
-156.4435085329377
 10
107.9258843046157
 20
-156.4435085329377
 10
107.9279513619069
 20
-156.4435085329377
 10
108.1604953071613
 20
-156.4414414756466
 10
108.3382622342002
 20
-156.4245605077689
 10
108.3382622342002
 20
-156.4245605077689
 10
108.3382622342002
 20
-156.6147297785546
 10
108.3382622342002
 20
-156.6147297785546
 10
108.2094156630518
 20
-156.6023274348078
 10
108.052663818473
 20
-156.6023274348078
 10
107.9258843046157
 20
-156.6023274348078
 10
107.9258843046157
 20
-156.6023274348078
 10
107.805305962632
 20
-156.6023274348078
 10
107.805305962632
 20
-156.6023274348078
 10
107.805305962632
 20
-156.6023274348078
 10
107.805305962632
 20
-156.8283256986402
 10
107.805305962632
 20
-156.8283256986402
 10
107.805305962632
 20
-156.9468369833327
 10
107.7798122560412
 20
-156.9830104859279
 10
107.61892629688
 20
-156.9978243965144
 10
107.6234049210108
 20
-157.0167724216833
 10
107.6168592395888
 20
-157.0274522176876
 10
107.5789631892511
 20
-157.0508788669873
 10
107.5768961319599
 20
-157.0694823826076
 10
107.5768961319599
 20
-157.0760280640296
 10
107.5744845651203
 20
-157.0908419746162
 10
107.5744845651203
 20
-157.0908419746162
 10
107.7119438749817
 20
-157.0908419746162
 10
107.7119438749817
 20
-157.0908419746162
 10
107.8769639487252
 20
-157.0908419746162
 10
108.0443955893084
 20
-157.0867078600339
 10
108.211482720343
 20
-157.0718939494473
 10
108.211482720343
 20
-157.0718939494473
 10
108.211482720343
 20
-157.2789441881108
 10
108.211482720343
 20
-157.2789441881108
 10
107.9954752334178
 20
-157.2624077297816
 10
107.7312364096991
 20
-157.2624077297816
 10
107.7119438749817
 20
-157.2624077297816
 10
107.7119438749817
 20
-157.2624077297816
 10
107.5724175078291
 20
-157.2624077297816
 10
107.5724175078291
 20
-157.2624077297816
 10
107.5724175078291
 20
-157.2624077297816
 10
107.5724175078291
 20
-157.4040011542254
 10
107.5724175078291
 20
-157.4040011542254
 10
107.5724175078291
 20
-157.4040011542254
 10
107.79876028121
 20
-157.4040011542254
 10
107.79876028121
 20
-157.4040011542254
 10
108.0147677681352
 20
-157.4040011542254
 10
108.232497802803
 20
-157.3995225300946
 10
108.4481607801796
 20
-157.3871201863477
 10
108.4481607801796
 20
-157.3871201863477
 10
108.4481607801796
 20
-157.5945149345597
 10
108.4481607801796
 20
-157.5945149345597
 10
108.1670409885832
 20
-157.5772894571335
 10
107.8221869305097
 20
-157.5772894571335
 10
107.79876028121
 20
-157.5772894571335
 97
        0
 97
        0
 92
        1
 93
        1
 72
     4
 94
        3
 73
     0
 74
     1
 95
       23
 96
       19
 40
0.0
 40
0.0
 40
0.0
 40
0.0
 40
1.0
 40
1.0
 40
1.0
 40
2.0
 40
2.0
 40
2.0
 40
3.0
 40
3.0
 40
3.0
 40
4.0
 40
4.0
 40
4.0
 40
5.0
 40
5.0
 40
5.0
 40
6.0
 40
6.0
 40
6.0
 40
6.0
 10
106.6797932676009
 20
-156.9489040406239
 10
106.6797932676009
 20
-156.9702636326325
 10
106.681860324892
 20
-157.0081596829702
 10
106.6563666183012
 20
-157.0081596829702
 10
106.6460313318454
 20
-157.0081596829702
 10
106.6374185931323
 20
-157.0019585110967
 10
106.626738797128
 20
-156.985077543219
 10
106.626738797128
 20
-156.985077543219
 10
106.523041423022
 20
-156.8031765015978
 10
106.523041423022
 20
-156.8031765015978
 10
106.7390489099472
 20
-156.6739854209009
 10
106.935763862155
 20
-156.3969997438869
 10
106.9822726512058
 20
-156.3249972482452
 10
106.9822726512058
 20
-156.3249972482452
 10
107.0542751468475
 20
-156.5048312325752
 10
107.0542751468475
 20
-156.5048312325752
 10
106.9209499515684
 20
-156.701546184783
 10
106.7452500818206
 20
-156.8855142836953
 10
106.6797932676009
 20
-156.9489040406239
 97
        0
 97
        0
 92
        1
 93
        1
 72
     4
 94
        3
 73
     0
 74
     1
 95
       17
 96
       13
 40
0.0
 40
0.0
 40
0.0
 40
0.0
 40
1.0
 40
1.0
 40
1.0
 40
2.0
 40
2.0
 40
2.0
 40
3.0
 40
3.0
 40
3.0
 40
4.0
 40
4.0
 40
4.0
 40
4.0
 10
106.9336968048638
 20
-156.0542127431045
 10
106.8723741052264
 20
-155.9780761328805
 10
106.7431830245295
 20
-155.9019395226565
 10
106.6394856504235
 20
-155.8723117014833
 10
106.6394856504235
 20
-155.8723117014833
 10
106.7349147953649
 20
-155.7072916277399
 10
106.7349147953649
 20
-155.7072916277399
 10
106.8362006026312
 20
-155.7431206207864
 10
106.9419650340284
 20
-155.8003092058416
 10
107.0308484975479
 20
-155.8809244401965
 10
107.0308484975479
 20
-155.8809244401965
 10
106.9336968048638
 20
-156.0542127431045
 10
106.9336968048638
 20
-156.0542127431045
 97
        0
 97
        0
 92
        1
 93
        1
 72
     4
 94
        3
 73
     0
 74
     1
 95
       23
 96
       19
 40
0.0
 40
0.0
 40
0.0
 40
0.0
 40
1.0
 40
1.0
 40
1.0
 40
2.0
 40
2.0
 40
2.0
 40
3.0
 40
3.0
 40
3.0
 40
4.0
 40
4.0
 40
4.0
 40
5.0
 40
5.0
 40
5.0
 40
6.0
 40
6.0
 40
6.0
 40
6.0
 10
107.3863823516256
 20
-156.7587347698381
 10
107.3650227596171
 20
-156.7821614191378
 10
107.267871066933
 20
-156.8941270224084
 10
107.1283446997804
 20
-156.9743977472147
 10
107.1283446997804
 20
-156.9743977472147
 10
106.9612575687458
 20
-156.853819405231
 10
106.9612575687458
 20
-156.853819405231
 10
107.1114637319027
 20
-156.7780273045555
 10
107.2106824818779
 20
-156.6825981596141
 10
107.2592583282199
 20
-156.6298881986898
 10
107.2592583282199
 20
-156.6298881986898
 10
107.4328911406765
 20
-156.7122259807872
 10
107.4328911406765
 20
-156.7122259807872
 10
107.4411593698411
 20
-156.7163600953695
 10
107.4497721085542
 20
-156.7229057767915
 10
107.4497721085542
 20
-156.7332410632472
 10
107.4497721085542
 20
-156.7587347698381
 10
107.4139431155076
 20
-156.7587347698381
 10
107.3863823516256
 20
-156.7587347698381
 97
        0
 97
        0
 92
        1
 93
        1
 72
     4
 94
        3
 73
     0
 74
     1
 95
       20
 96
       16
 40
0.0
 40
0.0
 40
0.0
 40
0.0
 40
1.0
 40
1.0
 40
1.0
 40
2.0
 40
2.0
 40
2.0
 40
3.0
 40
3.0
 40
3.0
 40
4.0
 40
4.0
 40
4.0
 40
5.0
 40
5.0
 40
5.0
 40
5.0
 10
107.6847276206483
 20
-155.916753433243
 10
107.646487060762
 20
-155.9656737891336
 10
107.5851643611245
 20
-156.0435329471002
 10
107.4456379939719
 20
-156.1537760026282
 10
107.5259087187783
 20
-156.1579101172105
 10
107.5555365399514
 20
-156.1579101172105
 10
107.5789631892511
 20
-156.1579101172105
 10
107.5789631892511
 20
-156.1579101172105
 10
107.8073730199232
 20
-156.1579101172105
 10
107.8073730199232
 20
-156.1579101172105
 10
107.8390678983875
 20
-156.1579101172105
 10
107.8876437447295
 20
-156.1558430599194
 10
107.9617132976624
 20
-156.1537760026282
 10
107.8497476943917
 20
-156.0797064496954
 10
107.8008273385012
 20
-156.0331976606445
 10
107.6847276206483
 20
-155.916753433243
 97
        0
 97
        0
 92
        1
 93
        1
 72
     4
 94
        3
 73
     0
 74
     1
 95
       17
 96
       13
 40
0.0
 40
0.0
 40
0.0
 40
0.0
 40
1.0
 40
1.0
 40
1.0
 40
2.0
 40
2.0
 40
2.0
 40
3.0
 40
3.0
 40
3.0
 40
4.0
 40
4.0
 40
4.0
 40
4.0
 10
108.2452446560984
 20
-156.9723306899236
 10
108.1098524035281
 20
-156.860365086653
 10
108.0040879721309
 20
-156.7966308201759
 10
107.8855766874383
 20
-156.7332410632472
 10
107.8855766874383
 20
-156.7332410632472
 10
108.0123562012955
 20
-156.6212754599766
 10
108.0123562012955
 20
-156.6212754599766
 10
108.1436143392835
 20
-156.6677842490275
 10
108.253512885263
 20
-156.7249728340826
 10
108.3785698513776
 20
-156.826258641349
 10
108.3785698513776
 20
-156.826258641349
 10
108.2452446560984
 20
-156.9723306899236
 10
108.2452446560984
 20
-156.9723306899236
 97
        0
 97
        0
 75
     2
 76
     1
 98
        0
  0
SPLINE
  5
11B
330
10F
100
AcDbEntity
  8
_U+30EC_U+30A4_U+30E4_U+30FC 1
370
     0
100
AcDbSpline
210
0.0
220
0.0
230
1.0
 70
    11
 71
     3
 72
   113
 73
   109
 74
     0
 42
0.0000000001
 43
0.0000000001
 12
1.0
 22
0.0
 32
0.0
 13
1.0
 23
0.0
 33
0.0
 40
0.0
 40
0.0
 40
0.0
 40
0.0
 40
1.0
 40
1.0
 40
1.0
 40
2.0
 40
2.0
 40
2.0
 40
3.0
 40
3.0
 40
3.0
 40
4.0
 40
4.0
 40
4.0
 40
5.0
 40
5.0
 40
5.0
 40
6.0
 40
6.0
 40
6.0
 40
7.0
 40
7.0
 40
7.0
 40
8.0
 40
8.0
 40
8.0
 40
9.0
 40
9.0
 40
9.0
 40
10.0
 40
10.0
 40
10.0
 40
11.0
 40
11.0
 40
11.0
 40
12.0
 40
12.0
 40
12.0
 40
13.0
 40
13.0
 40
13.0
 40
14.0
 40
14.0
 40
14.0
 40
15.0
 40
15.0
 40
15.0
 40
16.0
 40
16.0
 40
16.0
 40
17.0
 40
17.0
 40
17.0
 40
18.0
 40
18.0
 40
18.0
 40
19.0
 40
19.0
 40
19.0
 40
20.0
 40
20.0
 40
20.0
 40
21.0
 40
21.0
 40
21.0
 40
22.0
 40
22.0
 40
22.0
 40
23.0
 40
23.0
 40
23.0
 40
24.0
 40
24.0
 40
24.0
 40
25.0
 40
25.0
 40
25.0
 40
26.0
 40
26.0
 40
26.0
 40
27.0
 40
27.0
 40
27.0
 40
28.0
 40
28.0
 40
28.0
 40
29.0
 40
29.0
 40
29.0
 40
30.0
 40
30.0
 40
30.0
 40
31.0
 40
31.0
 40
31.0
 40
32.0
 40
32.0
 40
32.0
 40
33.0
 40
33.0
 40
33.0
 40
34.0
 40
34.0
 40
34.0
 40
35.0
 40
35.0
 40
35.0
 40
36.0
 40
36.0
 40
36.0
 40
36.0
 10
110.1248887528507
 20
-156.9489040406239
 30
0.0
 10
110.1248887528507
 20
-156.9489040406239
 30
0.0
 10
110.2244520123744
 20
-157.0488118096961
 30
0.0
 10
110.2244520123744
 20
-157.0488118096961
 30
0.0
 10
110.2351318083787
 20
-157.0591470961519
 30
0.0
 10
110.2454670948345
 20
-157.0718939494473
 30
0.0
 10
110.2454670948345
 20
-157.0867078600339
 30
0.0
 10
110.2454670948345
 20
-157.088774917325
 30
0.0
 10
110.2454670948345
 20
-157.1184027384982
 30
0.0
 10
110.2075710444967
 20
-157.1184027384982
 30
0.0
 10
110.1989583057836
 20
-157.1184027384982
 30
0.0
 10
110.1586506886062
 20
-157.1142686239159
 30
0.0
 10
110.1524495167327
 20
-157.1142686239159
 30
0.0
 10
110.1121418995553
 20
-157.1459635023802
 30
0.0
 10
110.0656331105044
 20
-157.1797254381356
 30
0.0
 10
109.9664143605292
 20
-157.2369140231908
 30
0.0
 10
110.1121418995553
 20
-157.3447455118791
 30
0.0
 10
110.2709608014253
 20
-157.4019340969342
 30
0.0
 10
110.5438123638571
 20
-157.4401746568205
 30
0.0
 10
110.5438123638571
 20
-157.4401746568205
 30
0.0
 10
110.3936062007002
 20
-157.6155300170197
 30
0.0
 10
110.3936062007002
 20
-157.6155300170197
 30
0.0
 10
110.1314344342727
 20
-157.543527521378
 30
0.0
 10
109.9746825896938
 20
-157.4546440578586
 30
0.0
 10
109.8985459794698
 20
-157.4019340969342
 30
0.0
 10
109.7483398163129
 20
-157.3003037801194
 30
0.0
 10
109.604679334578
 20
-157.1373507636671
 30
0.0
 10
109.528542724354
 20
-156.9723306899236
 30
0.0
 10
109.4606743432946
 20
-157.0377875041433
 30
0.0
 10
109.3866047903617
 20
-157.0908419746162
 30
0.0
 10
109.3084011228465
 20
-157.1397623305067
 30
0.0
 10
109.3084011228465
 20
-157.1397623305067
 30
0.0
 10
109.3084011228465
 20
-157.39125430093
 30
0.0
 10
109.3084011228465
 20
-157.39125430093
 30
0.0
 10
109.4713541392988
 20
-157.3657605943391
 30
0.0
 10
109.6573892955023
 20
-157.3216633721279
 30
0.0
 10
109.7207790524309
 20
-157.3065049519928
 30
0.0
 10
109.7207790524309
 20
-157.3065049519928
 30
0.0
 10
109.6911512312578
 20
-157.4760036498671
 30
0.0
 10
109.6911512312578
 20
-157.4760036498671
 30
0.0
 10
109.6890841739666
 20
-157.4760036498671
 30
0.0
 10
109.6701361487978
 20
-157.4822048217406
 30
0.0
 10
109.6680690915066
 20
-157.4822048217406
 30
0.0
 10
109.4692870820077
 20
-157.5201008720783
 30
0.0
 10
109.1519937878162
 20
-157.5859021958466
 30
0.0
 10
108.9549343260599
 20
-157.6220756984417
 30
0.0
 10
108.9445990396041
 20
-157.6386121567709
 30
0.0
 10
108.9211723903044
 20
-157.6703070352352
 30
0.0
 10
108.8980902505533
 20
-157.6703070352352
 30
0.0
 10
108.8705294866713
 20
-157.6703070352352
 30
0.0
 10
108.866395372089
 20
-157.6517035196149
 30
0.0
 10
108.8639838052493
 20
-157.6324109848975
 30
0.0
 10
108.8639838052493
 20
-157.6324109848975
 30
0.0
 10
108.838834608207
 20
-157.4587781724409
 30
0.0
 10
108.838834608207
 20
-157.4587781724409
 30
0.0
 10
108.9129041611398
 20
-157.4505099432763
 30
0.0
 10
109.0207356498282
 20
-157.4377630899808
 30
0.0
 10
109.1285671385165
 20
-157.4167480075208
 30
0.0
 10
109.1285671385165
 20
-157.4167480075208
 30
0.0
 10
109.1285671385165
 20
-157.2389810804819
 30
0.0
 10
109.1285671385165
 20
-157.2389810804819
 30
0.0
 10
108.984562147233
 20
-157.3109835761236
 30
0.0
 10
108.8894775118401
 20
-157.3402668877483
 30
0.0
 10
108.7244574380967
 20
-157.3698947089214
 30
0.0
 10
108.7244574380967
 20
-157.3698947089214
 30
0.0
 10
108.6038790961129
 20
-157.2010850301442
 30
0.0
 10
108.6038790961129
 20
-157.2010850301442
 30
0.0
 10
108.9211723903044
 20
-157.1735242662622
 30
0.0
 10
109.1137532279299
 20
-157.0805066881604
 30
0.0
 10
109.2915201549688
 20
-156.9468369833327
 30
0.0
 10
109.1454481063942
 20
-156.9468369833327
 30
0.0
 10
108.8450357800804
 20
-156.9513156074636
 30
0.0
 10
108.6483208278727
 20
-156.9578612888855
 30
0.0
 10
108.6483208278727
 20
-156.9578612888855
 30
0.0
 10
108.6483208278727
 20
-156.7800943618466
 30
0.0
 10
108.6483208278727
 20
-156.7800943618466
 30
0.0
 10
108.8026611056118
 20
-156.7862955337201
 30
0.0
 10
109.0989393173433
 20
-156.7924967055935
 30
0.0
 10
109.2829074162557
 20
-156.7924967055935
 30
0.0
 10
109.2829074162557
 20
-156.7924967055935
 30
0.0
 10
109.49443627905
 20
-156.7924967055935
 30
0.0
 10
109.49443627905
 20
-156.7924967055935
 30
0.0
 10
109.49443627905
 20
-156.6974120702006
 30
0.0
 10
109.4923692217589
 20
-156.646424657019
 30
0.0
 10
109.4861680498854
 20
-156.6002603775166
 30
0.0
 10
109.4861680498854
 20
-156.6002603775166
 30
0.0
 10
109.701831027262
 20
-156.6167968358458
 30
0.0
 10
109.701831027262
 20
-156.6167968358458
 30
0.0
 10
109.7504068736041
 20
-156.6212754599766
 30
0.0
 10
109.7590196123172
 20
-156.6360893705632
 30
0.0
 10
109.7590196123172
 20
-156.6509032811498
 30
0.0
 10
109.7590196123172
 20
-156.6760524781921
 30
0.0
 10
109.7421386444395
 20
-156.6846652169052
 30
0.0
 10
109.6911512312578
 20
-156.7101589234961
 30
0.0
 10
109.6890841739666
 20
-156.7353081205384
 30
0.0
 10
109.6890841739666
 20
-156.7418538019604
 30
0.0
 10
109.6870171166755
 20
-156.7924967055935
 30
0.0
 10
109.6870171166755
 20
-156.7924967055935
 30
0.0
 10
109.9174940046387
 20
-156.7924967055935
 30
0.0
 10
109.9174940046387
 20
-156.7924967055935
 30
0.0
 10
110.0825140783822
 20
-156.7924967055935
 30
0.0
 10
110.3746581755313
 20
-156.7862955337201
 30
0.0
 10
110.5544921598614
 20
-156.7800943618466
 30
0.0
 10
110.5544921598614
 20
-156.7800943618466
 30
0.0
 10
110.5544921598614
 20
-156.9578612888855
 30
0.0
 10
110.5544921598614
 20
-156.9578612888855
 30
0.0
 10
110.4253010791645
 20
-156.9533826647547
 30
0.0
 10
110.4022189394133
 20
-156.9533826647547
 30
0.0
 10
110.1248887528507
 20
-156.9489040406239
 30
0.0
  0
SPLINE
  5
11C
330
10F
100
AcDbEntity
  8
_U+30EC_U+30A4_U+30E4_U+30FC 1
370
     0
100
AcDbSpline
210
0.0
220
0.0
230
1.0
 70
    11
 71
     3
 72
    23
 73
    19
 74
     0
 42
0.0000000001
 43
0.0000000001
 12
1.0
 22
0.0
 32
0.0
 13
1.0
 23
0.0
 33
0.0
 40
0.0
 40
0.0
 40
0.0
 40
0.0
 40
1.0
 40
1.0
 40
1.0
 40
2.0
 40
2.0
 40
2.0
 40
3.0
 40
3.0
 40
3.0
 40
4.0
 40
4.0
 40
4.0
 40
5.0
 40
5.0
 40
5.0
 40
6.0
 40
6.0
 40
6.0
 40
6.0
 10
108.8409016654981
 20
-156.5981933202254
 30
0.0
 10
108.8240206976204
 20
-156.6381564278544
 30
0.0
 10
108.8174750161984
 20
-156.6550373957321
 30
0.0
 10
108.7964599337384
 20
-156.6550373957321
 30
0.0
 10
108.7816460231518
 20
-156.6550373957321
 30
0.0
 10
108.7709662271475
 20
-156.6381564278544
 30
0.0
 10
108.7647650552741
 20
-156.6254095745589
 30
0.0
 10
108.7647650552741
 20
-156.6254095745589
 30
0.0
 10
108.6652017957504
 20
-156.4603895008155
 30
0.0
 10
108.6652017957504
 20
-156.4603895008155
 30
0.0
 10
108.7668321125652
 20
-156.4286946223512
 30
0.0
 10
108.9170382757221
 20
-156.3735730945872
 30
0.0
 10
109.115820285221
 20
-156.2109645876834
 30
0.0
 10
109.115820285221
 20
-156.2109645876834
 30
0.0
 10
109.1730088702762
 20
-156.3842528905915
 30
0.0
 10
109.1730088702762
 20
-156.3842528905915
 30
0.0
 10
109.0799912921745
 20
-156.4665906726889
 30
0.0
 10
108.991107828655
 20
-156.5237792577441
 30
0.0
 10
108.8409016654981
 20
-156.5981933202254
 30
0.0
  0
SPLINE
  5
11D
330
10F
100
AcDbEntity
  8
_U+30EC_U+30A4_U+30E4_U+30FC 1
370
     0
100
AcDbSpline
210
0.0
220
0.0
230
1.0
 70
    11
 71
     3
 72
    17
 73
    13
 74
     0
 42
0.0000000001
 43
0.0000000001
 12
1.0
 22
0.0
 32
0.0
 13
1.0
 23
0.0
 33
0.0
 40
0.0
 40
0.0
 40
0.0
 40
0.0
 40
1.0
 40
1.0
 40
1.0
 40
2.0
 40
2.0
 40
2.0
 40
3.0
 40
3.0
 40
3.0
 40
4.0
 40
4.0
 40
4.0
 40
4.0
 10
108.9931748859462
 20
-156.1324164106197
 30
0.0
 10
108.963547064773
 20
-156.0924533029908
 30
0.0
 10
108.8956786837136
 20
-155.9953016103067
 30
0.0
 10
108.7137776420924
 20
-155.8850585547787
 30
0.0
 10
108.7137776420924
 20
-155.8850585547787
 30
0.0
 10
108.8409016654981
 20
-155.7517333594996
 30
0.0
 10
108.8409016654981
 20
-155.7517333594996
 30
0.0
 10
109.0269368217016
 20
-155.8533636763144
 30
0.0
 10
109.0841254067568
 20
-155.9422471398339
 30
0.0
 10
109.1116861706387
 20
-155.9842773047539
 30
0.0
 10
109.1116861706387
 20
-155.9842773047539
 30
0.0
 10
108.9931748859462
 20
-156.1324164106197
 30
0.0
 10
108.9931748859462
 20
-156.1324164106197
 30
0.0
  0
SPLINE
  5
11E
330
10F
100
AcDbEntity
  8
_U+30EC_U+30A4_U+30E4_U+30FC 1
370
     0
100
AcDbSpline
210
0.0
220
0.0
230
1.0
 70
    11
 71
     3
 72
    38
 73
    34
 74
     0
 42
0.0000000001
 43
0.0000000001
 12
1.0
 22
0.0
 32
0.0
 13
1.0
 23
0.0
 33
0.0
 40
0.0
 40
0.0
 40
0.0
 40
0.0
 40
1.0
 40
1.0
 40
1.0
 40
2.0
 40
2.0
 40
2.0
 40
3.0
 40
3.0
 40
3.0
 40
4.0
 40
4.0
 40
4.0
 40
5.0
 40
5.0
 40
5.0
 40
6.0
 40
6.0
 40
6.0
 40
7.0
 40
7.0
 40
7.0
 40
8.0
 40
8.0
 40
8.0
 40
9.0
 40
9.0
 40
9.0
 40
10.0
 40
10.0
 40
10.0
 40
11.0
 40
11.0
 40
11.0
 40
11.0
 10
109.3611110837708
 20
-155.8278699697236
 30
0.0
 10
109.3590440264797
 20
-155.874723268323
 30
0.0
 10
109.3569769691885
 20
-155.9908229861759
 30
0.0
 10
109.3569769691885
 20
-156.0352647179356
 30
0.0
 10
109.3569769691885
 20
-156.0352647179356
 30
0.0
 10
109.3569769691885
 20
-156.3821858333003
 30
0.0
 10
109.3569769691885
 20
-156.3821858333003
 30
0.0
 10
109.3569769691885
 20
-156.4690022395286
 30
0.0
 10
109.3590440264797
 20
-156.6105956639724
 30
0.0
 10
109.369723822484
 20
-156.7311740059561
 30
0.0
 10
109.369723822484
 20
-156.7311740059561
 30
0.0
 10
109.1792100421496
 20
-156.7311740059561
 30
0.0
 10
109.1792100421496
 20
-156.7311740059561
 30
0.0
 10
109.1836886662805
 20
-156.6677842490275
 30
0.0
 10
109.1878227808628
 20
-156.6147297785546
 30
0.0
 10
109.1898898381539
 20
-156.5599527603392
 30
0.0
 10
109.1919568954451
 20
-156.4369628515158
 30
0.0
 10
109.1940239527362
 20
-156.4224934504777
 30
0.0
 10
109.1940239527362
 20
-156.3777072091695
 30
0.0
 10
109.1940239527362
 20
-156.3777072091695
 30
0.0
 10
109.1940239527362
 20
-156.0566243099442
 30
0.0
 10
109.1940239527362
 20
-156.0566243099442
 30
0.0
 10
109.1940239527362
 20
-156.0015027821802
 30
0.0
 10
109.1812770994408
 20
-155.7624131555039
 30
0.0
 10
109.1792100421496
 20
-155.7114257423221
 30
0.0
 10
109.1792100421496
 20
-155.7114257423221
 30
0.0
 10
109.3804036184882
 20
-155.7389865062042
 30
0.0
 10
109.3804036184882
 20
-155.7389865062042
 30
0.0
 10
109.4014187009483
 20
-155.7410535634953
 30
0.0
 10
109.4331135794126
 20
-155.7451876780776
 30
0.0
 10
109.4331135794126
 20
-155.7706813846684
 30
0.0
 10
109.4331135794126
 20
-155.7982421485505
 30
0.0
 10
109.3824706757794
 20
-155.819601740559
 30
0.0
 10
109.3611110837708
 20
-155.8278699697236
 30
0.0
  0
SPLINE
  5
11F
330
10F
100
AcDbEntity
  8
_U+30EC_U+30A4_U+30E4_U+30FC 1
370
     0
100
AcDbSpline
210
0.0
220
0.0
230
1.0
 70
    11
 71
     3
 72
    83
 73
    79
 74
     0
 42
0.0000000001
 43
0.0000000001
 12
1.0
 22
0.0
 32
0.0
 13
1.0
 23
0.0
 33
0.0
 40
0.0
 40
0.0
 40
0.0
 40
0.0
 40
1.0
 40
1.0
 40
1.0
 40
2.0
 40
2.0
 40
2.0
 40
3.0
 40
3.0
 40
3.0
 40
4.0
 40
4.0
 40
4.0
 40
5.0
 40
5.0
 40
5.0
 40
6.0
 40
6.0
 40
6.0
 40
7.0
 40
7.0
 40
7.0
 40
8.0
 40
8.0
 40
8.0
 40
9.0
 40
9.0
 40
9.0
 40
10.0
 40
10.0
 40
10.0
 40
11.0
 40
11.0
 40
11.0
 40
12.0
 40
12.0
 40
12.0
 40
13.0
 40
13.0
 40
13.0
 40
14.0
 40
14.0
 40
14.0
 40
15.0
 40
15.0
 40
15.0
 40
16.0
 40
16.0
 40
16.0
 40
17.0
 40
17.0
 40
17.0
 40
18.0
 40
18.0
 40
18.0
 40
19.0
 40
19.0
 40
19.0
 40
20.0
 40
20.0
 40
20.0
 40
21.0
 40
21.0
 40
21.0
 40
22.0
 40
22.0
 40
22.0
 40
23.0
 40
23.0
 40
23.0
 40
24.0
 40
24.0
 40
24.0
 40
25.0
 40
25.0
 40
25.0
 40
26.0
 40
26.0
 40
26.0
 40
26.0
 10
110.163129312737
 20
-156.1496418880459
 30
0.0
 10
110.163129312737
 20
-156.1496418880459
 30
0.0
 10
110.0656331105044
 20
-156.1496418880459
 30
0.0
 10
110.0656331105044
 20
-156.1496418880459
 30
0.0
 10
110.0656331105044
 20
-156.1496418880459
 30
0.0
 10
110.0656331105044
 20
-156.3969997438869
 30
0.0
 10
110.0656331105044
 20
-156.3969997438869
 30
0.0
 10
110.0656331105044
 20
-156.3969997438869
 30
0.0
 10
110.1483154021504
 20
-156.3969997438869
 30
0.0
 10
110.1483154021504
 20
-156.3969997438869
 30
0.0
 10
110.2137722163702
 20
-156.3969997438869
 30
0.0
 10
110.3532985835228
 20
-156.3928656293046
 30
0.0
 10
110.4528618430465
 20
-156.3842528905915
 30
0.0
 10
110.4528618430465
 20
-156.3842528905915
 30
0.0
 10
110.4528618430465
 20
-156.5640868749215
 30
0.0
 10
110.4528618430465
 20
-156.5640868749215
 30
0.0
 10
110.3598442649448
 20
-156.5554741362084
 30
0.0
 10
110.2096381017879
 20
-156.5513400216261
 30
0.0
 10
110.1483154021504
 20
-156.5513400216261
 30
0.0
 10
110.1483154021504
 20
-156.5513400216261
 30
0.0
 10
109.8434244517058
 20
-156.5513400216261
 30
0.0
 10
109.8434244517058
 20
-156.5513400216261
 30
0.0
 10
109.7907144907815
 20
-156.5513400216261
 30
0.0
 10
109.6446424422069
 20
-156.5554741362084
 30
0.0
 10
109.5388780108097
 20
-156.5640868749215
 30
0.0
 10
109.5388780108097
 20
-156.5640868749215
 30
0.0
 10
109.5388780108097
 20
-156.3842528905915
 30
0.0
 10
109.5388780108097
 20
-156.3842528905915
 30
0.0
 10
109.6384412703334
 20
-156.3928656293046
 30
0.0
 10
109.7779676374861
 20
-156.3969997438869
 30
0.0
 10
109.8434244517058
 20
-156.3969997438869
 30
0.0
 10
109.8434244517058
 20
-156.3969997438869
 30
0.0
 10
109.8878661834655
 20
-156.3969997438869
 30
0.0
 10
109.8878661834655
 20
-156.3969997438869
 30
0.0
 10
109.8878661834655
 20
-156.3969997438869
 30
0.0
 10
109.8878661834655
 20
-156.1496418880459
 30
0.0
 10
109.8878661834655
 20
-156.1496418880459
 30
0.0
 10
109.8878661834655
 20
-156.1496418880459
 30
0.0
 10
109.8141411400812
 20
-156.1496418880459
 30
0.0
 10
109.8141411400812
 20
-156.1496418880459
 30
0.0
 10
109.7524739308952
 20
-156.1496418880459
 30
0.0
 10
109.5853867998606
 20
-156.1537760026282
 30
0.0
 10
109.4648084578769
 20
-156.1620442317928
 30
0.0
 10
109.4648084578769
 20
-156.1620442317928
 30
0.0
 10
109.4648084578769
 20
-155.9842773047539
 30
0.0
 10
109.4648084578769
 20
-155.9842773047539
 30
0.0
 10
109.5791856279872
 20
-155.9908229861759
 30
0.0
 10
109.7376600203087
 20
-155.9953016103067
 30
0.0
 10
109.8141411400812
 20
-155.9953016103067
 30
0.0
 10
109.8141411400812
 20
-155.9953016103067
 30
0.0
 10
109.8857991261744
 20
-155.9953016103067
 30
0.0
 10
109.8857991261744
 20
-155.9953016103067
 30
0.0
 10
109.8816650115921
 20
-155.8426838803102
 30
0.0
 10
109.8795979543009
 20
-155.8089219445547
 30
0.0
 10
109.873052272879
 20
-155.7155598569045
 30
0.0
 10
109.873052272879
 20
-155.7155598569045
 30
0.0
 10
110.0849256452218
 20
-155.7389865062042
 30
0.0
 10
110.0849256452218
 20
-155.7389865062042
 30
0.0
 10
110.1100748422642
 20
-155.7410535634953
 30
0.0
 10
110.1335014915638
 20
-155.7451876780776
 30
0.0
 10
110.1335014915638
 20
-155.7686143273773
 30
0.0
 10
110.1335014915638
 20
-155.8003092058416
 30
0.0
 10
110.0890597598041
 20
-155.8175346832678
 30
0.0
 10
110.0656331105044
 20
-155.8258029124324
 30
0.0
 10
110.0656331105044
 20
-155.8258029124324
 30
0.0
 10
110.0656331105044
 20
-155.9953016103067
 30
0.0
 10
110.0656331105044
 20
-155.9953016103067
 30
0.0
 10
110.0656331105044
 20
-155.9953016103067
 30
0.0
 10
110.163129312737
 20
-155.9953016103067
 30
0.0
 10
110.163129312737
 20
-155.9953016103067
 30
0.0
 10
110.239265922961
 20
-155.9953016103067
 30
0.0
 10
110.3977403152825
 20
-155.9908229861759
 30
0.0
 10
110.514184542684
 20
-155.9842773047539
 30
0.0
 10
110.514184542684
 20
-155.9842773047539
 30
0.0
 10
110.514184542684
 20
-156.1620442317928
 30
0.0
 10
110.514184542684
 20
-156.1620442317928
 30
0.0
 10
110.4063530539956
 20
-156.1558430599194
 30
0.0
 10
110.232720241539
 20
-156.1496418880459
 30
0.0
 10
110.163129312737
 20
-156.1496418880459
 30
0.0
  0
SPLINE
  5
120
330
10F
100
AcDbEntity
  8
_U+30EC_U+30A4_U+30E4_U+30FC 1
370
     0
100
AcDbSpline
210
0.0
220
0.0
230
1.0
 70
    11
 71
     3
 72
    17
 73
    13
 74
     0
 42
0.0000000001
 43
0.0000000001
 12
1.0
 22
0.0
 32
0.0
 13
1.0
 23
0.0
 33
0.0
 40
0.0
 40
0.0
 40
0.0
 40
0.0
 40
1.0
 40
1.0
 40
1.0
 40
2.0
 40
2.0
 40
2.0
 40
3.0
 40
3.0
 40
3.0
 40
4.0
 40
4.0
 40
4.0
 40
4.0
 10
109.9174940046387
 20
-156.9468369833327
 30
0.0
 10
109.9174940046387
 20
-156.9468369833327
 30
0.0
 10
109.7145778805575
 20
-156.9468369833327
 30
0.0
 10
109.7145778805575
 20
-156.9468369833327
 30
0.0
 10
109.7421386444395
 20
-157.006092625679
 30
0.0
 10
109.7969156626549
 20
-157.0784396308693
 30
0.0
 10
109.8244764265369
 20
-157.1077229424939
 30
0.0
 10
109.8520371904189
 20
-157.0929090319073
 30
0.0
 10
109.9664143605292
 20
-157.0295192749787
 30
0.0
 10
110.0573648813398
 20
-156.9468369833327
 30
0.0
 10
110.0573648813398
 20
-156.9468369833327
 30
0.0
 10
109.9174940046387
 20
-156.9468369833327
 30
0.0
 10
109.9174940046387
 20
-156.9468369833327
 30
0.0
  0
HATCH
  5
121
330
10F
100
AcDbEntity
  8
_U+30EC_U+30A4_U+30E4_U+30FC 1
 62
     7
420
 16777215
100
AcDbHatch
 10
0.0
 20
0.0
 30
0.0
210
0.0
220
0.0
230
1.0
  2
SOLID
 70
     1
 71
     0
 91
        6
 92
        1
 93
        1
 72
     4
 94
        3
 73
     0
 74
     1
 95
      113
 96
      109
 40
0.0
 40
0.0
 40
0.0
 40
0.0
 40
1.0
 40
1.0
 40
1.0
 40
2.0
 40
2.0
 40
2.0
 40
3.0
 40
3.0
 40
3.0
 40
4.0
 40
4.0
 40
4.0
 40
5.0
 40
5.0
 40
5.0
 40
6.0
 40
6.0
 40
6.0
 40
7.0
 40
7.0
 40
7.0
 40
8.0
 40
8.0
 40
8.0
 40
9.0
 40
9.0
 40
9.0
 40
10.0
 40
10.0
 40
10.0
 40
11.0
 40
11.0
 40
11.0
 40
12.0
 40
12.0
 40
12.0
 40
13.0
 40
13.0
 40
13.0
 40
14.0
 40
14.0
 40
14.0
 40
15.0
 40
15.0
 40
15.0
 40
16.0
 40
16.0
 40
16.0
 40
17.0
 40
17.0
 40
17.0
 40
18.0
 40
18.0
 40
18.0
 40
19.0
 40
19.0
 40
19.0
 40
20.0
 40
20.0
 40
20.0
 40
21.0
 40
21.0
 40
21.0
 40
22.0
 40
22.0
 40
22.0
 40
23.0
 40
23.0
 40
23.0
 40
24.0
 40
24.0
 40
24.0
 40
25.0
 40
25.0
 40
25.0
 40
26.0
 40
26.0
 40
26.0
 40
27.0
 40
27.0
 40
27.0
 40
28.0
 40
28.0
 40
28.0
 40
29.0
 40
29.0
 40
29.0
 40
30.0
 40
30.0
 40
30.0
 40
31.0
 40
31.0
 40
31.0
 40
32.0
 40
32.0
 40
32.0
 40
33.0
 40
33.0
 40
33.0
 40
34.0
 40
34.0
 40
34.0
 40
35.0
 40
35.0
 40
35.0
 40
36.0
 40
36.0
 40
36.0
 40
36.0
 10
110.1248887528507
 20
-156.9489040406239
 10
110.1248887528507
 20
-156.9489040406239
 10
110.2244520123744
 20
-157.0488118096961
 10
110.2244520123744
 20
-157.0488118096961
 10
110.2351318083787
 20
-157.0591470961519
 10
110.2454670948345
 20
-157.0718939494473
 10
110.2454670948345
 20
-157.0867078600339
 10
110.2454670948345
 20
-157.088774917325
 10
110.2454670948345
 20
-157.1184027384982
 10
110.2075710444967
 20
-157.1184027384982
 10
110.1989583057836
 20
-157.1184027384982
 10
110.1586506886062
 20
-157.1142686239159
 10
110.1524495167327
 20
-157.1142686239159
 10
110.1121418995553
 20
-157.1459635023802
 10
110.0656331105044
 20
-157.1797254381356
 10
109.9664143605292
 20
-157.2369140231908
 10
110.1121418995553
 20
-157.3447455118791
 10
110.2709608014253
 20
-157.4019340969342
 10
110.5438123638571
 20
-157.4401746568205
 10
110.5438123638571
 20
-157.4401746568205
 10
110.3936062007002
 20
-157.6155300170197
 10
110.3936062007002
 20
-157.6155300170197
 10
110.1314344342727
 20
-157.543527521378
 10
109.9746825896938
 20
-157.4546440578586
 10
109.8985459794698
 20
-157.4019340969342
 10
109.7483398163129
 20
-157.3003037801194
 10
109.604679334578
 20
-157.1373507636671
 10
109.528542724354
 20
-156.9723306899236
 10
109.4606743432946
 20
-157.0377875041433
 10
109.3866047903617
 20
-157.0908419746162
 10
109.3084011228465
 20
-157.1397623305067
 10
109.3084011228465
 20
-157.1397623305067
 10
109.3084011228465
 20
-157.39125430093
 10
109.3084011228465
 20
-157.39125430093
 10
109.4713541392988
 20
-157.3657605943391
 10
109.6573892955023
 20
-157.3216633721279
 10
109.7207790524309
 20
-157.3065049519928
 10
109.7207790524309
 20
-157.3065049519928
 10
109.6911512312578
 20
-157.4760036498671
 10
109.6911512312578
 20
-157.4760036498671
 10
109.6890841739666
 20
-157.4760036498671
 10
109.6701361487978
 20
-157.4822048217406
 10
109.6680690915066
 20
-157.4822048217406
 10
109.4692870820077
 20
-157.5201008720783
 10
109.1519937878162
 20
-157.5859021958466
 10
108.9549343260599
 20
-157.6220756984417
 10
108.9445990396041
 20
-157.6386121567709
 10
108.9211723903044
 20
-157.6703070352352
 10
108.8980902505533
 20
-157.6703070352352
 10
108.8705294866713
 20
-157.6703070352352
 10
108.866395372089
 20
-157.6517035196149
 10
108.8639838052493
 20
-157.6324109848975
 10
108.8639838052493
 20
-157.6324109848975
 10
108.838834608207
 20
-157.4587781724409
 10
108.838834608207
 20
-157.4587781724409
 10
108.9129041611398
 20
-157.4505099432763
 10
109.0207356498282
 20
-157.4377630899808
 10
109.1285671385165
 20
-157.4167480075208
 10
109.1285671385165
 20
-157.4167480075208
 10
109.1285671385165
 20
-157.2389810804819
 10
109.1285671385165
 20
-157.2389810804819
 10
108.984562147233
 20
-157.3109835761236
 10
108.8894775118401
 20
-157.3402668877483
 10
108.7244574380967
 20
-157.3698947089214
 10
108.7244574380967
 20
-157.3698947089214
 10
108.6038790961129
 20
-157.2010850301442
 10
108.6038790961129
 20
-157.2010850301442
 10
108.9211723903044
 20
-157.1735242662622
 10
109.1137532279299
 20
-157.0805066881604
 10
109.2915201549688
 20
-156.9468369833327
 10
109.1454481063942
 20
-156.9468369833327
 10
108.8450357800804
 20
-156.9513156074636
 10
108.6483208278727
 20
-156.9578612888855
 10
108.6483208278727
 20
-156.9578612888855
 10
108.6483208278727
 20
-156.7800943618466
 10
108.6483208278727
 20
-156.7800943618466
 10
108.8026611056118
 20
-156.7862955337201
 10
109.0989393173433
 20
-156.7924967055935
 10
109.2829074162557
 20
-156.7924967055935
 10
109.2829074162557
 20
-156.7924967055935
 10
109.49443627905
 20
-156.7924967055935
 10
109.49443627905
 20
-156.7924967055935
 10
109.49443627905
 20
-156.6974120702006
 10
109.4923692217589
 20
-156.646424657019
 10
109.4861680498854
 20
-156.6002603775166
 10
109.4861680498854
 20
-156.6002603775166
 10
109.701831027262
 20
-156.6167968358458
 10
109.701831027262
 20
-156.6167968358458
 10
109.7504068736041
 20
-156.6212754599766
 10
109.7590196123172
 20
-156.6360893705632
 10
109.7590196123172
 20
-156.6509032811498
 10
109.7590196123172
 20
-156.6760524781921
 10
109.7421386444395
 20
-156.6846652169052
 10
109.6911512312578
 20
-156.7101589234961
 10
109.6890841739666
 20
-156.7353081205384
 10
109.6890841739666
 20
-156.7418538019604
 10
109.6870171166755
 20
-156.7924967055935
 10
109.6870171166755
 20
-156.7924967055935
 10
109.9174940046387
 20
-156.7924967055935
 10
109.9174940046387
 20
-156.7924967055935
 10
110.0825140783822
 20
-156.7924967055935
 10
110.3746581755313
 20
-156.7862955337201
 10
110.5544921598614
 20
-156.7800943618466
 10
110.5544921598614
 20
-156.7800943618466
 10
110.5544921598614
 20
-156.9578612888855
 10
110.5544921598614
 20
-156.9578612888855
 10
110.4253010791645
 20
-156.9533826647547
 10
110.4022189394133
 20
-156.9533826647547
 10
110.1248887528507
 20
-156.9489040406239
 97
        0
 97
        0
 92
        1
 93
        1
 72
     4
 94
        3
 73
     0
 74
     1
 95
       23
 96
       19
 40
0.0
 40
0.0
 40
0.0
 40
0.0
 40
1.0
 40
1.0
 40
1.0
 40
2.0
 40
2.0
 40
2.0
 40
3.0
 40
3.0
 40
3.0
 40
4.0
 40
4.0
 40
4.0
 40
5.0
 40
5.0
 40
5.0
 40
6.0
 40
6.0
 40
6.0
 40
6.0
 10
108.8409016654981
 20
-156.5981933202254
 10
108.8240206976204
 20
-156.6381564278544
 10
108.8174750161984
 20
-156.6550373957321
 10
108.7964599337384
 20
-156.6550373957321
 10
108.7816460231518
 20
-156.6550373957321
 10
108.7709662271475
 20
-156.6381564278544
 10
108.7647650552741
 20
-156.6254095745589
 10
108.7647650552741
 20
-156.6254095745589
 10
108.6652017957504
 20
-156.4603895008155
 10
108.6652017957504
 20
-156.4603895008155
 10
108.7668321125652
 20
-156.4286946223512
 10
108.9170382757221
 20
-156.3735730945872
 10
109.115820285221
 20
-156.2109645876834
 10
109.115820285221
 20
-156.2109645876834
 10
109.1730088702762
 20
-156.3842528905915
 10
109.1730088702762
 20
-156.3842528905915
 10
109.0799912921745
 20
-156.4665906726889
 10
108.991107828655
 20
-156.5237792577441
 10
108.8409016654981
 20
-156.5981933202254
 97
        0
 97
        0
 92
        1
 93
        1
 72
     4
 94
        3
 73
     0
 74
     1
 95
       17
 96
       13
 40
0.0
 40
0.0
 40
0.0
 40
0.0
 40
1.0
 40
1.0
 40
1.0
 40
2.0
 40
2.0
 40
2.0
 40
3.0
 40
3.0
 40
3.0
 40
4.0
 40
4.0
 40
4.0
 40
4.0
 10
108.9931748859462
 20
-156.1324164106197
 10
108.963547064773
 20
-156.0924533029908
 10
108.8956786837136
 20
-155.9953016103067
 10
108.7137776420924
 20
-155.8850585547787
 10
108.7137776420924
 20
-155.8850585547787
 10
108.8409016654981
 20
-155.7517333594996
 10
108.8409016654981
 20
-155.7517333594996
 10
109.0269368217016
 20
-155.8533636763144
 10
109.0841254067568
 20
-155.9422471398339
 10
109.1116861706387
 20
-155.9842773047539
 10
109.1116861706387
 20
-155.9842773047539
 10
108.9931748859462
 20
-156.1324164106197
 10
108.9931748859462
 20
-156.1324164106197
 97
        0
 97
        0
 92
        1
 93
        1
 72
     4
 94
        3
 73
     0
 74
     1
 95
       38
 96
       34
 40
0.0
 40
0.0
 40
0.0
 40
0.0
 40
1.0
 40
1.0
 40
1.0
 40
2.0
 40
2.0
 40
2.0
 40
3.0
 40
3.0
 40
3.0
 40
4.0
 40
4.0
 40
4.0
 40
5.0
 40
5.0
 40
5.0
 40
6.0
 40
6.0
 40
6.0
 40
7.0
 40
7.0
 40
7.0
 40
8.0
 40
8.0
 40
8.0
 40
9.0
 40
9.0
 40
9.0
 40
10.0
 40
10.0
 40
10.0
 40
11.0
 40
11.0
 40
11.0
 40
11.0
 10
109.3611110837708
 20
-155.8278699697236
 10
109.3590440264797
 20
-155.874723268323
 10
109.3569769691885
 20
-155.9908229861759
 10
109.3569769691885
 20
-156.0352647179356
 10
109.3569769691885
 20
-156.0352647179356
 10
109.3569769691885
 20
-156.3821858333003
 10
109.3569769691885
 20
-156.3821858333003
 10
109.3569769691885
 20
-156.4690022395286
 10
109.3590440264797
 20
-156.6105956639724
 10
109.369723822484
 20
-156.7311740059561
 10
109.369723822484
 20
-156.7311740059561
 10
109.1792100421496
 20
-156.7311740059561
 10
109.1792100421496
 20
-156.7311740059561
 10
109.1836886662805
 20
-156.6677842490275
 10
109.1878227808628
 20
-156.6147297785546
 10
109.1898898381539
 20
-156.5599527603392
 10
109.1919568954451
 20
-156.4369628515158
 10
109.1940239527362
 20
-156.4224934504777
 10
109.1940239527362
 20
-156.3777072091695
 10
109.1940239527362
 20
-156.3777072091695
 10
109.1940239527362
 20
-156.0566243099442
 10
109.1940239527362
 20
-156.0566243099442
 10
109.1940239527362
 20
-156.0015027821802
 10
109.1812770994408
 20
-155.7624131555039
 10
109.1792100421496
 20
-155.7114257423221
 10
109.1792100421496
 20
-155.7114257423221
 10
109.3804036184882
 20
-155.7389865062042
 10
109.3804036184882
 20
-155.7389865062042
 10
109.4014187009483
 20
-155.7410535634953
 10
109.4331135794126
 20
-155.7451876780776
 10
109.4331135794126
 20
-155.7706813846684
 10
109.4331135794126
 20
-155.7982421485505
 10
109.3824706757794
 20
-155.819601740559
 10
109.3611110837708
 20
-155.8278699697236
 97
        0
 97
        0
 92
        1
 93
        1
 72
     4
 94
        3
 73
     0
 74
     1
 95
       83
 96
       79
 40
0.0
 40
0.0
 40
0.0
 40
0.0
 40
1.0
 40
1.0
 40
1.0
 40
2.0
 40
2.0
 40
2.0
 40
3.0
 40
3.0
 40
3.0
 40
4.0
 40
4.0
 40
4.0
 40
5.0
 40
5.0
 40
5.0
 40
6.0
 40
6.0
 40
6.0
 40
7.0
 40
7.0
 40
7.0
 40
8.0
 40
8.0
 40
8.0
 40
9.0
 40
9.0
 40
9.0
 40
10.0
 40
10.0
 40
10.0
 40
11.0
 40
11.0
 40
11.0
 40
12.0
 40
12.0
 40
12.0
 40
13.0
 40
13.0
 40
13.0
 40
14.0
 40
14.0
 40
14.0
 40
15.0
 40
15.0
 40
15.0
 40
16.0
 40
16.0
 40
16.0
 40
17.0
 40
17.0
 40
17.0
 40
18.0
 40
18.0
 40
18.0
 40
19.0
 40
19.0
 40
19.0
 40
20.0
 40
20.0
 40
20.0
 40
21.0
 40
21.0
 40
21.0
 40
22.0
 40
22.0
 40
22.0
 40
23.0
 40
23.0
 40
23.0
 40
24.0
 40
24.0
 40
24.0
 40
25.0
 40
25.0
 40
25.0
 40
26.0
 40
26.0
 40
26.0
 40
26.0
 10
110.163129312737
 20
-156.1496418880459
 10
110.163129312737
 20
-156.1496418880459
 10
110.0656331105044
 20
-156.1496418880459
 10
110.0656331105044
 20
-156.1496418880459
 10
110.0656331105044
 20
-156.1496418880459
 10
110.0656331105044
 20
-156.3969997438869
 10
110.0656331105044
 20
-156.3969997438869
 10
110.0656331105044
 20
-156.3969997438869
 10
110.1483154021504
 20
-156.3969997438869
 10
110.1483154021504
 20
-156.3969997438869
 10
110.2137722163702
 20
-156.3969997438869
 10
110.3532985835228
 20
-156.3928656293046
 10
110.4528618430465
 20
-156.3842528905915
 10
110.4528618430465
 20
-156.3842528905915
 10
110.4528618430465
 20
-156.5640868749215
 10
110.4528618430465
 20
-156.5640868749215
 10
110.3598442649448
 20
-156.5554741362084
 10
110.2096381017879
 20
-156.5513400216261
 10
110.1483154021504
 20
-156.5513400216261
 10
110.1483154021504
 20
-156.5513400216261
 10
109.8434244517058
 20
-156.5513400216261
 10
109.8434244517058
 20
-156.5513400216261
 10
109.7907144907815
 20
-156.5513400216261
 10
109.6446424422069
 20
-156.5554741362084
 10
109.5388780108097
 20
-156.5640868749215
 10
109.5388780108097
 20
-156.5640868749215
 10
109.5388780108097
 20
-156.3842528905915
 10
109.5388780108097
 20
-156.3842528905915
 10
109.6384412703334
 20
-156.3928656293046
 10
109.7779676374861
 20
-156.3969997438869
 10
109.8434244517058
 20
-156.3969997438869
 10
109.8434244517058
 20
-156.3969997438869
 10
109.8878661834655
 20
-156.3969997438869
 10
109.8878661834655
 20
-156.3969997438869
 10
109.8878661834655
 20
-156.3969997438869
 10
109.8878661834655
 20
-156.1496418880459
 10
109.8878661834655
 20
-156.1496418880459
 10
109.8878661834655
 20
-156.1496418880459
 10
109.8141411400812
 20
-156.1496418880459
 10
109.8141411400812
 20
-156.1496418880459
 10
109.7524739308952
 20
-156.1496418880459
 10
109.5853867998606
 20
-156.1537760026282
 10
109.4648084578769
 20
-156.1620442317928
 10
109.4648084578769
 20
-156.1620442317928
 10
109.4648084578769
 20
-155.9842773047539
 10
109.4648084578769
 20
-155.9842773047539
 10
109.5791856279872
 20
-155.9908229861759
 10
109.7376600203087
 20
-155.9953016103067
 10
109.8141411400812
 20
-155.9953016103067
 10
109.8141411400812
 20
-155.9953016103067
 10
109.8857991261744
 20
-155.9953016103067
 10
109.8857991261744
 20
-155.9953016103067
 10
109.8816650115921
 20
-155.8426838803102
 10
109.8795979543009
 20
-155.8089219445547
 10
109.873052272879
 20
-155.7155598569045
 10
109.873052272879
 20
-155.7155598569045
 10
110.0849256452218
 20
-155.7389865062042
 10
110.0849256452218
 20
-155.7389865062042
 10
110.1100748422642
 20
-155.7410535634953
 10
110.1335014915638
 20
-155.7451876780776
 10
110.1335014915638
 20
-155.7686143273773
 10
110.1335014915638
 20
-155.8003092058416
 10
110.0890597598041
 20
-155.8175346832678
 10
110.0656331105044
 20
-155.8258029124324
 10
110.0656331105044
 20
-155.8258029124324
 10
110.0656331105044
 20
-155.9953016103067
 10
110.0656331105044
 20
-155.9953016103067
 10
110.0656331105044
 20
-155.9953016103067
 10
110.163129312737
 20
-155.9953016103067
 10
110.163129312737
 20
-155.9953016103067
 10
110.239265922961
 20
-155.9953016103067
 10
110.3977403152825
 20
-155.9908229861759
 10
110.514184542684
 20
-155.9842773047539
 10
110.514184542684
 20
-155.9842773047539
 10
110.514184542684
 20
-156.1620442317928
 10
110.514184542684
 20
-156.1620442317928
 10
110.4063530539956
 20
-156.1558430599194
 10
110.232720241539
 20
-156.1496418880459
 10
110.163129312737
 20
-156.1496418880459
 97
        0
 97
        0
 92
        1
 93
        1
 72
     4
 94
        3
 73
     0
 74
     1
 95
       17
 96
       13
 40
0.0
 40
0.0
 40
0.0
 40
0.0
 40
1.0
 40
1.0
 40
1.0
 40
2.0
 40
2.0
 40
2.0
 40
3.0
 40
3.0
 40
3.0
 40
4.0
 40
4.0
 40
4.0
 40
4.0
 10
109.9174940046387
 20
-156.9468369833327
 10
109.9174940046387
 20
-156.9468369833327
 10
109.7145778805575
 20
-156.9468369833327
 10
109.7145778805575
 20
-156.9468369833327
 10
109.7421386444395
 20
-157.006092625679
 10
109.7969156626549
 20
-157.0784396308693
 10
109.8244764265369
 20
-157.1077229424939
 10
109.8520371904189
 20
-157.0929090319073
 10
109.9664143605292
 20
-157.0295192749787
 10
110.0573648813398
 20
-156.9468369833327
 10
110.0573648813398
 20
-156.9468369833327
 10
109.9174940046387
 20
-156.9468369833327
 10
109.9174940046387
 20
-156.9468369833327
 97
        0
 97
        0
 75
     2
 76
     1
 98
        0
  0
SPLINE
  5
122
330
10F
100
AcDbEntity
  8
_U+30EC_U+30A4_U+30E4_U+30FC 1
370
     0
100
AcDbSpline
210
0.0
220
0.0
230
1.0
 70
    11
 71
     3
 72
    77
 73
    73
 74
     0
 42
0.0000000001
 43
0.0000000001
 12
1.0
 22
0.0
 32
0.0
 13
1.0
 23
0.0
 33
0.0
 40
0.0
 40
0.0
 40
0.0
 40
0.0
 40
1.0
 40
1.0
 40
1.0
 40
2.0
 40
2.0
 40
2.0
 40
3.0
 40
3.0
 40
3.0
 40
4.0
 40
4.0
 40
4.0
 40
5.0
 40
5.0
 40
5.0
 40
6.0
 40
6.0
 40
6.0
 40
7.0
 40
7.0
 40
7.0
 40
8.0
 40
8.0
 40
8.0
 40
9.0
 40
9.0
 40
9.0
 40
10.0
 40
10.0
 40
10.0
 40
11.0
 40
11.0
 40
11.0
 40
12.0
 40
12.0
 40
12.0
 40
13.0
 40
13.0
 40
13.0
 40
14.0
 40
14.0
 40
14.0
 40
15.0
 40
15.0
 40
15.0
 40
16.0
 40
16.0
 40
16.0
 40
17.0
 40
17.0
 40
17.0
 40
18.0
 40
18.0
 40
18.0
 40
19.0
 40
19.0
 40
19.0
 40
20.0
 40
20.0
 40
20.0
 40
21.0
 40
21.0
 40
21.0
 40
22.0
 40
22.0
 40
22.0
 40
23.0
 40
23.0
 40
23.0
 40
24.0
 40
24.0
 40
24.0
 40
24.0
 10
112.4086425500228
 20
-157.5772894571335
 30
0.0
 10
112.362133760972
 20
-157.6027831637243
 30
0.0
 10
112.2374213044059
 20
-157.6155300170197
 30
0.0
 10
112.1588731273422
 20
-157.6155300170197
 30
0.0
 10
112.1464707835953
 20
-157.6155300170197
 30
0.0
 10
112.1209770770045
 20
-157.6155300170197
 30
0.0
 10
112.087215141249
 20
-157.6110513928889
 30
0.0
 10
112.087215141249
 20
-157.6110513928889
 30
0.0
 10
111.9897189390165
 20
-157.3850531290565
 30
0.0
 10
111.9897189390165
 20
-157.3850531290565
 30
0.0
 10
112.0193467601896
 20
-157.39125430093
 30
0.0
 10
112.0765353452448
 20
-157.3995225300946
 30
0.0
 10
112.1929795726462
 20
-157.3995225300946
 30
0.0
 10
112.2711832401614
 20
-157.3995225300946
 30
0.0
 10
112.2732502974525
 20
-157.3574923651745
 30
0.0
 10
112.2732502974525
 20
-157.3003037801194
 30
0.0
 10
112.2732502974525
 20
-157.3003037801194
 30
0.0
 10
112.2732502974525
 20
-156.9513156074636
 30
0.0
 10
112.2732502974525
 20
-156.9513156074636
 30
0.0
 10
112.2732502974525
 20
-156.9513156074636
 30
0.0
 10
111.8140190692687
 20
-156.9513156074636
 30
0.0
 10
111.8140190692687
 20
-156.9513156074636
 30
0.0
 10
111.8164306361084
 20
-157.088774917325
 30
0.0
 10
111.8184976933996
 20
-157.287556926824
 30
0.0
 10
111.824698865273
 20
-157.4208821221031
 30
0.0
 10
111.8267659225641
 20
-157.4484428859851
 30
0.0
 10
111.8267659225641
 20
-157.4928846177448
 30
0.0
 10
111.8395127758596
 20
-157.5542073173823
 30
0.0
 10
111.8395127758596
 20
-157.5542073173823
 30
0.0
 10
111.5983560918921
 20
-157.5542073173823
 30
0.0
 10
111.5983560918921
 20
-157.5542073173823
 30
0.0
 10
111.6238497984829
 20
-157.4291503512677
 30
0.0
 10
111.6238497984829
 20
-157.088774917325
 30
0.0
 10
111.6238497984829
 20
-156.9513156074636
 30
0.0
 10
111.6238497984829
 20
-156.9513156074636
 30
0.0
 10
111.1814995381769
 20
-156.9513156074636
 30
0.0
 10
111.1814995381769
 20
-156.9513156074636
 30
0.0
 10
111.1584173984257
 20
-157.1583658461271
 30
0.0
 10
111.0929605842059
 20
-157.4270832939766
 30
0.0
 10
110.8959011224496
 20
-157.6110513928889
 30
0.0
 10
110.8959011224496
 20
-157.6110513928889
 30
0.0
 10
110.707798908955
 20
-157.488405993614
 30
0.0
 10
110.707798908955
 20
-157.488405993614
 30
0.0
 10
110.9617024462179
 20
-157.2686089016551
 30
0.0
 10
110.9933973246822
 20
-156.936501696877
 30
0.0
 10
110.9933973246822
 20
-156.6043944920989
 30
0.0
 10
110.9933973246822
 20
-156.6043944920989
 30
0.0
 10
110.9933973246822
 20
-156.1685899132148
 30
0.0
 10
110.9933973246822
 20
-156.1685899132148
 30
0.0
 10
110.9933973246822
 20
-156.1324164106197
 30
0.0
 10
110.9913302673911
 20
-155.8998724653653
 30
0.0
 10
110.9827175286779
 20
-155.7982421485505
 30
0.0
 10
111.1225884053791
 20
-155.8089219445547
 30
0.0
 10
111.3637450893466
 20
-155.8089219445547
 30
0.0
 10
111.5074055710815
 20
-155.8089219445547
 30
0.0
 10
111.5074055710815
 20
-155.8089219445547
 30
0.0
 10
111.9666367992653
 20
-155.8089219445547
 30
0.0
 10
111.9666367992653
 20
-155.8089219445547
 30
0.0
 10
111.9814507098519
 20
-155.8089219445547
 30
0.0
 10
112.3304388825077
 20
-155.8089219445547
 30
0.0
 10
112.4889132748292
 20
-155.7982421485505
 30
0.0
 10
112.486846217538
 20
-155.8512966190233
 30
0.0
 10
112.4806450456646
 20
-156.0118380686359
 30
0.0
 10
112.4806450456646
 20
-156.0628254818176
 30
0.0
 10
112.4806450456646
 20
-156.0628254818176
 30
0.0
 10
112.4806450456646
 20
-156.6698513063187
 30
0.0
 10
112.4806450456646
 20
-156.6698513063187
 30
0.0
 10
112.4806450456646
 20
-156.689143841036
 30
0.0
 10
112.4909803321203
 20
-157.2603406724905
 30
0.0
 10
112.4909803321203
 20
-157.3723062757611
 30
0.0
 10
112.4909803321203
 20
-157.4291503512677
 30
0.0
 10
112.4909803321203
 20
-157.5311251776311
 30
0.0
 10
112.4086425500228
 20
-157.5772894571335
 30
0.0
  0
POLYLINE
  5
123
330
10F
100
AcDbEntity
  8
_U+30EC_U+30A4_U+30E4_U+30FC 1
370
     0
100
AcDb2dPolyline
 66
     1
 10
0.0
 20
0.0
 30
0.0
  0
VERTEX
  5
124
330
123
100
AcDbEntity
  8
_U+30EC_U+30A4_U+30E4_U+30FC 1
370
     0
100
AcDbVertex
100
AcDb2dVertex
 10
111.6238497984829
 20
-155.9908229861759
 30
0.0
  0
VERTEX
  5
125
330
123
100
AcDbEntity
  8
_U+30EC_U+30A4_U+30E4_U+30FC 1
370
     0
100
AcDbVertex
100
AcDb2dVertex
 10
111.1859781623077
 20
-155.9908229861759
 30
0.0
  0
VERTEX
  5
126
330
123
100
AcDbEntity
  8
_U+30EC_U+30A4_U+30E4_U+30FC 1
370
     0
100
AcDbVertex
100
AcDb2dVertex
 10
111.1859781623077
 20
-156.295369427072
 30
0.0
  0
VERTEX
  5
127
330
123
100
AcDbEntity
  8
_U+30EC_U+30A4_U+30E4_U+30FC 1
370
     0
100
AcDbVertex
100
AcDb2dVertex
 10
111.6238497984829
 20
-156.295369427072
 30
0.0
  0
VERTEX
  5
128
330
123
100
AcDbEntity
  8
_U+30EC_U+30A4_U+30E4_U+30FC 1
370
     0
100
AcDbVertex
100
AcDb2dVertex
 10
111.6238497984829
 20
-155.9908229861759
 30
0.0
  0
SEQEND
  5
129
330
123
100
AcDbEntity
  8
_U+30EC_U+30A4_U+30E4_U+30FC 1
370
     0
  0
POLYLINE
  5
12A
330
10F
100
AcDbEntity
  8
_U+30EC_U+30A4_U+30E4_U+30FC 1
370
     0
100
AcDb2dPolyline
 66
     1
 10
0.0
 20
0.0
 30
0.0
  0
VERTEX
  5
12B
330
12A
100
AcDbEntity
  8
_U+30EC_U+30A4_U+30E4_U+30FC 1
370
     0
100
AcDbVertex
100
AcDb2dVertex
 10
111.6238497984829
 20
-156.4624565581066
 30
0.0
  0
VERTEX
  5
12C
330
12A
100
AcDbEntity
  8
_U+30EC_U+30A4_U+30E4_U+30FC 1
370
     0
100
AcDbVertex
100
AcDb2dVertex
 10
111.1859781623077
 20
-156.4624565581066
 30
0.0
  0
VERTEX
  5
12D
330
12A
100
AcDbEntity
  8
_U+30EC_U+30A4_U+30E4_U+30FC 1
370
     0
100
AcDbVertex
100
AcDb2dVertex
 10
111.1859781623077
 20
-156.7714816231335
 30
0.0
  0
VERTEX
  5
12E
330
12A
100
AcDbEntity
  8
_U+30EC_U+30A4_U+30E4_U+30FC 1
370
     0
100
AcDbVertex
100
AcDb2dVertex
 10
111.6238497984829
 20
-156.7714816231335
 30
0.0
  0
VERTEX
  5
12F
330
12A
100
AcDbEntity
  8
_U+30EC_U+30A4_U+30E4_U+30FC 1
370
     0
100
AcDbVertex
100
AcDb2dVertex
 10
111.6238497984829
 20
-156.4624565581066
 30
0.0
  0
SEQEND
  5
130
330
12A
100
AcDbEntity
  8
_U+30EC_U+30A4_U+30E4_U+30FC 1
370
     0
  0
POLYLINE
  5
131
330
10F
100
AcDbEntity
  8
_U+30EC_U+30A4_U+30E4_U+30FC 1
370
     0
100
AcDb2dPolyline
 66
     1
 10
0.0
 20
0.0
 30
0.0
  0
VERTEX
  5
132
330
131
100
AcDbEntity
  8
_U+30EC_U+30A4_U+30E4_U+30FC 1
370
     0
100
AcDbVertex
100
AcDb2dVertex
 10
112.2732502974525
 20
-155.9908229861759
 30
0.0
  0
VERTEX
  5
133
330
131
100
AcDbEntity
  8
_U+30EC_U+30A4_U+30E4_U+30FC 1
370
     0
100
AcDbVertex
100
AcDb2dVertex
 10
111.8140190692687
 20
-155.9908229861759
 30
0.0
  0
VERTEX
  5
134
330
131
100
AcDbEntity
  8
_U+30EC_U+30A4_U+30E4_U+30FC 1
370
     0
100
AcDbVertex
100
AcDb2dVertex
 10
111.8140190692687
 20
-156.295369427072
 30
0.0
  0
VERTEX
  5
135
330
131
100
AcDbEntity
  8
_U+30EC_U+30A4_U+30E4_U+30FC 1
370
     0
100
AcDbVertex
100
AcDb2dVertex
 10
112.2732502974525
 20
-156.295369427072
 30
0.0
  0
VERTEX
  5
136
330
131
100
AcDbEntity
  8
_U+30EC_U+30A4_U+30E4_U+30FC 1
370
     0
100
AcDbVertex
100
AcDb2dVertex
 10
112.2732502974525
 20
-155.9908229861759
 30
0.0
  0
SEQEND
  5
137
330
131
100
AcDbEntity
  8
_U+30EC_U+30A4_U+30E4_U+30FC 1
370
     0
  0
POLYLINE
  5
138
330
10F
100
AcDbEntity
  8
_U+30EC_U+30A4_U+30E4_U+30FC 1
370
     0
100
AcDb2dPolyline
 66
     1
 10
0.0
 20
0.0
 30
0.0
  0
VERTEX
  5
139
330
138
100
AcDbEntity
  8
_U+30EC_U+30A4_U+30E4_U+30FC 1
370
     0
100
AcDbVertex
100
AcDb2dVertex
 10
112.2732502974525
 20
-156.4624565581066
 30
0.0
  0
VERTEX
  5
13A
330
138
100
AcDbEntity
  8
_U+30EC_U+30A4_U+30E4_U+30FC 1
370
     0
100
AcDbVertex
100
AcDb2dVertex
 10
111.8140190692687
 20
-156.4624565581066
 30
0.0
  0
VERTEX
  5
13B
330
138
100
AcDbEntity
  8
_U+30EC_U+30A4_U+30E4_U+30FC 1
370
     0
100
AcDbVertex
100
AcDb2dVertex
 10
111.8140190692687
 20
-156.7714816231335
 30
0.0
  0
VERTEX
  5
13C
330
138
100
AcDbEntity
  8
_U+30EC_U+30A4_U+30E4_U+30FC 1
370
     0
100
AcDbVertex
100
AcDb2dVertex
 10
112.2732502974525
 20
-156.7714816231335
 30
0.0
  0
VERTEX
  5
13D
330
138
100
AcDbEntity
  8
_U+30EC_U+30A4_U+30E4_U+30FC 1
370
     0
100
AcDbVertex
100
AcDb2dVertex
 10
112.2732502974525
 20
-156.4624565581066
 30
0.0
  0
SEQEND
  5
13E
330
138
100
AcDbEntity
  8
_U+30EC_U+30A4_U+30E4_U+30FC 1
370
     0
  0
HATCH
  5
13F
330
10F
100
AcDbEntity
  8
_U+30EC_U+30A4_U+30E4_U+30FC 1
 62
     7
420
 16777215
100
AcDbHatch
 10
0.0
 20
0.0
 30
0.0
210
0.0
220
0.0
230
1.0
  2
SOLID
 70
     1
 71
     0
 91
        5
 92
        1
 93
        1
 72
     4
 94
        3
 73
     0
 74
     1
 95
       77
 96
       73
 40
0.0
 40
0.0
 40
0.0
 40
0.0
 40
1.0
 40
1.0
 40
1.0
 40
2.0
 40
2.0
 40
2.0
 40
3.0
 40
3.0
 40
3.0
 40
4.0
 40
4.0
 40
4.0
 40
5.0
 40
5.0
 40
5.0
 40
6.0
 40
6.0
 40
6.0
 40
7.0
 40
7.0
 40
7.0
 40
8.0
 40
8.0
 40
8.0
 40
9.0
 40
9.0
 40
9.0
 40
10.0
 40
10.0
 40
10.0
 40
11.0
 40
11.0
 40
11.0
 40
12.0
 40
12.0
 40
12.0
 40
13.0
 40
13.0
 40
13.0
 40
14.0
 40
14.0
 40
14.0
 40
15.0
 40
15.0
 40
15.0
 40
16.0
 40
16.0
 40
16.0
 40
17.0
 40
17.0
 40
17.0
 40
18.0
 40
18.0
 40
18.0
 40
19.0
 40
19.0
 40
19.0
 40
20.0
 40
20.0
 40
20.0
 40
21.0
 40
21.0
 40
21.0
 40
22.0
 40
22.0
 40
22.0
 40
23.0
 40
23.0
 40
23.0
 40
24.0
 40
24.0
 40
24.0
 40
24.0
 10
112.4086425500228
 20
-157.5772894571335
 10
112.362133760972
 20
-157.6027831637243
 10
112.2374213044059
 20
-157.6155300170197
 10
112.1588731273422
 20
-157.6155300170197
 10
112.1464707835953
 20
-157.6155300170197
 10
112.1209770770045
 20
-157.6155300170197
 10
112.087215141249
 20
-157.6110513928889
 10
112.087215141249
 20
-157.6110513928889
 10
111.9897189390165
 20
-157.3850531290565
 10
111.9897189390165
 20
-157.3850531290565
 10
112.0193467601896
 20
-157.39125430093
 10
112.0765353452448
 20
-157.3995225300946
 10
112.1929795726462
 20
-157.3995225300946
 10
112.2711832401614
 20
-157.3995225300946
 10
112.2732502974525
 20
-157.3574923651745
 10
112.2732502974525
 20
-157.3003037801194
 10
112.2732502974525
 20
-157.3003037801194
 10
112.2732502974525
 20
-156.9513156074636
 10
112.2732502974525
 20
-156.9513156074636
 10
112.2732502974525
 20
-156.9513156074636
 10
111.8140190692687
 20
-156.9513156074636
 10
111.8140190692687
 20
-156.9513156074636
 10
111.8164306361084
 20
-157.088774917325
 10
111.8184976933996
 20
-157.287556926824
 10
111.824698865273
 20
-157.4208821221031
 10
111.8267659225641
 20
-157.4484428859851
 10
111.8267659225641
 20
-157.4928846177448
 10
111.8395127758596
 20
-157.5542073173823
 10
111.8395127758596
 20
-157.5542073173823
 10
111.5983560918921
 20
-157.5542073173823
 10
111.5983560918921
 20
-157.5542073173823
 10
111.6238497984829
 20
-157.4291503512677
 10
111.6238497984829
 20
-157.088774917325
 10
111.6238497984829
 20
-156.9513156074636
 10
111.6238497984829
 20
-156.9513156074636
 10
111.1814995381769
 20
-156.9513156074636
 10
111.1814995381769
 20
-156.9513156074636
 10
111.1584173984257
 20
-157.1583658461271
 10
111.0929605842059
 20
-157.4270832939766
 10
110.8959011224496
 20
-157.6110513928889
 10
110.8959011224496
 20
-157.6110513928889
 10
110.707798908955
 20
-157.488405993614
 10
110.707798908955
 20
-157.488405993614
 10
110.9617024462179
 20
-157.2686089016551
 10
110.9933973246822
 20
-156.936501696877
 10
110.9933973246822
 20
-156.6043944920989
 10
110.9933973246822
 20
-156.6043944920989
 10
110.9933973246822
 20
-156.1685899132148
 10
110.9933973246822
 20
-156.1685899132148
 10
110.9933973246822
 20
-156.1324164106197
 10
110.9913302673911
 20
-155.8998724653653
 10
110.9827175286779
 20
-155.7982421485505
 10
111.1225884053791
 20
-155.8089219445547
 10
111.3637450893466
 20
-155.8089219445547
 10
111.5074055710815
 20
-155.8089219445547
 10
111.5074055710815
 20
-155.8089219445547
 10
111.9666367992653
 20
-155.8089219445547
 10
111.9666367992653
 20
-155.8089219445547
 10
111.9814507098519
 20
-155.8089219445547
 10
112.3304388825077
 20
-155.8089219445547
 10
112.4889132748292
 20
-155.7982421485505
 10
112.486846217538
 20
-155.8512966190233
 10
112.4806450456646
 20
-156.0118380686359
 10
112.4806450456646
 20
-156.0628254818176
 10
112.4806450456646
 20
-156.0628254818176
 10
112.4806450456646
 20
-156.6698513063187
 10
112.4806450456646
 20
-156.6698513063187
 10
112.4806450456646
 20
-156.689143841036
 10
112.4909803321203
 20
-157.2603406724905
 10
112.4909803321203
 20
-157.3723062757611
 10
112.4909803321203
 20
-157.4291503512677
 10
112.4909803321203
 20
-157.5311251776311
 10
112.4086425500228
 20
-157.5772894571335
 97
        0
 97
        0
 92
        1
 93
        4
 72
     1
 10
111.6238497984829
 20
-155.9908229861759
 11
111.1859781623077
 21
-155.9908229861759
 72
     1
 10
111.1859781623077
 20
-155.9908229861759
 11
111.1859781623077
 21
-156.295369427072
 72
     1
 10
111.1859781623077
 20
-156.295369427072
 11
111.6238497984829
 21
-156.295369427072
 72
     1
 10
111.6238497984829
 20
-156.295369427072
 11
111.6238497984829
 21
-155.9908229861759
 97
        0
 92
        1
 93
        4
 72
     1
 10
111.6238497984829
 20
-156.4624565581066
 11
111.1859781623077
 21
-156.4624565581066
 72
     1
 10
111.1859781623077
 20
-156.4624565581066
 11
111.1859781623077
 21
-156.7714816231335
 72
     1
 10
111.1859781623077
 20
-156.7714816231335
 11
111.6238497984829
 21
-156.7714816231335
 72
     1
 10
111.6238497984829
 20
-156.7714816231335
 11
111.6238497984829
 21
-156.4624565581066
 97
        0
 92
        1
 93
        4
 72
     1
 10
112.2732502974525
 20
-155.9908229861759
 11
111.8140190692687
 21
-155.9908229861759
 72
     1
 10
111.8140190692687
 20
-155.9908229861759
 11
111.8140190692687
 21
-156.295369427072
 72
     1
 10
111.8140190692687
 20
-156.295369427072
 11
112.2732502974525
 21
-156.295369427072
 72
     1
 10
112.2732502974525
 20
-156.295369427072
 11
112.2732502974525
 21
-155.9908229861759
 97
        0
 92
        1
 93
        4
 72
     1
 10
112.2732502974525
 20
-156.4624565581066
 11
111.8140190692687
 21
-156.4624565581066
 72
     1
 10
111.8140190692687
 20
-156.4624565581066
 11
111.8140190692687
 21
-156.7714816231335
 72
     1
 10
111.8140190692687
 20
-156.7714816231335
 11
112.2732502974525
 21
-156.7714816231335
 72
     1
 10
112.2732502974525
 20
-156.7714816231335
 11
112.2732502974525
 21
-156.4624565581066
 97
        0
 75
     2
 76
     1
 98
        0
  0
SPLINE
  5
140
330
10F
100
AcDbEntity
  8
_U+30EC_U+30A4_U+30E4_U+30FC 1
370
     0
100
AcDbSpline
210
0.0
220
0.0
230
1.0
 70
    11
 71
     3
 72
    44
 73
    40
 74
     0
 42
0.0000000001
 43
0.0000000001
 12
1.0
 22
0.0
 32
0.0
 13
1.0
 23
0.0
 33
0.0
 40
0.0
 40
0.0
 40
0.0
 40
0.0
 40
1.0
 40
1.0
 40
1.0
 40
2.0
 40
2.0
 40
2.0
 40
3.0
 40
3.0
 40
3.0
 40
4.0
 40
4.0
 40
4.0
 40
5.0
 40
5.0
 40
5.0
 40
6.0
 40
6.0
 40
6.0
 40
7.0
 40
7.0
 40
7.0
 40
8.0
 40
8.0
 40
8.0
 40
9.0
 40
9.0
 40
9.0
 40
10.0
 40
10.0
 40
10.0
 40
11.0
 40
11.0
 40
11.0
 40
12.0
 40
12.0
 40
12.0
 40
13.0
 40
13.0
 40
13.0
 40
13.0
 10
107.9572346735315
 20
-158.867133206811
 30
0.0
 10
107.8452690702609
 20
-159.2354139141842
 30
0.0
 10
107.7946261666277
 20
-159.3942328160542
 30
0.0
 10
107.59791121442
 20
-159.6436577291863
 30
0.0
 10
107.4135986059591
 20
-159.874479126698
 30
0.0
 10
107.1769205461224
 20
-160.0605142829016
 30
0.0
 10
106.8975233022687
 20
-160.1535318610033
 30
0.0
 10
106.8975233022687
 20
-160.1535318610033
 30
0.0
 10
106.7049424646432
 20
-159.9736978766732
 30
0.0
 10
106.7049424646432
 20
-159.9736978766732
 30
0.0
 10
107.3460747344482
 20
-159.8214246562252
 30
0.0
 10
107.6761148819351
 20
-159.2650417353574
 30
0.0
 10
107.7395046388637
 20
-158.8251030418909
 30
0.0
 10
107.7395046388637
 20
-158.8251030418909
 30
0.0
 10
106.9736599124927
 20
-158.8251030418909
 30
0.0
 10
106.9736599124927
 20
-158.8251030418909
 30
0.0
 10
106.880642334391
 20
-158.8251030418909
 30
0.0
 10
106.6966742354786
 20
-158.8292371564733
 30
0.0
 10
106.5399223908997
 20
-158.8481851816421
 30
0.0
 10
106.5399223908997
 20
-158.8481851816421
 30
0.0
 10
106.5399223908997
 20
-158.6280435801347
 30
0.0
 10
106.5399223908997
 20
-158.6280435801347
 30
0.0
 10
106.626738797128
 20
-158.6494031721432
 30
0.0
 10
106.8785752770998
 20
-158.6494031721432
 30
0.0
 10
106.977794027075
 20
-158.6494031721432
 30
0.0
 10
106.977794027075
 20
-158.6494031721432
 30
0.0
 10
107.4094644913768
 20
-158.6494031721432
 30
0.0
 10
107.4094644913768
 20
-158.6494031721432
 30
0.0
 10
107.4518391658454
 20
-158.6494031721432
 30
0.0
 10
107.6864501683909
 20
-158.6473361148521
 30
0.0
 10
107.7246907282772
 20
-158.6411349429786
 30
0.0
 10
107.7670654027457
 20
-158.6345892615566
 30
0.0
 10
107.7691324600369
 20
-158.6325222042655
 30
0.0
 10
107.8304551596743
 20
-158.5922145870881
 30
0.0
 10
107.8304551596743
 20
-158.5922145870881
 30
0.0
 10
108.018557373169
 20
-158.7465548648273
 30
0.0
 10
108.018557373169
 20
-158.7465548648273
 30
0.0
 10
107.9892740615444
 20
-158.7761826860004
 30
0.0
 10
107.9744601509578
 20
-158.8078775644647
 30
0.0
 10
107.9572346735315
 20
-158.867133206811
 30
0.0
  0
SPLINE
  5
141
330
10F
100
AcDbEntity
  8
_U+30EC_U+30A4_U+30E4_U+30FC 1
370
     0
100
AcDbSpline
210
0.0
220
0.0
230
1.0
 70
    11
 71
     3
 72
    17
 73
    13
 74
     0
 42
0.0000000001
 43
0.0000000001
 12
1.0
 22
0.0
 32
0.0
 13
1.0
 23
0.0
 33
0.0
 40
0.0
 40
0.0
 40
0.0
 40
0.0
 40
1.0
 40
1.0
 40
1.0
 40
2.0
 40
2.0
 40
2.0
 40
3.0
 40
3.0
 40
3.0
 40
4.0
 40
4.0
 40
4.0
 40
4.0
 10
108.1666964790347
 20
-158.6683511973121
 30
0.0
 10
108.0399169651775
 20
-158.6683511973121
 30
0.0
 10
107.9382866483626
 20
-158.5667208804972
 30
0.0
 10
107.9382866483626
 20
-158.43994136664
 30
0.0
 10
107.9382866483626
 20
-158.3131618527828
 30
0.0
 10
108.0399169651775
 20
-158.2091199691283
 30
0.0
 10
108.1666964790347
 20
-158.2091199691283
 30
0.0
 10
108.2938205024404
 20
-158.2091199691283
 30
0.0
 10
108.3975178765465
 20
-158.3131618527828
 30
0.0
 10
108.3975178765465
 20
-158.43994136664
 30
0.0
 10
108.3975178765465
 20
-158.5667208804972
 30
0.0
 10
108.2938205024404
 20
-158.6683511973121
 30
0.0
 10
108.1666964790347
 20
-158.6683511973121
 30
0.0
  0
SPLINE
  5
142
330
10F
100
AcDbEntity
  8
_U+30EC_U+30A4_U+30E4_U+30FC 1
370
     0
100
AcDbSpline
210
0.0
220
0.0
230
1.0
 70
    11
 71
     3
 72
    17
 73
    13
 74
     0
 42
0.0000000001
 43
0.0000000001
 12
1.0
 22
0.0
 32
0.0
 13
1.0
 23
0.0
 33
0.0
 40
0.0
 40
0.0
 40
0.0
 40
0.0
 40
1.0
 40
1.0
 40
1.0
 40
2.0
 40
2.0
 40
2.0
 40
3.0
 40
3.0
 40
3.0
 40
4.0
 40
4.0
 40
4.0
 40
4.0
 10
108.1646294217436
 20
-158.3383110498252
 30
0.0
 10
108.1098524035281
 20
-158.3383110498252
 30
0.0
 10
108.0654106717684
 20
-158.3827527815849
 30
0.0
 10
108.0654106717684
 20
-158.4378743093489
 30
0.0
 10
108.0654106717684
 20
-158.495062894404
 30
0.0
 10
108.1098524035281
 20
-158.543638740746
 30
0.0
 10
108.1687635363259
 20
-158.543638740746
 30
0.0
 10
108.2280191786722
 20
-158.543638740746
 30
0.0
 10
108.2683267958496
 20
-158.4929958371129
 30
0.0
 10
108.2683267958496
 20
-158.43994136664
 30
0.0
 10
108.2683267958496
 20
-158.3827527815849
 30
0.0
 10
108.2218180067987
 20
-158.3383110498252
 30
0.0
 10
108.1646294217436
 20
-158.3383110498252
 30
0.0
  0
HATCH
  5
143
330
10F
100
AcDbEntity
  8
_U+30EC_U+30A4_U+30E4_U+30FC 1
 62
     7
420
 16777215
100
AcDbHatch
 10
0.0
 20
0.0
 30
0.0
210
0.0
220
0.0
230
1.0
  2
SOLID
 70
     1
 71
     0
 91
        3
 92
        1
 93
        1
 72
     4
 94
        3
 73
     0
 74
     1
 95
       44
 96
       40
 40
0.0
 40
0.0
 40
0.0
 40
0.0
 40
1.0
 40
1.0
 40
1.0
 40
2.0
 40
2.0
 40
2.0
 40
3.0
 40
3.0
 40
3.0
 40
4.0
 40
4.0
 40
4.0
 40
5.0
 40
5.0
 40
5.0
 40
6.0
 40
6.0
 40
6.0
 40
7.0
 40
7.0
 40
7.0
 40
8.0
 40
8.0
 40
8.0
 40
9.0
 40
9.0
 40
9.0
 40
10.0
 40
10.0
 40
10.0
 40
11.0
 40
11.0
 40
11.0
 40
12.0
 40
12.0
 40
12.0
 40
13.0
 40
13.0
 40
13.0
 40
13.0
 10
107.9572346735315
 20
-158.867133206811
 10
107.8452690702609
 20
-159.2354139141842
 10
107.7946261666277
 20
-159.3942328160542
 10
107.59791121442
 20
-159.6436577291863
 10
107.4135986059591
 20
-159.874479126698
 10
107.1769205461224
 20
-160.0605142829016
 10
106.8975233022687
 20
-160.1535318610033
 10
106.8975233022687
 20
-160.1535318610033
 10
106.7049424646432
 20
-159.9736978766732
 10
106.7049424646432
 20
-159.9736978766732
 10
107.3460747344482
 20
-159.8214246562252
 10
107.6761148819351
 20
-159.2650417353574
 10
107.7395046388637
 20
-158.8251030418909
 10
107.7395046388637
 20
-158.8251030418909
 10
106.9736599124927
 20
-158.8251030418909
 10
106.9736599124927
 20
-158.8251030418909
 10
106.880642334391
 20
-158.8251030418909
 10
106.6966742354786
 20
-158.8292371564733
 10
106.5399223908997
 20
-158.8481851816421
 10
106.5399223908997
 20
-158.8481851816421
 10
106.5399223908997
 20
-158.6280435801347
 10
106.5399223908997
 20
-158.6280435801347
 10
106.626738797128
 20
-158.6494031721432
 10
106.8785752770998
 20
-158.6494031721432
 10
106.977794027075
 20
-158.6494031721432
 10
106.977794027075
 20
-158.6494031721432
 10
107.4094644913768
 20
-158.6494031721432
 10
107.4094644913768
 20
-158.6494031721432
 10
107.4518391658454
 20
-158.6494031721432
 10
107.6864501683909
 20
-158.6473361148521
 10
107.7246907282772
 20
-158.6411349429786
 10
107.7670654027457
 20
-158.6345892615566
 10
107.7691324600369
 20
-158.6325222042655
 10
107.8304551596743
 20
-158.5922145870881
 10
107.8304551596743
 20
-158.5922145870881
 10
108.018557373169
 20
-158.7465548648273
 10
108.018557373169
 20
-158.7465548648273
 10
107.9892740615444
 20
-158.7761826860004
 10
107.9744601509578
 20
-158.8078775644647
 10
107.9572346735315
 20
-158.867133206811
 97
        0
 97
        0
 92
        1
 93
        1
 72
     4
 94
        3
 73
     0
 74
     1
 95
       17
 96
       13
 40
0.0
 40
0.0
 40
0.0
 40
0.0
 40
1.0
 40
1.0
 40
1.0
 40
2.0
 40
2.0
 40
2.0
 40
3.0
 40
3.0
 40
3.0
 40
4.0
 40
4.0
 40
4.0
 40
4.0
 10
108.1666964790347
 20
-158.6683511973121
 10
108.0399169651775
 20
-158.6683511973121
 10
107.9382866483626
 20
-158.5667208804972
 10
107.9382866483626
 20
-158.43994136664
 10
107.9382866483626
 20
-158.3131618527828
 10
108.0399169651775
 20
-158.2091199691283
 10
108.1666964790347
 20
-158.2091199691283
 10
108.2938205024404
 20
-158.2091199691283
 10
108.3975178765465
 20
-158.3131618527828
 10
108.3975178765465
 20
-158.43994136664
 10
108.3975178765465
 20
-158.5667208804972
 10
108.2938205024404
 20
-158.6683511973121
 10
108.1666964790347
 20
-158.6683511973121
 97
        0
 97
        0
 92
        1
 93
        1
 72
     4
 94
        3
 73
     0
 74
     1
 95
       17
 96
       13
 40
0.0
 40
0.0
 40
0.0
 40
0.0
 40
1.0
 40
1.0
 40
1.0
 40
2.0
 40
2.0
 40
2.0
 40
3.0
 40
3.0
 40
3.0
 40
4.0
 40
4.0
 40
4.0
 40
4.0
 10
108.1646294217436
 20
-158.3383110498252
 10
108.1098524035281
 20
-158.3383110498252
 10
108.0654106717684
 20
-158.3827527815849
 10
108.0654106717684
 20
-158.4378743093489
 10
108.0654106717684
 20
-158.495062894404
 10
108.1098524035281
 20
-158.543638740746
 10
108.1687635363259
 20
-158.543638740746
 10
108.2280191786722
 20
-158.543638740746
 10
108.2683267958496
 20
-158.4929958371129
 10
108.2683267958496
 20
-158.43994136664
 10
108.2683267958496
 20
-158.3827527815849
 10
108.2218180067987
 20
-158.3383110498252
 10
108.1646294217436
 20
-158.3383110498252
 97
        0
 97
        0
 75
     2
 76
     1
 98
        0
  0
SPLINE
  5
144
330
10F
100
AcDbEntity
  8
_U+30EC_U+30A4_U+30E4_U+30FC 1
370
     0
100
AcDbSpline
210
0.0
220
0.0
230
1.0
 70
    11
 71
     3
 72
    50
 73
    46
 74
     0
 42
0.0000000001
 43
0.0000000001
 12
1.0
 22
0.0
 32
0.0
 13
1.0
 23
0.0
 33
0.0
 40
0.0
 40
0.0
 40
0.0
 40
0.0
 40
1.0
 40
1.0
 40
1.0
 40
2.0
 40
2.0
 40
2.0
 40
3.0
 40
3.0
 40
3.0
 40
4.0
 40
4.0
 40
4.0
 40
5.0
 40
5.0
 40
5.0
 40
6.0
 40
6.0
 40
6.0
 40
7.0
 40
7.0
 40
7.0
 40
8.0
 40
8.0
 40
8.0
 40
9.0
 40
9.0
 40
9.0
 40
10.0
 40
10.0
 40
10.0
 40
11.0
 40
11.0
 40
11.0
 40
12.0
 40
12.0
 40
12.0
 40
13.0
 40
13.0
 40
13.0
 40
14.0
 40
14.0
 40
14.0
 40
15.0
 40
15.0
 40
15.0
 40
15.0
 10
109.9619357363984
 20
-159.1761582718379
 30
0.0
 10
109.8833875593347
 20
-159.3535806893283
 30
0.0
 10
109.7479953067644
 20
-159.5609754375403
 30
0.0
 10
109.6105359969029
 20
-159.7008463142415
 30
0.0
 10
109.4413818085772
 20
-159.8720675598584
 30
0.0
 10
109.2784287921248
 20
-159.9609510233778
 30
0.0
 10
108.9590684406422
 20
-160.1025444478216
 30
0.0
 10
108.9590684406422
 20
-160.1025444478216
 30
0.0
 10
108.7899142523164
 20
-159.9144422343269
 30
0.0
 10
108.7899142523164
 20
-159.9144422343269
 30
0.0
 10
108.9759494085199
 20
-159.8910155850272
 30
0.0
 10
109.1471706541368
 20
-159.804199178799
 30
0.0
 10
109.2997883841334
 20
-159.6987792569503
 30
0.0
 10
109.5619601505609
 20
-159.5168782153291
 30
0.0
 10
109.7524739308952
 20
-159.2033745261714
 30
0.0
 10
109.8010497772372
 20
-159.0214734845502
 30
0.0
 10
109.8010497772372
 20
-159.0214734845502
 30
0.0
 10
109.1302896862591
 20
-159.0214734845502
 30
0.0
 10
109.1302896862591
 20
-159.0214734845502
 30
0.0
 10
108.9718152939376
 20
-159.0214734845502
 30
0.0
 10
108.6796711967884
 20
-159.0300862232633
 30
0.0
 10
108.5273979763404
 20
-159.0469671911411
 30
0.0
 10
108.5273979763404
 20
-159.0469671911411
 30
0.0
 10
108.5273979763404
 20
-158.818557360469
 30
0.0
 10
108.5273979763404
 20
-158.818557360469
 30
0.0
 10
108.5615044216444
 20
-158.8251030418909
 30
0.0
 10
108.5866536186867
 20
-158.8313042137644
 30
0.0
 10
108.6397080891595
 20
-158.8354383283467
 30
0.0
 10
108.7409938964259
 20
-158.8416395002201
 30
0.0
 10
108.9380533581822
 20
-158.8440510670598
 30
0.0
 10
109.0224581975708
 20
-158.8440510670598
 30
0.0
 10
109.0224581975708
 20
-158.8440510670598
 30
0.0
 10
109.5281982148055
 20
-158.8440510670598
 30
0.0
 10
109.5281982148055
 20
-158.8440510670598
 30
0.0
 10
109.5957220863164
 20
-158.8440510670598
 30
0.0
 10
109.741794134891
 20
-158.839572442929
 30
0.0
 10
109.8031168345284
 20
-158.8333712710555
 30
0.0
 10
109.8751193301701
 20
-158.8251030418909
 30
0.0
 10
109.9026800940521
 20
-158.8099446217558
 30
0.0
 10
109.9364420298076
 20
-158.7868624820047
 30
0.0
 10
109.9364420298076
 20
-158.7868624820047
 30
0.0
 10
110.101462103551
 20
-158.9539496130393
 30
0.0
 10
110.101462103551
 20
-158.9539496130393
 30
0.0
 10
110.0315266652005
 20
-159.0214734845502
 30
0.0
 10
109.9850178761496
 20
-159.1255153682047
 30
0.0
 10
109.9619357363984
 20
-159.1761582718379
 30
0.0
  0
SPLINE
  5
145
330
10F
100
AcDbEntity
  8
_U+30EC_U+30A4_U+30E4_U+30FC 1
370
     0
100
AcDbSpline
210
0.0
220
0.0
230
1.0
 70
    11
 71
     3
 72
    29
 73
    25
 74
     0
 42
0.0000000001
 43
0.0000000001
 12
1.0
 22
0.0
 32
0.0
 13
1.0
 23
0.0
 33
0.0
 40
0.0
 40
0.0
 40
0.0
 40
0.0
 40
1.0
 40
1.0
 40
1.0
 40
2.0
 40
2.0
 40
2.0
 40
3.0
 40
3.0
 40
3.0
 40
4.0
 40
4.0
 40
4.0
 40
5.0
 40
5.0
 40
5.0
 40
6.0
 40
6.0
 40
6.0
 40
7.0
 40
7.0
 40
7.0
 40
8.0
 40
8.0
 40
8.0
 40
8.0
 10
109.4689425724592
 20
-158.550184422168
 30
0.0
 10
109.4689425724592
 20
-158.550184422168
 30
0.0
 10
109.1282226289679
 20
-158.550184422168
 30
0.0
 10
109.1282226289679
 20
-158.550184422168
 30
0.0
 10
109.0141899684062
 20
-158.550184422168
 30
0.0
 10
108.8977457410047
 20
-158.5543185367503
 30
0.0
 10
108.7833685708944
 20
-158.5687879377884
 30
0.0
 10
108.7833685708944
 20
-158.5687879377884
 30
0.0
 10
108.7833685708944
 20
-158.3593261322852
 30
0.0
 10
108.7833685708944
 20
-158.3593261322852
 30
0.0
 10
108.901879855587
 20
-158.3744845524203
 30
0.0
 10
109.0755126680436
 20
-158.3786186670026
 30
0.0
 10
109.1282226289679
 20
-158.3786186670026
 30
0.0
 10
109.1282226289679
 20
-158.3786186670026
 30
0.0
 10
109.4689425724592
 20
-158.3786186670026
 30
0.0
 10
109.4689425724592
 20
-158.3786186670026
 30
0.0
 10
109.5853867998606
 20
-158.3786186670026
 30
0.0
 10
109.7014865177135
 20
-158.3744845524203
 30
0.0
 10
109.817930745115
 20
-158.3593261322852
 30
0.0
 10
109.817930745115
 20
-158.3593261322852
 30
0.0
 10
109.817930745115
 20
-158.5687879377884
 30
0.0
 10
109.817930745115
 20
-158.5687879377884
 30
0.0
 10
109.6677245819581
 20
-158.550184422168
 30
0.0
 10
109.4837564830457
 20
-158.550184422168
 30
0.0
 10
109.4689425724592
 20
-158.550184422168
 30
0.0
  0
HATCH
  5
146
330
10F
100
AcDbEntity
  8
_U+30EC_U+30A4_U+30E4_U+30FC 1
 62
     7
420
 16777215
100
AcDbHatch
 10
0.0
 20
0.0
 30
0.0
210
0.0
220
0.0
230
1.0
  2
SOLID
 70
     1
 71
     0
 91
        2
 92
        1
 93
        1
 72
     4
 94
        3
 73
     0
 74
     1
 95
       50
 96
       46
 40
0.0
 40
0.0
 40
0.0
 40
0.0
 40
1.0
 40
1.0
 40
1.0
 40
2.0
 40
2.0
 40
2.0
 40
3.0
 40
3.0
 40
3.0
 40
4.0
 40
4.0
 40
4.0
 40
5.0
 40
5.0
 40
5.0
 40
6.0
 40
6.0
 40
6.0
 40
7.0
 40
7.0
 40
7.0
 40
8.0
 40
8.0
 40
8.0
 40
9.0
 40
9.0
 40
9.0
 40
10.0
 40
10.0
 40
10.0
 40
11.0
 40
11.0
 40
11.0
 40
12.0
 40
12.0
 40
12.0
 40
13.0
 40
13.0
 40
13.0
 40
14.0
 40
14.0
 40
14.0
 40
15.0
 40
15.0
 40
15.0
 40
15.0
 10
109.9619357363984
 20
-159.1761582718379
 10
109.8833875593347
 20
-159.3535806893283
 10
109.7479953067644
 20
-159.5609754375403
 10
109.6105359969029
 20
-159.7008463142415
 10
109.4413818085772
 20
-159.8720675598584
 10
109.2784287921248
 20
-159.9609510233778
 10
108.9590684406422
 20
-160.1025444478216
 10
108.9590684406422
 20
-160.1025444478216
 10
108.7899142523164
 20
-159.9144422343269
 10
108.7899142523164
 20
-159.9144422343269
 10
108.9759494085199
 20
-159.8910155850272
 10
109.1471706541368
 20
-159.804199178799
 10
109.2997883841334
 20
-159.6987792569503
 10
109.5619601505609
 20
-159.5168782153291
 10
109.7524739308952
 20
-159.2033745261714
 10
109.8010497772372
 20
-159.0214734845502
 10
109.8010497772372
 20
-159.0214734845502
 10
109.1302896862591
 20
-159.0214734845502
 10
109.1302896862591
 20
-159.0214734845502
 10
108.9718152939376
 20
-159.0214734845502
 10
108.6796711967884
 20
-159.0300862232633
 10
108.5273979763404
 20
-159.0469671911411
 10
108.5273979763404
 20
-159.0469671911411
 10
108.5273979763404
 20
-158.818557360469
 10
108.5273979763404
 20
-158.818557360469
 10
108.5615044216444
 20
-158.8251030418909
 10
108.5866536186867
 20
-158.8313042137644
 10
108.6397080891595
 20
-158.8354383283467
 10
108.7409938964259
 20
-158.8416395002201
 10
108.9380533581822
 20
-158.8440510670598
 10
109.0224581975708
 20
-158.8440510670598
 10
109.0224581975708
 20
-158.8440510670598
 10
109.5281982148055
 20
-158.8440510670598
 10
109.5281982148055
 20
-158.8440510670598
 10
109.5957220863164
 20
-158.8440510670598
 10
109.741794134891
 20
-158.839572442929
 10
109.8031168345284
 20
-158.8333712710555
 10
109.8751193301701
 20
-158.8251030418909
 10
109.9026800940521
 20
-158.8099446217558
 10
109.9364420298076
 20
-158.7868624820047
 10
109.9364420298076
 20
-158.7868624820047
 10
110.101462103551
 20
-158.9539496130393
 10
110.101462103551
 20
-158.9539496130393
 10
110.0315266652005
 20
-159.0214734845502
 10
109.9850178761496
 20
-159.1255153682047
 10
109.9619357363984
 20
-159.1761582718379
 97
        0
 97
        0
 92
        1
 93
        1
 72
     4
 94
        3
 73
     0
 74
     1
 95
       29
 96
       25
 40
0.0
 40
0.0
 40
0.0
 40
0.0
 40
1.0
 40
1.0
 40
1.0
 40
2.0
 40
2.0
 40
2.0
 40
3.0
 40
3.0
 40
3.0
 40
4.0
 40
4.0
 40
4.0
 40
5.0
 40
5.0
 40
5.0
 40
6.0
 40
6.0
 40
6.0
 40
7.0
 40
7.0
 40
7.0
 40
8.0
 40
8.0
 40
8.0
 40
8.0
 10
109.4689425724592
 20
-158.550184422168
 10
109.4689425724592
 20
-158.550184422168
 10
109.1282226289679
 20
-158.550184422168
 10
109.1282226289679
 20
-158.550184422168
 10
109.0141899684062
 20
-158.550184422168
 10
108.8977457410047
 20
-158.5543185367503
 10
108.7833685708944
 20
-158.5687879377884
 10
108.7833685708944
 20
-158.5687879377884
 10
108.7833685708944
 20
-158.3593261322852
 10
108.7833685708944
 20
-158.3593261322852
 10
108.901879855587
 20
-158.3744845524203
 10
109.0755126680436
 20
-158.3786186670026
 10
109.1282226289679
 20
-158.3786186670026
 10
109.1282226289679
 20
-158.3786186670026
 10
109.4689425724592
 20
-158.3786186670026
 10
109.4689425724592
 20
-158.3786186670026
 10
109.5853867998606
 20
-158.3786186670026
 10
109.7014865177135
 20
-158.3744845524203
 10
109.817930745115
 20
-158.3593261322852
 10
109.817930745115
 20
-158.3593261322852
 10
109.817930745115
 20
-158.5687879377884
 10
109.817930745115
 20
-158.5687879377884
 10
109.6677245819581
 20
-158.550184422168
 10
109.4837564830457
 20
-158.550184422168
 10
109.4689425724592
 20
-158.550184422168
 97
        0
 97
        0
 75
     2
 76
     1
 98
        0
  0
SPLINE
  5
147
330
10F
100
AcDbEntity
  8
_U+30EC_U+30A4_U+30E4_U+30FC 1
370
     0
100
AcDbSpline
210
0.0
220
0.0
230
1.0
 70
    11
 71
     3
 72
    50
 73
    46
 74
     0
 42
0.0000000001
 43
0.0000000001
 12
1.0
 22
0.0
 32
0.0
 13
1.0
 23
0.0
 33
0.0
 40
0.0
 40
0.0
 40
0.0
 40
0.0
 40
1.0
 40
1.0
 40
1.0
 40
2.0
 40
2.0
 40
2.0
 40
3.0
 40
3.0
 40
3.0
 40
4.0
 40
4.0
 40
4.0
 40
5.0
 40
5.0
 40
5.0
 40
6.0
 40
6.0
 40
6.0
 40
7.0
 40
7.0
 40
7.0
 40
8.0
 40
8.0
 40
8.0
 40
9.0
 40
9.0
 40
9.0
 40
10.0
 40
10.0
 40
10.0
 40
11.0
 40
11.0
 40
11.0
 40
12.0
 40
12.0
 40
12.0
 40
13.0
 40
13.0
 40
13.0
 40
14.0
 40
14.0
 40
14.0
 40
15.0
 40
15.0
 40
15.0
 40
15.0
 10
111.6720811352764
 20
-158.5350260020329
 30
0.0
 10
111.4626193297732
 20
-158.7486219221184
 30
0.0
 10
111.39096134368
 20
-158.8209689273087
 30
0.0
 10
111.2490234096878
 20
-158.9391357024527
 30
0.0
 10
111.2490234096878
 20
-158.9391357024527
 30
0.0
 10
111.2490234096878
 20
-159.5061984193248
 30
0.0
 10
111.2490234096878
 20
-159.5061984193248
 30
0.0
 10
111.2490234096878
 20
-159.6564045824817
 30
0.0
 10
111.2555690911097
 20
-159.6753526076506
 30
0.0
 10
111.259703205692
 20
-159.8531195346895
 30
0.0
 10
111.2617702629832
 20
-159.984033163129
 30
0.0
 10
111.2679714348566
 20
-160.0329535190195
 30
0.0
 10
111.2745171162786
 20
-160.0922091613658
 30
0.0
 10
111.2745171162786
 20
-160.0922091613658
 30
0.0
 10
111.0481743428977
 20
-160.0922091613658
 30
0.0
 10
111.0481743428977
 20
-160.0922091613658
 30
0.0
 10
111.05230845748
 20
-160.0477674296061
 30
0.0
 10
111.0564425720623
 20
-160.0012586405552
 30
0.0
 10
111.0564425720623
 20
-159.9926459018421
 30
0.0
 10
111.0564425720623
 20
-159.9123751770358
 30
0.0
 10
111.0609211961931
 20
-159.5609754375403
 30
0.0
 10
111.0609211961931
 20
-159.4893174514471
 30
0.0
 10
111.0609211961931
 20
-159.4893174514471
 30
0.0
 10
111.0609211961931
 20
-159.0827961841876
 30
0.0
 10
111.0609211961931
 20
-159.0827961841876
 30
0.0
 10
110.8790201545719
 20
-159.2078531503022
 30
0.0
 10
110.6843722596553
 20
-159.3177516962817
 30
0.0
 10
110.4811116260256
 20
-159.40456810251
 30
0.0
 10
110.4811116260256
 20
-159.40456810251
 30
0.0
 10
110.2781955019443
 20
-159.2416150860577
 30
0.0
 10
110.2781955019443
 20
-159.2416150860577
 30
0.0
 10
110.4008409012192
 20
-159.2057860930111
 30
0.0
 10
110.6568114957733
 20
-159.1317165400782
 30
0.0
 10
111.0016655538468
 20
-158.8757459455241
 30
0.0
 10
111.2173285312234
 20
-158.7169270436541
 30
0.0
 10
111.4099093688489
 20
-158.5288248301595
 30
0.0
 10
111.562182589297
 20
-158.308683228652
 30
0.0
 10
111.562182589297
 20
-158.308683228652
 30
0.0
 10
111.7547634269224
 20
-158.4526882199355
 30
0.0
 10
111.7547634269224
 20
-158.4526882199355
 30
0.0
 10
111.7675102802178
 20
-158.4633680159397
 30
0.0
 10
111.7757785093824
 20
-158.4778374169778
 30
0.0
 10
111.7757785093824
 20
-158.4909287798217
 30
0.0
 10
111.7757785093824
 20
-158.5308918874506
 30
0.0
 10
111.7378824590447
 20
-158.5308918874506
 30
0.0
 10
111.6720811352764
 20
-158.5350260020329
 30
0.0
  0
HATCH
  5
148
330
10F
100
AcDbEntity
  8
_U+30EC_U+30A4_U+30E4_U+30FC 1
 62
     7
420
 16777215
100
AcDbHatch
 10
0.0
 20
0.0
 30
0.0
210
0.0
220
0.0
230
1.0
  2
SOLID
 70
     1
 71
     0
 91
        1
 92
        1
 93
        1
 72
     4
 94
        3
 73
     0
 74
     1
 95
       50
 96
       46
 40
0.0
 40
0.0
 40
0.0
 40
0.0
 40
1.0
 40
1.0
 40
1.0
 40
2.0
 40
2.0
 40
2.0
 40
3.0
 40
3.0
 40
3.0
 40
4.0
 40
4.0
 40
4.0
 40
5.0
 40
5.0
 40
5.0
 40
6.0
 40
6.0
 40
6.0
 40
7.0
 40
7.0
 40
7.0
 40
8.0
 40
8.0
 40
8.0
 40
9.0
 40
9.0
 40
9.0
 40
10.0
 40
10.0
 40
10.0
 40
11.0
 40
11.0
 40
11.0
 40
12.0
 40
12.0
 40
12.0
 40
13.0
 40
13.0
 40
13.0
 40
14.0
 40
14.0
 40
14.0
 40
15.0
 40
15.0
 40
15.0
 40
15.0
 10
111.6720811352764
 20
-158.5350260020329
 10
111.4626193297732
 20
-158.7486219221184
 10
111.39096134368
 20
-158.8209689273087
 10
111.2490234096878
 20
-158.9391357024527
 10
111.2490234096878
 20
-158.9391357024527
 10
111.2490234096878
 20
-159.5061984193248
 10
111.2490234096878
 20
-159.5061984193248
 10
111.2490234096878
 20
-159.6564045824817
 10
111.2555690911097
 20
-159.6753526076506
 10
111.259703205692
 20
-159.8531195346895
 10
111.2617702629832
 20
-159.984033163129
 10
111.2679714348566
 20
-160.0329535190195
 10
111.2745171162786
 20
-160.0922091613658
 10
111.2745171162786
 20
-160.0922091613658
 10
111.0481743428977
 20
-160.0922091613658
 10
111.0481743428977
 20
-160.0922091613658
 10
111.05230845748
 20
-160.0477674296061
 10
111.0564425720623
 20
-160.0012586405552
 10
111.0564425720623
 20
-159.9926459018421
 10
111.0564425720623
 20
-159.9123751770358
 10
111.0609211961931
 20
-159.5609754375403
 10
111.0609211961931
 20
-159.4893174514471
 10
111.0609211961931
 20
-159.4893174514471
 10
111.0609211961931
 20
-159.0827961841876
 10
111.0609211961931
 20
-159.0827961841876
 10
110.8790201545719
 20
-159.2078531503022
 10
110.6843722596553
 20
-159.3177516962817
 10
110.4811116260256
 20
-159.40456810251
 10
110.4811116260256
 20
-159.40456810251
 10
110.2781955019443
 20
-159.2416150860577
 10
110.2781955019443
 20
-159.2416150860577
 10
110.4008409012192
 20
-159.2057860930111
 10
110.6568114957733
 20
-159.1317165400782
 10
111.0016655538468
 20
-158.8757459455241
 10
111.2173285312234
 20
-158.7169270436541
 10
111.4099093688489
 20
-158.5288248301595
 10
111.562182589297
 20
-158.308683228652
 10
111.562182589297
 20
-158.308683228652
 10
111.7547634269224
 20
-158.4526882199355
 10
111.7547634269224
 20
-158.4526882199355
 10
111.7675102802178
 20
-158.4633680159397
 10
111.7757785093824
 20
-158.4778374169778
 10
111.7757785093824
 20
-158.4909287798217
 10
111.7757785093824
 20
-158.5308918874506
 10
111.7378824590447
 20
-158.5308918874506
 10
111.6720811352764
 20
-158.5350260020329
 97
        0
 97
        0
 75
     2
 76
     1
 98
        0
  0
SPLINE
  5
149
330
10F
100
AcDbEntity
  8
_U+30EC_U+30A4_U+30E4_U+30FC 1
370
     0
100
AcDbSpline
210
0.0
220
0.0
230
1.0
 70
    11
 71
     3
 72
    50
 73
    46
 74
     0
 42
0.0000000001
 43
0.0000000001
 12
1.0
 22
0.0
 32
0.0
 13
1.0
 23
0.0
 33
0.0
 40
0.0
 40
0.0
 40
0.0
 40
0.0
 40
1.0
 40
1.0
 40
1.0
 40
2.0
 40
2.0
 40
2.0
 40
3.0
 40
3.0
 40
3.0
 40
4.0
 40
4.0
 40
4.0
 40
5.0
 40
5.0
 40
5.0
 40
6.0
 40
6.0
 40
6.0
 40
7.0
 40
7.0
 40
7.0
 40
8.0
 40
8.0
 40
8.0
 40
9.0
 40
9.0
 40
9.0
 40
10.0
 40
10.0
 40
10.0
 40
11.0
 40
11.0
 40
11.0
 40
12.0
 40
12.0
 40
12.0
 40
13.0
 40
13.0
 40
13.0
 40
14.0
 40
14.0
 40
14.0
 40
15.0
 40
15.0
 40
15.0
 40
15.0
 10
113.3805039864118
 20
-159.0621256112761
 30
0.0
 10
113.3191812867744
 20
-159.1337835973693
 30
0.0
 10
113.0587320680895
 20
-159.4510768915609
 30
0.0
 10
113.0018879925829
 20
-159.514811158038
 30
0.0
 10
113.0862928319715
 20
-159.611962850722
 30
0.0
 10
113.1372802451532
 20
-159.6753526076506
 30
0.0
 10
113.2027370593729
 20
-159.7663031284612
 30
0.0
 10
113.2027370593729
 20
-159.7663031284612
 30
0.0
 10
113.0187689604606
 20
-159.9041069478712
 30
0.0
 10
113.0187689604606
 20
-159.9041069478712
 30
0.0
 10
112.8833767078903
 20
-159.6922335755283
 30
0.0
 10
112.7118109527248
 20
-159.4679578594386
 30
0.0
 10
112.417944307833
 20
-159.2691758499397
 30
0.0
 10
112.417944307833
 20
-159.2691758499397
 30
0.0
 10
112.5660834136988
 20
-159.1148355722005
 30
0.0
 10
112.5660834136988
 20
-159.1148355722005
 30
0.0
 10
112.6759819596782
 20
-159.1951062970068
 30
0.0
 10
112.7796793337843
 20
-159.2839897605262
 30
0.0
 10
112.8768310264683
 20
-159.3790743959191
 30
0.0
 10
112.9446994075277
 20
-159.3032822952436
 30
0.0
 10
113.1476155316089
 20
-159.0597140444365
 30
0.0
 10
113.2809407268881
 20
-158.8313042137644
 30
0.0
 10
113.2809407268881
 20
-158.8313042137644
 30
0.0
 10
112.6081135786188
 20
-158.8313042137644
 30
0.0
 10
112.6081135786188
 20
-158.8313042137644
 30
0.0
 10
112.4834011220528
 20
-158.8313042137644
 30
0.0
 10
112.231564642081
 20
-158.839572442929
 30
0.0
 10
112.0221028365778
 20
-158.8502522389333
 30
0.0
 10
112.0221028365778
 20
-158.8502522389333
 30
0.0
 10
112.0221028365778
 20
-158.6301106374258
 30
0.0
 10
112.0221028365778
 20
-158.6301106374258
 30
0.0
 10
112.2064154450387
 20
-158.6494031721432
 30
0.0
 10
112.411398626411
 20
-158.6535372867255
 30
0.0
 10
112.5998453494542
 20
-158.6535372867255
 30
0.0
 10
112.5998453494542
 20
-158.6535372867255
 30
0.0
 10
113.1031737998492
 20
-158.6535372867255
 30
0.0
 10
113.1031737998492
 20
-158.6535372867255
 30
0.0
 10
113.4418266860493
 20
-158.6535372867255
 30
0.0
 10
113.486268417809
 20
-158.6387233761389
 30
0.0
 10
113.5686061999065
 20
-158.5984157589615
 30
0.0
 10
113.5686061999065
 20
-158.5984157589615
 30
0.0
 10
113.7356933309411
 20
-158.7572346608315
 30
0.0
 10
113.7356933309411
 20
-158.7572346608315
 30
0.0
 10
113.583420110493
 20
-158.8292371564733
 30
0.0
 10
113.4397596287581
 20
-158.991845663377
 30
0.0
 10
113.3805039864118
 20
-159.0621256112761
 30
0.0
  0
HATCH
  5
14A
330
10F
100
AcDbEntity
  8
_U+30EC_U+30A4_U+30E4_U+30FC 1
 62
     7
420
 16777215
100
AcDbHatch
 10
0.0
 20
0.0
 30
0.0
210
0.0
220
0.0
230
1.0
  2
SOLID
 70
     1
 71
     0
 91
        1
 92
        1
 93
        1
 72
     4
 94
        3
 73
     0
 74
     1
 95
       50
 96
       46
 40
0.0
 40
0.0
 40
0.0
 40
0.0
 40
1.0
 40
1.0
 40
1.0
 40
2.0
 40
2.0
 40
2.0
 40
3.0
 40
3.0
 40
3.0
 40
4.0
 40
4.0
 40
4.0
 40
5.0
 40
5.0
 40
5.0
 40
6.0
 40
6.0
 40
6.0
 40
7.0
 40
7.0
 40
7.0
 40
8.0
 40
8.0
 40
8.0
 40
9.0
 40
9.0
 40
9.0
 40
10.0
 40
10.0
 40
10.0
 40
11.0
 40
11.0
 40
11.0
 40
12.0
 40
12.0
 40
12.0
 40
13.0
 40
13.0
 40
13.0
 40
14.0
 40
14.0
 40
14.0
 40
15.0
 40
15.0
 40
15.0
 40
15.0
 10
113.3805039864118
 20
-159.0621256112761
 10
113.3191812867744
 20
-159.1337835973693
 10
113.0587320680895
 20
-159.4510768915609
 10
113.0018879925829
 20
-159.514811158038
 10
113.0862928319715
 20
-159.611962850722
 10
113.1372802451532
 20
-159.6753526076506
 10
113.2027370593729
 20
-159.7663031284612
 10
113.2027370593729
 20
-159.7663031284612
 10
113.0187689604606
 20
-159.9041069478712
 10
113.0187689604606
 20
-159.9041069478712
 10
112.8833767078903
 20
-159.6922335755283
 10
112.7118109527248
 20
-159.4679578594386
 10
112.417944307833
 20
-159.2691758499397
 10
112.417944307833
 20
-159.2691758499397
 10
112.5660834136988
 20
-159.1148355722005
 10
112.5660834136988
 20
-159.1148355722005
 10
112.6759819596782
 20
-159.1951062970068
 10
112.7796793337843
 20
-159.2839897605262
 10
112.8768310264683
 20
-159.3790743959191
 10
112.9446994075277
 20
-159.3032822952436
 10
113.1476155316089
 20
-159.0597140444365
 10
113.2809407268881
 20
-158.8313042137644
 10
113.2809407268881
 20
-158.8313042137644
 10
112.6081135786188
 20
-158.8313042137644
 10
112.6081135786188
 20
-158.8313042137644
 10
112.4834011220528
 20
-158.8313042137644
 10
112.231564642081
 20
-158.839572442929
 10
112.0221028365778
 20
-158.8502522389333
 10
112.0221028365778
 20
-158.8502522389333
 10
112.0221028365778
 20
-158.6301106374258
 10
112.0221028365778
 20
-158.6301106374258
 10
112.2064154450387
 20
-158.6494031721432
 10
112.411398626411
 20
-158.6535372867255
 10
112.5998453494542
 20
-158.6535372867255
 10
112.5998453494542
 20
-158.6535372867255
 10
113.1031737998492
 20
-158.6535372867255
 10
113.1031737998492
 20
-158.6535372867255
 10
113.4418266860493
 20
-158.6535372867255
 10
113.486268417809
 20
-158.6387233761389
 10
113.5686061999065
 20
-158.5984157589615
 10
113.5686061999065
 20
-158.5984157589615
 10
113.7356933309411
 20
-158.7572346608315
 10
113.7356933309411
 20
-158.7572346608315
 10
113.583420110493
 20
-158.8292371564733
 10
113.4397596287581
 20
-158.991845663377
 10
113.3805039864118
 20
-159.0621256112761
 97
        0
 97
        0
 75
     2
 76
     1
 98
        0
  0
SPLINE
  5
14B
330
10F
100
AcDbEntity
  8
_U+30EC_U+30A4_U+30E4_U+30FC 1
370
     0
100
AcDbSpline
210
0.0
220
0.0
230
1.0
 70
    11
 71
     3
 72
    29
 73
    25
 74
     0
 42
0.0000000001
 43
0.0000000001
 12
1.0
 22
0.0
 32
0.0
 13
1.0
 23
0.0
 33
0.0
 40
0.0
 40
0.0
 40
0.0
 40
0.0
 40
1.0
 40
1.0
 40
1.0
 40
2.0
 40
2.0
 40
2.0
 40
3.0
 40
3.0
 40
3.0
 40
4.0
 40
4.0
 40
4.0
 40
5.0
 40
5.0
 40
5.0
 40
6.0
 40
6.0
 40
6.0
 40
7.0
 40
7.0
 40
7.0
 40
8.0
 40
8.0
 40
8.0
 40
8.0
 10
115.0041774886101
 20
-159.3053493525348
 30
0.0
 10
115.0041774886101
 20
-159.3053493525348
 30
0.0
 10
114.5197970633839
 20
-159.3053493525348
 30
0.0
 10
114.5197970633839
 20
-159.3053493525348
 30
0.0
 10
114.4922362995019
 20
-159.3053493525348
 30
0.0
 10
114.1749430053104
 20
-159.3053493525348
 30
0.0
 10
113.9634141425161
 20
-159.3304985495771
 30
0.0
 10
113.9634141425161
 20
-159.3304985495771
 30
0.0
 10
113.9634141425161
 20
-159.1000216616139
 30
0.0
 10
113.9634141425161
 20
-159.1000216616139
 30
0.0
 10
114.1218885348376
 20
-159.1234483109136
 30
0.0
 10
114.3124023151719
 20
-159.1255153682047
 30
0.0
 10
114.5197970633839
 20
-159.1255153682047
 30
0.0
 10
114.5197970633839
 20
-159.1255153682047
 30
0.0
 10
115.0041774886101
 20
-159.1255153682047
 30
0.0
 10
115.0041774886101
 20
-159.1255153682047
 30
0.0
 10
115.1902126448136
 20
-159.1255153682047
 30
0.0
 10
115.3765923105656
 20
-159.1234483109136
 30
0.0
 10
115.5605604094779
 20
-159.1000216616139
 30
0.0
 10
115.5605604094779
 20
-159.1000216616139
 30
0.0
 10
115.5605604094779
 20
-159.3304985495771
 30
0.0
 10
115.5605604094779
 20
-159.3304985495771
 30
0.0
 10
115.3765923105656
 20
-159.3074164098259
 30
0.0
 10
115.1288899451761
 20
-159.3053493525348
 30
0.0
 10
115.0041774886101
 20
-159.3053493525348
 30
0.0
  0
HATCH
  5
14C
330
10F
100
AcDbEntity
  8
_U+30EC_U+30A4_U+30E4_U+30FC 1
 62
     7
420
 16777215
100
AcDbHatch
 10
0.0
 20
0.0
 30
0.0
210
0.0
220
0.0
230
1.0
  2
SOLID
 70
     1
 71
     0
 91
        1
 92
        1
 93
        1
 72
     4
 94
        3
 73
     0
 74
     1
 95
       29
 96
       25
 40
0.0
 40
0.0
 40
0.0
 40
0.0
 40
1.0
 40
1.0
 40
1.0
 40
2.0
 40
2.0
 40
2.0
 40
3.0
 40
3.0
 40
3.0
 40
4.0
 40
4.0
 40
4.0
 40
5.0
 40
5.0
 40
5.0
 40
6.0
 40
6.0
 40
6.0
 40
7.0
 40
7.0
 40
7.0
 40
8.0
 40
8.0
 40
8.0
 40
8.0
 10
115.0041774886101
 20
-159.3053493525348
 10
115.0041774886101
 20
-159.3053493525348
 10
114.5197970633839
 20
-159.3053493525348
 10
114.5197970633839
 20
-159.3053493525348
 10
114.4922362995019
 20
-159.3053493525348
 10
114.1749430053104
 20
-159.3053493525348
 10
113.9634141425161
 20
-159.3304985495771
 10
113.9634141425161
 20
-159.3304985495771
 10
113.9634141425161
 20
-159.1000216616139
 10
113.9634141425161
 20
-159.1000216616139
 10
114.1218885348376
 20
-159.1234483109136
 10
114.3124023151719
 20
-159.1255153682047
 10
114.5197970633839
 20
-159.1255153682047
 10
114.5197970633839
 20
-159.1255153682047
 10
115.0041774886101
 20
-159.1255153682047
 10
115.0041774886101
 20
-159.1255153682047
 10
115.1902126448136
 20
-159.1255153682047
 10
115.3765923105656
 20
-159.1234483109136
 10
115.5605604094779
 20
-159.1000216616139
 10
115.5605604094779
 20
-159.1000216616139
 10
115.5605604094779
 20
-159.3304985495771
 10
115.5605604094779
 20
-159.3304985495771
 10
115.3765923105656
 20
-159.3074164098259
 10
115.1288899451761
 20
-159.3053493525348
 10
115.0041774886101
 20
-159.3053493525348
 97
        0
 97
        0
 75
     2
 76
     1
 98
        0
  0
ENDBLK
  5
112
330
10F
100
AcDbEntity
  8
0
100
AcDbBlockEnd
  0
ENDSEC
  0
SECTION
  2
ENTITIES
  0
POLYLINE
  5
41
330
1F
100
AcDbEntity
  8
_U+30EC_U+30A4_U+30E4_U+30FC 1
 62
     7
420
 16777215
370
    25
100
AcDb2dPolyline
 66
     1
 10
0.0
 20
0.0
 30
0.0
  0
VERTEX
  5
42
330
41
100
AcDbEntity
  8
_U+30EC_U+30A4_U+30E4_U+30FC 1
 62
     7
420
 16777215
370
    25
100
AcDbVertex
100
AcDb2dVertex
 10
87.50853637858235
 20
-143.7651994085032
 30
0.0
  0
VERTEX
  5
43
330
41
100
AcDbEntity
  8
_U+30EC_U+30A4_U+30E4_U+30FC 1
 62
     7
420
 16777215
370
    25
100
AcDbVertex
100
AcDb2dVertex
 10
94.50842342222258
 20
-143.7651994085032
 30
0.0
  0
SEQEND
  5
44
330
41
100
AcDbEntity
  8
_U+30EC_U+30A4_U+30E4_U+30FC 1
 62
     7
420
 16777215
370
    25
  0
POLYLINE
  5
45
330
1F
100
AcDbEntity
  8
_U+30EC_U+30A4_U+30E4_U+30FC 1
 62
     7
420
 16777215
370
    25
100
AcDb2dPolyline
 66
     1
 10
0.0
 20
0.0
 30
0.0
  0
VERTEX
  5
46
330
45
100
AcDbEntity
  8
_U+30EC_U+30A4_U+30E4_U+30FC 1
 62
     7
420
 16777215
370
    25
100
AcDbVertex
100
AcDb2dVertex
 10
96.50849698230756
 20
-144.7649716304754
 30
0.0
  0
VERTEX
  5
47
330
45
100
AcDbEntity
  8
_U+30EC_U+30A4_U+30E4_U+30FC 1
 62
     7
420
 16777215
370
    25
100
AcDbVertex
100
AcDb2dVertex
 10
117.5084050576664
 20
-144.7649716304754
 30
0.0
  0
SEQEND
  5
48
330
45
100
AcDbEntity
  8
_U+30EC_U+30A4_U+30E4_U+30FC 1
 62
     7
420
 16777215
370
    25
  0
POLYLINE
  5
49
330
1F
100
AcDbEntity
  8
_U+30EC_U+30A4_U+30E4_U+30FC 1
 62
     7
420
 16777215
370
    25
100
AcDb2dPolyline
 66
     1
 10
0.0
 20
0.0
 30
0.0
  0
VERTEX
  5
4A
330
49
100
AcDbEntity
  8
_U+30EC_U+30A4_U+30E4_U+30FC 1
 62
     7
420
 16777215
370
    25
100
AcDbVertex
100
AcDb2dVertex
 10
93.50851011439916
 20
-144.7649716304754
 30
0.0
  0
VERTEX
  5
4B
330
49
100
AcDbEntity
  8
_U+30EC_U+30A4_U+30E4_U+30FC 1
 62
     7
420
 16777215
370
    25
100
AcDbVertex
100
AcDb2dVertex
 10
93.50851011439916
 20
-152.2649566286007
 30
0.0
  0
SEQEND
  5
4C
330
49
100
AcDbEntity
  8
_U+30EC_U+30A4_U+30E4_U+30FC 1
 62
     7
420
 16777215
370
    25
  0
POLYLINE
  5
4D
330
1F
100
AcDbEntity
  8
_U+30EC_U+30A4_U+30E4_U+30FC 1
 62
     7
420
 16777215
370
    25
100
AcDb2dPolyline
 66
     1
 10
0.0
 20
0.0
 30
0.0
  0
VERTEX
  5
4E
330
4D
100
AcDbEntity
  8
_U+30EC_U+30A4_U+30E4_U+30FC 1
 62
     7
420
 16777215
370
    25
100
AcDbVertex
100
AcDb2dVertex
 10
95.50837200782287
 20
-143.7651994085032
 30
0.0
  0
VERTEX
  5
4F
330
4D
100
AcDbEntity
  8
_U+30EC_U+30A4_U+30E4_U+30FC 1
 62
     7
420
 16777215
370
    25
100
AcDbVertex
100
AcDb2dVertex
 10
117.5084050576664
 20
-143.7651994085032
 30
0.0
  0
SEQEND
  5
50
330
4D
100
AcDbEntity
  8
_U+30EC_U+30A4_U+30E4_U+30FC 1
 62
     7
420
 16777215
370
    25
  0
POLYLINE
  5
51
330
1F
100
AcDbEntity
  8
_U+30EC_U+30A4_U+30E4_U+30FC 1
 62
     7
420
 16777215
370
    25
100
AcDb2dPolyline
 66
     1
 10
0.0
 20
0.0
 30
0.0
  0
VERTEX
  5
52
330
51
100
AcDbEntity
  8
_U+30EC_U+30A4_U+30E4_U+30FC 1
 62
     7
420
 16777215
370
    25
100
AcDbVertex
100
AcDb2dVertex
 10
94.50842342222258
 20
-143.7651994085032
 30
0.0
  0
VERTEX
  5
53
330
51
100
AcDbEntity
  8
_U+30EC_U+30A4_U+30E4_U+30FC 1
 62
     7
420
 16777215
370
    25
100
AcDbVertex
100
AcDb2dVertex
 10
94.50842342222258
 20
-151.2651844066281
 30
0.0
  0
SEQEND
  5
54
330
51
100
AcDbEntity
  8
_U+30EC_U+30A4_U+30E4_U+30FC 1
 62
     7
420
 16777215
370
    25
  0
POLYLINE
  5
55
330
1F
100
AcDbEntity
  8
_U+30EC_U+30A4_U+30E4_U+30FC 1
 62
     7
420
 16777215
370
    25
100
AcDb2dPolyline
 66
     1
 10
0.0
 20
0.0
 30
0.0
  0
VERTEX
  5
56
330
55
100
AcDbEntity
  8
_U+30EC_U+30A4_U+30E4_U+30FC 1
 62
     7
420
 16777215
370
    25
100
AcDbVertex
100
AcDb2dVertex
 10
95.50837200782287
 20
-143.7651994085032
 30
0.0
  0
VERTEX
  5
57
330
55
100
AcDbEntity
  8
_U+30EC_U+30A4_U+30E4_U+30FC 1
 62
     7
420
 16777215
370
    25
100
AcDbVertex
100
AcDb2dVertex
 10
95.50837200782287
 20
-151.2651844066281
 30
0.0
  0
SEQEND
  5
58
330
55
100
AcDbEntity
  8
_U+30EC_U+30A4_U+30E4_U+30FC 1
 62
     7
420
 16777215
370
    25
  0
POLYLINE
  5
59
330
1F
100
AcDbEntity
  8
_U+30EC_U+30A4_U+30E4_U+30FC 1
 62
     7
420
 16777215
370
    25
100
AcDb2dPolyline
 66
     1
 10
0.0
 20
0.0
 30
0.0
  0
VERTEX
  5
5A
330
59
100
AcDbEntity
  8
_U+30EC_U+30A4_U+30E4_U+30FC 1
 62
     7
420
 16777215
370
    25
100
AcDbVertex
100
AcDb2dVertex
 10
96.50849698230756
 20
-144.7649716304754
 30
0.0
  0
VERTEX
  5
5B
330
59
100
AcDbEntity
  8
_U+30EC_U+30A4_U+30E4_U+30FC 1
 62
     7
420
 16777215
370
    25
100
AcDbVertex
100
AcDb2dVertex
 10
96.50849698230756
 20
-151.2651844066281
 30
0.0
  0
SEQEND
  5
5C
330
59
100
AcDbEntity
  8
_U+30EC_U+30A4_U+30E4_U+30FC 1
 62
     7
420
 16777215
370
    25
  0
POLYLINE
  5
5D
330
1F
100
AcDbEntity
  8
_U+30EC_U+30A4_U+30E4_U+30FC 1
 62
     7
420
 16777215
370
    25
100
AcDb2dPolyline
 66
     1
 10
0.0
 20
0.0
 30
0.0
  0
VERTEX
  5
5E
330
5D
100
AcDbEntity
  8
_U+30EC_U+30A4_U+30E4_U+30FC 1
 62
     7
420
 16777215
370
    25
100
AcDbVertex
100
AcDb2dVertex
 10
94.50842342222258
 20
-151.2651844066281
 30
0.0
  0
VERTEX
  5
5F
330
5D
100
AcDbEntity
  8
_U+30EC_U+30A4_U+30E4_U+30FC 1
 62
     7
420
 16777215
370
    25
100
AcDbVertex
100
AcDb2dVertex
 10
95.50837200782287
 20
-151.2651844066281
 30
0.0
  0
SEQEND
  5
60
330
5D
100
AcDbEntity
  8
_U+30EC_U+30A4_U+30E4_U+30FC 1
 62
     7
420
 16777215
370
    25
  0
POLYLINE
  5
61
330
1F
100
AcDbEntity
  8
_U+30EC_U+30A4_U+30E4_U+30FC 1
 62
     7
420
 16777215
370
    25
100
AcDb2dPolyline
 66
     1
 10
0.0
 20
0.0
 30
0.0
  0
VERTEX
  5
62
330
61
100
AcDbEntity
  8
_U+30EC_U+30A4_U+30E4_U+30FC 1
 62
     7
420
 16777215
370
    25
100
AcDbVertex
100
AcDb2dVertex
 10
87.50853637858235
 20
-143.7651994085032
 30
0.0
  0
VERTEX
  5
63
330
61
100
AcDbEntity
  8
_U+30EC_U+30A4_U+30E4_U+30FC 1
 62
     7
420
 16777215
370
    25
100
AcDbVertex
100
AcDb2dVertex
 10
87.50853637858235
 20
-144.7649716304754
 30
0.0
  0
SEQEND
  5
64
330
61
100
AcDbEntity
  8
_U+30EC_U+30A4_U+30E4_U+30FC 1
 62
     7
420
 16777215
370
    25
  0
POLYLINE
  5
65
330
1F
100
AcDbEntity
  8
_U+30EC_U+30A4_U+30E4_U+30FC 1
 62
     7
420
 16777215
370
    25
100
AcDb2dPolyline
 66
     1
 10
0.0
 20
0.0
 30
0.0
  0
VERTEX
  5
66
330
65
100
AcDbEntity
  8
_U+30EC_U+30A4_U+30E4_U+30FC 1
 62
     7
420
 16777215
370
    25
100
AcDbVertex
100
AcDb2dVertex
 10
87.50853637858235
 20
-144.7649716304754
 30
0.0
  0
VERTEX
  5
67
330
65
100
AcDbEntity
  8
_U+30EC_U+30A4_U+30E4_U+30FC 1
 62
     7
420
 16777215
370
    25
100
AcDbVertex
100
AcDb2dVertex
 10
93.50851011439916
 20
-144.7649716304754
 30
0.0
  0
SEQEND
  5
68
330
65
100
AcDbEntity
  8
_U+30EC_U+30A4_U+30E4_U+30FC 1
 62
     7
420
 16777215
370
    25
  0
POLYLINE
  5
69
330
1F
100
AcDbEntity
  8
_U+30EC_U+30A4_U+30E4_U+30FC 1
 62
     7
420
 16777215
370
    25
100
AcDb2dPolyline
 66
     1
 10
0.0
 20
0.0
 30
0.0
  0
VERTEX
  5
6A
330
69
100
AcDbEntity
  8
_U+30EC_U+30A4_U+30E4_U+30FC 1
 62
     7
420
 16777215
370
    25
100
AcDbVertex
100
AcDb2dVertex
 10
103.5085956926091
 20
-151.2651844066281
 30
0.0
  0
VERTEX
  5
6B
330
69
100
AcDbEntity
  8
_U+30EC_U+30A4_U+30E4_U+30FC 1
 62
     7
420
 16777215
370
    25
100
AcDbVertex
100
AcDb2dVertex
 10
103.5085956926091
 20
-151.7647177398363
 30
0.0
  0
SEQEND
  5
6C
330
69
100
AcDbEntity
  8
_U+30EC_U+30A4_U+30E4_U+30FC 1
 62
     7
420
 16777215
370
    25
  0
POLYLINE
  5
6D
330
1F
100
AcDbEntity
  8
_U+30EC_U+30A4_U+30E4_U+30FC 1
 62
     7
420
 16777215
370
    25
100
AcDb2dPolyline
 66
     1
 10
0.0
 20
0.0
 30
0.0
  0
VERTEX
  5
6E
330
6D
100
AcDbEntity
  8
_U+30EC_U+30A4_U+30E4_U+30FC 1
 62
     7
420
 16777215
370
    25
100
AcDbVertex
100
AcDb2dVertex
 10
96.50849698230756
 20
-151.2651844066281
 30
0.0
  0
VERTEX
  5
6F
330
6D
100
AcDbEntity
  8
_U+30EC_U+30A4_U+30E4_U+30FC 1
 62
     7
420
 16777215
370
    25
100
AcDbVertex
100
AcDb2dVertex
 10
103.5085956926091
 20
-151.2651844066281
 30
0.0
  0
SEQEND
  5
70
330
6D
100
AcDbEntity
  8
_U+30EC_U+30A4_U+30E4_U+30FC 1
 62
     7
420
 16777215
370
    25
  0
POLYLINE
  5
71
330
1F
100
AcDbEntity
  8
_U+30EC_U+30A4_U+30E4_U+30FC 1
 62
     7
420
 16777215
370
    25
100
AcDb2dPolyline
 66
     1
 10
0.0
 20
0.0
 30
0.0
  0
VERTEX
  5
72
330
71
100
AcDbEntity
  8
_U+30EC_U+30A4_U+30E4_U+30FC 1
 62
     7
420
 16777215
370
    25
100
AcDbVertex
100
AcDb2dVertex
 10
93.50851011439916
 20
-152.2649566286007
 30
0.0
  0
VERTEX
  5
73
330
71
100
AcDbEntity
  8
_U+30EC_U+30A4_U+30E4_U+30FC 1
 62
     7
420
 16777215
370
    25
100
AcDbVertex
100
AcDb2dVertex
 10
103.5085956926091
 20
-151.7647177398363
 30
0.0
  0
SEQEND
  5
74
330
71
100
AcDbEntity
  8
_U+30EC_U+30A4_U+30E4_U+30FC 1
 62
     7
420
 16777215
370
    25
  0
POLYLINE
  5
75
330
1F
100
AcDbEntity
  8
_U+30EC_U+30A4_U+30E4_U+30FC 1
 62
     7
420
 16777215
370
    25
100
AcDb2dPolyline
 66
     1
 10
0.0
 20
0.0
 30
0.0
  0
VERTEX
  5
76
330
75
100
AcDbEntity
  8
_U+30EC_U+30A4_U+30E4_U+30FC 1
 62
     7
420
 16777215
370
    25
100
AcDbVertex
100
AcDb2dVertex
 10
117.5084050576664
 20
-143.7651994085032
 30
0.0
  0
VERTEX
  5
77
330
75
100
AcDbEntity
  8
_U+30EC_U+30A4_U+30E4_U+30FC 1
 62
     7
420
 16777215
370
    25
100
AcDbVertex
100
AcDb2dVertex
 10
117.5084050576664
 20
-144.7649716304754
 30
0.0
  0
SEQEND
  5
78
330
75
100
AcDbEntity
  8
_U+30EC_U+30A4_U+30E4_U+30FC 1
 62
     7
420
 16777215
370
    25
  0
SPLINE
  5
79
330
1F
100
AcDbEntity
  8
_U+30EC_U+30A4_U+30E4_U+30FC 1
 62
     7
420
 16777215
370
     9
100
AcDbSpline
210
0.0
220
0.0
230
1.0
 70
    11
 71
     3
 72
    17
 73
    13
 74
     0
 42
0.0000000001
 43
0.0000000001
 12
1.0
 22
0.0
 32
0.0
 13
1.0
 23
0.0
 33
0.0
 40
0.0
 40
0.0
 40
0.0
 40
0.0
 40
1.0
 40
1.0
 40
1.0
 40
2.0
 40
2.0
 40
2.0
 40
3.0
 40
3.0
 40
3.0
 40
4.0
 40
4.0
 40
4.0
 40
4.0
 10
121.6084235641773
 20
-143.7651994085032
 30
0.0
 10
121.6084235641773
 20
-143.7093899640727
 30
0.0
 10
121.5636207875425
 20
-143.6646224640838
 30
0.0
 10
121.5085169000595
 20
-143.6646224640838
 30
0.0
 10
121.4533777347995
 20
-143.6646224640838
 30
0.0
 10
121.4086102359416
 20
-143.7093899640727
 30
0.0
 10
121.4086102359416
 20
-143.7651994085032
 30
0.0
 10
121.4086102359416
 20
-143.8203385751559
 30
0.0
 10
121.4533777347995
 20
-143.8651060751448
 30
0.0
 10
121.5085169000595
 20
-143.8651060751448
 30
0.0
 10
121.5636207875425
 20
-143.8651060751448
 30
0.0
 10
121.6084235641773
 20
-143.8203385751559
 30
0.0
 10
121.6084235641773
 20
-143.7651994085032
 30
0.0
  0
SPLINE
  5
7A
330
1F
100
AcDbEntity
  8
_U+30EC_U+30A4_U+30E4_U+30FC 1
 62
     7
420
 16777215
370
     9
100
AcDbSpline
210
0.0
220
0.0
230
1.0
 70
    11
 71
     3
 72
    17
 73
    13
 74
     0
 42
0.0000000001
 43
0.0000000001
 12
1.0
 22
0.0
 32
0.0
 13
1.0
 23
0.0
 33
0.0
 40
0.0
 40
0.0
 40
0.0
 40
0.0
 40
1.0
 40
1.0
 40
1.0
 40
2.0
 40
2.0
 40
2.0
 40
3.0
 40
3.0
 40
3.0
 40
4.0
 40
4.0
 40
4.0
 40
4.0
 10
121.6084235641773
 20
-144.7649716304754
 30
0.0
 10
121.6084235641773
 20
-144.7098677416005
 30
0.0
 10
121.5636207875425
 20
-144.6650649638337
 30
0.0
 10
121.5085169000595
 20
-144.6650649638337
 30
0.0
 10
121.4533777347995
 20
-144.6650649638337
 30
0.0
 10
121.4086102359416
 20
-144.7098677416005
 30
0.0
 10
121.4086102359416
 20
-144.7649716304754
 30
0.0
 10
121.4086102359416
 20
-144.8201107971285
 30
0.0
 10
121.4533777347995
 20
-144.864878297117
 30
0.0
 10
121.5085169000595
 20
-144.864878297117
 30
0.0
 10
121.5636207875425
 20
-144.864878297117
 30
0.0
 10
121.6084235641773
 20
-144.8201107971285
 30
0.0
 10
121.6084235641773
 20
-144.7649716304754
 30
0.0
  0
SPLINE
  5
7B
330
1F
100
AcDbEntity
  8
_U+30EC_U+30A4_U+30E4_U+30FC 1
 62
     7
420
 16777215
370
     9
100
AcDbSpline
210
0.0
220
0.0
230
1.0
 70
    11
 71
     3
 72
    17
 73
    13
 74
     0
 42
0.0000000001
 43
0.0000000001
 12
1.0
 22
0.0
 32
0.0
 13
1.0
 23
0.0
 33
0.0
 40
0.0
 40
0.0
 40
0.0
 40
0.0
 40
1.0
 40
1.0
 40
1.0
 40
2.0
 40
2.0
 40
2.0
 40
3.0
 40
3.0
 40
3.0
 40
4.0
 40
4.0
 40
4.0
 40
4.0
 10
103.6085023567269
 20
-156.2647157942669
 30
0.0
 10
103.6085023567269
 20
-156.2095766276144
 30
0.0
 10
103.5636995800921
 20
-156.1648091276253
 30
0.0
 10
103.5085956926091
 20
-156.1648091276253
 30
0.0
 10
103.4534565273491
 20
-156.1648091276253
 30
0.0
 10
103.4086916408146
 20
-156.2095766276144
 30
0.0
 10
103.4086916408146
 20
-156.2647157942669
 30
0.0
 10
103.4086916408146
 20
-156.3198196831424
 30
0.0
 10
103.4534565273491
 20
-156.3646224609092
 30
0.0
 10
103.5085956926091
 20
-156.3646224609092
 30
0.0
 10
103.5636995800921
 20
-156.3646224609092
 30
0.0
 10
103.6085023567269
 20
-156.3198196831424
 30
0.0
 10
103.6085023567269
 20
-156.2647157942669
 30
0.0
  0
SPLINE
  5
7C
330
1F
100
AcDbEntity
  8
_U+30EC_U+30A4_U+30E4_U+30FC 1
 62
     7
420
 16777215
370
     9
100
AcDbSpline
210
0.0
220
0.0
230
1.0
 70
    11
 71
     3
 72
    17
 73
    13
 74
     0
 42
0.0000000001
 43
0.0000000001
 12
1.0
 22
0.0
 32
0.0
 13
1.0
 23
0.0
 33
0.0
 40
0.0
 40
0.0
 40
0.0
 40
0.0
 40
1.0
 40
1.0
 40
1.0
 40
2.0
 40
2.0
 40
2.0
 40
3.0
 40
3.0
 40
3.0
 40
4.0
 40
4.0
 40
4.0
 40
4.0
 10
93.608416778517
 20
-156.2647157942669
 30
0.0
 10
93.608416778517
 20
-156.2095766276144
 30
0.0
 10
93.56361400188223
 20
-156.1648091276253
 30
0.0
 10
93.50851011439916
 20
-156.1648091276253
 30
0.0
 10
93.45319456025483
 20
-156.1648091276253
 30
0.0
 10
93.40842706139694
 20
-156.2095766276144
 30
0.0
 10
93.40842706139694
 20
-156.2647157942669
 30
0.0
 10
93.40842706139694
 20
-156.3198196831424
 30
0.0
 10
93.45319456025483
 20
-156.3646224609092
 30
0.0
 10
93.50851011439916
 20
-156.3646224609092
 30
0.0
 10
93.56361400188223
 20
-156.3646224609092
 30
0.0
 10
93.608416778517
 20
-156.3198196831424
 30
0.0
 10
93.608416778517
 20
-156.2647157942669
 30
0.0
  0
SPLINE
  5
7D
330
1F
100
AcDbEntity
  8
_U+30EC_U+30A4_U+30E4_U+30FC 1
 62
     7
420
 16777215
370
     9
100
AcDbSpline
210
0.0
220
0.0
230
1.0
 70
    11
 71
     3
 72
    17
 73
    13
 74
     0
 42
0.0000000001
 43
0.0000000001
 12
1.0
 22
0.0
 32
0.0
 13
1.0
 23
0.0
 33
0.0
 40
0.0
 40
0.0
 40
0.0
 40
0.0
 40
1.0
 40
1.0
 40
1.0
 40
2.0
 40
2.0
 40
2.0
 40
3.0
 40
3.0
 40
3.0
 40
4.0
 40
4.0
 40
4.0
 40
4.0
 10
107.6082614213512
 20
-151.2651844066281
 30
0.0
 10
107.6082614213512
 20
-151.2093749621977
 30
0.0
 10
107.5634586447164
 20
-151.1645721844309
 30
0.0
 10
107.508322195345
 20
-151.1645721844309
 30
0.0
 10
107.4532155919734
 20
-151.1645721844309
 30
0.0
 10
107.4084128153387
 20
-151.2093749621977
 30
0.0
 10
107.4084128153387
 20
-151.2651844066281
 30
0.0
 10
107.4084128153387
 20
-151.3203235732812
 30
0.0
 10
107.4532155919734
 20
-151.3650910732698
 30
0.0
 10
107.508322195345
 20
-151.3650910732698
 30
0.0
 10
107.5634586447164
 20
-151.3650910732698
 30
0.0
 10
107.6082614213512
 20
-151.3203235732812
 30
0.0
 10
107.6082614213512
 20
-151.2651844066281
 30
0.0
  0
SPLINE
  5
7E
330
1F
100
AcDbEntity
  8
_U+30EC_U+30A4_U+30E4_U+30FC 1
 62
     7
420
 16777215
370
     9
100
AcDbSpline
210
0.0
220
0.0
230
1.0
 70
    11
 71
     3
 72
    17
 73
    13
 74
     0
 42
0.0000000001
 43
0.0000000001
 12
1.0
 22
0.0
 32
0.0
 13
1.0
 23
0.0
 33
0.0
 40
0.0
 40
0.0
 40
0.0
 40
0.0
 40
1.0
 40
1.0
 40
1.0
 40
2.0
 40
2.0
 40
2.0
 40
3.0
 40
3.0
 40
3.0
 40
4.0
 40
4.0
 40
4.0
 40
4.0
 10
121.6084235641773
 20
-151.2651844066281
 30
0.0
 10
121.6084235641773
 20
-151.2093749621977
 30
0.0
 10
121.5636207875425
 20
-151.1645721844309
 30
0.0
 10
121.5085169000595
 20
-151.1645721844309
 30
0.0
 10
121.4533777347995
 20
-151.1645721844309
 30
0.0
 10
121.4086102359416
 20
-151.2093749621977
 30
0.0
 10
121.4086102359416
 20
-151.2651844066281
 30
0.0
 10
121.4086102359416
 20
-151.3203235732812
 30
0.0
 10
121.4533777347995
 20
-151.3650910732698
 30
0.0
 10
121.5085169000595
 20
-151.3650910732698
 30
0.0
 10
121.5636207875425
 20
-151.3650910732698
 30
0.0
 10
121.6084235641773
 20
-151.3203235732812
 30
0.0
 10
121.6084235641773
 20
-151.2651844066281
 30
0.0
  0
SPLINE
  5
7F
330
1F
100
AcDbEntity
  8
_U+30EC_U+30A4_U+30E4_U+30FC 1
 62
     7
420
 16777215
370
     9
100
AcDbSpline
210
0.0
220
0.0
230
1.0
 70
    11
 71
     3
 72
    17
 73
    13
 74
     0
 42
0.0000000001
 43
0.0000000001
 12
1.0
 22
0.0
 32
0.0
 13
1.0
 23
0.0
 33
0.0
 40
0.0
 40
0.0
 40
0.0
 40
0.0
 40
1.0
 40
1.0
 40
1.0
 40
2.0
 40
2.0
 40
2.0
 40
3.0
 40
3.0
 40
3.0
 40
4.0
 40
4.0
 40
4.0
 40
4.0
 10
107.6082614213512
 20
-151.7647177398363
 30
0.0
 10
107.6082614213512
 20
-151.7096138509614
 30
0.0
 10
107.5634586447164
 20
-151.6648110731946
 30
0.0
 10
107.508322195345
 20
-151.6648110731946
 30
0.0
 10
107.4532155919734
 20
-151.6648110731946
 30
0.0
 10
107.4084128153387
 20
-151.7096138509614
 30
0.0
 10
107.4084128153387
 20
-151.7647177398363
 30
0.0
 10
107.4084128153387
 20
-151.8198569064894
 30
0.0
 10
107.4532155919734
 20
-151.8646244064786
 30
0.0
 10
107.508322195345
 20
-151.8646244064786
 30
0.0
 10
107.5634586447164
 20
-151.8646244064786
 30
0.0
 10
107.6082614213512
 20
-151.8198569064894
 30
0.0
 10
107.6082614213512
 20
-151.7647177398363
 30
0.0
  0
SPLINE
  5
80
330
1F
100
AcDbEntity
  8
_U+30EC_U+30A4_U+30E4_U+30FC 1
 62
     7
420
 16777215
370
     9
100
AcDbSpline
210
0.0
220
0.0
230
1.0
 70
    11
 71
     3
 72
    17
 73
    13
 74
     0
 42
0.0000000001
 43
0.0000000001
 12
1.0
 22
0.0
 32
0.0
 13
1.0
 23
0.0
 33
0.0
 40
0.0
 40
0.0
 40
0.0
 40
0.0
 40
1.0
 40
1.0
 40
1.0
 40
2.0
 40
2.0
 40
2.0
 40
3.0
 40
3.0
 40
3.0
 40
4.0
 40
4.0
 40
4.0
 40
4.0
 10
87.60844304270019
 20
-139.7647699650589
 30
0.0
 10
87.60844304270019
 20
-139.7096307984058
 30
0.0
 10
87.56364026606542
 20
-139.6648632984173
 30
0.0
 10
87.50853637858235
 20
-139.6648632984173
 30
0.0
 10
87.45322082443802
 20
-139.6648632984173
 30
0.0
 10
87.40845553370342
 20
-139.7096307984058
 30
0.0
 10
87.40845553370342
 20
-139.7647699650589
 30
0.0
 10
87.40845553370342
 20
-139.8198738539338
 30
0.0
 10
87.45322082443802
 20
-139.8646766317005
 30
0.0
 10
87.50853637858235
 20
-139.8646766317005
 30
0.0
 10
87.56364026606542
 20
-139.8646766317005
 30
0.0
 10
87.60844304270019
 20
-139.8198738539338
 30
0.0
 10
87.60844304270019
 20
-139.7647699650589
 30
0.0
  0
SPLINE
  5
81
330
1F
100
AcDbEntity
  8
_U+30EC_U+30A4_U+30E4_U+30FC 1
 62
     7
420
 16777215
370
     9
100
AcDbSpline
210
0.0
220
0.0
230
1.0
 70
    11
 71
     3
 72
    17
 73
    13
 74
     0
 42
0.0000000001
 43
0.0000000001
 12
1.0
 22
0.0
 32
0.0
 13
1.0
 23
0.0
 33
0.0
 40
0.0
 40
0.0
 40
0.0
 40
0.0
 40
1.0
 40
1.0
 40
1.0
 40
2.0
 40
2.0
 40
2.0
 40
3.0
 40
3.0
 40
3.0
 40
4.0
 40
4.0
 40
4.0
 40
4.0
 10
87.60844304270019
 20
-156.2647157942669
 30
0.0
 10
87.60844304270019
 20
-156.2095766276144
 30
0.0
 10
87.56364026606542
 20
-156.1648091276253
 30
0.0
 10
87.50853637858235
 20
-156.1648091276253
 30
0.0
 10
87.45322082443802
 20
-156.1648091276253
 30
0.0
 10
87.40845553370342
 20
-156.2095766276144
 30
0.0
 10
87.40845553370342
 20
-156.2647157942669
 30
0.0
 10
87.40845553370342
 20
-156.3198196831424
 30
0.0
 10
87.45322082443802
 20
-156.3646224609092
 30
0.0
 10
87.50853637858235
 20
-156.3646224609092
 30
0.0
 10
87.56364026606542
 20
-156.3646224609092
 30
0.0
 10
87.60844304270019
 20
-156.3198196831424
 30
0.0
 10
87.60844304270019
 20
-156.2647157942669
 30
0.0
  0
POLYLINE
  5
82
330
1F
100
AcDbEntity
  8
_U+30EC_U+30A4_U+30E4_U+30FC 1
 62
     7
420
 16777215
370
     9
100
AcDb2dPolyline
 66
     1
 10
0.0
 20
0.0
 30
0.0
  0
VERTEX
  5
83
330
82
100
AcDbEntity
  8
_U+30EC_U+30A4_U+30E4_U+30FC 1
 62
     7
420
 16777215
370
     9
100
AcDbVertex
100
AcDb2dVertex
 10
121.5085169000595
 20
-143.7651994085032
 30
0.0
  0
VERTEX
  5
84
330
82
100
AcDbEntity
  8
_U+30EC_U+30A4_U+30E4_U+30FC 1
 62
     7
420
 16777215
370
     9
100
AcDbVertex
100
AcDb2dVertex
 10
121.5085169000595
 20
-139.9948869094457
 30
0.0
  0
SEQEND
  5
85
330
82
100
AcDbEntity
  8
_U+30EC_U+30A4_U+30E4_U+30FC 1
 62
     7
420
 16777215
370
     9
  0
POLYLINE
  5
86
330
1F
100
AcDbEntity
  8
_U+30EC_U+30A4_U+30E4_U+30FC 1
 62
     7
420
 16777215
370
     9
100
AcDb2dPolyline
 66
     1
 10
0.0
 20
0.0
 30
0.0
  0
VERTEX
  5
87
330
86
100
AcDbEntity
  8
_U+30EC_U+30A4_U+30E4_U+30FC 1
 62
     7
420
 16777215
370
     9
100
AcDbVertex
100
AcDb2dVertex
 10
121.5085169000595
 20
-143.7651994085032
 30
0.0
  0
VERTEX
  5
88
330
86
100
AcDbEntity
  8
_U+30EC_U+30A4_U+30E4_U+30FC 1
 62
     7
420
 16777215
370
     9
100
AcDbVertex
100
AcDb2dVertex
 10
121.5085169000595
 20
-144.7649716304754
 30
0.0
  0
SEQEND
  5
89
330
86
100
AcDbEntity
  8
_U+30EC_U+30A4_U+30E4_U+30FC 1
 62
     7
420
 16777215
370
     9
  0
POLYLINE
  5
8A
330
1F
100
AcDbEntity
  8
_U+30EC_U+30A4_U+30E4_U+30FC 1
 62
     7
420
 16777215
370
     9
100
AcDb2dPolyline
 66
     1
 10
0.0
 20
0.0
 30
0.0
  0
VERTEX
  5
8B
330
8A
100
AcDbEntity
  8
_U+30EC_U+30A4_U+30E4_U+30FC 1
 62
     7
420
 16777215
370
     9
100
AcDbVertex
100
AcDb2dVertex
 10
120.0484755484193
 20
-143.7651994085032
 30
0.0
  0
VERTEX
  5
8C
330
8A
100
AcDbEntity
  8
_U+30EC_U+30A4_U+30E4_U+30FC 1
 62
     7
420
 16777215
370
     9
100
AcDbVertex
100
AcDb2dVertex
 10
122.5086418745442
 20
-143.7651994085032
 30
0.0
  0
SEQEND
  5
8D
330
8A
100
AcDbEntity
  8
_U+30EC_U+30A4_U+30E4_U+30FC 1
 62
     7
420
 16777215
370
     9
  0
POLYLINE
  5
8E
330
1F
100
AcDbEntity
  8
_U+30EC_U+30A4_U+30E4_U+30FC 1
 62
     7
420
 16777215
370
     9
100
AcDb2dPolyline
 66
     1
 10
0.0
 20
0.0
 30
0.0
  0
VERTEX
  5
8F
330
8E
100
AcDbEntity
  8
_U+30EC_U+30A4_U+30E4_U+30FC 1
 62
     7
420
 16777215
370
     9
100
AcDbVertex
100
AcDb2dVertex
 10
120.0484755484193
 20
-144.7649716304754
 30
0.0
  0
VERTEX
  5
90
330
8E
100
AcDbEntity
  8
_U+30EC_U+30A4_U+30E4_U+30FC 1
 62
     7
420
 16777215
370
     9
100
AcDbVertex
100
AcDb2dVertex
 10
122.5086418745442
 20
-144.7649716304754
 30
0.0
  0
SEQEND
  5
91
330
8E
100
AcDbEntity
  8
_U+30EC_U+30A4_U+30E4_U+30FC 1
 62
     7
420
 16777215
370
     9
  0
INSERT
  5
93
330
1F
100
AcDbEntity
  8
_U+30EC_U+30A4_U+30E4_U+30FC 1
100
AcDbBlockReference
  2
block 2
 10
0.0
 20
0.0
 30
0.0
  0
POLYLINE
  5
98
330
1F
100
AcDbEntity
  8
_U+30EC_U+30A4_U+30E4_U+30FC 1
 62
     7
420
 16777215
370
     9
100
AcDb2dPolyline
 66
     1
 10
0.0
 20
0.0
 30
0.0
  0
VERTEX
  5
99
330
98
100
AcDbEntity
  8
_U+30EC_U+30A4_U+30E4_U+30FC 1
 62
     7
420
 16777215
370
     9
100
AcDbVertex
100
AcDb2dVertex
 10
93.50851011439916
 20
-156.2647157942669
 30
0.0
  0
VERTEX
  5
9A
330
98
100
AcDbEntity
  8
_U+30EC_U+30A4_U+30E4_U+30FC 1
 62
     7
420
 16777215
370
     9
100
AcDbVertex
100
AcDb2dVertex
 10
103.5085956926091
 20
-156.2647157942669
 30
0.0
  0
SEQEND
  5
9B
330
98
100
AcDbEntity
  8
_U+30EC_U+30A4_U+30E4_U+30FC 1
 62
     7
420
 16777215
370
     9
  0
POLYLINE
  5
9C
330
1F
100
AcDbEntity
  8
_U+30EC_U+30A4_U+30E4_U+30FC 1
 62
     7
420
 16777215
370
     9
100
AcDb2dPolyline
 66
     1
 10
0.0
 20
0.0
 30
0.0
  0
VERTEX
  5
9D
330
9C
100
AcDbEntity
  8
_U+30EC_U+30A4_U+30E4_U+30FC 1
 62
     7
420
 16777215
370
     9
100
AcDbVertex
100
AcDb2dVertex
 10
93.50851011439916
 20
-154.8046744057432
 30
0.0
  0
VERTEX
  5
9E
330
9C
100
AcDbEntity
  8
_U+30EC_U+30A4_U+30E4_U+30FC 1
 62
     7
420
 16777215
370
     9
100
AcDbVertex
100
AcDb2dVertex
 10
93.50851011439916
 20
-157.2651582940168
 30
0.0
  0
SEQEND
  5
9F
330
9C
100
AcDbEntity
  8
_U+30EC_U+30A4_U+30E4_U+30FC 1
 62
     7
420
 16777215
370
     9
  0
POLYLINE
  5
A0
330
1F
100
AcDbEntity
  8
_U+30EC_U+30A4_U+30E4_U+30FC 1
 62
     7
420
 16777215
370
     9
100
AcDb2dPolyline
 66
     1
 10
0.0
 20
0.0
 30
0.0
  0
VERTEX
  5
A1
330
A0
100
AcDbEntity
  8
_U+30EC_U+30A4_U+30E4_U+30FC 1
 62
     7
420
 16777215
370
     9
100
AcDbVertex
100
AcDb2dVertex
 10
103.5085956926091
 20
-154.1046221836962
 30
0.0
  0
VERTEX
  5
A2
330
A0
100
AcDbEntity
  8
_U+30EC_U+30A4_U+30E4_U+30FC 1
 62
     7
420
 16777215
370
     9
100
AcDbVertex
100
AcDb2dVertex
 10
103.5085956926091
 20
-157.2651582940168
 30
0.0
  0
SEQEND
  5
A3
330
A0
100
AcDbEntity
  8
_U+30EC_U+30A4_U+30E4_U+30FC 1
 62
     7
420
 16777215
370
     9
  0
INSERT
  5
A5
330
1F
100
AcDbEntity
  8
_U+30EC_U+30A4_U+30E4_U+30FC 1
100
AcDbBlockReference
  2
block 3
 10
0.0
 20
0.0
 30
0.0
  0
POLYLINE
  5
AD
330
1F
100
AcDbEntity
  8
_U+30EC_U+30A4_U+30E4_U+30FC 1
 62
     7
420
 16777215
370
     9
100
AcDb2dPolyline
 66
     1
 10
0.0
 20
0.0
 30
0.0
  0
VERTEX
  5
AE
330
AD
100
AcDbEntity
  8
_U+30EC_U+30A4_U+30E4_U+30FC 1
 62
     7
420
 16777215
370
     9
100
AcDbVertex
100
AcDb2dVertex
 10
87.50853637858235
 20
-156.2647157942669
 30
0.0
  0
VERTEX
  5
AF
330
AD
100
AcDbEntity
  8
_U+30EC_U+30A4_U+30E4_U+30FC 1
 62
     7
420
 16777215
370
     9
100
AcDbVertex
100
AcDb2dVertex
 10
93.50851011439916
 20
-156.2647157942669
 30
0.0
  0
SEQEND
  5
B0
330
AD
100
AcDbEntity
  8
_U+30EC_U+30A4_U+30E4_U+30FC 1
 62
     7
420
 16777215
370
     9
  0
POLYLINE
  5
B1
330
1F
100
AcDbEntity
  8
_U+30EC_U+30A4_U+30E4_U+30FC 1
 62
     7
420
 16777215
370
     9
100
AcDb2dPolyline
 66
     1
 10
0.0
 20
0.0
 30
0.0
  0
VERTEX
  5
B2
330
B1
100
AcDbEntity
  8
_U+30EC_U+30A4_U+30E4_U+30FC 1
 62
     7
420
 16777215
370
     9
100
AcDbVertex
100
AcDb2dVertex
 10
87.50853637858235
 20
-147.3046894076182
 30
0.0
  0
VERTEX
  5
B3
330
B1
100
AcDbEntity
  8
_U+30EC_U+30A4_U+30E4_U+30FC 1
 62
     7
420
 16777215
370
     9
100
AcDbVertex
100
AcDb2dVertex
 10
87.50853637858235
 20
-157.2651582940168
 30
0.0
  0
SEQEND
  5
B4
330
B1
100
AcDbEntity
  8
_U+30EC_U+30A4_U+30E4_U+30FC 1
 62
     7
420
 16777215
370
     9
  0
INSERT
  5
B6
330
1F
100
AcDbEntity
  8
_U+30EC_U+30A4_U+30E4_U+30FC 1
100
AcDbBlockReference
  2
block 4
 10
0.0
 20
0.0
 30
0.0
  0
POLYLINE
  5
BC
330
1F
100
AcDbEntity
  8
_U+30EC_U+30A4_U+30E4_U+30FC 1
 62
     7
420
 16777215
370
     9
100
AcDb2dPolyline
 66
     1
 10
0.0
 20
0.0
 30
0.0
  0
VERTEX
  5
BD
330
BC
100
AcDbEntity
  8
_U+30EC_U+30A4_U+30E4_U+30FC 1
 62
     7
420
 16777215
370
     9
100
AcDbVertex
100
AcDb2dVertex
 10
107.508322195345
 20
-151.2651844066281
 30
0.0
  0
VERTEX
  5
BE
330
BC
100
AcDbEntity
  8
_U+30EC_U+30A4_U+30E4_U+30FC 1
 62
     7
420
 16777215
370
     9
100
AcDbVertex
100
AcDb2dVertex
 10
107.508322195345
 20
-146.0072785746092
 30
0.0
  0
SEQEND
  5
BF
330
BC
100
AcDbEntity
  8
_U+30EC_U+30A4_U+30E4_U+30FC 1
 62
     7
420
 16777215
370
     9
  0
POLYLINE
  5
C0
330
1F
100
AcDbEntity
  8
_U+30EC_U+30A4_U+30E4_U+30FC 1
 62
     7
420
 16777215
370
     9
100
AcDb2dPolyline
 66
     1
 10
0.0
 20
0.0
 30
0.0
  0
VERTEX
  5
C1
330
C0
100
AcDbEntity
  8
_U+30EC_U+30A4_U+30E4_U+30FC 1
 62
     7
420
 16777215
370
     9
100
AcDbVertex
100
AcDb2dVertex
 10
107.508322195345
 20
-151.2651844066281
 30
0.0
  0
VERTEX
  5
C2
330
C0
100
AcDbEntity
  8
_U+30EC_U+30A4_U+30E4_U+30FC 1
 62
     7
420
 16777215
370
     9
100
AcDbVertex
100
AcDb2dVertex
 10
107.508322195345
 20
-152.7651955173644
 30
0.0
  0
SEQEND
  5
C3
330
C0
100
AcDbEntity
  8
_U+30EC_U+30A4_U+30E4_U+30FC 1
 62
     7
420
 16777215
370
     9
  0
POLYLINE
  5
C4
330
1F
100
AcDbEntity
  8
_U+30EC_U+30A4_U+30E4_U+30FC 1
 62
     7
420
 16777215
370
     9
100
AcDb2dPolyline
 66
     1
 10
0.0
 20
0.0
 30
0.0
  0
VERTEX
  5
C5
330
C4
100
AcDbEntity
  8
_U+30EC_U+30A4_U+30E4_U+30FC 1
 62
     7
420
 16777215
370
     9
100
AcDbVertex
100
AcDb2dVertex
 10
106.0483134055932
 20
-151.2651844066281
 30
0.0
  0
VERTEX
  5
C6
330
C4
100
AcDbEntity
  8
_U+30EC_U+30A4_U+30E4_U+30FC 1
 62
     7
420
 16777215
370
     9
100
AcDbVertex
100
AcDb2dVertex
 10
108.5084471950953
 20
-151.2651844066281
 30
0.0
  0
SEQEND
  5
C7
330
C4
100
AcDbEntity
  8
_U+30EC_U+30A4_U+30E4_U+30FC 1
 62
     7
420
 16777215
370
     9
  0
POLYLINE
  5
C8
330
1F
100
AcDbEntity
  8
_U+30EC_U+30A4_U+30E4_U+30FC 1
 62
     7
420
 16777215
370
     9
100
AcDb2dPolyline
 66
     1
 10
0.0
 20
0.0
 30
0.0
  0
VERTEX
  5
C9
330
C8
100
AcDbEntity
  8
_U+30EC_U+30A4_U+30E4_U+30FC 1
 62
     7
420
 16777215
370
     9
100
AcDbVertex
100
AcDb2dVertex
 10
106.0483134055932
 20
-151.7647177398363
 30
0.0
  0
VERTEX
  5
CA
330
C8
100
AcDbEntity
  8
_U+30EC_U+30A4_U+30E4_U+30FC 1
 62
     7
420
 16777215
370
     9
100
AcDbVertex
100
AcDb2dVertex
 10
108.5084471950953
 20
-151.7647177398363
 30
0.0
  0
SEQEND
  5
CB
330
C8
100
AcDbEntity
  8
_U+30EC_U+30A4_U+30E4_U+30FC 1
 62
     7
420
 16777215
370
     9
  0
INSERT
  5
CD
330
1F
100
AcDbEntity
  8
_U+30EC_U+30A4_U+30E4_U+30FC 1
100
AcDbBlockReference
  2
block 5
 10
0.0
 20
0.0
 30
0.0
  0
POLYLINE
  5
DD
330
1F
100
AcDbEntity
  8
_U+30EC_U+30A4_U+30E4_U+30FC 1
 62
     7
420
 16777215
370
     9
100
AcDb2dPolyline
 66
     1
 10
0.0
 20
0.0
 30
0.0
  0
VERTEX
  5
DE
330
DD
100
AcDbEntity
  8
_U+30EC_U+30A4_U+30E4_U+30FC 1
 62
     7
420
 16777215
370
     9
100
AcDbVertex
100
AcDb2dVertex
 10
87.50853637858235
 20
-139.7647699650589
 30
0.0
  0
VERTEX
  5
DF
330
DD
100
AcDbEntity
  8
_U+30EC_U+30A4_U+30E4_U+30FC 1
 62
     7
420
 16777215
370
     9
100
AcDbVertex
100
AcDb2dVertex
 10
117.5084050576664
 20
-139.7647699650589
 30
0.0
  0
SEQEND
  5
E0
330
DD
100
AcDbEntity
  8
_U+30EC_U+30A4_U+30E4_U+30FC 1
 62
     7
420
 16777215
370
     9
  0
POLYLINE
  5
E1
330
1F
100
AcDbEntity
  8
_U+30EC_U+30A4_U+30E4_U+30FC 1
 62
     7
420
 16777215
370
     9
100
AcDb2dPolyline
 66
     1
 10
0.0
 20
0.0
 30
0.0
  0
VERTEX
  5
E2
330
E1
100
AcDbEntity
  8
_U+30EC_U+30A4_U+30E4_U+30FC 1
 62
     7
420
 16777215
370
     9
100
AcDbVertex
100
AcDb2dVertex
 10
87.50853637858235
 20
-141.2248113535826
 30
0.0
  0
VERTEX
  5
E3
330
E1
100
AcDbEntity
  8
_U+30EC_U+30A4_U+30E4_U+30FC 1
 62
     7
420
 16777215
370
     9
100
AcDbVertex
100
AcDb2dVertex
 10
87.50853637858235
 20
-138.7649977430864
 30
0.0
  0
SEQEND
  5
E4
330
E1
100
AcDbEntity
  8
_U+30EC_U+30A4_U+30E4_U+30FC 1
 62
     7
420
 16777215
370
     9
  0
POLYLINE
  5
E5
330
1F
100
AcDbEntity
  8
_U+30EC_U+30A4_U+30E4_U+30FC 1
 62
     7
420
 16777215
370
     9
100
AcDb2dPolyline
 66
     1
 10
0.0
 20
0.0
 30
0.0
  0
VERTEX
  5
E6
330
E5
100
AcDbEntity
  8
_U+30EC_U+30A4_U+30E4_U+30FC 1
 62
     7
420
 16777215
370
     9
100
AcDbVertex
100
AcDb2dVertex
 10
117.5084050576664
 20
-141.2248113535826
 30
0.0
  0
VERTEX
  5
E7
330
E5
100
AcDbEntity
  8
_U+30EC_U+30A4_U+30E4_U+30FC 1
 62
     7
420
 16777215
370
     9
100
AcDbVertex
100
AcDb2dVertex
 10
117.5084050576664
 20
-138.7649977430864
 30
0.0
  0
SEQEND
  5
E8
330
E5
100
AcDbEntity
  8
_U+30EC_U+30A4_U+30E4_U+30FC 1
 62
     7
420
 16777215
370
     9
  0
INSERT
  5
EA
330
1F
100
AcDbEntity
  8
_U+30EC_U+30A4_U+30E4_U+30FC 1
100
AcDbBlockReference
  2
block 6
 10
0.0
 20
0.0
 30
0.0
  0
POLYLINE
  5
F2
330
1F
100
AcDbEntity
  8
_U+30EC_U+30A4_U+30E4_U+30FC 1
 62
     7
420
 16777215
370
     9
100
AcDb2dPolyline
 66
     1
 10
0.0
 20
0.0
 30
0.0
  0
VERTEX
  5
F3
330
F2
100
AcDbEntity
  8
_U+30EC_U+30A4_U+30E4_U+30FC 1
 62
     7
420
 16777215
370
     9
100
AcDbVertex
100
AcDb2dVertex
 10
121.5085169000595
 20
-144.7649716304754
 30
0.0
  0
VERTEX
  5
F4
330
F2
100
AcDbEntity
  8
_U+30EC_U+30A4_U+30E4_U+30FC 1
 62
     7
420
 16777215
370
     9
100
AcDbVertex
100
AcDb2dVertex
 10
121.5085169000595
 20
-151.2651844066281
 30
0.0
  0
SEQEND
  5
F5
330
F2
100
AcDbEntity
  8
_U+30EC_U+30A4_U+30E4_U+30FC 1
 62
     7
420
 16777215
370
     9
  0
POLYLINE
  5
F6
330
1F
100
AcDbEntity
  8
_U+30EC_U+30A4_U+30E4_U+30FC 1
 62
     7
420
 16777215
370
     9
100
AcDb2dPolyline
 66
     1
 10
0.0
 20
0.0
 30
0.0
  0
VERTEX
  5
F7
330
F6
100
AcDbEntity
  8
_U+30EC_U+30A4_U+30E4_U+30FC 1
 62
     7
420
 16777215
370
     9
100
AcDbVertex
100
AcDb2dVertex
 10
106.0483134055932
 20
-151.2651844066281
 30
0.0
  0
VERTEX
  5
F8
330
F6
100
AcDbEntity
  8
_U+30EC_U+30A4_U+30E4_U+30FC 1
 62
     7
420
 16777215
370
     9
100
AcDbVertex
100
AcDb2dVertex
 10
122.5086418745442
 20
-151.2651844066281
 30
0.0
  0
SEQEND
  5
F9
330
F6
100
AcDbEntity
  8
_U+30EC_U+30A4_U+30E4_U+30FC 1
 62
     7
420
 16777215
370
     9
  0
INSERT
  5
FB
330
1F
100
AcDbEntity
  8
_U+30EC_U+30A4_U+30E4_U+30FC 1
100
AcDbBlockReference
  2
block 7
 10
0.0
 20
0.0
 30
0.0
  0
POLYLINE
  5
10B
330
1F
100
AcDbEntity
  8
_U+30EC_U+30A4_U+30E4_U+30FC 1
 62
     7
420
 16777215
370
     9
100
AcDb2dPolyline
 66
     1
 10
0.0
 20
0.0
 30
0.0
  0
VERTEX
  5
10C
330
10B
100
AcDbEntity
  8
_U+30EC_U+30A4_U+30E4_U+30FC 1
 62
     7
420
 16777215
370
     9
100
AcDbVertex
100
AcDb2dVertex
 10
103.5085956926091
 20
-152.2408266286066
 30
0.0
  0
VERTEX
  5
10D
330
10B
100
AcDbEntity
  8
_U+30EC_U+30A4_U+30E4_U+30FC 1
 62
     7
420
 16777215
370
     9
100
AcDbVertex
100
AcDb2dVertex
 10
107.165878099304
 20
-155.289073572289
 30
0.0
  0
SEQEND
  5
10E
330
10B
100
AcDbEntity
  8
_U+30EC_U+30A4_U+30E4_U+30FC 1
 62
     7
420
 16777215
370
     9
  0
INSERT
  5
110
330
1F
100
AcDbEntity
  8
_U+30EC_U+30A4_U+30E4_U+30FC 1
100
AcDbBlockReference
  2
block 8
 10
0.0
 20
0.0
 30
0.0
  0
POLYLINE
  5
14D
330
1F
100
AcDbEntity
  8
_U+30EC_U+30A4_U+30E4_U+30FC 1
  6
AI-Linetype-1
 62
   154
420
    23468
370
    25
100
AcDb2dPolyline
 66
     1
 10
0.0
 20
0.0
 30
0.0
  0
VERTEX
  5
14E
330
14D
100
AcDbEntity
  8
_U+30EC_U+30A4_U+30E4_U+30FC 1
  6
AI-Linetype-1
 62
   154
420
    23468
370
    25
100
AcDbVertex
100
AcDb2dVertex
 10
93.0084499767478
 20
-152.7651955173644
 30
0.0
  0
VERTEX
  5
14F
330
14D
100
AcDbEntity
  8
_U+30EC_U+30A4_U+30E4_U+30FC 1
  6
AI-Linetype-1
 62
   154
420
    23468
370
    25
100
AcDbVertex
100
AcDb2dVertex
 10
103.5085956926091
 20
-152.2408266286066
 30
0.0
  0
SEQEND
  5
151
330
14D
100
AcDbEntity
  8
_U+30EC_U+30A4_U+30E4_U+30FC 1
  6
AI-Linetype-1
 62
   154
420
    23468
370
    25
  0
POLYLINE
  5
152
330
1F
100
AcDbEntity
  8
_U+30EC_U+30A4_U+30E4_U+30FC 1
  6
AI-Linetype-2
 62
   154
420
    23468
370
    25
100
AcDb2dPolyline
 66
     1
 10
0.0
 20
0.0
 30
0.0
  0
VERTEX
  5
153
330
152
100
AcDbEntity
  8
_U+30EC_U+30A4_U+30E4_U+30FC 1
  6
AI-Linetype-2
 62
   154
420
    23468
370
    25
100
AcDbVertex
100
AcDb2dVertex
 10
87.50853637858235
 20
-145.2652105192394
 30
0.0
  0
VERTEX
  5
154
330
152
100
AcDbEntity
  8
_U+30EC_U+30A4_U+30E4_U+30FC 1
  6
AI-Linetype-2
 62
   154
420
    23468
370
    25
100
AcDbVertex
100
AcDb2dVertex
 10
93.0084499767478
 20
-145.2652105192394
 30
0.0
  0
VERTEX
  5
155
330
152
100
AcDbEntity
  8
_U+30EC_U+30A4_U+30E4_U+30FC 1
  6
AI-Linetype-2
 62
   154
420
    23468
370
    25
100
AcDbVertex
100
AcDb2dVertex
 10
93.0084499767478
 20
-152.7651955173644
 30
0.0
  0
SEQEND
  5
157
330
152
100
AcDbEntity
  8
_U+30EC_U+30A4_U+30E4_U+30FC 1
  6
AI-Linetype-2
 62
   154
420
    23468
370
    25
  0
ENDSEC
  0
SECTION
  2
OBJECTS
  0
DICTIONARY
  5
C
330
0
100
AcDbDictionary
281
     1
  3
ACAD_GROUP
350
D
  3
ACAD_LAYOUT
350
1A
  3
ACAD_MATERIAL
350
3B
  3
ACAD_MLEADERSTYLE
350
159
  3
ACAD_MLINESTYLE
350
17
  3
ACAD_PLOTSETTINGS
350
19
  3
ACAD_PLOTSTYLENAME
350
E
  3
ACAD_TABLESTYLE
350
158
  3
ACAD_VISUALSTYLE
350
2A
  0
SUN
  5
3F
330
29
100
AcDbSun
 90
        1
290
     0
 63
     7
421
 16777215
 40
1.0
291
     1
 91
  2455826
 92
 54000000
292
     0
 70
     2
 71
   256
280
     1
  0
DICTIONARY
  5
D
102
{ACAD_REACTORS
330
C
102
}
330
C
100
AcDbDictionary
281
     1
  0
DICTIONARY
  5
1A
102
{ACAD_REACTORS
330
C
102
}
330
C
100
AcDbDictionary
281
     1
  3
Layout1
350
1E
  3
Layout2
350
26
  3
Model
350
22
  0
DICTIONARY
  5
3B
102
{ACAD_REACTORS
330
C
102
}
330
C
100
AcDbDictionary
281
     1
  3
ByBlock
350
3D
  3
ByLayer
350
3C
  3
Global
350
3E
  0
DICTIONARY
  5
159
102
{ACAD_REACTORS
330
C
102
}
330
C
100
AcDbDictionary
281
     1
  0
DICTIONARY
  5
17
102
{ACAD_REACTORS
330
C
102
}
330
C
100
AcDbDictionary
281
     1
  3
Standard
350
18
  0
DICTIONARY
  5
19
102
{ACAD_REACTORS
330
C
102
}
330
C
100
AcDbDictionary
281
     1
  0
ACDBDICTIONARYWDFLT
  5
E
102
{ACAD_REACTORS
330
C
102
}
330
C
100
AcDbDictionary
281
     1
  3
Normal
350
F
100
AcDbDictionaryWithDefault
340
F
  0
DICTIONARY
  5
158
102
{ACAD_REACTORS
330
C
102
}
330
C
100
AcDbDictionary
281
     1
  0
DICTIONARY
  5
2A
102
{ACAD_REACTORS
330
C
102
}
330
C
100
AcDbDictionary
281
     1
  3
2dWireframe
350
2F
  3
3D Hidden
350
31
  3
3dWireframe
350
30
  3
Basic
350
32
  3
Brighten
350
36
  3
ColorChange
350
3A
  3
Conceptual
350
34
  3
Dim
350
35
  3
Facepattern
350
39
  3
Flat
350
2B
  3
FlatWithEdges
350
2C
  3
Gouraud
350
2D
  3
GouraudWithEdges
350
2E
  3
Linepattern
350
38
  3
Realistic
350
33
  3
Thicken
350
37
  0
LAYOUT
  5
1E
102
{ACAD_REACTORS
330
1A
102
}
330
1A
100
AcDbPlotSettings
  1

  2
none_device
  4

  6

 40
0.0
 41
0.0
 42
0.0
 43
0.0
 44
0.0
 45
0.0
 46
0.0
 47
0.0
 48
0.0
 49
0.0
140
0.0
141
0.0
142
1.0
143
1.0
 70
   688
 72
     0
 73
     0
 74
     5
  7

 75
    16
 76
     0
 77
     2
 78
   300
147
1.0
148
0.0
149
0.0
100
AcDbLayout
  1
Layout1
 70
     1
 71
     1
 10
0.0
 20
0.0
 11
12.0
 21
9.0
 12
0.0
 22
0.0
 32
0.0
 14
1.000000000000000E+20
 24
1.000000000000000E+20
 34
1.000000000000000E+20
 15
-1.000000000000000E+20
 25
-1.000000000000000E+20
 35
-1.000000000000000E+20
146
0.0
 13
0.0
 23
0.0
 33
0.0
 16
1.0
 26
0.0
 36
0.0
 17
0.0
 27
1.0
 37
0.0
 76
     0
330
1B
  0
LAYOUT
  5
26
102
{ACAD_REACTORS
330
1A
102
}
330
1A
100
AcDbPlotSettings
  1

  2
none_device
  4

  6

 40
0.0
 41
0.0
 42
0.0
 43
0.0
 44
0.0
 45
0.0
 46
0.0
 47
0.0
 48
0.0
 49
0.0
140
0.0
141
0.0
142
1.0
143
1.0
 70
   688
 72
     0
 73
     0
 74
     5
  7

 75
    16
 76
     0
 77
     2
 78
   300
147
1.0
148
0.0
149
0.0
100
AcDbLayout
  1
Layout2
 70
     1
 71
     2
 10
0.0
 20
0.0
 11
0.0
 21
0.0
 12
0.0
 22
0.0
 32
0.0
 14
0.0
 24
0.0
 34
0.0
 15
0.0
 25
0.0
 35
0.0
146
0.0
 13
0.0
 23
0.0
 33
0.0
 16
1.0
 26
0.0
 36
0.0
 17
0.0
 27
1.0
 37
0.0
 76
     0
330
23
  0
LAYOUT
  5
22
102
{ACAD_REACTORS
330
1A
102
}
330
1A
100
AcDbPlotSettings
  1

  2
none_device
  4

  6

 40
0.0
 41
0.0
 42
0.0
 43
0.0
 44
0.0
 45
0.0
 46
0.0
 47
0.0
 48
0.0
 49
0.0
140
0.0
141
0.0
142
1.0
143
1.0
 70
  1712
 72
     0
 73
     0
 74
     0
  7

 75
     0
 76
     0
 77
     2
 78
   300
147
1.0
148
0.0
149
0.0
100
AcDbLayout
  1
Model
 70
     1
 71
     0
 10
0.0
 20
0.0
 11
12.0
 21
9.0
 12
0.0
 22
0.0
 32
0.0
 14
1.000000000000000E+20
 24
1.000000000000000E+20
 34
1.000000000000000E+20
 15
-1.000000000000000E+20
 25
-1.000000000000000E+20
 35
-1.000000000000000E+20
146
0.0
 13
0.0
 23
0.0
 33
0.0
 16
1.0
 26
0.0
 36
0.0
 17
0.0
 27
1.0
 37
0.0
 76
     0
330
1F
331
29
  0
MATERIAL
  5
3D
102
{ACAD_REACTORS
330
3B
102
}
330
3B
100
AcDbMaterial
  1
ByBlock
 72
     1
 94
      127
  0
MATERIAL
  5
3C
102
{ACAD_REACTORS
330
3B
102
}
330
3B
100
AcDbMaterial
  1
ByLayer
 72
     1
 94
      127
  0
MATERIAL
  5
3E
102
{ACAD_REACTORS
330
3B
102
}
330
3B
100
AcDbMaterial
  1
Global
 72
     1
 94
      127
  0
MLINESTYLE
  5
18
102
{ACAD_REACTORS
330
17
102
}
330
17
100
AcDbMlineStyle
  2
Standard
 70
     0
  3

 62
   256
 51
90.0
 52
90.0
 71
     2
 49
0.5
 62
   256
  6
BYLAYER
 49
-0.5
 62
   256
  6
BYLAYER
  0
ACDBPLACEHOLDER
  5
F
102
{ACAD_REACTORS
330
E
102
}
330
E
  0
VISUALSTYLE
  5
2F
102
{ACAD_REACTORS
330
2A
102
}
330
2A
100
AcDbVisualStyle
  2
2dWireframe
 70
     4
177
     2
291
     0
 71
     0
176
     1
 72
     2
176
     1
 73
     0
176
     1
 90
        0
176
     1
 40
-0.6
176
     1
 41
-30.0
176
     1
 62
     5
 63
     7
421
 16777215
176
     1
 74
     1
176
     1
 91
        4
176
     1
 64
     7
176
     1
 65
   257
176
     1
 75
     1
176
     1
175
     1
176
     1
 42
1.0
176
     1
 92
        0
176
     1
 66
   257
176
     1
 43
1.0
176
     1
 76
     1
176
     1
 77
     6
176
     1
 78
     2
176
     1
 67
     7
176
     1
 79
     5
176
     1
170
     0
176
     1
171
     0
176
     1
290
     0
176
     1
 93
        1
176
     1
 44
0.0
176
     1
173
     0
176
     1
  0
VISUALSTYLE
  5
31
102
{ACAD_REACTORS
330
2A
102
}
330
2A
100
AcDbVisualStyle
  2
3D Hidden
 70
     6
177
     2
291
     0
 71
     1
176
     1
 72
     2
176
     1
 73
     2
176
     1
 90
        0
176
     1
 40
-0.6
176
     1
 41
-30.0
176
     1
 62
     5
 63
     7
421
 16777215
176
     1
 74
     2
176
     1
 91
        2
176
     1
 64
     7
176
     1
 65
   257
176
     1
 75
     2
176
     1
175
     1
176
     1
 42
40.0
176
     1
 92
        0
176
     1
 66
   257
176
     1
 43
1.0
176
     1
 76
     1
176
     1
 77
     6
176
     1
 78
     2
176
     1
 67
     7
176
     1
 79
     3
176
     1
170
     0
176
     1
171
     0
176
     1
290
     0
176
     1
 93
        1
176
     1
 44
0.0
176
     1
173
     0
176
     1
  0
VISUALSTYLE
  5
30
102
{ACAD_REACTORS
330
2A
102
}
330
2A
100
AcDbVisualStyle
  2
3dWireframe
 70
     5
177
     2
291
     0
 71
     0
176
     1
 72
     2
176
     1
 73
     0
176
     1
 90
        0
176
     1
 40
-0.6
176
     1
 41
-30.0
176
     1
 62
     5
 63
     7
421
 16777215
176
     1
 74
     1
176
     1
 91
        4
176
     1
 64
     7
176
     1
 65
   257
176
     1
 75
     1
176
     1
175
     1
176
     1
 42
1.0
176
     1
 92
        0
176
     1
 66
   257
176
     1
 43
1.0
176
     1
 76
     1
176
     1
 77
     6
176
     1
 78
     2
176
     1
 67
     7
176
     1
 79
     5
176
     1
170
     0
176
     1
171
     0
176
     1
290
     0
176
     1
 93
        1
176
     1
 44
0.0
176
     1
173
     0
176
     1
  0
VISUALSTYLE
  5
32
102
{ACAD_REACTORS
330
2A
102
}
330
2A
100
AcDbVisualStyle
  2
Basic
 70
     7
177
     2
291
     1
 71
     1
176
     1
 72
     0
176
     1
 73
     1
176
     1
 90
        0
176
     1
 40
-0.6
176
     1
 41
-30.0
176
     1
 62
     5
 63
     7
421
 16777215
176
     1
 74
     0
176
     1
 91
        4
176
     1
 64
     7
176
     1
 65
   257
176
     1
 75
     1
176
     1
175
     1
176
     1
 42
1.0
176
     1
 92
        8
176
     1
 66
     7
176
     1
 43
1.0
176
     1
 76
     1
176
     1
 77
     6
176
     1
 78
     2
176
     1
 67
     7
176
     1
 79
     5
176
     1
170
     0
176
     1
171
     0
176
     1
290
     0
176
     1
 93
        1
176
     1
 44
0.0
176
     1
173
     0
176
     1
  0
VISUALSTYLE
  5
36
102
{ACAD_REACTORS
330
2A
102
}
330
2A
100
AcDbVisualStyle
  2
Brighten
 70
    12
177
     2
291
     1
 71
     2
176
     1
 72
     2
176
     1
 73
     0
176
     1
 90
        0
176
     1
 40
-0.6
176
     1
 41
-30.0
176
     1
 62
     5
 63
     7
421
 16777215
176
     1
 74
     1
176
     1
 91
        4
176
     1
 64
     7
176
     1
 65
   257
176
     1
 75
     1
176
     1
175
     1
176
     1
 42
1.0
176
     1
 92
        8
176
     1
 66
     7
176
     1
 43
1.0
176
     1
 76
     1
176
     1
 77
     6
176
     1
 78
     2
176
     1
 67
     7
176
     1
 79
     5
176
     1
170
     0
176
     1
171
     0
176
     1
290
     0
176
     1
 93
        1
176
     1
 44
50.0
176
     1
173
     0
176
     1
  0
VISUALSTYLE
  5
3A
102
{ACAD_REACTORS
330
2A
102
}
330
2A
100
AcDbVisualStyle
  2
ColorChange
 70
    16
177
     2
291
     1
 71
     2
176
     1
 72
     2
176
     1
 73
     3
176
     1
 90
        0
176
     1
 40
-0.6
176
     1
 41
-30.0
176
     1
 62
     5
 63
     8
421
  8421504
176
     1
 74
     1
176
     1
 91
        4
176
     1
 64
     7
176
     1
 65
   257
176
     1
 75
     1
176
     1
175
     1
176
     1
 42
1.0
176
     1
 92
        8
176
     1
 66
     8
424
  8421504
176
     1
 43
1.0
176
     1
 76
     1
176
     1
 77
     6
176
     1
 78
     2
176
     1
 67
     7
176
     1
 79
     5
176
     1
170
     0
176
     1
171
     0
176
     1
290
     0
176
     1
 93
        1
176
     1
 44
0.0
176
     1
173
     0
176
     1
  0
VISUALSTYLE
  5
34
102
{ACAD_REACTORS
330
2A
102
}
330
2A
100
AcDbVisualStyle
  2
Conceptual
 70
     9
177
     2
291
     0
 71
     3
176
     1
 72
     2
176
     1
 73
     0
176
     1
 90
        0
176
     1
 40
-0.6
176
     1
 41
-30.0
176
     1
 62
     5
 63
     7
421
 16777215
176
     1
 74
     2
176
     1
 91
        2
176
     1
 64
     7
176
     1
 65
   257
176
     1
 75
     1
176
     1
175
     1
176
     1
 42
40.0
176
     1
 92
        8
176
     1
 66
     7
176
     1
 43
1.0
176
     1
 76
     1
176
     1
 77
     6
176
     1
 78
     2
176
     1
 67
     7
176
     1
 79
     3
176
     1
170
     0
176
     1
171
     0
176
     1
290
     0
176
     1
 93
        1
176
     1
 44
0.0
176
     1
173
     0
176
     1
  0
VISUALSTYLE
  5
35
102
{ACAD_REACTORS
330
2A
102
}
330
2A
100
AcDbVisualStyle
  2
Dim
 70
    11
177
     2
291
     1
 71
     2
176
     1
 72
     2
176
     1
 73
     0
176
     1
 90
        0
176
     1
 40
-0.6
176
     1
 41
-30.0
176
     1
 62
     5
 63
     7
421
 16777215
176
     1
 74
     1
176
     1
 91
        4
176
     1
 64
     7
176
     1
 65
   257
176
     1
 75
     1
176
     1
175
     1
176
     1
 42
1.0
176
     1
 92
        8
176
     1
 66
     7
176
     1
 43
1.0
176
     1
 76
     1
176
     1
 77
     6
176
     1
 78
     2
176
     1
 67
     7
176
     1
 79
     5
176
     1
170
     0
176
     1
171
     0
176
     1
290
     0
176
     1
 93
        1
176
     1
 44
-50.0
176
     1
173
     0
176
     1
  0
VISUALSTYLE
  5
39
102
{ACAD_REACTORS
330
2A
102
}
330
2A
100
AcDbVisualStyle
  2
Facepattern
 70
    15
177
     2
291
     1
 71
     2
176
     1
 72
     2
176
     1
 73
     0
176
     1
 90
        0
176
     1
 40
-0.6
176
     1
 41
-30.0
176
     1
 62
     5
 63
     7
421
 16777215
176
     1
 74
     1
176
     1
 91
        4
176
     1
 64
     7
176
     1
 65
   257
176
     1
 75
     1
176
     1
175
     1
176
     1
 42
1.0
176
     1
 92
        8
176
     1
 66
     7
176
     1
 43
1.0
176
     1
 76
     1
176
     1
 77
     6
176
     1
 78
     2
176
     1
 67
     7
176
     1
 79
     5
176
     1
170
     0
176
     1
171
     0
176
     1
290
     0
176
     1
 93
        1
176
     1
 44
0.0
176
     1
173
     0
176
     1
  0
VISUALSTYLE
  5
2B
102
{ACAD_REACTORS
330
2A
102
}
330
2A
100
AcDbVisualStyle
  2
Flat
 70
     0
177
     2
291
     1
 71
     2
176
     1
 72
     1
176
     1
 73
     1
176
     1
 90
        2
176
     1
 40
-0.6
176
     1
 41
30.0
176
     1
 62
     5
 63
     7
421
 16777215
176
     1
 74
     0
176
     1
 91
        4
176
     1
 64
     7
176
     1
 65
   257
176
     1
 75
     1
176
     1
175
     1
176
     1
 42
1.0
176
     1
 92
        8
176
     1
 66
     7
176
     1
 43
1.0
176
     1
 76
     1
176
     1
 77
     6
176
     1
 78
     2
176
     1
 67
     7
176
     1
 79
     5
176
     1
170
     0
176
     1
171
     0
176
     1
290
     0
176
     1
 93
       13
176
     1
 44
0.0
176
     1
173
     0
176
     1
  0
VISUALSTYLE
  5
2C
102
{ACAD_REACTORS
330
2A
102
}
330
2A
100
AcDbVisualStyle
  2
FlatWithEdges
 70
     1
177
     2
291
     1
 71
     2
176
     1
 72
     1
176
     1
 73
     1
176
     1
 90
        2
176
     1
 40
-0.6
176
     1
 41
30.0
176
     1
 62
     5
 63
     7
421
 16777215
176
     1
 74
     1
176
     1
 91
        4
176
     1
 64
     7
176
     1
 65
   257
176
     1
 75
     1
176
     1
175
     1
176
     1
 42
1.0
176
     1
 92
        0
176
     1
 66
   257
176
     1
 43
1.0
176
     1
 76
     1
176
     1
 77
     6
176
     1
 78
     2
176
     1
 67
     7
176
     1
 79
     5
176
     1
170
     0
176
     1
171
     0
176
     1
290
     0
176
     1
 93
       13
176
     1
 44
0.0
176
     1
173
     0
176
     1
  0
VISUALSTYLE
  5
2D
102
{ACAD_REACTORS
330
2A
102
}
330
2A
100
AcDbVisualStyle
  2
Gouraud
 70
     2
177
     2
291
     1
 71
     2
176
     1
 72
     2
176
     1
 73
     1
176
     1
 90
        2
176
     1
 40
-0.6
176
     1
 41
30.0
176
     1
 62
     5
 63
     7
421
 16777215
176
     1
 74
     0
176
     1
 91
        4
176
     1
 64
     7
176
     1
 65
   257
176
     1
 75
     1
176
     1
175
     1
176
     1
 42
1.0
176
     1
 92
        0
176
     1
 66
     7
176
     1
 43
1.0
176
     1
 76
     1
176
     1
 77
     6
176
     1
 78
     2
176
     1
 67
     7
176
     1
 79
     5
176
     1
170
     0
176
     1
171
     0
176
     1
290
     0
176
     1
 93
       13
176
     1
 44
0.0
176
     1
173
     0
176
     1
  0
VISUALSTYLE
  5
2E
102
{ACAD_REACTORS
330
2A
102
}
330
2A
100
AcDbVisualStyle
  2
GouraudWithEdges
 70
     3
177
     2
291
     1
 71
     2
176
     1
 72
     2
176
     1
 73
     1
176
     1
 90
        2
176
     1
 40
-0.6
176
     1
 41
30.0
176
     1
 62
     5
 63
     7
421
 16777215
176
     1
 74
     1
176
     1
 91
        4
176
     1
 64
     7
176
     1
 65
   257
176
     1
 75
     1
176
     1
175
     1
176
     1
 42
1.0
176
     1
 92
        0
176
     1
 66
   257
176
     1
 43
1.0
176
     1
 76
     1
176
     1
 77
     6
176
     1
 78
     2
176
     1
 67
     7
176
     1
 79
     5
176
     1
170
     0
176
     1
171
     0
176
     1
290
     0
176
     1
 93
       13
176
     1
 44
0.0
176
     1
173
     0
176
     1
  0
VISUALSTYLE
  5
38
102
{ACAD_REACTORS
330
2A
102
}
330
2A
100
AcDbVisualStyle
  2
Linepattern
 70
    14
177
     2
291
     1
 71
     2
176
     1
 72
     2
176
     1
 73
     0
176
     1
 90
        0
176
     1
 40
-0.6
176
     1
 41
-30.0
176
     1
 62
     5
 63
     7
421
 16777215
176
     1
 74
     1
176
     1
 91
        4
176
     1
 64
     7
176
     1
 65
   257
176
     1
 75
     7
176
     1
175
     7
176
     1
 42
1.0
176
     1
 92
        8
176
     1
 66
     7
176
     1
 43
1.0
176
     1
 76
     1
176
     1
 77
     6
176
     1
 78
     2
176
     1
 67
     7
176
     1
 79
     5
176
     1
170
     0
176
     1
171
     0
176
     1
290
     0
176
     1
 93
        1
176
     1
 44
0.0
176
     1
173
     0
176
     1
  0
VISUALSTYLE
  5
33
102
{ACAD_REACTORS
330
2A
102
}
330
2A
100
AcDbVisualStyle
  2
Realistic
 70
     8
177
     2
291
     0
 71
     2
176
     1
 72
     2
176
     1
 73
     0
176
     1
 90
        0
176
     1
 40
-0.6
176
     1
 41
-30.0
176
     1
 62
     5
 63
     7
421
 16777215
176
     1
 74
     1
176
     1
 91
        0
176
     1
 64
     7
176
     1
 65
   257
176
     1
 75
     1
176
     1
175
     1
176
     1
 42
1.0
176
     1
 92
        8
176
     1
 66
     8
424
  7895160
176
     1
 43
1.0
176
     1
 76
     1
176
     1
 77
     6
176
     1
 78
     2
176
     1
 67
     7
176
     1
 79
     5
176
     1
170
     0
176
     1
171
     0
176
     1
290
     0
176
     1
 93
       13
176
     1
 44
0.0
176
     1
173
     0
176
     1
  0
VISUALSTYLE
  5
37
102
{ACAD_REACTORS
330
2A
102
}
330
2A
100
AcDbVisualStyle
  2
Thicken
 70
    13
177
     2
291
     1
 71
     2
176
     1
 72
     2
176
     1
 73
     0
176
     1
 90
        0
176
     1
 40
-0.6
176
     1
 41
-30.0
176
     1
 62
     5
 63
     7
421
 16777215
176
     1
 74
     1
176
     1
 91
        4
176
     1
 64
     7
176
     1
 65
   257
176
     1
 75
     1
176
     1
175
     1
176
     1
 42
1.0
176
     1
 92
       12
176
     1
 66
     7
176
     1
 43
1.0
176
     1
 76
     1
176
     1
 77
     6
176
     1
 78
     2
176
     1
 67
     7
176
     1
 79
     5
176
     1
170
     0
176
     1
171
     0
176
     1
290
     0
176
     1
 93
        1
176
     1
 44
0.0
176
     1
173
     0
176
     1
  0
ENDSEC
  0
EOF
