  0
SECTION
  2
HEADER
  9
$ACADVER
  1
AC1024
  9
$ACADMAINTVER
 70
     6
  9
$DWGCODEPAGE
  3
UNDEFINED
  9
$INSBASE
 10
0.0
 20
0.0
 30
0.0
  9
$EXTMIN
 10
1.000000000000000E+20
 20
1.000000000000000E+20
 30
1.000000000000000E+20
  9
$EXTMAX
 10
-1.000000000000000E+20
 20
-1.000000000000000E+20
 30
-1.000000000000000E+20
  9
$LIMMIN
 10
0.0
 20
0.0
  9
$LIMMAX
 10
12.0
 20
9.0
  9
$ORTHOMODE
 70
     0
  9
$REGENMODE
 70
     1
  9
$FILLMODE
 70
     1
  9
$QTEXTMODE
 70
     0
  9
$MIRRTEXT
 70
     1
  9
$LTSCALE
 40
1.0
  9
$ATTMODE
 70
     1
  9
$TEXTSIZE
 40
0.2
  9
$TRACEWID
 40
0.05
  9
$TEXTSTYLE
  7
Standard
  9
$CLAYER
  8
0
  9
$CELTYPE
  6
ByLayer
  9
$CECOLOR
 62
   256
  9
$CELTSCALE
 40
1.0
  9
$DISPSILH
 70
     0
  9
$DIMSCALE
 40
1.0
  9
$DIMASZ
 40
0.18
  9
$DIMEXO
 40
0.0625
  9
$DIMDLI
 40
0.38
  9
$DIMRND
 40
0.0
  9
$DIMDLE
 40
0.0
  9
$DIMEXE
 40
0.18
  9
$DIMTP
 40
0.0
  9
$DIMTM
 40
0.0
  9
$DIMTXT
 40
0.18
  9
$DIMCEN
 40
0.09
  9
$DIMTSZ
 40
0.0
  9
$DIMTOL
 70
     0
  9
$DIMLIM
 70
     0
  9
$DIMTIH
 70
     1
  9
$DIMTOH
 70
     1
  9
$DIMSE1
 70
     0
  9
$DIMSE2
 70
     0
  9
$DIMTAD
 70
     0
  9
$DIMZIN
 70
     0
  9
$DIMBLK
  1

  9
$DIMASO
 70
     1
  9
$DIMSHO
 70
     1
  9
$DIMPOST
  1

  9
$DIMAPOST
  1

  9
$DIMALT
 70
     0
  9
$DIMALTD
 70
     2
  9
$DIMALTF
 40
25.4
  9
$DIMLFAC
 40
1.0
  9
$DIMTOFL
 70
     0
  9
$DIMTVP
 40
0.0
  9
$DIMTIX
 70
     0
  9
$DIMSOXD
 70
     0
  9
$DIMSAH
 70
     0
  9
$DIMBLK1
  1

  9
$DIMBLK2
  1

  9
$DIMSTYLE
  2
Standard
  9
$DIMCLRD
 70
     0
  9
$DIMCLRE
 70
     0
  9
$DIMCLRT
 70
     0
  9
$DIMTFAC
 40
1.0
  9
$DIMGAP
 40
0.09
  9
$DIMJUST
 70
     0
  9
$DIMSD1
 70
     0
  9
$DIMSD2
 70
     0
  9
$DIMTOLJ
 70
     1
  9
$DIMTZIN
 70
     0
  9
$DIMALTZ
 70
     0
  9
$DIMALTTZ
 70
     0
  9
$DIMUPT
 70
     0
  9
$DIMDEC
 70
     4
  9
$DIMTDEC
 70
     4
  9
$DIMALTU
 70
     2
  9
$DIMALTTD
 70
     2
  9
$DIMTXSTY
  7
Standard
  9
$DIMAUNIT
 70
     0
  9
$DIMADEC
 70
     0
  9
$DIMALTRND
 40
0.0
  9
$DIMAZIN
 70
     0
  9
$DIMDSEP
 70
    46
  9
$DIMATFIT
 70
     3
  9
$DIMFRAC
 70
     0
  9
$DIMLDRBLK
  1

  9
$DIMLUNIT
 70
     2
  9
$DIMLWD
 70
    -2
  9
$DIMLWE
 70
    -2
  9
$DIMTMOVE
 70
     0
  9
$DIMFXL
 40
1.0
  9
$DIMFXLON
 70
     0
  9
$DIMJOGANG
 40
0.7853981633974483
  9
$DIMTFILL
 70
     0
  9
$DIMTFILLCLR
 70
     0
  9
$DIMARCSYM
 70
     0
  9
$DIMLTYPE
  6

  9
$DIMLTEX1
  6

  9
$DIMLTEX2
  6

  9
$DIMTXTDIRECTION
 70
     0
  9
$LUNITS
 70
     2
  9
$LUPREC
 70
     4
  9
$SKETCHINC
 40
0.1
  9
$FILLETRAD
 40
0.5
  9
$AUNITS
 70
     0
  9
$AUPREC
 70
     0
  9
$MENU
  1
.
  9
$ELEVATION
 40
0.0
  9
$PELEVATION
 40
0.0
  9
$THICKNESS
 40
0.0
  9
$LIMCHECK
 70
     0
  9
$CHAMFERA
 40
0.5
  9
$CHAMFERB
 40
0.5
  9
$CHAMFERC
 40
1.0
  9
$CHAMFERD
 40
0.0
  9
$SKPOLY
 70
     0
  9
$TDCREATE
 40
2458270.587233785
  9
$TDUCREATE
 40
2458270.212233796
  9
$TDUPDATE
 40
2458270.587233785
  9
$TDUUPDATE
 40
2458270.212233796
  9
$TDINDWG
 40
0.0000000116
  9
$TDUSRTIMER
 40
0.0000000116
  9
$USRTIMER
 70
     1
  9
$ANGBASE
 50
0.0
  9
$ANGDIR
 70
     0
  9
$PDMODE
 70
     0
  9
$PDSIZE
 40
0.0
  9
$PLINEWID
 40
0.0
  9
$SPLFRAME
 70
     0
  9
$SPLINETYPE
 70
     6
  9
$SPLINESEGS
 70
     8
  9
$HANDSEED
  5
1BE
  9
$SURFTAB1
 70
     6
  9
$SURFTAB2
 70
     6
  9
$SURFTYPE
 70
     6
  9
$SURFU
 70
     6
  9
$SURFV
 70
     6
  9
$UCSBASE
  2

  9
$UCSNAME
  2

  9
$UCSORG
 10
0.0
 20
0.0
 30
0.0
  9
$UCSXDIR
 10
1.0
 20
0.0
 30
0.0
  9
$UCSYDIR
 10
0.0
 20
1.0
 30
0.0
  9
$UCSORTHOREF
  2

  9
$UCSORTHOVIEW
 70
     0
  9
$UCSORGTOP
 10
0.0
 20
0.0
 30
0.0
  9
$UCSORGBOTTOM
 10
0.0
 20
0.0
 30
0.0
  9
$UCSORGLEFT
 10
0.0
 20
0.0
 30
0.0
  9
$UCSORGRIGHT
 10
0.0
 20
0.0
 30
0.0
  9
$UCSORGFRONT
 10
0.0
 20
0.0
 30
0.0
  9
$UCSORGBACK
 10
0.0
 20
0.0
 30
0.0
  9
$PUCSBASE
  2

  9
$PUCSNAME
  2

  9
$PUCSORG
 10
0.0
 20
0.0
 30
0.0
  9
$PUCSXDIR
 10
1.0
 20
0.0
 30
0.0
  9
$PUCSYDIR
 10
0.0
 20
1.0
 30
0.0
  9
$PUCSORTHOREF
  2

  9
$PUCSORTHOVIEW
 70
     0
  9
$PUCSORGTOP
 10
0.0
 20
0.0
 30
0.0
  9
$PUCSORGBOTTOM
 10
0.0
 20
0.0
 30
0.0
  9
$PUCSORGLEFT
 10
0.0
 20
0.0
 30
0.0
  9
$PUCSORGRIGHT
 10
0.0
 20
0.0
 30
0.0
  9
$PUCSORGFRONT
 10
0.0
 20
0.0
 30
0.0
  9
$PUCSORGBACK
 10
0.0
 20
0.0
 30
0.0
  9
$USERI1
 70
     0
  9
$USERI2
 70
     0
  9
$USERI3
 70
     0
  9
$USERI4
 70
     0
  9
$USERI5
 70
     0
  9
$USERR1
 40
0.0
  9
$USERR2
 40
0.0
  9
$USERR3
 40
0.0
  9
$USERR4
 40
0.0
  9
$USERR5
 40
0.0
  9
$WORLDVIEW
 70
     1
  9
$SHADEDGE
 70
     3
  9
$SHADEDIF
 70
    70
  9
$TILEMODE
 70
     1
  9
$MAXACTVP
 70
    64
  9
$PINSBASE
 10
0.0
 20
0.0
 30
0.0
  9
$PLIMCHECK
 70
     0
  9
$PEXTMIN
 10
1.000000000000000E+20
 20
1.000000000000000E+20
 30
1.000000000000000E+20
  9
$PEXTMAX
 10
-1.000000000000000E+20
 20
-1.000000000000000E+20
 30
-1.000000000000000E+20
  9
$PLIMMIN
 10
0.0
 20
0.0
  9
$PLIMMAX
 10
12.0
 20
9.0
  9
$UNITMODE
 70
     0
  9
$VISRETAIN
 70
     1
  9
$PLINEGEN
 70
     0
  9
$PSLTSCALE
 70
     1
  9
$TREEDEPTH
 70
  3020
  9
$CMLSTYLE
  2
Standard
  9
$CMLJUST
 70
     0
  9
$CMLSCALE
 40
1.0
  9
$PROXYGRAPHICS
 70
     1
  9
$MEASUREMENT
 70
     0
  9
$CELWEIGHT
370
    -1
  9
$ENDCAPS
280
     0
  9
$JOINSTYLE
280
     0
  9
$LWDISPLAY
290
     1
  9
$INSUNITS
 70
     1
  9
$HYPERLINKBASE
  1

  9
$STYLESHEET
  1

  9
$XEDIT
290
     1
  9
$CEPSNTYPE
380
     0
  9
$PSTYLEMODE
290
     1
  9
$FINGERPRINTGUID
  2
{7C3BF26A-ED5D-A00D-679D-7851E45B73B2}
  9
$VERSIONGUID
  2
{FAEB1C32-E019-11D5-929B-00C0DF256EC4}
  9
$EXTNAMES
290
     1
  9
$PSVPSCALE
 40
0.0
  9
$OLESTARTUP
290
     0
  9
$SORTENTS
280
   127
  9
$INDEXCTL
280
     0
  9
$HIDETEXT
280
     1
  9
$XCLIPFRAME
280
     2
  9
$HALOGAP
280
     0
  9
$OBSCOLOR
 70
   257
  9
$OBSLTYPE
280
     0
  9
$INTERSECTIONDISPLAY
280
     0
  9
$INTERSECTIONCOLOR
 70
   257
  9
$DIMASSOC
280
     2
  9
$PROJECTNAME
  1

  9
$CAMERADISPLAY
290
     0
  9
$LENSLENGTH
 40
50.0
  9
$CAMERAHEIGHT
 40
0.0
  9
$STEPSPERSEC
 40
2.0
  9
$STEPSIZE
 40
6.0
  9
$3DDWFPREC
 40
2.0
  9
$PSOLWIDTH
 40
0.25
  9
$PSOLHEIGHT
 40
4.0
  9
$LOFTANG1
 40
1.570796326794897
  9
$LOFTANG2
 40
1.570796326794897
  9
$LOFTMAG1
 40
0.0
  9
$LOFTMAG2
 40
0.0
  9
$LOFTPARAM
 70
     7
  9
$LOFTNORMALS
280
     1
  9
$LATITUDE
 40
37.795
  9
$LONGITUDE
 40
-122.394
  9
$NORTHDIRECTION
 40
0.0
  9
$TIMEZONE
 70
 -8000
  9
$LIGHTGLYPHDISPLAY
280
     1
  9
$TILEMODELIGHTSYNCH
280
     1
  9
$CMATERIAL
347
3C
  9
$SOLIDHIST
280
     1
  9
$SHOWHIST
280
     1
  9
$DWFFRAME
280
     2
  9
$DGNFRAME
280
     2
  9
$REALWORLDSCALE
290
     1
  9
$INTERFERECOLOR
 62
   256
  9
$CSHADOW
280
     0
  9
$SHADOWPLANELOCATION
 40
0.0
  0
ENDSEC
  0
SECTION
  2
CLASSES
  0
CLASS
  1
ACDBDICTIONARYWDFLT
  2
AcDbDictionaryWithDefault
  3
ObjectDBX Classes
 90
        0
 91
        4
280
     0
281
     0
  0
CLASS
  1
VISUALSTYLE
  2
AcDbVisualStyle
  3
ObjectDBX Classes
 90
     4095
 91
        4
280
     0
281
     0
  0
CLASS
  1
MATERIAL
  2
AcDbMaterial
  3
ObjectDBX Classes
 90
     1153
 91
        4
280
     0
281
     0
  0
CLASS
  1
SUN
  2
AcDbSun
  3
SCENEOE
 90
     1024
 91
        4
280
     0
281
     0
  0
ENDSEC
  0
SECTION
  2
TABLES
  0
TABLE
  2
VPORT
  5
8
330
0
100
AcDbSymbolTable
 70
     1
  0
VPORT
  5
29
330
8
100
AcDbSymbolTableRecord
100
AcDbViewportTableRecord
  2
*Active
 70
     0
 10
0.0
 20
0.0
 11
1.0
 21
1.0
 12
0.0
 22
0.0
 13
0.0
 23
0.0
 14
0.5
 24
0.5
 15
0.5
 25
0.5
 16
0.0
 26
0.0
 36
1.0
 17
105.0007777515277
 27
-148.5000416295416
 37
0.0
 40
297.0000832590831
 41
0.7070757462376333
 42
50.0
 43
0.0
 44
0.0
 50
0.0
 51
0.0
 71
     0
 72
   100
 73
     1
 74
     3
 75
     0
 76
     0
 77
     0
 78
     0
281
     0
 65
     1
110
0.0
120
0.0
130
0.0
111
1.0
121
0.0
131
0.0
112
0.0
122
1.0
132
0.0
 79
     0
146
0.0
 60
     3
 61
     5
292
     1
282
     1
141
0.0
142
0.0
 63
   250
361
3F
  0
ENDTAB
  0
TABLE
  2
LTYPE
  5
5
330
0
100
AcDbSymbolTable
 70
     1
  0
LTYPE
  5
14
330
5
100
AcDbSymbolTableRecord
100
AcDbLinetypeTableRecord
  2
ByBlock
 70
     0
  3

 72
    65
 73
     0
 40
0.0
  0
LTYPE
  5
15
330
5
100
AcDbSymbolTableRecord
100
AcDbLinetypeTableRecord
  2
ByLayer
 70
     0
  3

 72
    65
 73
     0
 40
0.0
  0
LTYPE
  5
16
330
5
100
AcDbSymbolTableRecord
100
AcDbLinetypeTableRecord
  2
Continuous
 70
     0
  3
Solid line
 72
    65
 73
     0
 40
0.0
  0
ENDTAB
  0
TABLE
  2
LAYER
  5
2
330
0
100
AcDbSymbolTable
 70
     2
  0
LAYER
  5
10
330
2
100
AcDbSymbolTableRecord
100
AcDbLayerTableRecord
  2
0
 70
     0
 62
     7
  6
Continuous
370
    -3
390
F
347
3E
  0
LAYER
  5
40
330
2
100
AcDbSymbolTableRecord
100
AcDbLayerTableRecord
  2
_U+30EC_U+30A4_U+30E4_U+30FC 1
 70
     0
 62
     7
  6
Continuous
370
    -3
390
F
347
3E
  0
ENDTAB
  0
TABLE
  2
STYLE
  5
3
330
0
100
AcDbSymbolTable
 70
     1
  0
STYLE
  5
11
330
3
100
AcDbSymbolTableRecord
100
AcDbTextStyleTableRecord
  2
Standard
 70
     0
 40
0.0
 41
1.0
 50
0.0
 71
     0
 42
0.2
  3
txt
  4

  0
ENDTAB
  0
TABLE
  2
VIEW
  5
6
330
0
100
AcDbSymbolTable
 70
     0
  0
ENDTAB
  0
TABLE
  2
UCS
  5
7
330
0
100
AcDbSymbolTable
 70
     0
  0
ENDTAB
  0
TABLE
  2
APPID
  5
9
330
0
100
AcDbSymbolTable
 70
     1
  0
APPID
  5
12
330
9
100
AcDbSymbolTableRecord
100
AcDbRegAppTableRecord
  2
ACAD
 70
     0
  0
ENDTAB
  0
TABLE
  2
DIMSTYLE
  5
A
330
0
100
AcDbSymbolTable
 70
     1
100
AcDbDimStyleTable
  0
DIMSTYLE
105
27
330
A
100
AcDbSymbolTableRecord
100
AcDbDimStyleTableRecord
  2
Standard
 70
     0
178
     0
340
11
  0
ENDTAB
  0
TABLE
  2
BLOCK_RECORD
  5
1
330
0
100
AcDbSymbolTable
 70
     7
  0
BLOCK_RECORD
  5
1F
330
1
100
AcDbSymbolTableRecord
100
AcDbBlockTableRecord
  2
*Model_Space
340
22
 70
     0
280
     1
281
     0
  0
BLOCK_RECORD
  5
1B
330
1
100
AcDbSymbolTableRecord
100
AcDbBlockTableRecord
  2
*Paper_Space
340
1E
 70
     0
280
     1
281
     0
  0
BLOCK_RECORD
  5
23
330
1
100
AcDbSymbolTableRecord
100
AcDbBlockTableRecord
  2
*Paper_Space0
340
26
 70
     0
280
     1
281
     0
  0
BLOCK_RECORD
  5
51
330
1
100
AcDbSymbolTableRecord
100
AcDbBlockTableRecord
  2
block 2
340
0
102
{BLKREFS
331
52
102
}
 70
     0
280
     1
281
     0
  0
BLOCK_RECORD
  5
67
330
1
100
AcDbSymbolTableRecord
100
AcDbBlockTableRecord
  2
block 3
340
0
102
{BLKREFS
331
68
102
}
 70
     0
280
     1
281
     0
  0
BLOCK_RECORD
  5
7D
330
1
100
AcDbSymbolTableRecord
100
AcDbBlockTableRecord
  2
block 4
340
0
102
{BLKREFS
331
7E
102
}
 70
     0
280
     1
281
     0
  0
BLOCK_RECORD
  5
D2
330
1
100
AcDbSymbolTableRecord
100
AcDbBlockTableRecord
  2
block 5
340
0
102
{BLKREFS
331
D3
102
}
 70
     0
280
     1
281
     0
  0
BLOCK_RECORD
  5
D8
330
1
100
AcDbSymbolTableRecord
100
AcDbBlockTableRecord
  2
block 6
340
0
102
{BLKREFS
331
D9
102
}
 70
     0
280
     1
281
     0
  0
BLOCK_RECORD
  5
179
330
1
100
AcDbSymbolTableRecord
100
AcDbBlockTableRecord
  2
block 7
340
0
102
{BLKREFS
331
17A
102
}
 70
     0
280
     1
281
     0
  0
ENDTAB
  0
ENDSEC
  0
SECTION
  2
BLOCKS
  0
BLOCK
  5
20
330
1F
100
AcDbEntity
  8
0
100
AcDbBlockBegin
  2
*Model_Space
 70
     0
 10
0.0
 20
0.0
 30
0.0
  3
*Model_Space
  1

  0
ENDBLK
  5
21
330
1F
100
AcDbEntity
  8
0
100
AcDbBlockEnd
  0
BLOCK
  5
1C
330
1B
100
AcDbEntity
 67
     1
  8
0
100
AcDbBlockBegin
  2
*Paper_Space
 70
     0
 10
0.0
 20
0.0
 30
0.0
  3
*Paper_Space
  1

  0
ENDBLK
  5
1D
330
1B
100
AcDbEntity
 67
     1
  8
0
100
AcDbBlockEnd
  0
BLOCK
  5
24
330
23
100
AcDbEntity
  8
0
100
AcDbBlockBegin
  2
*Paper_Space0
 70
     0
 10
0.0
 20
0.0
 30
0.0
  3
*Paper_Space0
  1

  0
ENDBLK
  5
25
330
23
100
AcDbEntity
  8
0
100
AcDbBlockEnd
  0
BLOCK
  5
53
330
51
100
AcDbEntity
  8
0
100
AcDbBlockBegin
  2
block 2
 70
     0
 10
0.0
 20
0.0
 30
0.0
  3
block 2
  1

  0
SPLINE
  5
55
330
51
100
AcDbEntity
  8
_U+30EC_U+30A4_U+30E4_U+30FC 1
370
     0
100
AcDbSpline
210
0.0
220
0.0
230
1.0
 70
    11
 71
     3
 72
    44
 73
    40
 74
     0
 42
0.0000000001
 43
0.0000000001
 12
1.0
 22
0.0
 32
0.0
 13
1.0
 23
0.0
 33
0.0
 40
0.0
 40
0.0
 40
0.0
 40
0.0
 40
1.0
 40
1.0
 40
1.0
 40
2.0
 40
2.0
 40
2.0
 40
3.0
 40
3.0
 40
3.0
 40
4.0
 40
4.0
 40
4.0
 40
5.0
 40
5.0
 40
5.0
 40
6.0
 40
6.0
 40
6.0
 40
7.0
 40
7.0
 40
7.0
 40
8.0
 40
8.0
 40
8.0
 40
9.0
 40
9.0
 40
9.0
 40
10.0
 40
10.0
 40
10.0
 40
11.0
 40
11.0
 40
11.0
 40
12.0
 40
12.0
 40
12.0
 40
13.0
 40
13.0
 40
13.0
 40
13.0
 10
95.40106741321571
 20
-151.1790581219275
 30
0.0
 10
95.55971406031146
 20
-151.3699164118103
 30
0.0
 10
95.63378361324433
 20
-151.4512206652622
 30
0.0
 10
95.77761634975352
 20
-151.4939398492793
 30
0.0
 10
95.77761634975352
 20
-151.4939398492793
 30
0.0
 10
95.77761634975352
 20
-150.8124999622969
 30
0.0
 10
95.77761634975352
 20
-150.8124999622969
 30
0.0
 10
95.77761634975352
 20
-150.8124999622969
 30
0.0
 10
95.98277178590014
 20
-150.8124999622969
 30
0.0
 10
95.98277178590014
 20
-150.8124999622969
 30
0.0
 10
95.98277178590014
 20
-150.8124999622969
 30
0.0
 10
95.98277178590014
 20
-151.7123589030441
 30
0.0
 10
95.98277178590014
 20
-151.7123589030441
 30
0.0
 10
95.62517087453121
 20
-151.6847981391622
 30
0.0
 10
95.54696720701604
 20
-151.6272650445585
 30
0.0
 10
95.2486219379934
 20
-151.290334706101
 30
0.0
 10
95.04983992849449
 20
-151.0660589900113
 30
0.0
 10
94.98214380220934
 20
-151.0088704049561
 30
0.0
 10
94.84468449234787
 20
-151.0088704049561
 30
0.0
 10
94.72617320765526
 20
-151.0088704049561
 30
0.0
 10
94.59491506966725
 20
-151.0715711427877
 30
0.0
 10
94.59491506966725
 20
-151.2438259170502
 30
0.0
 10
94.59491506966725
 20
-151.4718912381737
 30
0.0
 10
94.82556421240473
 20
-151.4791259386927
 30
0.0
 10
94.94200843980617
 20
-151.4829155437265
 30
0.0
 10
94.94200843980617
 20
-151.4829155437265
 30
0.0
 10
94.94200843980617
 20
-151.6792859863857
 30
0.0
 10
94.94200843980617
 20
-151.6792859863857
 30
0.0
 10
94.81505667117472
 20
-151.6717067763182
 30
0.0
 10
94.70291881312983
 20
-151.662405018508
 30
0.0
 10
94.58440752843724
 20
-151.5921250706089
 30
0.0
 10
94.42369382405033
 20
-151.4960069065704
 30
0.0
 10
94.38975963352063
 20
-151.3327093805696
 30
0.0
 10
94.38975963352063
 20
-151.2310790637547
 30
0.0
 10
94.38975963352063
 20
-150.9881998320446
 30
0.0
 10
94.57389998720723
 20
-150.8069878095205
 30
0.0
 10
94.84675154963901
 20
-150.8069878095205
 30
0.0
 10
95.07516138031107
 20
-150.8069878095205
 30
0.0
 10
95.17472463983479
 20
-150.9089626358839
 30
0.0
 10
95.40106741321571
 20
-151.1790581219275
 30
0.0
  0
HATCH
  5
56
330
51
100
AcDbEntity
  8
_U+30EC_U+30A4_U+30E4_U+30FC 1
 62
   179
420
  2234388
100
AcDbHatch
 10
0.0
 20
0.0
 30
0.0
210
0.0
220
0.0
230
1.0
  2
SOLID
 70
     1
 71
     0
 91
        1
 92
        1
 93
        1
 72
     4
 94
        3
 73
     0
 74
     1
 95
       44
 96
       40
 40
0.0
 40
0.0
 40
0.0
 40
0.0
 40
1.0
 40
1.0
 40
1.0
 40
2.0
 40
2.0
 40
2.0
 40
3.0
 40
3.0
 40
3.0
 40
4.0
 40
4.0
 40
4.0
 40
5.0
 40
5.0
 40
5.0
 40
6.0
 40
6.0
 40
6.0
 40
7.0
 40
7.0
 40
7.0
 40
8.0
 40
8.0
 40
8.0
 40
9.0
 40
9.0
 40
9.0
 40
10.0
 40
10.0
 40
10.0
 40
11.0
 40
11.0
 40
11.0
 40
12.0
 40
12.0
 40
12.0
 40
13.0
 40
13.0
 40
13.0
 40
13.0
 10
95.40106741321571
 20
-151.1790581219275
 10
95.55971406031146
 20
-151.3699164118103
 10
95.63378361324433
 20
-151.4512206652622
 10
95.77761634975352
 20
-151.4939398492793
 10
95.77761634975352
 20
-151.4939398492793
 10
95.77761634975352
 20
-150.8124999622969
 10
95.77761634975352
 20
-150.8124999622969
 10
95.77761634975352
 20
-150.8124999622969
 10
95.98277178590014
 20
-150.8124999622969
 10
95.98277178590014
 20
-150.8124999622969
 10
95.98277178590014
 20
-150.8124999622969
 10
95.98277178590014
 20
-151.7123589030441
 10
95.98277178590014
 20
-151.7123589030441
 10
95.62517087453121
 20
-151.6847981391622
 10
95.54696720701604
 20
-151.6272650445585
 10
95.2486219379934
 20
-151.290334706101
 10
95.04983992849449
 20
-151.0660589900113
 10
94.98214380220934
 20
-151.0088704049561
 10
94.84468449234787
 20
-151.0088704049561
 10
94.72617320765526
 20
-151.0088704049561
 10
94.59491506966725
 20
-151.0715711427877
 10
94.59491506966725
 20
-151.2438259170502
 10
94.59491506966725
 20
-151.4718912381737
 10
94.82556421240473
 20
-151.4791259386927
 10
94.94200843980617
 20
-151.4829155437265
 10
94.94200843980617
 20
-151.4829155437265
 10
94.94200843980617
 20
-151.6792859863857
 10
94.94200843980617
 20
-151.6792859863857
 10
94.81505667117472
 20
-151.6717067763182
 10
94.70291881312983
 20
-151.662405018508
 10
94.58440752843724
 20
-151.5921250706089
 10
94.42369382405033
 20
-151.4960069065704
 10
94.38975963352063
 20
-151.3327093805696
 10
94.38975963352063
 20
-151.2310790637547
 10
94.38975963352063
 20
-150.9881998320446
 10
94.57389998720723
 20
-150.8069878095205
 10
94.84675154963901
 20
-150.8069878095205
 10
95.07516138031107
 20
-150.8069878095205
 10
95.17472463983479
 20
-150.9089626358839
 10
95.40106741321571
 20
-151.1790581219275
 97
        0
 97
        0
 75
     2
 76
     1
 98
        0
  0
SPLINE
  5
57
330
51
100
AcDbEntity
  8
_U+30EC_U+30A4_U+30E4_U+30FC 1
370
     0
100
AcDbSpline
210
0.0
220
0.0
230
1.0
 70
    11
 71
     3
 72
    53
 73
    49
 74
     0
 42
0.0000000001
 43
0.0000000001
 12
1.0
 22
0.0
 32
0.0
 13
1.0
 23
0.0
 33
0.0
 40
0.0
 40
0.0
 40
0.0
 40
0.0
 40
1.0
 40
1.0
 40
1.0
 40
2.0
 40
2.0
 40
2.0
 40
3.0
 40
3.0
 40
3.0
 40
4.0
 40
4.0
 40
4.0
 40
5.0
 40
5.0
 40
5.0
 40
6.0
 40
6.0
 40
6.0
 40
7.0
 40
7.0
 40
7.0
 40
8.0
 40
8.0
 40
8.0
 40
9.0
 40
9.0
 40
9.0
 40
10.0
 40
10.0
 40
10.0
 40
11.0
 40
11.0
 40
11.0
 40
12.0
 40
12.0
 40
12.0
 40
13.0
 40
13.0
 40
13.0
 40
14.0
 40
14.0
 40
14.0
 40
15.0
 40
15.0
 40
15.0
 40
16.0
 40
16.0
 40
16.0
 40
16.0
 10
96.03358694430759
 20
-150.2464707740703
 30
0.0
 10
96.03358694430759
 20
-150.3150281742268
 30
0.0
 10
96.01670597642986
 20
-150.4039116377463
 30
0.0
 10
95.95314396472699
 20
-150.4927951012657
 30
0.0
 10
95.84307316397326
 20
-150.6447238121652
 30
0.0
 10
95.7119872807595
 20
-150.662982818237
 30
0.0
 10
95.60415579207118
 20
-150.6798637861148
 30
0.0
 10
95.60415579207118
 20
-150.6798637861148
 30
0.0
 10
95.60415579207118
 20
-150.4852158911982
 30
0.0
 10
95.60415579207118
 20
-150.4852158911982
 30
0.0
 10
95.80293780157011
 20
-150.4373290639532
 30
0.0
 10
95.83256562274325
 20
-150.3260524797796
 30
0.0
 10
95.83256562274325
 20
-150.2447482263277
 30
0.0
 10
95.83256562274325
 20
-150.1224473366013
 30
0.0
 10
95.7331746179938
 20
-149.9891221413222
 30
0.0
 10
95.50045841796516
 20
-149.9891221413222
 30
0.0
 10
95.2444878234111
 20
-149.9891221413222
 30
0.0
 10
95.17472463983479
 20
-150.1465630049981
 30
0.0
 10
95.17472463983479
 20
-150.2519829268467
 30
0.0
 10
95.17472463983479
 20
-150.2798882002773
 30
0.0
 10
95.17472463983479
 20
-150.4039116377463
 30
0.0
 10
95.3037434657574
 20
-150.4817707957129
 30
0.0
 10
95.3037434657574
 20
-150.4817707957129
 30
0.0
 10
95.28462318581427
 20
-150.635422054355
 30
0.0
 10
95.28462318581427
 20
-150.635422054355
 30
0.0
 10
95.28462318581427
 20
-150.635422054355
 30
0.0
 10
94.4385077346369
 20
-150.5300021325064
 30
0.0
 10
94.4385077346369
 20
-150.5300021325064
 30
0.0
 10
94.4385077346369
 20
-150.5300021325064
 30
0.0
 10
94.4385077346369
 20
-149.848562245524
 30
0.0
 10
94.4385077346369
 20
-149.848562245524
 30
0.0
 10
94.4385077346369
 20
-149.848562245524
 30
0.0
 10
94.63315562955353
 20
-149.848562245524
 30
0.0
 10
94.63315562955353
 20
-149.848562245524
 30
0.0
 10
94.63315562955353
 20
-149.848562245524
 30
0.0
 10
94.63315562955353
 20
-150.3873751794171
 30
0.0
 10
94.63315562955353
 20
-150.3873751794171
 30
0.0
 10
94.63315562955353
 20
-150.3873751794171
 30
0.0
 10
95.0562133551422
 20
-150.4445637644722
 30
0.0
 10
95.0562133551422
 20
-150.4445637644722
 30
0.0
 10
95.02227916461248
 20
-150.3908202749023
 30
0.0
 10
94.98214380220934
 20
-150.3188177792606
 30
0.0
 10
94.98214380220934
 20
-150.2151204051546
 30
0.0
 10
94.98214380220934
 20
-149.992911746356
 30
0.0
 10
95.16835121318708
 20
-149.7855169981439
 30
0.0
 10
95.48133813802202
 20
-149.7855169981439
 30
0.0
 10
95.79880368698781
 20
-149.7855169981439
 30
0.0
 10
96.03358694430759
 20
-149.9815429312546
 30
0.0
 10
96.03358694430759
 20
-150.2464707740703
 30
0.0
  0
HATCH
  5
58
330
51
100
AcDbEntity
  8
_U+30EC_U+30A4_U+30E4_U+30FC 1
 62
   179
420
  2234388
100
AcDbHatch
 10
0.0
 20
0.0
 30
0.0
210
0.0
220
0.0
230
1.0
  2
SOLID
 70
     1
 71
     0
 91
        1
 92
        1
 93
        1
 72
     4
 94
        3
 73
     0
 74
     1
 95
       53
 96
       49
 40
0.0
 40
0.0
 40
0.0
 40
0.0
 40
1.0
 40
1.0
 40
1.0
 40
2.0
 40
2.0
 40
2.0
 40
3.0
 40
3.0
 40
3.0
 40
4.0
 40
4.0
 40
4.0
 40
5.0
 40
5.0
 40
5.0
 40
6.0
 40
6.0
 40
6.0
 40
7.0
 40
7.0
 40
7.0
 40
8.0
 40
8.0
 40
8.0
 40
9.0
 40
9.0
 40
9.0
 40
10.0
 40
10.0
 40
10.0
 40
11.0
 40
11.0
 40
11.0
 40
12.0
 40
12.0
 40
12.0
 40
13.0
 40
13.0
 40
13.0
 40
14.0
 40
14.0
 40
14.0
 40
15.0
 40
15.0
 40
15.0
 40
16.0
 40
16.0
 40
16.0
 40
16.0
 10
96.03358694430759
 20
-150.2464707740703
 10
96.03358694430759
 20
-150.3150281742268
 10
96.01670597642986
 20
-150.4039116377463
 10
95.95314396472699
 20
-150.4927951012657
 10
95.84307316397326
 20
-150.6447238121652
 10
95.7119872807595
 20
-150.662982818237
 10
95.60415579207118
 20
-150.6798637861148
 10
95.60415579207118
 20
-150.6798637861148
 10
95.60415579207118
 20
-150.4852158911982
 10
95.60415579207118
 20
-150.4852158911982
 10
95.80293780157011
 20
-150.4373290639532
 10
95.83256562274325
 20
-150.3260524797796
 10
95.83256562274325
 20
-150.2447482263277
 10
95.83256562274325
 20
-150.1224473366013
 10
95.7331746179938
 20
-149.9891221413222
 10
95.50045841796516
 20
-149.9891221413222
 10
95.2444878234111
 20
-149.9891221413222
 10
95.17472463983479
 20
-150.1465630049981
 10
95.17472463983479
 20
-150.2519829268467
 10
95.17472463983479
 20
-150.2798882002773
 10
95.17472463983479
 20
-150.4039116377463
 10
95.3037434657574
 20
-150.4817707957129
 10
95.3037434657574
 20
-150.4817707957129
 10
95.28462318581427
 20
-150.635422054355
 10
95.28462318581427
 20
-150.635422054355
 10
95.28462318581427
 20
-150.635422054355
 10
94.4385077346369
 20
-150.5300021325064
 10
94.4385077346369
 20
-150.5300021325064
 10
94.4385077346369
 20
-150.5300021325064
 10
94.4385077346369
 20
-149.848562245524
 10
94.4385077346369
 20
-149.848562245524
 10
94.4385077346369
 20
-149.848562245524
 10
94.63315562955353
 20
-149.848562245524
 10
94.63315562955353
 20
-149.848562245524
 10
94.63315562955353
 20
-149.848562245524
 10
94.63315562955353
 20
-150.3873751794171
 10
94.63315562955353
 20
-150.3873751794171
 10
94.63315562955353
 20
-150.3873751794171
 10
95.0562133551422
 20
-150.4445637644722
 10
95.0562133551422
 20
-150.4445637644722
 10
95.02227916461248
 20
-150.3908202749023
 10
94.98214380220934
 20
-150.3188177792606
 10
94.98214380220934
 20
-150.2151204051546
 10
94.98214380220934
 20
-149.992911746356
 10
95.16835121318708
 20
-149.7855169981439
 10
95.48133813802202
 20
-149.7855169981439
 10
95.79880368698781
 20
-149.7855169981439
 10
96.03358694430759
 20
-149.9815429312546
 10
96.03358694430759
 20
-150.2464707740703
 97
        0
 97
        0
 75
     2
 76
     1
 98
        0
  0
ENDBLK
  5
54
330
51
100
AcDbEntity
  8
0
100
AcDbBlockEnd
  0
BLOCK
  5
69
330
67
100
AcDbEntity
  8
0
100
AcDbBlockBegin
  2
block 3
 70
     0
 10
0.0
 20
0.0
 30
0.0
  3
block 3
  1

  0
SPLINE
  5
6B
330
67
100
AcDbEntity
  8
_U+30EC_U+30A4_U+30E4_U+30FC 1
370
     0
100
AcDbSpline
210
0.0
220
0.0
230
1.0
 70
    11
 71
     3
 72
    26
 73
    22
 74
     0
 42
0.0000000001
 43
0.0000000001
 12
1.0
 22
0.0
 32
0.0
 13
1.0
 23
0.0
 33
0.0
 40
0.0
 40
0.0
 40
0.0
 40
0.0
 40
1.0
 40
1.0
 40
1.0
 40
2.0
 40
2.0
 40
2.0
 40
3.0
 40
3.0
 40
3.0
 40
4.0
 40
4.0
 40
4.0
 40
5.0
 40
5.0
 40
5.0
 40
6.0
 40
6.0
 40
6.0
 40
7.0
 40
7.0
 40
7.0
 40
7.0
 10
112.1681748851524
 20
-144.8295748878378
 30
0.0
 10
112.1681748851524
 20
-144.8295748878378
 30
0.0
 10
111.0636772725813
 20
-144.8295748878378
 30
0.0
 10
111.0636772725813
 20
-144.8295748878378
 30
0.0
 10
111.0636772725813
 20
-144.8295748878378
 30
0.0
 10
111.0636772725813
 20
-145.1596150353247
 30
0.0
 10
111.0636772725813
 20
-145.1596150353247
 30
0.0
 10
111.0636772725813
 20
-145.1596150353247
 30
0.0
 10
110.9155381667156
 20
-145.1596150353247
 30
0.0
 10
110.9155381667156
 20
-145.1596150353247
 30
0.0
 10
110.9010687656775
 20
-144.8275078305466
 30
0.0
 10
110.7377712396767
 20
-144.7809990414957
 30
0.0
 10
110.6237385791149
 20
-144.7513712203226
 30
0.0
 10
110.6237385791149
 20
-144.7513712203226
 30
0.0
 10
110.6237385791149
 20
-144.605299171748
 30
0.0
 10
110.6237385791149
 20
-144.605299171748
 30
0.0
 10
110.6237385791149
 20
-144.605299171748
 30
0.0
 10
112.1681748851524
 20
-144.605299171748
 30
0.0
 10
112.1681748851524
 20
-144.605299171748
 30
0.0
 10
112.1681748851524
 20
-144.605299171748
 30
0.0
 10
112.1681748851524
 20
-144.8295748878378
 30
0.0
 10
112.1681748851524
 20
-144.8295748878378
 30
0.0
  0
HATCH
  5
6C
330
67
100
AcDbEntity
  8
_U+30EC_U+30A4_U+30E4_U+30FC 1
 62
   179
420
  2234388
100
AcDbHatch
 10
0.0
 20
0.0
 30
0.0
210
0.0
220
0.0
230
1.0
  2
SOLID
 70
     1
 71
     0
 91
        1
 92
        1
 93
        1
 72
     4
 94
        3
 73
     0
 74
     1
 95
       26
 96
       22
 40
0.0
 40
0.0
 40
0.0
 40
0.0
 40
1.0
 40
1.0
 40
1.0
 40
2.0
 40
2.0
 40
2.0
 40
3.0
 40
3.0
 40
3.0
 40
4.0
 40
4.0
 40
4.0
 40
5.0
 40
5.0
 40
5.0
 40
6.0
 40
6.0
 40
6.0
 40
7.0
 40
7.0
 40
7.0
 40
7.0
 10
112.1681748851524
 20
-144.8295748878378
 10
112.1681748851524
 20
-144.8295748878378
 10
111.0636772725813
 20
-144.8295748878378
 10
111.0636772725813
 20
-144.8295748878378
 10
111.0636772725813
 20
-144.8295748878378
 10
111.0636772725813
 20
-145.1596150353247
 10
111.0636772725813
 20
-145.1596150353247
 10
111.0636772725813
 20
-145.1596150353247
 10
110.9155381667156
 20
-145.1596150353247
 10
110.9155381667156
 20
-145.1596150353247
 10
110.9010687656775
 20
-144.8275078305466
 10
110.7377712396767
 20
-144.7809990414957
 10
110.6237385791149
 20
-144.7513712203226
 10
110.6237385791149
 20
-144.7513712203226
 10
110.6237385791149
 20
-144.605299171748
 10
110.6237385791149
 20
-144.605299171748
 10
110.6237385791149
 20
-144.605299171748
 10
112.1681748851524
 20
-144.605299171748
 10
112.1681748851524
 20
-144.605299171748
 10
112.1681748851524
 20
-144.605299171748
 10
112.1681748851524
 20
-144.8295748878378
 10
112.1681748851524
 20
-144.8295748878378
 97
        0
 97
        0
 75
     2
 76
     1
 98
        0
  0
SPLINE
  5
6D
330
67
100
AcDbEntity
  8
_U+30EC_U+30A4_U+30E4_U+30FC 1
370
     0
100
AcDbSpline
210
0.0
220
0.0
230
1.0
 70
    11
 71
     3
 72
    44
 73
    40
 74
     0
 42
0.0000000001
 43
0.0000000001
 12
1.0
 22
0.0
 32
0.0
 13
1.0
 23
0.0
 33
0.0
 40
0.0
 40
0.0
 40
0.0
 40
0.0
 40
1.0
 40
1.0
 40
1.0
 40
2.0
 40
2.0
 40
2.0
 40
3.0
 40
3.0
 40
3.0
 40
4.0
 40
4.0
 40
4.0
 40
5.0
 40
5.0
 40
5.0
 40
6.0
 40
6.0
 40
6.0
 40
7.0
 40
7.0
 40
7.0
 40
8.0
 40
8.0
 40
8.0
 40
9.0
 40
9.0
 40
9.0
 40
10.0
 40
10.0
 40
10.0
 40
11.0
 40
11.0
 40
11.0
 40
12.0
 40
12.0
 40
12.0
 40
13.0
 40
13.0
 40
13.0
 40
13.0
 10
111.5862982576937
 20
-143.5109645908584
 30
0.0
 10
111.7451171595637
 20
-143.7288668803004
 30
0.0
 10
111.8188422029481
 20
-143.8220567131764
 30
0.0
 10
111.9628471942315
 20
-143.8706325595185
 30
0.0
 10
111.9628471942315
 20
-143.8706325595185
 30
0.0
 10
111.9628471942315
 20
-143.0922132346263
 30
0.0
 10
111.9628471942315
 20
-143.0922132346263
 30
0.0
 10
111.9628471942315
 20
-143.0922132346263
 30
0.0
 10
112.1681748851524
 20
-143.0922132346263
 30
0.0
 10
112.1681748851524
 20
-143.0922132346263
 30
0.0
 10
112.1681748851524
 20
-143.0922132346263
 30
0.0
 10
112.1681748851524
 20
-144.1202297274248
 30
0.0
 10
112.1681748851524
 20
-144.1202297274248
 30
0.0
 10
111.8105739737835
 20
-144.0885348489605
 30
0.0
 10
111.7320257967198
 20
-144.0229057799665
 30
0.0
 10
111.4336805276971
 20
-143.6379163594898
 30
0.0
 10
111.2352430277467
 20
-143.3819457649358
 30
0.0
 10
111.1673746466873
 20
-143.316488950716
 30
0.0
 10
111.0299153368259
 20
-143.316488950716
 30
0.0
 10
110.9114040521333
 20
-143.316488950716
 30
0.0
 10
110.7804904236938
 20
-143.3883191915835
 30
0.0
 10
110.7804904236938
 20
-143.5850341437913
 30
0.0
 10
110.7804904236938
 20
-143.8453111077019
 30
0.0
 10
111.0106228021085
 20
-143.8537515916407
 30
0.0
 10
111.1270670295099
 20
-143.8580579609973
 30
0.0
 10
111.1270670295099
 20
-143.8580579609973
 30
0.0
 10
111.1270670295099
 20
-144.0821614223128
 30
0.0
 10
111.1270670295099
 20
-144.0821614223128
 30
0.0
 10
111.0002875156527
 20
-144.0737209383739
 30
0.0
 10
110.8879774028336
 20
-144.0632133971439
 30
0.0
 10
110.769466118141
 20
-143.9827704175633
 30
0.0
 10
110.6089246685283
 20
-143.8728718715839
 30
0.0
 10
110.5751627327729
 20
-143.6866644606061
 30
0.0
 10
110.5751627327729
 20
-143.5702202332047
 30
0.0
 10
110.5751627327729
 20
-143.2930623014163
 30
0.0
 10
110.7591308316852
 20
-143.0858398079785
 30
0.0
 10
111.031982394117
 20
-143.0858398079785
 30
0.0
 10
111.2603922247891
 20
-143.0858398079785
 30
0.0
 10
111.3599554843128
 20
-143.2021117806057
 30
0.0
 10
111.5862982576937
 20
-143.5109645908584
 30
0.0
  0
HATCH
  5
6E
330
67
100
AcDbEntity
  8
_U+30EC_U+30A4_U+30E4_U+30FC 1
 62
   179
420
  2234388
100
AcDbHatch
 10
0.0
 20
0.0
 30
0.0
210
0.0
220
0.0
230
1.0
  2
SOLID
 70
     1
 71
     0
 91
        1
 92
        1
 93
        1
 72
     4
 94
        3
 73
     0
 74
     1
 95
       44
 96
       40
 40
0.0
 40
0.0
 40
0.0
 40
0.0
 40
1.0
 40
1.0
 40
1.0
 40
2.0
 40
2.0
 40
2.0
 40
3.0
 40
3.0
 40
3.0
 40
4.0
 40
4.0
 40
4.0
 40
5.0
 40
5.0
 40
5.0
 40
6.0
 40
6.0
 40
6.0
 40
7.0
 40
7.0
 40
7.0
 40
8.0
 40
8.0
 40
8.0
 40
9.0
 40
9.0
 40
9.0
 40
10.0
 40
10.0
 40
10.0
 40
11.0
 40
11.0
 40
11.0
 40
12.0
 40
12.0
 40
12.0
 40
13.0
 40
13.0
 40
13.0
 40
13.0
 10
111.5862982576937
 20
-143.5109645908584
 10
111.7451171595637
 20
-143.7288668803004
 10
111.8188422029481
 20
-143.8220567131764
 10
111.9628471942315
 20
-143.8706325595185
 10
111.9628471942315
 20
-143.8706325595185
 10
111.9628471942315
 20
-143.0922132346263
 10
111.9628471942315
 20
-143.0922132346263
 10
111.9628471942315
 20
-143.0922132346263
 10
112.1681748851524
 20
-143.0922132346263
 10
112.1681748851524
 20
-143.0922132346263
 10
112.1681748851524
 20
-143.0922132346263
 10
112.1681748851524
 20
-144.1202297274248
 10
112.1681748851524
 20
-144.1202297274248
 10
111.8105739737835
 20
-144.0885348489605
 10
111.7320257967198
 20
-144.0229057799665
 10
111.4336805276971
 20
-143.6379163594898
 10
111.2352430277467
 20
-143.3819457649358
 10
111.1673746466873
 20
-143.316488950716
 10
111.0299153368259
 20
-143.316488950716
 10
110.9114040521333
 20
-143.316488950716
 10
110.7804904236938
 20
-143.3883191915835
 10
110.7804904236938
 20
-143.5850341437913
 10
110.7804904236938
 20
-143.8453111077019
 10
111.0106228021085
 20
-143.8537515916407
 10
111.1270670295099
 20
-143.8580579609973
 10
111.1270670295099
 20
-143.8580579609973
 10
111.1270670295099
 20
-144.0821614223128
 10
111.1270670295099
 20
-144.0821614223128
 10
111.0002875156527
 20
-144.0737209383739
 10
110.8879774028336
 20
-144.0632133971439
 10
110.769466118141
 20
-143.9827704175633
 10
110.6089246685283
 20
-143.8728718715839
 10
110.5751627327729
 20
-143.6866644606061
 10
110.5751627327729
 20
-143.5702202332047
 10
110.5751627327729
 20
-143.2930623014163
 10
110.7591308316852
 20
-143.0858398079785
 10
111.031982394117
 20
-143.0858398079785
 10
111.2603922247891
 20
-143.0858398079785
 10
111.3599554843128
 20
-143.2021117806057
 10
111.5862982576937
 20
-143.5109645908584
 97
        0
 97
        0
 75
     2
 76
     1
 98
        0
  0
ENDBLK
  5
6A
330
67
100
AcDbEntity
  8
0
100
AcDbBlockEnd
  0
BLOCK
  5
7F
330
7D
100
AcDbEntity
  8
0
100
AcDbBlockBegin
  2
block 4
 70
     0
 10
0.0
 20
0.0
 30
0.0
  3
block 4
  1

  0
SPLINE
  5
81
330
7D
100
AcDbEntity
  8
_U+30EC_U+30A4_U+30E4_U+30FC 1
370
     0
100
AcDbSpline
210
0.0
220
0.0
230
1.0
 70
    11
 71
     3
 72
    29
 73
    25
 74
     0
 42
0.0000000001
 43
0.0000000001
 12
1.0
 22
0.0
 32
0.0
 13
1.0
 23
0.0
 33
0.0
 40
0.0
 40
0.0
 40
0.0
 40
0.0
 40
1.0
 40
1.0
 40
1.0
 40
2.0
 40
2.0
 40
2.0
 40
3.0
 40
3.0
 40
3.0
 40
4.0
 40
4.0
 40
4.0
 40
5.0
 40
5.0
 40
5.0
 40
6.0
 40
6.0
 40
6.0
 40
7.0
 40
7.0
 40
7.0
 40
8.0
 40
8.0
 40
8.0
 40
8.0
 10
103.3048054754759
 20
-133.7007106870609
 30
0.0
 10
103.0383273396918
 20
-133.7007106870609
 30
0.0
 10
102.7844238024289
 20
-133.5630791224252
 30
0.0
 10
102.7844238024289
 20
-133.2140909497694
 30
0.0
 10
102.7844238024289
 20
-132.9581203552153
 30
0.0
 10
102.9261894816469
 20
-132.8628634650482
 30
0.0
 10
103.0319539130441
 20
-132.8015407654107
 30
0.0
 10
102.9070692017038
 20
-132.7422851230644
 30
0.0
 10
102.8309325914798
 20
-132.6280802077284
 30
0.0
 10
102.8309325914798
 20
-132.4673665033415
 30
0.0
 10
102.8309325914798
 20
-132.1922756288443
 30
0.0
 10
103.0298868557529
 20
-132.056883376274
 30
0.0
 10
103.3048054754759
 20
-132.056883376274
 30
0.0
 10
103.588336833912
 20
-132.056883376274
 30
0.0
 10
103.778678359472
 20
-132.2007161127832
 30
0.0
 10
103.778678359472
 20
-132.4673665033415
 30
0.0
 10
103.778678359472
 20
-132.6280802077284
 30
0.0
 10
103.7004746919568
 20
-132.7422851230644
 30
0.0
 10
103.5755899806165
 20
-132.8015407654107
 30
0.0
 10
103.664473444136
 20
-132.8523559238182
 30
0.0
 10
103.8231200912317
 20
-132.9476128139853
 30
0.0
 10
103.8231200912317
 20
-133.2099568351871
 30
0.0
 10
103.8231200912317
 20
-133.5842664596595
 30
0.0
 10
103.5438951021522
 20
-133.7007106870609
 30
0.0
 10
103.3048054754759
 20
-133.7007106870609
 30
0.0
  0
SPLINE
  5
82
330
7D
100
AcDbEntity
  8
_U+30EC_U+30A4_U+30E4_U+30FC 1
370
     0
100
AcDbSpline
210
0.0
220
0.0
230
1.0
 70
    11
 71
     3
 72
    17
 73
    13
 74
     0
 42
0.0000000001
 43
0.0000000001
 12
1.0
 22
0.0
 32
0.0
 13
1.0
 23
0.0
 33
0.0
 40
0.0
 40
0.0
 40
0.0
 40
0.0
 40
1.0
 40
1.0
 40
1.0
 40
2.0
 40
2.0
 40
2.0
 40
3.0
 40
3.0
 40
3.0
 40
4.0
 40
4.0
 40
4.0
 40
4.0
 10
103.3048054754759
 20
-132.9095445088733
 30
0.0
 10
103.1609727389667
 20
-132.9095445088733
 30
0.0
 10
103.0086995185187
 20
-132.9961886603273
 30
0.0
 10
103.0086995185187
 20
-133.1992770391828
 30
0.0
 10
103.0086995185187
 20
-133.4044324753295
 30
0.0
 10
103.1356512871501
 20
-133.5060627921443
 30
0.0
 10
103.3048054754759
 20
-133.5060627921443
 30
0.0
 10
103.4910128864536
 20
-133.5060627921443
 30
0.0
 10
103.6010836872074
 20
-133.3834173928694
 30
0.0
 10
103.6010836872074
 20
-133.2056504658305
 30
0.0
 10
103.6010836872074
 20
-132.9834418070319
 30
0.0
 10
103.4381306707551
 20
-132.9095445088733
 30
0.0
 10
103.3048054754759
 20
-132.9095445088733
 30
0.0
  0
SPLINE
  5
83
330
7D
100
AcDbEntity
  8
_U+30EC_U+30A4_U+30E4_U+30FC 1
370
     0
100
AcDbSpline
210
0.0
220
0.0
230
1.0
 70
    11
 71
     3
 72
    17
 73
    13
 74
     0
 42
0.0000000001
 43
0.0000000001
 12
1.0
 22
0.0
 32
0.0
 13
1.0
 23
0.0
 33
0.0
 40
0.0
 40
0.0
 40
0.0
 40
0.0
 40
1.0
 40
1.0
 40
1.0
 40
2.0
 40
2.0
 40
2.0
 40
3.0
 40
3.0
 40
3.0
 40
4.0
 40
4.0
 40
4.0
 40
4.0
 10
103.3048054754759
 20
-132.2494642138994
 30
0.0
 10
103.1397854017324
 20
-132.2494642138994
 30
0.0
 10
103.0552083075695
 20
-132.3445488492924
 30
0.0
 10
103.0552083075695
 20
-132.4799411018627
 30
0.0
 10
103.0552083075695
 20
-132.6027587559118
 30
0.0
 10
103.1272108032113
 20
-132.7212700406044
 30
0.0
 10
103.3048054754759
 20
-132.7212700406044
 30
0.0
 10
103.4825724025148
 20
-132.7212700406044
 30
0.0
 10
103.5544026433822
 20
-132.6027587559118
 30
0.0
 10
103.5544026433822
 20
-132.4799411018627
 30
0.0
 10
103.5544026433822
 20
-132.3445488492924
 30
0.0
 10
103.4677584919282
 20
-132.2494642138994
 30
0.0
 10
103.3048054754759
 20
-132.2494642138994
 30
0.0
  0
HATCH
  5
84
330
7D
100
AcDbEntity
  8
_U+30EC_U+30A4_U+30E4_U+30FC 1
 62
   179
420
  2234388
100
AcDbHatch
 10
0.0
 20
0.0
 30
0.0
210
0.0
220
0.0
230
1.0
  2
SOLID
 70
     1
 71
     0
 91
        3
 92
        1
 93
        1
 72
     4
 94
        3
 73
     0
 74
     1
 95
       29
 96
       25
 40
0.0
 40
0.0
 40
0.0
 40
0.0
 40
1.0
 40
1.0
 40
1.0
 40
2.0
 40
2.0
 40
2.0
 40
3.0
 40
3.0
 40
3.0
 40
4.0
 40
4.0
 40
4.0
 40
5.0
 40
5.0
 40
5.0
 40
6.0
 40
6.0
 40
6.0
 40
7.0
 40
7.0
 40
7.0
 40
8.0
 40
8.0
 40
8.0
 40
8.0
 10
103.3048054754759
 20
-133.7007106870609
 10
103.0383273396918
 20
-133.7007106870609
 10
102.7844238024289
 20
-133.5630791224252
 10
102.7844238024289
 20
-133.2140909497694
 10
102.7844238024289
 20
-132.9581203552153
 10
102.9261894816469
 20
-132.8628634650482
 10
103.0319539130441
 20
-132.8015407654107
 10
102.9070692017038
 20
-132.7422851230644
 10
102.8309325914798
 20
-132.6280802077284
 10
102.8309325914798
 20
-132.4673665033415
 10
102.8309325914798
 20
-132.1922756288443
 10
103.0298868557529
 20
-132.056883376274
 10
103.3048054754759
 20
-132.056883376274
 10
103.588336833912
 20
-132.056883376274
 10
103.778678359472
 20
-132.2007161127832
 10
103.778678359472
 20
-132.4673665033415
 10
103.778678359472
 20
-132.6280802077284
 10
103.7004746919568
 20
-132.7422851230644
 10
103.5755899806165
 20
-132.8015407654107
 10
103.664473444136
 20
-132.8523559238182
 10
103.8231200912317
 20
-132.9476128139853
 10
103.8231200912317
 20
-133.2099568351871
 10
103.8231200912317
 20
-133.5842664596595
 10
103.5438951021522
 20
-133.7007106870609
 10
103.3048054754759
 20
-133.7007106870609
 97
        0
 97
        0
 92
        1
 93
        1
 72
     4
 94
        3
 73
     0
 74
     1
 95
       17
 96
       13
 40
0.0
 40
0.0
 40
0.0
 40
0.0
 40
1.0
 40
1.0
 40
1.0
 40
2.0
 40
2.0
 40
2.0
 40
3.0
 40
3.0
 40
3.0
 40
4.0
 40
4.0
 40
4.0
 40
4.0
 10
103.3048054754759
 20
-132.9095445088733
 10
103.1609727389667
 20
-132.9095445088733
 10
103.0086995185187
 20
-132.9961886603273
 10
103.0086995185187
 20
-133.1992770391828
 10
103.0086995185187
 20
-133.4044324753295
 10
103.1356512871501
 20
-133.5060627921443
 10
103.3048054754759
 20
-133.5060627921443
 10
103.4910128864536
 20
-133.5060627921443
 10
103.6010836872074
 20
-133.3834173928694
 10
103.6010836872074
 20
-133.2056504658305
 10
103.6010836872074
 20
-132.9834418070319
 10
103.4381306707551
 20
-132.9095445088733
 10
103.3048054754759
 20
-132.9095445088733
 97
        0
 97
        0
 92
        1
 93
        1
 72
     4
 94
        3
 73
     0
 74
     1
 95
       17
 96
       13
 40
0.0
 40
0.0
 40
0.0
 40
0.0
 40
1.0
 40
1.0
 40
1.0
 40
2.0
 40
2.0
 40
2.0
 40
3.0
 40
3.0
 40
3.0
 40
4.0
 40
4.0
 40
4.0
 40
4.0
 10
103.3048054754759
 20
-132.2494642138994
 10
103.1397854017324
 20
-132.2494642138994
 10
103.0552083075695
 20
-132.3445488492924
 10
103.0552083075695
 20
-132.4799411018627
 10
103.0552083075695
 20
-132.6027587559118
 10
103.1272108032113
 20
-132.7212700406044
 10
103.3048054754759
 20
-132.7212700406044
 10
103.4825724025148
 20
-132.7212700406044
 10
103.5544026433822
 20
-132.6027587559118
 10
103.5544026433822
 20
-132.4799411018627
 10
103.5544026433822
 20
-132.3445488492924
 10
103.4677584919282
 20
-132.2494642138994
 10
103.3048054754759
 20
-132.2494642138994
 97
        0
 97
        0
 75
     2
 76
     1
 98
        0
  0
ENDBLK
  5
80
330
7D
100
AcDbEntity
  8
0
100
AcDbBlockEnd
  0
BLOCK
  5
D4
330
D2
100
AcDbEntity
  8
0
100
AcDbBlockBegin
  2
block 5
 70
     0
 10
0.0
 20
0.0
 30
0.0
  3
block 5
  1

  0
SPLINE
  5
D6
330
D2
100
AcDbEntity
  8
_U+30EC_U+30A4_U+30E4_U+30FC 1
370
     0
100
AcDbSpline
210
0.0
220
0.0
230
1.0
 70
    11
 71
     3
 72
    62
 73
    58
 74
     0
 42
0.0000000001
 43
0.0000000001
 12
1.0
 22
0.0
 32
0.0
 13
1.0
 23
0.0
 33
0.0
 40
0.0
 40
0.0
 40
0.0
 40
0.0
 40
1.0
 40
1.0
 40
1.0
 40
2.0
 40
2.0
 40
2.0
 40
3.0
 40
3.0
 40
3.0
 40
4.0
 40
4.0
 40
4.0
 40
5.0
 40
5.0
 40
5.0
 40
6.0
 40
6.0
 40
6.0
 40
7.0
 40
7.0
 40
7.0
 40
8.0
 40
8.0
 40
8.0
 40
9.0
 40
9.0
 40
9.0
 40
10.0
 40
10.0
 40
10.0
 40
11.0
 40
11.0
 40
11.0
 40
12.0
 40
12.0
 40
12.0
 40
13.0
 40
13.0
 40
13.0
 40
14.0
 40
14.0
 40
14.0
 40
15.0
 40
15.0
 40
15.0
 40
16.0
 40
16.0
 40
16.0
 40
17.0
 40
17.0
 40
17.0
 40
18.0
 40
18.0
 40
18.0
 40
19.0
 40
19.0
 40
19.0
 40
19.0
 10
104.6346123327823
 20
-164.375496378177
 30
0.0
 10
104.5393554426152
 20
-164.375496378177
 30
0.0
 10
104.3214531531731
 20
-164.3541367861684
 30
0.0
 10
104.1967406966071
 20
-164.1681016299649
 30
0.0
 10
104.1226711436742
 20
-164.0557915171458
 30
0.0
 10
104.1183647743176
 20
-163.9565727671706
 30
0.0
 10
104.1142306597353
 20
-163.8718234182334
 30
0.0
 10
104.1142306597353
 20
-163.8718234182334
 30
0.0
 10
104.3342000064685
 20
-163.8718234182334
 30
0.0
 10
104.3342000064685
 20
-163.8718234182334
 30
0.0
 10
104.3362670637597
 20
-163.9458929711663
 30
0.0
 10
104.346946859764
 20
-164.1808484832603
 30
0.0
 10
104.6303059634258
 20
-164.1808484832603
 30
0.0
 10
104.7679375280615
 20
-164.1808484832603
 30
0.0
 10
104.9202107485095
 20
-164.1109130449098
 30
0.0
 10
104.9202107485095
 20
-163.8825032142377
 30
0.0
 10
104.9202107485095
 20
-163.7660589868363
 30
0.0
 10
104.8821424433975
 20
-163.7174831404942
 30
0.0
 10
104.8504475649332
 20
-163.6857882620299
 30
0.0
 10
104.7763780120004
 20
-163.6117187090971
 30
0.0
 10
104.6599337845989
 20
-163.5989718558017
 30
0.0
 10
104.6049845116092
 20
-163.5989718558017
 30
0.0
 10
104.5860364864403
 20
-163.5989718558017
 30
0.0
 10
104.5500352386194
 20
-163.6010389130928
 30
0.0
 10
104.5224744747374
 20
-163.6051730276751
 30
0.0
 10
104.5224744747374
 20
-163.6051730276751
 30
0.0
 10
104.5224744747374
 20
-163.4105251327585
 30
0.0
 10
104.5224744747374
 20
-163.4105251327585
 30
0.0
 10
104.5605427798495
 20
-163.4170708141804
 30
0.0
 10
104.602917454318
 20
-163.4191378714716
 30
0.0
 10
104.6092908809657
 20
-163.4191378714716
 30
0.0
 10
104.6747476951855
 20
-163.4191378714716
 30
0.0
 10
104.8737019594587
 20
-163.3981227890116
 30
0.0
 10
104.8737019594587
 20
-163.1611002196264
 30
0.0
 10
104.8737019594587
 20
-162.9833332925875
 30
0.0
 10
104.7424438214706
 20
-162.9282117648235
 30
0.0
 10
104.6325452754912
 20
-162.9282117648235
 30
0.0
 10
104.3681341969983
 20
-162.9282117648235
 30
0.0
 10
104.3595214582851
 20
-163.1611002196264
 30
0.0
 10
104.3553873437028
 20
-163.2331027152681
 30
0.0
 10
104.3553873437028
 20
-163.2331027152681
 30
0.0
 10
104.1522989648473
 20
-163.2331027152681
 30
0.0
 10
104.1522989648473
 20
-163.2331027152681
 30
0.0
 10
104.1607394487862
 20
-163.1080457491535
 30
0.0
 10
104.1883002126682
 20
-162.7314968126157
 30
0.0
 10
104.6451198740123
 20
-162.7314968126157
 30
0.0
 10
104.8693955901021
 20
-162.7314968126157
 30
0.0
 10
105.1105522740696
 20
-162.8586208360215
 30
0.0
 10
105.1105522740696
 20
-163.1545545382044
 30
0.0
 10
105.1105522740696
 20
-163.3409342039564
 30
0.0
 10
105.0154676386767
 20
-163.4232719860539
 30
0.0
 10
104.915904379153
 20
-163.4845946856913
 30
0.0
 10
104.9773993335647
 20
-163.5121554495734
 30
0.0
 10
105.1593003751859
 20
-163.5927706839282
 30
0.0
 10
105.1593003751859
 20
-163.8697563609423
 30
0.0
 10
105.1593003751859
 20
-164.2084092471424
 30
0.0
 10
104.9117702645707
 20
-164.375496378177
 30
0.0
 10
104.6346123327823
 20
-164.375496378177
 30
0.0
  0
HATCH
  5
D7
330
D2
100
AcDbEntity
  8
_U+30EC_U+30A4_U+30E4_U+30FC 1
 62
   179
420
  2234388
100
AcDbHatch
 10
0.0
 20
0.0
 30
0.0
210
0.0
220
0.0
230
1.0
  2
SOLID
 70
     1
 71
     0
 91
        1
 92
        1
 93
        1
 72
     4
 94
        3
 73
     0
 74
     1
 95
       62
 96
       58
 40
0.0
 40
0.0
 40
0.0
 40
0.0
 40
1.0
 40
1.0
 40
1.0
 40
2.0
 40
2.0
 40
2.0
 40
3.0
 40
3.0
 40
3.0
 40
4.0
 40
4.0
 40
4.0
 40
5.0
 40
5.0
 40
5.0
 40
6.0
 40
6.0
 40
6.0
 40
7.0
 40
7.0
 40
7.0
 40
8.0
 40
8.0
 40
8.0
 40
9.0
 40
9.0
 40
9.0
 40
10.0
 40
10.0
 40
10.0
 40
11.0
 40
11.0
 40
11.0
 40
12.0
 40
12.0
 40
12.0
 40
13.0
 40
13.0
 40
13.0
 40
14.0
 40
14.0
 40
14.0
 40
15.0
 40
15.0
 40
15.0
 40
16.0
 40
16.0
 40
16.0
 40
17.0
 40
17.0
 40
17.0
 40
18.0
 40
18.0
 40
18.0
 40
19.0
 40
19.0
 40
19.0
 40
19.0
 10
104.6346123327823
 20
-164.375496378177
 10
104.5393554426152
 20
-164.375496378177
 10
104.3214531531731
 20
-164.3541367861684
 10
104.1967406966071
 20
-164.1681016299649
 10
104.1226711436742
 20
-164.0557915171458
 10
104.1183647743176
 20
-163.9565727671706
 10
104.1142306597353
 20
-163.8718234182334
 10
104.1142306597353
 20
-163.8718234182334
 10
104.3342000064685
 20
-163.8718234182334
 10
104.3342000064685
 20
-163.8718234182334
 10
104.3362670637597
 20
-163.9458929711663
 10
104.346946859764
 20
-164.1808484832603
 10
104.6303059634258
 20
-164.1808484832603
 10
104.7679375280615
 20
-164.1808484832603
 10
104.9202107485095
 20
-164.1109130449098
 10
104.9202107485095
 20
-163.8825032142377
 10
104.9202107485095
 20
-163.7660589868363
 10
104.8821424433975
 20
-163.7174831404942
 10
104.8504475649332
 20
-163.6857882620299
 10
104.7763780120004
 20
-163.6117187090971
 10
104.6599337845989
 20
-163.5989718558017
 10
104.6049845116092
 20
-163.5989718558017
 10
104.5860364864403
 20
-163.5989718558017
 10
104.5500352386194
 20
-163.6010389130928
 10
104.5224744747374
 20
-163.6051730276751
 10
104.5224744747374
 20
-163.6051730276751
 10
104.5224744747374
 20
-163.4105251327585
 10
104.5224744747374
 20
-163.4105251327585
 10
104.5605427798495
 20
-163.4170708141804
 10
104.602917454318
 20
-163.4191378714716
 10
104.6092908809657
 20
-163.4191378714716
 10
104.6747476951855
 20
-163.4191378714716
 10
104.8737019594587
 20
-163.3981227890116
 10
104.8737019594587
 20
-163.1611002196264
 10
104.8737019594587
 20
-162.9833332925875
 10
104.7424438214706
 20
-162.9282117648235
 10
104.6325452754912
 20
-162.9282117648235
 10
104.3681341969983
 20
-162.9282117648235
 10
104.3595214582851
 20
-163.1611002196264
 10
104.3553873437028
 20
-163.2331027152681
 10
104.3553873437028
 20
-163.2331027152681
 10
104.1522989648473
 20
-163.2331027152681
 10
104.1522989648473
 20
-163.2331027152681
 10
104.1607394487862
 20
-163.1080457491535
 10
104.1883002126682
 20
-162.7314968126157
 10
104.6451198740123
 20
-162.7314968126157
 10
104.8693955901021
 20
-162.7314968126157
 10
105.1105522740696
 20
-162.8586208360215
 10
105.1105522740696
 20
-163.1545545382044
 10
105.1105522740696
 20
-163.3409342039564
 10
105.0154676386767
 20
-163.4232719860539
 10
104.915904379153
 20
-163.4845946856913
 10
104.9773993335647
 20
-163.5121554495734
 10
105.1593003751859
 20
-163.5927706839282
 10
105.1593003751859
 20
-163.8697563609423
 10
105.1593003751859
 20
-164.2084092471424
 10
104.9117702645707
 20
-164.375496378177
 10
104.6346123327823
 20
-164.375496378177
 97
        0
 97
        0
 75
     2
 76
     1
 98
        0
  0
ENDBLK
  5
D5
330
D2
100
AcDbEntity
  8
0
100
AcDbBlockEnd
  0
BLOCK
  5
DA
330
D8
100
AcDbEntity
  8
0
100
AcDbBlockBegin
  2
block 6
 70
     0
 10
0.0
 20
0.0
 30
0.0
  3
block 6
  1

  0
POLYLINE
  5
DC
330
D8
100
AcDbEntity
  8
_U+30EC_U+30A4_U+30E4_U+30FC 1
370
     0
100
AcDb2dPolyline
 66
     1
 10
0.0
 20
0.0
 30
0.0
  0
VERTEX
  5
DD
330
DC
100
AcDbEntity
  8
_U+30EC_U+30A4_U+30E4_U+30FC 1
370
     0
100
AcDbVertex
100
AcDb2dVertex
 10
105.6355848260217
 20
-153.2502495276597
 30
0.0
  0
VERTEX
  5
DE
330
DC
100
AcDbEntity
  8
_U+30EC_U+30A4_U+30E4_U+30FC 1
370
     0
100
AcDbVertex
100
AcDb2dVertex
 10
105.6355848260217
 20
-153.5971706430243
 30
0.0
  0
VERTEX
  5
DF
330
DC
100
AcDbEntity
  8
_U+30EC_U+30A4_U+30E4_U+30FC 1
370
     0
100
AcDbVertex
100
AcDb2dVertex
 10
105.4176825365796
 20
-153.5971706430243
 30
0.0
  0
VERTEX
  5
E0
330
DC
100
AcDbEntity
  8
_U+30EC_U+30A4_U+30E4_U+30FC 1
370
     0
100
AcDbVertex
100
AcDb2dVertex
 10
105.4176825365796
 20
-153.2502495276597
 30
0.0
  0
VERTEX
  5
E1
330
DC
100
AcDbEntity
  8
_U+30EC_U+30A4_U+30E4_U+30FC 1
370
     0
100
AcDbVertex
100
AcDb2dVertex
 10
104.7619086109623
 20
-153.2502495276597
 30
0.0
  0
VERTEX
  5
E2
330
DC
100
AcDbEntity
  8
_U+30EC_U+30A4_U+30E4_U+30FC 1
370
     0
100
AcDbVertex
100
AcDb2dVertex
 10
104.7619086109623
 20
-153.0259738115699
 30
0.0
  0
VERTEX
  5
E3
330
DC
100
AcDbEntity
  8
_U+30EC_U+30A4_U+30E4_U+30FC 1
370
     0
100
AcDbVertex
100
AcDb2dVertex
 10
105.440936931105
 20
-152.0530788465354
 30
0.0
  0
VERTEX
  5
E4
330
DC
100
AcDbEntity
  8
_U+30EC_U+30A4_U+30E4_U+30FC 1
370
     0
100
AcDbVertex
100
AcDb2dVertex
 10
105.6355848260217
 20
-152.0530788465354
 30
0.0
  0
VERTEX
  5
E5
330
DC
100
AcDbEntity
  8
_U+30EC_U+30A4_U+30E4_U+30FC 1
370
     0
100
AcDbVertex
100
AcDb2dVertex
 10
105.6355848260217
 20
-153.0514675181608
 30
0.0
  0
VERTEX
  5
E6
330
DC
100
AcDbEntity
  8
_U+30EC_U+30A4_U+30E4_U+30FC 1
370
     0
100
AcDbVertex
100
AcDb2dVertex
 10
105.8429795742337
 20
-153.0514675181608
 30
0.0
  0
VERTEX
  5
E7
330
DC
100
AcDbEntity
  8
_U+30EC_U+30A4_U+30E4_U+30FC 1
370
     0
100
AcDbVertex
100
AcDb2dVertex
 10
105.8429795742337
 20
-153.2502495276597
 30
0.0
  0
VERTEX
  5
E8
330
DC
100
AcDbEntity
  8
_U+30EC_U+30A4_U+30E4_U+30FC 1
370
     0
100
AcDbVertex
100
AcDb2dVertex
 10
105.6355848260217
 20
-153.2502495276597
 30
0.0
  0
SEQEND
  5
E9
330
DC
100
AcDbEntity
  8
_U+30EC_U+30A4_U+30E4_U+30FC 1
370
     0
  0
POLYLINE
  5
EA
330
D8
100
AcDbEntity
  8
_U+30EC_U+30A4_U+30E4_U+30FC 1
370
     0
100
AcDb2dPolyline
 66
     1
 10
0.0
 20
0.0
 30
0.0
  0
VERTEX
  5
EB
330
EA
100
AcDbEntity
  8
_U+30EC_U+30A4_U+30E4_U+30FC 1
370
     0
100
AcDbVertex
100
AcDb2dVertex
 10
105.4176825365796
 20
-152.3955213377692
 30
0.0
  0
VERTEX
  5
EC
330
EA
100
AcDbEntity
  8
_U+30EC_U+30A4_U+30E4_U+30FC 1
370
     0
100
AcDbVertex
100
AcDb2dVertex
 10
104.9608628752355
 20
-153.0514675181608
 30
0.0
  0
VERTEX
  5
ED
330
EA
100
AcDbEntity
  8
_U+30EC_U+30A4_U+30E4_U+30FC 1
370
     0
100
AcDbVertex
100
AcDb2dVertex
 10
105.4176825365796
 20
-153.0514675181608
 30
0.0
  0
VERTEX
  5
EE
330
EA
100
AcDbEntity
  8
_U+30EC_U+30A4_U+30E4_U+30FC 1
370
     0
100
AcDbVertex
100
AcDb2dVertex
 10
105.4176825365796
 20
-152.3955213377692
 30
0.0
  0
SEQEND
  5
EF
330
EA
100
AcDbEntity
  8
_U+30EC_U+30A4_U+30E4_U+30FC 1
370
     0
  0
HATCH
  5
F0
330
D8
100
AcDbEntity
  8
_U+30EC_U+30A4_U+30E4_U+30FC 1
 62
   179
420
  2234388
100
AcDbHatch
 10
0.0
 20
0.0
 30
0.0
210
0.0
220
0.0
230
1.0
  2
SOLID
 70
     1
 71
     0
 91
        2
 92
        1
 93
       11
 72
     1
 10
105.6355848260217
 20
-153.2502495276597
 11
105.6355848260217
 21
-153.5971706430243
 72
     1
 10
105.6355848260217
 20
-153.5971706430243
 11
105.4176825365796
 21
-153.5971706430243
 72
     1
 10
105.4176825365796
 20
-153.5971706430243
 11
105.4176825365796
 21
-153.2502495276597
 72
     1
 10
105.4176825365796
 20
-153.2502495276597
 11
104.7619086109623
 21
-153.2502495276597
 72
     1
 10
104.7619086109623
 20
-153.2502495276597
 11
104.7619086109623
 21
-153.0259738115699
 72
     1
 10
104.7619086109623
 20
-153.0259738115699
 11
105.440936931105
 21
-152.0530788465354
 72
     1
 10
105.440936931105
 20
-152.0530788465354
 11
105.6355848260217
 21
-152.0530788465354
 72
     1
 10
105.6355848260217
 20
-152.0530788465354
 11
105.6355848260217
 21
-153.0514675181608
 72
     1
 10
105.6355848260217
 20
-153.0514675181608
 11
105.8429795742337
 21
-153.0514675181608
 72
     1
 10
105.8429795742337
 20
-153.0514675181608
 11
105.8429795742337
 21
-153.2502495276597
 72
     1
 10
105.8429795742337
 20
-153.2502495276597
 11
105.6355848260217
 21
-153.2502495276597
 97
        0
 92
        1
 93
        3
 72
     1
 10
105.4176825365796
 20
-152.3955213377692
 11
104.9608628752355
 21
-153.0514675181608
 72
     1
 10
104.9608628752355
 20
-153.0514675181608
 11
105.4176825365796
 21
-153.0514675181608
 72
     1
 10
105.4176825365796
 20
-153.0514675181608
 11
105.4176825365796
 21
-152.3955213377692
 97
        0
 75
     2
 76
     1
 98
        0
  0
ENDBLK
  5
DB
330
D8
100
AcDbEntity
  8
0
100
AcDbBlockEnd
  0
BLOCK
  5
17B
330
179
100
AcDbEntity
  8
0
100
AcDbBlockBegin
  2
block 7
 70
     0
 10
0.0
 20
0.0
 30
0.0
  3
block 7
  1

  0
SPLINE
  5
17D
330
179
100
AcDbEntity
  8
_U+30EC_U+30A4_U+30E4_U+30FC 1
370
     0
100
AcDbSpline
210
0.0
220
0.0
230
1.0
 70
    11
 71
     3
 72
   197
 73
   193
 74
     0
 42
0.0000000001
 43
0.0000000001
 12
1.0
 22
0.0
 32
0.0
 13
1.0
 23
0.0
 33
0.0
 40
0.0
 40
0.0
 40
0.0
 40
0.0
 40
1.0
 40
1.0
 40
1.0
 40
2.0
 40
2.0
 40
2.0
 40
3.0
 40
3.0
 40
3.0
 40
4.0
 40
4.0
 40
4.0
 40
5.0
 40
5.0
 40
5.0
 40
6.0
 40
6.0
 40
6.0
 40
7.0
 40
7.0
 40
7.0
 40
8.0
 40
8.0
 40
8.0
 40
9.0
 40
9.0
 40
9.0
 40
10.0
 40
10.0
 40
10.0
 40
11.0
 40
11.0
 40
11.0
 40
12.0
 40
12.0
 40
12.0
 40
13.0
 40
13.0
 40
13.0
 40
14.0
 40
14.0
 40
14.0
 40
15.0
 40
15.0
 40
15.0
 40
16.0
 40
16.0
 40
16.0
 40
17.0
 40
17.0
 40
17.0
 40
18.0
 40
18.0
 40
18.0
 40
19.0
 40
19.0
 40
19.0
 40
20.0
 40
20.0
 40
20.0
 40
21.0
 40
21.0
 40
21.0
 40
22.0
 40
22.0
 40
22.0
 40
23.0
 40
23.0
 40
23.0
 40
24.0
 40
24.0
 40
24.0
 40
25.0
 40
25.0
 40
25.0
 40
26.0
 40
26.0
 40
26.0
 40
27.0
 40
27.0
 40
27.0
 40
28.0
 40
28.0
 40
28.0
 40
29.0
 40
29.0
 40
29.0
 40
30.0
 40
30.0
 40
30.0
 40
31.0
 40
31.0
 40
31.0
 40
32.0
 40
32.0
 40
32.0
 40
33.0
 40
33.0
 40
33.0
 40
34.0
 40
34.0
 40
34.0
 40
35.0
 40
35.0
 40
35.0
 40
36.0
 40
36.0
 40
36.0
 40
37.0
 40
37.0
 40
37.0
 40
38.0
 40
38.0
 40
38.0
 40
39.0
 40
39.0
 40
39.0
 40
40.0
 40
40.0
 40
40.0
 40
41.0
 40
41.0
 40
41.0
 40
42.0
 40
42.0
 40
42.0
 40
43.0
 40
43.0
 40
43.0
 40
44.0
 40
44.0
 40
44.0
 40
45.0
 40
45.0
 40
45.0
 40
46.0
 40
46.0
 40
46.0
 40
47.0
 40
47.0
 40
47.0
 40
48.0
 40
48.0
 40
48.0
 40
49.0
 40
49.0
 40
49.0
 40
50.0
 40
50.0
 40
50.0
 40
51.0
 40
51.0
 40
51.0
 40
52.0
 40
52.0
 40
52.0
 40
53.0
 40
53.0
 40
53.0
 40
54.0
 40
54.0
 40
54.0
 40
55.0
 40
55.0
 40
55.0
 40
56.0
 40
56.0
 40
56.0
 40
57.0
 40
57.0
 40
57.0
 40
58.0
 40
58.0
 40
58.0
 40
59.0
 40
59.0
 40
59.0
 40
60.0
 40
60.0
 40
60.0
 40
61.0
 40
61.0
 40
61.0
 40
62.0
 40
62.0
 40
62.0
 40
63.0
 40
63.0
 40
63.0
 40
64.0
 40
64.0
 40
64.0
 40
64.0
 10
112.7869140343033
 20
-134.3428764855115
 30
0.0
 10
112.776234238299
 20
-134.3723320519104
 30
0.0
 10
112.7531520985478
 20
-134.4190130957355
 30
0.0
 10
112.742127792995
 20
-134.4464016048433
 30
0.0
 10
112.742127792995
 20
-134.4464016048433
 30
0.0
 10
112.6808050933576
 20
-134.5988470800656
 30
0.0
 10
112.6808050933576
 20
-134.5988470800656
 30
0.0
 10
112.6704698069018
 20
-134.6241685318822
 30
0.0
 10
112.6215494510113
 20
-134.7363063899271
 30
0.0
 10
112.6091471072644
 20
-134.7595607844525
 30
0.0
 10
112.6070800499732
 20
-134.7659342111002
 30
0.0
 10
112.6029459353909
 20
-134.7743746950391
 30
0.0
 10
112.6005343685513
 20
-134.7807481216868
 30
0.0
 10
112.6005343685513
 20
-134.7807481216868
 30
0.0
 10
112.3914170725966
 20
-134.7278659059882
 30
0.0
 10
112.3914170725966
 20
-134.7278659059882
 30
0.0
 10
112.4692762305632
 20
-134.6177951052344
 30
0.0
 10
112.5305989302007
 20
-134.4824028526641
 30
0.0
 10
112.562293808665
 20
-134.3723320519104
 30
0.0
 10
112.562293808665
 20
-134.3723320519104
 30
0.0
 10
112.0972059181563
 20
-134.3723320519104
 30
0.0
 10
112.0972059181563
 20
-134.3723320519104
 30
0.0
 10
112.0165906838014
 20
-134.5373521256539
 30
0.0
 10
111.9490668122905
 20
-134.6157280479433
 30
0.0
 10
111.9153048765351
 20
-134.6558634103465
 30
0.0
 10
111.9153048765351
 20
-134.6558634103465
 30
0.0
 10
111.7926594772602
 20
-134.5902343413524
 30
0.0
 10
111.7926594772602
 20
-134.5902343413524
 30
0.0
 10
111.7926594772602
 20
-134.5902343413524
 30
0.0
 10
111.7926594772602
 20
-134.7616278417436
 30
0.0
 10
111.7926594772602
 20
-134.7616278417436
 30
0.0
 10
111.7926594772602
 20
-134.8696315852062
 30
0.0
 10
111.7947265345513
 20
-134.9182074315482
 30
0.0
 10
111.8050618210071
 20
-135.0239718629454
 30
0.0
 10
111.7334038349139
 20
-135.0219048056543
 30
0.0
 10
111.7120442429053
 20
-135.0219048056543
 30
0.0
 10
111.5067165519844
 20
-135.0219048056543
 30
0.0
 10
111.5067165519844
 20
-135.0219048056543
 30
0.0
 10
111.451939533769
 20
-135.0219048056543
 30
0.0
 10
111.451939533769
 20
-135.0219048056543
 30
0.0
 10
111.451939533769
 20
-135.0219048056543
 30
0.0
 10
111.451939533769
 20
-135.1572970582246
 30
0.0
 10
111.451939533769
 20
-135.1572970582246
 30
0.0
 10
111.451939533769
 20
-135.1572970582246
 30
0.0
 10
111.5239420294107
 20
-135.1572970582246
 30
0.0
 10
111.5239420294107
 20
-135.1572970582246
 30
0.0
 10
111.5893988436304
 20
-135.1572970582246
 30
0.0
 10
111.735470892205
 20
-135.152990688868
 30
0.0
 10
111.8412353236022
 20
-135.1445502049291
 30
0.0
 10
111.8412353236022
 20
-135.1445502049291
 30
0.0
 10
111.8412353236022
 20
-135.322317131968
 30
0.0
 10
111.8412353236022
 20
-135.322317131968
 30
0.0
 10
111.7437391213696
 20
-135.3159437053203
 30
0.0
 10
111.5852647290481
 20
-135.3116373359638
 30
0.0
 10
111.5239420294107
 20
-135.3116373359638
 30
0.0
 10
111.5239420294107
 20
-135.3116373359638
 30
0.0
 10
111.451939533769
 20
-135.3116373359638
 30
0.0
 10
111.451939533769
 20
-135.3116373359638
 30
0.0
 10
111.4540065910601
 20
-135.4005207994832
 30
0.0
 10
111.4584852151909
 20
-135.6396104261595
 30
0.0
 10
111.4605522724821
 20
-135.7136799790924
 30
0.0
 10
111.4605522724821
 20
-135.7136799790924
 30
0.0
 10
111.2593586961435
 20
-135.7136799790924
 30
0.0
 10
111.2593586961435
 20
-135.7136799790924
 30
0.0
 10
111.2721055494389
 20
-135.4999118042327
 30
0.0
 10
111.2721055494389
 20
-135.4702839830595
 30
0.0
 10
111.2762396640212
 20
-135.3116373359638
 30
0.0
 10
111.2762396640212
 20
-135.3116373359638
 30
0.0
 10
111.2063042256706
 20
-135.3116373359638
 30
0.0
 10
111.2063042256706
 20
-135.3116373359638
 30
0.0
 10
111.149460150164
 20
-135.3116373359638
 30
0.0
 10
110.9968424201675
 20
-135.3159437053203
 30
0.0
 10
110.8872883837365
 20
-135.322317131968
 30
0.0
 10
110.8872883837365
 20
-135.322317131968
 30
0.0
 10
110.8872883837365
 20
-135.1445502049291
 30
0.0
 10
110.8872883837365
 20
-135.1445502049291
 30
0.0
 10
110.9927083055852
 20
-135.152990688868
 30
0.0
 10
111.1367132968686
 20
-135.1572970582246
 30
0.0
 10
111.2063042256706
 20
-135.1572970582246
 30
0.0
 10
111.2063042256706
 20
-135.1572970582246
 30
0.0
 10
111.280718288152
 20
-135.1572970582246
 30
0.0
 10
111.280718288152
 20
-135.1572970582246
 30
0.0
 10
111.280718288152
 20
-135.1572970582246
 30
0.0
 10
111.280718288152
 20
-135.0219048056543
 30
0.0
 10
111.280718288152
 20
-135.0219048056543
 30
0.0
 10
111.280718288152
 20
-135.0219048056543
 30
0.0
 10
111.2359320468438
 20
-135.0219048056543
 30
0.0
 10
111.2359320468438
 20
-135.0219048056543
 30
0.0
 10
111.1601399461683
 20
-135.0219048056543
 30
0.0
 10
110.9672145989943
 20
-135.0239718629454
 30
0.0
 10
110.9334526632389
 20
-135.0239718629454
 30
0.0
 10
110.9399983446608
 20
-134.9521416220779
 30
0.0
 10
110.948611083374
 20
-134.8716986424974
 30
0.0
 10
110.948611083374
 20
-134.7511203005136
 30
0.0
 10
110.948611083374
 20
-134.7511203005136
 30
0.0
 10
110.948611083374
 20
-134.5776597428313
 30
0.0
 10
110.948611083374
 20
-134.5776597428313
 30
0.0
 10
110.948611083374
 20
-134.5056572471896
 30
0.0
 10
110.9399983446608
 20
-134.3850789052058
 30
0.0
 10
110.9334526632389
 20
-134.3048081803995
 30
0.0
 10
111.0120008403026
 20
-134.3089422949818
 30
0.0
 10
111.0498968906403
 20
-134.3110093522729
 30
0.0
 10
111.1766764044975
 20
-134.3110093522729
 30
0.0
 10
111.1766764044975
 20
-134.3110093522729
 30
0.0
 10
111.280718288152
 20
-134.3110093522729
 30
0.0
 10
111.280718288152
 20
-134.3110093522729
 30
0.0
 10
111.280718288152
 20
-134.3110093522729
 30
0.0
 10
111.280718288152
 20
-134.1651095584726
 30
0.0
 10
111.280718288152
 20
-134.1651095584726
 30
0.0
 10
111.280718288152
 20
-134.1651095584726
 30
0.0
 10
111.2021701110883
 20
-134.1651095584726
 30
0.0
 10
111.2021701110883
 20
-134.1651095584726
 30
0.0
 10
111.1470485833243
 20
-134.1651095584726
 30
0.0
 10
110.9758273377074
 20
-134.1694159278292
 30
0.0
 10
110.8914224983188
 20
-134.1756170997026
 30
0.0
 10
110.8914224983188
 20
-134.1756170997026
 30
0.0
 10
110.8914224983188
 20
-133.998022427438
 30
0.0
 10
110.8914224983188
 20
-133.998022427438
 30
0.0
 10
110.9737602804163
 20
-134.0043958540857
 30
0.0
 10
111.1367132968686
 20
-134.008529968668
 30
0.0
 10
111.2021701110883
 20
-134.008529968668
 30
0.0
 10
111.2021701110883
 20
-134.008529968668
 30
0.0
 10
111.280718288152
 20
-134.008529968668
 30
0.0
 10
111.280718288152
 20
-134.008529968668
 30
0.0
 10
111.280718288152
 20
-133.9747680329126
 30
0.0
 10
111.2762396640212
 20
-133.8202555003991
 30
0.0
 10
111.2762396640212
 20
-133.7885606219348
 30
0.0
 10
111.2762396640212
 20
-133.7885606219348
 30
0.0
 10
111.472954616229
 20
-133.8054415898125
 30
0.0
 10
111.472954616229
 20
-133.8054415898125
 30
0.0
 10
111.4901800936552
 20
-133.8075086471037
 30
0.0
 10
111.5111951761153
 20
-133.8097479591691
 30
0.0
 10
111.5111951761153
 20
-133.8307630416291
 30
0.0
 10
111.5111951761153
 20
-133.8541896909288
 30
0.0
 10
111.4901800936552
 20
-133.8626301748677
 30
0.0
 10
111.4626193297732
 20
-133.8752047733888
 30
0.0
 10
111.4626193297732
 20
-133.8963921106231
 30
0.0
 10
111.4605522724821
 20
-133.9916490007903
 30
0.0
 10
111.4605522724821
 20
-134.008529968668
 30
0.0
 10
111.4605522724821
 20
-134.008529968668
 30
0.0
 10
111.5198079148284
 20
-134.008529968668
 30
0.0
 10
111.5198079148284
 20
-134.008529968668
 30
0.0
 10
111.5873317863393
 20
-134.008529968668
 30
0.0
 10
111.7313367776227
 20
-134.0043958540857
 30
0.0
 10
111.8367566994714
 20
-133.998022427438
 30
0.0
 10
111.8367566994714
 20
-133.998022427438
 30
0.0
 10
111.8367566994714
 20
-134.1756170997026
 30
0.0
 10
111.8367566994714
 20
-134.1756170997026
 30
0.0
 10
111.7396050067873
 20
-134.1694159278292
 30
0.0
 10
111.583197671757
 20
-134.1651095584726
 30
0.0
 10
111.5198079148284
 20
-134.1651095584726
 30
0.0
 10
111.5198079148284
 20
-134.1651095584726
 30
0.0
 10
111.451939533769
 20
-134.1651095584726
 30
0.0
 10
111.451939533769
 20
-134.1651095584726
 30
0.0
 10
111.451939533769
 20
-134.1651095584726
 30
0.0
 10
111.451939533769
 20
-134.3110093522729
 30
0.0
 10
111.451939533769
 20
-134.3110093522729
 30
0.0
 10
111.451939533769
 20
-134.3110093522729
 30
0.0
 10
111.5218749721195
 20
-134.3110093522729
 30
0.0
 10
111.5218749721195
 20
-134.3110093522729
 30
0.0
 10
111.6720811352764
 20
-134.3110093522729
 30
0.0
 10
111.7437391213696
 20
-134.3068752376907
 30
0.0
 10
111.8050618210071
 20
-134.3048081803995
 30
0.0
 10
111.7967935918425
 20
-134.3998928157924
 30
0.0
 10
111.7947265345513
 20
-134.4782687380818
 30
0.0
 10
111.7926594772602
 20
-134.5163370431938
 30
0.0
 10
111.9469997549994
 20
-134.3048081803995
 30
0.0
 10
112.0527641863965
 20
-134.0572780697843
 30
0.0
 10
112.0696451542743
 20
-133.7949340485825
 30
0.0
 10
112.0696451542743
 20
-133.7949340485825
 30
0.0
 10
112.2853081316509
 20
-133.8455769522157
 30
0.0
 10
112.2853081316509
 20
-133.8455769522157
 30
0.0
 10
112.300466551786
 20
-133.8498833215723
 30
0.0
 10
112.314935952824
 20
-133.85625674822
 30
0.0
 10
112.314935952824
 20
-133.8731377160977
 30
0.0
 10
112.314935952824
 20
-133.8900186839754
 30
0.0
 10
112.3108018382417
 20
-133.8922579960408
 30
0.0
 10
112.2598144250601
 20
-133.9132730785009
 30
0.0
 10
112.2432779667309
 20
-133.9895819434991
 30
0.0
 10
112.21778426014
 20
-134.0805324643097
 30
0.0
 10
112.1688639042495
 20
-134.2074842329412
 30
0.0
 10
112.1688639042495
 20
-134.2074842329412
 30
0.0
 10
112.5075167904495
 20
-134.2074842329412
 30
0.0
 10
112.5075167904495
 20
-134.2074842329412
 30
0.0
 10
112.5457573503358
 20
-134.2074842329412
 30
0.0
 10
112.6746039214841
 20
-134.2031778635846
 30
0.0
 10
112.7235242773747
 20
-134.1968044369369
 30
0.0
 10
112.7235242773747
 20
-134.1968044369369
 30
0.0
 10
112.8165418554764
 20
-134.2665676205132
 30
0.0
 10
112.8165418554764
 20
-134.2665676205132
 30
0.0
 10
112.8079291167633
 20
-134.2877549577475
 30
0.0
 10
112.8013834353413
 20
-134.3068752376907
 30
0.0
 10
112.7869140343033
 20
-134.3428764855115
 30
0.0
  0
POLYLINE
  5
17E
330
179
100
AcDbEntity
  8
_U+30EC_U+30A4_U+30E4_U+30FC 1
370
     0
100
AcDb2dPolyline
 66
     1
 10
0.0
 20
0.0
 30
0.0
  0
VERTEX
  5
17F
330
17E
100
AcDbEntity
  8
_U+30EC_U+30A4_U+30E4_U+30FC 1
370
     0
100
AcDbVertex
100
AcDb2dVertex
 10
111.280718288152
 20
-134.4675889420776
 30
0.0
  0
VERTEX
  5
180
330
17E
100
AcDbEntity
  8
_U+30EC_U+30A4_U+30E4_U+30FC 1
370
     0
100
AcDbVertex
100
AcDb2dVertex
 10
111.121899386282
 20
-134.4675889420776
 30
0.0
  0
VERTEX
  5
181
330
17E
100
AcDbEntity
  8
_U+30EC_U+30A4_U+30E4_U+30FC 1
370
     0
100
AcDbVertex
100
AcDb2dVertex
 10
111.121899386282
 20
-134.5966077680002
 30
0.0
  0
VERTEX
  5
182
330
17E
100
AcDbEntity
  8
_U+30EC_U+30A4_U+30E4_U+30FC 1
370
     0
100
AcDbVertex
100
AcDb2dVertex
 10
111.280718288152
 20
-134.5966077680002
 30
0.0
  0
VERTEX
  5
183
330
17E
100
AcDbEntity
  8
_U+30EC_U+30A4_U+30E4_U+30FC 1
370
     0
100
AcDbVertex
100
AcDb2dVertex
 10
111.280718288152
 20
-134.4675889420776
 30
0.0
  0
SEQEND
  5
184
330
17E
100
AcDbEntity
  8
_U+30EC_U+30A4_U+30E4_U+30FC 1
370
     0
  0
POLYLINE
  5
185
330
179
100
AcDbEntity
  8
_U+30EC_U+30A4_U+30E4_U+30FC 1
370
     0
100
AcDb2dPolyline
 66
     1
 10
0.0
 20
0.0
 30
0.0
  0
VERTEX
  5
186
330
185
100
AcDbEntity
  8
_U+30EC_U+30A4_U+30E4_U+30FC 1
370
     0
100
AcDbVertex
100
AcDb2dVertex
 10
111.280718288152
 20
-134.7404405045093
 30
0.0
  0
VERTEX
  5
187
330
185
100
AcDbEntity
  8
_U+30EC_U+30A4_U+30E4_U+30FC 1
370
     0
100
AcDbVertex
100
AcDb2dVertex
 10
111.121899386282
 20
-134.7404405045093
 30
0.0
  0
VERTEX
  5
188
330
185
100
AcDbEntity
  8
_U+30EC_U+30A4_U+30E4_U+30FC 1
370
     0
100
AcDbVertex
100
AcDb2dVertex
 10
111.121899386282
 20
-134.8696315852062
 30
0.0
  0
VERTEX
  5
189
330
185
100
AcDbEntity
  8
_U+30EC_U+30A4_U+30E4_U+30FC 1
370
     0
100
AcDbVertex
100
AcDb2dVertex
 10
111.280718288152
 20
-134.8696315852062
 30
0.0
  0
VERTEX
  5
18A
330
185
100
AcDbEntity
  8
_U+30EC_U+30A4_U+30E4_U+30FC 1
370
     0
100
AcDbVertex
100
AcDb2dVertex
 10
111.280718288152
 20
-134.7404405045093
 30
0.0
  0
SEQEND
  5
18B
330
185
100
AcDbEntity
  8
_U+30EC_U+30A4_U+30E4_U+30FC 1
370
     0
  0
POLYLINE
  5
18C
330
179
100
AcDbEntity
  8
_U+30EC_U+30A4_U+30E4_U+30FC 1
370
     0
100
AcDb2dPolyline
 66
     1
 10
0.0
 20
0.0
 30
0.0
  0
VERTEX
  5
18D
330
18C
100
AcDbEntity
  8
_U+30EC_U+30A4_U+30E4_U+30FC 1
370
     0
100
AcDbVertex
100
AcDb2dVertex
 10
111.6128254929301
 20
-134.4675889420776
 30
0.0
  0
VERTEX
  5
18E
330
18C
100
AcDbEntity
  8
_U+30EC_U+30A4_U+30E4_U+30FC 1
370
     0
100
AcDbVertex
100
AcDb2dVertex
 10
111.451939533769
 20
-134.4675889420776
 30
0.0
  0
VERTEX
  5
18F
330
18C
100
AcDbEntity
  8
_U+30EC_U+30A4_U+30E4_U+30FC 1
370
     0
100
AcDbVertex
100
AcDb2dVertex
 10
111.451939533769
 20
-134.5966077680002
 30
0.0
  0
VERTEX
  5
190
330
18C
100
AcDbEntity
  8
_U+30EC_U+30A4_U+30E4_U+30FC 1
370
     0
100
AcDbVertex
100
AcDb2dVertex
 10
111.6128254929301
 20
-134.5966077680002
 30
0.0
  0
VERTEX
  5
191
330
18C
100
AcDbEntity
  8
_U+30EC_U+30A4_U+30E4_U+30FC 1
370
     0
100
AcDbVertex
100
AcDb2dVertex
 10
111.6128254929301
 20
-134.4675889420776
 30
0.0
  0
SEQEND
  5
192
330
18C
100
AcDbEntity
  8
_U+30EC_U+30A4_U+30E4_U+30FC 1
370
     0
  0
POLYLINE
  5
193
330
179
100
AcDbEntity
  8
_U+30EC_U+30A4_U+30E4_U+30FC 1
370
     0
100
AcDb2dPolyline
 66
     1
 10
0.0
 20
0.0
 30
0.0
  0
VERTEX
  5
194
330
193
100
AcDbEntity
  8
_U+30EC_U+30A4_U+30E4_U+30FC 1
370
     0
100
AcDbVertex
100
AcDb2dVertex
 10
111.6128254929301
 20
-134.7404405045093
 30
0.0
  0
VERTEX
  5
195
330
193
100
AcDbEntity
  8
_U+30EC_U+30A4_U+30E4_U+30FC 1
370
     0
100
AcDbVertex
100
AcDb2dVertex
 10
111.451939533769
 20
-134.7404405045093
 30
0.0
  0
VERTEX
  5
196
330
193
100
AcDbEntity
  8
_U+30EC_U+30A4_U+30E4_U+30FC 1
370
     0
100
AcDbVertex
100
AcDb2dVertex
 10
111.451939533769
 20
-134.8696315852062
 30
0.0
  0
VERTEX
  5
197
330
193
100
AcDbEntity
  8
_U+30EC_U+30A4_U+30E4_U+30FC 1
370
     0
100
AcDbVertex
100
AcDb2dVertex
 10
111.6128254929301
 20
-134.8696315852062
 30
0.0
  0
VERTEX
  5
198
330
193
100
AcDbEntity
  8
_U+30EC_U+30A4_U+30E4_U+30FC 1
370
     0
100
AcDbVertex
100
AcDb2dVertex
 10
111.6128254929301
 20
-134.7404405045093
 30
0.0
  0
SEQEND
  5
199
330
193
100
AcDbEntity
  8
_U+30EC_U+30A4_U+30E4_U+30FC 1
370
     0
  0
SPLINE
  5
19A
330
179
100
AcDbEntity
  8
_U+30EC_U+30A4_U+30E4_U+30FC 1
370
     0
100
AcDbSpline
210
0.0
220
0.0
230
1.0
 70
    11
 71
     3
 72
    41
 73
    37
 74
     0
 42
0.0000000001
 43
0.0000000001
 12
1.0
 22
0.0
 32
0.0
 13
1.0
 23
0.0
 33
0.0
 40
0.0
 40
0.0
 40
0.0
 40
0.0
 40
1.0
 40
1.0
 40
1.0
 40
2.0
 40
2.0
 40
2.0
 40
3.0
 40
3.0
 40
3.0
 40
4.0
 40
4.0
 40
4.0
 40
5.0
 40
5.0
 40
5.0
 40
6.0
 40
6.0
 40
6.0
 40
7.0
 40
7.0
 40
7.0
 40
8.0
 40
8.0
 40
8.0
 40
9.0
 40
9.0
 40
9.0
 40
10.0
 40
10.0
 40
10.0
 40
11.0
 40
11.0
 40
11.0
 40
12.0
 40
12.0
 40
12.0
 40
12.0
 10
112.7021646853661
 20
-135.6988660685059
 30
0.0
 10
112.4610080013986
 20
-135.5634738159355
 30
0.0
 10
112.2832410743598
 20
-135.267195604204
 30
0.0
 10
112.2432779667309
 20
-135.1381767782814
 30
0.0
 10
112.1226996247471
 20
-135.4025878567743
 30
0.0
 10
111.9594020987463
 20
-135.5803547838132
 30
0.0
 10
111.7775010571251
 20
-135.6945596991493
 30
0.0
 10
111.7775010571251
 20
-135.6945596991493
 30
0.0
 10
111.5811306144658
 20
-135.5571003892878
 30
0.0
 10
111.5811306144658
 20
-135.5571003892878
 30
0.0
 10
111.6507215432679
 20
-135.5317789374712
 30
0.0
 10
111.7967935918425
 20
-135.4702839830595
 30
0.0
 10
111.9194389911174
 20
-135.3159437053203
 30
0.0
 10
112.0441514476834
 20
-135.1593641155157
 30
0.0
 10
112.1330349112029
 20
-134.9266479154871
 30
0.0
 10
112.1330349112029
 20
-134.6665432063507
 30
0.0
 10
112.1330349112029
 20
-134.5649128895359
 30
0.0
 10
112.120632567456
 20
-134.4930826486684
 30
0.0
 10
112.1096082619032
 20
-134.4464016048433
 30
0.0
 10
112.1096082619032
 20
-134.4464016048433
 30
0.0
 10
112.314935952824
 20
-134.4675889420776
 30
0.0
 10
112.314935952824
 20
-134.4675889420776
 30
0.0
 10
112.3362955448326
 20
-134.4696559993687
 30
0.0
 10
112.3573106272926
 20
-134.4718953114341
 30
0.0
 10
112.3573106272926
 20
-134.4930826486684
 30
0.0
 10
112.3573106272926
 20
-134.5120306738373
 30
0.0
 10
112.3466308312884
 20
-134.5204711577761
 30
0.0
 10
112.3128688955329
 20
-134.5416584950104
 30
0.0
 10
112.3046006663683
 20
-134.7426798165748
 30
0.0
 10
112.3617892514234
 20
-134.9859035578334
 30
0.0
 10
112.4231119510609
 20
-135.1064818998171
 30
0.0
 10
112.5140624718715
 20
-135.2820095147906
 30
0.0
 10
112.7083658572396
 20
-135.4618434991206
 30
0.0
 10
112.8441026193584
 20
-135.5190320841758
 30
0.0
 10
112.8441026193584
 20
-135.5190320841758
 30
0.0
 10
112.7021646853661
 20
-135.6988660685059
 30
0.0
 10
112.7021646853661
 20
-135.6988660685059
 30
0.0
  0
HATCH
  5
19B
330
179
100
AcDbEntity
  8
_U+30EC_U+30A4_U+30E4_U+30FC 1
 62
   179
420
  2234388
100
AcDbHatch
 10
0.0
 20
0.0
 30
0.0
210
0.0
220
0.0
230
1.0
  2
SOLID
 70
     1
 71
     0
 91
        6
 92
        1
 93
        1
 72
     4
 94
        3
 73
     0
 74
     1
 95
      197
 96
      193
 40
0.0
 40
0.0
 40
0.0
 40
0.0
 40
1.0
 40
1.0
 40
1.0
 40
2.0
 40
2.0
 40
2.0
 40
3.0
 40
3.0
 40
3.0
 40
4.0
 40
4.0
 40
4.0
 40
5.0
 40
5.0
 40
5.0
 40
6.0
 40
6.0
 40
6.0
 40
7.0
 40
7.0
 40
7.0
 40
8.0
 40
8.0
 40
8.0
 40
9.0
 40
9.0
 40
9.0
 40
10.0
 40
10.0
 40
10.0
 40
11.0
 40
11.0
 40
11.0
 40
12.0
 40
12.0
 40
12.0
 40
13.0
 40
13.0
 40
13.0
 40
14.0
 40
14.0
 40
14.0
 40
15.0
 40
15.0
 40
15.0
 40
16.0
 40
16.0
 40
16.0
 40
17.0
 40
17.0
 40
17.0
 40
18.0
 40
18.0
 40
18.0
 40
19.0
 40
19.0
 40
19.0
 40
20.0
 40
20.0
 40
20.0
 40
21.0
 40
21.0
 40
21.0
 40
22.0
 40
22.0
 40
22.0
 40
23.0
 40
23.0
 40
23.0
 40
24.0
 40
24.0
 40
24.0
 40
25.0
 40
25.0
 40
25.0
 40
26.0
 40
26.0
 40
26.0
 40
27.0
 40
27.0
 40
27.0
 40
28.0
 40
28.0
 40
28.0
 40
29.0
 40
29.0
 40
29.0
 40
30.0
 40
30.0
 40
30.0
 40
31.0
 40
31.0
 40
31.0
 40
32.0
 40
32.0
 40
32.0
 40
33.0
 40
33.0
 40
33.0
 40
34.0
 40
34.0
 40
34.0
 40
35.0
 40
35.0
 40
35.0
 40
36.0
 40
36.0
 40
36.0
 40
37.0
 40
37.0
 40
37.0
 40
38.0
 40
38.0
 40
38.0
 40
39.0
 40
39.0
 40
39.0
 40
40.0
 40
40.0
 40
40.0
 40
41.0
 40
41.0
 40
41.0
 40
42.0
 40
42.0
 40
42.0
 40
43.0
 40
43.0
 40
43.0
 40
44.0
 40
44.0
 40
44.0
 40
45.0
 40
45.0
 40
45.0
 40
46.0
 40
46.0
 40
46.0
 40
47.0
 40
47.0
 40
47.0
 40
48.0
 40
48.0
 40
48.0
 40
49.0
 40
49.0
 40
49.0
 40
50.0
 40
50.0
 40
50.0
 40
51.0
 40
51.0
 40
51.0
 40
52.0
 40
52.0
 40
52.0
 40
53.0
 40
53.0
 40
53.0
 40
54.0
 40
54.0
 40
54.0
 40
55.0
 40
55.0
 40
55.0
 40
56.0
 40
56.0
 40
56.0
 40
57.0
 40
57.0
 40
57.0
 40
58.0
 40
58.0
 40
58.0
 40
59.0
 40
59.0
 40
59.0
 40
60.0
 40
60.0
 40
60.0
 40
61.0
 40
61.0
 40
61.0
 40
62.0
 40
62.0
 40
62.0
 40
63.0
 40
63.0
 40
63.0
 40
64.0
 40
64.0
 40
64.0
 40
64.0
 10
112.7869140343033
 20
-134.3428764855115
 10
112.776234238299
 20
-134.3723320519104
 10
112.7531520985478
 20
-134.4190130957355
 10
112.742127792995
 20
-134.4464016048433
 10
112.742127792995
 20
-134.4464016048433
 10
112.6808050933576
 20
-134.5988470800656
 10
112.6808050933576
 20
-134.5988470800656
 10
112.6704698069018
 20
-134.6241685318822
 10
112.6215494510113
 20
-134.7363063899271
 10
112.6091471072644
 20
-134.7595607844525
 10
112.6070800499732
 20
-134.7659342111002
 10
112.6029459353909
 20
-134.7743746950391
 10
112.6005343685513
 20
-134.7807481216868
 10
112.6005343685513
 20
-134.7807481216868
 10
112.3914170725966
 20
-134.7278659059882
 10
112.3914170725966
 20
-134.7278659059882
 10
112.4692762305632
 20
-134.6177951052344
 10
112.5305989302007
 20
-134.4824028526641
 10
112.562293808665
 20
-134.3723320519104
 10
112.562293808665
 20
-134.3723320519104
 10
112.0972059181563
 20
-134.3723320519104
 10
112.0972059181563
 20
-134.3723320519104
 10
112.0165906838014
 20
-134.5373521256539
 10
111.9490668122905
 20
-134.6157280479433
 10
111.9153048765351
 20
-134.6558634103465
 10
111.9153048765351
 20
-134.6558634103465
 10
111.7926594772602
 20
-134.5902343413524
 10
111.7926594772602
 20
-134.5902343413524
 10
111.7926594772602
 20
-134.5902343413524
 10
111.7926594772602
 20
-134.7616278417436
 10
111.7926594772602
 20
-134.7616278417436
 10
111.7926594772602
 20
-134.8696315852062
 10
111.7947265345513
 20
-134.9182074315482
 10
111.8050618210071
 20
-135.0239718629454
 10
111.7334038349139
 20
-135.0219048056543
 10
111.7120442429053
 20
-135.0219048056543
 10
111.5067165519844
 20
-135.0219048056543
 10
111.5067165519844
 20
-135.0219048056543
 10
111.451939533769
 20
-135.0219048056543
 10
111.451939533769
 20
-135.0219048056543
 10
111.451939533769
 20
-135.0219048056543
 10
111.451939533769
 20
-135.1572970582246
 10
111.451939533769
 20
-135.1572970582246
 10
111.451939533769
 20
-135.1572970582246
 10
111.5239420294107
 20
-135.1572970582246
 10
111.5239420294107
 20
-135.1572970582246
 10
111.5893988436304
 20
-135.1572970582246
 10
111.735470892205
 20
-135.152990688868
 10
111.8412353236022
 20
-135.1445502049291
 10
111.8412353236022
 20
-135.1445502049291
 10
111.8412353236022
 20
-135.322317131968
 10
111.8412353236022
 20
-135.322317131968
 10
111.7437391213696
 20
-135.3159437053203
 10
111.5852647290481
 20
-135.3116373359638
 10
111.5239420294107
 20
-135.3116373359638
 10
111.5239420294107
 20
-135.3116373359638
 10
111.451939533769
 20
-135.3116373359638
 10
111.451939533769
 20
-135.3116373359638
 10
111.4540065910601
 20
-135.4005207994832
 10
111.4584852151909
 20
-135.6396104261595
 10
111.4605522724821
 20
-135.7136799790924
 10
111.4605522724821
 20
-135.7136799790924
 10
111.2593586961435
 20
-135.7136799790924
 10
111.2593586961435
 20
-135.7136799790924
 10
111.2721055494389
 20
-135.4999118042327
 10
111.2721055494389
 20
-135.4702839830595
 10
111.2762396640212
 20
-135.3116373359638
 10
111.2762396640212
 20
-135.3116373359638
 10
111.2063042256706
 20
-135.3116373359638
 10
111.2063042256706
 20
-135.3116373359638
 10
111.149460150164
 20
-135.3116373359638
 10
110.9968424201675
 20
-135.3159437053203
 10
110.8872883837365
 20
-135.322317131968
 10
110.8872883837365
 20
-135.322317131968
 10
110.8872883837365
 20
-135.1445502049291
 10
110.8872883837365
 20
-135.1445502049291
 10
110.9927083055852
 20
-135.152990688868
 10
111.1367132968686
 20
-135.1572970582246
 10
111.2063042256706
 20
-135.1572970582246
 10
111.2063042256706
 20
-135.1572970582246
 10
111.280718288152
 20
-135.1572970582246
 10
111.280718288152
 20
-135.1572970582246
 10
111.280718288152
 20
-135.1572970582246
 10
111.280718288152
 20
-135.0219048056543
 10
111.280718288152
 20
-135.0219048056543
 10
111.280718288152
 20
-135.0219048056543
 10
111.2359320468438
 20
-135.0219048056543
 10
111.2359320468438
 20
-135.0219048056543
 10
111.1601399461683
 20
-135.0219048056543
 10
110.9672145989943
 20
-135.0239718629454
 10
110.9334526632389
 20
-135.0239718629454
 10
110.9399983446608
 20
-134.9521416220779
 10
110.948611083374
 20
-134.8716986424974
 10
110.948611083374
 20
-134.7511203005136
 10
110.948611083374
 20
-134.7511203005136
 10
110.948611083374
 20
-134.5776597428313
 10
110.948611083374
 20
-134.5776597428313
 10
110.948611083374
 20
-134.5056572471896
 10
110.9399983446608
 20
-134.3850789052058
 10
110.9334526632389
 20
-134.3048081803995
 10
111.0120008403026
 20
-134.3089422949818
 10
111.0498968906403
 20
-134.3110093522729
 10
111.1766764044975
 20
-134.3110093522729
 10
111.1766764044975
 20
-134.3110093522729
 10
111.280718288152
 20
-134.3110093522729
 10
111.280718288152
 20
-134.3110093522729
 10
111.280718288152
 20
-134.3110093522729
 10
111.280718288152
 20
-134.1651095584726
 10
111.280718288152
 20
-134.1651095584726
 10
111.280718288152
 20
-134.1651095584726
 10
111.2021701110883
 20
-134.1651095584726
 10
111.2021701110883
 20
-134.1651095584726
 10
111.1470485833243
 20
-134.1651095584726
 10
110.9758273377074
 20
-134.1694159278292
 10
110.8914224983188
 20
-134.1756170997026
 10
110.8914224983188
 20
-134.1756170997026
 10
110.8914224983188
 20
-133.998022427438
 10
110.8914224983188
 20
-133.998022427438
 10
110.9737602804163
 20
-134.0043958540857
 10
111.1367132968686
 20
-134.008529968668
 10
111.2021701110883
 20
-134.008529968668
 10
111.2021701110883
 20
-134.008529968668
 10
111.280718288152
 20
-134.008529968668
 10
111.280718288152
 20
-134.008529968668
 10
111.280718288152
 20
-133.9747680329126
 10
111.2762396640212
 20
-133.8202555003991
 10
111.2762396640212
 20
-133.7885606219348
 10
111.2762396640212
 20
-133.7885606219348
 10
111.472954616229
 20
-133.8054415898125
 10
111.472954616229
 20
-133.8054415898125
 10
111.4901800936552
 20
-133.8075086471037
 10
111.5111951761153
 20
-133.8097479591691
 10
111.5111951761153
 20
-133.8307630416291
 10
111.5111951761153
 20
-133.8541896909288
 10
111.4901800936552
 20
-133.8626301748677
 10
111.4626193297732
 20
-133.8752047733888
 10
111.4626193297732
 20
-133.8963921106231
 10
111.4605522724821
 20
-133.9916490007903
 10
111.4605522724821
 20
-134.008529968668
 10
111.4605522724821
 20
-134.008529968668
 10
111.5198079148284
 20
-134.008529968668
 10
111.5198079148284
 20
-134.008529968668
 10
111.5873317863393
 20
-134.008529968668
 10
111.7313367776227
 20
-134.0043958540857
 10
111.8367566994714
 20
-133.998022427438
 10
111.8367566994714
 20
-133.998022427438
 10
111.8367566994714
 20
-134.1756170997026
 10
111.8367566994714
 20
-134.1756170997026
 10
111.7396050067873
 20
-134.1694159278292
 10
111.583197671757
 20
-134.1651095584726
 10
111.5198079148284
 20
-134.1651095584726
 10
111.5198079148284
 20
-134.1651095584726
 10
111.451939533769
 20
-134.1651095584726
 10
111.451939533769
 20
-134.1651095584726
 10
111.451939533769
 20
-134.1651095584726
 10
111.451939533769
 20
-134.3110093522729
 10
111.451939533769
 20
-134.3110093522729
 10
111.451939533769
 20
-134.3110093522729
 10
111.5218749721195
 20
-134.3110093522729
 10
111.5218749721195
 20
-134.3110093522729
 10
111.6720811352764
 20
-134.3110093522729
 10
111.7437391213696
 20
-134.3068752376907
 10
111.8050618210071
 20
-134.3048081803995
 10
111.7967935918425
 20
-134.3998928157924
 10
111.7947265345513
 20
-134.4782687380818
 10
111.7926594772602
 20
-134.5163370431938
 10
111.9469997549994
 20
-134.3048081803995
 10
112.0527641863965
 20
-134.0572780697843
 10
112.0696451542743
 20
-133.7949340485825
 10
112.0696451542743
 20
-133.7949340485825
 10
112.2853081316509
 20
-133.8455769522157
 10
112.2853081316509
 20
-133.8455769522157
 10
112.300466551786
 20
-133.8498833215723
 10
112.314935952824
 20
-133.85625674822
 10
112.314935952824
 20
-133.8731377160977
 10
112.314935952824
 20
-133.8900186839754
 10
112.3108018382417
 20
-133.8922579960408
 10
112.2598144250601
 20
-133.9132730785009
 10
112.2432779667309
 20
-133.9895819434991
 10
112.21778426014
 20
-134.0805324643097
 10
112.1688639042495
 20
-134.2074842329412
 10
112.1688639042495
 20
-134.2074842329412
 10
112.5075167904495
 20
-134.2074842329412
 10
112.5075167904495
 20
-134.2074842329412
 10
112.5457573503358
 20
-134.2074842329412
 10
112.6746039214841
 20
-134.2031778635846
 10
112.7235242773747
 20
-134.1968044369369
 10
112.7235242773747
 20
-134.1968044369369
 10
112.8165418554764
 20
-134.2665676205132
 10
112.8165418554764
 20
-134.2665676205132
 10
112.8079291167633
 20
-134.2877549577475
 10
112.8013834353413
 20
-134.3068752376907
 10
112.7869140343033
 20
-134.3428764855115
 97
        0
 97
        0
 92
        1
 93
        4
 72
     1
 10
111.280718288152
 20
-134.4675889420776
 11
111.121899386282
 21
-134.4675889420776
 72
     1
 10
111.121899386282
 20
-134.4675889420776
 11
111.121899386282
 21
-134.5966077680002
 72
     1
 10
111.121899386282
 20
-134.5966077680002
 11
111.280718288152
 21
-134.5966077680002
 72
     1
 10
111.280718288152
 20
-134.5966077680002
 11
111.280718288152
 21
-134.4675889420776
 97
        0
 92
        1
 93
        4
 72
     1
 10
111.280718288152
 20
-134.7404405045093
 11
111.121899386282
 21
-134.7404405045093
 72
     1
 10
111.121899386282
 20
-134.7404405045093
 11
111.121899386282
 21
-134.8696315852062
 72
     1
 10
111.121899386282
 20
-134.8696315852062
 11
111.280718288152
 21
-134.8696315852062
 72
     1
 10
111.280718288152
 20
-134.8696315852062
 11
111.280718288152
 21
-134.7404405045093
 97
        0
 92
        1
 93
        4
 72
     1
 10
111.6128254929301
 20
-134.4675889420776
 11
111.451939533769
 21
-134.4675889420776
 72
     1
 10
111.451939533769
 20
-134.4675889420776
 11
111.451939533769
 21
-134.5966077680002
 72
     1
 10
111.451939533769
 20
-134.5966077680002
 11
111.6128254929301
 21
-134.5966077680002
 72
     1
 10
111.6128254929301
 20
-134.5966077680002
 11
111.6128254929301
 21
-134.4675889420776
 97
        0
 92
        1
 93
        4
 72
     1
 10
111.6128254929301
 20
-134.7404405045093
 11
111.451939533769
 21
-134.7404405045093
 72
     1
 10
111.451939533769
 20
-134.7404405045093
 11
111.451939533769
 21
-134.8696315852062
 72
     1
 10
111.451939533769
 20
-134.8696315852062
 11
111.6128254929301
 21
-134.8696315852062
 72
     1
 10
111.6128254929301
 20
-134.8696315852062
 11
111.6128254929301
 21
-134.7404405045093
 97
        0
 92
        1
 93
        1
 72
     4
 94
        3
 73
     0
 74
     1
 95
       41
 96
       37
 40
0.0
 40
0.0
 40
0.0
 40
0.0
 40
1.0
 40
1.0
 40
1.0
 40
2.0
 40
2.0
 40
2.0
 40
3.0
 40
3.0
 40
3.0
 40
4.0
 40
4.0
 40
4.0
 40
5.0
 40
5.0
 40
5.0
 40
6.0
 40
6.0
 40
6.0
 40
7.0
 40
7.0
 40
7.0
 40
8.0
 40
8.0
 40
8.0
 40
9.0
 40
9.0
 40
9.0
 40
10.0
 40
10.0
 40
10.0
 40
11.0
 40
11.0
 40
11.0
 40
12.0
 40
12.0
 40
12.0
 40
12.0
 10
112.7021646853661
 20
-135.6988660685059
 10
112.4610080013986
 20
-135.5634738159355
 10
112.2832410743598
 20
-135.267195604204
 10
112.2432779667309
 20
-135.1381767782814
 10
112.1226996247471
 20
-135.4025878567743
 10
111.9594020987463
 20
-135.5803547838132
 10
111.7775010571251
 20
-135.6945596991493
 10
111.7775010571251
 20
-135.6945596991493
 10
111.5811306144658
 20
-135.5571003892878
 10
111.5811306144658
 20
-135.5571003892878
 10
111.6507215432679
 20
-135.5317789374712
 10
111.7967935918425
 20
-135.4702839830595
 10
111.9194389911174
 20
-135.3159437053203
 10
112.0441514476834
 20
-135.1593641155157
 10
112.1330349112029
 20
-134.9266479154871
 10
112.1330349112029
 20
-134.6665432063507
 10
112.1330349112029
 20
-134.5649128895359
 10
112.120632567456
 20
-134.4930826486684
 10
112.1096082619032
 20
-134.4464016048433
 10
112.1096082619032
 20
-134.4464016048433
 10
112.314935952824
 20
-134.4675889420776
 10
112.314935952824
 20
-134.4675889420776
 10
112.3362955448326
 20
-134.4696559993687
 10
112.3573106272926
 20
-134.4718953114341
 10
112.3573106272926
 20
-134.4930826486684
 10
112.3573106272926
 20
-134.5120306738373
 10
112.3466308312884
 20
-134.5204711577761
 10
112.3128688955329
 20
-134.5416584950104
 10
112.3046006663683
 20
-134.7426798165748
 10
112.3617892514234
 20
-134.9859035578334
 10
112.4231119510609
 20
-135.1064818998171
 10
112.5140624718715
 20
-135.2820095147906
 10
112.7083658572396
 20
-135.4618434991206
 10
112.8441026193584
 20
-135.5190320841758
 10
112.8441026193584
 20
-135.5190320841758
 10
112.7021646853661
 20
-135.6988660685059
 10
112.7021646853661
 20
-135.6988660685059
 97
        0
 97
        0
 75
     2
 76
     1
 98
        0
  0
SPLINE
  5
19C
330
179
100
AcDbEntity
  8
_U+30EC_U+30A4_U+30E4_U+30FC 1
370
     0
100
AcDbSpline
210
0.0
220
0.0
230
1.0
 70
    11
 71
     3
 72
    71
 73
    67
 74
     0
 42
0.0000000001
 43
0.0000000001
 12
1.0
 22
0.0
 32
0.0
 13
1.0
 23
0.0
 33
0.0
 40
0.0
 40
0.0
 40
0.0
 40
0.0
 40
1.0
 40
1.0
 40
1.0
 40
2.0
 40
2.0
 40
2.0
 40
3.0
 40
3.0
 40
3.0
 40
4.0
 40
4.0
 40
4.0
 40
5.0
 40
5.0
 40
5.0
 40
6.0
 40
6.0
 40
6.0
 40
7.0
 40
7.0
 40
7.0
 40
8.0
 40
8.0
 40
8.0
 40
9.0
 40
9.0
 40
9.0
 40
10.0
 40
10.0
 40
10.0
 40
11.0
 40
11.0
 40
11.0
 40
12.0
 40
12.0
 40
12.0
 40
13.0
 40
13.0
 40
13.0
 40
14.0
 40
14.0
 40
14.0
 40
15.0
 40
15.0
 40
15.0
 40
16.0
 40
16.0
 40
16.0
 40
17.0
 40
17.0
 40
17.0
 40
18.0
 40
18.0
 40
18.0
 40
19.0
 40
19.0
 40
19.0
 40
20.0
 40
20.0
 40
20.0
 40
21.0
 40
21.0
 40
21.0
 40
22.0
 40
22.0
 40
22.0
 40
22.0
 10
113.8962347805537
 20
-133.9661552941994
 30
0.0
 10
113.8817653795157
 20
-133.9661552941994
 30
0.0
 10
113.8690185262202
 20
-133.9620211796172
 30
0.0
 10
113.8435248196294
 20
-133.9535806956783
 30
0.0
 10
113.7019313951856
 20
-134.0000894847292
 30
0.0
 10
113.528298582729
 20
-134.0169704526069
 30
0.0
 10
113.3887722155764
 20
-134.0212768219634
 30
0.0
 10
113.3887722155764
 20
-134.0212768219634
 30
0.0
 10
113.3867051582853
 20
-134.1101602854829
 30
0.0
 10
113.3867051582853
 20
-134.1101602854829
 30
0.0
 10
113.3867051582853
 20
-134.1101602854829
 30
0.0
 10
113.6468098674216
 20
-134.1101602854829
 30
0.0
 10
113.6468098674216
 20
-134.1101602854829
 30
0.0
 10
113.6998643378945
 20
-134.1101602854829
 30
0.0
 10
113.8817653795157
 20
-134.1015475467698
 30
0.0
 10
113.9258626017269
 20
-134.0953463748963
 30
0.0
 10
113.9258626017269
 20
-134.0953463748963
 30
0.0
 10
113.9258626017269
 20
-134.2560600792832
 30
0.0
 10
113.9258626017269
 20
-134.2560600792832
 30
0.0
 10
113.8710855835114
 20
-134.2496866526355
 30
0.0
 10
113.7460286173968
 20
-134.2476195953444
 30
0.0
 10
113.7081325670591
 20
-134.2496866526355
 30
0.0
 10
113.7081325670591
 20
-134.2496866526355
 30
0.0
 10
113.7081325670591
 20
-134.3597574533892
 30
0.0
 10
113.7081325670591
 20
-134.3597574533892
 30
0.0
 10
113.7081325670591
 20
-134.4062662424401
 30
0.0
 10
113.7101996243502
 20
-134.4696559993687
 30
0.0
 10
113.7164007962237
 20
-134.5077243044807
 30
0.0
 10
113.7164007962237
 20
-134.5077243044807
 30
0.0
 10
113.5241644681467
 20
-134.5077243044807
 30
0.0
 10
113.5241644681467
 20
-134.5077243044807
 30
0.0
 10
113.5303656400202
 20
-134.4675889420776
 30
0.0
 10
113.5369113214422
 20
-134.3850789052058
 30
0.0
 10
113.5369113214422
 20
-134.3702649946192
 30
0.0
 10
113.5369113214422
 20
-134.3702649946192
 30
0.0
 10
113.5369113214422
 20
-134.2496866526355
 30
0.0
 10
113.5369113214422
 20
-134.2496866526355
 30
0.0
 10
113.5369113214422
 20
-134.2496866526355
 30
0.0
 10
113.3718912476987
 20
-134.2496866526355
 30
0.0
 10
113.3718912476987
 20
-134.2496866526355
 30
0.0
 10
113.3295165732301
 20
-134.4696559993687
 30
0.0
 10
113.2747395550146
 20
-134.5500989789493
 30
0.0
 10
113.168630614069
 20
-134.6494899836987
 30
0.0
 10
113.168630614069
 20
-134.6494899836987
 30
0.0
 10
113.0015434830343
 20
-134.5352850683627
 30
0.0
 10
113.0015434830343
 20
-134.5352850683627
 30
0.0
 10
113.0652777495115
 20
-134.4867092220207
 30
0.0
 10
113.2154839126684
 20
-134.3745713639758
 30
0.0
 10
113.2154839126684
 20
-134.0254109365457
 30
0.0
 10
113.2154839126684
 20
-133.942900899674
 30
0.0
 10
113.2068711739552
 20
-133.8963921106231
 30
0.0
 10
113.1982584352421
 20
-133.8478162642811
 30
0.0
 10
113.3443304838167
 20
-133.8626301748677
 30
0.0
 10
113.3591443944033
 20
-133.8626301748677
 30
0.0
 10
113.3953178969984
 20
-133.8626301748677
 30
0.0
 10
113.5028048761382
 20
-133.8626301748677
 30
0.0
 10
113.6447428101305
 20
-133.8455769522157
 30
0.0
 10
113.8052842597431
 20
-133.7842542525783
 30
0.0
 10
113.8052842597431
 20
-133.7842542525783
 30
0.0
 10
113.9196614298534
 20
-133.9155123905663
 30
0.0
 10
113.9196614298534
 20
-133.9155123905663
 30
0.0
 10
113.9258626017269
 20
-133.921885817214
 30
0.0
 10
113.9303412258577
 20
-133.9303263011528
 30
0.0
 10
113.9303412258577
 20
-133.9387667850917
 30
0.0
 10
113.9303412258577
 20
-133.9620211796172
 30
0.0
 10
113.9113932006888
 20
-133.9661552941994
 30
0.0
 10
113.8962347805537
 20
-133.9661552941994
 30
0.0
  0
SPLINE
  5
19D
330
179
100
AcDbEntity
  8
_U+30EC_U+30A4_U+30E4_U+30FC 1
370
     0
100
AcDbSpline
210
0.0
220
0.0
230
1.0
 70
    11
 71
     3
 72
    74
 73
    70
 74
     0
 42
0.0000000001
 43
0.0000000001
 12
1.0
 22
0.0
 32
0.0
 13
1.0
 23
0.0
 33
0.0
 40
0.0
 40
0.0
 40
0.0
 40
0.0
 40
1.0
 40
1.0
 40
1.0
 40
2.0
 40
2.0
 40
2.0
 40
3.0
 40
3.0
 40
3.0
 40
4.0
 40
4.0
 40
4.0
 40
5.0
 40
5.0
 40
5.0
 40
6.0
 40
6.0
 40
6.0
 40
7.0
 40
7.0
 40
7.0
 40
8.0
 40
8.0
 40
8.0
 40
9.0
 40
9.0
 40
9.0
 40
10.0
 40
10.0
 40
10.0
 40
11.0
 40
11.0
 40
11.0
 40
12.0
 40
12.0
 40
12.0
 40
13.0
 40
13.0
 40
13.0
 40
14.0
 40
14.0
 40
14.0
 40
15.0
 40
15.0
 40
15.0
 40
16.0
 40
16.0
 40
16.0
 40
17.0
 40
17.0
 40
17.0
 40
18.0
 40
18.0
 40
18.0
 40
19.0
 40
19.0
 40
19.0
 40
20.0
 40
20.0
 40
20.0
 40
21.0
 40
21.0
 40
21.0
 40
22.0
 40
22.0
 40
22.0
 40
23.0
 40
23.0
 40
23.0
 40
23.0
 10
114.7340820025665
 20
-135.7326280042613
 30
0.0
 10
114.520486082481
 20
-135.7221204630313
 30
0.0
 10
114.3196370156909
 20
-135.635304056803
 30
0.0
 10
114.1439371459432
 20
-135.5147257148192
 30
0.0
 10
114.1439371459432
 20
-135.5147257148192
 30
0.0
 10
114.2414333481758
 20
-135.4280815633652
 30
0.0
 10
114.2414333481758
 20
-135.4280815633652
 30
0.0
 10
114.2414333481758
 20
-135.4280815633652
 30
0.0
 10
113.6891845418902
 20
-135.4280815633652
 30
0.0
 10
113.6891845418902
 20
-135.4280815633652
 30
0.0
 10
113.6891845418902
 20
-135.4280815633652
 30
0.0
 10
113.7694552666965
 20
-135.4914713202938
 30
0.0
 10
113.7694552666965
 20
-135.4914713202938
 30
0.0
 10
113.77565643857
 20
-135.4957776896504
 30
0.0
 10
113.7866807441228
 20
-135.5062852308804
 30
0.0
 10
113.7866807441228
 20
-135.5210991414669
 30
0.0
 10
113.7866807441228
 20
-135.5614067586444
 30
0.0
 10
113.7122666816414
 20
-135.5550333319967
 30
0.0
 10
113.6977972806033
 20
-135.5527940199312
 30
0.0
 10
113.4669758830916
 20
-135.6924926418581
 30
0.0
 10
113.3229708918082
 20
-135.7241875203224
 30
0.0
 10
113.2196180272507
 20
-135.7410684882001
 30
0.0
 10
113.2196180272507
 20
-135.7410684882001
 30
0.0
 10
113.0904269465538
 20
-135.5634738159355
 30
0.0
 10
113.0904269465538
 20
-135.5634738159355
 30
0.0
 10
113.3381293119432
 20
-135.5317789374712
 30
0.0
 10
113.4394151192096
 20
-135.4850978936461
 30
0.0
 10
113.528298582729
 20
-135.4322156779475
 30
0.0
 10
113.4545735393447
 20
-135.4344549900129
 30
0.0
 10
113.3401963692344
 20
-135.4365220473041
 30
0.0
 10
113.3085014907701
 20
-135.4385891045952
 30
0.0
 10
113.3229708918082
 20
-135.3497056410758
 30
0.0
 10
113.3250379490993
 20
-135.2206868151532
 30
0.0
 10
113.3250379490993
 20
-135.1466172622203
 30
0.0
 10
113.3250379490993
 20
-135.1466172622203
 30
0.0
 10
113.3250379490993
 20
-134.8463771906808
 30
0.0
 10
113.3250379490993
 20
-134.8463771906808
 30
0.0
 10
113.3250379490993
 20
-134.746813931157
 30
0.0
 10
113.3188367772259
 20
-134.6474229264076
 30
0.0
 10
113.3085014907701
 20
-134.5500989789493
 30
0.0
 10
113.4097872980364
 20
-134.556472405597
 30
0.0
 10
113.6406086955482
 20
-134.5628458322447
 30
0.0
 10
113.7484401842365
 20
-134.5628458322447
 30
0.0
 10
113.7484401842365
 20
-134.5628458322447
 30
0.0
 10
114.1714979098252
 20
-134.5628458322447
 30
0.0
 10
114.1714979098252
 20
-134.5628458322447
 30
0.0
 10
114.2900091945178
 20
-134.5628458322447
 30
0.0
 10
114.3323838689864
 20
-134.5628458322447
 30
0.0
 10
114.4147216510838
 20
-134.5585394628881
 30
0.0
 10
114.5628607569496
 20
-134.5521660362404
 30
0.0
 10
114.5797417248273
 20
-134.5521660362404
 30
0.0
 10
114.6262505138782
 20
-134.5500989789493
 30
0.0
 10
114.617637775165
 20
-134.6305419585299
 30
0.0
 10
114.6135036605827
 20
-134.7891886056256
 30
0.0
 10
114.6135036605827
 20
-134.8716986424974
 30
0.0
 10
114.6135036605827
 20
-134.8716986424974
 30
0.0
 10
114.6135036605827
 20
-135.1572970582246
 30
0.0
 10
114.6135036605827
 20
-135.1572970582246
 30
0.0
 10
114.6135036605827
 20
-135.229127299092
 30
0.0
 10
114.6155707178739
 20
-135.3603854370801
 30
0.0
 10
114.6262505138782
 20
-135.4385891045952
 30
0.0
 10
114.5542480182364
 20
-135.4344549900129
 30
0.0
 10
114.4316026189615
 20
-135.4322156779475
 30
0.0
 10
114.3533989514464
 20
-135.4301486206564
 30
0.0
 10
114.4632974974258
 20
-135.4978447469415
 30
0.0
 10
114.6155707178739
 20
-135.548659905349
 30
0.0
 10
114.8270995806682
 20
-135.5527940199312
 30
0.0
 10
114.8270995806682
 20
-135.5527940199312
 30
0.0
 10
114.7340820025665
 20
-135.7326280042613
 30
0.0
 10
114.7340820025665
 20
-135.7326280042613
 30
0.0
  0
POLYLINE
  5
19E
330
179
100
AcDbEntity
  8
_U+30EC_U+30A4_U+30E4_U+30FC 1
370
     0
100
AcDb2dPolyline
 66
     1
 10
0.0
 20
0.0
 30
0.0
  0
VERTEX
  5
19F
330
19E
100
AcDbEntity
  8
_U+30EC_U+30A4_U+30E4_U+30FC 1
370
     0
100
AcDbVertex
100
AcDb2dVertex
 10
114.4295355616704
 20
-134.698238084815
 30
0.0
  0
VERTEX
  5
1A0
330
19E
100
AcDbEntity
  8
_U+30EC_U+30A4_U+30E4_U+30FC 1
370
     0
100
AcDbVertex
100
AcDb2dVertex
 10
113.5179632962733
 20
-134.698238084815
 30
0.0
  0
VERTEX
  5
1A1
330
19E
100
AcDbEntity
  8
_U+30EC_U+30A4_U+30E4_U+30FC 1
370
     0
100
AcDbVertex
100
AcDb2dVertex
 10
113.5179632962733
 20
-134.8103759428599
 30
0.0
  0
VERTEX
  5
1A2
330
19E
100
AcDbEntity
  8
_U+30EC_U+30A4_U+30E4_U+30FC 1
370
     0
100
AcDbVertex
100
AcDb2dVertex
 10
114.4295355616704
 20
-134.8103759428599
 30
0.0
  0
VERTEX
  5
1A3
330
19E
100
AcDbEntity
  8
_U+30EC_U+30A4_U+30E4_U+30FC 1
370
     0
100
AcDbVertex
100
AcDb2dVertex
 10
114.4295355616704
 20
-134.698238084815
 30
0.0
  0
SEQEND
  5
1A4
330
19E
100
AcDbEntity
  8
_U+30EC_U+30A4_U+30E4_U+30FC 1
370
     0
  0
POLYLINE
  5
1A5
330
179
100
AcDbEntity
  8
_U+30EC_U+30A4_U+30E4_U+30FC 1
370
     0
100
AcDb2dPolyline
 66
     1
 10
0.0
 20
0.0
 30
0.0
  0
VERTEX
  5
1A6
330
1A5
100
AcDbEntity
  8
_U+30EC_U+30A4_U+30E4_U+30FC 1
370
     0
100
AcDbVertex
100
AcDb2dVertex
 10
114.4295355616704
 20
-134.9435288833648
 30
0.0
  0
VERTEX
  5
1A7
330
1A5
100
AcDbEntity
  8
_U+30EC_U+30A4_U+30E4_U+30FC 1
370
     0
100
AcDbVertex
100
AcDb2dVertex
 10
113.5179632962733
 20
-134.9435288833648
 30
0.0
  0
VERTEX
  5
1A8
330
1A5
100
AcDbEntity
  8
_U+30EC_U+30A4_U+30E4_U+30FC 1
370
     0
100
AcDbVertex
100
AcDb2dVertex
 10
113.5179632962733
 20
-135.0535996841186
 30
0.0
  0
VERTEX
  5
1A9
330
1A5
100
AcDbEntity
  8
_U+30EC_U+30A4_U+30E4_U+30FC 1
370
     0
100
AcDbVertex
100
AcDb2dVertex
 10
114.4295355616704
 20
-135.0535996841186
 30
0.0
  0
VERTEX
  5
1AA
330
1A5
100
AcDbEntity
  8
_U+30EC_U+30A4_U+30E4_U+30FC 1
370
     0
100
AcDbVertex
100
AcDb2dVertex
 10
114.4295355616704
 20
-134.9435288833648
 30
0.0
  0
SEQEND
  5
1AB
330
1A5
100
AcDbEntity
  8
_U+30EC_U+30A4_U+30E4_U+30FC 1
370
     0
  0
POLYLINE
  5
1AC
330
179
100
AcDbEntity
  8
_U+30EC_U+30A4_U+30E4_U+30FC 1
370
     0
100
AcDb2dPolyline
 66
     1
 10
0.0
 20
0.0
 30
0.0
  0
VERTEX
  5
1AD
330
1AC
100
AcDbEntity
  8
_U+30EC_U+30A4_U+30E4_U+30FC 1
370
     0
100
AcDbVertex
100
AcDb2dVertex
 10
114.4295355616704
 20
-135.1889919366889
 30
0.0
  0
VERTEX
  5
1AE
330
1AC
100
AcDbEntity
  8
_U+30EC_U+30A4_U+30E4_U+30FC 1
370
     0
100
AcDbVertex
100
AcDb2dVertex
 10
113.5179632962733
 20
-135.1889919366889
 30
0.0
  0
VERTEX
  5
1AF
330
1AC
100
AcDbEntity
  8
_U+30EC_U+30A4_U+30E4_U+30FC 1
370
     0
100
AcDbVertex
100
AcDb2dVertex
 10
113.5179632962733
 20
-135.2968234253772
 30
0.0
  0
VERTEX
  5
1B0
330
1AC
100
AcDbEntity
  8
_U+30EC_U+30A4_U+30E4_U+30FC 1
370
     0
100
AcDbVertex
100
AcDb2dVertex
 10
114.4295355616704
 20
-135.2968234253772
 30
0.0
  0
VERTEX
  5
1B1
330
1AC
100
AcDbEntity
  8
_U+30EC_U+30A4_U+30E4_U+30FC 1
370
     0
100
AcDbVertex
100
AcDb2dVertex
 10
114.4295355616704
 20
-135.1889919366889
 30
0.0
  0
SEQEND
  5
1B2
330
1AC
100
AcDbEntity
  8
_U+30EC_U+30A4_U+30E4_U+30FC 1
370
     0
  0
SPLINE
  5
1B3
330
179
100
AcDbEntity
  8
_U+30EC_U+30A4_U+30E4_U+30FC 1
370
     0
100
AcDbSpline
210
0.0
220
0.0
230
1.0
 70
    11
 71
     3
 72
    74
 73
    70
 74
     0
 42
0.0000000001
 43
0.0000000001
 12
1.0
 22
0.0
 32
0.0
 13
1.0
 23
0.0
 33
0.0
 40
0.0
 40
0.0
 40
0.0
 40
0.0
 40
1.0
 40
1.0
 40
1.0
 40
2.0
 40
2.0
 40
2.0
 40
3.0
 40
3.0
 40
3.0
 40
4.0
 40
4.0
 40
4.0
 40
5.0
 40
5.0
 40
5.0
 40
6.0
 40
6.0
 40
6.0
 40
7.0
 40
7.0
 40
7.0
 40
8.0
 40
8.0
 40
8.0
 40
9.0
 40
9.0
 40
9.0
 40
10.0
 40
10.0
 40
10.0
 40
11.0
 40
11.0
 40
11.0
 40
12.0
 40
12.0
 40
12.0
 40
13.0
 40
13.0
 40
13.0
 40
14.0
 40
14.0
 40
14.0
 40
15.0
 40
15.0
 40
15.0
 40
16.0
 40
16.0
 40
16.0
 40
17.0
 40
17.0
 40
17.0
 40
18.0
 40
18.0
 40
18.0
 40
19.0
 40
19.0
 40
19.0
 40
20.0
 40
20.0
 40
20.0
 40
21.0
 40
21.0
 40
21.0
 40
22.0
 40
22.0
 40
22.0
 40
23.0
 40
23.0
 40
23.0
 40
23.0
 10
114.7468288558619
 20
-134.2455525380532
 30
0.0
 10
114.7468288558619
 20
-134.2455525380532
 30
0.0
 10
114.5859428967007
 20
-134.2455525380532
 30
0.0
 10
114.5859428967007
 20
-134.2455525380532
 30
0.0
 10
114.5859428967007
 20
-134.2455525380532
 30
0.0
 10
114.5859428967007
 20
-134.3597574533892
 30
0.0
 10
114.5859428967007
 20
-134.3597574533892
 30
0.0
 10
114.5859428967007
 20
-134.3998928157924
 30
0.0
 10
114.5924885781227
 20
-134.4739623687253
 30
0.0
 10
114.596622692705
 20
-134.4992838205418
 30
0.0
 10
114.596622692705
 20
-134.4992838205418
 30
0.0
 10
114.3850938299107
 20
-134.4992838205418
 30
0.0
 10
114.3850938299107
 20
-134.4992838205418
 30
0.0
 10
114.395773625915
 20
-134.4338270063221
 30
0.0
 10
114.3978406832061
 20
-134.3745713639758
 30
0.0
 10
114.3978406832061
 20
-134.3723320519104
 30
0.0
 10
114.3978406832061
 20
-134.3723320519104
 30
0.0
 10
114.3978406832061
 20
-134.2496866526355
 30
0.0
 10
114.3978406832061
 20
-134.2496866526355
 30
0.0
 10
114.3978406832061
 20
-134.2496866526355
 30
0.0
 10
114.2180066988761
 20
-134.2496866526355
 30
0.0
 10
114.2180066988761
 20
-134.2496866526355
 30
0.0
 10
114.1990586737072
 20
-134.3089422949818
 30
0.0
 10
114.1525498846563
 20
-134.4548420887821
 30
0.0
 10
114.038172714546
 20
-134.5373521256539
 30
0.0
 10
114.038172714546
 20
-134.5373521256539
 30
0.0
 10
113.8817653795157
 20
-134.4315876942567
 30
0.0
 10
113.8817653795157
 20
-134.4315876942567
 30
0.0
 10
113.9554904229
 20
-134.3850789052058
 30
0.0
 10
114.0719346503015
 20
-134.3110093522729
 30
0.0
 10
114.0719346503015
 20
-133.9895819434991
 30
0.0
 10
114.0719346503015
 20
-133.9344604157351
 30
0.0
 10
114.0678005357192
 20
-133.8900186839754
 30
0.0
 10
114.065733478428
 20
-133.8519503788634
 30
0.0
 10
114.141870088652
 20
-133.8603908628023
 30
0.0
 10
114.2159396415849
 20
-133.86676428945
 30
0.0
 10
114.2793293985135
 20
-133.86676428945
 30
0.0
 10
114.4570963255524
 20
-133.86676428945
 30
0.0
 10
114.6558783350513
 20
-133.8075086471037
 30
0.0
 10
114.7172010346888
 20
-133.7778808259305
 30
0.0
 10
114.7172010346888
 20
-133.7778808259305
 30
0.0
 10
114.8443250580945
 20
-133.9132730785009
 30
0.0
 10
114.8443250580945
 20
-133.9132730785009
 30
0.0
 10
114.8484591726768
 20
-133.9175794478574
 30
0.0
 10
114.8505262299679
 20
-133.9260199317963
 30
0.0
 10
114.8505262299679
 20
-133.932393358444
 30
0.0
 10
114.8505262299679
 20
-133.9535806956783
 30
0.0
 10
114.8357123193814
 20
-133.959954122326
 30
0.0
 10
114.8188313515036
 20
-133.959954122326
 30
0.0
 10
114.7974717594951
 20
-133.959954122326
 30
0.0
 10
114.783002358457
 20
-133.9515136383871
 30
0.0
 10
114.7637098237396
 20
-133.9408338423829
 30
0.0
 10
114.5904215208316
 20
-133.998022427438
 30
0.0
 10
114.3723469766152
 20
-134.0233438792546
 30
0.0
 10
114.2393662908846
 20
-134.0254109365457
 30
0.0
 10
114.2393662908846
 20
-134.0254109365457
 30
0.0
 10
114.2348876667538
 20
-134.1079209734175
 30
0.0
 10
114.2348876667538
 20
-134.1079209734175
 30
0.0
 10
114.2348876667538
 20
-134.1079209734175
 30
0.0
 10
114.5080837387341
 20
-134.1079209734175
 30
0.0
 10
114.5080837387341
 20
-134.1079209734175
 30
0.0
 10
114.5649278142407
 20
-134.1079209734175
 30
0.0
 10
114.8270995806682
 20
-134.0889729482486
 30
0.0
 10
114.8718858219765
 20
-134.0825995216009
 30
0.0
 10
114.8718858219765
 20
-134.0825995216009
 30
0.0
 10
114.8718858219765
 20
-134.2517537099266
 30
0.0
 10
114.8718858219765
 20
-134.2517537099266
 30
0.0
 10
114.8377793766725
 20
-134.2476195953444
 30
0.0
 10
114.8250325233771
 20
-134.2455525380532
 30
0.0
 10
114.7468288558619
 20
-134.2455525380532
 30
0.0
  0
HATCH
  5
1B4
330
179
100
AcDbEntity
  8
_U+30EC_U+30A4_U+30E4_U+30FC 1
 62
   179
420
  2234388
100
AcDbHatch
 10
0.0
 20
0.0
 30
0.0
210
0.0
220
0.0
230
1.0
  2
SOLID
 70
     1
 71
     0
 91
        6
 92
        1
 93
        1
 72
     4
 94
        3
 73
     0
 74
     1
 95
       71
 96
       67
 40
0.0
 40
0.0
 40
0.0
 40
0.0
 40
1.0
 40
1.0
 40
1.0
 40
2.0
 40
2.0
 40
2.0
 40
3.0
 40
3.0
 40
3.0
 40
4.0
 40
4.0
 40
4.0
 40
5.0
 40
5.0
 40
5.0
 40
6.0
 40
6.0
 40
6.0
 40
7.0
 40
7.0
 40
7.0
 40
8.0
 40
8.0
 40
8.0
 40
9.0
 40
9.0
 40
9.0
 40
10.0
 40
10.0
 40
10.0
 40
11.0
 40
11.0
 40
11.0
 40
12.0
 40
12.0
 40
12.0
 40
13.0
 40
13.0
 40
13.0
 40
14.0
 40
14.0
 40
14.0
 40
15.0
 40
15.0
 40
15.0
 40
16.0
 40
16.0
 40
16.0
 40
17.0
 40
17.0
 40
17.0
 40
18.0
 40
18.0
 40
18.0
 40
19.0
 40
19.0
 40
19.0
 40
20.0
 40
20.0
 40
20.0
 40
21.0
 40
21.0
 40
21.0
 40
22.0
 40
22.0
 40
22.0
 40
22.0
 10
113.8962347805537
 20
-133.9661552941994
 10
113.8817653795157
 20
-133.9661552941994
 10
113.8690185262202
 20
-133.9620211796172
 10
113.8435248196294
 20
-133.9535806956783
 10
113.7019313951856
 20
-134.0000894847292
 10
113.528298582729
 20
-134.0169704526069
 10
113.3887722155764
 20
-134.0212768219634
 10
113.3887722155764
 20
-134.0212768219634
 10
113.3867051582853
 20
-134.1101602854829
 10
113.3867051582853
 20
-134.1101602854829
 10
113.3867051582853
 20
-134.1101602854829
 10
113.6468098674216
 20
-134.1101602854829
 10
113.6468098674216
 20
-134.1101602854829
 10
113.6998643378945
 20
-134.1101602854829
 10
113.8817653795157
 20
-134.1015475467698
 10
113.9258626017269
 20
-134.0953463748963
 10
113.9258626017269
 20
-134.0953463748963
 10
113.9258626017269
 20
-134.2560600792832
 10
113.9258626017269
 20
-134.2560600792832
 10
113.8710855835114
 20
-134.2496866526355
 10
113.7460286173968
 20
-134.2476195953444
 10
113.7081325670591
 20
-134.2496866526355
 10
113.7081325670591
 20
-134.2496866526355
 10
113.7081325670591
 20
-134.3597574533892
 10
113.7081325670591
 20
-134.3597574533892
 10
113.7081325670591
 20
-134.4062662424401
 10
113.7101996243502
 20
-134.4696559993687
 10
113.7164007962237
 20
-134.5077243044807
 10
113.7164007962237
 20
-134.5077243044807
 10
113.5241644681467
 20
-134.5077243044807
 10
113.5241644681467
 20
-134.5077243044807
 10
113.5303656400202
 20
-134.4675889420776
 10
113.5369113214422
 20
-134.3850789052058
 10
113.5369113214422
 20
-134.3702649946192
 10
113.5369113214422
 20
-134.3702649946192
 10
113.5369113214422
 20
-134.2496866526355
 10
113.5369113214422
 20
-134.2496866526355
 10
113.5369113214422
 20
-134.2496866526355
 10
113.3718912476987
 20
-134.2496866526355
 10
113.3718912476987
 20
-134.2496866526355
 10
113.3295165732301
 20
-134.4696559993687
 10
113.2747395550146
 20
-134.5500989789493
 10
113.168630614069
 20
-134.6494899836987
 10
113.168630614069
 20
-134.6494899836987
 10
113.0015434830343
 20
-134.5352850683627
 10
113.0015434830343
 20
-134.5352850683627
 10
113.0652777495115
 20
-134.4867092220207
 10
113.2154839126684
 20
-134.3745713639758
 10
113.2154839126684
 20
-134.0254109365457
 10
113.2154839126684
 20
-133.942900899674
 10
113.2068711739552
 20
-133.8963921106231
 10
113.1982584352421
 20
-133.8478162642811
 10
113.3443304838167
 20
-133.8626301748677
 10
113.3591443944033
 20
-133.8626301748677
 10
113.3953178969984
 20
-133.8626301748677
 10
113.5028048761382
 20
-133.8626301748677
 10
113.6447428101305
 20
-133.8455769522157
 10
113.8052842597431
 20
-133.7842542525783
 10
113.8052842597431
 20
-133.7842542525783
 10
113.9196614298534
 20
-133.9155123905663
 10
113.9196614298534
 20
-133.9155123905663
 10
113.9258626017269
 20
-133.921885817214
 10
113.9303412258577
 20
-133.9303263011528
 10
113.9303412258577
 20
-133.9387667850917
 10
113.9303412258577
 20
-133.9620211796172
 10
113.9113932006888
 20
-133.9661552941994
 10
113.8962347805537
 20
-133.9661552941994
 97
        0
 97
        0
 92
        1
 93
        1
 72
     4
 94
        3
 73
     0
 74
     1
 95
       74
 96
       70
 40
0.0
 40
0.0
 40
0.0
 40
0.0
 40
1.0
 40
1.0
 40
1.0
 40
2.0
 40
2.0
 40
2.0
 40
3.0
 40
3.0
 40
3.0
 40
4.0
 40
4.0
 40
4.0
 40
5.0
 40
5.0
 40
5.0
 40
6.0
 40
6.0
 40
6.0
 40
7.0
 40
7.0
 40
7.0
 40
8.0
 40
8.0
 40
8.0
 40
9.0
 40
9.0
 40
9.0
 40
10.0
 40
10.0
 40
10.0
 40
11.0
 40
11.0
 40
11.0
 40
12.0
 40
12.0
 40
12.0
 40
13.0
 40
13.0
 40
13.0
 40
14.0
 40
14.0
 40
14.0
 40
15.0
 40
15.0
 40
15.0
 40
16.0
 40
16.0
 40
16.0
 40
17.0
 40
17.0
 40
17.0
 40
18.0
 40
18.0
 40
18.0
 40
19.0
 40
19.0
 40
19.0
 40
20.0
 40
20.0
 40
20.0
 40
21.0
 40
21.0
 40
21.0
 40
22.0
 40
22.0
 40
22.0
 40
23.0
 40
23.0
 40
23.0
 40
23.0
 10
114.7340820025665
 20
-135.7326280042613
 10
114.520486082481
 20
-135.7221204630313
 10
114.3196370156909
 20
-135.635304056803
 10
114.1439371459432
 20
-135.5147257148192
 10
114.1439371459432
 20
-135.5147257148192
 10
114.2414333481758
 20
-135.4280815633652
 10
114.2414333481758
 20
-135.4280815633652
 10
114.2414333481758
 20
-135.4280815633652
 10
113.6891845418902
 20
-135.4280815633652
 10
113.6891845418902
 20
-135.4280815633652
 10
113.6891845418902
 20
-135.4280815633652
 10
113.7694552666965
 20
-135.4914713202938
 10
113.7694552666965
 20
-135.4914713202938
 10
113.77565643857
 20
-135.4957776896504
 10
113.7866807441228
 20
-135.5062852308804
 10
113.7866807441228
 20
-135.5210991414669
 10
113.7866807441228
 20
-135.5614067586444
 10
113.7122666816414
 20
-135.5550333319967
 10
113.6977972806033
 20
-135.5527940199312
 10
113.4669758830916
 20
-135.6924926418581
 10
113.3229708918082
 20
-135.7241875203224
 10
113.2196180272507
 20
-135.7410684882001
 10
113.2196180272507
 20
-135.7410684882001
 10
113.0904269465538
 20
-135.5634738159355
 10
113.0904269465538
 20
-135.5634738159355
 10
113.3381293119432
 20
-135.5317789374712
 10
113.4394151192096
 20
-135.4850978936461
 10
113.528298582729
 20
-135.4322156779475
 10
113.4545735393447
 20
-135.4344549900129
 10
113.3401963692344
 20
-135.4365220473041
 10
113.3085014907701
 20
-135.4385891045952
 10
113.3229708918082
 20
-135.3497056410758
 10
113.3250379490993
 20
-135.2206868151532
 10
113.3250379490993
 20
-135.1466172622203
 10
113.3250379490993
 20
-135.1466172622203
 10
113.3250379490993
 20
-134.8463771906808
 10
113.3250379490993
 20
-134.8463771906808
 10
113.3250379490993
 20
-134.746813931157
 10
113.3188367772259
 20
-134.6474229264076
 10
113.3085014907701
 20
-134.5500989789493
 10
113.4097872980364
 20
-134.556472405597
 10
113.6406086955482
 20
-134.5628458322447
 10
113.7484401842365
 20
-134.5628458322447
 10
113.7484401842365
 20
-134.5628458322447
 10
114.1714979098252
 20
-134.5628458322447
 10
114.1714979098252
 20
-134.5628458322447
 10
114.2900091945178
 20
-134.5628458322447
 10
114.3323838689864
 20
-134.5628458322447
 10
114.4147216510838
 20
-134.5585394628881
 10
114.5628607569496
 20
-134.5521660362404
 10
114.5797417248273
 20
-134.5521660362404
 10
114.6262505138782
 20
-134.5500989789493
 10
114.617637775165
 20
-134.6305419585299
 10
114.6135036605827
 20
-134.7891886056256
 10
114.6135036605827
 20
-134.8716986424974
 10
114.6135036605827
 20
-134.8716986424974
 10
114.6135036605827
 20
-135.1572970582246
 10
114.6135036605827
 20
-135.1572970582246
 10
114.6135036605827
 20
-135.229127299092
 10
114.6155707178739
 20
-135.3603854370801
 10
114.6262505138782
 20
-135.4385891045952
 10
114.5542480182364
 20
-135.4344549900129
 10
114.4316026189615
 20
-135.4322156779475
 10
114.3533989514464
 20
-135.4301486206564
 10
114.4632974974258
 20
-135.4978447469415
 10
114.6155707178739
 20
-135.548659905349
 10
114.8270995806682
 20
-135.5527940199312
 10
114.8270995806682
 20
-135.5527940199312
 10
114.7340820025665
 20
-135.7326280042613
 10
114.7340820025665
 20
-135.7326280042613
 97
        0
 97
        0
 92
        1
 93
        4
 72
     1
 10
114.4295355616704
 20
-134.698238084815
 11
113.5179632962733
 21
-134.698238084815
 72
     1
 10
113.5179632962733
 20
-134.698238084815
 11
113.5179632962733
 21
-134.8103759428599
 72
     1
 10
113.5179632962733
 20
-134.8103759428599
 11
114.4295355616704
 21
-134.8103759428599
 72
     1
 10
114.4295355616704
 20
-134.8103759428599
 11
114.4295355616704
 21
-134.698238084815
 97
        0
 92
        1
 93
        4
 72
     1
 10
114.4295355616704
 20
-134.9435288833648
 11
113.5179632962733
 21
-134.9435288833648
 72
     1
 10
113.5179632962733
 20
-134.9435288833648
 11
113.5179632962733
 21
-135.0535996841186
 72
     1
 10
113.5179632962733
 20
-135.0535996841186
 11
114.4295355616704
 21
-135.0535996841186
 72
     1
 10
114.4295355616704
 20
-135.0535996841186
 11
114.4295355616704
 21
-134.9435288833648
 97
        0
 92
        1
 93
        4
 72
     1
 10
114.4295355616704
 20
-135.1889919366889
 11
113.5179632962733
 21
-135.1889919366889
 72
     1
 10
113.5179632962733
 20
-135.1889919366889
 11
113.5179632962733
 21
-135.2968234253772
 72
     1
 10
113.5179632962733
 20
-135.2968234253772
 11
114.4295355616704
 21
-135.2968234253772
 72
     1
 10
114.4295355616704
 20
-135.2968234253772
 11
114.4295355616704
 21
-135.1889919366889
 97
        0
 92
        1
 93
        1
 72
     4
 94
        3
 73
     0
 74
     1
 95
       74
 96
       70
 40
0.0
 40
0.0
 40
0.0
 40
0.0
 40
1.0
 40
1.0
 40
1.0
 40
2.0
 40
2.0
 40
2.0
 40
3.0
 40
3.0
 40
3.0
 40
4.0
 40
4.0
 40
4.0
 40
5.0
 40
5.0
 40
5.0
 40
6.0
 40
6.0
 40
6.0
 40
7.0
 40
7.0
 40
7.0
 40
8.0
 40
8.0
 40
8.0
 40
9.0
 40
9.0
 40
9.0
 40
10.0
 40
10.0
 40
10.0
 40
11.0
 40
11.0
 40
11.0
 40
12.0
 40
12.0
 40
12.0
 40
13.0
 40
13.0
 40
13.0
 40
14.0
 40
14.0
 40
14.0
 40
15.0
 40
15.0
 40
15.0
 40
16.0
 40
16.0
 40
16.0
 40
17.0
 40
17.0
 40
17.0
 40
18.0
 40
18.0
 40
18.0
 40
19.0
 40
19.0
 40
19.0
 40
20.0
 40
20.0
 40
20.0
 40
21.0
 40
21.0
 40
21.0
 40
22.0
 40
22.0
 40
22.0
 40
23.0
 40
23.0
 40
23.0
 40
23.0
 10
114.7468288558619
 20
-134.2455525380532
 10
114.7468288558619
 20
-134.2455525380532
 10
114.5859428967007
 20
-134.2455525380532
 10
114.5859428967007
 20
-134.2455525380532
 10
114.5859428967007
 20
-134.2455525380532
 10
114.5859428967007
 20
-134.3597574533892
 10
114.5859428967007
 20
-134.3597574533892
 10
114.5859428967007
 20
-134.3998928157924
 10
114.5924885781227
 20
-134.4739623687253
 10
114.596622692705
 20
-134.4992838205418
 10
114.596622692705
 20
-134.4992838205418
 10
114.3850938299107
 20
-134.4992838205418
 10
114.3850938299107
 20
-134.4992838205418
 10
114.395773625915
 20
-134.4338270063221
 10
114.3978406832061
 20
-134.3745713639758
 10
114.3978406832061
 20
-134.3723320519104
 10
114.3978406832061
 20
-134.3723320519104
 10
114.3978406832061
 20
-134.2496866526355
 10
114.3978406832061
 20
-134.2496866526355
 10
114.3978406832061
 20
-134.2496866526355
 10
114.2180066988761
 20
-134.2496866526355
 10
114.2180066988761
 20
-134.2496866526355
 10
114.1990586737072
 20
-134.3089422949818
 10
114.1525498846563
 20
-134.4548420887821
 10
114.038172714546
 20
-134.5373521256539
 10
114.038172714546
 20
-134.5373521256539
 10
113.8817653795157
 20
-134.4315876942567
 10
113.8817653795157
 20
-134.4315876942567
 10
113.9554904229
 20
-134.3850789052058
 10
114.0719346503015
 20
-134.3110093522729
 10
114.0719346503015
 20
-133.9895819434991
 10
114.0719346503015
 20
-133.9344604157351
 10
114.0678005357192
 20
-133.8900186839754
 10
114.065733478428
 20
-133.8519503788634
 10
114.141870088652
 20
-133.8603908628023
 10
114.2159396415849
 20
-133.86676428945
 10
114.2793293985135
 20
-133.86676428945
 10
114.4570963255524
 20
-133.86676428945
 10
114.6558783350513
 20
-133.8075086471037
 10
114.7172010346888
 20
-133.7778808259305
 10
114.7172010346888
 20
-133.7778808259305
 10
114.8443250580945
 20
-133.9132730785009
 10
114.8443250580945
 20
-133.9132730785009
 10
114.8484591726768
 20
-133.9175794478574
 10
114.8505262299679
 20
-133.9260199317963
 10
114.8505262299679
 20
-133.932393358444
 10
114.8505262299679
 20
-133.9535806956783
 10
114.8357123193814
 20
-133.959954122326
 10
114.8188313515036
 20
-133.959954122326
 10
114.7974717594951
 20
-133.959954122326
 10
114.783002358457
 20
-133.9515136383871
 10
114.7637098237396
 20
-133.9408338423829
 10
114.5904215208316
 20
-133.998022427438
 10
114.3723469766152
 20
-134.0233438792546
 10
114.2393662908846
 20
-134.0254109365457
 10
114.2393662908846
 20
-134.0254109365457
 10
114.2348876667538
 20
-134.1079209734175
 10
114.2348876667538
 20
-134.1079209734175
 10
114.2348876667538
 20
-134.1079209734175
 10
114.5080837387341
 20
-134.1079209734175
 10
114.5080837387341
 20
-134.1079209734175
 10
114.5649278142407
 20
-134.1079209734175
 10
114.8270995806682
 20
-134.0889729482486
 10
114.8718858219765
 20
-134.0825995216009
 10
114.8718858219765
 20
-134.0825995216009
 10
114.8718858219765
 20
-134.2517537099266
 10
114.8718858219765
 20
-134.2517537099266
 10
114.8377793766725
 20
-134.2476195953444
 10
114.8250325233771
 20
-134.2455525380532
 10
114.7468288558619
 20
-134.2455525380532
 97
        0
 97
        0
 75
     2
 76
     1
 98
        0
  0
ENDBLK
  5
17C
330
179
100
AcDbEntity
  8
0
100
AcDbBlockEnd
  0
ENDSEC
  0
SECTION
  2
ENTITIES
  0
SPLINE
  5
41
330
1F
100
AcDbEntity
  8
_U+30EC_U+30A4_U+30E4_U+30FC 1
 62
   179
420
  2234388
370
     9
100
AcDbSpline
210
0.0
220
0.0
230
1.0
 70
    11
 71
     3
 72
    17
 73
    13
 74
     0
 42
0.0000000001
 43
0.0000000001
 12
1.0
 22
0.0
 32
0.0
 13
1.0
 23
0.0
 33
0.0
 40
0.0
 40
0.0
 40
0.0
 40
0.0
 40
1.0
 40
1.0
 40
1.0
 40
2.0
 40
2.0
 40
2.0
 40
3.0
 40
3.0
 40
3.0
 40
4.0
 40
4.0
 40
4.0
 40
4.0
 10
96.79918405444062
 20
-163.2452036131601
 30
0.0
 10
96.79918405444062
 20
-163.1905234882551
 30
0.0
 10
96.75437628128559
 20
-163.1457264810235
 30
0.0
 10
96.69934088090872
 20
-163.1457264810235
 30
0.0
 10
96.64466075600377
 20
-163.1457264810235
 30
0.0
 10
96.59986374877214
 20
-163.1905234882551
 30
0.0
 10
96.59986374877214
 20
-163.2452036131601
 30
0.0
 10
96.59986374877214
 20
-163.3005942890088
 30
0.0
 10
96.64466075600377
 20
-163.3454020621639
 30
0.0
 10
96.69934088090872
 20
-163.3454020621639
 30
0.0
 10
96.75437628128559
 20
-163.3454020621639
 30
0.0
 10
96.79918405444062
 20
-163.3005942890088
 30
0.0
 10
96.79918405444062
 20
-163.2452036131601
 30
0.0
  0
SPLINE
  5
42
330
1F
100
AcDbEntity
  8
_U+30EC_U+30A4_U+30E4_U+30FC 1
 62
   179
420
  2234388
370
     9
100
AcDbSpline
210
0.0
220
0.0
230
1.0
 70
    11
 71
     3
 72
    17
 73
    13
 74
     0
 42
0.0000000001
 43
0.0000000001
 12
1.0
 22
0.0
 32
0.0
 13
1.0
 23
0.0
 33
0.0
 40
0.0
 40
0.0
 40
0.0
 40
0.0
 40
1.0
 40
1.0
 40
1.0
 40
2.0
 40
2.0
 40
2.0
 40
3.0
 40
3.0
 40
3.0
 40
4.0
 40
4.0
 40
4.0
 40
4.0
 10
96.79918405444062
 20
-138.2455667785896
 30
0.0
 10
96.79918405444062
 20
-138.1901868686643
 30
0.0
 10
96.75437628128559
 20
-138.1450345859607
 30
0.0
 10
96.69934088090872
 20
-138.1450345859607
 30
0.0
 10
96.64466075600377
 20
-138.1450345859607
 30
0.0
 10
96.59986374877214
 20
-138.1901868686643
 30
0.0
 10
96.59986374877214
 20
-138.2455667785896
 30
0.0
 10
96.59986374877214
 20
-138.3006021789665
 30
0.0
 10
96.64466075600377
 20
-138.3454099521215
 30
0.0
 10
96.69934088090872
 20
-138.3454099521215
 30
0.0
 10
96.75437628128559
 20
-138.3454099521215
 30
0.0
 10
96.79918405444062
 20
-138.3006021789665
 30
0.0
 10
96.79918405444062
 20
-138.2455667785896
 30
0.0
  0
POLYLINE
  5
43
330
1F
100
AcDbEntity
  8
_U+30EC_U+30A4_U+30E4_U+30FC 1
 62
   179
420
  2234388
370
     9
100
AcDb2dPolyline
 66
     1
 10
0.0
 20
0.0
 30
0.0
  0
VERTEX
  5
44
330
43
100
AcDbEntity
  8
_U+30EC_U+30A4_U+30E4_U+30FC 1
 62
   179
420
  2234388
370
     9
100
AcDbVertex
100
AcDb2dVertex
 10
96.69927628536837
 20
-163.2452036131601
 30
0.0
  0
VERTEX
  5
45
330
43
100
AcDbEntity
  8
_U+30EC_U+30A4_U+30E4_U+30FC 1
 62
   179
420
  2234388
370
     9
100
AcDbVertex
100
AcDb2dVertex
 10
96.69927628536837
 20
-138.245265332735
 30
0.0
  0
SEQEND
  5
46
330
43
100
AcDbEntity
  8
_U+30EC_U+30A4_U+30E4_U+30FC 1
 62
   179
420
  2234388
370
     9
  0
POLYLINE
  5
47
330
1F
100
AcDbEntity
  8
_U+30EC_U+30A4_U+30E4_U+30FC 1
 62
   179
420
  2234388
370
     9
100
AcDb2dPolyline
 66
     1
 10
0.0
 20
0.0
 30
0.0
  0
VERTEX
  5
48
330
47
100
AcDbEntity
  8
_U+30EC_U+30A4_U+30E4_U+30FC 1
 62
   179
420
  2234388
370
     9
100
AcDbVertex
100
AcDb2dVertex
 10
98.76084295558866
 20
-163.2452036131601
 30
0.0
  0
VERTEX
  5
49
330
47
100
AcDbEntity
  8
_U+30EC_U+30A4_U+30E4_U+30FC 1
 62
   179
420
  2234388
370
     9
100
AcDbVertex
100
AcDb2dVertex
 10
95.69943421408513
 20
-163.2452036131601
 30
0.0
  0
SEQEND
  5
4A
330
47
100
AcDbEntity
  8
_U+30EC_U+30A4_U+30E4_U+30FC 1
 62
   179
420
  2234388
370
     9
  0
POLYLINE
  5
4B
330
1F
100
AcDbEntity
  8
_U+30EC_U+30A4_U+30E4_U+30FC 1
 62
   179
420
  2234388
370
     9
100
AcDb2dPolyline
 66
     1
 10
0.0
 20
0.0
 30
0.0
  0
VERTEX
  5
4C
330
4B
100
AcDbEntity
  8
_U+30EC_U+30A4_U+30E4_U+30FC 1
 62
   179
420
  2234388
370
     9
100
AcDbVertex
100
AcDb2dVertex
 10
95.69989714879095
 20
-138.2455667785896
 30
0.0
  0
VERTEX
  5
4D
330
4B
100
AcDbEntity
  8
_U+30EC_U+30A4_U+30E4_U+30FC 1
 62
   179
420
  2234388
370
     9
100
AcDbVertex
100
AcDb2dVertex
 10
98.55879887130247
 20
-138.2455667785896
 30
0.0
  0
VERTEX
  5
4E
330
4B
100
AcDbEntity
  8
_U+30EC_U+30A4_U+30E4_U+30FC 1
 62
   179
420
  2234388
370
     9
100
AcDbVertex
100
AcDb2dVertex
 10
96.30066797180157
 20
-138.2455667785896
 30
0.0
  0
VERTEX
  5
4F
330
4B
100
AcDbEntity
  8
_U+30EC_U+30A4_U+30E4_U+30FC 1
 62
   179
420
  2234388
370
     9
100
AcDbVertex
100
AcDb2dVertex
 10
98.7609398488995
 20
-138.2455667785896
 30
0.0
  0
SEQEND
  5
50
330
4B
100
AcDbEntity
  8
_U+30EC_U+30A4_U+30E4_U+30FC 1
 62
   179
420
  2234388
370
     9
  0
INSERT
  5
52
330
1F
100
AcDbEntity
  8
_U+30EC_U+30A4_U+30E4_U+30FC 1
100
AcDbBlockReference
  2
block 2
 10
0.0
 20
0.0
 30
0.0
  0
SPLINE
  5
59
330
1F
100
AcDbEntity
  8
_U+30EC_U+30A4_U+30E4_U+30FC 1
 62
   179
420
  2234388
370
     9
100
AcDbSpline
210
0.0
220
0.0
230
1.0
 70
    11
 71
     3
 72
    17
 73
    13
 74
     0
 42
0.0000000001
 43
0.0000000001
 12
1.0
 22
0.0
 32
0.0
 13
1.0
 23
0.0
 33
0.0
 40
0.0
 40
0.0
 40
0.0
 40
0.0
 40
1.0
 40
1.0
 40
1.0
 40
2.0
 40
2.0
 40
2.0
 40
3.0
 40
3.0
 40
3.0
 40
4.0
 40
4.0
 40
4.0
 40
4.0
 10
112.8650746381249
 20
-150.2448128218681
 30
0.0
 10
112.8650746381249
 20
-150.1901434628865
 30
0.0
 10
112.8202668649699
 20
-150.144991180183
 30
0.0
 10
112.765231464593
 20
-150.144991180183
 30
0.0
 10
112.7101960642161
 20
-150.144991180183
 30
0.0
 10
112.6653990569845
 20
-150.1901434628865
 30
0.0
 10
112.6653990569845
 20
-150.2448128218681
 30
0.0
 10
112.6653990569845
 20
-150.3005587731888
 30
0.0
 10
112.7101960642161
 20
-150.3453665463438
 30
0.0
 10
112.765231464593
 20
-150.3453665463438
 30
0.0
 10
112.8202668649699
 20
-150.3453665463438
 30
0.0
 10
112.8650746381249
 20
-150.3005587731888
 30
0.0
 10
112.8650746381249
 20
-150.2448128218681
 30
0.0
  0
SPLINE
  5
5A
330
1F
100
AcDbEntity
  8
_U+30EC_U+30A4_U+30E4_U+30FC 1
 62
   179
420
  2234388
370
     9
100
AcDbSpline
210
0.0
220
0.0
230
1.0
 70
    11
 71
     3
 72
    17
 73
    13
 74
     0
 42
0.0000000001
 43
0.0000000001
 12
1.0
 22
0.0
 32
0.0
 13
1.0
 23
0.0
 33
0.0
 40
0.0
 40
0.0
 40
0.0
 40
0.0
 40
1.0
 40
1.0
 40
1.0
 40
2.0
 40
2.0
 40
2.0
 40
3.0
 40
3.0
 40
3.0
 40
4.0
 40
4.0
 40
4.0
 40
4.0
 10
112.8650746381249
 20
-138.2448992913394
 30
0.0
 10
112.8650746381249
 20
-138.1902299323582
 30
0.0
 10
112.8202668649699
 20
-138.1454221592028
 30
0.0
 10
112.765231464593
 20
-138.1454221592028
 30
0.0
 10
112.7101960642161
 20
-138.1454221592028
 30
0.0
 10
112.6653990569845
 20
-138.1902299323582
 30
0.0
 10
112.6653990569845
 20
-138.2448992913394
 30
0.0
 10
112.6653990569845
 20
-138.3006452426604
 30
0.0
 10
112.7101960642161
 20
-138.3454530158151
 30
0.0
 10
112.765231464593
 20
-138.3454530158151
 30
0.0
 10
112.8202668649699
 20
-138.3454530158151
 30
0.0
 10
112.8650746381249
 20
-138.3006452426604
 30
0.0
 10
112.8650746381249
 20
-138.2448992913394
 30
0.0
  0
POLYLINE
  5
5B
330
1F
100
AcDbEntity
  8
_U+30EC_U+30A4_U+30E4_U+30FC 1
 62
   179
420
  2234388
370
     9
100
AcDb2dPolyline
 66
     1
 10
0.0
 20
0.0
 30
0.0
  0
VERTEX
  5
5C
330
5B
100
AcDbEntity
  8
_U+30EC_U+30A4_U+30E4_U+30FC 1
 62
   179
420
  2234388
370
     9
100
AcDbVertex
100
AcDb2dVertex
 10
112.7651668690526
 20
-150.2448128218681
 30
0.0
  0
VERTEX
  5
5D
330
5B
100
AcDbEntity
  8
_U+30EC_U+30A4_U+30E4_U+30FC 1
 62
   179
420
  2234388
370
     9
100
AcDbVertex
100
AcDb2dVertex
 10
112.7651668690526
 20
-138.2450930779607
 30
0.0
  0
SEQEND
  5
5E
330
5B
100
AcDbEntity
  8
_U+30EC_U+30A4_U+30E4_U+30FC 1
 62
   179
420
  2234388
370
     9
  0
POLYLINE
  5
5F
330
1F
100
AcDbEntity
  8
_U+30EC_U+30A4_U+30E4_U+30FC 1
 62
   179
420
  2234388
370
     9
100
AcDb2dPolyline
 66
     1
 10
0.0
 20
0.0
 30
0.0
  0
VERTEX
  5
60
330
5F
100
AcDbEntity
  8
_U+30EC_U+30A4_U+30E4_U+30FC 1
 62
   179
420
  2234388
370
     9
100
AcDbVertex
100
AcDb2dVertex
 10
111.3051246364804
 20
-150.2451788632634
 30
0.0
  0
VERTEX
  5
61
330
5F
100
AcDbEntity
  8
_U+30EC_U+30A4_U+30E4_U+30FC 1
 62
   179
420
  2234388
370
     9
100
AcDbVertex
100
AcDb2dVertex
 10
113.7650412381061
 20
-150.2451788632634
 30
0.0
  0
SEQEND
  5
62
330
5F
100
AcDbEntity
  8
_U+30EC_U+30A4_U+30E4_U+30FC 1
 62
   179
420
  2234388
370
     9
  0
POLYLINE
  5
63
330
1F
100
AcDbEntity
  8
_U+30EC_U+30A4_U+30E4_U+30FC 1
 62
   179
420
  2234388
370
     9
100
AcDb2dPolyline
 66
     1
 10
0.0
 20
0.0
 30
0.0
  0
VERTEX
  5
64
330
63
100
AcDbEntity
  8
_U+30EC_U+30A4_U+30E4_U+30FC 1
 62
   179
420
  2234388
370
     9
100
AcDbVertex
100
AcDb2dVertex
 10
111.3051246364804
 20
-138.2451792053479
 30
0.0
  0
VERTEX
  5
65
330
63
100
AcDbEntity
  8
_U+30EC_U+30A4_U+30E4_U+30FC 1
 62
   179
420
  2234388
370
     9
100
AcDbVertex
100
AcDb2dVertex
 10
113.7650412381061
 20
-138.2451792053479
 30
0.0
  0
SEQEND
  5
66
330
63
100
AcDbEntity
  8
_U+30EC_U+30A4_U+30E4_U+30FC 1
 62
   179
420
  2234388
370
     9
  0
INSERT
  5
68
330
1F
100
AcDbEntity
  8
_U+30EC_U+30A4_U+30E4_U+30FC 1
100
AcDbBlockReference
  2
block 3
 10
0.0
 20
0.0
 30
0.0
  0
SPLINE
  5
6F
330
1F
100
AcDbEntity
  8
_U+30EC_U+30A4_U+30E4_U+30FC 1
 62
   179
420
  2234388
370
     9
100
AcDbSpline
210
0.0
220
0.0
230
1.0
 70
    11
 71
     3
 72
    17
 73
    13
 74
     0
 42
0.0000000001
 43
0.0000000001
 12
1.0
 22
0.0
 32
0.0
 13
1.0
 23
0.0
 33
0.0
 40
0.0
 40
0.0
 40
0.0
 40
0.0
 40
1.0
 40
1.0
 40
1.0
 40
2.0
 40
2.0
 40
2.0
 40
3.0
 40
3.0
 40
3.0
 40
4.0
 40
4.0
 40
4.0
 40
4.0
 10
107.4045659962337
 20
-134.2458109202146
 30
0.0
 10
107.4045659962337
 20
-134.1907970516845
 30
0.0
 10
107.3597582230787
 20
-134.1459892785295
 30
0.0
 10
107.3047228227018
 20
-134.1459892785295
 30
0.0
 10
107.249687422325
 20
-134.1459892785295
 30
0.0
 10
107.2048904150933
 20
-134.1907970516845
 30
0.0
 10
107.2048904150933
 20
-134.2458109202146
 30
0.0
 10
107.2048904150933
 20
-134.3008463205915
 30
0.0
 10
107.249687422325
 20
-134.3456540937465
 30
0.0
 10
107.3047228227018
 20
-134.3456540937465
 30
0.0
 10
107.3597582230787
 20
-134.3456540937465
 30
0.0
 10
107.4045659962337
 20
-134.3008463205915
 30
0.0
 10
107.4045659962337
 20
-134.2458109202146
 30
0.0
  0
SPLINE
  5
70
330
1F
100
AcDbEntity
  8
_U+30EC_U+30A4_U+30E4_U+30FC 1
 62
   179
420
  2234388
370
     9
100
AcDbSpline
210
0.0
220
0.0
230
1.0
 70
    11
 71
     3
 72
    17
 73
    13
 74
     0
 42
0.0000000001
 43
0.0000000001
 12
1.0
 22
0.0
 32
0.0
 13
1.0
 23
0.0
 33
0.0
 40
0.0
 40
0.0
 40
0.0
 40
0.0
 40
1.0
 40
1.0
 40
1.0
 40
2.0
 40
2.0
 40
2.0
 40
3.0
 40
3.0
 40
3.0
 40
4.0
 40
4.0
 40
4.0
 40
4.0
 10
99.40473130178185
 20
-134.2458109202146
 30
0.0
 10
99.40473130178185
 20
-134.1907970516845
 30
0.0
 10
99.35992352862682
 20
-134.1459892785295
 30
0.0
 10
99.30488812824996
 20
-134.1459892785295
 30
0.0
 10
99.24985272787309
 20
-134.1459892785295
 30
0.0
 10
99.20505572064145
 20
-134.1907970516845
 30
0.0
 10
99.20505572064145
 20
-134.2458109202146
 30
0.0
 10
99.20505572064145
 20
-134.3008463205915
 30
0.0
 10
99.24985272787309
 20
-134.3456540937465
 30
0.0
 10
99.30488812824996
 20
-134.3456540937465
 30
0.0
 10
99.35992352862682
 20
-134.3456540937465
 30
0.0
 10
99.40473130178185
 20
-134.3008463205915
 30
0.0
 10
99.40473130178185
 20
-134.2458109202146
 30
0.0
  0
POLYLINE
  5
71
330
1F
100
AcDbEntity
  8
_U+30EC_U+30A4_U+30E4_U+30FC 1
 62
   179
420
  2234388
370
     9
100
AcDb2dPolyline
 66
     1
 10
0.0
 20
0.0
 30
0.0
  0
VERTEX
  5
72
330
71
100
AcDbEntity
  8
_U+30EC_U+30A4_U+30E4_U+30FC 1
 62
   179
420
  2234388
370
     9
100
AcDbVertex
100
AcDb2dVertex
 10
99.3048235327096
 20
-134.2458109202146
 30
0.0
  0
VERTEX
  5
73
330
71
100
AcDbEntity
  8
_U+30EC_U+30A4_U+30E4_U+30FC 1
 62
   179
420
  2234388
370
     9
100
AcDbVertex
100
AcDb2dVertex
 10
107.304755120472
 20
-134.2458109202146
 30
0.0
  0
SEQEND
  5
74
330
71
100
AcDbEntity
  8
_U+30EC_U+30A4_U+30E4_U+30FC 1
 62
   179
420
  2234388
370
     9
  0
POLYLINE
  5
75
330
1F
100
AcDbEntity
  8
_U+30EC_U+30A4_U+30E4_U+30FC 1
 62
   179
420
  2234388
370
     9
100
AcDb2dPolyline
 66
     1
 10
0.0
 20
0.0
 30
0.0
  0
VERTEX
  5
76
330
75
100
AcDbEntity
  8
_U+30EC_U+30A4_U+30E4_U+30FC 1
 62
   179
420
  2234388
370
     9
100
AcDbVertex
100
AcDb2dVertex
 10
99.3048235327096
 20
-136.7455937361587
 30
0.0
  0
VERTEX
  5
77
330
75
100
AcDbEntity
  8
_U+30EC_U+30A4_U+30E4_U+30FC 1
 62
   179
420
  2234388
370
     9
100
AcDbVertex
100
AcDb2dVertex
 10
99.3048235327096
 20
-133.2460442103951
 30
0.0
  0
SEQEND
  5
78
330
75
100
AcDbEntity
  8
_U+30EC_U+30A4_U+30E4_U+30FC 1
 62
   179
420
  2234388
370
     9
  0
POLYLINE
  5
79
330
1F
100
AcDbEntity
  8
_U+30EC_U+30A4_U+30E4_U+30FC 1
 62
   179
420
  2234388
370
     9
100
AcDb2dPolyline
 66
     1
 10
0.0
 20
0.0
 30
0.0
  0
VERTEX
  5
7A
330
79
100
AcDbEntity
  8
_U+30EC_U+30A4_U+30E4_U+30FC 1
 62
   179
420
  2234388
370
     9
100
AcDbVertex
100
AcDb2dVertex
 10
107.3046582271615
 20
-136.7455937361587
 30
0.0
  0
VERTEX
  5
7B
330
79
100
AcDbEntity
  8
_U+30EC_U+30A4_U+30E4_U+30FC 1
 62
   179
420
  2234388
370
     9
100
AcDbVertex
100
AcDb2dVertex
 10
107.3046582271615
 20
-133.2460442103951
 30
0.0
  0
SEQEND
  5
7C
330
79
100
AcDbEntity
  8
_U+30EC_U+30A4_U+30E4_U+30FC 1
 62
   179
420
  2234388
370
     9
  0
INSERT
  5
7E
330
1F
100
AcDbEntity
  8
_U+30EC_U+30A4_U+30E4_U+30FC 1
100
AcDbBlockReference
  2
block 4
 10
0.0
 20
0.0
 30
0.0
  0
POLYLINE
  5
85
330
1F
100
AcDbEntity
  8
_U+30EC_U+30A4_U+30E4_U+30FC 1
370
     0
100
AcDb2dPolyline
 66
     1
 10
0.0
 20
0.0
 30
0.0
  0
VERTEX
  5
86
330
85
100
AcDbEntity
  8
_U+30EC_U+30A4_U+30E4_U+30FC 1
370
     0
100
AcDbVertex
100
AcDb2dVertex
 10
99.30514651041135
 20
-163.2449236991519
 30
0.0
  0
VERTEX
  5
87
330
85
100
AcDbEntity
  8
_U+30EC_U+30A4_U+30E4_U+30FC 1
370
     0
100
AcDbVertex
100
AcDb2dVertex
 10
99.53127396532443
 20
-162.7355232679641
 30
0.0
  0
VERTEX
  5
88
330
85
100
AcDbEntity
  8
_U+30EC_U+30A4_U+30E4_U+30FC 1
370
     0
100
AcDbVertex
100
AcDb2dVertex
 10
99.30514651041135
 20
-162.2465673252967
 30
0.0
  0
VERTEX
  5
89
330
85
100
AcDbEntity
  8
_U+30EC_U+30A4_U+30E4_U+30FC 1
370
     0
100
AcDbVertex
100
AcDb2dVertex
 10
99.53127396532443
 20
-161.7371561281855
 30
0.0
  0
VERTEX
  5
8A
330
85
100
AcDbEntity
  8
_U+30EC_U+30A4_U+30E4_U+30FC 1
370
     0
100
AcDbVertex
100
AcDb2dVertex
 10
99.30514651041135
 20
-161.24855546099
 30
0.0
  0
VERTEX
  5
8B
330
85
100
AcDbEntity
  8
_U+30EC_U+30A4_U+30E4_U+30FC 1
370
     0
100
AcDbVertex
100
AcDb2dVertex
 10
99.53127396532443
 20
-160.7387997543303
 30
0.0
  0
VERTEX
  5
8C
330
85
100
AcDbEntity
  8
_U+30EC_U+30A4_U+30E4_U+30FC 1
370
     0
100
AcDbVertex
100
AcDb2dVertex
 10
99.30514651041135
 20
-160.2501990871347
 30
0.0
  0
VERTEX
  5
8D
330
85
100
AcDbEntity
  8
_U+30EC_U+30A4_U+30E4_U+30FC 1
370
     0
100
AcDbVertex
100
AcDb2dVertex
 10
99.53127396532443
 20
-159.7400773390797
 30
0.0
  0
VERTEX
  5
8E
330
85
100
AcDbEntity
  8
_U+30EC_U+30A4_U+30E4_U+30FC 1
370
     0
100
AcDbVertex
100
AcDb2dVertex
 10
99.30514651041135
 20
-159.252187222828
 30
0.0
  0
VERTEX
  5
8F
330
85
100
AcDbEntity
  8
_U+30EC_U+30A4_U+30E4_U+30FC 1
370
     0
100
AcDbVertex
100
AcDb2dVertex
 10
99.53127396532443
 20
-158.7417209652245
 30
0.0
  0
VERTEX
  5
90
330
85
100
AcDbEntity
  8
_U+30EC_U+30A4_U+30E4_U+30FC 1
370
     0
100
AcDbVertex
100
AcDb2dVertex
 10
99.30514651041135
 20
-158.2534755735009
 30
0.0
  0
VERTEX
  5
91
330
85
100
AcDbEntity
  8
_U+30EC_U+30A4_U+30E4_U+30FC 1
370
     0
100
AcDbVertex
100
AcDb2dVertex
 10
99.53127396532443
 20
-157.7433645913693
 30
0.0
  0
VERTEX
  5
92
330
85
100
AcDbEntity
  8
_U+30EC_U+30A4_U+30E4_U+30FC 1
370
     0
100
AcDbVertex
100
AcDb2dVertex
 10
99.30514651041135
 20
-157.2551191996456
 30
0.0
  0
VERTEX
  5
93
330
85
100
AcDbEntity
  8
_U+30EC_U+30A4_U+30E4_U+30FC 1
370
     0
100
AcDbVertex
100
AcDb2dVertex
 10
99.53127396532443
 20
-156.7453527270626
 30
0.0
  0
VERTEX
  5
94
330
85
100
AcDbEntity
  8
_U+30EC_U+30A4_U+30E4_U+30FC 1
370
     0
100
AcDbVertex
100
AcDb2dVertex
 10
99.30514651041135
 20
-156.256752059867
 30
0.0
  0
VERTEX
  5
95
330
85
100
AcDbEntity
  8
_U+30EC_U+30A4_U+30E4_U+30FC 1
370
     0
100
AcDbVertex
100
AcDb2dVertex
 10
99.53127396532443
 20
-155.746985587284
 30
0.0
  0
VERTEX
  5
96
330
85
100
AcDbEntity
  8
_U+30EC_U+30A4_U+30E4_U+30FC 1
370
     0
100
AcDbVertex
100
AcDb2dVertex
 10
99.30514651041135
 20
-155.2583956860118
 30
0.0
  0
VERTEX
  5
97
330
85
100
AcDbEntity
  8
_U+30EC_U+30A4_U+30E4_U+30FC 1
370
     0
100
AcDbVertex
100
AcDb2dVertex
 10
99.53127396532443
 20
-154.7482739379568
 30
0.0
  0
VERTEX
  5
98
330
85
100
AcDbEntity
  8
_U+30EC_U+30A4_U+30E4_U+30FC 1
370
     0
100
AcDbVertex
100
AcDb2dVertex
 10
99.30514651041135
 20
-154.2600285462332
 30
0.0
  0
VERTEX
  5
99
330
85
100
AcDbEntity
  8
_U+30EC_U+30A4_U+30E4_U+30FC 1
370
     0
100
AcDbVertex
100
AcDb2dVertex
 10
99.53127396532443
 20
-153.7502836054969
 30
0.0
  0
VERTEX
  5
9A
330
85
100
AcDbEntity
  8
_U+30EC_U+30A4_U+30E4_U+30FC 1
370
     0
100
AcDbVertex
100
AcDb2dVertex
 10
99.30514651041135
 20
-153.2616829383013
 30
0.0
  0
VERTEX
  5
9B
330
85
100
AcDbEntity
  8
_U+30EC_U+30A4_U+30E4_U+30FC 1
370
     0
100
AcDbVertex
100
AcDb2dVertex
 10
99.53127396532443
 20
-152.7522609752668
 30
0.0
  0
VERTEX
  5
9C
330
85
100
AcDbEntity
  8
_U+30EC_U+30A4_U+30E4_U+30FC 1
370
     0
100
AcDbVertex
100
AcDb2dVertex
 10
99.30479123493943
 20
-152.2633157985227
 30
0.0
  0
VERTEX
  5
9D
330
85
100
AcDbEntity
  8
_U+30EC_U+30A4_U+30E4_U+30FC 1
370
     0
100
AcDbVertex
100
AcDb2dVertex
 10
99.53127396532443
 20
-151.7380248644093
 30
0.0
  0
VERTEX
  5
9E
330
85
100
AcDbEntity
  8
_U+30EC_U+30A4_U+30E4_U+30FC 1
370
     0
100
AcDbVertex
100
AcDb2dVertex
 10
99.30514651041135
 20
-151.4251240669614
 30
0.0
  0
VERTEX
  5
9F
330
85
100
AcDbEntity
  8
_U+30EC_U+30A4_U+30E4_U+30FC 1
370
     0
100
AcDbVertex
100
AcDb2dVertex
 10
99.53127396532443
 20
-150.9157021039269
 30
0.0
  0
VERTEX
  5
A0
330
85
100
AcDbEntity
  8
_U+30EC_U+30A4_U+30E4_U+30FC 1
370
     0
100
AcDbVertex
100
AcDb2dVertex
 10
99.30514651041135
 20
-150.4271014367313
 30
0.0
  0
VERTEX
  5
A1
330
85
100
AcDbEntity
  8
_U+30EC_U+30A4_U+30E4_U+30FC 1
370
     0
100
AcDbVertex
100
AcDb2dVertex
 10
99.53127396532443
 20
-149.9173349641483
 30
0.0
  0
VERTEX
  5
A2
330
85
100
AcDbEntity
  8
_U+30EC_U+30A4_U+30E4_U+30FC 1
370
     0
100
AcDbVertex
100
AcDb2dVertex
 10
99.30514651041135
 20
-149.4287342969527
 30
0.0
  0
VERTEX
  5
A3
330
85
100
AcDbEntity
  8
_U+30EC_U+30A4_U+30E4_U+30FC 1
370
     0
100
AcDbVertex
100
AcDb2dVertex
 10
99.53127396532443
 20
-148.9189893562164
 30
0.0
  0
VERTEX
  5
A4
330
85
100
AcDbEntity
  8
_U+30EC_U+30A4_U+30E4_U+30FC 1
370
     0
100
AcDbVertex
100
AcDb2dVertex
 10
99.30514651041135
 20
-148.4307331985694
 30
0.0
  0
VERTEX
  5
A5
330
85
100
AcDbEntity
  8
_U+30EC_U+30A4_U+30E4_U+30FC 1
370
     0
100
AcDbVertex
100
AcDb2dVertex
 10
99.53127396532443
 20
-147.9206222164378
 30
0.0
  0
VERTEX
  5
A6
330
85
100
AcDbEntity
  8
_U+30EC_U+30A4_U+30E4_U+30FC 1
370
     0
100
AcDbVertex
100
AcDb2dVertex
 10
99.30514651041135
 20
-147.4320215492423
 30
0.0
  0
VERTEX
  5
A7
330
85
100
AcDbEntity
  8
_U+30EC_U+30A4_U+30E4_U+30FC 1
370
     0
100
AcDbVertex
100
AcDb2dVertex
 10
99.53127396532443
 20
-146.921910567111
 30
0.0
  0
VERTEX
  5
A8
330
85
100
AcDbEntity
  8
_U+30EC_U+30A4_U+30E4_U+30FC 1
370
     0
100
AcDbVertex
100
AcDb2dVertex
 10
99.30514651041135
 20
-146.433654409464
 30
0.0
  0
VERTEX
  5
A9
330
85
100
AcDbEntity
  8
_U+30EC_U+30A4_U+30E4_U+30FC 1
370
     0
100
AcDbVertex
100
AcDb2dVertex
 10
99.53127396532443
 20
-145.9238879368806
 30
0.0
  0
VERTEX
  5
AA
330
85
100
AcDbEntity
  8
_U+30EC_U+30A4_U+30E4_U+30FC 1
370
     0
100
AcDbVertex
100
AcDb2dVertex
 10
99.30514651041135
 20
-145.4356533110803
 30
0.0
  0
VERTEX
  5
AB
330
85
100
AcDbEntity
  8
_U+30EC_U+30A4_U+30E4_U+30FC 1
370
     0
100
AcDbVertex
100
AcDb2dVertex
 10
99.53127396532443
 20
-144.9255423289488
 30
0.0
  0
VERTEX
  5
AC
330
85
100
AcDbEntity
  8
_U+30EC_U+30A4_U+30E4_U+30FC 1
370
     0
100
AcDbVertex
100
AcDb2dVertex
 10
99.30514651041135
 20
-144.4372861713017
 30
0.0
  0
VERTEX
  5
AD
330
85
100
AcDbEntity
  8
_U+30EC_U+30A4_U+30E4_U+30FC 1
370
     0
100
AcDbVertex
100
AcDb2dVertex
 10
99.53127396532443
 20
-143.9268306796219
 30
0.0
  0
VERTEX
  5
AE
330
85
100
AcDbEntity
  8
_U+30EC_U+30A4_U+30E4_U+30FC 1
370
     0
100
AcDbVertex
100
AcDb2dVertex
 10
99.30514651041135
 20
-143.4385745219749
 30
0.0
  0
VERTEX
  5
AF
330
85
100
AcDbEntity
  8
_U+30EC_U+30A4_U+30E4_U+30FC 1
370
     0
100
AcDbVertex
100
AcDb2dVertex
 10
99.53127396532443
 20
-142.9288080493915
 30
0.0
  0
VERTEX
  5
B0
330
85
100
AcDbEntity
  8
_U+30EC_U+30A4_U+30E4_U+30FC 1
370
     0
100
AcDbVertex
100
AcDb2dVertex
 10
99.30514651041135
 20
-142.440207382196
 30
0.0
  0
VERTEX
  5
B1
330
85
100
AcDbEntity
  8
_U+30EC_U+30A4_U+30E4_U+30FC 1
370
     0
100
AcDbVertex
100
AcDb2dVertex
 10
99.53127396532443
 20
-141.9308069510082
 30
0.0
  0
VERTEX
  5
B2
330
85
100
AcDbEntity
  8
_U+30EC_U+30A4_U+30E4_U+30FC 1
370
     0
100
AcDbVertex
100
AcDb2dVertex
 10
99.30514651041135
 20
-141.4418617742641
 30
0.0
  0
VERTEX
  5
B3
330
85
100
AcDbEntity
  8
_U+30EC_U+30A4_U+30E4_U+30FC 1
370
     0
100
AcDbVertex
100
AcDb2dVertex
 10
99.53127396532443
 20
-140.9320953016814
 30
0.0
  0
VERTEX
  5
B4
330
85
100
AcDbEntity
  8
_U+30EC_U+30A4_U+30E4_U+30FC 1
370
     0
100
AcDbVertex
100
AcDb2dVertex
 10
99.30514651041135
 20
-140.4434946344858
 30
0.0
  0
VERTEX
  5
B5
330
85
100
AcDbEntity
  8
_U+30EC_U+30A4_U+30E4_U+30FC 1
370
     0
100
AcDbVertex
100
AcDb2dVertex
 10
99.30479123493943
 20
-139.2680280549186
 30
0.0
  0
VERTEX
  5
B6
330
85
100
AcDbEntity
  8
_U+30EC_U+30A4_U+30E4_U+30FC 1
370
     0
100
AcDbVertex
100
AcDb2dVertex
 10
100.3045579447589
 20
-139.2680280549186
 30
0.0
  0
VERTEX
  5
B7
330
85
100
AcDbEntity
  8
_U+30EC_U+30A4_U+30E4_U+30FC 1
370
     0
100
AcDbVertex
100
AcDb2dVertex
 10
100.3045579447589
 20
-150.2450712040294
 30
0.0
  0
VERTEX
  5
B8
330
85
100
AcDbEntity
  8
_U+30EC_U+30A4_U+30E4_U+30FC 1
370
     0
100
AcDbVertex
100
AcDb2dVertex
 10
100.1048931295419
 20
-163.2445791896034
 30
0.0
  0
VERTEX
  5
B9
330
85
100
AcDbEntity
  8
_U+30EC_U+30A4_U+30E4_U+30FC 1
370
     0
100
AcDbVertex
100
AcDb2dVertex
 10
99.30514651041135
 20
-163.2449236991519
 30
0.0
  0
VERTEX
  5
BA
330
85
100
AcDbEntity
  8
_U+30EC_U+30A4_U+30E4_U+30FC 1
370
     0
100
AcDbVertex
100
AcDb2dVertex
 10
99.53127396532443
 20
-162.7355232679641
 30
0.0
  0
VERTEX
  5
BB
330
85
100
AcDbEntity
  8
_U+30EC_U+30A4_U+30E4_U+30FC 1
370
     0
100
AcDbVertex
100
AcDb2dVertex
 10
99.30514651041135
 20
-162.2465673252967
 30
0.0
  0
VERTEX
  5
BC
330
85
100
AcDbEntity
  8
_U+30EC_U+30A4_U+30E4_U+30FC 1
370
     0
100
AcDbVertex
100
AcDb2dVertex
 10
99.53127396532443
 20
-161.7371561281855
 30
0.0
  0
VERTEX
  5
BD
330
85
100
AcDbEntity
  8
_U+30EC_U+30A4_U+30E4_U+30FC 1
370
     0
100
AcDbVertex
100
AcDb2dVertex
 10
99.30514651041135
 20
-161.24855546099
 30
0.0
  0
VERTEX
  5
BE
330
85
100
AcDbEntity
  8
_U+30EC_U+30A4_U+30E4_U+30FC 1
370
     0
100
AcDbVertex
100
AcDb2dVertex
 10
99.53127396532443
 20
-160.7387997543303
 30
0.0
  0
VERTEX
  5
BF
330
85
100
AcDbEntity
  8
_U+30EC_U+30A4_U+30E4_U+30FC 1
370
     0
100
AcDbVertex
100
AcDb2dVertex
 10
99.30514651041135
 20
-160.2501990871347
 30
0.0
  0
VERTEX
  5
C0
330
85
100
AcDbEntity
  8
_U+30EC_U+30A4_U+30E4_U+30FC 1
370
     0
100
AcDbVertex
100
AcDb2dVertex
 10
99.53127396532443
 20
-159.7400773390797
 30
0.0
  0
VERTEX
  5
C1
330
85
100
AcDbEntity
  8
_U+30EC_U+30A4_U+30E4_U+30FC 1
370
     0
100
AcDbVertex
100
AcDb2dVertex
 10
99.30514651041135
 20
-159.252187222828
 30
0.0
  0
VERTEX
  5
C2
330
85
100
AcDbEntity
  8
_U+30EC_U+30A4_U+30E4_U+30FC 1
370
     0
100
AcDbVertex
100
AcDb2dVertex
 10
99.53127396532443
 20
-158.7417209652245
 30
0.0
  0
VERTEX
  5
C3
330
85
100
AcDbEntity
  8
_U+30EC_U+30A4_U+30E4_U+30FC 1
370
     0
100
AcDbVertex
100
AcDb2dVertex
 10
99.30514651041135
 20
-158.2534755735009
 30
0.0
  0
VERTEX
  5
C4
330
85
100
AcDbEntity
  8
_U+30EC_U+30A4_U+30E4_U+30FC 1
370
     0
100
AcDbVertex
100
AcDb2dVertex
 10
99.53127396532443
 20
-157.7433645913693
 30
0.0
  0
VERTEX
  5
C5
330
85
100
AcDbEntity
  8
_U+30EC_U+30A4_U+30E4_U+30FC 1
370
     0
100
AcDbVertex
100
AcDb2dVertex
 10
99.30514651041135
 20
-157.2551191996456
 30
0.0
  0
VERTEX
  5
C6
330
85
100
AcDbEntity
  8
_U+30EC_U+30A4_U+30E4_U+30FC 1
370
     0
100
AcDbVertex
100
AcDb2dVertex
 10
99.53127396532443
 20
-156.7453527270626
 30
0.0
  0
VERTEX
  5
C7
330
85
100
AcDbEntity
  8
_U+30EC_U+30A4_U+30E4_U+30FC 1
370
     0
100
AcDbVertex
100
AcDb2dVertex
 10
99.30514651041135
 20
-156.256752059867
 30
0.0
  0
VERTEX
  5
C8
330
85
100
AcDbEntity
  8
_U+30EC_U+30A4_U+30E4_U+30FC 1
370
     0
100
AcDbVertex
100
AcDb2dVertex
 10
99.53127396532443
 20
-155.746985587284
 30
0.0
  0
VERTEX
  5
C9
330
85
100
AcDbEntity
  8
_U+30EC_U+30A4_U+30E4_U+30FC 1
370
     0
100
AcDbVertex
100
AcDb2dVertex
 10
99.30514651041135
 20
-155.2583956860118
 30
0.0
  0
VERTEX
  5
CA
330
85
100
AcDbEntity
  8
_U+30EC_U+30A4_U+30E4_U+30FC 1
370
     0
100
AcDbVertex
100
AcDb2dVertex
 10
99.53127396532443
 20
-154.7482739379568
 30
0.0
  0
VERTEX
  5
CB
330
85
100
AcDbEntity
  8
_U+30EC_U+30A4_U+30E4_U+30FC 1
370
     0
100
AcDbVertex
100
AcDb2dVertex
 10
99.30514651041135
 20
-154.2600285462332
 30
0.0
  0
VERTEX
  5
CC
330
85
100
AcDbEntity
  8
_U+30EC_U+30A4_U+30E4_U+30FC 1
370
     0
100
AcDbVertex
100
AcDb2dVertex
 10
99.53127396532443
 20
-153.7502836054969
 30
0.0
  0
VERTEX
  5
CD
330
85
100
AcDbEntity
  8
_U+30EC_U+30A4_U+30E4_U+30FC 1
370
     0
100
AcDbVertex
100
AcDb2dVertex
 10
99.30514651041135
 20
-153.2616829383013
 30
0.0
  0
VERTEX
  5
CE
330
85
100
AcDbEntity
  8
_U+30EC_U+30A4_U+30E4_U+30FC 1
370
     0
100
AcDbVertex
100
AcDb2dVertex
 10
99.53127396532443
 20
-152.7522609752668
 30
0.0
  0
VERTEX
  5
CF
330
85
100
AcDbEntity
  8
_U+30EC_U+30A4_U+30E4_U+30FC 1
370
     0
100
AcDbVertex
100
AcDb2dVertex
 10
99.30479123493943
 20
-152.2633157985227
 30
0.0
  0
SEQEND
  5
D1
330
85
100
AcDbEntity
  8
_U+30EC_U+30A4_U+30E4_U+30FC 1
370
     0
  0
HATCH
  5
D0
330
1F
100
AcDbEntity
  8
_U+30EC_U+30A4_U+30E4_U+30FC 1
 62
    43
420
 13286281
100
AcDbHatch
 10
0.0
 20
0.0
 30
0.0
210
0.0
220
0.0
230
1.0
  2
SOLID
 70
     1
 71
     0
 91
        1
 92
        1
 93
       74
 72
     1
 10
99.30514651041135
 20
-163.2449236991519
 11
99.53127396532443
 21
-162.7355232679641
 72
     1
 10
99.53127396532443
 20
-162.7355232679641
 11
99.30514651041135
 21
-162.2465673252967
 72
     1
 10
99.30514651041135
 20
-162.2465673252967
 11
99.53127396532443
 21
-161.7371561281855
 72
     1
 10
99.53127396532443
 20
-161.7371561281855
 11
99.30514651041135
 21
-161.24855546099
 72
     1
 10
99.30514651041135
 20
-161.24855546099
 11
99.53127396532443
 21
-160.7387997543303
 72
     1
 10
99.53127396532443
 20
-160.7387997543303
 11
99.30514651041135
 21
-160.2501990871347
 72
     1
 10
99.30514651041135
 20
-160.2501990871347
 11
99.53127396532443
 21
-159.7400773390797
 72
     1
 10
99.53127396532443
 20
-159.7400773390797
 11
99.30514651041135
 21
-159.252187222828
 72
     1
 10
99.30514651041135
 20
-159.252187222828
 11
99.53127396532443
 21
-158.7417209652245
 72
     1
 10
99.53127396532443
 20
-158.7417209652245
 11
99.30514651041135
 21
-158.2534755735009
 72
     1
 10
99.30514651041135
 20
-158.2534755735009
 11
99.53127396532443
 21
-157.7433645913693
 72
     1
 10
99.53127396532443
 20
-157.7433645913693
 11
99.30514651041135
 21
-157.2551191996457
 72
     1
 10
99.30514651041135
 20
-157.2551191996456
 11
99.53127396532443
 21
-156.7453527270626
 72
     1
 10
99.53127396532443
 20
-156.7453527270626
 11
99.30514651041135
 21
-156.256752059867
 72
     1
 10
99.30514651041135
 20
-156.256752059867
 11
99.53127396532443
 21
-155.746985587284
 72
     1
 10
99.53127396532443
 20
-155.746985587284
 11
99.30514651041135
 21
-155.2583956860118
 72
     1
 10
99.30514651041135
 20
-155.2583956860118
 11
99.53127396532443
 21
-154.7482739379568
 72
     1
 10
99.53127396532443
 20
-154.7482739379568
 11
99.30514651041135
 21
-154.2600285462332
 72
     1
 10
99.30514651041135
 20
-154.2600285462332
 11
99.53127396532443
 21
-153.7502836054969
 72
     1
 10
99.53127396532443
 20
-153.7502836054969
 11
99.30514651041135
 21
-153.2616829383013
 72
     1
 10
99.30514651041135
 20
-153.2616829383013
 11
99.53127396532443
 21
-152.7522609752668
 72
     1
 10
99.53127396532443
 20
-152.7522609752668
 11
99.30479123493943
 21
-152.2633157985227
 72
     1
 10
99.30479123493943
 20
-152.2633157985227
 11
99.53127396532443
 21
-151.7380248644093
 72
     1
 10
99.53127396532443
 20
-151.7380248644093
 11
99.30514651041135
 21
-151.4251240669614
 72
     1
 10
99.30514651041135
 20
-151.4251240669614
 11
99.53127396532443
 21
-150.9157021039269
 72
     1
 10
99.53127396532443
 20
-150.9157021039269
 11
99.30514651041135
 21
-150.4271014367313
 72
     1
 10
99.30514651041135
 20
-150.4271014367313
 11
99.53127396532443
 21
-149.9173349641483
 72
     1
 10
99.53127396532443
 20
-149.9173349641483
 11
99.30514651041135
 21
-149.4287342969527
 72
     1
 10
99.30514651041135
 20
-149.4287342969527
 11
99.53127396532443
 21
-148.9189893562164
 72
     1
 10
99.53127396532443
 20
-148.9189893562164
 11
99.30514651041135
 21
-148.4307331985694
 72
     1
 10
99.30514651041135
 20
-148.4307331985694
 11
99.53127396532443
 21
-147.9206222164378
 72
     1
 10
99.53127396532443
 20
-147.9206222164378
 11
99.30514651041135
 21
-147.4320215492423
 72
     1
 10
99.30514651041135
 20
-147.4320215492423
 11
99.53127396532443
 21
-146.921910567111
 72
     1
 10
99.53127396532443
 20
-146.921910567111
 11
99.30514651041135
 21
-146.4336544094639
 72
     1
 10
99.30514651041135
 20
-146.433654409464
 11
99.53127396532443
 21
-145.9238879368806
 72
     1
 10
99.53127396532443
 20
-145.9238879368806
 11
99.30514651041135
 21
-145.4356533110803
 72
     1
 10
99.30514651041135
 20
-145.4356533110803
 11
99.53127396532443
 21
-144.9255423289488
 72
     1
 10
99.53127396532443
 20
-144.9255423289488
 11
99.30514651041135
 21
-144.4372861713017
 72
     1
 10
99.30514651041135
 20
-144.4372861713017
 11
99.53127396532443
 21
-143.9268306796219
 72
     1
 10
99.53127396532443
 20
-143.9268306796219
 11
99.30514651041135
 21
-143.4385745219749
 72
     1
 10
99.30514651041135
 20
-143.4385745219749
 11
99.53127396532443
 21
-142.9288080493915
 72
     1
 10
99.53127396532443
 20
-142.9288080493915
 11
99.30514651041135
 21
-142.440207382196
 72
     1
 10
99.30514651041135
 20
-142.440207382196
 11
99.53127396532443
 21
-141.9308069510082
 72
     1
 10
99.53127396532443
 20
-141.9308069510082
 11
99.30514651041135
 21
-141.4418617742641
 72
     1
 10
99.30514651041135
 20
-141.4418617742641
 11
99.53127396532443
 21
-140.9320953016814
 72
     1
 10
99.53127396532443
 20
-140.9320953016814
 11
99.30514651041135
 21
-140.4434946344858
 72
     1
 10
99.30514651041135
 20
-140.4434946344858
 11
99.30479123493943
 21
-139.2680280549185
 72
     1
 10
99.30479123493943
 20
-139.2680280549186
 11
100.3045579447589
 21
-139.2680280549186
 72
     1
 10
100.3045579447589
 20
-139.2680280549186
 11
100.3045579447589
 21
-150.2450712040295
 72
     1
 10
100.3045579447589
 20
-150.2450712040294
 11
100.1048931295419
 21
-163.2445791896033
 72
     1
 10
100.1048931295419
 20
-163.2445791896034
 11
99.30514651041135
 21
-163.2449236991519
 72
     1
 10
99.30514651041135
 20
-163.2449236991519
 11
99.53127396532443
 21
-162.7355232679641
 72
     1
 10
99.53127396532443
 20
-162.7355232679641
 11
99.30514651041135
 21
-162.2465673252967
 72
     1
 10
99.30514651041135
 20
-162.2465673252967
 11
99.53127396532443
 21
-161.7371561281855
 72
     1
 10
99.53127396532443
 20
-161.7371561281855
 11
99.30514651041135
 21
-161.24855546099
 72
     1
 10
99.30514651041135
 20
-161.24855546099
 11
99.53127396532443
 21
-160.7387997543303
 72
     1
 10
99.53127396532443
 20
-160.7387997543303
 11
99.30514651041135
 21
-160.2501990871347
 72
     1
 10
99.30514651041135
 20
-160.2501990871347
 11
99.53127396532443
 21
-159.7400773390797
 72
     1
 10
99.53127396532443
 20
-159.7400773390797
 11
99.30514651041135
 21
-159.252187222828
 72
     1
 10
99.30514651041135
 20
-159.252187222828
 11
99.53127396532443
 21
-158.7417209652245
 72
     1
 10
99.53127396532443
 20
-158.7417209652245
 11
99.30514651041135
 21
-158.2534755735009
 72
     1
 10
99.30514651041135
 20
-158.2534755735009
 11
99.53127396532443
 21
-157.7433645913693
 72
     1
 10
99.53127396532443
 20
-157.7433645913693
 11
99.30514651041135
 21
-157.2551191996457
 72
     1
 10
99.30514651041135
 20
-157.2551191996456
 11
99.53127396532443
 21
-156.7453527270626
 72
     1
 10
99.53127396532443
 20
-156.7453527270626
 11
99.30514651041135
 21
-156.256752059867
 72
     1
 10
99.30514651041135
 20
-156.256752059867
 11
99.53127396532443
 21
-155.746985587284
 72
     1
 10
99.53127396532443
 20
-155.746985587284
 11
99.30514651041135
 21
-155.2583956860118
 72
     1
 10
99.30514651041135
 20
-155.2583956860118
 11
99.53127396532443
 21
-154.7482739379568
 72
     1
 10
99.53127396532443
 20
-154.7482739379568
 11
99.30514651041135
 21
-154.2600285462332
 72
     1
 10
99.30514651041135
 20
-154.2600285462332
 11
99.53127396532443
 21
-153.7502836054969
 72
     1
 10
99.53127396532443
 20
-153.7502836054969
 11
99.30514651041135
 21
-153.2616829383013
 72
     1
 10
99.30514651041135
 20
-153.2616829383013
 11
99.53127396532443
 21
-152.7522609752668
 72
     1
 10
99.53127396532443
 20
-152.7522609752668
 11
99.30479123493943
 21
-152.2633157985227
 72
     1
 10
99.30479123493943
 20
-152.2633157985227
 11
99.30514651041135
 21
-163.2449236991519
 97
        0
 75
     2
 76
     1
 98
        0
  0
INSERT
  5
D3
330
1F
100
AcDbEntity
  8
_U+30EC_U+30A4_U+30E4_U+30FC 1
100
AcDbBlockReference
  2
block 5
 10
0.0
 20
0.0
 30
0.0
  0
INSERT
  5
D9
330
1F
100
AcDbEntity
  8
_U+30EC_U+30A4_U+30E4_U+30FC 1
100
AcDbBlockReference
  2
block 6
 10
0.0
 20
0.0
 30
0.0
  0
SPLINE
  5
F1
330
1F
100
AcDbEntity
  8
_U+30EC_U+30A4_U+30E4_U+30FC 1
 62
   179
420
  2234388
370
     9
100
AcDbSpline
210
0.0
220
0.0
230
1.0
 70
    11
 71
     3
 72
    17
 73
    13
 74
     0
 42
0.0000000001
 43
0.0000000001
 12
1.0
 22
0.0
 32
0.0
 13
1.0
 23
0.0
 33
0.0
 40
0.0
 40
0.0
 40
0.0
 40
0.0
 40
1.0
 40
1.0
 40
1.0
 40
2.0
 40
2.0
 40
2.0
 40
3.0
 40
3.0
 40
3.0
 40
4.0
 40
4.0
 40
4.0
 40
4.0
 10
103.4043149053826
 20
-164.9208980571856
 30
0.0
 10
103.4043149053826
 20
-164.8662179322806
 30
0.0
 10
103.3595071322276
 20
-164.821420925049
 30
0.0
 10
103.3044717318508
 20
-164.821420925049
 30
0.0
 10
103.2494363314739
 20
-164.821420925049
 30
0.0
 10
103.2046393242423
 20
-164.8662179322806
 30
0.0
 10
103.2046393242423
 20
-164.9208980571856
 30
0.0
 10
103.2046393242423
 20
-164.9759334575624
 30
0.0
 10
103.2494363314739
 20
-165.0207412307175
 30
0.0
 10
103.3044717318508
 20
-165.0207412307175
 30
0.0
 10
103.3595071322276
 20
-165.0207412307175
 30
0.0
 10
103.4043149053826
 20
-164.9759334575624
 30
0.0
 10
103.4043149053826
 20
-164.9208980571856
 30
0.0
  0
SPLINE
  5
F2
330
1F
100
AcDbEntity
  8
_U+30EC_U+30A4_U+30E4_U+30FC 1
 62
   179
420
  2234388
370
     9
100
AcDbSpline
210
0.0
220
0.0
230
1.0
 70
    11
 71
     3
 72
    17
 73
    13
 74
     0
 42
0.0000000001
 43
0.0000000001
 12
1.0
 22
0.0
 32
0.0
 13
1.0
 23
0.0
 33
0.0
 40
0.0
 40
0.0
 40
0.0
 40
0.0
 40
1.0
 40
1.0
 40
1.0
 40
2.0
 40
2.0
 40
2.0
 40
3.0
 40
3.0
 40
3.0
 40
4.0
 40
4.0
 40
4.0
 40
4.0
 10
100.4057037950212
 20
-164.9208980571856
 30
0.0
 10
100.4057037950212
 20
-164.8662179322806
 30
0.0
 10
100.3608960218662
 20
-164.821420925049
 30
0.0
 10
100.3058606214893
 20
-164.821420925049
 30
0.0
 10
100.2508252211124
 20
-164.821420925049
 30
0.0
 10
100.2060282138808
 20
-164.8662179322806
 30
0.0
 10
100.2060282138808
 20
-164.9208980571856
 30
0.0
 10
100.2060282138808
 20
-164.9759334575624
 30
0.0
 10
100.2508252211124
 20
-165.0207412307175
 30
0.0
 10
100.3058606214893
 20
-165.0207412307175
 30
0.0
 10
100.3608960218662
 20
-165.0207412307175
 30
0.0
 10
100.4057037950212
 20
-164.9759334575624
 30
0.0
 10
100.4057037950212
 20
-164.9208980571856
 30
0.0
  0
POLYLINE
  5
F3
330
1F
100
AcDbEntity
  8
_U+30EC_U+30A4_U+30E4_U+30FC 1
 62
   179
420
  2234388
370
     9
100
AcDb2dPolyline
 66
     1
 10
0.0
 20
0.0
 30
0.0
  0
VERTEX
  5
F4
330
F3
100
AcDbEntity
  8
_U+30EC_U+30A4_U+30E4_U+30FC 1
 62
   179
420
  2234388
370
     9
100
AcDbVertex
100
AcDb2dVertex
 10
100.2322432373389
 20
-164.9208980571856
 30
0.0
  0
VERTEX
  5
F5
330
F3
100
AcDbEntity
  8
_U+30EC_U+30A4_U+30E4_U+30FC 1
 62
   179
420
  2234388
370
     9
100
AcDbVertex
100
AcDb2dVertex
 10
107.4913501046918
 20
-164.9208980571856
 30
0.0
  0
SEQEND
  5
F6
330
F3
100
AcDbEntity
  8
_U+30EC_U+30A4_U+30E4_U+30FC 1
 62
   179
420
  2234388
370
     9
  0
POLYLINE
  5
F7
330
1F
100
AcDbEntity
  8
_U+30EC_U+30A4_U+30E4_U+30FC 1
 62
   179
420
  2234388
370
     9
100
AcDb2dPolyline
 66
     1
 10
0.0
 20
0.0
 30
0.0
  0
VERTEX
  5
F8
330
F7
100
AcDbEntity
  8
_U+30EC_U+30A4_U+30E4_U+30FC 1
 62
   179
420
  2234388
370
     9
100
AcDbVertex
100
AcDb2dVertex
 10
103.3044071363104
 20
-154.0616556418231
 30
0.0
  0
VERTEX
  5
F9
330
F7
100
AcDbEntity
  8
_U+30EC_U+30A4_U+30E4_U+30FC 1
 62
   179
420
  2234388
370
     9
100
AcDbVertex
100
AcDb2dVertex
 10
107.3041952924556
 20
-154.0616556418231
 30
0.0
  0
SEQEND
  5
FA
330
F7
100
AcDbEntity
  8
_U+30EC_U+30A4_U+30E4_U+30FC 1
 62
   179
420
  2234388
370
     9
  0
POLYLINE
  5
FB
330
1F
100
AcDbEntity
  8
_U+30EC_U+30A4_U+30E4_U+30FC 1
 62
   179
420
  2234388
370
     9
100
AcDb2dPolyline
 66
     1
 10
0.0
 20
0.0
 30
0.0
  0
VERTEX
  5
FC
330
FB
100
AcDbEntity
  8
_U+30EC_U+30A4_U+30E4_U+30FC 1
 62
   179
420
  2234388
370
     9
100
AcDbVertex
100
AcDb2dVertex
 10
103.3044071363104
 20
-152.6994864188021
 30
0.0
  0
VERTEX
  5
FD
330
FB
100
AcDbEntity
  8
_U+30EC_U+30A4_U+30E4_U+30FC 1
 62
   179
420
  2234388
370
     9
100
AcDbVertex
100
AcDb2dVertex
 10
103.3044071363104
 20
-165.9212461268682
 30
0.0
  0
SEQEND
  5
FE
330
FB
100
AcDbEntity
  8
_U+30EC_U+30A4_U+30E4_U+30FC 1
 62
   179
420
  2234388
370
     9
  0
POLYLINE
  5
FF
330
1F
100
AcDbEntity
  8
_U+30EC_U+30A4_U+30E4_U+30FC 1
 62
   179
420
  2234388
370
     9
100
AcDb2dPolyline
 66
     1
 10
0.0
 20
0.0
 30
0.0
  0
VERTEX
  5
100
330
FF
100
AcDbEntity
  8
_U+30EC_U+30A4_U+30E4_U+30FC 1
 62
   179
420
  2234388
370
     9
100
AcDbVertex
100
AcDb2dVertex
 10
107.3043137176129
 20
-152.6994864188021
 30
0.0
  0
VERTEX
  5
101
330
FF
100
AcDbEntity
  8
_U+30EC_U+30A4_U+30E4_U+30FC 1
 62
   179
420
  2234388
370
     9
100
AcDbVertex
100
AcDb2dVertex
 10
107.3043137176129
 20
-155.0772159612578
 30
0.0
  0
SEQEND
  5
102
330
FF
100
AcDbEntity
  8
_U+30EC_U+30A4_U+30E4_U+30FC 1
 62
   179
420
  2234388
370
     9
  0
POLYLINE
  5
103
330
1F
100
AcDbEntity
  8
_U+30EC_U+30A4_U+30E4_U+30FC 1
 62
   179
420
  2234388
370
     9
100
AcDb2dPolyline
 66
     1
 10
0.0
 20
0.0
 30
0.0
  0
VERTEX
  5
104
330
103
100
AcDbEntity
  8
_U+30EC_U+30A4_U+30E4_U+30FC 1
 62
   179
420
  2234388
370
     9
100
AcDbVertex
100
AcDb2dVertex
 10
100.3044287536786
 20
-163.9811406043498
 30
0.0
  0
VERTEX
  5
105
330
103
100
AcDbEntity
  8
_U+30EC_U+30A4_U+30E4_U+30FC 1
 62
   179
420
  2234388
370
     9
100
AcDbVertex
100
AcDb2dVertex
 10
100.3044287536786
 20
-165.9214183816425
 30
0.0
  0
SEQEND
  5
106
330
103
100
AcDbEntity
  8
_U+30EC_U+30A4_U+30E4_U+30FC 1
 62
   179
420
  2234388
370
     9
  0
SPLINE
  5
107
330
1F
100
AcDbEntity
  8
_U+30EC_U+30A4_U+30E4_U+30FC 1
 62
   179
420
  2234388
370
     9
100
AcDbSpline
210
0.0
220
0.0
230
1.0
 70
    11
 71
     3
 72
    17
 73
    13
 74
     0
 42
0.0000000001
 43
0.0000000001
 12
1.0
 22
0.0
 32
0.0
 13
1.0
 23
0.0
 33
0.0
 40
0.0
 40
0.0
 40
0.0
 40
0.0
 40
1.0
 40
1.0
 40
1.0
 40
2.0
 40
2.0
 40
2.0
 40
3.0
 40
3.0
 40
3.0
 40
4.0
 40
4.0
 40
4.0
 40
4.0
 10
103.4041426506084
 20
-154.0613111322746
 30
0.0
 10
103.4041426506084
 20
-154.006641773293
 30
0.0
 10
103.3593348774534
 20
-153.961834000138
 30
0.0
 10
103.3042994770765
 20
-153.961834000138
 30
0.0
 10
103.2492640766996
 20
-153.961834000138
 30
0.0
 10
103.204467069468
 20
-154.006641773293
 30
0.0
 10
103.204467069468
 20
-154.0613111322746
 30
0.0
 10
103.204467069468
 20
-154.1163465326515
 30
0.0
 10
103.2492640766996
 20
-154.1611543058065
 30
0.0
 10
103.3042994770765
 20
-154.1611543058065
 30
0.0
 10
103.3593348774534
 20
-154.1611543058065
 30
0.0
 10
103.4041426506084
 20
-154.1163465326515
 30
0.0
 10
103.4041426506084
 20
-154.0613111322746
 30
0.0
  0
SPLINE
  5
108
330
1F
100
AcDbEntity
  8
_U+30EC_U+30A4_U+30E4_U+30FC 1
 62
   179
420
  2234388
370
     9
100
AcDbSpline
210
0.0
220
0.0
230
1.0
 70
    11
 71
     3
 72
    17
 73
    13
 74
     0
 42
0.0000000001
 43
0.0000000001
 12
1.0
 22
0.0
 32
0.0
 13
1.0
 23
0.0
 33
0.0
 40
0.0
 40
0.0
 40
0.0
 40
0.0
 40
1.0
 40
1.0
 40
1.0
 40
2.0
 40
2.0
 40
2.0
 40
3.0
 40
3.0
 40
3.0
 40
4.0
 40
4.0
 40
4.0
 40
4.0
 10
107.4040815296811
 20
-154.0613111322746
 30
0.0
 10
107.4040815296811
 20
-154.006641773293
 30
0.0
 10
107.3592737565261
 20
-153.961834000138
 30
0.0
 10
107.3042383561492
 20
-153.961834000138
 30
0.0
 10
107.2492029557723
 20
-153.961834000138
 30
0.0
 10
107.2044059485407
 20
-154.006641773293
 30
0.0
 10
107.2044059485407
 20
-154.0613111322746
 30
0.0
 10
107.2044059485407
 20
-154.1163465326515
 30
0.0
 10
107.2492029557723
 20
-154.1611543058065
 30
0.0
 10
107.3042383561492
 20
-154.1611543058065
 30
0.0
 10
107.3592737565261
 20
-154.1611543058065
 30
0.0
 10
107.4040815296811
 20
-154.1163465326515
 30
0.0
 10
107.4040815296811
 20
-154.0613111322746
 30
0.0
  0
SPLINE
  5
109
330
1F
100
AcDbEntity
  8
_U+30EC_U+30A4_U+30E4_U+30FC 1
370
     0
100
AcDbSpline
210
0.0
220
0.0
230
1.0
 70
    11
 71
     3
 72
    32
 73
    28
 74
     0
 42
0.0000000001
 43
0.0000000001
 12
1.0
 22
0.0
 32
0.0
 13
1.0
 23
0.0
 33
0.0
 40
0.0
 40
0.0
 40
0.0
 40
0.0
 40
1.0
 40
1.0
 40
1.0
 40
2.0
 40
2.0
 40
2.0
 40
3.0
 40
3.0
 40
3.0
 40
4.0
 40
4.0
 40
4.0
 40
5.0
 40
5.0
 40
5.0
 40
6.0
 40
6.0
 40
6.0
 40
7.0
 40
7.0
 40
7.0
 40
8.0
 40
8.0
 40
8.0
 40
9.0
 40
9.0
 40
9.0
 40
9.0
 10
106.1953482468344
 20
-138.2454806512025
 30
0.0
 10
106.1953482468344
 20
-138.2454806512025
 30
0.0
 10
99.30488812824996
 20
-138.2454806512025
 30
0.0
 10
99.30488812824996
 20
-138.2454806512025
 30
0.0
 10
99.30488812824996
 20
-138.2454806512025
 30
0.0
 10
99.30488812824996
 20
-139.2681787778457
 30
0.0
 10
99.30488812824996
 20
-139.2681787778457
 30
0.0
 10
99.30488812824996
 20
-139.2681787778457
 30
0.0
 10
103.8370296642537
 20
-139.2681787778457
 30
0.0
 10
103.8370296642537
 20
-139.2681787778457
 30
0.0
 10
103.8370296642537
 20
-139.2681787778457
 30
0.0
 10
103.801039182356
 20
-149.245799726686
 30
0.0
 10
103.801039182356
 20
-149.245799726686
 30
0.0
 10
103.801039182356
 20
-149.245799726686
 30
0.0
 10
103.2926938116606
 20
-149.245799726686
 30
0.0
 10
103.2926938116606
 20
-149.245799726686
 30
0.0
 10
103.2926938116606
 20
-149.245799726686
 30
0.0
 10
103.2926938116606
 20
-150.2448558855616
 30
0.0
 10
103.2926938116606
 20
-150.2448558855616
 30
0.0
 10
103.2926938116606
 20
-150.2448558855616
 30
0.0
 10
107.2977788021144
 20
-150.2448558855616
 30
0.0
 10
107.2977788021144
 20
-150.2448558855616
 30
0.0
 10
107.2977788021144
 20
-150.2448558855616
 30
0.0
 10
107.2977788021144
 20
-139.3097998376772
 30
0.0
 10
107.2977788021144
 20
-139.3097998376772
 30
0.0
 10
107.2977788021144
 20
-138.1936104323027
 30
0.0
 10
106.1953482468344
 20
-138.2454806512025
 30
0.0
 10
106.1953482468344
 20
-138.2454806512025
 30
0.0
  0
POLYLINE
  5
10A
330
1F
100
AcDbEntity
  8
_U+30EC_U+30A4_U+30E4_U+30FC 1
370
     0
100
AcDb2dPolyline
 66
     1
 10
0.0
 20
0.0
 30
0.0
  0
VERTEX
  5
10B
330
10A
100
AcDbEntity
  8
_U+30EC_U+30A4_U+30E4_U+30FC 1
370
     0
100
AcDbVertex
100
AcDb2dVertex
 10
106.3279951889399
 20
-149.2447231343468
 30
0.0
  0
VERTEX
  5
10C
330
10A
100
AcDbEntity
  8
_U+30EC_U+30A4_U+30E4_U+30FC 1
370
     0
100
AcDbVertex
100
AcDb2dVertex
 10
104.8279790828154
 20
-149.2461442362345
 30
0.0
  0
VERTEX
  5
10D
330
10A
100
AcDbEntity
  8
_U+30EC_U+30A4_U+30E4_U+30FC 1
370
     0
100
AcDbVertex
100
AcDb2dVertex
 10
104.8279790828154
 20
-139.2681787778457
 30
0.0
  0
VERTEX
  5
10E
330
10A
100
AcDbEntity
  8
_U+30EC_U+30A4_U+30E4_U+30FC 1
370
     0
100
AcDbVertex
100
AcDb2dVertex
 10
106.3279951889399
 20
-139.2681787778457
 30
0.0
  0
VERTEX
  5
10F
330
10A
100
AcDbEntity
  8
_U+30EC_U+30A4_U+30E4_U+30FC 1
370
     0
100
AcDbVertex
100
AcDb2dVertex
 10
106.3279951889399
 20
-149.2447231343468
 30
0.0
  0
SEQEND
  5
110
330
10A
100
AcDbEntity
  8
_U+30EC_U+30A4_U+30E4_U+30FC 1
370
     0
  0
HATCH
  5
111
330
1F
100
AcDbEntity
  8
_U+30EC_U+30A4_U+30E4_U+30FC 1
 62
    43
420
 13286281
100
AcDbHatch
 10
0.0
 20
0.0
 30
0.0
210
0.0
220
0.0
230
1.0
  2
SOLID
 70
     1
 71
     0
 91
        2
 92
        1
 93
        4
 72
     1
 10
106.3279951889399
 20
-149.2447231343468
 11
104.8279790828154
 21
-149.2461442362345
 72
     1
 10
104.8279790828154
 20
-149.2461442362345
 11
104.8279790828154
 21
-139.2681787778457
 72
     1
 10
104.8279790828154
 20
-139.2681787778457
 11
106.3279951889399
 21
-139.2681787778457
 72
     1
 10
106.3279951889399
 20
-139.2681787778457
 11
106.3279951889399
 21
-149.2447231343468
 97
        0
 92
        1
 93
        2
 72
     4
 94
        3
 73
     0
 74
     0
 95
       32
 96
       28
 40
0.0
 40
0.0
 40
0.0
 40
0.0
 40
0.3527777776895833
 40
0.3527777776895833
 40
0.3527777776895833
 40
0.7055555553791667
 40
0.7055555553791667
 40
0.7055555553791667
 40
1.05833333306875
 40
1.05833333306875
 40
1.05833333306875
 40
1.411111110758333
 40
1.411111110758333
 40
1.411111110758333
 40
1.763888888447917
 40
1.763888888447917
 40
1.763888888447917
 40
2.1166666661375
 40
2.1166666661375
 40
2.1166666661375
 40
2.469444443827083
 40
2.469444443827083
 40
2.469444443827083
 40
2.822222221516667
 40
2.822222221516667
 40
2.822222221516667
 40
3.17499999920625
 40
3.17499999920625
 40
3.17499999920625
 40
3.17499999920625
 10
106.1953482468344
 20
-138.2454806512025
 10
106.1953482468344
 20
-138.2454806512025
 10
99.30488812824996
 20
-138.2454806512025
 10
99.30488812824996
 20
-138.2454806512025
 10
99.30488812824996
 20
-138.2454806512025
 10
99.30488812824996
 20
-139.2681787778457
 10
99.30488812824996
 20
-139.2681787778457
 10
99.30488812824996
 20
-139.2681787778457
 10
103.8370296642537
 20
-139.2681787778457
 10
103.8370296642537
 20
-139.2681787778457
 10
103.8370296642537
 20
-139.2681787778457
 10
103.801039182356
 20
-149.245799726686
 10
103.801039182356
 20
-149.245799726686
 10
103.801039182356
 20
-149.245799726686
 10
103.2926938116606
 20
-149.245799726686
 10
103.2926938116606
 20
-149.245799726686
 10
103.2926938116606
 20
-149.245799726686
 10
103.2926938116606
 20
-150.2448558855616
 10
103.2926938116606
 20
-150.2448558855616
 10
103.2926938116606
 20
-150.2448558855616
 10
107.2977788021144
 20
-150.2448558855616
 10
107.2977788021144
 20
-150.2448558855616
 10
107.2977788021144
 20
-150.2448558855616
 10
107.2977788021144
 20
-139.3097998376772
 10
107.2977788021144
 20
-139.3097998376772
 10
107.2977788021144
 20
-138.1936104323027
 10
106.1953482468344
 20
-138.2454806512025
 10
106.1953482468344
 20
-138.2454806512025
 97
        0
 72
     1
 10
106.1953482468344
 20
-138.2454806512025
 11
106.1953482468344
 21
-138.2454806512025
 97
        0
 75
     2
 76
     1
 98
        0
  0
POLYLINE
  5
112
330
1F
100
AcDbEntity
  8
_U+30EC_U+30A4_U+30E4_U+30FC 1
 62
   179
420
  2234388
370
    25
100
AcDb2dPolyline
 66
     1
 10
0.0
 20
0.0
 30
0.0
  0
VERTEX
  5
113
330
112
100
AcDbEntity
  8
_U+30EC_U+30A4_U+30E4_U+30FC 1
 62
   179
420
  2234388
370
    25
100
AcDbVertex
100
AcDb2dVertex
 10
99.30514651041135
 20
-163.2449236991519
 30
0.0
  0
VERTEX
  5
114
330
112
100
AcDbEntity
  8
_U+30EC_U+30A4_U+30E4_U+30FC 1
 62
   179
420
  2234388
370
    25
100
AcDbVertex
100
AcDb2dVertex
 10
99.53127396532443
 20
-162.7355232679641
 30
0.0
  0
VERTEX
  5
115
330
112
100
AcDbEntity
  8
_U+30EC_U+30A4_U+30E4_U+30FC 1
 62
   179
420
  2234388
370
    25
100
AcDbVertex
100
AcDb2dVertex
 10
99.30514651041135
 20
-162.2465673252967
 30
0.0
  0
VERTEX
  5
116
330
112
100
AcDbEntity
  8
_U+30EC_U+30A4_U+30E4_U+30FC 1
 62
   179
420
  2234388
370
    25
100
AcDbVertex
100
AcDb2dVertex
 10
99.53127396532443
 20
-161.7371561281855
 30
0.0
  0
VERTEX
  5
117
330
112
100
AcDbEntity
  8
_U+30EC_U+30A4_U+30E4_U+30FC 1
 62
   179
420
  2234388
370
    25
100
AcDbVertex
100
AcDb2dVertex
 10
99.30514651041135
 20
-161.24855546099
 30
0.0
  0
VERTEX
  5
118
330
112
100
AcDbEntity
  8
_U+30EC_U+30A4_U+30E4_U+30FC 1
 62
   179
420
  2234388
370
    25
100
AcDbVertex
100
AcDb2dVertex
 10
99.53127396532443
 20
-160.7387997543303
 30
0.0
  0
VERTEX
  5
119
330
112
100
AcDbEntity
  8
_U+30EC_U+30A4_U+30E4_U+30FC 1
 62
   179
420
  2234388
370
    25
100
AcDbVertex
100
AcDb2dVertex
 10
99.30514651041135
 20
-160.2501990871347
 30
0.0
  0
VERTEX
  5
11A
330
112
100
AcDbEntity
  8
_U+30EC_U+30A4_U+30E4_U+30FC 1
 62
   179
420
  2234388
370
    25
100
AcDbVertex
100
AcDb2dVertex
 10
99.53127396532443
 20
-159.7400773390797
 30
0.0
  0
VERTEX
  5
11B
330
112
100
AcDbEntity
  8
_U+30EC_U+30A4_U+30E4_U+30FC 1
 62
   179
420
  2234388
370
    25
100
AcDbVertex
100
AcDb2dVertex
 10
99.30514651041135
 20
-159.252187222828
 30
0.0
  0
VERTEX
  5
11C
330
112
100
AcDbEntity
  8
_U+30EC_U+30A4_U+30E4_U+30FC 1
 62
   179
420
  2234388
370
    25
100
AcDbVertex
100
AcDb2dVertex
 10
99.53127396532443
 20
-158.7417209652245
 30
0.0
  0
VERTEX
  5
11D
330
112
100
AcDbEntity
  8
_U+30EC_U+30A4_U+30E4_U+30FC 1
 62
   179
420
  2234388
370
    25
100
AcDbVertex
100
AcDb2dVertex
 10
99.30514651041135
 20
-158.2534755735009
 30
0.0
  0
VERTEX
  5
11E
330
112
100
AcDbEntity
  8
_U+30EC_U+30A4_U+30E4_U+30FC 1
 62
   179
420
  2234388
370
    25
100
AcDbVertex
100
AcDb2dVertex
 10
99.53127396532443
 20
-157.7433645913693
 30
0.0
  0
VERTEX
  5
11F
330
112
100
AcDbEntity
  8
_U+30EC_U+30A4_U+30E4_U+30FC 1
 62
   179
420
  2234388
370
    25
100
AcDbVertex
100
AcDb2dVertex
 10
99.30514651041135
 20
-157.2551191996456
 30
0.0
  0
VERTEX
  5
120
330
112
100
AcDbEntity
  8
_U+30EC_U+30A4_U+30E4_U+30FC 1
 62
   179
420
  2234388
370
    25
100
AcDbVertex
100
AcDb2dVertex
 10
99.53127396532443
 20
-156.7453527270626
 30
0.0
  0
VERTEX
  5
121
330
112
100
AcDbEntity
  8
_U+30EC_U+30A4_U+30E4_U+30FC 1
 62
   179
420
  2234388
370
    25
100
AcDbVertex
100
AcDb2dVertex
 10
99.30514651041135
 20
-156.256752059867
 30
0.0
  0
VERTEX
  5
122
330
112
100
AcDbEntity
  8
_U+30EC_U+30A4_U+30E4_U+30FC 1
 62
   179
420
  2234388
370
    25
100
AcDbVertex
100
AcDb2dVertex
 10
99.53127396532443
 20
-155.746985587284
 30
0.0
  0
VERTEX
  5
123
330
112
100
AcDbEntity
  8
_U+30EC_U+30A4_U+30E4_U+30FC 1
 62
   179
420
  2234388
370
    25
100
AcDbVertex
100
AcDb2dVertex
 10
99.30514651041135
 20
-155.2583956860118
 30
0.0
  0
VERTEX
  5
124
330
112
100
AcDbEntity
  8
_U+30EC_U+30A4_U+30E4_U+30FC 1
 62
   179
420
  2234388
370
    25
100
AcDbVertex
100
AcDb2dVertex
 10
99.53127396532443
 20
-154.7482739379568
 30
0.0
  0
VERTEX
  5
125
330
112
100
AcDbEntity
  8
_U+30EC_U+30A4_U+30E4_U+30FC 1
 62
   179
420
  2234388
370
    25
100
AcDbVertex
100
AcDb2dVertex
 10
99.30514651041135
 20
-154.2600285462332
 30
0.0
  0
VERTEX
  5
126
330
112
100
AcDbEntity
  8
_U+30EC_U+30A4_U+30E4_U+30FC 1
 62
   179
420
  2234388
370
    25
100
AcDbVertex
100
AcDb2dVertex
 10
99.53127396532443
 20
-153.7502836054969
 30
0.0
  0
VERTEX
  5
127
330
112
100
AcDbEntity
  8
_U+30EC_U+30A4_U+30E4_U+30FC 1
 62
   179
420
  2234388
370
    25
100
AcDbVertex
100
AcDb2dVertex
 10
99.30514651041135
 20
-153.2616829383013
 30
0.0
  0
VERTEX
  5
128
330
112
100
AcDbEntity
  8
_U+30EC_U+30A4_U+30E4_U+30FC 1
 62
   179
420
  2234388
370
    25
100
AcDbVertex
100
AcDb2dVertex
 10
99.53127396532443
 20
-152.7522609752668
 30
0.0
  0
VERTEX
  5
129
330
112
100
AcDbEntity
  8
_U+30EC_U+30A4_U+30E4_U+30FC 1
 62
   179
420
  2234388
370
    25
100
AcDbVertex
100
AcDb2dVertex
 10
99.30479123493943
 20
-152.2633157985227
 30
0.0
  0
VERTEX
  5
12A
330
112
100
AcDbEntity
  8
_U+30EC_U+30A4_U+30E4_U+30FC 1
 62
   179
420
  2234388
370
    25
100
AcDbVertex
100
AcDb2dVertex
 10
99.53127396532443
 20
-151.7380248644093
 30
0.0
  0
VERTEX
  5
12B
330
112
100
AcDbEntity
  8
_U+30EC_U+30A4_U+30E4_U+30FC 1
 62
   179
420
  2234388
370
    25
100
AcDbVertex
100
AcDb2dVertex
 10
99.30514651041135
 20
-151.4251240669614
 30
0.0
  0
VERTEX
  5
12C
330
112
100
AcDbEntity
  8
_U+30EC_U+30A4_U+30E4_U+30FC 1
 62
   179
420
  2234388
370
    25
100
AcDbVertex
100
AcDb2dVertex
 10
99.53127396532443
 20
-150.9157021039269
 30
0.0
  0
VERTEX
  5
12D
330
112
100
AcDbEntity
  8
_U+30EC_U+30A4_U+30E4_U+30FC 1
 62
   179
420
  2234388
370
    25
100
AcDbVertex
100
AcDb2dVertex
 10
99.30514651041135
 20
-150.4271014367313
 30
0.0
  0
VERTEX
  5
12E
330
112
100
AcDbEntity
  8
_U+30EC_U+30A4_U+30E4_U+30FC 1
 62
   179
420
  2234388
370
    25
100
AcDbVertex
100
AcDb2dVertex
 10
99.53127396532443
 20
-149.9173349641483
 30
0.0
  0
VERTEX
  5
12F
330
112
100
AcDbEntity
  8
_U+30EC_U+30A4_U+30E4_U+30FC 1
 62
   179
420
  2234388
370
    25
100
AcDbVertex
100
AcDb2dVertex
 10
99.30514651041135
 20
-149.4287342969527
 30
0.0
  0
VERTEX
  5
130
330
112
100
AcDbEntity
  8
_U+30EC_U+30A4_U+30E4_U+30FC 1
 62
   179
420
  2234388
370
    25
100
AcDbVertex
100
AcDb2dVertex
 10
99.53127396532443
 20
-148.9189893562164
 30
0.0
  0
VERTEX
  5
131
330
112
100
AcDbEntity
  8
_U+30EC_U+30A4_U+30E4_U+30FC 1
 62
   179
420
  2234388
370
    25
100
AcDbVertex
100
AcDb2dVertex
 10
99.30514651041135
 20
-148.4307331985694
 30
0.0
  0
VERTEX
  5
132
330
112
100
AcDbEntity
  8
_U+30EC_U+30A4_U+30E4_U+30FC 1
 62
   179
420
  2234388
370
    25
100
AcDbVertex
100
AcDb2dVertex
 10
99.53127396532443
 20
-147.9206222164378
 30
0.0
  0
VERTEX
  5
133
330
112
100
AcDbEntity
  8
_U+30EC_U+30A4_U+30E4_U+30FC 1
 62
   179
420
  2234388
370
    25
100
AcDbVertex
100
AcDb2dVertex
 10
99.30514651041135
 20
-147.4320215492423
 30
0.0
  0
VERTEX
  5
134
330
112
100
AcDbEntity
  8
_U+30EC_U+30A4_U+30E4_U+30FC 1
 62
   179
420
  2234388
370
    25
100
AcDbVertex
100
AcDb2dVertex
 10
99.53127396532443
 20
-146.921910567111
 30
0.0
  0
VERTEX
  5
135
330
112
100
AcDbEntity
  8
_U+30EC_U+30A4_U+30E4_U+30FC 1
 62
   179
420
  2234388
370
    25
100
AcDbVertex
100
AcDb2dVertex
 10
99.30514651041135
 20
-146.433654409464
 30
0.0
  0
VERTEX
  5
136
330
112
100
AcDbEntity
  8
_U+30EC_U+30A4_U+30E4_U+30FC 1
 62
   179
420
  2234388
370
    25
100
AcDbVertex
100
AcDb2dVertex
 10
99.53127396532443
 20
-145.9238879368806
 30
0.0
  0
VERTEX
  5
137
330
112
100
AcDbEntity
  8
_U+30EC_U+30A4_U+30E4_U+30FC 1
 62
   179
420
  2234388
370
    25
100
AcDbVertex
100
AcDb2dVertex
 10
99.30514651041135
 20
-145.4356533110803
 30
0.0
  0
VERTEX
  5
138
330
112
100
AcDbEntity
  8
_U+30EC_U+30A4_U+30E4_U+30FC 1
 62
   179
420
  2234388
370
    25
100
AcDbVertex
100
AcDb2dVertex
 10
99.53127396532443
 20
-144.9255423289488
 30
0.0
  0
VERTEX
  5
139
330
112
100
AcDbEntity
  8
_U+30EC_U+30A4_U+30E4_U+30FC 1
 62
   179
420
  2234388
370
    25
100
AcDbVertex
100
AcDb2dVertex
 10
99.30514651041135
 20
-144.4372861713017
 30
0.0
  0
VERTEX
  5
13A
330
112
100
AcDbEntity
  8
_U+30EC_U+30A4_U+30E4_U+30FC 1
 62
   179
420
  2234388
370
    25
100
AcDbVertex
100
AcDb2dVertex
 10
99.53127396532443
 20
-143.9268306796219
 30
0.0
  0
VERTEX
  5
13B
330
112
100
AcDbEntity
  8
_U+30EC_U+30A4_U+30E4_U+30FC 1
 62
   179
420
  2234388
370
    25
100
AcDbVertex
100
AcDb2dVertex
 10
99.30514651041135
 20
-143.4385745219749
 30
0.0
  0
VERTEX
  5
13C
330
112
100
AcDbEntity
  8
_U+30EC_U+30A4_U+30E4_U+30FC 1
 62
   179
420
  2234388
370
    25
100
AcDbVertex
100
AcDb2dVertex
 10
99.53127396532443
 20
-142.9288080493915
 30
0.0
  0
VERTEX
  5
13D
330
112
100
AcDbEntity
  8
_U+30EC_U+30A4_U+30E4_U+30FC 1
 62
   179
420
  2234388
370
    25
100
AcDbVertex
100
AcDb2dVertex
 10
99.30514651041135
 20
-142.440207382196
 30
0.0
  0
VERTEX
  5
13E
330
112
100
AcDbEntity
  8
_U+30EC_U+30A4_U+30E4_U+30FC 1
 62
   179
420
  2234388
370
    25
100
AcDbVertex
100
AcDb2dVertex
 10
99.53127396532443
 20
-141.9308069510082
 30
0.0
  0
VERTEX
  5
13F
330
112
100
AcDbEntity
  8
_U+30EC_U+30A4_U+30E4_U+30FC 1
 62
   179
420
  2234388
370
    25
100
AcDbVertex
100
AcDb2dVertex
 10
99.30514651041135
 20
-141.4418617742641
 30
0.0
  0
VERTEX
  5
140
330
112
100
AcDbEntity
  8
_U+30EC_U+30A4_U+30E4_U+30FC 1
 62
   179
420
  2234388
370
    25
100
AcDbVertex
100
AcDb2dVertex
 10
99.53127396532443
 20
-140.9320953016814
 30
0.0
  0
VERTEX
  5
141
330
112
100
AcDbEntity
  8
_U+30EC_U+30A4_U+30E4_U+30FC 1
 62
   179
420
  2234388
370
    25
100
AcDbVertex
100
AcDb2dVertex
 10
99.30514651041135
 20
-140.4434946344858
 30
0.0
  0
VERTEX
  5
142
330
112
100
AcDbEntity
  8
_U+30EC_U+30A4_U+30E4_U+30FC 1
 62
   179
420
  2234388
370
    25
100
AcDbVertex
100
AcDb2dVertex
 10
99.30479123493943
 20
-139.2680280549186
 30
0.0
  0
VERTEX
  5
143
330
112
100
AcDbEntity
  8
_U+30EC_U+30A4_U+30E4_U+30FC 1
 62
   179
420
  2234388
370
    25
100
AcDbVertex
100
AcDb2dVertex
 10
100.3045579447589
 20
-139.2680280549186
 30
0.0
  0
VERTEX
  5
144
330
112
100
AcDbEntity
  8
_U+30EC_U+30A4_U+30E4_U+30FC 1
 62
   179
420
  2234388
370
    25
100
AcDbVertex
100
AcDb2dVertex
 10
100.3045579447589
 20
-150.2450712040294
 30
0.0
  0
VERTEX
  5
145
330
112
100
AcDbEntity
  8
_U+30EC_U+30A4_U+30E4_U+30FC 1
 62
   179
420
  2234388
370
    25
100
AcDbVertex
100
AcDb2dVertex
 10
100.1048931295419
 20
-163.2445791896034
 30
0.0
  0
VERTEX
  5
146
330
112
100
AcDbEntity
  8
_U+30EC_U+30A4_U+30E4_U+30FC 1
 62
   179
420
  2234388
370
    25
100
AcDbVertex
100
AcDb2dVertex
 10
99.30514651041135
 20
-163.2449236991519
 30
0.0
  0
VERTEX
  5
147
330
112
100
AcDbEntity
  8
_U+30EC_U+30A4_U+30E4_U+30FC 1
 62
   179
420
  2234388
370
    25
100
AcDbVertex
100
AcDb2dVertex
 10
99.53127396532443
 20
-162.7355232679641
 30
0.0
  0
VERTEX
  5
148
330
112
100
AcDbEntity
  8
_U+30EC_U+30A4_U+30E4_U+30FC 1
 62
   179
420
  2234388
370
    25
100
AcDbVertex
100
AcDb2dVertex
 10
99.30514651041135
 20
-162.2465673252967
 30
0.0
  0
VERTEX
  5
149
330
112
100
AcDbEntity
  8
_U+30EC_U+30A4_U+30E4_U+30FC 1
 62
   179
420
  2234388
370
    25
100
AcDbVertex
100
AcDb2dVertex
 10
99.53127396532443
 20
-161.7371561281855
 30
0.0
  0
VERTEX
  5
14A
330
112
100
AcDbEntity
  8
_U+30EC_U+30A4_U+30E4_U+30FC 1
 62
   179
420
  2234388
370
    25
100
AcDbVertex
100
AcDb2dVertex
 10
99.30514651041135
 20
-161.24855546099
 30
0.0
  0
VERTEX
  5
14B
330
112
100
AcDbEntity
  8
_U+30EC_U+30A4_U+30E4_U+30FC 1
 62
   179
420
  2234388
370
    25
100
AcDbVertex
100
AcDb2dVertex
 10
99.53127396532443
 20
-160.7387997543303
 30
0.0
  0
VERTEX
  5
14C
330
112
100
AcDbEntity
  8
_U+30EC_U+30A4_U+30E4_U+30FC 1
 62
   179
420
  2234388
370
    25
100
AcDbVertex
100
AcDb2dVertex
 10
99.30514651041135
 20
-160.2501990871347
 30
0.0
  0
VERTEX
  5
14D
330
112
100
AcDbEntity
  8
_U+30EC_U+30A4_U+30E4_U+30FC 1
 62
   179
420
  2234388
370
    25
100
AcDbVertex
100
AcDb2dVertex
 10
99.53127396532443
 20
-159.7400773390797
 30
0.0
  0
VERTEX
  5
14E
330
112
100
AcDbEntity
  8
_U+30EC_U+30A4_U+30E4_U+30FC 1
 62
   179
420
  2234388
370
    25
100
AcDbVertex
100
AcDb2dVertex
 10
99.30514651041135
 20
-159.252187222828
 30
0.0
  0
VERTEX
  5
14F
330
112
100
AcDbEntity
  8
_U+30EC_U+30A4_U+30E4_U+30FC 1
 62
   179
420
  2234388
370
    25
100
AcDbVertex
100
AcDb2dVertex
 10
99.53127396532443
 20
-158.7417209652245
 30
0.0
  0
VERTEX
  5
150
330
112
100
AcDbEntity
  8
_U+30EC_U+30A4_U+30E4_U+30FC 1
 62
   179
420
  2234388
370
    25
100
AcDbVertex
100
AcDb2dVertex
 10
99.30514651041135
 20
-158.2534755735009
 30
0.0
  0
VERTEX
  5
151
330
112
100
AcDbEntity
  8
_U+30EC_U+30A4_U+30E4_U+30FC 1
 62
   179
420
  2234388
370
    25
100
AcDbVertex
100
AcDb2dVertex
 10
99.53127396532443
 20
-157.7433645913693
 30
0.0
  0
VERTEX
  5
152
330
112
100
AcDbEntity
  8
_U+30EC_U+30A4_U+30E4_U+30FC 1
 62
   179
420
  2234388
370
    25
100
AcDbVertex
100
AcDb2dVertex
 10
99.30514651041135
 20
-157.2551191996456
 30
0.0
  0
VERTEX
  5
153
330
112
100
AcDbEntity
  8
_U+30EC_U+30A4_U+30E4_U+30FC 1
 62
   179
420
  2234388
370
    25
100
AcDbVertex
100
AcDb2dVertex
 10
99.53127396532443
 20
-156.7453527270626
 30
0.0
  0
VERTEX
  5
154
330
112
100
AcDbEntity
  8
_U+30EC_U+30A4_U+30E4_U+30FC 1
 62
   179
420
  2234388
370
    25
100
AcDbVertex
100
AcDb2dVertex
 10
99.30514651041135
 20
-156.256752059867
 30
0.0
  0
VERTEX
  5
155
330
112
100
AcDbEntity
  8
_U+30EC_U+30A4_U+30E4_U+30FC 1
 62
   179
420
  2234388
370
    25
100
AcDbVertex
100
AcDb2dVertex
 10
99.53127396532443
 20
-155.746985587284
 30
0.0
  0
VERTEX
  5
156
330
112
100
AcDbEntity
  8
_U+30EC_U+30A4_U+30E4_U+30FC 1
 62
   179
420
  2234388
370
    25
100
AcDbVertex
100
AcDb2dVertex
 10
99.30514651041135
 20
-155.2583956860118
 30
0.0
  0
VERTEX
  5
157
330
112
100
AcDbEntity
  8
_U+30EC_U+30A4_U+30E4_U+30FC 1
 62
   179
420
  2234388
370
    25
100
AcDbVertex
100
AcDb2dVertex
 10
99.53127396532443
 20
-154.7482739379568
 30
0.0
  0
VERTEX
  5
158
330
112
100
AcDbEntity
  8
_U+30EC_U+30A4_U+30E4_U+30FC 1
 62
   179
420
  2234388
370
    25
100
AcDbVertex
100
AcDb2dVertex
 10
99.30514651041135
 20
-154.2600285462332
 30
0.0
  0
VERTEX
  5
159
330
112
100
AcDbEntity
  8
_U+30EC_U+30A4_U+30E4_U+30FC 1
 62
   179
420
  2234388
370
    25
100
AcDbVertex
100
AcDb2dVertex
 10
99.53127396532443
 20
-153.7502836054969
 30
0.0
  0
VERTEX
  5
15A
330
112
100
AcDbEntity
  8
_U+30EC_U+30A4_U+30E4_U+30FC 1
 62
   179
420
  2234388
370
    25
100
AcDbVertex
100
AcDb2dVertex
 10
99.30514651041135
 20
-153.2616829383013
 30
0.0
  0
VERTEX
  5
15B
330
112
100
AcDbEntity
  8
_U+30EC_U+30A4_U+30E4_U+30FC 1
 62
   179
420
  2234388
370
    25
100
AcDbVertex
100
AcDb2dVertex
 10
99.53127396532443
 20
-152.7522609752668
 30
0.0
  0
VERTEX
  5
15C
330
112
100
AcDbEntity
  8
_U+30EC_U+30A4_U+30E4_U+30FC 1
 62
   179
420
  2234388
370
    25
100
AcDbVertex
100
AcDb2dVertex
 10
99.30479123493943
 20
-152.2633157985227
 30
0.0
  0
SEQEND
  5
15D
330
112
100
AcDbEntity
  8
_U+30EC_U+30A4_U+30E4_U+30FC 1
 62
   179
420
  2234388
370
    25
  0
SPLINE
  5
15E
330
1F
100
AcDbEntity
  8
_U+30EC_U+30A4_U+30E4_U+30FC 1
 62
   179
420
  2234388
370
    25
100
AcDbSpline
210
0.0
220
0.0
230
1.0
 70
    11
 71
     3
 72
    32
 73
    28
 74
     0
 42
0.0000000001
 43
0.0000000001
 12
1.0
 22
0.0
 32
0.0
 13
1.0
 23
0.0
 33
0.0
 40
0.0
 40
0.0
 40
0.0
 40
0.0
 40
1.0
 40
1.0
 40
1.0
 40
2.0
 40
2.0
 40
2.0
 40
3.0
 40
3.0
 40
3.0
 40
4.0
 40
4.0
 40
4.0
 40
5.0
 40
5.0
 40
5.0
 40
6.0
 40
6.0
 40
6.0
 40
7.0
 40
7.0
 40
7.0
 40
8.0
 40
8.0
 40
8.0
 40
9.0
 40
9.0
 40
9.0
 40
9.0
 10
106.1953482468344
 20
-138.2454806512025
 30
0.0
 10
106.1953482468344
 20
-138.2454806512025
 30
0.0
 10
99.30488812824996
 20
-138.2454806512025
 30
0.0
 10
99.30488812824996
 20
-138.2454806512025
 30
0.0
 10
99.30488812824996
 20
-138.2454806512025
 30
0.0
 10
99.30488812824996
 20
-139.2681787778457
 30
0.0
 10
99.30488812824996
 20
-139.2681787778457
 30
0.0
 10
99.30488812824996
 20
-139.2681787778457
 30
0.0
 10
103.8370296642537
 20
-139.2681787778457
 30
0.0
 10
103.8370296642537
 20
-139.2681787778457
 30
0.0
 10
103.8370296642537
 20
-139.2681787778457
 30
0.0
 10
103.801039182356
 20
-149.245799726686
 30
0.0
 10
103.801039182356
 20
-149.245799726686
 30
0.0
 10
103.801039182356
 20
-149.245799726686
 30
0.0
 10
103.2926938116606
 20
-149.245799726686
 30
0.0
 10
103.2926938116606
 20
-149.245799726686
 30
0.0
 10
103.2926938116606
 20
-149.245799726686
 30
0.0
 10
103.2926938116606
 20
-150.2448558855616
 30
0.0
 10
103.2926938116606
 20
-150.2448558855616
 30
0.0
 10
103.2926938116606
 20
-150.2448558855616
 30
0.0
 10
107.2977788021144
 20
-150.2448558855616
 30
0.0
 10
107.2977788021144
 20
-150.2448558855616
 30
0.0
 10
107.2977788021144
 20
-150.2448558855616
 30
0.0
 10
107.2977788021144
 20
-139.3097998376772
 30
0.0
 10
107.2977788021144
 20
-139.3097998376772
 30
0.0
 10
107.2977788021144
 20
-138.1936104323027
 30
0.0
 10
106.1953482468344
 20
-138.2454806512025
 30
0.0
 10
106.1953482468344
 20
-138.2454806512025
 30
0.0
  0
POLYLINE
  5
15F
330
1F
100
AcDbEntity
  8
_U+30EC_U+30A4_U+30E4_U+30FC 1
 62
   179
420
  2234388
370
    25
100
AcDb2dPolyline
 66
     1
 10
0.0
 20
0.0
 30
0.0
  0
VERTEX
  5
160
330
15F
100
AcDbEntity
  8
_U+30EC_U+30A4_U+30E4_U+30FC 1
 62
   179
420
  2234388
370
    25
100
AcDbVertex
100
AcDb2dVertex
 10
106.3279951889399
 20
-149.2447231343468
 30
0.0
  0
VERTEX
  5
161
330
15F
100
AcDbEntity
  8
_U+30EC_U+30A4_U+30E4_U+30FC 1
 62
   179
420
  2234388
370
    25
100
AcDbVertex
100
AcDb2dVertex
 10
104.8279790828154
 20
-149.2461442362345
 30
0.0
  0
VERTEX
  5
162
330
15F
100
AcDbEntity
  8
_U+30EC_U+30A4_U+30E4_U+30FC 1
 62
   179
420
  2234388
370
    25
100
AcDbVertex
100
AcDb2dVertex
 10
104.8279790828154
 20
-139.2681787778457
 30
0.0
  0
VERTEX
  5
163
330
15F
100
AcDbEntity
  8
_U+30EC_U+30A4_U+30E4_U+30FC 1
 62
   179
420
  2234388
370
    25
100
AcDbVertex
100
AcDb2dVertex
 10
106.3279951889399
 20
-139.2681787778457
 30
0.0
  0
VERTEX
  5
164
330
15F
100
AcDbEntity
  8
_U+30EC_U+30A4_U+30E4_U+30FC 1
 62
   179
420
  2234388
370
    25
100
AcDbVertex
100
AcDb2dVertex
 10
106.3279951889399
 20
-149.2447231343468
 30
0.0
  0
SEQEND
  5
165
330
15F
100
AcDbEntity
  8
_U+30EC_U+30A4_U+30E4_U+30FC 1
 62
   179
420
  2234388
370
    25
  0
POLYLINE
  5
166
330
1F
100
AcDbEntity
  8
_U+30EC_U+30A4_U+30E4_U+30FC 1
370
     0
100
AcDb2dPolyline
 66
     1
 10
0.0
 20
0.0
 30
0.0
  0
VERTEX
  5
167
330
166
100
AcDbEntity
  8
_U+30EC_U+30A4_U+30E4_U+30FC 1
370
     0
100
AcDbVertex
100
AcDb2dVertex
 10
107.5151966250038
 20
-137.9594300666929
 30
0.0
  0
VERTEX
  5
168
330
166
100
AcDbEntity
  8
_U+30EC_U+30A4_U+30E4_U+30FC 1
370
     0
100
AcDbVertex
100
AcDb2dVertex
 10
107.4968514915448
 20
-137.6775781923059
 30
0.0
  0
VERTEX
  5
169
330
166
100
AcDbEntity
  8
_U+30EC_U+30A4_U+30E4_U+30FC 1
370
     0
100
AcDbVertex
100
AcDb2dVertex
 10
107.3821944074264
 20
-138.1404052389024
 30
0.0
  0
VERTEX
  5
16A
330
166
100
AcDbEntity
  8
_U+30EC_U+30A4_U+30E4_U+30FC 1
370
     0
100
AcDbVertex
100
AcDb2dVertex
 10
107.7970592653142
 20
-137.9411064650807
 30
0.0
  0
VERTEX
  5
16B
330
166
100
AcDbEntity
  8
_U+30EC_U+30A4_U+30E4_U+30FC 1
370
     0
100
AcDbVertex
100
AcDb2dVertex
 10
107.5151966250038
 20
-137.9594300666929
 30
0.0
  0
SEQEND
  5
16D
330
166
100
AcDbEntity
  8
_U+30EC_U+30A4_U+30E4_U+30FC 1
370
     0
  0
HATCH
  5
16C
330
1F
100
AcDbEntity
  8
_U+30EC_U+30A4_U+30E4_U+30FC 1
 62
   179
420
  2234388
100
AcDbHatch
 10
0.0
 20
0.0
 30
0.0
210
0.0
220
0.0
230
1.0
  2
SOLID
 70
     1
 71
     0
 91
        1
 92
        1
 93
        4
 72
     1
 10
107.5151966250038
 20
-137.9594300666929
 11
107.4968514915448
 21
-137.6775781923059
 72
     1
 10
107.4968514915448
 20
-137.6775781923059
 11
107.3821944074264
 21
-138.1404052389024
 72
     1
 10
107.3821944074264
 20
-138.1404052389024
 11
107.7970592653142
 21
-137.9411064650807
 72
     1
 10
107.7970592653142
 20
-137.9411064650807
 11
107.5151966250038
 21
-137.9594300666929
 97
        0
 75
     2
 76
     1
 98
        0
  0
POLYLINE
  5
16E
330
1F
100
AcDbEntity
  8
_U+30EC_U+30A4_U+30E4_U+30FC 1
 62
   179
420
  2234388
370
     9
100
AcDb2dPolyline
 66
     1
 10
0.0
 20
0.0
 30
0.0
  0
VERTEX
  5
16F
330
16E
100
AcDbEntity
  8
_U+30EC_U+30A4_U+30E4_U+30FC 1
 62
   179
420
  2234388
370
     9
100
AcDbVertex
100
AcDb2dVertex
 10
107.5151966250038
 20
-137.9594300666929
 30
0.0
  0
VERTEX
  5
170
330
16E
100
AcDbEntity
  8
_U+30EC_U+30A4_U+30E4_U+30FC 1
 62
   179
420
  2234388
370
     9
100
AcDbVertex
100
AcDb2dVertex
 10
107.4968514915448
 20
-137.6775781923059
 30
0.0
  0
VERTEX
  5
171
330
16E
100
AcDbEntity
  8
_U+30EC_U+30A4_U+30E4_U+30FC 1
 62
   179
420
  2234388
370
     9
100
AcDbVertex
100
AcDb2dVertex
 10
107.3821944074264
 20
-138.1404052389024
 30
0.0
  0
VERTEX
  5
172
330
16E
100
AcDbEntity
  8
_U+30EC_U+30A4_U+30E4_U+30FC 1
 62
   179
420
  2234388
370
     9
100
AcDbVertex
100
AcDb2dVertex
 10
107.7970592653142
 20
-137.9411064650807
 30
0.0
  0
VERTEX
  5
173
330
16E
100
AcDbEntity
  8
_U+30EC_U+30A4_U+30E4_U+30FC 1
 62
   179
420
  2234388
370
     9
100
AcDbVertex
100
AcDb2dVertex
 10
107.5151966250038
 20
-137.9594300666929
 30
0.0
  0
SEQEND
  5
174
330
16E
100
AcDbEntity
  8
_U+30EC_U+30A4_U+30E4_U+30FC 1
 62
   179
420
  2234388
370
     9
  0
POLYLINE
  5
175
330
1F
100
AcDbEntity
  8
_U+30EC_U+30A4_U+30E4_U+30FC 1
 62
   179
420
  2234388
370
     9
100
AcDb2dPolyline
 66
     1
 10
0.0
 20
0.0
 30
0.0
  0
VERTEX
  5
176
330
175
100
AcDbEntity
  8
_U+30EC_U+30A4_U+30E4_U+30FC 1
 62
   179
420
  2234388
370
     9
100
AcDbVertex
100
AcDb2dVertex
 10
107.5548152230842
 20
-137.9089809496807
 30
0.0
  0
VERTEX
  5
177
330
175
100
AcDbEntity
  8
_U+30EC_U+30A4_U+30E4_U+30FC 1
 62
   179
420
  2234388
370
     9
100
AcDbVertex
100
AcDb2dVertex
 10
110.3939614761721
 20
-135.0867587281641
 30
0.0
  0
SEQEND
  5
178
330
175
100
AcDbEntity
  8
_U+30EC_U+30A4_U+30E4_U+30FC 1
 62
   179
420
  2234388
370
     9
  0
INSERT
  5
17A
330
1F
100
AcDbEntity
  8
_U+30EC_U+30A4_U+30E4_U+30FC 1
100
AcDbBlockReference
  2
block 7
 10
0.0
 20
0.0
 30
0.0
  0
POLYLINE
  5
1B5
330
1F
100
AcDbEntity
  8
_U+30EC_U+30A4_U+30E4_U+30FC 1
370
     0
100
AcDb2dPolyline
 66
     1
 10
0.0
 20
0.0
 30
0.0
  0
VERTEX
  5
1B6
330
1B5
100
AcDbEntity
  8
_U+30EC_U+30A4_U+30E4_U+30FC 1
370
     0
100
AcDbVertex
100
AcDb2dVertex
 10
128.9058267906902
 20
-166.8870554927108
 30
0.0
  0
VERTEX
  5
1B7
330
1B5
100
AcDbEntity
  8
_U+30EC_U+30A4_U+30E4_U+30FC 1
370
     0
100
AcDbVertex
100
AcDb2dVertex
 10
80.30113352563612
 20
-166.8870554927108
 30
0.0
  0
VERTEX
  5
1B8
330
1B5
100
AcDbEntity
  8
_U+30EC_U+30A4_U+30E4_U+30FC 1
370
     0
100
AcDbVertex
100
AcDb2dVertex
 10
80.30113352563612
 20
-130.1749999414463
 30
0.0
  0
VERTEX
  5
1B9
330
1B5
100
AcDbEntity
  8
_U+30EC_U+30A4_U+30E4_U+30FC 1
370
     0
100
AcDbVertex
100
AcDb2dVertex
 10
128.9058267906902
 20
-130.1749999414463
 30
0.0
  0
VERTEX
  5
1BA
330
1B5
100
AcDbEntity
  8
_U+30EC_U+30A4_U+30E4_U+30FC 1
370
     0
100
AcDbVertex
100
AcDb2dVertex
 10
128.9058267906902
 20
-166.8870554927108
 30
0.0
  0
SEQEND
  5
1BB
330
1B5
100
AcDbEntity
  8
_U+30EC_U+30A4_U+30E4_U+30FC 1
370
     0
  0
ENDSEC
  0
SECTION
  2
OBJECTS
  0
DICTIONARY
  5
C
330
0
100
AcDbDictionary
281
     1
  3
ACAD_GROUP
350
D
  3
ACAD_LAYOUT
350
1A
  3
ACAD_MATERIAL
350
3B
  3
ACAD_MLEADERSTYLE
350
1BD
  3
ACAD_MLINESTYLE
350
17
  3
ACAD_PLOTSETTINGS
350
19
  3
ACAD_PLOTSTYLENAME
350
E
  3
ACAD_TABLESTYLE
350
1BC
  3
ACAD_VISUALSTYLE
350
2A
  0
SUN
  5
3F
330
29
100
AcDbSun
 90
        1
290
     0
 63
     7
421
 16777215
 40
1.0
291
     1
 91
  2455826
 92
 54000000
292
     0
 70
     2
 71
   256
280
     1
  0
DICTIONARY
  5
D
102
{ACAD_REACTORS
330
C
102
}
330
C
100
AcDbDictionary
281
     1
  0
DICTIONARY
  5
1A
102
{ACAD_REACTORS
330
C
102
}
330
C
100
AcDbDictionary
281
     1
  3
Layout1
350
1E
  3
Layout2
350
26
  3
Model
350
22
  0
DICTIONARY
  5
3B
102
{ACAD_REACTORS
330
C
102
}
330
C
100
AcDbDictionary
281
     1
  3
ByBlock
350
3D
  3
ByLayer
350
3C
  3
Global
350
3E
  0
DICTIONARY
  5
1BD
102
{ACAD_REACTORS
330
C
102
}
330
C
100
AcDbDictionary
281
     1
  0
DICTIONARY
  5
17
102
{ACAD_REACTORS
330
C
102
}
330
C
100
AcDbDictionary
281
     1
  3
Standard
350
18
  0
DICTIONARY
  5
19
102
{ACAD_REACTORS
330
C
102
}
330
C
100
AcDbDictionary
281
     1
  0
ACDBDICTIONARYWDFLT
  5
E
102
{ACAD_REACTORS
330
C
102
}
330
C
100
AcDbDictionary
281
     1
  3
Normal
350
F
100
AcDbDictionaryWithDefault
340
F
  0
DICTIONARY
  5
1BC
102
{ACAD_REACTORS
330
C
102
}
330
C
100
AcDbDictionary
281
     1
  0
DICTIONARY
  5
2A
102
{ACAD_REACTORS
330
C
102
}
330
C
100
AcDbDictionary
281
     1
  3
2dWireframe
350
2F
  3
3D Hidden
350
31
  3
3dWireframe
350
30
  3
Basic
350
32
  3
Brighten
350
36
  3
ColorChange
350
3A
  3
Conceptual
350
34
  3
Dim
350
35
  3
Facepattern
350
39
  3
Flat
350
2B
  3
FlatWithEdges
350
2C
  3
Gouraud
350
2D
  3
GouraudWithEdges
350
2E
  3
Linepattern
350
38
  3
Realistic
350
33
  3
Thicken
350
37
  0
LAYOUT
  5
1E
102
{ACAD_REACTORS
330
1A
102
}
330
1A
100
AcDbPlotSettings
  1

  2
none_device
  4

  6

 40
0.0
 41
0.0
 42
0.0
 43
0.0
 44
0.0
 45
0.0
 46
0.0
 47
0.0
 48
0.0
 49
0.0
140
0.0
141
0.0
142
1.0
143
1.0
 70
   688
 72
     0
 73
     0
 74
     5
  7

 75
    16
 76
     0
 77
     2
 78
   300
147
1.0
148
0.0
149
0.0
100
AcDbLayout
  1
Layout1
 70
     1
 71
     1
 10
0.0
 20
0.0
 11
12.0
 21
9.0
 12
0.0
 22
0.0
 32
0.0
 14
1.000000000000000E+20
 24
1.000000000000000E+20
 34
1.000000000000000E+20
 15
-1.000000000000000E+20
 25
-1.000000000000000E+20
 35
-1.000000000000000E+20
146
0.0
 13
0.0
 23
0.0
 33
0.0
 16
1.0
 26
0.0
 36
0.0
 17
0.0
 27
1.0
 37
0.0
 76
     0
330
1B
  0
LAYOUT
  5
26
102
{ACAD_REACTORS
330
1A
102
}
330
1A
100
AcDbPlotSettings
  1

  2
none_device
  4

  6

 40
0.0
 41
0.0
 42
0.0
 43
0.0
 44
0.0
 45
0.0
 46
0.0
 47
0.0
 48
0.0
 49
0.0
140
0.0
141
0.0
142
1.0
143
1.0
 70
   688
 72
     0
 73
     0
 74
     5
  7

 75
    16
 76
     0
 77
     2
 78
   300
147
1.0
148
0.0
149
0.0
100
AcDbLayout
  1
Layout2
 70
     1
 71
     2
 10
0.0
 20
0.0
 11
0.0
 21
0.0
 12
0.0
 22
0.0
 32
0.0
 14
0.0
 24
0.0
 34
0.0
 15
0.0
 25
0.0
 35
0.0
146
0.0
 13
0.0
 23
0.0
 33
0.0
 16
1.0
 26
0.0
 36
0.0
 17
0.0
 27
1.0
 37
0.0
 76
     0
330
23
  0
LAYOUT
  5
22
102
{ACAD_REACTORS
330
1A
102
}
330
1A
100
AcDbPlotSettings
  1

  2
none_device
  4

  6

 40
0.0
 41
0.0
 42
0.0
 43
0.0
 44
0.0
 45
0.0
 46
0.0
 47
0.0
 48
0.0
 49
0.0
140
0.0
141
0.0
142
1.0
143
1.0
 70
  1712
 72
     0
 73
     0
 74
     0
  7

 75
     0
 76
     0
 77
     2
 78
   300
147
1.0
148
0.0
149
0.0
100
AcDbLayout
  1
Model
 70
     1
 71
     0
 10
0.0
 20
0.0
 11
12.0
 21
9.0
 12
0.0
 22
0.0
 32
0.0
 14
1.000000000000000E+20
 24
1.000000000000000E+20
 34
1.000000000000000E+20
 15
-1.000000000000000E+20
 25
-1.000000000000000E+20
 35
-1.000000000000000E+20
146
0.0
 13
0.0
 23
0.0
 33
0.0
 16
1.0
 26
0.0
 36
0.0
 17
0.0
 27
1.0
 37
0.0
 76
     0
330
1F
331
29
  0
MATERIAL
  5
3D
102
{ACAD_REACTORS
330
3B
102
}
330
3B
100
AcDbMaterial
  1
ByBlock
 72
     1
 94
      127
  0
MATERIAL
  5
3C
102
{ACAD_REACTORS
330
3B
102
}
330
3B
100
AcDbMaterial
  1
ByLayer
 72
     1
 94
      127
  0
MATERIAL
  5
3E
102
{ACAD_REACTORS
330
3B
102
}
330
3B
100
AcDbMaterial
  1
Global
 72
     1
 94
      127
  0
MLINESTYLE
  5
18
102
{ACAD_REACTORS
330
17
102
}
330
17
100
AcDbMlineStyle
  2
Standard
 70
     0
  3

 62
   256
 51
90.0
 52
90.0
 71
     2
 49
0.5
 62
   256
  6
BYLAYER
 49
-0.5
 62
   256
  6
BYLAYER
  0
ACDBPLACEHOLDER
  5
F
102
{ACAD_REACTORS
330
E
102
}
330
E
  0
VISUALSTYLE
  5
2F
102
{ACAD_REACTORS
330
2A
102
}
330
2A
100
AcDbVisualStyle
  2
2dWireframe
 70
     4
177
     2
291
     0
 71
     0
176
     1
 72
     2
176
     1
 73
     0
176
     1
 90
        0
176
     1
 40
-0.6
176
     1
 41
-30.0
176
     1
 62
     5
 63
     7
421
 16777215
176
     1
 74
     1
176
     1
 91
        4
176
     1
 64
     7
176
     1
 65
   257
176
     1
 75
     1
176
     1
175
     1
176
     1
 42
1.0
176
     1
 92
        0
176
     1
 66
   257
176
     1
 43
1.0
176
     1
 76
     1
176
     1
 77
     6
176
     1
 78
     2
176
     1
 67
     7
176
     1
 79
     5
176
     1
170
     0
176
     1
171
     0
176
     1
290
     0
176
     1
 93
        1
176
     1
 44
0.0
176
     1
173
     0
176
     1
  0
VISUALSTYLE
  5
31
102
{ACAD_REACTORS
330
2A
102
}
330
2A
100
AcDbVisualStyle
  2
3D Hidden
 70
     6
177
     2
291
     0
 71
     1
176
     1
 72
     2
176
     1
 73
     2
176
     1
 90
        0
176
     1
 40
-0.6
176
     1
 41
-30.0
176
     1
 62
     5
 63
     7
421
 16777215
176
     1
 74
     2
176
     1
 91
        2
176
     1
 64
     7
176
     1
 65
   257
176
     1
 75
     2
176
     1
175
     1
176
     1
 42
40.0
176
     1
 92
        0
176
     1
 66
   257
176
     1
 43
1.0
176
     1
 76
     1
176
     1
 77
     6
176
     1
 78
     2
176
     1
 67
     7
176
     1
 79
     3
176
     1
170
     0
176
     1
171
     0
176
     1
290
     0
176
     1
 93
        1
176
     1
 44
0.0
176
     1
173
     0
176
     1
  0
VISUALSTYLE
  5
30
102
{ACAD_REACTORS
330
2A
102
}
330
2A
100
AcDbVisualStyle
  2
3dWireframe
 70
     5
177
     2
291
     0
 71
     0
176
     1
 72
     2
176
     1
 73
     0
176
     1
 90
        0
176
     1
 40
-0.6
176
     1
 41
-30.0
176
     1
 62
     5
 63
     7
421
 16777215
176
     1
 74
     1
176
     1
 91
        4
176
     1
 64
     7
176
     1
 65
   257
176
     1
 75
     1
176
     1
175
     1
176
     1
 42
1.0
176
     1
 92
        0
176
     1
 66
   257
176
     1
 43
1.0
176
     1
 76
     1
176
     1
 77
     6
176
     1
 78
     2
176
     1
 67
     7
176
     1
 79
     5
176
     1
170
     0
176
     1
171
     0
176
     1
290
     0
176
     1
 93
        1
176
     1
 44
0.0
176
     1
173
     0
176
     1
  0
VISUALSTYLE
  5
32
102
{ACAD_REACTORS
330
2A
102
}
330
2A
100
AcDbVisualStyle
  2
Basic
 70
     7
177
     2
291
     1
 71
     1
176
     1
 72
     0
176
     1
 73
     1
176
     1
 90
        0
176
     1
 40
-0.6
176
     1
 41
-30.0
176
     1
 62
     5
 63
     7
421
 16777215
176
     1
 74
     0
176
     1
 91
        4
176
     1
 64
     7
176
     1
 65
   257
176
     1
 75
     1
176
     1
175
     1
176
     1
 42
1.0
176
     1
 92
        8
176
     1
 66
     7
176
     1
 43
1.0
176
     1
 76
     1
176
     1
 77
     6
176
     1
 78
     2
176
     1
 67
     7
176
     1
 79
     5
176
     1
170
     0
176
     1
171
     0
176
     1
290
     0
176
     1
 93
        1
176
     1
 44
0.0
176
     1
173
     0
176
     1
  0
VISUALSTYLE
  5
36
102
{ACAD_REACTORS
330
2A
102
}
330
2A
100
AcDbVisualStyle
  2
Brighten
 70
    12
177
     2
291
     1
 71
     2
176
     1
 72
     2
176
     1
 73
     0
176
     1
 90
        0
176
     1
 40
-0.6
176
     1
 41
-30.0
176
     1
 62
     5
 63
     7
421
 16777215
176
     1
 74
     1
176
     1
 91
        4
176
     1
 64
     7
176
     1
 65
   257
176
     1
 75
     1
176
     1
175
     1
176
     1
 42
1.0
176
     1
 92
        8
176
     1
 66
     7
176
     1
 43
1.0
176
     1
 76
     1
176
     1
 77
     6
176
     1
 78
     2
176
     1
 67
     7
176
     1
 79
     5
176
     1
170
     0
176
     1
171
     0
176
     1
290
     0
176
     1
 93
        1
176
     1
 44
50.0
176
     1
173
     0
176
     1
  0
VISUALSTYLE
  5
3A
102
{ACAD_REACTORS
330
2A
102
}
330
2A
100
AcDbVisualStyle
  2
ColorChange
 70
    16
177
     2
291
     1
 71
     2
176
     1
 72
     2
176
     1
 73
     3
176
     1
 90
        0
176
     1
 40
-0.6
176
     1
 41
-30.0
176
     1
 62
     5
 63
     8
421
  8421504
176
     1
 74
     1
176
     1
 91
        4
176
     1
 64
     7
176
     1
 65
   257
176
     1
 75
     1
176
     1
175
     1
176
     1
 42
1.0
176
     1
 92
        8
176
     1
 66
     8
424
  8421504
176
     1
 43
1.0
176
     1
 76
     1
176
     1
 77
     6
176
     1
 78
     2
176
     1
 67
     7
176
     1
 79
     5
176
     1
170
     0
176
     1
171
     0
176
     1
290
     0
176
     1
 93
        1
176
     1
 44
0.0
176
     1
173
     0
176
     1
  0
VISUALSTYLE
  5
34
102
{ACAD_REACTORS
330
2A
102
}
330
2A
100
AcDbVisualStyle
  2
Conceptual
 70
     9
177
     2
291
     0
 71
     3
176
     1
 72
     2
176
     1
 73
     0
176
     1
 90
        0
176
     1
 40
-0.6
176
     1
 41
-30.0
176
     1
 62
     5
 63
     7
421
 16777215
176
     1
 74
     2
176
     1
 91
        2
176
     1
 64
     7
176
     1
 65
   257
176
     1
 75
     1
176
     1
175
     1
176
     1
 42
40.0
176
     1
 92
        8
176
     1
 66
     7
176
     1
 43
1.0
176
     1
 76
     1
176
     1
 77
     6
176
     1
 78
     2
176
     1
 67
     7
176
     1
 79
     3
176
     1
170
     0
176
     1
171
     0
176
     1
290
     0
176
     1
 93
        1
176
     1
 44
0.0
176
     1
173
     0
176
     1
  0
VISUALSTYLE
  5
35
102
{ACAD_REACTORS
330
2A
102
}
330
2A
100
AcDbVisualStyle
  2
Dim
 70
    11
177
     2
291
     1
 71
     2
176
     1
 72
     2
176
     1
 73
     0
176
     1
 90
        0
176
     1
 40
-0.6
176
     1
 41
-30.0
176
     1
 62
     5
 63
     7
421
 16777215
176
     1
 74
     1
176
     1
 91
        4
176
     1
 64
     7
176
     1
 65
   257
176
     1
 75
     1
176
     1
175
     1
176
     1
 42
1.0
176
     1
 92
        8
176
     1
 66
     7
176
     1
 43
1.0
176
     1
 76
     1
176
     1
 77
     6
176
     1
 78
     2
176
     1
 67
     7
176
     1
 79
     5
176
     1
170
     0
176
     1
171
     0
176
     1
290
     0
176
     1
 93
        1
176
     1
 44
-50.0
176
     1
173
     0
176
     1
  0
VISUALSTYLE
  5
39
102
{ACAD_REACTORS
330
2A
102
}
330
2A
100
AcDbVisualStyle
  2
Facepattern
 70
    15
177
     2
291
     1
 71
     2
176
     1
 72
     2
176
     1
 73
     0
176
     1
 90
        0
176
     1
 40
-0.6
176
     1
 41
-30.0
176
     1
 62
     5
 63
     7
421
 16777215
176
     1
 74
     1
176
     1
 91
        4
176
     1
 64
     7
176
     1
 65
   257
176
     1
 75
     1
176
     1
175
     1
176
     1
 42
1.0
176
     1
 92
        8
176
     1
 66
     7
176
     1
 43
1.0
176
     1
 76
     1
176
     1
 77
     6
176
     1
 78
     2
176
     1
 67
     7
176
     1
 79
     5
176
     1
170
     0
176
     1
171
     0
176
     1
290
     0
176
     1
 93
        1
176
     1
 44
0.0
176
     1
173
     0
176
     1
  0
VISUALSTYLE
  5
2B
102
{ACAD_REACTORS
330
2A
102
}
330
2A
100
AcDbVisualStyle
  2
Flat
 70
     0
177
     2
291
     1
 71
     2
176
     1
 72
     1
176
     1
 73
     1
176
     1
 90
        2
176
     1
 40
-0.6
176
     1
 41
30.0
176
     1
 62
     5
 63
     7
421
 16777215
176
     1
 74
     0
176
     1
 91
        4
176
     1
 64
     7
176
     1
 65
   257
176
     1
 75
     1
176
     1
175
     1
176
     1
 42
1.0
176
     1
 92
        8
176
     1
 66
     7
176
     1
 43
1.0
176
     1
 76
     1
176
     1
 77
     6
176
     1
 78
     2
176
     1
 67
     7
176
     1
 79
     5
176
     1
170
     0
176
     1
171
     0
176
     1
290
     0
176
     1
 93
       13
176
     1
 44
0.0
176
     1
173
     0
176
     1
  0
VISUALSTYLE
  5
2C
102
{ACAD_REACTORS
330
2A
102
}
330
2A
100
AcDbVisualStyle
  2
FlatWithEdges
 70
     1
177
     2
291
     1
 71
     2
176
     1
 72
     1
176
     1
 73
     1
176
     1
 90
        2
176
     1
 40
-0.6
176
     1
 41
30.0
176
     1
 62
     5
 63
     7
421
 16777215
176
     1
 74
     1
176
     1
 91
        4
176
     1
 64
     7
176
     1
 65
   257
176
     1
 75
     1
176
     1
175
     1
176
     1
 42
1.0
176
     1
 92
        0
176
     1
 66
   257
176
     1
 43
1.0
176
     1
 76
     1
176
     1
 77
     6
176
     1
 78
     2
176
     1
 67
     7
176
     1
 79
     5
176
     1
170
     0
176
     1
171
     0
176
     1
290
     0
176
     1
 93
       13
176
     1
 44
0.0
176
     1
173
     0
176
     1
  0
VISUALSTYLE
  5
2D
102
{ACAD_REACTORS
330
2A
102
}
330
2A
100
AcDbVisualStyle
  2
Gouraud
 70
     2
177
     2
291
     1
 71
     2
176
     1
 72
     2
176
     1
 73
     1
176
     1
 90
        2
176
     1
 40
-0.6
176
     1
 41
30.0
176
     1
 62
     5
 63
     7
421
 16777215
176
     1
 74
     0
176
     1
 91
        4
176
     1
 64
     7
176
     1
 65
   257
176
     1
 75
     1
176
     1
175
     1
176
     1
 42
1.0
176
     1
 92
        0
176
     1
 66
     7
176
     1
 43
1.0
176
     1
 76
     1
176
     1
 77
     6
176
     1
 78
     2
176
     1
 67
     7
176
     1
 79
     5
176
     1
170
     0
176
     1
171
     0
176
     1
290
     0
176
     1
 93
       13
176
     1
 44
0.0
176
     1
173
     0
176
     1
  0
VISUALSTYLE
  5
2E
102
{ACAD_REACTORS
330
2A
102
}
330
2A
100
AcDbVisualStyle
  2
GouraudWithEdges
 70
     3
177
     2
291
     1
 71
     2
176
     1
 72
     2
176
     1
 73
     1
176
     1
 90
        2
176
     1
 40
-0.6
176
     1
 41
30.0
176
     1
 62
     5
 63
     7
421
 16777215
176
     1
 74
     1
176
     1
 91
        4
176
     1
 64
     7
176
     1
 65
   257
176
     1
 75
     1
176
     1
175
     1
176
     1
 42
1.0
176
     1
 92
        0
176
     1
 66
   257
176
     1
 43
1.0
176
     1
 76
     1
176
     1
 77
     6
176
     1
 78
     2
176
     1
 67
     7
176
     1
 79
     5
176
     1
170
     0
176
     1
171
     0
176
     1
290
     0
176
     1
 93
       13
176
     1
 44
0.0
176
     1
173
     0
176
     1
  0
VISUALSTYLE
  5
38
102
{ACAD_REACTORS
330
2A
102
}
330
2A
100
AcDbVisualStyle
  2
Linepattern
 70
    14
177
     2
291
     1
 71
     2
176
     1
 72
     2
176
     1
 73
     0
176
     1
 90
        0
176
     1
 40
-0.6
176
     1
 41
-30.0
176
     1
 62
     5
 63
     7
421
 16777215
176
     1
 74
     1
176
     1
 91
        4
176
     1
 64
     7
176
     1
 65
   257
176
     1
 75
     7
176
     1
175
     7
176
     1
 42
1.0
176
     1
 92
        8
176
     1
 66
     7
176
     1
 43
1.0
176
     1
 76
     1
176
     1
 77
     6
176
     1
 78
     2
176
     1
 67
     7
176
     1
 79
     5
176
     1
170
     0
176
     1
171
     0
176
     1
290
     0
176
     1
 93
        1
176
     1
 44
0.0
176
     1
173
     0
176
     1
  0
VISUALSTYLE
  5
33
102
{ACAD_REACTORS
330
2A
102
}
330
2A
100
AcDbVisualStyle
  2
Realistic
 70
     8
177
     2
291
     0
 71
     2
176
     1
 72
     2
176
     1
 73
     0
176
     1
 90
        0
176
     1
 40
-0.6
176
     1
 41
-30.0
176
     1
 62
     5
 63
     7
421
 16777215
176
     1
 74
     1
176
     1
 91
        0
176
     1
 64
     7
176
     1
 65
   257
176
     1
 75
     1
176
     1
175
     1
176
     1
 42
1.0
176
     1
 92
        8
176
     1
 66
     8
424
  7895160
176
     1
 43
1.0
176
     1
 76
     1
176
     1
 77
     6
176
     1
 78
     2
176
     1
 67
     7
176
     1
 79
     5
176
     1
170
     0
176
     1
171
     0
176
     1
290
     0
176
     1
 93
       13
176
     1
 44
0.0
176
     1
173
     0
176
     1
  0
VISUALSTYLE
  5
37
102
{ACAD_REACTORS
330
2A
102
}
330
2A
100
AcDbVisualStyle
  2
Thicken
 70
    13
177
     2
291
     1
 71
     2
176
     1
 72
     2
176
     1
 73
     0
176
     1
 90
        0
176
     1
 40
-0.6
176
     1
 41
-30.0
176
     1
 62
     5
 63
     7
421
 16777215
176
     1
 74
     1
176
     1
 91
        4
176
     1
 64
     7
176
     1
 65
   257
176
     1
 75
     1
176
     1
175
     1
176
     1
 42
1.0
176
     1
 92
       12
176
     1
 66
     7
176
     1
 43
1.0
176
     1
 76
     1
176
     1
 77
     6
176
     1
 78
     2
176
     1
 67
     7
176
     1
 79
     5
176
     1
170
     0
176
     1
171
     0
176
     1
290
     0
176
     1
 93
        1
176
     1
 44
0.0
176
     1
173
     0
176
     1
  0
ENDSEC
  0
EOF
