  0
SECTION
  2
HEADER
  9
$ACADVER
  1
AC1024
  9
$ACADMAINTVER
 70
     6
  9
$DWGCODEPAGE
  3
UNDEFINED
  9
$INSBASE
 10
0.0
 20
0.0
 30
0.0
  9
$EXTMIN
 10
1.000000000000000E+20
 20
1.000000000000000E+20
 30
1.000000000000000E+20
  9
$EXTMAX
 10
-1.000000000000000E+20
 20
-1.000000000000000E+20
 30
-1.000000000000000E+20
  9
$LIMMIN
 10
0.0
 20
0.0
  9
$LIMMAX
 10
12.0
 20
9.0
  9
$ORTHOMODE
 70
     0
  9
$REGENMODE
 70
     1
  9
$FILLMODE
 70
     1
  9
$QTEXTMODE
 70
     0
  9
$MIRRTEXT
 70
     1
  9
$LTSCALE
 40
1.0
  9
$ATTMODE
 70
     1
  9
$TEXTSIZE
 40
0.2
  9
$TRACEWID
 40
0.05
  9
$TEXTSTYLE
  7
Standard
  9
$CLAYER
  8
0
  9
$CELTYPE
  6
ByLayer
  9
$CECOLOR
 62
   256
  9
$CELTSCALE
 40
1.0
  9
$DISPSILH
 70
     0
  9
$DIMSCALE
 40
1.0
  9
$DIMASZ
 40
0.18
  9
$DIMEXO
 40
0.0625
  9
$DIMDLI
 40
0.38
  9
$DIMRND
 40
0.0
  9
$DIMDLE
 40
0.0
  9
$DIMEXE
 40
0.18
  9
$DIMTP
 40
0.0
  9
$DIMTM
 40
0.0
  9
$DIMTXT
 40
0.18
  9
$DIMCEN
 40
0.09
  9
$DIMTSZ
 40
0.0
  9
$DIMTOL
 70
     0
  9
$DIMLIM
 70
     0
  9
$DIMTIH
 70
     1
  9
$DIMTOH
 70
     1
  9
$DIMSE1
 70
     0
  9
$DIMSE2
 70
     0
  9
$DIMTAD
 70
     0
  9
$DIMZIN
 70
     0
  9
$DIMBLK
  1

  9
$DIMASO
 70
     1
  9
$DIMSHO
 70
     1
  9
$DIMPOST
  1

  9
$DIMAPOST
  1

  9
$DIMALT
 70
     0
  9
$DIMALTD
 70
     2
  9
$DIMALTF
 40
25.4
  9
$DIMLFAC
 40
1.0
  9
$DIMTOFL
 70
     0
  9
$DIMTVP
 40
0.0
  9
$DIMTIX
 70
     0
  9
$DIMSOXD
 70
     0
  9
$DIMSAH
 70
     0
  9
$DIMBLK1
  1

  9
$DIMBLK2
  1

  9
$DIMSTYLE
  2
Standard
  9
$DIMCLRD
 70
     0
  9
$DIMCLRE
 70
     0
  9
$DIMCLRT
 70
     0
  9
$DIMTFAC
 40
1.0
  9
$DIMGAP
 40
0.09
  9
$DIMJUST
 70
     0
  9
$DIMSD1
 70
     0
  9
$DIMSD2
 70
     0
  9
$DIMTOLJ
 70
     1
  9
$DIMTZIN
 70
     0
  9
$DIMALTZ
 70
     0
  9
$DIMALTTZ
 70
     0
  9
$DIMUPT
 70
     0
  9
$DIMDEC
 70
     4
  9
$DIMTDEC
 70
     4
  9
$DIMALTU
 70
     2
  9
$DIMALTTD
 70
     2
  9
$DIMTXSTY
  7
Standard
  9
$DIMAUNIT
 70
     0
  9
$DIMADEC
 70
     0
  9
$DIMALTRND
 40
0.0
  9
$DIMAZIN
 70
     0
  9
$DIMDSEP
 70
    46
  9
$DIMATFIT
 70
     3
  9
$DIMFRAC
 70
     0
  9
$DIMLDRBLK
  1

  9
$DIMLUNIT
 70
     2
  9
$DIMLWD
 70
    -2
  9
$DIMLWE
 70
    -2
  9
$DIMTMOVE
 70
     0
  9
$DIMFXL
 40
1.0
  9
$DIMFXLON
 70
     0
  9
$DIMJOGANG
 40
0.7853981633974483
  9
$DIMTFILL
 70
     0
  9
$DIMTFILLCLR
 70
     0
  9
$DIMARCSYM
 70
     0
  9
$DIMLTYPE
  6

  9
$DIMLTEX1
  6

  9
$DIMLTEX2
  6

  9
$DIMTXTDIRECTION
 70
     0
  9
$LUNITS
 70
     2
  9
$LUPREC
 70
     4
  9
$SKETCHINC
 40
0.1
  9
$FILLETRAD
 40
0.5
  9
$AUNITS
 70
     0
  9
$AUPREC
 70
     0
  9
$MENU
  1
.
  9
$ELEVATION
 40
0.0
  9
$PELEVATION
 40
0.0
  9
$THICKNESS
 40
0.0
  9
$LIMCHECK
 70
     0
  9
$CHAMFERA
 40
0.5
  9
$CHAMFERB
 40
0.5
  9
$CHAMFERC
 40
1.0
  9
$CHAMFERD
 40
0.0
  9
$SKPOLY
 70
     0
  9
$TDCREATE
 40
2458270.5871875
  9
$TDUCREATE
 40
2458270.2121875
  9
$TDUPDATE
 40
2458270.5871875
  9
$TDUUPDATE
 40
2458270.2121875
  9
$TDINDWG
 40
0.0000000116
  9
$TDUSRTIMER
 40
0.0000000116
  9
$USRTIMER
 70
     1
  9
$ANGBASE
 50
0.0
  9
$ANGDIR
 70
     0
  9
$PDMODE
 70
     0
  9
$PDSIZE
 40
0.0
  9
$PLINEWID
 40
0.0
  9
$SPLFRAME
 70
     0
  9
$SPLINETYPE
 70
     6
  9
$SPLINESEGS
 70
     8
  9
$HANDSEED
  5
166
  9
$SURFTAB1
 70
     6
  9
$SURFTAB2
 70
     6
  9
$SURFTYPE
 70
     6
  9
$SURFU
 70
     6
  9
$SURFV
 70
     6
  9
$UCSBASE
  2

  9
$UCSNAME
  2

  9
$UCSORG
 10
0.0
 20
0.0
 30
0.0
  9
$UCSXDIR
 10
1.0
 20
0.0
 30
0.0
  9
$UCSYDIR
 10
0.0
 20
1.0
 30
0.0
  9
$UCSORTHOREF
  2

  9
$UCSORTHOVIEW
 70
     0
  9
$UCSORGTOP
 10
0.0
 20
0.0
 30
0.0
  9
$UCSORGBOTTOM
 10
0.0
 20
0.0
 30
0.0
  9
$UCSORGLEFT
 10
0.0
 20
0.0
 30
0.0
  9
$UCSORGRIGHT
 10
0.0
 20
0.0
 30
0.0
  9
$UCSORGFRONT
 10
0.0
 20
0.0
 30
0.0
  9
$UCSORGBACK
 10
0.0
 20
0.0
 30
0.0
  9
$PUCSBASE
  2

  9
$PUCSNAME
  2

  9
$PUCSORG
 10
0.0
 20
0.0
 30
0.0
  9
$PUCSXDIR
 10
1.0
 20
0.0
 30
0.0
  9
$PUCSYDIR
 10
0.0
 20
1.0
 30
0.0
  9
$PUCSORTHOREF
  2

  9
$PUCSORTHOVIEW
 70
     0
  9
$PUCSORGTOP
 10
0.0
 20
0.0
 30
0.0
  9
$PUCSORGBOTTOM
 10
0.0
 20
0.0
 30
0.0
  9
$PUCSORGLEFT
 10
0.0
 20
0.0
 30
0.0
  9
$PUCSORGRIGHT
 10
0.0
 20
0.0
 30
0.0
  9
$PUCSORGFRONT
 10
0.0
 20
0.0
 30
0.0
  9
$PUCSORGBACK
 10
0.0
 20
0.0
 30
0.0
  9
$USERI1
 70
     0
  9
$USERI2
 70
     0
  9
$USERI3
 70
     0
  9
$USERI4
 70
     0
  9
$USERI5
 70
     0
  9
$USERR1
 40
0.0
  9
$USERR2
 40
0.0
  9
$USERR3
 40
0.0
  9
$USERR4
 40
0.0
  9
$USERR5
 40
0.0
  9
$WORLDVIEW
 70
     1
  9
$SHADEDGE
 70
     3
  9
$SHADEDIF
 70
    70
  9
$TILEMODE
 70
     1
  9
$MAXACTVP
 70
    64
  9
$PINSBASE
 10
0.0
 20
0.0
 30
0.0
  9
$PLIMCHECK
 70
     0
  9
$PEXTMIN
 10
1.000000000000000E+20
 20
1.000000000000000E+20
 30
1.000000000000000E+20
  9
$PEXTMAX
 10
-1.000000000000000E+20
 20
-1.000000000000000E+20
 30
-1.000000000000000E+20
  9
$PLIMMIN
 10
0.0
 20
0.0
  9
$PLIMMAX
 10
12.0
 20
9.0
  9
$UNITMODE
 70
     0
  9
$VISRETAIN
 70
     1
  9
$PLINEGEN
 70
     0
  9
$PSLTSCALE
 70
     1
  9
$TREEDEPTH
 70
  3020
  9
$CMLSTYLE
  2
Standard
  9
$CMLJUST
 70
     0
  9
$CMLSCALE
 40
1.0
  9
$PROXYGRAPHICS
 70
     1
  9
$MEASUREMENT
 70
     0
  9
$CELWEIGHT
370
    -1
  9
$ENDCAPS
280
     0
  9
$JOINSTYLE
280
     0
  9
$LWDISPLAY
290
     1
  9
$INSUNITS
 70
     1
  9
$HYPERLINKBASE
  1

  9
$STYLESHEET
  1

  9
$XEDIT
290
     1
  9
$CEPSNTYPE
380
     0
  9
$PSTYLEMODE
290
     1
  9
$FINGERPRINTGUID
  2
{A9E1C182-7BCC-FDFE-D3EE-BF9C4022E877}
  9
$VERSIONGUID
  2
{FAEB1C32-E019-11D5-929B-00C0DF256EC4}
  9
$EXTNAMES
290
     1
  9
$PSVPSCALE
 40
0.0
  9
$OLESTARTUP
290
     0
  9
$SORTENTS
280
   127
  9
$INDEXCTL
280
     0
  9
$HIDETEXT
280
     1
  9
$XCLIPFRAME
280
     2
  9
$HALOGAP
280
     0
  9
$OBSCOLOR
 70
   257
  9
$OBSLTYPE
280
     0
  9
$INTERSECTIONDISPLAY
280
     0
  9
$INTERSECTIONCOLOR
 70
   257
  9
$DIMASSOC
280
     2
  9
$PROJECTNAME
  1

  9
$CAMERADISPLAY
290
     0
  9
$LENSLENGTH
 40
50.0
  9
$CAMERAHEIGHT
 40
0.0
  9
$STEPSPERSEC
 40
2.0
  9
$STEPSIZE
 40
6.0
  9
$3DDWFPREC
 40
2.0
  9
$PSOLWIDTH
 40
0.25
  9
$PSOLHEIGHT
 40
4.0
  9
$LOFTANG1
 40
1.570796326794897
  9
$LOFTANG2
 40
1.570796326794897
  9
$LOFTMAG1
 40
0.0
  9
$LOFTMAG2
 40
0.0
  9
$LOFTPARAM
 70
     7
  9
$LOFTNORMALS
280
     1
  9
$LATITUDE
 40
37.795
  9
$LONGITUDE
 40
-122.394
  9
$NORTHDIRECTION
 40
0.0
  9
$TIMEZONE
 70
 -8000
  9
$LIGHTGLYPHDISPLAY
280
     1
  9
$TILEMODELIGHTSYNCH
280
     1
  9
$CMATERIAL
347
3C
  9
$SOLIDHIST
280
     1
  9
$SHOWHIST
280
     1
  9
$DWFFRAME
280
     2
  9
$DGNFRAME
280
     2
  9
$REALWORLDSCALE
290
     1
  9
$INTERFERECOLOR
 62
   256
  9
$CSHADOW
280
     0
  9
$SHADOWPLANELOCATION
 40
0.0
  0
ENDSEC
  0
SECTION
  2
CLASSES
  0
CLASS
  1
ACDBDICTIONARYWDFLT
  2
AcDbDictionaryWithDefault
  3
ObjectDBX Classes
 90
        0
 91
        4
280
     0
281
     0
  0
CLASS
  1
VISUALSTYLE
  2
AcDbVisualStyle
  3
ObjectDBX Classes
 90
     4095
 91
        4
280
     0
281
     0
  0
CLASS
  1
MATERIAL
  2
AcDbMaterial
  3
ObjectDBX Classes
 90
     1153
 91
        4
280
     0
281
     0
  0
CLASS
  1
SUN
  2
AcDbSun
  3
SCENEOE
 90
     1024
 91
        4
280
     0
281
     0
  0
ENDSEC
  0
SECTION
  2
TABLES
  0
TABLE
  2
VPORT
  5
8
330
0
100
AcDbSymbolTable
 70
     1
  0
VPORT
  5
29
330
8
100
AcDbSymbolTableRecord
100
AcDbViewportTableRecord
  2
*Active
 70
     0
 10
0.0
 20
0.0
 11
1.0
 21
1.0
 12
0.0
 22
0.0
 13
0.0
 23
0.0
 14
0.5
 24
0.5
 15
0.5
 25
0.5
 16
0.0
 26
0.0
 36
1.0
 17
105.0007777515277
 27
-148.5000416295416
 37
0.0
 40
297.0000832590831
 41
0.7070757462376333
 42
50.0
 43
0.0
 44
0.0
 50
0.0
 51
0.0
 71
     0
 72
   100
 73
     1
 74
     3
 75
     0
 76
     0
 77
     0
 78
     0
281
     0
 65
     1
110
0.0
120
0.0
130
0.0
111
1.0
121
0.0
131
0.0
112
0.0
122
1.0
132
0.0
 79
     0
146
0.0
 60
     3
 61
     5
292
     1
282
     1
141
0.0
142
0.0
 63
   250
361
3F
  0
ENDTAB
  0
TABLE
  2
LTYPE
  5
5
330
0
100
AcDbSymbolTable
 70
     1
  0
LTYPE
  5
14
330
5
100
AcDbSymbolTableRecord
100
AcDbLinetypeTableRecord
  2
ByBlock
 70
     0
  3

 72
    65
 73
     0
 40
0.0
  0
LTYPE
  5
15
330
5
100
AcDbSymbolTableRecord
100
AcDbLinetypeTableRecord
  2
ByLayer
 70
     0
  3

 72
    65
 73
     0
 40
0.0
  0
LTYPE
  5
16
330
5
100
AcDbSymbolTableRecord
100
AcDbLinetypeTableRecord
  2
Continuous
 70
     0
  3
Solid line
 72
    65
 73
     0
 40
0.0
  0
ENDTAB
  0
TABLE
  2
LAYER
  5
2
330
0
100
AcDbSymbolTable
 70
     2
  0
LAYER
  5
10
330
2
100
AcDbSymbolTableRecord
100
AcDbLayerTableRecord
  2
0
 70
     0
 62
     7
  6
Continuous
370
    -3
390
F
347
3E
  0
LAYER
  5
40
330
2
100
AcDbSymbolTableRecord
100
AcDbLayerTableRecord
  2
_U+30EC_U+30A4_U+30E4_U+30FC 1
 70
     0
 62
     7
  6
Continuous
370
    -3
390
F
347
3E
  0
ENDTAB
  0
TABLE
  2
STYLE
  5
3
330
0
100
AcDbSymbolTable
 70
     1
  0
STYLE
  5
11
330
3
100
AcDbSymbolTableRecord
100
AcDbTextStyleTableRecord
  2
Standard
 70
     0
 40
0.0
 41
1.0
 50
0.0
 71
     0
 42
0.2
  3
txt
  4

  0
ENDTAB
  0
TABLE
  2
VIEW
  5
6
330
0
100
AcDbSymbolTable
 70
     0
  0
ENDTAB
  0
TABLE
  2
UCS
  5
7
330
0
100
AcDbSymbolTable
 70
     0
  0
ENDTAB
  0
TABLE
  2
APPID
  5
9
330
0
100
AcDbSymbolTable
 70
     1
  0
APPID
  5
12
330
9
100
AcDbSymbolTableRecord
100
AcDbRegAppTableRecord
  2
ACAD
 70
     0
  0
ENDTAB
  0
TABLE
  2
DIMSTYLE
  5
A
330
0
100
AcDbSymbolTable
 70
     1
100
AcDbDimStyleTable
  0
DIMSTYLE
105
27
330
A
100
AcDbSymbolTableRecord
100
AcDbDimStyleTableRecord
  2
Standard
 70
     0
178
     0
340
11
  0
ENDTAB
  0
TABLE
  2
BLOCK_RECORD
  5
1
330
0
100
AcDbSymbolTable
 70
     7
  0
BLOCK_RECORD
  5
1F
330
1
100
AcDbSymbolTableRecord
100
AcDbBlockTableRecord
  2
*Model_Space
340
22
 70
     0
280
     1
281
     0
  0
BLOCK_RECORD
  5
1B
330
1
100
AcDbSymbolTableRecord
100
AcDbBlockTableRecord
  2
*Paper_Space
340
1E
 70
     0
280
     1
281
     0
  0
BLOCK_RECORD
  5
23
330
1
100
AcDbSymbolTableRecord
100
AcDbBlockTableRecord
  2
*Paper_Space0
340
26
 70
     0
280
     1
281
     0
  0
BLOCK_RECORD
  5
51
330
1
100
AcDbSymbolTableRecord
100
AcDbBlockTableRecord
  2
block 2
340
0
102
{BLKREFS
331
52
102
}
 70
     0
280
     1
281
     0
  0
BLOCK_RECORD
  5
67
330
1
100
AcDbSymbolTableRecord
100
AcDbBlockTableRecord
  2
block 3
340
0
102
{BLKREFS
331
68
102
}
 70
     0
280
     1
281
     0
  0
BLOCK_RECORD
  5
7D
330
1
100
AcDbSymbolTableRecord
100
AcDbBlockTableRecord
  2
block 4
340
0
102
{BLKREFS
331
7E
102
}
 70
     0
280
     1
281
     0
  0
BLOCK_RECORD
  5
CF
330
1
100
AcDbSymbolTableRecord
100
AcDbBlockTableRecord
  2
block 5
340
0
102
{BLKREFS
331
D0
102
}
 70
     0
280
     1
281
     0
  0
BLOCK_RECORD
  5
D5
330
1
100
AcDbSymbolTableRecord
100
AcDbBlockTableRecord
  2
block 6
340
0
102
{BLKREFS
331
D6
102
}
 70
     0
280
     1
281
     0
  0
BLOCK_RECORD
  5
121
330
1
100
AcDbSymbolTableRecord
100
AcDbBlockTableRecord
  2
block 7
340
0
102
{BLKREFS
331
122
102
}
 70
     0
280
     1
281
     0
  0
ENDTAB
  0
ENDSEC
  0
SECTION
  2
BLOCKS
  0
BLOCK
  5
20
330
1F
100
AcDbEntity
  8
0
100
AcDbBlockBegin
  2
*Model_Space
 70
     0
 10
0.0
 20
0.0
 30
0.0
  3
*Model_Space
  1

  0
ENDBLK
  5
21
330
1F
100
AcDbEntity
  8
0
100
AcDbBlockEnd
  0
BLOCK
  5
1C
330
1B
100
AcDbEntity
 67
     1
  8
0
100
AcDbBlockBegin
  2
*Paper_Space
 70
     0
 10
0.0
 20
0.0
 30
0.0
  3
*Paper_Space
  1

  0
ENDBLK
  5
1D
330
1B
100
AcDbEntity
 67
     1
  8
0
100
AcDbBlockEnd
  0
BLOCK
  5
24
330
23
100
AcDbEntity
  8
0
100
AcDbBlockBegin
  2
*Paper_Space0
 70
     0
 10
0.0
 20
0.0
 30
0.0
  3
*Paper_Space0
  1

  0
ENDBLK
  5
25
330
23
100
AcDbEntity
  8
0
100
AcDbBlockEnd
  0
BLOCK
  5
53
330
51
100
AcDbEntity
  8
0
100
AcDbBlockBegin
  2
block 2
 70
     0
 10
0.0
 20
0.0
 30
0.0
  3
block 2
  1

  0
SPLINE
  5
55
330
51
100
AcDbEntity
  8
_U+30EC_U+30A4_U+30E4_U+30FC 1
370
     0
100
AcDbSpline
210
0.0
220
0.0
230
1.0
 70
    11
 71
     3
 72
    44
 73
    40
 74
     0
 42
0.0000000001
 43
0.0000000001
 12
1.0
 22
0.0
 32
0.0
 13
1.0
 23
0.0
 33
0.0
 40
0.0
 40
0.0
 40
0.0
 40
0.0
 40
1.0
 40
1.0
 40
1.0
 40
2.0
 40
2.0
 40
2.0
 40
3.0
 40
3.0
 40
3.0
 40
4.0
 40
4.0
 40
4.0
 40
5.0
 40
5.0
 40
5.0
 40
6.0
 40
6.0
 40
6.0
 40
7.0
 40
7.0
 40
7.0
 40
8.0
 40
8.0
 40
8.0
 40
9.0
 40
9.0
 40
9.0
 40
10.0
 40
10.0
 40
10.0
 40
11.0
 40
11.0
 40
11.0
 40
12.0
 40
12.0
 40
12.0
 40
13.0
 40
13.0
 40
13.0
 40
13.0
 10
95.65893281028666
 20
-151.179402631476
 30
0.0
 10
95.81757945738242
 20
-151.3699164118103
 30
0.0
 10
95.89164901031529
 20
-151.4515651748107
 30
0.0
 10
96.03548174682447
 20
-151.4939398492793
 30
0.0
 10
96.03548174682447
 20
-151.4939398492793
 30
0.0
 10
96.03548174682447
 20
-150.8124999622969
 30
0.0
 10
96.03548174682447
 20
-150.8124999622969
 30
0.0
 10
96.03548174682447
 20
-150.8124999622969
 30
0.0
 10
96.2406371829711
 20
-150.8124999622969
 30
0.0
 10
96.2406371829711
 20
-150.8124999622969
 30
0.0
 10
96.2406371829711
 20
-150.8124999622969
 30
0.0
 10
96.2406371829711
 20
-151.7127034125927
 30
0.0
 10
96.2406371829711
 20
-151.7127034125927
 30
0.0
 10
95.88303627160217
 20
-151.6847981391622
 30
0.0
 10
95.804832604087
 20
-151.627609554107
 30
0.0
 10
95.50648733506435
 20
-151.290334706101
 30
0.0
 10
95.30770532556544
 20
-151.0664034995598
 30
0.0
 10
95.24000919928028
 20
-151.0088704049561
 30
0.0
 10
95.10254988941881
 20
-151.0088704049561
 30
0.0
 10
94.98403860472622
 20
-151.0088704049561
 30
0.0
 10
94.8527804667382
 20
-151.0719156523362
 30
0.0
 10
94.8527804667382
 20
-151.2441704265987
 30
0.0
 10
94.8527804667382
 20
-151.4718912381737
 30
0.0
 10
95.08342960947567
 20
-151.4794704482412
 30
0.0
 10
95.19987383687712
 20
-151.4829155437265
 30
0.0
 10
95.19987383687712
 20
-151.4829155437265
 30
0.0
 10
95.19987383687712
 20
-151.6792859863857
 30
0.0
 10
95.19987383687712
 20
-151.6792859863857
 30
0.0
 10
95.07292206824566
 20
-151.6717067763182
 30
0.0
 10
94.96078421020079
 20
-151.6627495280565
 30
0.0
 10
94.84227292550818
 20
-151.5924695801575
 30
0.0
 10
94.68155922112128
 20
-151.4960069065704
 30
0.0
 10
94.64762503059157
 20
-151.3330538901181
 30
0.0
 10
94.64762503059157
 20
-151.2310790637547
 30
0.0
 10
94.64762503059157
 20
-150.9885443415932
 30
0.0
 10
94.83176538427817
 20
-150.8069878095205
 30
0.0
 10
95.10461694670997
 20
-150.8069878095205
 30
0.0
 10
95.33302677738203
 20
-150.8069878095205
 30
0.0
 10
95.43259003690575
 20
-150.9089626358839
 30
0.0
 10
95.65893281028666
 20
-151.179402631476
 30
0.0
  0
HATCH
  5
56
330
51
100
AcDbEntity
  8
_U+30EC_U+30A4_U+30E4_U+30FC 1
 62
   179
420
  2234388
100
AcDbHatch
 10
0.0
 20
0.0
 30
0.0
210
0.0
220
0.0
230
1.0
  2
SOLID
 70
     1
 71
     0
 91
        1
 92
        1
 93
        1
 72
     4
 94
        3
 73
     0
 74
     1
 95
       44
 96
       40
 40
0.0
 40
0.0
 40
0.0
 40
0.0
 40
1.0
 40
1.0
 40
1.0
 40
2.0
 40
2.0
 40
2.0
 40
3.0
 40
3.0
 40
3.0
 40
4.0
 40
4.0
 40
4.0
 40
5.0
 40
5.0
 40
5.0
 40
6.0
 40
6.0
 40
6.0
 40
7.0
 40
7.0
 40
7.0
 40
8.0
 40
8.0
 40
8.0
 40
9.0
 40
9.0
 40
9.0
 40
10.0
 40
10.0
 40
10.0
 40
11.0
 40
11.0
 40
11.0
 40
12.0
 40
12.0
 40
12.0
 40
13.0
 40
13.0
 40
13.0
 40
13.0
 10
95.65893281028666
 20
-151.179402631476
 10
95.81757945738242
 20
-151.3699164118103
 10
95.89164901031529
 20
-151.4515651748107
 10
96.03548174682447
 20
-151.4939398492793
 10
96.03548174682447
 20
-151.4939398492793
 10
96.03548174682447
 20
-150.8124999622969
 10
96.03548174682447
 20
-150.8124999622969
 10
96.03548174682447
 20
-150.8124999622969
 10
96.2406371829711
 20
-150.8124999622969
 10
96.2406371829711
 20
-150.8124999622969
 10
96.2406371829711
 20
-150.8124999622969
 10
96.2406371829711
 20
-151.7127034125927
 10
96.2406371829711
 20
-151.7127034125927
 10
95.88303627160217
 20
-151.6847981391622
 10
95.804832604087
 20
-151.627609554107
 10
95.50648733506435
 20
-151.290334706101
 10
95.30770532556544
 20
-151.0664034995598
 10
95.24000919928028
 20
-151.0088704049561
 10
95.10254988941881
 20
-151.0088704049561
 10
94.98403860472622
 20
-151.0088704049561
 10
94.8527804667382
 20
-151.0719156523362
 10
94.8527804667382
 20
-151.2441704265987
 10
94.8527804667382
 20
-151.4718912381737
 10
95.08342960947567
 20
-151.4794704482412
 10
95.19987383687712
 20
-151.4829155437265
 10
95.19987383687712
 20
-151.4829155437265
 10
95.19987383687712
 20
-151.6792859863857
 10
95.19987383687712
 20
-151.6792859863857
 10
95.07292206824566
 20
-151.6717067763182
 10
94.96078421020079
 20
-151.6627495280565
 10
94.84227292550818
 20
-151.5924695801575
 10
94.68155922112128
 20
-151.4960069065704
 10
94.64762503059157
 20
-151.3330538901181
 10
94.64762503059157
 20
-151.2310790637547
 10
94.64762503059157
 20
-150.9885443415932
 10
94.83176538427817
 20
-150.8069878095205
 10
95.10461694670997
 20
-150.8069878095205
 10
95.33302677738203
 20
-150.8069878095205
 10
95.43259003690575
 20
-150.9089626358839
 10
95.65893281028666
 20
-151.179402631476
 97
        0
 97
        0
 75
     2
 76
     1
 98
        0
  0
SPLINE
  5
57
330
51
100
AcDbEntity
  8
_U+30EC_U+30A4_U+30E4_U+30FC 1
370
     0
100
AcDbSpline
210
0.0
220
0.0
230
1.0
 70
    11
 71
     3
 72
    53
 73
    49
 74
     0
 42
0.0000000001
 43
0.0000000001
 12
1.0
 22
0.0
 32
0.0
 13
1.0
 23
0.0
 33
0.0
 40
0.0
 40
0.0
 40
0.0
 40
0.0
 40
1.0
 40
1.0
 40
1.0
 40
2.0
 40
2.0
 40
2.0
 40
3.0
 40
3.0
 40
3.0
 40
4.0
 40
4.0
 40
4.0
 40
5.0
 40
5.0
 40
5.0
 40
6.0
 40
6.0
 40
6.0
 40
7.0
 40
7.0
 40
7.0
 40
8.0
 40
8.0
 40
8.0
 40
9.0
 40
9.0
 40
9.0
 40
10.0
 40
10.0
 40
10.0
 40
11.0
 40
11.0
 40
11.0
 40
12.0
 40
12.0
 40
12.0
 40
13.0
 40
13.0
 40
13.0
 40
14.0
 40
14.0
 40
14.0
 40
15.0
 40
15.0
 40
15.0
 40
16.0
 40
16.0
 40
16.0
 40
16.0
 10
96.29145234137853
 20
-150.2468152836189
 30
0.0
 10
96.29145234137853
 20
-150.3150281742268
 30
0.0
 10
96.2745713735008
 20
-150.4039116377463
 30
0.0
 10
96.21100936179795
 20
-150.4927951012657
 30
0.0
 10
96.10093856104422
 20
-150.6447238121652
 30
0.0
 10
95.96985267783046
 20
-150.6633273277856
 30
0.0
 10
95.86202118914214
 20
-150.6802082956633
 30
0.0
 10
95.86202118914214
 20
-150.6802082956633
 30
0.0
 10
95.86202118914214
 20
-150.4855604007467
 30
0.0
 10
95.86202118914214
 20
-150.4855604007467
 30
0.0
 10
96.06080319864105
 20
-150.4373290639532
 30
0.0
 10
96.0904310198142
 20
-150.3263969893281
 30
0.0
 10
96.0904310198142
 20
-150.2447482263277
 30
0.0
 10
96.0904310198142
 20
-150.1227918461499
 30
0.0
 10
95.99104001506474
 20
-149.9891221413222
 30
0.0
 10
95.75832381503612
 20
-149.9891221413222
 30
0.0
 10
95.50235322048205
 20
-149.9891221413222
 30
0.0
 10
95.43259003690575
 20
-150.1469075145466
 30
0.0
 10
95.43259003690575
 20
-150.2523274363953
 30
0.0
 10
95.43259003690575
 20
-150.2798882002773
 30
0.0
 10
95.43259003690575
 20
-150.4039116377463
 30
0.0
 10
95.56160886282835
 20
-150.4817707957129
 30
0.0
 10
95.56160886282835
 20
-150.4817707957129
 30
0.0
 10
95.54248858288521
 20
-150.635422054355
 30
0.0
 10
95.54248858288521
 20
-150.635422054355
 30
0.0
 10
95.54248858288521
 20
-150.635422054355
 30
0.0
 10
94.69637313170786
 20
-150.5300021325064
 30
0.0
 10
94.69637313170786
 20
-150.5300021325064
 30
0.0
 10
94.69637313170786
 20
-150.5300021325064
 30
0.0
 10
94.69637313170786
 20
-149.848562245524
 30
0.0
 10
94.69637313170786
 20
-149.848562245524
 30
0.0
 10
94.69637313170786
 20
-149.848562245524
 30
0.0
 10
94.89102102662447
 20
-149.848562245524
 30
0.0
 10
94.89102102662447
 20
-149.848562245524
 30
0.0
 10
94.89102102662447
 20
-149.848562245524
 30
0.0
 10
94.89102102662447
 20
-150.3873751794171
 30
0.0
 10
94.89102102662447
 20
-150.3873751794171
 30
0.0
 10
94.89102102662447
 20
-150.3873751794171
 30
0.0
 10
95.31407875221315
 20
-150.4449082740207
 30
0.0
 10
95.31407875221315
 20
-150.4449082740207
 30
0.0
 10
95.28014456168344
 20
-150.3911647844508
 30
0.0
 10
95.24000919928028
 20
-150.3188177792606
 30
0.0
 10
95.24000919928028
 20
-150.2151204051546
 30
0.0
 10
95.24000919928028
 20
-149.992911746356
 30
0.0
 10
95.42621661025804
 20
-149.7855169981439
 30
0.0
 10
95.73920353509298
 20
-149.7855169981439
 30
0.0
 10
96.05666908405875
 20
-149.7855169981439
 30
0.0
 10
96.29145234137853
 20
-149.9818874408031
 30
0.0
 10
96.29145234137853
 20
-150.2468152836189
 30
0.0
  0
HATCH
  5
58
330
51
100
AcDbEntity
  8
_U+30EC_U+30A4_U+30E4_U+30FC 1
 62
   179
420
  2234388
100
AcDbHatch
 10
0.0
 20
0.0
 30
0.0
210
0.0
220
0.0
230
1.0
  2
SOLID
 70
     1
 71
     0
 91
        1
 92
        1
 93
        1
 72
     4
 94
        3
 73
     0
 74
     1
 95
       53
 96
       49
 40
0.0
 40
0.0
 40
0.0
 40
0.0
 40
1.0
 40
1.0
 40
1.0
 40
2.0
 40
2.0
 40
2.0
 40
3.0
 40
3.0
 40
3.0
 40
4.0
 40
4.0
 40
4.0
 40
5.0
 40
5.0
 40
5.0
 40
6.0
 40
6.0
 40
6.0
 40
7.0
 40
7.0
 40
7.0
 40
8.0
 40
8.0
 40
8.0
 40
9.0
 40
9.0
 40
9.0
 40
10.0
 40
10.0
 40
10.0
 40
11.0
 40
11.0
 40
11.0
 40
12.0
 40
12.0
 40
12.0
 40
13.0
 40
13.0
 40
13.0
 40
14.0
 40
14.0
 40
14.0
 40
15.0
 40
15.0
 40
15.0
 40
16.0
 40
16.0
 40
16.0
 40
16.0
 10
96.29145234137853
 20
-150.2468152836189
 10
96.29145234137853
 20
-150.3150281742268
 10
96.2745713735008
 20
-150.4039116377463
 10
96.21100936179795
 20
-150.4927951012657
 10
96.10093856104422
 20
-150.6447238121652
 10
95.96985267783046
 20
-150.6633273277856
 10
95.86202118914214
 20
-150.6802082956633
 10
95.86202118914214
 20
-150.6802082956633
 10
95.86202118914214
 20
-150.4855604007467
 10
95.86202118914214
 20
-150.4855604007467
 10
96.06080319864105
 20
-150.4373290639532
 10
96.0904310198142
 20
-150.3263969893281
 10
96.0904310198142
 20
-150.2447482263277
 10
96.0904310198142
 20
-150.1227918461499
 10
95.99104001506474
 20
-149.9891221413222
 10
95.75832381503612
 20
-149.9891221413222
 10
95.50235322048205
 20
-149.9891221413222
 10
95.43259003690575
 20
-150.1469075145466
 10
95.43259003690575
 20
-150.2523274363953
 10
95.43259003690575
 20
-150.2798882002773
 10
95.43259003690575
 20
-150.4039116377463
 10
95.56160886282835
 20
-150.4817707957129
 10
95.56160886282835
 20
-150.4817707957129
 10
95.54248858288521
 20
-150.635422054355
 10
95.54248858288521
 20
-150.635422054355
 10
95.54248858288521
 20
-150.635422054355
 10
94.69637313170786
 20
-150.5300021325064
 10
94.69637313170786
 20
-150.5300021325064
 10
94.69637313170786
 20
-150.5300021325064
 10
94.69637313170786
 20
-149.848562245524
 10
94.69637313170786
 20
-149.848562245524
 10
94.69637313170786
 20
-149.848562245524
 10
94.89102102662447
 20
-149.848562245524
 10
94.89102102662447
 20
-149.848562245524
 10
94.89102102662447
 20
-149.848562245524
 10
94.89102102662447
 20
-150.3873751794171
 10
94.89102102662447
 20
-150.3873751794171
 10
94.89102102662447
 20
-150.3873751794171
 10
95.31407875221315
 20
-150.4449082740207
 10
95.31407875221315
 20
-150.4449082740207
 10
95.28014456168344
 20
-150.3911647844508
 10
95.24000919928028
 20
-150.3188177792606
 10
95.24000919928028
 20
-150.2151204051546
 10
95.24000919928028
 20
-149.992911746356
 10
95.42621661025804
 20
-149.7855169981439
 10
95.73920353509298
 20
-149.7855169981439
 10
96.05666908405875
 20
-149.7855169981439
 10
96.29145234137853
 20
-149.9818874408031
 10
96.29145234137853
 20
-150.2468152836189
 97
        0
 97
        0
 75
     2
 76
     1
 98
        0
  0
ENDBLK
  5
54
330
51
100
AcDbEntity
  8
0
100
AcDbBlockEnd
  0
BLOCK
  5
69
330
67
100
AcDbEntity
  8
0
100
AcDbBlockBegin
  2
block 3
 70
     0
 10
0.0
 20
0.0
 30
0.0
  3
block 3
  1

  0
SPLINE
  5
6B
330
67
100
AcDbEntity
  8
_U+30EC_U+30A4_U+30E4_U+30FC 1
370
     0
100
AcDbSpline
210
0.0
220
0.0
230
1.0
 70
    11
 71
     3
 72
    26
 73
    22
 74
     0
 42
0.0000000001
 43
0.0000000001
 12
1.0
 22
0.0
 32
0.0
 13
1.0
 23
0.0
 33
0.0
 40
0.0
 40
0.0
 40
0.0
 40
0.0
 40
1.0
 40
1.0
 40
1.0
 40
2.0
 40
2.0
 40
2.0
 40
3.0
 40
3.0
 40
3.0
 40
4.0
 40
4.0
 40
4.0
 40
5.0
 40
5.0
 40
5.0
 40
6.0
 40
6.0
 40
6.0
 40
7.0
 40
7.0
 40
7.0
 40
7.0
 10
111.4987928323684
 20
-144.8295748878378
 30
0.0
 10
111.4987928323684
 20
-144.8295748878378
 30
0.0
 10
110.3942952197973
 20
-144.8295748878378
 30
0.0
 10
110.3942952197973
 20
-144.8295748878378
 30
0.0
 10
110.3942952197973
 20
-144.8295748878378
 30
0.0
 10
110.3942952197973
 20
-145.1596150353247
 30
0.0
 10
110.3942952197973
 20
-145.1596150353247
 30
0.0
 10
110.3942952197973
 20
-145.1596150353247
 30
0.0
 10
110.24650062348
 20
-145.1596150353247
 30
0.0
 10
110.24650062348
 20
-145.1596150353247
 30
0.0
 10
110.2316867128935
 20
-144.8275078305466
 30
0.0
 10
110.0687336964412
 20
-144.7809990414957
 30
0.0
 10
109.9543565263309
 20
-144.7513712203226
 30
0.0
 10
109.9543565263309
 20
-144.7513712203226
 30
0.0
 10
109.9543565263309
 20
-144.605299171748
 30
0.0
 10
109.9543565263309
 20
-144.605299171748
 30
0.0
 10
109.9543565263309
 20
-144.605299171748
 30
0.0
 10
111.4987928323684
 20
-144.605299171748
 30
0.0
 10
111.4987928323684
 20
-144.605299171748
 30
0.0
 10
111.4987928323684
 20
-144.605299171748
 30
0.0
 10
111.4987928323684
 20
-144.8295748878378
 30
0.0
 10
111.4987928323684
 20
-144.8295748878378
 30
0.0
  0
HATCH
  5
6C
330
67
100
AcDbEntity
  8
_U+30EC_U+30A4_U+30E4_U+30FC 1
 62
   179
420
  2234388
100
AcDbHatch
 10
0.0
 20
0.0
 30
0.0
210
0.0
220
0.0
230
1.0
  2
SOLID
 70
     1
 71
     0
 91
        1
 92
        1
 93
        1
 72
     4
 94
        3
 73
     0
 74
     1
 95
       26
 96
       22
 40
0.0
 40
0.0
 40
0.0
 40
0.0
 40
1.0
 40
1.0
 40
1.0
 40
2.0
 40
2.0
 40
2.0
 40
3.0
 40
3.0
 40
3.0
 40
4.0
 40
4.0
 40
4.0
 40
5.0
 40
5.0
 40
5.0
 40
6.0
 40
6.0
 40
6.0
 40
7.0
 40
7.0
 40
7.0
 40
7.0
 10
111.4987928323684
 20
-144.8295748878378
 10
111.4987928323684
 20
-144.8295748878378
 10
110.3942952197973
 20
-144.8295748878378
 10
110.3942952197973
 20
-144.8295748878378
 10
110.3942952197973
 20
-144.8295748878378
 10
110.3942952197973
 20
-145.1596150353247
 10
110.3942952197973
 20
-145.1596150353247
 10
110.3942952197973
 20
-145.1596150353247
 10
110.24650062348
 20
-145.1596150353247
 10
110.24650062348
 20
-145.1596150353247
 10
110.2316867128935
 20
-144.8275078305466
 10
110.0687336964412
 20
-144.7809990414957
 10
109.9543565263309
 20
-144.7513712203226
 10
109.9543565263309
 20
-144.7513712203226
 10
109.9543565263309
 20
-144.605299171748
 10
109.9543565263309
 20
-144.605299171748
 10
109.9543565263309
 20
-144.605299171748
 10
111.4987928323684
 20
-144.605299171748
 10
111.4987928323684
 20
-144.605299171748
 10
111.4987928323684
 20
-144.605299171748
 10
111.4987928323684
 20
-144.8295748878378
 10
111.4987928323684
 20
-144.8295748878378
 97
        0
 97
        0
 75
     2
 76
     1
 98
        0
  0
SPLINE
  5
6D
330
67
100
AcDbEntity
  8
_U+30EC_U+30A4_U+30E4_U+30FC 1
370
     0
100
AcDbSpline
210
0.0
220
0.0
230
1.0
 70
    11
 71
     3
 72
    44
 73
    40
 74
     0
 42
0.0000000001
 43
0.0000000001
 12
1.0
 22
0.0
 32
0.0
 13
1.0
 23
0.0
 33
0.0
 40
0.0
 40
0.0
 40
0.0
 40
0.0
 40
1.0
 40
1.0
 40
1.0
 40
2.0
 40
2.0
 40
2.0
 40
3.0
 40
3.0
 40
3.0
 40
4.0
 40
4.0
 40
4.0
 40
5.0
 40
5.0
 40
5.0
 40
6.0
 40
6.0
 40
6.0
 40
7.0
 40
7.0
 40
7.0
 40
8.0
 40
8.0
 40
8.0
 40
9.0
 40
9.0
 40
9.0
 40
10.0
 40
10.0
 40
10.0
 40
11.0
 40
11.0
 40
11.0
 40
12.0
 40
12.0
 40
12.0
 40
13.0
 40
13.0
 40
13.0
 40
13.0
 10
110.9169162049097
 20
-143.5109645908584
 30
0.0
 10
111.0757351067797
 20
-143.7288668803004
 30
0.0
 10
111.1498046597126
 20
-143.8220567131764
 30
0.0
 10
111.2934651414475
 20
-143.8706325595185
 30
0.0
 10
111.2934651414475
 20
-143.8706325595185
 30
0.0
 10
111.2934651414475
 20
-143.0922132346263
 30
0.0
 10
111.2934651414475
 20
-143.0922132346263
 30
0.0
 10
111.2934651414475
 20
-143.0922132346263
 30
0.0
 10
111.4987928323684
 20
-143.0922132346263
 30
0.0
 10
111.4987928323684
 20
-143.0922132346263
 30
0.0
 10
111.4987928323684
 20
-143.0922132346263
 30
0.0
 10
111.4987928323684
 20
-144.1202297274248
 30
0.0
 10
111.4987928323684
 20
-144.1202297274248
 30
0.0
 10
111.1411919209994
 20
-144.0885348489605
 30
0.0
 10
111.0629882534843
 20
-144.0229057799665
 30
0.0
 10
110.7646429844616
 20
-143.6379163594898
 30
0.0
 10
110.5658609749627
 20
-143.3819457649358
 30
0.0
 10
110.4979925939033
 20
-143.316488950716
 30
0.0
 10
110.3605332840418
 20
-143.316488950716
 30
0.0
 10
110.2420219993492
 20
-143.316488950716
 30
0.0
 10
110.1111083709097
 20
-143.3883191915835
 30
0.0
 10
110.1111083709097
 20
-143.5850341437913
 30
0.0
 10
110.1111083709097
 20
-143.8453111077019
 30
0.0
 10
110.3415852588729
 20
-143.8537515916407
 30
0.0
 10
110.4580294862744
 20
-143.8580579609973
 30
0.0
 10
110.4580294862744
 20
-143.8580579609973
 30
0.0
 10
110.4580294862744
 20
-144.0821614223128
 30
0.0
 10
110.4580294862744
 20
-144.0821614223128
 30
0.0
 10
110.3309054628687
 20
-144.0737209383739
 30
0.0
 10
110.2189398595981
 20
-144.0632133971439
 30
0.0
 10
110.1004285749055
 20
-143.9827704175633
 30
0.0
 10
109.9395426157443
 20
-143.8728718715839
 30
0.0
 10
109.9057806799888
 20
-143.6866644606061
 30
0.0
 10
109.9057806799888
 20
-143.5702202332047
 30
0.0
 10
109.9057806799888
 20
-143.2930623014163
 30
0.0
 10
110.0897487789012
 20
-143.0858398079785
 30
0.0
 10
110.362600341333
 20
-143.0858398079785
 30
0.0
 10
110.591010172005
 20
-143.0858398079785
 30
0.0
 10
110.6905734315287
 20
-143.2021117806057
 30
0.0
 10
110.9169162049097
 20
-143.5109645908584
 30
0.0
  0
HATCH
  5
6E
330
67
100
AcDbEntity
  8
_U+30EC_U+30A4_U+30E4_U+30FC 1
 62
   179
420
  2234388
100
AcDbHatch
 10
0.0
 20
0.0
 30
0.0
210
0.0
220
0.0
230
1.0
  2
SOLID
 70
     1
 71
     0
 91
        1
 92
        1
 93
        1
 72
     4
 94
        3
 73
     0
 74
     1
 95
       44
 96
       40
 40
0.0
 40
0.0
 40
0.0
 40
0.0
 40
1.0
 40
1.0
 40
1.0
 40
2.0
 40
2.0
 40
2.0
 40
3.0
 40
3.0
 40
3.0
 40
4.0
 40
4.0
 40
4.0
 40
5.0
 40
5.0
 40
5.0
 40
6.0
 40
6.0
 40
6.0
 40
7.0
 40
7.0
 40
7.0
 40
8.0
 40
8.0
 40
8.0
 40
9.0
 40
9.0
 40
9.0
 40
10.0
 40
10.0
 40
10.0
 40
11.0
 40
11.0
 40
11.0
 40
12.0
 40
12.0
 40
12.0
 40
13.0
 40
13.0
 40
13.0
 40
13.0
 10
110.9169162049097
 20
-143.5109645908584
 10
111.0757351067797
 20
-143.7288668803004
 10
111.1498046597126
 20
-143.8220567131764
 10
111.2934651414475
 20
-143.8706325595185
 10
111.2934651414475
 20
-143.8706325595185
 10
111.2934651414475
 20
-143.0922132346263
 10
111.2934651414475
 20
-143.0922132346263
 10
111.2934651414475
 20
-143.0922132346263
 10
111.4987928323684
 20
-143.0922132346263
 10
111.4987928323684
 20
-143.0922132346263
 10
111.4987928323684
 20
-143.0922132346263
 10
111.4987928323684
 20
-144.1202297274248
 10
111.4987928323684
 20
-144.1202297274248
 10
111.1411919209994
 20
-144.0885348489605
 10
111.0629882534843
 20
-144.0229057799665
 10
110.7646429844616
 20
-143.6379163594898
 10
110.5658609749627
 20
-143.3819457649358
 10
110.4979925939033
 20
-143.316488950716
 10
110.3605332840418
 20
-143.316488950716
 10
110.2420219993492
 20
-143.316488950716
 10
110.1111083709097
 20
-143.3883191915835
 10
110.1111083709097
 20
-143.5850341437913
 10
110.1111083709097
 20
-143.8453111077019
 10
110.3415852588729
 20
-143.8537515916407
 10
110.4580294862744
 20
-143.8580579609973
 10
110.4580294862744
 20
-143.8580579609973
 10
110.4580294862744
 20
-144.0821614223128
 10
110.4580294862744
 20
-144.0821614223128
 10
110.3309054628687
 20
-144.0737209383739
 10
110.2189398595981
 20
-144.0632133971439
 10
110.1004285749055
 20
-143.9827704175633
 10
109.9395426157443
 20
-143.8728718715839
 10
109.9057806799888
 20
-143.6866644606061
 10
109.9057806799888
 20
-143.5702202332047
 10
109.9057806799888
 20
-143.2930623014163
 10
110.0897487789012
 20
-143.0858398079785
 10
110.362600341333
 20
-143.0858398079785
 10
110.591010172005
 20
-143.0858398079785
 10
110.6905734315287
 20
-143.2021117806057
 10
110.9169162049097
 20
-143.5109645908584
 97
        0
 97
        0
 75
     2
 76
     1
 98
        0
  0
ENDBLK
  5
6A
330
67
100
AcDbEntity
  8
0
100
AcDbBlockEnd
  0
BLOCK
  5
7F
330
7D
100
AcDbEntity
  8
0
100
AcDbBlockBegin
  2
block 4
 70
     0
 10
0.0
 20
0.0
 30
0.0
  3
block 4
  1

  0
SPLINE
  5
81
330
7D
100
AcDbEntity
  8
_U+30EC_U+30A4_U+30E4_U+30FC 1
370
     0
100
AcDbSpline
210
0.0
220
0.0
230
1.0
 70
    11
 71
     3
 72
    26
 73
    22
 74
     0
 42
0.0000000001
 43
0.0000000001
 12
1.0
 22
0.0
 32
0.0
 13
1.0
 23
0.0
 33
0.0
 40
0.0
 40
0.0
 40
0.0
 40
0.0
 40
1.0
 40
1.0
 40
1.0
 40
2.0
 40
2.0
 40
2.0
 40
3.0
 40
3.0
 40
3.0
 40
4.0
 40
4.0
 40
4.0
 40
5.0
 40
5.0
 40
5.0
 40
6.0
 40
6.0
 40
6.0
 40
7.0
 40
7.0
 40
7.0
 40
7.0
 10
103.0133503974237
 20
-133.6498955286535
 30
0.0
 10
103.0133503974237
 20
-133.6498955286535
 30
0.0
 10
102.7765000828128
 20
-133.6498955286535
 30
0.0
 10
102.7765000828128
 20
-133.6498955286535
 30
0.0
 10
102.8018215346294
 20
-133.3410427184008
 30
0.0
 10
102.9944023722549
 20
-132.822728102645
 30
0.0
 10
103.4005791299658
 20
-132.3171603401846
 30
0.0
 10
103.4005791299658
 20
-132.3171603401846
 30
0.0
 10
102.5627319079531
 20
-132.3171603401846
 30
0.0
 10
102.5627319079531
 20
-132.3171603401846
 30
0.0
 10
102.5627319079531
 20
-132.3171603401846
 30
0.0
 10
102.5627319079531
 20
-132.1056314773903
 30
0.0
 10
102.5627319079531
 20
-132.1056314773903
 30
0.0
 10
102.5627319079531
 20
-132.1056314773903
 30
0.0
 10
103.6374294445768
 20
-132.1056314773903
 30
0.0
 10
103.6374294445768
 20
-132.1056314773903
 30
0.0
 10
103.6374294445768
 20
-132.1056314773903
 30
0.0
 10
103.6374294445768
 20
-132.3171603401846
 30
0.0
 10
103.6374294445768
 20
-132.3171603401846
 30
0.0
 10
103.3137627237375
 20
-132.6068928704941
 30
0.0
 10
103.0472845879535
 20
-133.1992770391828
 30
0.0
 10
103.0133503974237
 20
-133.6498955286535
 30
0.0
  0
HATCH
  5
82
330
7D
100
AcDbEntity
  8
_U+30EC_U+30A4_U+30E4_U+30FC 1
 62
   179
420
  2234388
100
AcDbHatch
 10
0.0
 20
0.0
 30
0.0
210
0.0
220
0.0
230
1.0
  2
SOLID
 70
     1
 71
     0
 91
        1
 92
        1
 93
        1
 72
     4
 94
        3
 73
     0
 74
     1
 95
       26
 96
       22
 40
0.0
 40
0.0
 40
0.0
 40
0.0
 40
1.0
 40
1.0
 40
1.0
 40
2.0
 40
2.0
 40
2.0
 40
3.0
 40
3.0
 40
3.0
 40
4.0
 40
4.0
 40
4.0
 40
5.0
 40
5.0
 40
5.0
 40
6.0
 40
6.0
 40
6.0
 40
7.0
 40
7.0
 40
7.0
 40
7.0
 10
103.0133503974237
 20
-133.6498955286535
 10
103.0133503974237
 20
-133.6498955286535
 10
102.7765000828128
 20
-133.6498955286535
 10
102.7765000828128
 20
-133.6498955286535
 10
102.8018215346294
 20
-133.3410427184008
 10
102.9944023722549
 20
-132.822728102645
 10
103.4005791299658
 20
-132.3171603401846
 10
103.4005791299658
 20
-132.3171603401846
 10
102.5627319079531
 20
-132.3171603401846
 10
102.5627319079531
 20
-132.3171603401846
 10
102.5627319079531
 20
-132.3171603401846
 10
102.5627319079531
 20
-132.1056314773903
 10
102.5627319079531
 20
-132.1056314773903
 10
102.5627319079531
 20
-132.1056314773903
 10
103.6374294445768
 20
-132.1056314773903
 10
103.6374294445768
 20
-132.1056314773903
 10
103.6374294445768
 20
-132.1056314773903
 10
103.6374294445768
 20
-132.3171603401846
 10
103.6374294445768
 20
-132.3171603401846
 10
103.3137627237375
 20
-132.6068928704941
 10
103.0472845879535
 20
-133.1992770391828
 10
103.0133503974237
 20
-133.6498955286535
 97
        0
 97
        0
 75
     2
 76
     1
 98
        0
  0
ENDBLK
  5
80
330
7D
100
AcDbEntity
  8
0
100
AcDbBlockEnd
  0
BLOCK
  5
D1
330
CF
100
AcDbEntity
  8
0
100
AcDbBlockBegin
  2
block 5
 70
     0
 10
0.0
 20
0.0
 30
0.0
  3
block 5
  1

  0
SPLINE
  5
D3
330
CF
100
AcDbEntity
  8
_U+30EC_U+30A4_U+30E4_U+30FC 1
370
     0
100
AcDbSpline
210
0.0
220
0.0
230
1.0
 70
    11
 71
     3
 72
    44
 73
    40
 74
     0
 42
0.0000000001
 43
0.0000000001
 12
1.0
 22
0.0
 32
0.0
 13
1.0
 23
0.0
 33
0.0
 40
0.0
 40
0.0
 40
0.0
 40
0.0
 40
1.0
 40
1.0
 40
1.0
 40
2.0
 40
2.0
 40
2.0
 40
3.0
 40
3.0
 40
3.0
 40
4.0
 40
4.0
 40
4.0
 40
5.0
 40
5.0
 40
5.0
 40
6.0
 40
6.0
 40
6.0
 40
7.0
 40
7.0
 40
7.0
 40
8.0
 40
8.0
 40
8.0
 40
9.0
 40
9.0
 40
9.0
 40
10.0
 40
10.0
 40
10.0
 40
11.0
 40
11.0
 40
11.0
 40
12.0
 40
12.0
 40
12.0
 40
13.0
 40
13.0
 40
13.0
 40
13.0
 10
103.9941690820744
 20
-163.7429768470851
 30
0.0
 10
103.7762667926323
 20
-163.9014512394066
 30
0.0
 10
103.6830769597563
 20
-163.9755207923395
 30
0.0
 10
103.6345011134143
 20
-164.1195257836229
 30
0.0
 10
103.6345011134143
 20
-164.1195257836229
 30
0.0
 10
104.4129204383065
 20
-164.1195257836229
 30
0.0
 10
104.4129204383065
 20
-164.1195257836229
 30
0.0
 10
104.4129204383065
 20
-164.1195257836229
 30
0.0
 10
104.4129204383065
 20
-164.3245089649953
 30
0.0
 10
104.4129204383065
 20
-164.3245089649953
 30
0.0
 10
104.4129204383065
 20
-164.3245089649953
 30
0.0
 10
103.3849039455079
 20
-164.3245089649953
 30
0.0
 10
103.3849039455079
 20
-164.3245089649953
 30
0.0
 10
103.4165988239723
 20
-163.9669080536263
 30
0.0
 10
103.482055638192
 20
-163.8887043861112
 30
0.0
 10
103.8672173134429
 20
-163.5903591170885
 30
0.0
 10
104.123187907997
 20
-163.3915771075896
 30
0.0
 10
104.1886447222167
 20
-163.3240532360787
 30
0.0
 10
104.1886447222167
 20
-163.1865939262173
 30
0.0
 10
104.1886447222167
 20
-163.0680826415247
 30
0.0
 10
104.1168144813493
 20
-162.9368245035366
 30
0.0
 10
103.9200995291415
 20
-162.9368245035366
 30
0.0
 10
103.6598225652309
 20
-162.9368245035366
 30
0.0
 10
103.651382081292
 20
-163.1673013914998
 30
0.0
 10
103.6470757119355
 20
-163.2837456189013
 30
0.0
 10
103.6470757119355
 20
-163.2837456189013
 30
0.0
 10
103.4229722506199
 20
-163.2837456189013
 30
0.0
 10
103.4229722506199
 20
-163.2837456189013
 30
0.0
 10
103.4314127345588
 20
-163.1569661050441
 30
0.0
 10
103.4419202757888
 20
-163.044655992225
 30
0.0
 10
103.5223632553694
 20
-162.9261447075324
 30
0.0
 10
103.6322618013489
 20
-162.7656032579197
 30
0.0
 10
103.8184692123266
 20
-162.7314968126157
 30
0.0
 10
103.9349134397281
 20
-162.7314968126157
 30
0.0
 10
104.2120713715164
 20
-162.7314968126157
 30
0.0
 10
104.4192938649542
 20
-162.9158094210766
 30
0.0
 10
104.4192938649542
 20
-163.1886609835084
 30
0.0
 10
104.4192938649542
 20
-163.4170708141804
 30
0.0
 10
104.303021892327
 20
-163.5166340737042
 30
0.0
 10
103.9941690820744
 20
-163.7429768470851
 30
0.0
  0
HATCH
  5
D4
330
CF
100
AcDbEntity
  8
_U+30EC_U+30A4_U+30E4_U+30FC 1
 62
   179
420
  2234388
100
AcDbHatch
 10
0.0
 20
0.0
 30
0.0
210
0.0
220
0.0
230
1.0
  2
SOLID
 70
     1
 71
     0
 91
        1
 92
        1
 93
        1
 72
     4
 94
        3
 73
     0
 74
     1
 95
       44
 96
       40
 40
0.0
 40
0.0
 40
0.0
 40
0.0
 40
1.0
 40
1.0
 40
1.0
 40
2.0
 40
2.0
 40
2.0
 40
3.0
 40
3.0
 40
3.0
 40
4.0
 40
4.0
 40
4.0
 40
5.0
 40
5.0
 40
5.0
 40
6.0
 40
6.0
 40
6.0
 40
7.0
 40
7.0
 40
7.0
 40
8.0
 40
8.0
 40
8.0
 40
9.0
 40
9.0
 40
9.0
 40
10.0
 40
10.0
 40
10.0
 40
11.0
 40
11.0
 40
11.0
 40
12.0
 40
12.0
 40
12.0
 40
13.0
 40
13.0
 40
13.0
 40
13.0
 10
103.9941690820744
 20
-163.7429768470851
 10
103.7762667926323
 20
-163.9014512394066
 10
103.6830769597563
 20
-163.9755207923395
 10
103.6345011134143
 20
-164.1195257836229
 10
103.6345011134143
 20
-164.1195257836229
 10
104.4129204383065
 20
-164.1195257836229
 10
104.4129204383065
 20
-164.1195257836229
 10
104.4129204383065
 20
-164.1195257836229
 10
104.4129204383065
 20
-164.3245089649953
 10
104.4129204383065
 20
-164.3245089649953
 10
104.4129204383065
 20
-164.3245089649953
 10
103.3849039455079
 20
-164.3245089649953
 10
103.3849039455079
 20
-164.3245089649953
 10
103.4165988239723
 20
-163.9669080536263
 10
103.482055638192
 20
-163.8887043861112
 10
103.8672173134429
 20
-163.5903591170885
 10
104.123187907997
 20
-163.3915771075896
 10
104.1886447222167
 20
-163.3240532360787
 10
104.1886447222167
 20
-163.1865939262173
 10
104.1886447222167
 20
-163.0680826415247
 10
104.1168144813493
 20
-162.9368245035366
 10
103.9200995291415
 20
-162.9368245035366
 10
103.6598225652309
 20
-162.9368245035366
 10
103.651382081292
 20
-163.1673013914998
 10
103.6470757119355
 20
-163.2837456189013
 10
103.6470757119355
 20
-163.2837456189013
 10
103.4229722506199
 20
-163.2837456189013
 10
103.4229722506199
 20
-163.2837456189013
 10
103.4314127345588
 20
-163.1569661050441
 10
103.4419202757888
 20
-163.044655992225
 10
103.5223632553694
 20
-162.9261447075324
 10
103.6322618013489
 20
-162.7656032579197
 10
103.8184692123266
 20
-162.7314968126157
 10
103.9349134397281
 20
-162.7314968126157
 10
104.2120713715164
 20
-162.7314968126157
 10
104.4192938649542
 20
-162.9158094210766
 10
104.4192938649542
 20
-163.1886609835084
 10
104.4192938649542
 20
-163.4170708141804
 10
104.303021892327
 20
-163.5166340737042
 10
103.9941690820744
 20
-163.7429768470851
 97
        0
 97
        0
 75
     2
 76
     1
 98
        0
  0
ENDBLK
  5
D2
330
CF
100
AcDbEntity
  8
0
100
AcDbBlockEnd
  0
BLOCK
  5
D7
330
D5
100
AcDbEntity
  8
0
100
AcDbBlockBegin
  2
block 6
 70
     0
 10
0.0
 20
0.0
 30
0.0
  3
block 6
  1

  0
POLYLINE
  5
D9
330
D5
100
AcDbEntity
  8
_U+30EC_U+30A4_U+30E4_U+30FC 1
370
     0
100
AcDb2dPolyline
 66
     1
 10
0.0
 20
0.0
 30
0.0
  0
VERTEX
  5
DA
330
D9
100
AcDbEntity
  8
_U+30EC_U+30A4_U+30E4_U+30FC 1
370
     0
100
AcDbVertex
100
AcDb2dVertex
 10
104.8935112584988
 20
-153.2502495276597
 30
0.0
  0
VERTEX
  5
DB
330
D9
100
AcDbEntity
  8
_U+30EC_U+30A4_U+30E4_U+30FC 1
370
     0
100
AcDbVertex
100
AcDb2dVertex
 10
104.8935112584988
 20
-153.5971706430243
 30
0.0
  0
VERTEX
  5
DC
330
D9
100
AcDbEntity
  8
_U+30EC_U+30A4_U+30E4_U+30FC 1
370
     0
100
AcDbVertex
100
AcDb2dVertex
 10
104.6756089690568
 20
-153.5971706430243
 30
0.0
  0
VERTEX
  5
DD
330
D9
100
AcDbEntity
  8
_U+30EC_U+30A4_U+30E4_U+30FC 1
370
     0
100
AcDbVertex
100
AcDb2dVertex
 10
104.6756089690568
 20
-153.2502495276597
 30
0.0
  0
VERTEX
  5
DE
330
D9
100
AcDbEntity
  8
_U+30EC_U+30A4_U+30E4_U+30FC 1
370
     0
100
AcDbVertex
100
AcDb2dVertex
 10
104.0198350434395
 20
-153.2502495276597
 30
0.0
  0
VERTEX
  5
DF
330
D9
100
AcDbEntity
  8
_U+30EC_U+30A4_U+30E4_U+30FC 1
370
     0
100
AcDbVertex
100
AcDb2dVertex
 10
104.0198350434395
 20
-153.0259738115699
 30
0.0
  0
VERTEX
  5
E0
330
D9
100
AcDbEntity
  8
_U+30EC_U+30A4_U+30E4_U+30FC 1
370
     0
100
AcDbVertex
100
AcDb2dVertex
 10
104.6988633635822
 20
-152.0530788465354
 30
0.0
  0
VERTEX
  5
E1
330
D9
100
AcDbEntity
  8
_U+30EC_U+30A4_U+30E4_U+30FC 1
370
     0
100
AcDbVertex
100
AcDb2dVertex
 10
104.8935112584988
 20
-152.0530788465354
 30
0.0
  0
VERTEX
  5
E2
330
D9
100
AcDbEntity
  8
_U+30EC_U+30A4_U+30E4_U+30FC 1
370
     0
100
AcDbVertex
100
AcDb2dVertex
 10
104.8935112584988
 20
-153.0514675181608
 30
0.0
  0
VERTEX
  5
E3
330
D9
100
AcDbEntity
  8
_U+30EC_U+30A4_U+30E4_U+30FC 1
370
     0
100
AcDbVertex
100
AcDb2dVertex
 10
105.1009060067109
 20
-153.0514675181608
 30
0.0
  0
VERTEX
  5
E4
330
D9
100
AcDbEntity
  8
_U+30EC_U+30A4_U+30E4_U+30FC 1
370
     0
100
AcDbVertex
100
AcDb2dVertex
 10
105.1009060067109
 20
-153.2502495276597
 30
0.0
  0
VERTEX
  5
E5
330
D9
100
AcDbEntity
  8
_U+30EC_U+30A4_U+30E4_U+30FC 1
370
     0
100
AcDbVertex
100
AcDb2dVertex
 10
104.8935112584988
 20
-153.2502495276597
 30
0.0
  0
SEQEND
  5
E6
330
D9
100
AcDbEntity
  8
_U+30EC_U+30A4_U+30E4_U+30FC 1
370
     0
  0
POLYLINE
  5
E7
330
D5
100
AcDbEntity
  8
_U+30EC_U+30A4_U+30E4_U+30FC 1
370
     0
100
AcDb2dPolyline
 66
     1
 10
0.0
 20
0.0
 30
0.0
  0
VERTEX
  5
E8
330
E7
100
AcDbEntity
  8
_U+30EC_U+30A4_U+30E4_U+30FC 1
370
     0
100
AcDbVertex
100
AcDb2dVertex
 10
104.6756089690568
 20
-152.3955213377692
 30
0.0
  0
VERTEX
  5
E9
330
E7
100
AcDbEntity
  8
_U+30EC_U+30A4_U+30E4_U+30FC 1
370
     0
100
AcDbVertex
100
AcDb2dVertex
 10
104.2187893077127
 20
-153.0514675181608
 30
0.0
  0
VERTEX
  5
EA
330
E7
100
AcDbEntity
  8
_U+30EC_U+30A4_U+30E4_U+30FC 1
370
     0
100
AcDbVertex
100
AcDb2dVertex
 10
104.6756089690568
 20
-153.0514675181608
 30
0.0
  0
VERTEX
  5
EB
330
E7
100
AcDbEntity
  8
_U+30EC_U+30A4_U+30E4_U+30FC 1
370
     0
100
AcDbVertex
100
AcDb2dVertex
 10
104.6756089690568
 20
-152.3955213377692
 30
0.0
  0
SEQEND
  5
EC
330
E7
100
AcDbEntity
  8
_U+30EC_U+30A4_U+30E4_U+30FC 1
370
     0
  0
HATCH
  5
ED
330
D5
100
AcDbEntity
  8
_U+30EC_U+30A4_U+30E4_U+30FC 1
 62
   179
420
  2234388
100
AcDbHatch
 10
0.0
 20
0.0
 30
0.0
210
0.0
220
0.0
230
1.0
  2
SOLID
 70
     1
 71
     0
 91
        2
 92
        1
 93
       11
 72
     1
 10
104.8935112584988
 20
-153.2502495276597
 11
104.8935112584988
 21
-153.5971706430243
 72
     1
 10
104.8935112584988
 20
-153.5971706430243
 11
104.6756089690568
 21
-153.5971706430243
 72
     1
 10
104.6756089690568
 20
-153.5971706430243
 11
104.6756089690568
 21
-153.2502495276597
 72
     1
 10
104.6756089690568
 20
-153.2502495276597
 11
104.0198350434395
 21
-153.2502495276597
 72
     1
 10
104.0198350434395
 20
-153.2502495276597
 11
104.0198350434395
 21
-153.0259738115699
 72
     1
 10
104.0198350434395
 20
-153.0259738115699
 11
104.6988633635822
 21
-152.0530788465354
 72
     1
 10
104.6988633635822
 20
-152.0530788465354
 11
104.8935112584988
 21
-152.0530788465354
 72
     1
 10
104.8935112584988
 20
-152.0530788465354
 11
104.8935112584988
 21
-153.0514675181608
 72
     1
 10
104.8935112584988
 20
-153.0514675181608
 11
105.1009060067109
 21
-153.0514675181608
 72
     1
 10
105.1009060067109
 20
-153.0514675181608
 11
105.1009060067109
 21
-153.2502495276597
 72
     1
 10
105.1009060067109
 20
-153.2502495276597
 11
104.8935112584988
 21
-153.2502495276597
 97
        0
 92
        1
 93
        3
 72
     1
 10
104.6756089690568
 20
-152.3955213377692
 11
104.2187893077127
 21
-153.0514675181608
 72
     1
 10
104.2187893077127
 20
-153.0514675181608
 11
104.6756089690568
 21
-153.0514675181608
 72
     1
 10
104.6756089690568
 20
-153.0514675181608
 11
104.6756089690568
 21
-152.3955213377692
 97
        0
 75
     2
 76
     1
 98
        0
  0
ENDBLK
  5
D8
330
D5
100
AcDbEntity
  8
0
100
AcDbBlockEnd
  0
BLOCK
  5
123
330
121
100
AcDbEntity
  8
0
100
AcDbBlockBegin
  2
block 7
 70
     0
 10
0.0
 20
0.0
 30
0.0
  3
block 7
  1

  0
SPLINE
  5
125
330
121
100
AcDbEntity
  8
_U+30EC_U+30A4_U+30E4_U+30FC 1
370
     0
100
AcDbSpline
210
0.0
220
0.0
230
1.0
 70
    11
 71
     3
 72
   197
 73
   193
 74
     0
 42
0.0000000001
 43
0.0000000001
 12
1.0
 22
0.0
 32
0.0
 13
1.0
 23
0.0
 33
0.0
 40
0.0
 40
0.0
 40
0.0
 40
0.0
 40
1.0
 40
1.0
 40
1.0
 40
2.0
 40
2.0
 40
2.0
 40
3.0
 40
3.0
 40
3.0
 40
4.0
 40
4.0
 40
4.0
 40
5.0
 40
5.0
 40
5.0
 40
6.0
 40
6.0
 40
6.0
 40
7.0
 40
7.0
 40
7.0
 40
8.0
 40
8.0
 40
8.0
 40
9.0
 40
9.0
 40
9.0
 40
10.0
 40
10.0
 40
10.0
 40
11.0
 40
11.0
 40
11.0
 40
12.0
 40
12.0
 40
12.0
 40
13.0
 40
13.0
 40
13.0
 40
14.0
 40
14.0
 40
14.0
 40
15.0
 40
15.0
 40
15.0
 40
16.0
 40
16.0
 40
16.0
 40
17.0
 40
17.0
 40
17.0
 40
18.0
 40
18.0
 40
18.0
 40
19.0
 40
19.0
 40
19.0
 40
20.0
 40
20.0
 40
20.0
 40
21.0
 40
21.0
 40
21.0
 40
22.0
 40
22.0
 40
22.0
 40
23.0
 40
23.0
 40
23.0
 40
24.0
 40
24.0
 40
24.0
 40
25.0
 40
25.0
 40
25.0
 40
26.0
 40
26.0
 40
26.0
 40
27.0
 40
27.0
 40
27.0
 40
28.0
 40
28.0
 40
28.0
 40
29.0
 40
29.0
 40
29.0
 40
30.0
 40
30.0
 40
30.0
 40
31.0
 40
31.0
 40
31.0
 40
32.0
 40
32.0
 40
32.0
 40
33.0
 40
33.0
 40
33.0
 40
34.0
 40
34.0
 40
34.0
 40
35.0
 40
35.0
 40
35.0
 40
36.0
 40
36.0
 40
36.0
 40
37.0
 40
37.0
 40
37.0
 40
38.0
 40
38.0
 40
38.0
 40
39.0
 40
39.0
 40
39.0
 40
40.0
 40
40.0
 40
40.0
 40
41.0
 40
41.0
 40
41.0
 40
42.0
 40
42.0
 40
42.0
 40
43.0
 40
43.0
 40
43.0
 40
44.0
 40
44.0
 40
44.0
 40
45.0
 40
45.0
 40
45.0
 40
46.0
 40
46.0
 40
46.0
 40
47.0
 40
47.0
 40
47.0
 40
48.0
 40
48.0
 40
48.0
 40
49.0
 40
49.0
 40
49.0
 40
50.0
 40
50.0
 40
50.0
 40
51.0
 40
51.0
 40
51.0
 40
52.0
 40
52.0
 40
52.0
 40
53.0
 40
53.0
 40
53.0
 40
54.0
 40
54.0
 40
54.0
 40
55.0
 40
55.0
 40
55.0
 40
56.0
 40
56.0
 40
56.0
 40
57.0
 40
57.0
 40
57.0
 40
58.0
 40
58.0
 40
58.0
 40
59.0
 40
59.0
 40
59.0
 40
60.0
 40
60.0
 40
60.0
 40
61.0
 40
61.0
 40
61.0
 40
62.0
 40
62.0
 40
62.0
 40
63.0
 40
63.0
 40
63.0
 40
64.0
 40
64.0
 40
64.0
 40
64.0
 10
112.1175319815192
 20
-134.3428764855115
 30
0.0
 10
112.106852185515
 20
-134.3723320519104
 30
0.0
 10
112.0837700457638
 20
-134.4190130957355
 30
0.0
 10
112.0730902497595
 20
-134.4464016048433
 30
0.0
 10
112.0730902497595
 20
-134.4464016048433
 30
0.0
 10
112.0117675501221
 20
-134.5988470800656
 30
0.0
 10
112.0117675501221
 20
-134.5988470800656
 30
0.0
 10
112.0014322636663
 20
-134.6241685318822
 30
0.0
 10
111.9525119077758
 20
-134.7363063899271
 30
0.0
 10
111.9401095640289
 20
-134.7595607844525
 30
0.0
 10
111.9376979971892
 20
-134.7659342111002
 30
0.0
 10
111.9335638826069
 20
-134.7743746950391
 30
0.0
 10
111.9311523157672
 20
-134.7807481216868
 30
0.0
 10
111.9311523157672
 20
-134.7807481216868
 30
0.0
 10
111.7220350198126
 20
-134.7278659059882
 30
0.0
 10
111.7220350198126
 20
-134.7278659059882
 30
0.0
 10
111.8002386873277
 20
-134.6177951052344
 30
0.0
 10
111.8615613869652
 20
-134.4824028526641
 30
0.0
 10
111.8932562654295
 20
-134.3723320519104
 30
0.0
 10
111.8932562654295
 20
-134.3723320519104
 30
0.0
 10
111.4281683749207
 20
-134.3723320519104
 30
0.0
 10
111.4281683749207
 20
-134.3723320519104
 30
0.0
 10
111.3475531405659
 20
-134.5373521256539
 30
0.0
 10
111.280029269055
 20
-134.6157280479433
 30
0.0
 10
111.245922823751
 20
-134.6558634103465
 30
0.0
 10
111.245922823751
 20
-134.6558634103465
 30
0.0
 10
111.1232774244761
 20
-134.5902343413524
 30
0.0
 10
111.1232774244761
 20
-134.5902343413524
 30
0.0
 10
111.1232774244761
 20
-134.5902343413524
 30
0.0
 10
111.1232774244761
 20
-134.7616278417436
 30
0.0
 10
111.1232774244761
 20
-134.7616278417436
 30
0.0
 10
111.1232774244761
 20
-134.8696315852062
 30
0.0
 10
111.1253444817673
 20
-134.9182074315482
 30
0.0
 10
111.1360242777716
 20
-135.0239718629454
 30
0.0
 10
111.0640217821298
 20
-135.0219048056543
 30
0.0
 10
111.0430066996698
 20
-135.0219048056543
 30
0.0
 10
110.8376790087489
 20
-135.0219048056543
 30
0.0
 10
110.8376790087489
 20
-135.0219048056543
 30
0.0
 10
110.7825574809849
 20
-135.0219048056543
 30
0.0
 10
110.7825574809849
 20
-135.0219048056543
 30
0.0
 10
110.7825574809849
 20
-135.0219048056543
 30
0.0
 10
110.7825574809849
 20
-135.1572970582246
 30
0.0
 10
110.7825574809849
 20
-135.1572970582246
 30
0.0
 10
110.7825574809849
 20
-135.1572970582246
 30
0.0
 10
110.8545599766266
 20
-135.1572970582246
 30
0.0
 10
110.8545599766266
 20
-135.1572970582246
 30
0.0
 10
110.9203613003949
 20
-135.1572970582246
 30
0.0
 10
111.066088839421
 20
-135.152990688868
 30
0.0
 10
111.1718532708181
 20
-135.1445502049291
 30
0.0
 10
111.1718532708181
 20
-135.1445502049291
 30
0.0
 10
111.1718532708181
 20
-135.322317131968
 30
0.0
 10
111.1718532708181
 20
-135.322317131968
 30
0.0
 10
111.0747015781341
 20
-135.3159437053203
 30
0.0
 10
110.9158826762641
 20
-135.3116373359638
 30
0.0
 10
110.8545599766266
 20
-135.3116373359638
 30
0.0
 10
110.8545599766266
 20
-135.3116373359638
 30
0.0
 10
110.7825574809849
 20
-135.3116373359638
 30
0.0
 10
110.7825574809849
 20
-135.3116373359638
 30
0.0
 10
110.7846245382761
 20
-135.4005207994832
 30
0.0
 10
110.7891031624069
 20
-135.6396104261595
 30
0.0
 10
110.791170219698
 20
-135.7136799790924
 30
0.0
 10
110.791170219698
 20
-135.7136799790924
 30
0.0
 10
110.590321152908
 20
-135.7136799790924
 30
0.0
 10
110.590321152908
 20
-135.7136799790924
 30
0.0
 10
110.6027234966549
 20
-135.4999118042327
 30
0.0
 10
110.6027234966549
 20
-135.4702839830595
 30
0.0
 10
110.6068576112372
 20
-135.3116373359638
 30
0.0
 10
110.6068576112372
 20
-135.3116373359638
 30
0.0
 10
110.5372666824351
 20
-135.3116373359638
 30
0.0
 10
110.5372666824351
 20
-135.3116373359638
 30
0.0
 10
110.48007809738
 20
-135.3116373359638
 30
0.0
 10
110.3278048769319
 20
-135.3159437053203
 30
0.0
 10
110.2179063309525
 20
-135.322317131968
 30
0.0
 10
110.2179063309525
 20
-135.322317131968
 30
0.0
 10
110.2179063309525
 20
-135.1445502049291
 30
0.0
 10
110.2179063309525
 20
-135.1445502049291
 30
0.0
 10
110.3236707623496
 20
-135.152990688868
 30
0.0
 10
110.4676757536331
 20
-135.1572970582246
 30
0.0
 10
110.5372666824351
 20
-135.1572970582246
 30
0.0
 10
110.5372666824351
 20
-135.1572970582246
 30
0.0
 10
110.611336235368
 20
-135.1572970582246
 30
0.0
 10
110.611336235368
 20
-135.1572970582246
 30
0.0
 10
110.611336235368
 20
-135.1572970582246
 30
0.0
 10
110.611336235368
 20
-135.0219048056543
 30
0.0
 10
110.611336235368
 20
-135.0219048056543
 30
0.0
 10
110.611336235368
 20
-135.0219048056543
 30
0.0
 10
110.5668945036083
 20
-135.0219048056543
 30
0.0
 10
110.5668945036083
 20
-135.0219048056543
 30
0.0
 10
110.4907578933843
 20
-135.0219048056543
 30
0.0
 10
110.2981770557588
 20
-135.0239718629454
 30
0.0
 10
110.2644151200033
 20
-135.0239718629454
 30
0.0
 10
110.2706162918768
 20
-134.9521416220779
 30
0.0
 10
110.2792290305899
 20
-134.8716986424974
 30
0.0
 10
110.2792290305899
 20
-134.7511203005136
 30
0.0
 10
110.2792290305899
 20
-134.7511203005136
 30
0.0
 10
110.2792290305899
 20
-134.5776597428313
 30
0.0
 10
110.2792290305899
 20
-134.5776597428313
 30
0.0
 10
110.2792290305899
 20
-134.5056572471896
 30
0.0
 10
110.2706162918768
 20
-134.3850789052058
 30
0.0
 10
110.2644151200033
 20
-134.3048081803995
 30
0.0
 10
110.3426187875185
 20
-134.3089422949818
 30
0.0
 10
110.3808593474048
 20
-134.3110093522729
 30
0.0
 10
110.507638861262
 20
-134.3110093522729
 30
0.0
 10
110.507638861262
 20
-134.3110093522729
 30
0.0
 10
110.611336235368
 20
-134.3110093522729
 30
0.0
 10
110.611336235368
 20
-134.3110093522729
 30
0.0
 10
110.611336235368
 20
-134.3110093522729
 30
0.0
 10
110.611336235368
 20
-134.1651095584726
 30
0.0
 10
110.611336235368
 20
-134.1651095584726
 30
0.0
 10
110.611336235368
 20
-134.1651095584726
 30
0.0
 10
110.5331325678528
 20
-134.1651095584726
 30
0.0
 10
110.5331325678528
 20
-134.1651095584726
 30
0.0
 10
110.4780110400888
 20
-134.1651095584726
 30
0.0
 10
110.3064452849234
 20
-134.1694159278292
 30
0.0
 10
110.2220404455348
 20
-134.1756170997026
 30
0.0
 10
110.2220404455348
 20
-134.1756170997026
 30
0.0
 10
110.2220404455348
 20
-133.998022427438
 30
0.0
 10
110.2220404455348
 20
-133.998022427438
 30
0.0
 10
110.3043782276322
 20
-134.0043958540857
 30
0.0
 10
110.4676757536331
 20
-134.008529968668
 30
0.0
 10
110.5331325678528
 20
-134.008529968668
 30
0.0
 10
110.5331325678528
 20
-134.008529968668
 30
0.0
 10
110.611336235368
 20
-134.008529968668
 30
0.0
 10
110.611336235368
 20
-134.008529968668
 30
0.0
 10
110.611336235368
 20
-133.9747680329126
 30
0.0
 10
110.6068576112372
 20
-133.8202555003991
 30
0.0
 10
110.6068576112372
 20
-133.7885606219348
 30
0.0
 10
110.6068576112372
 20
-133.7885606219348
 30
0.0
 10
110.8039170729935
 20
-133.8054415898125
 30
0.0
 10
110.8039170729935
 20
-133.8054415898125
 30
0.0
 10
110.8207980408712
 20
-133.8075086471037
 30
0.0
 10
110.8418131233312
 20
-133.8097479591691
 30
0.0
 10
110.8418131233312
 20
-133.8307630416291
 30
0.0
 10
110.8418131233312
 20
-133.8541896909288
 30
0.0
 10
110.8207980408712
 20
-133.8626301748677
 30
0.0
 10
110.7932372769892
 20
-133.8752047733888
 30
0.0
 10
110.7932372769892
 20
-133.8963921106231
 30
0.0
 10
110.791170219698
 20
-133.9916490007903
 30
0.0
 10
110.791170219698
 20
-134.008529968668
 30
0.0
 10
110.791170219698
 20
-134.008529968668
 30
0.0
 10
110.8504258620443
 20
-134.008529968668
 30
0.0
 10
110.8504258620443
 20
-134.008529968668
 30
0.0
 10
110.9182942431038
 20
-134.008529968668
 30
0.0
 10
111.0619547248387
 20
-134.0043958540857
 30
0.0
 10
111.1677191562358
 20
-133.998022427438
 30
0.0
 10
111.1677191562358
 20
-133.998022427438
 30
0.0
 10
111.1677191562358
 20
-134.1756170997026
 30
0.0
 10
111.1677191562358
 20
-134.1756170997026
 30
0.0
 10
111.0705674635518
 20
-134.1694159278292
 30
0.0
 10
110.9138156189729
 20
-134.1651095584726
 30
0.0
 10
110.8504258620443
 20
-134.1651095584726
 30
0.0
 10
110.8504258620443
 20
-134.1651095584726
 30
0.0
 10
110.7825574809849
 20
-134.1651095584726
 30
0.0
 10
110.7825574809849
 20
-134.1651095584726
 30
0.0
 10
110.7825574809849
 20
-134.1651095584726
 30
0.0
 10
110.7825574809849
 20
-134.3110093522729
 30
0.0
 10
110.7825574809849
 20
-134.3110093522729
 30
0.0
 10
110.7825574809849
 20
-134.3110093522729
 30
0.0
 10
110.8524929193355
 20
-134.3110093522729
 30
0.0
 10
110.8524929193355
 20
-134.3110093522729
 30
0.0
 10
111.0026990824924
 20
-134.3110093522729
 30
0.0
 10
111.0747015781341
 20
-134.3068752376907
 30
0.0
 10
111.1360242777716
 20
-134.3048081803995
 30
0.0
 10
111.127756048607
 20
-134.3998928157924
 30
0.0
 10
111.1253444817673
 20
-134.4782687380818
 30
0.0
 10
111.1232774244761
 20
-134.5163370431938
 30
0.0
 10
111.2779622117638
 20
-134.3048081803995
 30
0.0
 10
111.3833821336125
 20
-134.0572780697843
 30
0.0
 10
111.4006076110387
 20
-133.7949340485825
 30
0.0
 10
111.4006076110387
 20
-133.7949340485825
 30
0.0
 10
111.6162705884154
 20
-133.8455769522157
 30
0.0
 10
111.6162705884154
 20
-133.8455769522157
 30
0.0
 10
111.631084499002
 20
-133.8498833215723
 30
0.0
 10
111.6458984095885
 20
-133.85625674822
 30
0.0
 10
111.6458984095885
 20
-133.8731377160977
 30
0.0
 10
111.6458984095885
 20
-133.8900186839754
 30
0.0
 10
111.6417642950062
 20
-133.8922579960408
 30
0.0
 10
111.5907768818245
 20
-133.9132730785009
 30
0.0
 10
111.5738959139468
 20
-133.9895819434991
 30
0.0
 10
111.5487467169045
 20
-134.0805324643097
 30
0.0
 10
111.4998263610139
 20
-134.2074842329412
 30
0.0
 10
111.4998263610139
 20
-134.2074842329412
 30
0.0
 10
111.8381347376655
 20
-134.2074842329412
 30
0.0
 10
111.8381347376655
 20
-134.2074842329412
 30
0.0
 10
111.8763752975517
 20
-134.2074842329412
 30
0.0
 10
112.0055663782486
 20
-134.2031778635846
 30
0.0
 10
112.0541422245906
 20
-134.1968044369369
 30
0.0
 10
112.0541422245906
 20
-134.1968044369369
 30
0.0
 10
112.1471598026924
 20
-134.2665676205132
 30
0.0
 10
112.1471598026924
 20
-134.2665676205132
 30
0.0
 10
112.1385470639793
 20
-134.2877549577475
 30
0.0
 10
112.1323458921058
 20
-134.3068752376907
 30
0.0
 10
112.1175319815192
 20
-134.3428764855115
 30
0.0
  0
POLYLINE
  5
126
330
121
100
AcDbEntity
  8
_U+30EC_U+30A4_U+30E4_U+30FC 1
370
     0
100
AcDb2dPolyline
 66
     1
 10
0.0
 20
0.0
 30
0.0
  0
VERTEX
  5
127
330
126
100
AcDbEntity
  8
_U+30EC_U+30A4_U+30E4_U+30FC 1
370
     0
100
AcDbVertex
100
AcDb2dVertex
 10
110.611336235368
 20
-134.4675889420776
 30
0.0
  0
VERTEX
  5
128
330
126
100
AcDbEntity
  8
_U+30EC_U+30A4_U+30E4_U+30FC 1
370
     0
100
AcDbVertex
100
AcDb2dVertex
 10
110.452517333498
 20
-134.4675889420776
 30
0.0
  0
VERTEX
  5
129
330
126
100
AcDbEntity
  8
_U+30EC_U+30A4_U+30E4_U+30FC 1
370
     0
100
AcDbVertex
100
AcDb2dVertex
 10
110.452517333498
 20
-134.5966077680002
 30
0.0
  0
VERTEX
  5
12A
330
126
100
AcDbEntity
  8
_U+30EC_U+30A4_U+30E4_U+30FC 1
370
     0
100
AcDbVertex
100
AcDb2dVertex
 10
110.611336235368
 20
-134.5966077680002
 30
0.0
  0
VERTEX
  5
12B
330
126
100
AcDbEntity
  8
_U+30EC_U+30A4_U+30E4_U+30FC 1
370
     0
100
AcDbVertex
100
AcDb2dVertex
 10
110.611336235368
 20
-134.4675889420776
 30
0.0
  0
SEQEND
  5
12C
330
126
100
AcDbEntity
  8
_U+30EC_U+30A4_U+30E4_U+30FC 1
370
     0
  0
POLYLINE
  5
12D
330
121
100
AcDbEntity
  8
_U+30EC_U+30A4_U+30E4_U+30FC 1
370
     0
100
AcDb2dPolyline
 66
     1
 10
0.0
 20
0.0
 30
0.0
  0
VERTEX
  5
12E
330
12D
100
AcDbEntity
  8
_U+30EC_U+30A4_U+30E4_U+30FC 1
370
     0
100
AcDbVertex
100
AcDb2dVertex
 10
110.611336235368
 20
-134.7404405045093
 30
0.0
  0
VERTEX
  5
12F
330
12D
100
AcDbEntity
  8
_U+30EC_U+30A4_U+30E4_U+30FC 1
370
     0
100
AcDbVertex
100
AcDb2dVertex
 10
110.452517333498
 20
-134.7404405045093
 30
0.0
  0
VERTEX
  5
130
330
12D
100
AcDbEntity
  8
_U+30EC_U+30A4_U+30E4_U+30FC 1
370
     0
100
AcDbVertex
100
AcDb2dVertex
 10
110.452517333498
 20
-134.8696315852062
 30
0.0
  0
VERTEX
  5
131
330
12D
100
AcDbEntity
  8
_U+30EC_U+30A4_U+30E4_U+30FC 1
370
     0
100
AcDbVertex
100
AcDb2dVertex
 10
110.611336235368
 20
-134.8696315852062
 30
0.0
  0
VERTEX
  5
132
330
12D
100
AcDbEntity
  8
_U+30EC_U+30A4_U+30E4_U+30FC 1
370
     0
100
AcDbVertex
100
AcDb2dVertex
 10
110.611336235368
 20
-134.7404405045093
 30
0.0
  0
SEQEND
  5
133
330
12D
100
AcDbEntity
  8
_U+30EC_U+30A4_U+30E4_U+30FC 1
370
     0
  0
POLYLINE
  5
134
330
121
100
AcDbEntity
  8
_U+30EC_U+30A4_U+30E4_U+30FC 1
370
     0
100
AcDb2dPolyline
 66
     1
 10
0.0
 20
0.0
 30
0.0
  0
VERTEX
  5
135
330
134
100
AcDbEntity
  8
_U+30EC_U+30A4_U+30E4_U+30FC 1
370
     0
100
AcDbVertex
100
AcDb2dVertex
 10
110.9434434401461
 20
-134.4675889420776
 30
0.0
  0
VERTEX
  5
136
330
134
100
AcDbEntity
  8
_U+30EC_U+30A4_U+30E4_U+30FC 1
370
     0
100
AcDbVertex
100
AcDb2dVertex
 10
110.7825574809849
 20
-134.4675889420776
 30
0.0
  0
VERTEX
  5
137
330
134
100
AcDbEntity
  8
_U+30EC_U+30A4_U+30E4_U+30FC 1
370
     0
100
AcDbVertex
100
AcDb2dVertex
 10
110.7825574809849
 20
-134.5966077680002
 30
0.0
  0
VERTEX
  5
138
330
134
100
AcDbEntity
  8
_U+30EC_U+30A4_U+30E4_U+30FC 1
370
     0
100
AcDbVertex
100
AcDb2dVertex
 10
110.9434434401461
 20
-134.5966077680002
 30
0.0
  0
VERTEX
  5
139
330
134
100
AcDbEntity
  8
_U+30EC_U+30A4_U+30E4_U+30FC 1
370
     0
100
AcDbVertex
100
AcDb2dVertex
 10
110.9434434401461
 20
-134.4675889420776
 30
0.0
  0
SEQEND
  5
13A
330
134
100
AcDbEntity
  8
_U+30EC_U+30A4_U+30E4_U+30FC 1
370
     0
  0
POLYLINE
  5
13B
330
121
100
AcDbEntity
  8
_U+30EC_U+30A4_U+30E4_U+30FC 1
370
     0
100
AcDb2dPolyline
 66
     1
 10
0.0
 20
0.0
 30
0.0
  0
VERTEX
  5
13C
330
13B
100
AcDbEntity
  8
_U+30EC_U+30A4_U+30E4_U+30FC 1
370
     0
100
AcDbVertex
100
AcDb2dVertex
 10
110.9434434401461
 20
-134.7404405045093
 30
0.0
  0
VERTEX
  5
13D
330
13B
100
AcDbEntity
  8
_U+30EC_U+30A4_U+30E4_U+30FC 1
370
     0
100
AcDbVertex
100
AcDb2dVertex
 10
110.7825574809849
 20
-134.7404405045093
 30
0.0
  0
VERTEX
  5
13E
330
13B
100
AcDbEntity
  8
_U+30EC_U+30A4_U+30E4_U+30FC 1
370
     0
100
AcDbVertex
100
AcDb2dVertex
 10
110.7825574809849
 20
-134.8696315852062
 30
0.0
  0
VERTEX
  5
13F
330
13B
100
AcDbEntity
  8
_U+30EC_U+30A4_U+30E4_U+30FC 1
370
     0
100
AcDbVertex
100
AcDb2dVertex
 10
110.9434434401461
 20
-134.8696315852062
 30
0.0
  0
VERTEX
  5
140
330
13B
100
AcDbEntity
  8
_U+30EC_U+30A4_U+30E4_U+30FC 1
370
     0
100
AcDbVertex
100
AcDb2dVertex
 10
110.9434434401461
 20
-134.7404405045093
 30
0.0
  0
SEQEND
  5
141
330
13B
100
AcDbEntity
  8
_U+30EC_U+30A4_U+30E4_U+30FC 1
370
     0
  0
SPLINE
  5
142
330
121
100
AcDbEntity
  8
_U+30EC_U+30A4_U+30E4_U+30FC 1
370
     0
100
AcDbSpline
210
0.0
220
0.0
230
1.0
 70
    11
 71
     3
 72
    41
 73
    37
 74
     0
 42
0.0000000001
 43
0.0000000001
 12
1.0
 22
0.0
 32
0.0
 13
1.0
 23
0.0
 33
0.0
 40
0.0
 40
0.0
 40
0.0
 40
0.0
 40
1.0
 40
1.0
 40
1.0
 40
2.0
 40
2.0
 40
2.0
 40
3.0
 40
3.0
 40
3.0
 40
4.0
 40
4.0
 40
4.0
 40
5.0
 40
5.0
 40
5.0
 40
6.0
 40
6.0
 40
6.0
 40
7.0
 40
7.0
 40
7.0
 40
8.0
 40
8.0
 40
8.0
 40
9.0
 40
9.0
 40
9.0
 40
10.0
 40
10.0
 40
10.0
 40
11.0
 40
11.0
 40
11.0
 40
12.0
 40
12.0
 40
12.0
 40
12.0
 10
112.0331271421306
 20
-135.6988660685059
 30
0.0
 10
111.7919704581631
 20
-135.5634738159355
 30
0.0
 10
111.6142035311242
 20
-135.267195604204
 30
0.0
 10
111.5738959139468
 20
-135.1381767782814
 30
0.0
 10
111.4533175719631
 20
-135.4025878567743
 30
0.0
 10
111.2903645555107
 20
-135.5803547838132
 30
0.0
 10
111.1084635138896
 20
-135.6945596991493
 30
0.0
 10
111.1084635138896
 20
-135.6945596991493
 30
0.0
 10
110.9117485616818
 20
-135.5571003892878
 30
0.0
 10
110.9117485616818
 20
-135.5571003892878
 30
0.0
 10
110.9816840000324
 20
-135.5317789374712
 30
0.0
 10
111.127756048607
 20
-135.4702839830595
 30
0.0
 10
111.2504014478819
 20
-135.3159437053203
 30
0.0
 10
111.3751139044479
 20
-135.1593641155157
 30
0.0
 10
111.4639973679673
 20
-134.9266479154871
 30
0.0
 10
111.4639973679673
 20
-134.6665432063507
 30
0.0
 10
111.4639973679673
 20
-134.5649128895359
 30
0.0
 10
111.4512505146719
 20
-134.4930826486684
 30
0.0
 10
111.4405707186676
 20
-134.4464016048433
 30
0.0
 10
111.4405707186676
 20
-134.4464016048433
 30
0.0
 10
111.6458984095885
 20
-134.4675889420776
 30
0.0
 10
111.6458984095885
 20
-134.4675889420776
 30
0.0
 10
111.6669134920486
 20
-134.4696559993687
 30
0.0
 10
111.6879285745086
 20
-134.4718953114341
 30
0.0
 10
111.6879285745086
 20
-134.4930826486684
 30
0.0
 10
111.6879285745086
 20
-134.5120306738373
 30
0.0
 10
111.6775932880528
 20
-134.5204711577761
 30
0.0
 10
111.6438313522974
 20
-134.5416584950104
 30
0.0
 10
111.6352186135843
 20
-134.7426798165748
 30
0.0
 10
111.6924071986394
 20
-134.9859035578334
 30
0.0
 10
111.7537298982768
 20
-135.1064818998171
 30
0.0
 10
111.8446804190875
 20
-135.2820095147906
 30
0.0
 10
112.0393283140041
 20
-135.4618434991206
 30
0.0
 10
112.1747205665744
 20
-135.5190320841758
 30
0.0
 10
112.1747205665744
 20
-135.5190320841758
 30
0.0
 10
112.0331271421306
 20
-135.6988660685059
 30
0.0
 10
112.0331271421306
 20
-135.6988660685059
 30
0.0
  0
HATCH
  5
143
330
121
100
AcDbEntity
  8
_U+30EC_U+30A4_U+30E4_U+30FC 1
 62
   179
420
  2234388
100
AcDbHatch
 10
0.0
 20
0.0
 30
0.0
210
0.0
220
0.0
230
1.0
  2
SOLID
 70
     1
 71
     0
 91
        6
 92
        1
 93
        1
 72
     4
 94
        3
 73
     0
 74
     1
 95
      197
 96
      193
 40
0.0
 40
0.0
 40
0.0
 40
0.0
 40
1.0
 40
1.0
 40
1.0
 40
2.0
 40
2.0
 40
2.0
 40
3.0
 40
3.0
 40
3.0
 40
4.0
 40
4.0
 40
4.0
 40
5.0
 40
5.0
 40
5.0
 40
6.0
 40
6.0
 40
6.0
 40
7.0
 40
7.0
 40
7.0
 40
8.0
 40
8.0
 40
8.0
 40
9.0
 40
9.0
 40
9.0
 40
10.0
 40
10.0
 40
10.0
 40
11.0
 40
11.0
 40
11.0
 40
12.0
 40
12.0
 40
12.0
 40
13.0
 40
13.0
 40
13.0
 40
14.0
 40
14.0
 40
14.0
 40
15.0
 40
15.0
 40
15.0
 40
16.0
 40
16.0
 40
16.0
 40
17.0
 40
17.0
 40
17.0
 40
18.0
 40
18.0
 40
18.0
 40
19.0
 40
19.0
 40
19.0
 40
20.0
 40
20.0
 40
20.0
 40
21.0
 40
21.0
 40
21.0
 40
22.0
 40
22.0
 40
22.0
 40
23.0
 40
23.0
 40
23.0
 40
24.0
 40
24.0
 40
24.0
 40
25.0
 40
25.0
 40
25.0
 40
26.0
 40
26.0
 40
26.0
 40
27.0
 40
27.0
 40
27.0
 40
28.0
 40
28.0
 40
28.0
 40
29.0
 40
29.0
 40
29.0
 40
30.0
 40
30.0
 40
30.0
 40
31.0
 40
31.0
 40
31.0
 40
32.0
 40
32.0
 40
32.0
 40
33.0
 40
33.0
 40
33.0
 40
34.0
 40
34.0
 40
34.0
 40
35.0
 40
35.0
 40
35.0
 40
36.0
 40
36.0
 40
36.0
 40
37.0
 40
37.0
 40
37.0
 40
38.0
 40
38.0
 40
38.0
 40
39.0
 40
39.0
 40
39.0
 40
40.0
 40
40.0
 40
40.0
 40
41.0
 40
41.0
 40
41.0
 40
42.0
 40
42.0
 40
42.0
 40
43.0
 40
43.0
 40
43.0
 40
44.0
 40
44.0
 40
44.0
 40
45.0
 40
45.0
 40
45.0
 40
46.0
 40
46.0
 40
46.0
 40
47.0
 40
47.0
 40
47.0
 40
48.0
 40
48.0
 40
48.0
 40
49.0
 40
49.0
 40
49.0
 40
50.0
 40
50.0
 40
50.0
 40
51.0
 40
51.0
 40
51.0
 40
52.0
 40
52.0
 40
52.0
 40
53.0
 40
53.0
 40
53.0
 40
54.0
 40
54.0
 40
54.0
 40
55.0
 40
55.0
 40
55.0
 40
56.0
 40
56.0
 40
56.0
 40
57.0
 40
57.0
 40
57.0
 40
58.0
 40
58.0
 40
58.0
 40
59.0
 40
59.0
 40
59.0
 40
60.0
 40
60.0
 40
60.0
 40
61.0
 40
61.0
 40
61.0
 40
62.0
 40
62.0
 40
62.0
 40
63.0
 40
63.0
 40
63.0
 40
64.0
 40
64.0
 40
64.0
 40
64.0
 10
112.1175319815192
 20
-134.3428764855115
 10
112.106852185515
 20
-134.3723320519104
 10
112.0837700457638
 20
-134.4190130957355
 10
112.0730902497595
 20
-134.4464016048433
 10
112.0730902497595
 20
-134.4464016048433
 10
112.0117675501221
 20
-134.5988470800656
 10
112.0117675501221
 20
-134.5988470800656
 10
112.0014322636663
 20
-134.6241685318822
 10
111.9525119077758
 20
-134.7363063899271
 10
111.9401095640289
 20
-134.7595607844525
 10
111.9376979971892
 20
-134.7659342111002
 10
111.9335638826069
 20
-134.7743746950391
 10
111.9311523157672
 20
-134.7807481216868
 10
111.9311523157672
 20
-134.7807481216868
 10
111.7220350198126
 20
-134.7278659059882
 10
111.7220350198126
 20
-134.7278659059882
 10
111.8002386873277
 20
-134.6177951052344
 10
111.8615613869652
 20
-134.4824028526641
 10
111.8932562654295
 20
-134.3723320519104
 10
111.8932562654295
 20
-134.3723320519104
 10
111.4281683749207
 20
-134.3723320519104
 10
111.4281683749207
 20
-134.3723320519104
 10
111.3475531405659
 20
-134.5373521256539
 10
111.280029269055
 20
-134.6157280479433
 10
111.245922823751
 20
-134.6558634103465
 10
111.245922823751
 20
-134.6558634103465
 10
111.1232774244761
 20
-134.5902343413524
 10
111.1232774244761
 20
-134.5902343413524
 10
111.1232774244761
 20
-134.5902343413524
 10
111.1232774244761
 20
-134.7616278417436
 10
111.1232774244761
 20
-134.7616278417436
 10
111.1232774244761
 20
-134.8696315852062
 10
111.1253444817673
 20
-134.9182074315482
 10
111.1360242777716
 20
-135.0239718629454
 10
111.0640217821298
 20
-135.0219048056543
 10
111.0430066996698
 20
-135.0219048056543
 10
110.8376790087489
 20
-135.0219048056543
 10
110.8376790087489
 20
-135.0219048056543
 10
110.7825574809849
 20
-135.0219048056543
 10
110.7825574809849
 20
-135.0219048056543
 10
110.7825574809849
 20
-135.0219048056543
 10
110.7825574809849
 20
-135.1572970582246
 10
110.7825574809849
 20
-135.1572970582246
 10
110.7825574809849
 20
-135.1572970582246
 10
110.8545599766266
 20
-135.1572970582246
 10
110.8545599766266
 20
-135.1572970582246
 10
110.9203613003949
 20
-135.1572970582246
 10
111.066088839421
 20
-135.152990688868
 10
111.1718532708181
 20
-135.1445502049291
 10
111.1718532708181
 20
-135.1445502049291
 10
111.1718532708181
 20
-135.322317131968
 10
111.1718532708181
 20
-135.322317131968
 10
111.0747015781341
 20
-135.3159437053203
 10
110.9158826762641
 20
-135.3116373359638
 10
110.8545599766266
 20
-135.3116373359638
 10
110.8545599766266
 20
-135.3116373359638
 10
110.7825574809849
 20
-135.3116373359638
 10
110.7825574809849
 20
-135.3116373359638
 10
110.7846245382761
 20
-135.4005207994832
 10
110.7891031624069
 20
-135.6396104261595
 10
110.791170219698
 20
-135.7136799790924
 10
110.791170219698
 20
-135.7136799790924
 10
110.590321152908
 20
-135.7136799790924
 10
110.590321152908
 20
-135.7136799790924
 10
110.6027234966549
 20
-135.4999118042327
 10
110.6027234966549
 20
-135.4702839830595
 10
110.6068576112372
 20
-135.3116373359638
 10
110.6068576112372
 20
-135.3116373359638
 10
110.5372666824351
 20
-135.3116373359638
 10
110.5372666824351
 20
-135.3116373359638
 10
110.48007809738
 20
-135.3116373359638
 10
110.3278048769319
 20
-135.3159437053203
 10
110.2179063309525
 20
-135.322317131968
 10
110.2179063309525
 20
-135.322317131968
 10
110.2179063309525
 20
-135.1445502049291
 10
110.2179063309525
 20
-135.1445502049291
 10
110.3236707623496
 20
-135.152990688868
 10
110.4676757536331
 20
-135.1572970582246
 10
110.5372666824351
 20
-135.1572970582246
 10
110.5372666824351
 20
-135.1572970582246
 10
110.611336235368
 20
-135.1572970582246
 10
110.611336235368
 20
-135.1572970582246
 10
110.611336235368
 20
-135.1572970582246
 10
110.611336235368
 20
-135.0219048056543
 10
110.611336235368
 20
-135.0219048056543
 10
110.611336235368
 20
-135.0219048056543
 10
110.5668945036083
 20
-135.0219048056543
 10
110.5668945036083
 20
-135.0219048056543
 10
110.4907578933843
 20
-135.0219048056543
 10
110.2981770557588
 20
-135.0239718629454
 10
110.2644151200033
 20
-135.0239718629454
 10
110.2706162918768
 20
-134.9521416220779
 10
110.2792290305899
 20
-134.8716986424974
 10
110.2792290305899
 20
-134.7511203005136
 10
110.2792290305899
 20
-134.7511203005136
 10
110.2792290305899
 20
-134.5776597428313
 10
110.2792290305899
 20
-134.5776597428313
 10
110.2792290305899
 20
-134.5056572471896
 10
110.2706162918768
 20
-134.3850789052058
 10
110.2644151200033
 20
-134.3048081803995
 10
110.3426187875185
 20
-134.3089422949818
 10
110.3808593474048
 20
-134.3110093522729
 10
110.507638861262
 20
-134.3110093522729
 10
110.507638861262
 20
-134.3110093522729
 10
110.611336235368
 20
-134.3110093522729
 10
110.611336235368
 20
-134.3110093522729
 10
110.611336235368
 20
-134.3110093522729
 10
110.611336235368
 20
-134.1651095584726
 10
110.611336235368
 20
-134.1651095584726
 10
110.611336235368
 20
-134.1651095584726
 10
110.5331325678528
 20
-134.1651095584726
 10
110.5331325678528
 20
-134.1651095584726
 10
110.4780110400888
 20
-134.1651095584726
 10
110.3064452849234
 20
-134.1694159278292
 10
110.2220404455348
 20
-134.1756170997026
 10
110.2220404455348
 20
-134.1756170997026
 10
110.2220404455348
 20
-133.998022427438
 10
110.2220404455348
 20
-133.998022427438
 10
110.3043782276322
 20
-134.0043958540857
 10
110.4676757536331
 20
-134.008529968668
 10
110.5331325678528
 20
-134.008529968668
 10
110.5331325678528
 20
-134.008529968668
 10
110.611336235368
 20
-134.008529968668
 10
110.611336235368
 20
-134.008529968668
 10
110.611336235368
 20
-133.9747680329126
 10
110.6068576112372
 20
-133.8202555003991
 10
110.6068576112372
 20
-133.7885606219348
 10
110.6068576112372
 20
-133.7885606219348
 10
110.8039170729935
 20
-133.8054415898125
 10
110.8039170729935
 20
-133.8054415898125
 10
110.8207980408712
 20
-133.8075086471037
 10
110.8418131233312
 20
-133.8097479591691
 10
110.8418131233312
 20
-133.8307630416291
 10
110.8418131233312
 20
-133.8541896909288
 10
110.8207980408712
 20
-133.8626301748677
 10
110.7932372769892
 20
-133.8752047733888
 10
110.7932372769892
 20
-133.8963921106231
 10
110.791170219698
 20
-133.9916490007903
 10
110.791170219698
 20
-134.008529968668
 10
110.791170219698
 20
-134.008529968668
 10
110.8504258620443
 20
-134.008529968668
 10
110.8504258620443
 20
-134.008529968668
 10
110.9182942431038
 20
-134.008529968668
 10
111.0619547248387
 20
-134.0043958540857
 10
111.1677191562358
 20
-133.998022427438
 10
111.1677191562358
 20
-133.998022427438
 10
111.1677191562358
 20
-134.1756170997026
 10
111.1677191562358
 20
-134.1756170997026
 10
111.0705674635518
 20
-134.1694159278292
 10
110.9138156189729
 20
-134.1651095584726
 10
110.8504258620443
 20
-134.1651095584726
 10
110.8504258620443
 20
-134.1651095584726
 10
110.7825574809849
 20
-134.1651095584726
 10
110.7825574809849
 20
-134.1651095584726
 10
110.7825574809849
 20
-134.1651095584726
 10
110.7825574809849
 20
-134.3110093522729
 10
110.7825574809849
 20
-134.3110093522729
 10
110.7825574809849
 20
-134.3110093522729
 10
110.8524929193355
 20
-134.3110093522729
 10
110.8524929193355
 20
-134.3110093522729
 10
111.0026990824924
 20
-134.3110093522729
 10
111.0747015781341
 20
-134.3068752376907
 10
111.1360242777716
 20
-134.3048081803995
 10
111.127756048607
 20
-134.3998928157924
 10
111.1253444817673
 20
-134.4782687380818
 10
111.1232774244761
 20
-134.5163370431938
 10
111.2779622117638
 20
-134.3048081803995
 10
111.3833821336125
 20
-134.0572780697843
 10
111.4006076110387
 20
-133.7949340485825
 10
111.4006076110387
 20
-133.7949340485825
 10
111.6162705884154
 20
-133.8455769522157
 10
111.6162705884154
 20
-133.8455769522157
 10
111.631084499002
 20
-133.8498833215723
 10
111.6458984095885
 20
-133.85625674822
 10
111.6458984095885
 20
-133.8731377160977
 10
111.6458984095885
 20
-133.8900186839754
 10
111.6417642950062
 20
-133.8922579960408
 10
111.5907768818245
 20
-133.9132730785009
 10
111.5738959139468
 20
-133.9895819434991
 10
111.5487467169045
 20
-134.0805324643097
 10
111.4998263610139
 20
-134.2074842329412
 10
111.4998263610139
 20
-134.2074842329412
 10
111.8381347376655
 20
-134.2074842329412
 10
111.8381347376655
 20
-134.2074842329412
 10
111.8763752975517
 20
-134.2074842329412
 10
112.0055663782486
 20
-134.2031778635846
 10
112.0541422245906
 20
-134.1968044369369
 10
112.0541422245906
 20
-134.1968044369369
 10
112.1471598026924
 20
-134.2665676205132
 10
112.1471598026924
 20
-134.2665676205132
 10
112.1385470639793
 20
-134.2877549577475
 10
112.1323458921058
 20
-134.3068752376907
 10
112.1175319815192
 20
-134.3428764855115
 97
        0
 97
        0
 92
        1
 93
        4
 72
     1
 10
110.611336235368
 20
-134.4675889420776
 11
110.452517333498
 21
-134.4675889420776
 72
     1
 10
110.452517333498
 20
-134.4675889420776
 11
110.452517333498
 21
-134.5966077680002
 72
     1
 10
110.452517333498
 20
-134.5966077680002
 11
110.611336235368
 21
-134.5966077680002
 72
     1
 10
110.611336235368
 20
-134.5966077680002
 11
110.611336235368
 21
-134.4675889420776
 97
        0
 92
        1
 93
        4
 72
     1
 10
110.611336235368
 20
-134.7404405045093
 11
110.452517333498
 21
-134.7404405045093
 72
     1
 10
110.452517333498
 20
-134.7404405045093
 11
110.452517333498
 21
-134.8696315852062
 72
     1
 10
110.452517333498
 20
-134.8696315852062
 11
110.611336235368
 21
-134.8696315852062
 72
     1
 10
110.611336235368
 20
-134.8696315852062
 11
110.611336235368
 21
-134.7404405045093
 97
        0
 92
        1
 93
        4
 72
     1
 10
110.9434434401461
 20
-134.4675889420776
 11
110.7825574809849
 21
-134.4675889420776
 72
     1
 10
110.7825574809849
 20
-134.4675889420776
 11
110.7825574809849
 21
-134.5966077680002
 72
     1
 10
110.7825574809849
 20
-134.5966077680002
 11
110.9434434401461
 21
-134.5966077680002
 72
     1
 10
110.9434434401461
 20
-134.5966077680002
 11
110.9434434401461
 21
-134.4675889420776
 97
        0
 92
        1
 93
        4
 72
     1
 10
110.9434434401461
 20
-134.7404405045093
 11
110.7825574809849
 21
-134.7404405045093
 72
     1
 10
110.7825574809849
 20
-134.7404405045093
 11
110.7825574809849
 21
-134.8696315852062
 72
     1
 10
110.7825574809849
 20
-134.8696315852062
 11
110.9434434401461
 21
-134.8696315852062
 72
     1
 10
110.9434434401461
 20
-134.8696315852062
 11
110.9434434401461
 21
-134.7404405045093
 97
        0
 92
        1
 93
        1
 72
     4
 94
        3
 73
     0
 74
     1
 95
       41
 96
       37
 40
0.0
 40
0.0
 40
0.0
 40
0.0
 40
1.0
 40
1.0
 40
1.0
 40
2.0
 40
2.0
 40
2.0
 40
3.0
 40
3.0
 40
3.0
 40
4.0
 40
4.0
 40
4.0
 40
5.0
 40
5.0
 40
5.0
 40
6.0
 40
6.0
 40
6.0
 40
7.0
 40
7.0
 40
7.0
 40
8.0
 40
8.0
 40
8.0
 40
9.0
 40
9.0
 40
9.0
 40
10.0
 40
10.0
 40
10.0
 40
11.0
 40
11.0
 40
11.0
 40
12.0
 40
12.0
 40
12.0
 40
12.0
 10
112.0331271421306
 20
-135.6988660685059
 10
111.7919704581631
 20
-135.5634738159355
 10
111.6142035311242
 20
-135.267195604204
 10
111.5738959139468
 20
-135.1381767782814
 10
111.4533175719631
 20
-135.4025878567743
 10
111.2903645555107
 20
-135.5803547838132
 10
111.1084635138896
 20
-135.6945596991493
 10
111.1084635138896
 20
-135.6945596991493
 10
110.9117485616818
 20
-135.5571003892878
 10
110.9117485616818
 20
-135.5571003892878
 10
110.9816840000324
 20
-135.5317789374712
 10
111.127756048607
 20
-135.4702839830595
 10
111.2504014478819
 20
-135.3159437053203
 10
111.3751139044479
 20
-135.1593641155157
 10
111.4639973679673
 20
-134.9266479154871
 10
111.4639973679673
 20
-134.6665432063507
 10
111.4639973679673
 20
-134.5649128895359
 10
111.4512505146719
 20
-134.4930826486684
 10
111.4405707186676
 20
-134.4464016048433
 10
111.4405707186676
 20
-134.4464016048433
 10
111.6458984095885
 20
-134.4675889420776
 10
111.6458984095885
 20
-134.4675889420776
 10
111.6669134920486
 20
-134.4696559993687
 10
111.6879285745086
 20
-134.4718953114341
 10
111.6879285745086
 20
-134.4930826486684
 10
111.6879285745086
 20
-134.5120306738373
 10
111.6775932880528
 20
-134.5204711577761
 10
111.6438313522974
 20
-134.5416584950104
 10
111.6352186135843
 20
-134.7426798165748
 10
111.6924071986394
 20
-134.9859035578334
 10
111.7537298982768
 20
-135.1064818998171
 10
111.8446804190875
 20
-135.2820095147906
 10
112.0393283140041
 20
-135.4618434991206
 10
112.1747205665744
 20
-135.5190320841758
 10
112.1747205665744
 20
-135.5190320841758
 10
112.0331271421306
 20
-135.6988660685059
 10
112.0331271421306
 20
-135.6988660685059
 97
        0
 97
        0
 75
     2
 76
     1
 98
        0
  0
SPLINE
  5
144
330
121
100
AcDbEntity
  8
_U+30EC_U+30A4_U+30E4_U+30FC 1
370
     0
100
AcDbSpline
210
0.0
220
0.0
230
1.0
 70
    11
 71
     3
 72
    71
 73
    67
 74
     0
 42
0.0000000001
 43
0.0000000001
 12
1.0
 22
0.0
 32
0.0
 13
1.0
 23
0.0
 33
0.0
 40
0.0
 40
0.0
 40
0.0
 40
0.0
 40
1.0
 40
1.0
 40
1.0
 40
2.0
 40
2.0
 40
2.0
 40
3.0
 40
3.0
 40
3.0
 40
4.0
 40
4.0
 40
4.0
 40
5.0
 40
5.0
 40
5.0
 40
6.0
 40
6.0
 40
6.0
 40
7.0
 40
7.0
 40
7.0
 40
8.0
 40
8.0
 40
8.0
 40
9.0
 40
9.0
 40
9.0
 40
10.0
 40
10.0
 40
10.0
 40
11.0
 40
11.0
 40
11.0
 40
12.0
 40
12.0
 40
12.0
 40
13.0
 40
13.0
 40
13.0
 40
14.0
 40
14.0
 40
14.0
 40
15.0
 40
15.0
 40
15.0
 40
16.0
 40
16.0
 40
16.0
 40
17.0
 40
17.0
 40
17.0
 40
18.0
 40
18.0
 40
18.0
 40
19.0
 40
19.0
 40
19.0
 40
20.0
 40
20.0
 40
20.0
 40
21.0
 40
21.0
 40
21.0
 40
22.0
 40
22.0
 40
22.0
 40
22.0
 10
113.2271972373182
 20
-133.9661552941994
 30
0.0
 10
113.2123833267316
 20
-133.9661552941994
 30
0.0
 10
113.1996364734362
 20
-133.9620211796172
 30
0.0
 10
113.1741427668454
 20
-133.9535806956783
 30
0.0
 10
113.0325493424016
 20
-134.0000894847292
 30
0.0
 10
112.8592610394935
 20
-134.0169704526069
 30
0.0
 10
112.7193901627924
 20
-134.0212768219634
 30
0.0
 10
112.7193901627924
 20
-134.0212768219634
 30
0.0
 10
112.7173231055012
 20
-134.1101602854829
 30
0.0
 10
112.7173231055012
 20
-134.1101602854829
 30
0.0
 10
112.7173231055012
 20
-134.1101602854829
 30
0.0
 10
112.9777723241861
 20
-134.1101602854829
 30
0.0
 10
112.9777723241861
 20
-134.1101602854829
 30
0.0
 10
113.0304822851104
 20
-134.1101602854829
 30
0.0
 10
113.2123833267316
 20
-134.1015475467698
 30
0.0
 10
113.2568250584914
 20
-134.0953463748963
 30
0.0
 10
113.2568250584914
 20
-134.0953463748963
 30
0.0
 10
113.2568250584914
 20
-134.2560600792832
 30
0.0
 10
113.2568250584914
 20
-134.2560600792832
 30
0.0
 10
113.2017035307274
 20
-134.2496866526355
 30
0.0
 10
113.0769910741613
 20
-134.2476195953444
 30
0.0
 10
113.0390950238236
 20
-134.2496866526355
 30
0.0
 10
113.0390950238236
 20
-134.2496866526355
 30
0.0
 10
113.0390950238236
 20
-134.3597574533892
 30
0.0
 10
113.0390950238236
 20
-134.3597574533892
 30
0.0
 10
113.0390950238236
 20
-134.4062662424401
 30
0.0
 10
113.0411620811147
 20
-134.4696559993687
 30
0.0
 10
113.0473632529882
 20
-134.5077243044807
 30
0.0
 10
113.0473632529882
 20
-134.5077243044807
 30
0.0
 10
112.8551269249112
 20
-134.5077243044807
 30
0.0
 10
112.8551269249112
 20
-134.5077243044807
 30
0.0
 10
112.8613280967847
 20
-134.4675889420776
 30
0.0
 10
112.8675292686581
 20
-134.3850789052058
 30
0.0
 10
112.8675292686581
 20
-134.3702649946192
 30
0.0
 10
112.8675292686581
 20
-134.3702649946192
 30
0.0
 10
112.8675292686581
 20
-134.2496866526355
 30
0.0
 10
112.8675292686581
 20
-134.2496866526355
 30
0.0
 10
112.8675292686581
 20
-134.2496866526355
 30
0.0
 10
112.7028537044632
 20
-134.2496866526355
 30
0.0
 10
112.7028537044632
 20
-134.2496866526355
 30
0.0
 10
112.6601345204461
 20
-134.4696559993687
 30
0.0
 10
112.6053575022306
 20
-134.5500989789493
 30
0.0
 10
112.4995930708334
 20
-134.6494899836987
 30
0.0
 10
112.4995930708334
 20
-134.6494899836987
 30
0.0
 10
112.3321614302503
 20
-134.5352850683627
 30
0.0
 10
112.3321614302503
 20
-134.5352850683627
 30
0.0
 10
112.3958956967274
 20
-134.4867092220207
 30
0.0
 10
112.5461018598843
 20
-134.3745713639758
 30
0.0
 10
112.5461018598843
 20
-134.0254109365457
 30
0.0
 10
112.5461018598843
 20
-133.942900899674
 30
0.0
 10
112.5374891211712
 20
-133.8963921106231
 30
0.0
 10
112.5292208920066
 20
-133.8478162642811
 30
0.0
 10
112.6752929405812
 20
-133.8626301748677
 30
0.0
 10
112.6897623416192
 20
-133.8626301748677
 30
0.0
 10
112.7259358442143
 20
-133.8626301748677
 30
0.0
 10
112.8337673329027
 20
-133.8626301748677
 30
0.0
 10
112.975705266895
 20
-133.8455769522157
 30
0.0
 10
113.1362467165076
 20
-133.7842542525783
 30
0.0
 10
113.1362467165076
 20
-133.7842542525783
 30
0.0
 10
113.2506238866179
 20
-133.9155123905663
 30
0.0
 10
113.2506238866179
 20
-133.9155123905663
 30
0.0
 10
113.2568250584914
 20
-133.921885817214
 30
0.0
 10
113.2609591730737
 20
-133.9303263011528
 30
0.0
 10
113.2609591730737
 20
-133.9387667850917
 30
0.0
 10
113.2609591730737
 20
-133.9620211796172
 30
0.0
 10
113.2420111479048
 20
-133.9661552941994
 30
0.0
 10
113.2271972373182
 20
-133.9661552941994
 30
0.0
  0
SPLINE
  5
145
330
121
100
AcDbEntity
  8
_U+30EC_U+30A4_U+30E4_U+30FC 1
370
     0
100
AcDbSpline
210
0.0
220
0.0
230
1.0
 70
    11
 71
     3
 72
    74
 73
    70
 74
     0
 42
0.0000000001
 43
0.0000000001
 12
1.0
 22
0.0
 32
0.0
 13
1.0
 23
0.0
 33
0.0
 40
0.0
 40
0.0
 40
0.0
 40
0.0
 40
1.0
 40
1.0
 40
1.0
 40
2.0
 40
2.0
 40
2.0
 40
3.0
 40
3.0
 40
3.0
 40
4.0
 40
4.0
 40
4.0
 40
5.0
 40
5.0
 40
5.0
 40
6.0
 40
6.0
 40
6.0
 40
7.0
 40
7.0
 40
7.0
 40
8.0
 40
8.0
 40
8.0
 40
9.0
 40
9.0
 40
9.0
 40
10.0
 40
10.0
 40
10.0
 40
11.0
 40
11.0
 40
11.0
 40
12.0
 40
12.0
 40
12.0
 40
13.0
 40
13.0
 40
13.0
 40
14.0
 40
14.0
 40
14.0
 40
15.0
 40
15.0
 40
15.0
 40
16.0
 40
16.0
 40
16.0
 40
17.0
 40
17.0
 40
17.0
 40
18.0
 40
18.0
 40
18.0
 40
19.0
 40
19.0
 40
19.0
 40
20.0
 40
20.0
 40
20.0
 40
21.0
 40
21.0
 40
21.0
 40
22.0
 40
22.0
 40
22.0
 40
23.0
 40
23.0
 40
23.0
 40
23.0
 10
114.065044459331
 20
-135.7326280042613
 30
0.0
 10
113.8514485392455
 20
-135.7221204630313
 30
0.0
 10
113.6502549629069
 20
-135.635304056803
 30
0.0
 10
113.4745550931591
 20
-135.5147257148192
 30
0.0
 10
113.4745550931591
 20
-135.5147257148192
 30
0.0
 10
113.5720512953917
 20
-135.4280815633652
 30
0.0
 10
113.5720512953917
 20
-135.4280815633652
 30
0.0
 10
113.5720512953917
 20
-135.4280815633652
 30
0.0
 10
113.0198024891062
 20
-135.4280815633652
 30
0.0
 10
113.0198024891062
 20
-135.4280815633652
 30
0.0
 10
113.0198024891062
 20
-135.4280815633652
 30
0.0
 10
113.100417723461
 20
-135.4914713202938
 30
0.0
 10
113.100417723461
 20
-135.4914713202938
 30
0.0
 10
113.1066188953345
 20
-135.4957776896504
 30
0.0
 10
113.1172986913387
 20
-135.5062852308804
 30
0.0
 10
113.1172986913387
 20
-135.5210991414669
 30
0.0
 10
113.1172986913387
 20
-135.5614067586444
 30
0.0
 10
113.0432291384059
 20
-135.5550333319967
 30
0.0
 10
113.0284152278193
 20
-135.5527940199312
 30
0.0
 10
112.7979383398561
 20
-135.6924926418581
 30
0.0
 10
112.6539333485726
 20
-135.7241875203224
 30
0.0
 10
112.5502359744666
 20
-135.7410684882001
 30
0.0
 10
112.5502359744666
 20
-135.7410684882001
 30
0.0
 10
112.4210448937697
 20
-135.5634738159355
 30
0.0
 10
112.4210448937697
 20
-135.5634738159355
 30
0.0
 10
112.6687472591592
 20
-135.5317789374712
 30
0.0
 10
112.7703775759741
 20
-135.4850978936461
 30
0.0
 10
112.8592610394935
 20
-135.4322156779475
 30
0.0
 10
112.7851914865606
 20
-135.4344549900129
 30
0.0
 10
112.6708143164504
 20
-135.4365220473041
 30
0.0
 10
112.6391194379861
 20
-135.4385891045952
 30
0.0
 10
112.6539333485726
 20
-135.3497056410758
 30
0.0
 10
112.6560004058638
 20
-135.2206868151532
 30
0.0
 10
112.6560004058638
 20
-135.1466172622203
 30
0.0
 10
112.6560004058638
 20
-135.1466172622203
 30
0.0
 10
112.6560004058638
 20
-134.8463771906808
 30
0.0
 10
112.6560004058638
 20
-134.8463771906808
 30
0.0
 10
112.6560004058638
 20
-134.746813931157
 30
0.0
 10
112.6497992339903
 20
-134.6474229264076
 30
0.0
 10
112.6391194379861
 20
-134.5500989789493
 30
0.0
 10
112.7407497548009
 20
-134.556472405597
 30
0.0
 10
112.9712266427641
 20
-134.5628458322447
 30
0.0
 10
113.0790581314525
 20
-134.5628458322447
 30
0.0
 10
113.0790581314525
 20
-134.5628458322447
 30
0.0
 10
113.5021158570411
 20
-134.5628458322447
 30
0.0
 10
113.5021158570411
 20
-134.5628458322447
 30
0.0
 10
113.6206271417337
 20
-134.5628458322447
 30
0.0
 10
113.6630018162023
 20
-134.5628458322447
 30
0.0
 10
113.7453395982998
 20
-134.5585394628881
 30
0.0
 10
113.8934787041655
 20
-134.5521660362404
 30
0.0
 10
113.9107041815918
 20
-134.5521660362404
 30
0.0
 10
113.9568684610941
 20
-134.5500989789493
 30
0.0
 10
113.9486002319295
 20
-134.6305419585299
 30
0.0
 10
113.9444661173472
 20
-134.7891886056256
 30
0.0
 10
113.9444661173472
 20
-134.8716986424974
 30
0.0
 10
113.9444661173472
 20
-134.8716986424974
 30
0.0
 10
113.9444661173472
 20
-135.1572970582246
 30
0.0
 10
113.9444661173472
 20
-135.1572970582246
 30
0.0
 10
113.9444661173472
 20
-135.229127299092
 30
0.0
 10
113.9465331746384
 20
-135.3603854370801
 30
0.0
 10
113.9568684610941
 20
-135.4385891045952
 30
0.0
 10
113.8852104750009
 20
-135.4344549900129
 30
0.0
 10
113.762565075726
 20
-135.4322156779475
 30
0.0
 10
113.6840168986623
 20
-135.4301486206564
 30
0.0
 10
113.7942599541903
 20
-135.4978447469415
 30
0.0
 10
113.9465331746384
 20
-135.548659905349
 30
0.0
 10
114.1580620374327
 20
-135.5527940199312
 30
0.0
 10
114.1580620374327
 20
-135.5527940199312
 30
0.0
 10
114.065044459331
 20
-135.7326280042613
 30
0.0
 10
114.065044459331
 20
-135.7326280042613
 30
0.0
  0
POLYLINE
  5
146
330
121
100
AcDbEntity
  8
_U+30EC_U+30A4_U+30E4_U+30FC 1
370
     0
100
AcDb2dPolyline
 66
     1
 10
0.0
 20
0.0
 30
0.0
  0
VERTEX
  5
147
330
146
100
AcDbEntity
  8
_U+30EC_U+30A4_U+30E4_U+30FC 1
370
     0
100
AcDbVertex
100
AcDb2dVertex
 10
113.7604980184349
 20
-134.698238084815
 30
0.0
  0
VERTEX
  5
148
330
146
100
AcDbEntity
  8
_U+30EC_U+30A4_U+30E4_U+30FC 1
370
     0
100
AcDbVertex
100
AcDb2dVertex
 10
112.8485812434892
 20
-134.698238084815
 30
0.0
  0
VERTEX
  5
149
330
146
100
AcDbEntity
  8
_U+30EC_U+30A4_U+30E4_U+30FC 1
370
     0
100
AcDbVertex
100
AcDb2dVertex
 10
112.8485812434892
 20
-134.8103759428599
 30
0.0
  0
VERTEX
  5
14A
330
146
100
AcDbEntity
  8
_U+30EC_U+30A4_U+30E4_U+30FC 1
370
     0
100
AcDbVertex
100
AcDb2dVertex
 10
113.7604980184349
 20
-134.8103759428599
 30
0.0
  0
VERTEX
  5
14B
330
146
100
AcDbEntity
  8
_U+30EC_U+30A4_U+30E4_U+30FC 1
370
     0
100
AcDbVertex
100
AcDb2dVertex
 10
113.7604980184349
 20
-134.698238084815
 30
0.0
  0
SEQEND
  5
14C
330
146
100
AcDbEntity
  8
_U+30EC_U+30A4_U+30E4_U+30FC 1
370
     0
  0
POLYLINE
  5
14D
330
121
100
AcDbEntity
  8
_U+30EC_U+30A4_U+30E4_U+30FC 1
370
     0
100
AcDb2dPolyline
 66
     1
 10
0.0
 20
0.0
 30
0.0
  0
VERTEX
  5
14E
330
14D
100
AcDbEntity
  8
_U+30EC_U+30A4_U+30E4_U+30FC 1
370
     0
100
AcDbVertex
100
AcDb2dVertex
 10
113.7604980184349
 20
-134.9435288833648
 30
0.0
  0
VERTEX
  5
14F
330
14D
100
AcDbEntity
  8
_U+30EC_U+30A4_U+30E4_U+30FC 1
370
     0
100
AcDbVertex
100
AcDb2dVertex
 10
112.8485812434892
 20
-134.9435288833648
 30
0.0
  0
VERTEX
  5
150
330
14D
100
AcDbEntity
  8
_U+30EC_U+30A4_U+30E4_U+30FC 1
370
     0
100
AcDbVertex
100
AcDb2dVertex
 10
112.8485812434892
 20
-135.0535996841186
 30
0.0
  0
VERTEX
  5
151
330
14D
100
AcDbEntity
  8
_U+30EC_U+30A4_U+30E4_U+30FC 1
370
     0
100
AcDbVertex
100
AcDb2dVertex
 10
113.7604980184349
 20
-135.0535996841186
 30
0.0
  0
VERTEX
  5
152
330
14D
100
AcDbEntity
  8
_U+30EC_U+30A4_U+30E4_U+30FC 1
370
     0
100
AcDbVertex
100
AcDb2dVertex
 10
113.7604980184349
 20
-134.9435288833648
 30
0.0
  0
SEQEND
  5
153
330
14D
100
AcDbEntity
  8
_U+30EC_U+30A4_U+30E4_U+30FC 1
370
     0
  0
POLYLINE
  5
154
330
121
100
AcDbEntity
  8
_U+30EC_U+30A4_U+30E4_U+30FC 1
370
     0
100
AcDb2dPolyline
 66
     1
 10
0.0
 20
0.0
 30
0.0
  0
VERTEX
  5
155
330
154
100
AcDbEntity
  8
_U+30EC_U+30A4_U+30E4_U+30FC 1
370
     0
100
AcDbVertex
100
AcDb2dVertex
 10
113.7604980184349
 20
-135.1889919366889
 30
0.0
  0
VERTEX
  5
156
330
154
100
AcDbEntity
  8
_U+30EC_U+30A4_U+30E4_U+30FC 1
370
     0
100
AcDbVertex
100
AcDb2dVertex
 10
112.8485812434892
 20
-135.1889919366889
 30
0.0
  0
VERTEX
  5
157
330
154
100
AcDbEntity
  8
_U+30EC_U+30A4_U+30E4_U+30FC 1
370
     0
100
AcDbVertex
100
AcDb2dVertex
 10
112.8485812434892
 20
-135.2968234253772
 30
0.0
  0
VERTEX
  5
158
330
154
100
AcDbEntity
  8
_U+30EC_U+30A4_U+30E4_U+30FC 1
370
     0
100
AcDbVertex
100
AcDb2dVertex
 10
113.7604980184349
 20
-135.2968234253772
 30
0.0
  0
VERTEX
  5
159
330
154
100
AcDbEntity
  8
_U+30EC_U+30A4_U+30E4_U+30FC 1
370
     0
100
AcDbVertex
100
AcDb2dVertex
 10
113.7604980184349
 20
-135.1889919366889
 30
0.0
  0
SEQEND
  5
15A
330
154
100
AcDbEntity
  8
_U+30EC_U+30A4_U+30E4_U+30FC 1
370
     0
  0
SPLINE
  5
15B
330
121
100
AcDbEntity
  8
_U+30EC_U+30A4_U+30E4_U+30FC 1
370
     0
100
AcDbSpline
210
0.0
220
0.0
230
1.0
 70
    11
 71
     3
 72
    74
 73
    70
 74
     0
 42
0.0000000001
 43
0.0000000001
 12
1.0
 22
0.0
 32
0.0
 13
1.0
 23
0.0
 33
0.0
 40
0.0
 40
0.0
 40
0.0
 40
0.0
 40
1.0
 40
1.0
 40
1.0
 40
2.0
 40
2.0
 40
2.0
 40
3.0
 40
3.0
 40
3.0
 40
4.0
 40
4.0
 40
4.0
 40
5.0
 40
5.0
 40
5.0
 40
6.0
 40
6.0
 40
6.0
 40
7.0
 40
7.0
 40
7.0
 40
8.0
 40
8.0
 40
8.0
 40
9.0
 40
9.0
 40
9.0
 40
10.0
 40
10.0
 40
10.0
 40
11.0
 40
11.0
 40
11.0
 40
12.0
 40
12.0
 40
12.0
 40
13.0
 40
13.0
 40
13.0
 40
14.0
 40
14.0
 40
14.0
 40
15.0
 40
15.0
 40
15.0
 40
16.0
 40
16.0
 40
16.0
 40
17.0
 40
17.0
 40
17.0
 40
18.0
 40
18.0
 40
18.0
 40
19.0
 40
19.0
 40
19.0
 40
20.0
 40
20.0
 40
20.0
 40
21.0
 40
21.0
 40
21.0
 40
22.0
 40
22.0
 40
22.0
 40
23.0
 40
23.0
 40
23.0
 40
23.0
 10
114.0774468030779
 20
-134.2455525380532
 30
0.0
 10
114.0774468030779
 20
-134.2455525380532
 30
0.0
 10
113.9169053534652
 20
-134.2455525380532
 30
0.0
 10
113.9169053534652
 20
-134.2455525380532
 30
0.0
 10
113.9169053534652
 20
-134.2455525380532
 30
0.0
 10
113.9169053534652
 20
-134.3597574533892
 30
0.0
 10
113.9169053534652
 20
-134.3597574533892
 30
0.0
 10
113.9169053534652
 20
-134.3998928157924
 30
0.0
 10
113.9231065253387
 20
-134.4739623687253
 30
0.0
 10
113.927240639921
 20
-134.4992838205418
 30
0.0
 10
113.927240639921
 20
-134.4992838205418
 30
0.0
 10
113.7157117771266
 20
-134.4992838205418
 30
0.0
 10
113.7157117771266
 20
-134.4992838205418
 30
0.0
 10
113.7267360826794
 20
-134.4338270063221
 30
0.0
 10
113.7288031399706
 20
-134.3745713639758
 30
0.0
 10
113.7288031399706
 20
-134.3723320519104
 30
0.0
 10
113.7288031399706
 20
-134.3723320519104
 30
0.0
 10
113.7288031399706
 20
-134.2496866526355
 30
0.0
 10
113.7288031399706
 20
-134.2496866526355
 30
0.0
 10
113.7288031399706
 20
-134.2496866526355
 30
0.0
 10
113.5489691556405
 20
-134.2496866526355
 30
0.0
 10
113.5489691556405
 20
-134.2496866526355
 30
0.0
 10
113.5296766209231
 20
-134.3089422949818
 30
0.0
 10
113.4831678318723
 20
-134.4548420887821
 30
0.0
 10
113.3691351713105
 20
-134.5373521256539
 30
0.0
 10
113.3691351713105
 20
-134.5373521256539
 30
0.0
 10
113.2123833267316
 20
-134.4315876942567
 30
0.0
 10
113.2123833267316
 20
-134.4315876942567
 30
0.0
 10
113.2864528796645
 20
-134.3850789052058
 30
0.0
 10
113.402897107066
 20
-134.3110093522729
 30
0.0
 10
113.402897107066
 20
-133.9895819434991
 30
0.0
 10
113.402897107066
 20
-133.9344604157351
 30
0.0
 10
113.3987629924837
 20
-133.8900186839754
 30
0.0
 10
113.3966959351925
 20
-133.8519503788634
 30
0.0
 10
113.472488035868
 20
-133.8603908628023
 30
0.0
 10
113.5469020983494
 20
-133.86676428945
 30
0.0
 10
113.610291855278
 20
-133.86676428945
 30
0.0
 10
113.7880587823169
 20
-133.86676428945
 30
0.0
 10
113.9864962822673
 20
-133.8075086471037
 30
0.0
 10
114.0478189819047
 20
-133.7778808259305
 30
0.0
 10
114.0478189819047
 20
-133.7778808259305
 30
0.0
 10
114.1749430053104
 20
-133.9132730785009
 30
0.0
 10
114.1749430053104
 20
-133.9132730785009
 30
0.0
 10
114.1794216294413
 20
-133.9175794478574
 30
0.0
 10
114.1814886867324
 20
-133.9260199317963
 30
0.0
 10
114.1814886867324
 20
-133.932393358444
 30
0.0
 10
114.1814886867324
 20
-133.9535806956783
 30
0.0
 10
114.1663302665973
 20
-133.959954122326
 30
0.0
 10
114.1497938082681
 20
-133.959954122326
 30
0.0
 10
114.1284342162596
 20
-133.959954122326
 30
0.0
 10
114.113620305673
 20
-133.9515136383871
 30
0.0
 10
114.0946722805041
 20
-133.9408338423829
 30
0.0
 10
113.9210394680475
 20
-133.998022427438
 30
0.0
 10
113.7033094333797
 20
-134.0233438792546
 30
0.0
 10
113.5699842381006
 20
-134.0254109365457
 30
0.0
 10
113.5699842381006
 20
-134.0254109365457
 30
0.0
 10
113.5655056139697
 20
-134.1079209734175
 30
0.0
 10
113.5655056139697
 20
-134.1079209734175
 30
0.0
 10
113.5655056139697
 20
-134.1079209734175
 30
0.0
 10
113.8387016859501
 20
-134.1079209734175
 30
0.0
 10
113.8387016859501
 20
-134.1079209734175
 30
0.0
 10
113.8955457614567
 20
-134.1079209734175
 30
0.0
 10
114.1580620374327
 20
-134.0889729482486
 30
0.0
 10
114.2025037691924
 20
-134.0825995216009
 30
0.0
 10
114.2025037691924
 20
-134.0825995216009
 30
0.0
 10
114.2025037691924
 20
-134.2517537099266
 30
0.0
 10
114.2025037691924
 20
-134.2517537099266
 30
0.0
 10
114.168741833437
 20
-134.2476195953444
 30
0.0
 10
114.1559949801416
 20
-134.2455525380532
 30
0.0
 10
114.0774468030779
 20
-134.2455525380532
 30
0.0
  0
HATCH
  5
15C
330
121
100
AcDbEntity
  8
_U+30EC_U+30A4_U+30E4_U+30FC 1
 62
   179
420
  2234388
100
AcDbHatch
 10
0.0
 20
0.0
 30
0.0
210
0.0
220
0.0
230
1.0
  2
SOLID
 70
     1
 71
     0
 91
        6
 92
        1
 93
        1
 72
     4
 94
        3
 73
     0
 74
     1
 95
       71
 96
       67
 40
0.0
 40
0.0
 40
0.0
 40
0.0
 40
1.0
 40
1.0
 40
1.0
 40
2.0
 40
2.0
 40
2.0
 40
3.0
 40
3.0
 40
3.0
 40
4.0
 40
4.0
 40
4.0
 40
5.0
 40
5.0
 40
5.0
 40
6.0
 40
6.0
 40
6.0
 40
7.0
 40
7.0
 40
7.0
 40
8.0
 40
8.0
 40
8.0
 40
9.0
 40
9.0
 40
9.0
 40
10.0
 40
10.0
 40
10.0
 40
11.0
 40
11.0
 40
11.0
 40
12.0
 40
12.0
 40
12.0
 40
13.0
 40
13.0
 40
13.0
 40
14.0
 40
14.0
 40
14.0
 40
15.0
 40
15.0
 40
15.0
 40
16.0
 40
16.0
 40
16.0
 40
17.0
 40
17.0
 40
17.0
 40
18.0
 40
18.0
 40
18.0
 40
19.0
 40
19.0
 40
19.0
 40
20.0
 40
20.0
 40
20.0
 40
21.0
 40
21.0
 40
21.0
 40
22.0
 40
22.0
 40
22.0
 40
22.0
 10
113.2271972373182
 20
-133.9661552941994
 10
113.2123833267316
 20
-133.9661552941994
 10
113.1996364734362
 20
-133.9620211796172
 10
113.1741427668454
 20
-133.9535806956783
 10
113.0325493424016
 20
-134.0000894847292
 10
112.8592610394935
 20
-134.0169704526069
 10
112.7193901627924
 20
-134.0212768219634
 10
112.7193901627924
 20
-134.0212768219634
 10
112.7173231055012
 20
-134.1101602854829
 10
112.7173231055012
 20
-134.1101602854829
 10
112.7173231055012
 20
-134.1101602854829
 10
112.9777723241861
 20
-134.1101602854829
 10
112.9777723241861
 20
-134.1101602854829
 10
113.0304822851104
 20
-134.1101602854829
 10
113.2123833267316
 20
-134.1015475467698
 10
113.2568250584914
 20
-134.0953463748963
 10
113.2568250584914
 20
-134.0953463748963
 10
113.2568250584914
 20
-134.2560600792832
 10
113.2568250584914
 20
-134.2560600792832
 10
113.2017035307274
 20
-134.2496866526355
 10
113.0769910741613
 20
-134.2476195953444
 10
113.0390950238236
 20
-134.2496866526355
 10
113.0390950238236
 20
-134.2496866526355
 10
113.0390950238236
 20
-134.3597574533892
 10
113.0390950238236
 20
-134.3597574533892
 10
113.0390950238236
 20
-134.4062662424401
 10
113.0411620811147
 20
-134.4696559993687
 10
113.0473632529882
 20
-134.5077243044807
 10
113.0473632529882
 20
-134.5077243044807
 10
112.8551269249112
 20
-134.5077243044807
 10
112.8551269249112
 20
-134.5077243044807
 10
112.8613280967847
 20
-134.4675889420776
 10
112.8675292686581
 20
-134.3850789052058
 10
112.8675292686581
 20
-134.3702649946192
 10
112.8675292686581
 20
-134.3702649946192
 10
112.8675292686581
 20
-134.2496866526355
 10
112.8675292686581
 20
-134.2496866526355
 10
112.8675292686581
 20
-134.2496866526355
 10
112.7028537044632
 20
-134.2496866526355
 10
112.7028537044632
 20
-134.2496866526355
 10
112.6601345204461
 20
-134.4696559993687
 10
112.6053575022306
 20
-134.5500989789493
 10
112.4995930708334
 20
-134.6494899836987
 10
112.4995930708334
 20
-134.6494899836987
 10
112.3321614302503
 20
-134.5352850683627
 10
112.3321614302503
 20
-134.5352850683627
 10
112.3958956967274
 20
-134.4867092220207
 10
112.5461018598843
 20
-134.3745713639758
 10
112.5461018598843
 20
-134.0254109365457
 10
112.5461018598843
 20
-133.942900899674
 10
112.5374891211712
 20
-133.8963921106231
 10
112.5292208920066
 20
-133.8478162642811
 10
112.6752929405812
 20
-133.8626301748677
 10
112.6897623416192
 20
-133.8626301748677
 10
112.7259358442143
 20
-133.8626301748677
 10
112.8337673329027
 20
-133.8626301748677
 10
112.975705266895
 20
-133.8455769522157
 10
113.1362467165076
 20
-133.7842542525783
 10
113.1362467165076
 20
-133.7842542525783
 10
113.2506238866179
 20
-133.9155123905663
 10
113.2506238866179
 20
-133.9155123905663
 10
113.2568250584914
 20
-133.921885817214
 10
113.2609591730737
 20
-133.9303263011528
 10
113.2609591730737
 20
-133.9387667850917
 10
113.2609591730737
 20
-133.9620211796172
 10
113.2420111479048
 20
-133.9661552941994
 10
113.2271972373182
 20
-133.9661552941994
 97
        0
 97
        0
 92
        1
 93
        1
 72
     4
 94
        3
 73
     0
 74
     1
 95
       74
 96
       70
 40
0.0
 40
0.0
 40
0.0
 40
0.0
 40
1.0
 40
1.0
 40
1.0
 40
2.0
 40
2.0
 40
2.0
 40
3.0
 40
3.0
 40
3.0
 40
4.0
 40
4.0
 40
4.0
 40
5.0
 40
5.0
 40
5.0
 40
6.0
 40
6.0
 40
6.0
 40
7.0
 40
7.0
 40
7.0
 40
8.0
 40
8.0
 40
8.0
 40
9.0
 40
9.0
 40
9.0
 40
10.0
 40
10.0
 40
10.0
 40
11.0
 40
11.0
 40
11.0
 40
12.0
 40
12.0
 40
12.0
 40
13.0
 40
13.0
 40
13.0
 40
14.0
 40
14.0
 40
14.0
 40
15.0
 40
15.0
 40
15.0
 40
16.0
 40
16.0
 40
16.0
 40
17.0
 40
17.0
 40
17.0
 40
18.0
 40
18.0
 40
18.0
 40
19.0
 40
19.0
 40
19.0
 40
20.0
 40
20.0
 40
20.0
 40
21.0
 40
21.0
 40
21.0
 40
22.0
 40
22.0
 40
22.0
 40
23.0
 40
23.0
 40
23.0
 40
23.0
 10
114.065044459331
 20
-135.7326280042613
 10
113.8514485392455
 20
-135.7221204630313
 10
113.6502549629069
 20
-135.635304056803
 10
113.4745550931591
 20
-135.5147257148192
 10
113.4745550931591
 20
-135.5147257148192
 10
113.5720512953917
 20
-135.4280815633652
 10
113.5720512953917
 20
-135.4280815633652
 10
113.5720512953917
 20
-135.4280815633652
 10
113.0198024891062
 20
-135.4280815633652
 10
113.0198024891062
 20
-135.4280815633652
 10
113.0198024891062
 20
-135.4280815633652
 10
113.100417723461
 20
-135.4914713202938
 10
113.100417723461
 20
-135.4914713202938
 10
113.1066188953345
 20
-135.4957776896504
 10
113.1172986913387
 20
-135.5062852308804
 10
113.1172986913387
 20
-135.5210991414669
 10
113.1172986913387
 20
-135.5614067586444
 10
113.0432291384059
 20
-135.5550333319967
 10
113.0284152278193
 20
-135.5527940199312
 10
112.7979383398561
 20
-135.6924926418581
 10
112.6539333485726
 20
-135.7241875203224
 10
112.5502359744666
 20
-135.7410684882001
 10
112.5502359744666
 20
-135.7410684882001
 10
112.4210448937697
 20
-135.5634738159355
 10
112.4210448937697
 20
-135.5634738159355
 10
112.6687472591592
 20
-135.5317789374712
 10
112.7703775759741
 20
-135.4850978936461
 10
112.8592610394935
 20
-135.4322156779475
 10
112.7851914865606
 20
-135.4344549900129
 10
112.6708143164504
 20
-135.4365220473041
 10
112.6391194379861
 20
-135.4385891045952
 10
112.6539333485726
 20
-135.3497056410758
 10
112.6560004058638
 20
-135.2206868151532
 10
112.6560004058638
 20
-135.1466172622203
 10
112.6560004058638
 20
-135.1466172622203
 10
112.6560004058638
 20
-134.8463771906808
 10
112.6560004058638
 20
-134.8463771906808
 10
112.6560004058638
 20
-134.746813931157
 10
112.6497992339903
 20
-134.6474229264076
 10
112.6391194379861
 20
-134.5500989789493
 10
112.7407497548009
 20
-134.556472405597
 10
112.9712266427641
 20
-134.5628458322447
 10
113.0790581314525
 20
-134.5628458322447
 10
113.0790581314525
 20
-134.5628458322447
 10
113.5021158570411
 20
-134.5628458322447
 10
113.5021158570411
 20
-134.5628458322447
 10
113.6206271417337
 20
-134.5628458322447
 10
113.6630018162023
 20
-134.5628458322447
 10
113.7453395982998
 20
-134.5585394628881
 10
113.8934787041655
 20
-134.5521660362404
 10
113.9107041815918
 20
-134.5521660362404
 10
113.9568684610941
 20
-134.5500989789493
 10
113.9486002319295
 20
-134.6305419585299
 10
113.9444661173472
 20
-134.7891886056256
 10
113.9444661173472
 20
-134.8716986424974
 10
113.9444661173472
 20
-134.8716986424974
 10
113.9444661173472
 20
-135.1572970582246
 10
113.9444661173472
 20
-135.1572970582246
 10
113.9444661173472
 20
-135.229127299092
 10
113.9465331746384
 20
-135.3603854370801
 10
113.9568684610941
 20
-135.4385891045952
 10
113.8852104750009
 20
-135.4344549900129
 10
113.762565075726
 20
-135.4322156779475
 10
113.6840168986623
 20
-135.4301486206564
 10
113.7942599541903
 20
-135.4978447469415
 10
113.9465331746384
 20
-135.548659905349
 10
114.1580620374327
 20
-135.5527940199312
 10
114.1580620374327
 20
-135.5527940199312
 10
114.065044459331
 20
-135.7326280042613
 10
114.065044459331
 20
-135.7326280042613
 97
        0
 97
        0
 92
        1
 93
        4
 72
     1
 10
113.7604980184349
 20
-134.698238084815
 11
112.8485812434892
 21
-134.698238084815
 72
     1
 10
112.8485812434892
 20
-134.698238084815
 11
112.8485812434892
 21
-134.8103759428599
 72
     1
 10
112.8485812434892
 20
-134.8103759428599
 11
113.7604980184349
 21
-134.8103759428599
 72
     1
 10
113.7604980184349
 20
-134.8103759428599
 11
113.7604980184349
 21
-134.698238084815
 97
        0
 92
        1
 93
        4
 72
     1
 10
113.7604980184349
 20
-134.9435288833648
 11
112.8485812434892
 21
-134.9435288833648
 72
     1
 10
112.8485812434892
 20
-134.9435288833648
 11
112.8485812434892
 21
-135.0535996841186
 72
     1
 10
112.8485812434892
 20
-135.0535996841186
 11
113.7604980184349
 21
-135.0535996841186
 72
     1
 10
113.7604980184349
 20
-135.0535996841186
 11
113.7604980184349
 21
-134.9435288833648
 97
        0
 92
        1
 93
        4
 72
     1
 10
113.7604980184349
 20
-135.1889919366889
 11
112.8485812434892
 21
-135.1889919366889
 72
     1
 10
112.8485812434892
 20
-135.1889919366889
 11
112.8485812434892
 21
-135.2968234253772
 72
     1
 10
112.8485812434892
 20
-135.2968234253772
 11
113.7604980184349
 21
-135.2968234253772
 72
     1
 10
113.7604980184349
 20
-135.2968234253772
 11
113.7604980184349
 21
-135.1889919366889
 97
        0
 92
        1
 93
        1
 72
     4
 94
        3
 73
     0
 74
     1
 95
       74
 96
       70
 40
0.0
 40
0.0
 40
0.0
 40
0.0
 40
1.0
 40
1.0
 40
1.0
 40
2.0
 40
2.0
 40
2.0
 40
3.0
 40
3.0
 40
3.0
 40
4.0
 40
4.0
 40
4.0
 40
5.0
 40
5.0
 40
5.0
 40
6.0
 40
6.0
 40
6.0
 40
7.0
 40
7.0
 40
7.0
 40
8.0
 40
8.0
 40
8.0
 40
9.0
 40
9.0
 40
9.0
 40
10.0
 40
10.0
 40
10.0
 40
11.0
 40
11.0
 40
11.0
 40
12.0
 40
12.0
 40
12.0
 40
13.0
 40
13.0
 40
13.0
 40
14.0
 40
14.0
 40
14.0
 40
15.0
 40
15.0
 40
15.0
 40
16.0
 40
16.0
 40
16.0
 40
17.0
 40
17.0
 40
17.0
 40
18.0
 40
18.0
 40
18.0
 40
19.0
 40
19.0
 40
19.0
 40
20.0
 40
20.0
 40
20.0
 40
21.0
 40
21.0
 40
21.0
 40
22.0
 40
22.0
 40
22.0
 40
23.0
 40
23.0
 40
23.0
 40
23.0
 10
114.0774468030779
 20
-134.2455525380532
 10
114.0774468030779
 20
-134.2455525380532
 10
113.9169053534652
 20
-134.2455525380532
 10
113.9169053534652
 20
-134.2455525380532
 10
113.9169053534652
 20
-134.2455525380532
 10
113.9169053534652
 20
-134.3597574533892
 10
113.9169053534652
 20
-134.3597574533892
 10
113.9169053534652
 20
-134.3998928157924
 10
113.9231065253387
 20
-134.4739623687253
 10
113.927240639921
 20
-134.4992838205418
 10
113.927240639921
 20
-134.4992838205418
 10
113.7157117771266
 20
-134.4992838205418
 10
113.7157117771266
 20
-134.4992838205418
 10
113.7267360826794
 20
-134.4338270063221
 10
113.7288031399706
 20
-134.3745713639758
 10
113.7288031399706
 20
-134.3723320519104
 10
113.7288031399706
 20
-134.3723320519104
 10
113.7288031399706
 20
-134.2496866526355
 10
113.7288031399706
 20
-134.2496866526355
 10
113.7288031399706
 20
-134.2496866526355
 10
113.5489691556405
 20
-134.2496866526355
 10
113.5489691556405
 20
-134.2496866526355
 10
113.5296766209231
 20
-134.3089422949818
 10
113.4831678318723
 20
-134.4548420887821
 10
113.3691351713105
 20
-134.5373521256539
 10
113.3691351713105
 20
-134.5373521256539
 10
113.2123833267316
 20
-134.4315876942567
 10
113.2123833267316
 20
-134.4315876942567
 10
113.2864528796645
 20
-134.3850789052058
 10
113.402897107066
 20
-134.3110093522729
 10
113.402897107066
 20
-133.9895819434991
 10
113.402897107066
 20
-133.9344604157351
 10
113.3987629924837
 20
-133.8900186839754
 10
113.3966959351925
 20
-133.8519503788634
 10
113.472488035868
 20
-133.8603908628023
 10
113.5469020983494
 20
-133.86676428945
 10
113.610291855278
 20
-133.86676428945
 10
113.7880587823169
 20
-133.86676428945
 10
113.9864962822673
 20
-133.8075086471037
 10
114.0478189819047
 20
-133.7778808259305
 10
114.0478189819047
 20
-133.7778808259305
 10
114.1749430053104
 20
-133.9132730785009
 10
114.1749430053104
 20
-133.9132730785009
 10
114.1794216294413
 20
-133.9175794478574
 10
114.1814886867324
 20
-133.9260199317963
 10
114.1814886867324
 20
-133.932393358444
 10
114.1814886867324
 20
-133.9535806956783
 10
114.1663302665973
 20
-133.959954122326
 10
114.1497938082681
 20
-133.959954122326
 10
114.1284342162596
 20
-133.959954122326
 10
114.113620305673
 20
-133.9515136383871
 10
114.0946722805041
 20
-133.9408338423829
 10
113.9210394680475
 20
-133.998022427438
 10
113.7033094333797
 20
-134.0233438792546
 10
113.5699842381006
 20
-134.0254109365457
 10
113.5699842381006
 20
-134.0254109365457
 10
113.5655056139697
 20
-134.1079209734175
 10
113.5655056139697
 20
-134.1079209734175
 10
113.5655056139697
 20
-134.1079209734175
 10
113.8387016859501
 20
-134.1079209734175
 10
113.8387016859501
 20
-134.1079209734175
 10
113.8955457614567
 20
-134.1079209734175
 10
114.1580620374327
 20
-134.0889729482486
 10
114.2025037691924
 20
-134.0825995216009
 10
114.2025037691924
 20
-134.0825995216009
 10
114.2025037691924
 20
-134.2517537099266
 10
114.2025037691924
 20
-134.2517537099266
 10
114.168741833437
 20
-134.2476195953444
 10
114.1559949801416
 20
-134.2455525380532
 10
114.0774468030779
 20
-134.2455525380532
 97
        0
 97
        0
 75
     2
 76
     1
 98
        0
  0
ENDBLK
  5
124
330
121
100
AcDbEntity
  8
0
100
AcDbBlockEnd
  0
ENDSEC
  0
SECTION
  2
ENTITIES
  0
SPLINE
  5
41
330
1F
100
AcDbEntity
  8
_U+30EC_U+30A4_U+30E4_U+30FC 1
 62
   179
420
  2234388
370
     9
100
AcDbSpline
210
0.0
220
0.0
230
1.0
 70
    11
 71
     3
 72
    17
 73
    13
 74
     0
 42
0.0000000001
 43
0.0000000001
 12
1.0
 22
0.0
 32
0.0
 13
1.0
 23
0.0
 33
0.0
 40
0.0
 40
0.0
 40
0.0
 40
0.0
 40
1.0
 40
1.0
 40
1.0
 40
2.0
 40
2.0
 40
2.0
 40
3.0
 40
3.0
 40
3.0
 40
4.0
 40
4.0
 40
4.0
 40
4.0
 10
97.05710328112852
 20
-163.2452036131601
 30
0.0
 10
97.05710328112852
 20
-163.1905234882551
 30
0.0
 10
97.01229819945434
 20
-163.1457264810235
 30
0.0
 10
96.95726549055833
 20
-163.1457264810235
 30
0.0
 10
96.90258536565338
 20
-163.1457264810235
 30
0.0
 10
96.85778297546035
 20
-163.1905234882551
 30
0.0
 10
96.85778297546035
 20
-163.2452036131601
 30
0.0
 10
96.85778297546035
 20
-163.3005942890088
 30
0.0
 10
96.90258536565338
 20
-163.3454020621639
 30
0.0
 10
96.95726549055833
 20
-163.3454020621639
 30
0.0
 10
97.01229819945434
 20
-163.3454020621639
 30
0.0
 10
97.05710328112852
 20
-163.3005942890088
 30
0.0
 10
97.05710328112852
 20
-163.2452036131601
 30
0.0
  0
SPLINE
  5
42
330
1F
100
AcDbEntity
  8
_U+30EC_U+30A4_U+30E4_U+30FC 1
 62
   179
420
  2234388
370
     9
100
AcDbSpline
210
0.0
220
0.0
230
1.0
 70
    11
 71
     3
 72
    17
 73
    13
 74
     0
 42
0.0000000001
 43
0.0000000001
 12
1.0
 22
0.0
 32
0.0
 13
1.0
 23
0.0
 33
0.0
 40
0.0
 40
0.0
 40
0.0
 40
0.0
 40
1.0
 40
1.0
 40
1.0
 40
2.0
 40
2.0
 40
2.0
 40
3.0
 40
3.0
 40
3.0
 40
4.0
 40
4.0
 40
4.0
 40
4.0
 10
97.05710328112852
 20
-138.2455667785896
 30
0.0
 10
97.05710328112852
 20
-138.1901868686643
 30
0.0
 10
97.01229819945434
 20
-138.1450345859607
 30
0.0
 10
96.95726549055833
 20
-138.1450345859607
 30
0.0
 10
96.90258536565338
 20
-138.1450345859607
 30
0.0
 10
96.85778297546035
 20
-138.1901868686643
 30
0.0
 10
96.85778297546035
 20
-138.2455667785896
 30
0.0
 10
96.85778297546035
 20
-138.3006021789665
 30
0.0
 10
96.90258536565338
 20
-138.3454099521215
 30
0.0
 10
96.95726549055833
 20
-138.3454099521215
 30
0.0
 10
97.01229819945434
 20
-138.3454099521215
 30
0.0
 10
97.05710328112852
 20
-138.3006021789665
 30
0.0
 10
97.05710328112852
 20
-138.2455667785896
 30
0.0
  0
POLYLINE
  5
43
330
1F
100
AcDbEntity
  8
_U+30EC_U+30A4_U+30E4_U+30FC 1
 62
   179
420
  2234388
370
     9
100
AcDb2dPolyline
 66
     1
 10
0.0
 20
0.0
 30
0.0
  0
VERTEX
  5
44
330
43
100
AcDbEntity
  8
_U+30EC_U+30A4_U+30E4_U+30FC 1
 62
   179
420
  2234388
370
     9
100
AcDbVertex
100
AcDb2dVertex
 10
96.9571632142861
 20
-163.2452036131601
 30
0.0
  0
VERTEX
  5
45
330
43
100
AcDbEntity
  8
_U+30EC_U+30A4_U+30E4_U+30FC 1
 62
   179
420
  2234388
370
     9
100
AcDbVertex
100
AcDb2dVertex
 10
96.9571632142861
 20
-138.245265332735
 30
0.0
  0
SEQEND
  5
46
330
43
100
AcDbEntity
  8
_U+30EC_U+30A4_U+30E4_U+30FC 1
 62
   179
420
  2234388
370
     9
  0
POLYLINE
  5
47
330
1F
100
AcDbEntity
  8
_U+30EC_U+30A4_U+30E4_U+30FC 1
 62
   179
420
  2234388
370
     9
100
AcDb2dPolyline
 66
     1
 10
0.0
 20
0.0
 30
0.0
  0
VERTEX
  5
48
330
47
100
AcDbEntity
  8
_U+30EC_U+30A4_U+30E4_U+30FC 1
 62
   179
420
  2234388
370
     9
100
AcDbVertex
100
AcDb2dVertex
 10
99.0187245015447
 20
-163.2452036131601
 30
0.0
  0
VERTEX
  5
49
330
47
100
AcDbEntity
  8
_U+30EC_U+30A4_U+30E4_U+30FC 1
 62
   179
420
  2234388
370
     9
100
AcDbVertex
100
AcDb2dVertex
 10
95.95731845152201
 20
-163.2452036131601
 30
0.0
  0
SEQEND
  5
4A
330
47
100
AcDbEntity
  8
_U+30EC_U+30A4_U+30E4_U+30FC 1
 62
   179
420
  2234388
370
     9
  0
POLYLINE
  5
4B
330
1F
100
AcDbEntity
  8
_U+30EC_U+30A4_U+30E4_U+30FC 1
 62
   179
420
  2234388
370
     9
100
AcDb2dPolyline
 66
     1
 10
0.0
 20
0.0
 30
0.0
  0
VERTEX
  5
4C
330
4B
100
AcDbEntity
  8
_U+30EC_U+30A4_U+30E4_U+30FC 1
 62
   179
420
  2234388
370
     9
100
AcDbVertex
100
AcDb2dVertex
 10
95.95770871624495
 20
-138.2455667785896
 30
0.0
  0
VERTEX
  5
4D
330
4B
100
AcDbEntity
  8
_U+30EC_U+30A4_U+30E4_U+30FC 1
 62
   179
420
  2234388
370
     9
100
AcDbVertex
100
AcDb2dVertex
 10
98.81661851319868
 20
-138.2455667785896
 30
0.0
  0
VERTEX
  5
4E
330
4B
100
AcDbEntity
  8
_U+30EC_U+30A4_U+30E4_U+30FC 1
 62
   179
420
  2234388
370
     9
100
AcDbVertex
100
AcDb2dVertex
 10
96.5584876136981
 20
-138.2455667785896
 30
0.0
  0
VERTEX
  5
4F
330
4B
100
AcDbEntity
  8
_U+30EC_U+30A4_U+30E4_U+30FC 1
 62
   179
420
  2234388
370
     9
100
AcDbVertex
100
AcDb2dVertex
 10
99.01875949079572
 20
-138.2455667785896
 30
0.0
  0
SEQEND
  5
50
330
4B
100
AcDbEntity
  8
_U+30EC_U+30A4_U+30E4_U+30FC 1
 62
   179
420
  2234388
370
     9
  0
INSERT
  5
52
330
1F
100
AcDbEntity
  8
_U+30EC_U+30A4_U+30E4_U+30FC 1
100
AcDbBlockReference
  2
block 2
 10
0.0
 20
0.0
 30
0.0
  0
SPLINE
  5
59
330
1F
100
AcDbEntity
  8
_U+30EC_U+30A4_U+30E4_U+30FC 1
 62
   179
420
  2234388
370
     9
100
AcDbSpline
210
0.0
220
0.0
230
1.0
 70
    11
 71
     3
 72
    17
 73
    13
 74
     0
 42
0.0000000001
 43
0.0000000001
 12
1.0
 22
0.0
 32
0.0
 13
1.0
 23
0.0
 33
0.0
 40
0.0
 40
0.0
 40
0.0
 40
0.0
 40
1.0
 40
1.0
 40
1.0
 40
2.0
 40
2.0
 40
2.0
 40
3.0
 40
3.0
 40
3.0
 40
4.0
 40
4.0
 40
4.0
 40
4.0
 10
112.1956818194174
 20
-150.2448128218681
 30
0.0
 10
112.1956818194174
 20
-150.1901434628865
 30
0.0
 10
112.1508740462624
 20
-150.144991180183
 30
0.0
 10
112.0958440288473
 20
-150.144991180183
 30
0.0
 10
112.0408086284704
 20
-150.144991180183
 30
0.0
 10
111.996006238277
 20
-150.1901434628865
 30
0.0
 10
111.996006238277
 20
-150.2448128218681
 30
0.0
 10
111.996006238277
 20
-150.3005587731888
 30
0.0
 10
112.0408086284704
 20
-150.3453665463438
 30
0.0
 10
112.0958440288473
 20
-150.3453665463438
 30
0.0
 10
112.1508740462624
 20
-150.3453665463438
 30
0.0
 10
112.1956818194174
 20
-150.3005587731888
 30
0.0
 10
112.1956818194174
 20
-150.2448128218681
 30
0.0
  0
SPLINE
  5
5A
330
1F
100
AcDbEntity
  8
_U+30EC_U+30A4_U+30E4_U+30FC 1
 62
   179
420
  2234388
370
     9
100
AcDbSpline
210
0.0
220
0.0
230
1.0
 70
    11
 71
     3
 72
    17
 73
    13
 74
     0
 42
0.0000000001
 43
0.0000000001
 12
1.0
 22
0.0
 32
0.0
 13
1.0
 23
0.0
 33
0.0
 40
0.0
 40
0.0
 40
0.0
 40
0.0
 40
1.0
 40
1.0
 40
1.0
 40
2.0
 40
2.0
 40
2.0
 40
3.0
 40
3.0
 40
3.0
 40
4.0
 40
4.0
 40
4.0
 40
4.0
 10
112.1956818194174
 20
-138.2448992913394
 30
0.0
 10
112.1956818194174
 20
-138.1902299323582
 30
0.0
 10
112.1508740462624
 20
-138.1454221592028
 30
0.0
 10
112.0958440288473
 20
-138.1454221592028
 30
0.0
 10
112.0408086284704
 20
-138.1454221592028
 30
0.0
 10
111.996006238277
 20
-138.1902299323582
 30
0.0
 10
111.996006238277
 20
-138.2448992913394
 30
0.0
 10
111.996006238277
 20
-138.3006452426604
 30
0.0
 10
112.0408086284704
 20
-138.3454530158151
 30
0.0
 10
112.0958440288473
 20
-138.3454530158151
 30
0.0
 10
112.1508740462624
 20
-138.3454530158151
 30
0.0
 10
112.1956818194174
 20
-138.3006452426604
 30
0.0
 10
112.1956818194174
 20
-138.2448992913394
 30
0.0
  0
POLYLINE
  5
5B
330
1F
100
AcDbEntity
  8
_U+30EC_U+30A4_U+30E4_U+30FC 1
 62
   179
420
  2234388
370
     9
100
AcDb2dPolyline
 66
     1
 10
0.0
 20
0.0
 30
0.0
  0
VERTEX
  5
5C
330
5B
100
AcDbEntity
  8
_U+30EC_U+30A4_U+30E4_U+30FC 1
 62
   179
420
  2234388
370
     9
100
AcDbVertex
100
AcDb2dVertex
 10
112.0957740503452
 20
-150.2448128218681
 30
0.0
  0
VERTEX
  5
5D
330
5B
100
AcDbEntity
  8
_U+30EC_U+30A4_U+30E4_U+30FC 1
 62
   179
420
  2234388
370
     9
100
AcDbVertex
100
AcDb2dVertex
 10
112.0957740503452
 20
-138.2450930779607
 30
0.0
  0
SEQEND
  5
5E
330
5B
100
AcDbEntity
  8
_U+30EC_U+30A4_U+30E4_U+30FC 1
 62
   179
420
  2234388
370
     9
  0
POLYLINE
  5
5F
330
1F
100
AcDbEntity
  8
_U+30EC_U+30A4_U+30E4_U+30FC 1
 62
   179
420
  2234388
370
     9
100
AcDb2dPolyline
 66
     1
 10
0.0
 20
0.0
 30
0.0
  0
VERTEX
  5
60
330
5F
100
AcDbEntity
  8
_U+30EC_U+30A4_U+30E4_U+30FC 1
 62
   179
420
  2234388
370
     9
100
AcDbVertex
100
AcDb2dVertex
 10
110.6357694985048
 20
-150.2451788632634
 30
0.0
  0
VERTEX
  5
61
330
5F
100
AcDbEntity
  8
_U+30EC_U+30A4_U+30E4_U+30FC 1
 62
   179
420
  2234388
370
     9
100
AcDbVertex
100
AcDb2dVertex
 10
113.0956861001305
 20
-150.2451788632634
 30
0.0
  0
SEQEND
  5
62
330
5F
100
AcDbEntity
  8
_U+30EC_U+30A4_U+30E4_U+30FC 1
 62
   179
420
  2234388
370
     9
  0
POLYLINE
  5
63
330
1F
100
AcDbEntity
  8
_U+30EC_U+30A4_U+30E4_U+30FC 1
 62
   179
420
  2234388
370
     9
100
AcDb2dPolyline
 66
     1
 10
0.0
 20
0.0
 30
0.0
  0
VERTEX
  5
64
330
63
100
AcDbEntity
  8
_U+30EC_U+30A4_U+30E4_U+30FC 1
 62
   179
420
  2234388
370
     9
100
AcDbVertex
100
AcDb2dVertex
 10
110.6357694985048
 20
-138.2451792053479
 30
0.0
  0
VERTEX
  5
65
330
63
100
AcDbEntity
  8
_U+30EC_U+30A4_U+30E4_U+30FC 1
 62
   179
420
  2234388
370
     9
100
AcDbVertex
100
AcDb2dVertex
 10
113.0956861001305
 20
-138.2451792053479
 30
0.0
  0
SEQEND
  5
66
330
63
100
AcDbEntity
  8
_U+30EC_U+30A4_U+30E4_U+30FC 1
 62
   179
420
  2234388
370
     9
  0
INSERT
  5
68
330
1F
100
AcDbEntity
  8
_U+30EC_U+30A4_U+30E4_U+30FC 1
100
AcDbBlockReference
  2
block 3
 10
0.0
 20
0.0
 30
0.0
  0
SPLINE
  5
6F
330
1F
100
AcDbEntity
  8
_U+30EC_U+30A4_U+30E4_U+30FC 1
 62
   179
420
  2234388
370
     9
100
AcDbSpline
210
0.0
220
0.0
230
1.0
 70
    11
 71
     3
 72
    17
 73
    13
 74
     0
 42
0.0000000001
 43
0.0000000001
 12
1.0
 22
0.0
 32
0.0
 13
1.0
 23
0.0
 33
0.0
 40
0.0
 40
0.0
 40
0.0
 40
0.0
 40
1.0
 40
1.0
 40
1.0
 40
2.0
 40
2.0
 40
2.0
 40
3.0
 40
3.0
 40
3.0
 40
4.0
 40
4.0
 40
4.0
 40
4.0
 10
106.6625031946343
 20
-134.2458109202146
 30
0.0
 10
106.6625031946343
 20
-134.1907970516845
 30
0.0
 10
106.6176981129601
 20
-134.1459892785295
 30
0.0
 10
106.5626654040641
 20
-134.1459892785295
 30
0.0
 10
106.5076326951681
 20
-134.1459892785295
 30
0.0
 10
106.4628303049747
 20
-134.1907970516845
 30
0.0
 10
106.4628303049747
 20
-134.2458109202146
 30
0.0
 10
106.4628303049747
 20
-134.3008463205915
 30
0.0
 10
106.5076326951681
 20
-134.3456540937465
 30
0.0
 10
106.5626654040641
 20
-134.3456540937465
 30
0.0
 10
106.6176981129601
 20
-134.3456540937465
 30
0.0
 10
106.6625031946343
 20
-134.3008463205915
 30
0.0
 10
106.6625031946343
 20
-134.2458109202146
 30
0.0
  0
SPLINE
  5
70
330
1F
100
AcDbEntity
  8
_U+30EC_U+30A4_U+30E4_U+30FC 1
 62
   179
420
  2234388
370
     9
100
AcDbSpline
210
0.0
220
0.0
230
1.0
 70
    11
 71
     3
 72
    17
 73
    13
 74
     0
 42
0.0000000001
 43
0.0000000001
 12
1.0
 22
0.0
 32
0.0
 13
1.0
 23
0.0
 33
0.0
 40
0.0
 40
0.0
 40
0.0
 40
0.0
 40
1.0
 40
1.0
 40
1.0
 40
2.0
 40
2.0
 40
2.0
 40
3.0
 40
3.0
 40
3.0
 40
4.0
 40
4.0
 40
4.0
 40
4.0
 10
99.66258054996771
 20
-134.2458109202146
 30
0.0
 10
99.66258054996771
 20
-134.1907970516845
 30
0.0
 10
99.61777546829386
 20
-134.1459892785295
 30
0.0
 10
99.56274275939751
 20
-134.1459892785295
 30
0.0
 10
99.5077100505015
 20
-134.1459892785295
 30
0.0
 10
99.46290766030816
 20
-134.1907970516845
 30
0.0
 10
99.46290766030816
 20
-134.2458109202146
 30
0.0
 10
99.46290766030816
 20
-134.3008463205915
 30
0.0
 10
99.5077100505015
 20
-134.3456540937465
 30
0.0
 10
99.56274275939751
 20
-134.3456540937465
 30
0.0
 10
99.61777546829386
 20
-134.3456540937465
 30
0.0
 10
99.66258054996771
 20
-134.3008463205915
 30
0.0
 10
99.66258054996771
 20
-134.2458109202146
 30
0.0
  0
POLYLINE
  5
71
330
1F
100
AcDbEntity
  8
_U+30EC_U+30A4_U+30E4_U+30FC 1
 62
   179
420
  2234388
370
     9
100
AcDb2dPolyline
 66
     1
 10
0.0
 20
0.0
 30
0.0
  0
VERTEX
  5
72
330
71
100
AcDbEntity
  8
_U+30EC_U+30A4_U+30E4_U+30FC 1
 62
   179
420
  2234388
370
     9
100
AcDbVertex
100
AcDb2dVertex
 10
99.56270777014649
 20
-134.2458109202146
 30
0.0
  0
VERTEX
  5
73
330
71
100
AcDbEntity
  8
_U+30EC_U+30A4_U+30E4_U+30FC 1
 62
   179
420
  2234388
370
     9
100
AcDbVertex
100
AcDb2dVertex
 10
106.5625227555792
 20
-134.2458109202146
 30
0.0
  0
SEQEND
  5
74
330
71
100
AcDbEntity
  8
_U+30EC_U+30A4_U+30E4_U+30FC 1
 62
   179
420
  2234388
370
     9
  0
POLYLINE
  5
75
330
1F
100
AcDbEntity
  8
_U+30EC_U+30A4_U+30E4_U+30FC 1
 62
   179
420
  2234388
370
     9
100
AcDb2dPolyline
 66
     1
 10
0.0
 20
0.0
 30
0.0
  0
VERTEX
  5
76
330
75
100
AcDbEntity
  8
_U+30EC_U+30A4_U+30E4_U+30FC 1
 62
   179
420
  2234388
370
     9
100
AcDbVertex
100
AcDb2dVertex
 10
99.56270777014649
 20
-136.7455937361587
 30
0.0
  0
VERTEX
  5
77
330
75
100
AcDbEntity
  8
_U+30EC_U+30A4_U+30E4_U+30FC 1
 62
   179
420
  2234388
370
     9
100
AcDbVertex
100
AcDb2dVertex
 10
99.56270777014649
 20
-133.2460442103951
 30
0.0
  0
SEQEND
  5
78
330
75
100
AcDbEntity
  8
_U+30EC_U+30A4_U+30E4_U+30FC 1
 62
   179
420
  2234388
370
     9
  0
POLYLINE
  5
79
330
1F
100
AcDbEntity
  8
_U+30EC_U+30A4_U+30E4_U+30FC 1
 62
   179
420
  2234388
370
     9
100
AcDb2dPolyline
 66
     1
 10
0.0
 20
0.0
 30
0.0
  0
VERTEX
  5
7A
330
79
100
AcDbEntity
  8
_U+30EC_U+30A4_U+30E4_U+30FC 1
 62
   179
420
  2234388
370
     9
100
AcDbVertex
100
AcDb2dVertex
 10
106.5626304148131
 20
-136.7455937361587
 30
0.0
  0
VERTEX
  5
7B
330
79
100
AcDbEntity
  8
_U+30EC_U+30A4_U+30E4_U+30FC 1
 62
   179
420
  2234388
370
     9
100
AcDbVertex
100
AcDb2dVertex
 10
106.5626304148131
 20
-133.2460442103951
 30
0.0
  0
SEQEND
  5
7C
330
79
100
AcDbEntity
  8
_U+30EC_U+30A4_U+30E4_U+30FC 1
 62
   179
420
  2234388
370
     9
  0
INSERT
  5
7E
330
1F
100
AcDbEntity
  8
_U+30EC_U+30A4_U+30E4_U+30FC 1
100
AcDbBlockReference
  2
block 4
 10
0.0
 20
0.0
 30
0.0
  0
POLYLINE
  5
83
330
1F
100
AcDbEntity
  8
_U+30EC_U+30A4_U+30E4_U+30FC 1
 62
   179
420
  2234388
370
    25
100
AcDb2dPolyline
 66
     1
 10
0.0
 20
0.0
 30
0.0
  0
VERTEX
  5
84
330
83
100
AcDbEntity
  8
_U+30EC_U+30A4_U+30E4_U+30FC 1
 62
   179
420
  2234388
370
    25
100
AcDbVertex
100
AcDb2dVertex
 10
99.56306035413756
 20
-163.2449236991519
 30
0.0
  0
VERTEX
  5
85
330
83
100
AcDbEntity
  8
_U+30EC_U+30A4_U+30E4_U+30FC 1
 62
   179
420
  2234388
370
    25
100
AcDbVertex
100
AcDb2dVertex
 10
99.78919050053149
 20
-162.7355232679641
 30
0.0
  0
VERTEX
  5
86
330
83
100
AcDbEntity
  8
_U+30EC_U+30A4_U+30E4_U+30FC 1
 62
   179
420
  2234388
370
    25
100
AcDbVertex
100
AcDb2dVertex
 10
99.56306035413756
 20
-162.2465673252967
 30
0.0
  0
VERTEX
  5
87
330
83
100
AcDbEntity
  8
_U+30EC_U+30A4_U+30E4_U+30FC 1
 62
   179
420
  2234388
370
    25
100
AcDbVertex
100
AcDb2dVertex
 10
99.78919050053149
 20
-161.7371561281855
 30
0.0
  0
VERTEX
  5
88
330
83
100
AcDbEntity
  8
_U+30EC_U+30A4_U+30E4_U+30FC 1
 62
   179
420
  2234388
370
    25
100
AcDbVertex
100
AcDb2dVertex
 10
99.56306035413756
 20
-161.24855546099
 30
0.0
  0
VERTEX
  5
89
330
83
100
AcDbEntity
  8
_U+30EC_U+30A4_U+30E4_U+30FC 1
 62
   179
420
  2234388
370
    25
100
AcDbVertex
100
AcDb2dVertex
 10
99.78919050053149
 20
-160.7387997543303
 30
0.0
  0
VERTEX
  5
8A
330
83
100
AcDbEntity
  8
_U+30EC_U+30A4_U+30E4_U+30FC 1
 62
   179
420
  2234388
370
    25
100
AcDbVertex
100
AcDb2dVertex
 10
99.56306035413756
 20
-160.2501990871347
 30
0.0
  0
VERTEX
  5
8B
330
83
100
AcDbEntity
  8
_U+30EC_U+30A4_U+30E4_U+30FC 1
 62
   179
420
  2234388
370
    25
100
AcDbVertex
100
AcDb2dVertex
 10
99.78919050053149
 20
-159.7400773390797
 30
0.0
  0
VERTEX
  5
8C
330
83
100
AcDbEntity
  8
_U+30EC_U+30A4_U+30E4_U+30FC 1
 62
   179
420
  2234388
370
    25
100
AcDbVertex
100
AcDb2dVertex
 10
99.56306035413756
 20
-159.252187222828
 30
0.0
  0
VERTEX
  5
8D
330
83
100
AcDbEntity
  8
_U+30EC_U+30A4_U+30E4_U+30FC 1
 62
   179
420
  2234388
370
    25
100
AcDbVertex
100
AcDb2dVertex
 10
99.78919050053149
 20
-158.7417209652245
 30
0.0
  0
VERTEX
  5
8E
330
83
100
AcDbEntity
  8
_U+30EC_U+30A4_U+30E4_U+30FC 1
 62
   179
420
  2234388
370
    25
100
AcDbVertex
100
AcDb2dVertex
 10
99.56306035413756
 20
-158.2534755735009
 30
0.0
  0
VERTEX
  5
8F
330
83
100
AcDbEntity
  8
_U+30EC_U+30A4_U+30E4_U+30FC 1
 62
   179
420
  2234388
370
    25
100
AcDbVertex
100
AcDb2dVertex
 10
99.78919050053149
 20
-157.7433645913693
 30
0.0
  0
VERTEX
  5
90
330
83
100
AcDbEntity
  8
_U+30EC_U+30A4_U+30E4_U+30FC 1
 62
   179
420
  2234388
370
    25
100
AcDbVertex
100
AcDb2dVertex
 10
99.56306035413756
 20
-157.2551191996456
 30
0.0
  0
VERTEX
  5
91
330
83
100
AcDbEntity
  8
_U+30EC_U+30A4_U+30E4_U+30FC 1
 62
   179
420
  2234388
370
    25
100
AcDbVertex
100
AcDb2dVertex
 10
99.78919050053149
 20
-156.7453527270626
 30
0.0
  0
VERTEX
  5
92
330
83
100
AcDbEntity
  8
_U+30EC_U+30A4_U+30E4_U+30FC 1
 62
   179
420
  2234388
370
    25
100
AcDbVertex
100
AcDb2dVertex
 10
99.56306035413756
 20
-156.256752059867
 30
0.0
  0
VERTEX
  5
93
330
83
100
AcDbEntity
  8
_U+30EC_U+30A4_U+30E4_U+30FC 1
 62
   179
420
  2234388
370
    25
100
AcDbVertex
100
AcDb2dVertex
 10
99.78919050053149
 20
-155.746985587284
 30
0.0
  0
VERTEX
  5
94
330
83
100
AcDbEntity
  8
_U+30EC_U+30A4_U+30E4_U+30FC 1
 62
   179
420
  2234388
370
    25
100
AcDbVertex
100
AcDb2dVertex
 10
99.56306035413756
 20
-155.2583956860118
 30
0.0
  0
VERTEX
  5
95
330
83
100
AcDbEntity
  8
_U+30EC_U+30A4_U+30E4_U+30FC 1
 62
   179
420
  2234388
370
    25
100
AcDbVertex
100
AcDb2dVertex
 10
99.78919050053149
 20
-154.7482739379568
 30
0.0
  0
VERTEX
  5
96
330
83
100
AcDbEntity
  8
_U+30EC_U+30A4_U+30E4_U+30FC 1
 62
   179
420
  2234388
370
    25
100
AcDbVertex
100
AcDb2dVertex
 10
99.56306035413756
 20
-154.2600285462332
 30
0.0
  0
VERTEX
  5
97
330
83
100
AcDbEntity
  8
_U+30EC_U+30A4_U+30E4_U+30FC 1
 62
   179
420
  2234388
370
    25
100
AcDbVertex
100
AcDb2dVertex
 10
99.78919050053149
 20
-153.7502836054969
 30
0.0
  0
VERTEX
  5
98
330
83
100
AcDbEntity
  8
_U+30EC_U+30A4_U+30E4_U+30FC 1
 62
   179
420
  2234388
370
    25
100
AcDbVertex
100
AcDb2dVertex
 10
99.56306035413756
 20
-153.2616829383013
 30
0.0
  0
VERTEX
  5
99
330
83
100
AcDbEntity
  8
_U+30EC_U+30A4_U+30E4_U+30FC 1
 62
   179
420
  2234388
370
    25
100
AcDbVertex
100
AcDb2dVertex
 10
99.78919050053149
 20
-152.7522609752668
 30
0.0
  0
VERTEX
  5
9A
330
83
100
AcDbEntity
  8
_U+30EC_U+30A4_U+30E4_U+30FC 1
 62
   179
420
  2234388
370
    25
100
AcDbVertex
100
AcDb2dVertex
 10
99.56270507866564
 20
-152.2633157985227
 30
0.0
  0
VERTEX
  5
9B
330
83
100
AcDbEntity
  8
_U+30EC_U+30A4_U+30E4_U+30FC 1
 62
   179
420
  2234388
370
    25
100
AcDbVertex
100
AcDb2dVertex
 10
99.78919050053149
 20
-151.7380248644093
 30
0.0
  0
VERTEX
  5
9C
330
83
100
AcDbEntity
  8
_U+30EC_U+30A4_U+30E4_U+30FC 1
 62
   179
420
  2234388
370
    25
100
AcDbVertex
100
AcDb2dVertex
 10
99.56306035413756
 20
-151.4251240669614
 30
0.0
  0
VERTEX
  5
9D
330
83
100
AcDbEntity
  8
_U+30EC_U+30A4_U+30E4_U+30FC 1
 62
   179
420
  2234388
370
    25
100
AcDbVertex
100
AcDb2dVertex
 10
99.78919050053149
 20
-150.9157021039269
 30
0.0
  0
VERTEX
  5
9E
330
83
100
AcDbEntity
  8
_U+30EC_U+30A4_U+30E4_U+30FC 1
 62
   179
420
  2234388
370
    25
100
AcDbVertex
100
AcDb2dVertex
 10
99.56306035413756
 20
-150.4271014367313
 30
0.0
  0
VERTEX
  5
9F
330
83
100
AcDbEntity
  8
_U+30EC_U+30A4_U+30E4_U+30FC 1
 62
   179
420
  2234388
370
    25
100
AcDbVertex
100
AcDb2dVertex
 10
99.78919050053149
 20
-149.9173349641483
 30
0.0
  0
VERTEX
  5
A0
330
83
100
AcDbEntity
  8
_U+30EC_U+30A4_U+30E4_U+30FC 1
 62
   179
420
  2234388
370
    25
100
AcDbVertex
100
AcDb2dVertex
 10
99.56306035413756
 20
-149.4287342969527
 30
0.0
  0
VERTEX
  5
A1
330
83
100
AcDbEntity
  8
_U+30EC_U+30A4_U+30E4_U+30FC 1
 62
   179
420
  2234388
370
    25
100
AcDbVertex
100
AcDb2dVertex
 10
99.78919050053149
 20
-148.9189893562164
 30
0.0
  0
VERTEX
  5
A2
330
83
100
AcDbEntity
  8
_U+30EC_U+30A4_U+30E4_U+30FC 1
 62
   179
420
  2234388
370
    25
100
AcDbVertex
100
AcDb2dVertex
 10
99.56306035413756
 20
-148.4307331985694
 30
0.0
  0
VERTEX
  5
A3
330
83
100
AcDbEntity
  8
_U+30EC_U+30A4_U+30E4_U+30FC 1
 62
   179
420
  2234388
370
    25
100
AcDbVertex
100
AcDb2dVertex
 10
99.78919050053149
 20
-147.9206222164378
 30
0.0
  0
VERTEX
  5
A4
330
83
100
AcDbEntity
  8
_U+30EC_U+30A4_U+30E4_U+30FC 1
 62
   179
420
  2234388
370
    25
100
AcDbVertex
100
AcDb2dVertex
 10
99.56306035413756
 20
-147.4320215492423
 30
0.0
  0
VERTEX
  5
A5
330
83
100
AcDbEntity
  8
_U+30EC_U+30A4_U+30E4_U+30FC 1
 62
   179
420
  2234388
370
    25
100
AcDbVertex
100
AcDb2dVertex
 10
99.78919050053149
 20
-146.921910567111
 30
0.0
  0
VERTEX
  5
A6
330
83
100
AcDbEntity
  8
_U+30EC_U+30A4_U+30E4_U+30FC 1
 62
   179
420
  2234388
370
    25
100
AcDbVertex
100
AcDb2dVertex
 10
99.56306035413756
 20
-146.433654409464
 30
0.0
  0
VERTEX
  5
A7
330
83
100
AcDbEntity
  8
_U+30EC_U+30A4_U+30E4_U+30FC 1
 62
   179
420
  2234388
370
    25
100
AcDbVertex
100
AcDb2dVertex
 10
99.78919050053149
 20
-145.9238879368806
 30
0.0
  0
VERTEX
  5
A8
330
83
100
AcDbEntity
  8
_U+30EC_U+30A4_U+30E4_U+30FC 1
 62
   179
420
  2234388
370
    25
100
AcDbVertex
100
AcDb2dVertex
 10
99.56306035413756
 20
-145.4356533110803
 30
0.0
  0
VERTEX
  5
A9
330
83
100
AcDbEntity
  8
_U+30EC_U+30A4_U+30E4_U+30FC 1
 62
   179
420
  2234388
370
    25
100
AcDbVertex
100
AcDb2dVertex
 10
99.78919050053149
 20
-144.9255423289488
 30
0.0
  0
VERTEX
  5
AA
330
83
100
AcDbEntity
  8
_U+30EC_U+30A4_U+30E4_U+30FC 1
 62
   179
420
  2234388
370
    25
100
AcDbVertex
100
AcDb2dVertex
 10
99.56306035413756
 20
-144.4372861713017
 30
0.0
  0
VERTEX
  5
AB
330
83
100
AcDbEntity
  8
_U+30EC_U+30A4_U+30E4_U+30FC 1
 62
   179
420
  2234388
370
    25
100
AcDbVertex
100
AcDb2dVertex
 10
99.78919050053149
 20
-143.9268306796219
 30
0.0
  0
VERTEX
  5
AC
330
83
100
AcDbEntity
  8
_U+30EC_U+30A4_U+30E4_U+30FC 1
 62
   179
420
  2234388
370
    25
100
AcDbVertex
100
AcDb2dVertex
 10
99.56306035413756
 20
-143.4385745219749
 30
0.0
  0
VERTEX
  5
AD
330
83
100
AcDbEntity
  8
_U+30EC_U+30A4_U+30E4_U+30FC 1
 62
   179
420
  2234388
370
    25
100
AcDbVertex
100
AcDb2dVertex
 10
99.78919050053149
 20
-142.9288080493915
 30
0.0
  0
VERTEX
  5
AE
330
83
100
AcDbEntity
  8
_U+30EC_U+30A4_U+30E4_U+30FC 1
 62
   179
420
  2234388
370
    25
100
AcDbVertex
100
AcDb2dVertex
 10
99.56306035413756
 20
-142.440207382196
 30
0.0
  0
VERTEX
  5
AF
330
83
100
AcDbEntity
  8
_U+30EC_U+30A4_U+30E4_U+30FC 1
 62
   179
420
  2234388
370
    25
100
AcDbVertex
100
AcDb2dVertex
 10
99.78919050053149
 20
-141.9308069510082
 30
0.0
  0
VERTEX
  5
B0
330
83
100
AcDbEntity
  8
_U+30EC_U+30A4_U+30E4_U+30FC 1
 62
   179
420
  2234388
370
    25
100
AcDbVertex
100
AcDb2dVertex
 10
99.56306035413756
 20
-141.4418617742641
 30
0.0
  0
VERTEX
  5
B1
330
83
100
AcDbEntity
  8
_U+30EC_U+30A4_U+30E4_U+30FC 1
 62
   179
420
  2234388
370
    25
100
AcDbVertex
100
AcDb2dVertex
 10
99.78919050053149
 20
-140.9320953016814
 30
0.0
  0
VERTEX
  5
B2
330
83
100
AcDbEntity
  8
_U+30EC_U+30A4_U+30E4_U+30FC 1
 62
   179
420
  2234388
370
    25
100
AcDbVertex
100
AcDb2dVertex
 10
99.56306035413756
 20
-140.4434946344858
 30
0.0
  0
VERTEX
  5
B3
330
83
100
AcDbEntity
  8
_U+30EC_U+30A4_U+30E4_U+30FC 1
 62
   179
420
  2234388
370
    25
100
AcDbVertex
100
AcDb2dVertex
 10
99.56270507866564
 20
-139.2680280549186
 30
0.0
  0
VERTEX
  5
B4
330
83
100
AcDbEntity
  8
_U+30EC_U+30A4_U+30E4_U+30FC 1
 62
   179
420
  2234388
370
    25
100
AcDbVertex
100
AcDb2dVertex
 10
100.5624771714468
 20
-139.2680280549186
 30
0.0
  0
VERTEX
  5
B5
330
83
100
AcDbEntity
  8
_U+30EC_U+30A4_U+30E4_U+30FC 1
 62
   179
420
  2234388
370
    25
100
AcDbVertex
100
AcDb2dVertex
 10
100.5624771714468
 20
-150.2450712040294
 30
0.0
  0
VERTEX
  5
B6
330
83
100
AcDbEntity
  8
_U+30EC_U+30A4_U+30E4_U+30FC 1
 62
   179
420
  2234388
370
    25
100
AcDbVertex
100
AcDb2dVertex
 10
100.3628069732681
 20
-163.2445791896034
 30
0.0
  0
VERTEX
  5
B7
330
83
100
AcDbEntity
  8
_U+30EC_U+30A4_U+30E4_U+30FC 1
 62
   179
420
  2234388
370
    25
100
AcDbVertex
100
AcDb2dVertex
 10
99.56306035413756
 20
-163.2449236991519
 30
0.0
  0
VERTEX
  5
B8
330
83
100
AcDbEntity
  8
_U+30EC_U+30A4_U+30E4_U+30FC 1
 62
   179
420
  2234388
370
    25
100
AcDbVertex
100
AcDb2dVertex
 10
99.78919050053149
 20
-162.7355232679641
 30
0.0
  0
VERTEX
  5
B9
330
83
100
AcDbEntity
  8
_U+30EC_U+30A4_U+30E4_U+30FC 1
 62
   179
420
  2234388
370
    25
100
AcDbVertex
100
AcDb2dVertex
 10
99.56306035413756
 20
-162.2465673252967
 30
0.0
  0
VERTEX
  5
BA
330
83
100
AcDbEntity
  8
_U+30EC_U+30A4_U+30E4_U+30FC 1
 62
   179
420
  2234388
370
    25
100
AcDbVertex
100
AcDb2dVertex
 10
99.78919050053149
 20
-161.7371561281855
 30
0.0
  0
VERTEX
  5
BB
330
83
100
AcDbEntity
  8
_U+30EC_U+30A4_U+30E4_U+30FC 1
 62
   179
420
  2234388
370
    25
100
AcDbVertex
100
AcDb2dVertex
 10
99.56306035413756
 20
-161.24855546099
 30
0.0
  0
VERTEX
  5
BC
330
83
100
AcDbEntity
  8
_U+30EC_U+30A4_U+30E4_U+30FC 1
 62
   179
420
  2234388
370
    25
100
AcDbVertex
100
AcDb2dVertex
 10
99.78919050053149
 20
-160.7387997543303
 30
0.0
  0
VERTEX
  5
BD
330
83
100
AcDbEntity
  8
_U+30EC_U+30A4_U+30E4_U+30FC 1
 62
   179
420
  2234388
370
    25
100
AcDbVertex
100
AcDb2dVertex
 10
99.56306035413756
 20
-160.2501990871347
 30
0.0
  0
VERTEX
  5
BE
330
83
100
AcDbEntity
  8
_U+30EC_U+30A4_U+30E4_U+30FC 1
 62
   179
420
  2234388
370
    25
100
AcDbVertex
100
AcDb2dVertex
 10
99.78919050053149
 20
-159.7400773390797
 30
0.0
  0
VERTEX
  5
BF
330
83
100
AcDbEntity
  8
_U+30EC_U+30A4_U+30E4_U+30FC 1
 62
   179
420
  2234388
370
    25
100
AcDbVertex
100
AcDb2dVertex
 10
99.56306035413756
 20
-159.252187222828
 30
0.0
  0
VERTEX
  5
C0
330
83
100
AcDbEntity
  8
_U+30EC_U+30A4_U+30E4_U+30FC 1
 62
   179
420
  2234388
370
    25
100
AcDbVertex
100
AcDb2dVertex
 10
99.78919050053149
 20
-158.7417209652245
 30
0.0
  0
VERTEX
  5
C1
330
83
100
AcDbEntity
  8
_U+30EC_U+30A4_U+30E4_U+30FC 1
 62
   179
420
  2234388
370
    25
100
AcDbVertex
100
AcDb2dVertex
 10
99.56306035413756
 20
-158.2534755735009
 30
0.0
  0
VERTEX
  5
C2
330
83
100
AcDbEntity
  8
_U+30EC_U+30A4_U+30E4_U+30FC 1
 62
   179
420
  2234388
370
    25
100
AcDbVertex
100
AcDb2dVertex
 10
99.78919050053149
 20
-157.7433645913693
 30
0.0
  0
VERTEX
  5
C3
330
83
100
AcDbEntity
  8
_U+30EC_U+30A4_U+30E4_U+30FC 1
 62
   179
420
  2234388
370
    25
100
AcDbVertex
100
AcDb2dVertex
 10
99.56306035413756
 20
-157.2551191996456
 30
0.0
  0
VERTEX
  5
C4
330
83
100
AcDbEntity
  8
_U+30EC_U+30A4_U+30E4_U+30FC 1
 62
   179
420
  2234388
370
    25
100
AcDbVertex
100
AcDb2dVertex
 10
99.78919050053149
 20
-156.7453527270626
 30
0.0
  0
VERTEX
  5
C5
330
83
100
AcDbEntity
  8
_U+30EC_U+30A4_U+30E4_U+30FC 1
 62
   179
420
  2234388
370
    25
100
AcDbVertex
100
AcDb2dVertex
 10
99.56306035413756
 20
-156.256752059867
 30
0.0
  0
VERTEX
  5
C6
330
83
100
AcDbEntity
  8
_U+30EC_U+30A4_U+30E4_U+30FC 1
 62
   179
420
  2234388
370
    25
100
AcDbVertex
100
AcDb2dVertex
 10
99.78919050053149
 20
-155.746985587284
 30
0.0
  0
VERTEX
  5
C7
330
83
100
AcDbEntity
  8
_U+30EC_U+30A4_U+30E4_U+30FC 1
 62
   179
420
  2234388
370
    25
100
AcDbVertex
100
AcDb2dVertex
 10
99.56306035413756
 20
-155.2583956860118
 30
0.0
  0
VERTEX
  5
C8
330
83
100
AcDbEntity
  8
_U+30EC_U+30A4_U+30E4_U+30FC 1
 62
   179
420
  2234388
370
    25
100
AcDbVertex
100
AcDb2dVertex
 10
99.78919050053149
 20
-154.7482739379568
 30
0.0
  0
VERTEX
  5
C9
330
83
100
AcDbEntity
  8
_U+30EC_U+30A4_U+30E4_U+30FC 1
 62
   179
420
  2234388
370
    25
100
AcDbVertex
100
AcDb2dVertex
 10
99.56306035413756
 20
-154.2600285462332
 30
0.0
  0
VERTEX
  5
CA
330
83
100
AcDbEntity
  8
_U+30EC_U+30A4_U+30E4_U+30FC 1
 62
   179
420
  2234388
370
    25
100
AcDbVertex
100
AcDb2dVertex
 10
99.78919050053149
 20
-153.7502836054969
 30
0.0
  0
VERTEX
  5
CB
330
83
100
AcDbEntity
  8
_U+30EC_U+30A4_U+30E4_U+30FC 1
 62
   179
420
  2234388
370
    25
100
AcDbVertex
100
AcDb2dVertex
 10
99.56306035413756
 20
-153.2616829383013
 30
0.0
  0
VERTEX
  5
CC
330
83
100
AcDbEntity
  8
_U+30EC_U+30A4_U+30E4_U+30FC 1
 62
   179
420
  2234388
370
    25
100
AcDbVertex
100
AcDb2dVertex
 10
99.78919050053149
 20
-152.7522609752668
 30
0.0
  0
VERTEX
  5
CD
330
83
100
AcDbEntity
  8
_U+30EC_U+30A4_U+30E4_U+30FC 1
 62
   179
420
  2234388
370
    25
100
AcDbVertex
100
AcDb2dVertex
 10
99.56270507866564
 20
-152.2633157985227
 30
0.0
  0
SEQEND
  5
CE
330
83
100
AcDbEntity
  8
_U+30EC_U+30A4_U+30E4_U+30FC 1
 62
   179
420
  2234388
370
    25
  0
INSERT
  5
D0
330
1F
100
AcDbEntity
  8
_U+30EC_U+30A4_U+30E4_U+30FC 1
100
AcDbBlockReference
  2
block 5
 10
0.0
 20
0.0
 30
0.0
  0
INSERT
  5
D6
330
1F
100
AcDbEntity
  8
_U+30EC_U+30A4_U+30E4_U+30FC 1
100
AcDbBlockReference
  2
block 6
 10
0.0
 20
0.0
 30
0.0
  0
SPLINE
  5
EE
330
1F
100
AcDbEntity
  8
_U+30EC_U+30A4_U+30E4_U+30FC 1
 62
   179
420
  2234388
370
     9
100
AcDbSpline
210
0.0
220
0.0
230
1.0
 70
    11
 71
     3
 72
    17
 73
    13
 74
     0
 42
0.0000000001
 43
0.0000000001
 12
1.0
 22
0.0
 32
0.0
 13
1.0
 23
0.0
 33
0.0
 40
0.0
 40
0.0
 40
0.0
 40
0.0
 40
1.0
 40
1.0
 40
1.0
 40
2.0
 40
2.0
 40
2.0
 40
3.0
 40
3.0
 40
3.0
 40
4.0
 40
4.0
 40
4.0
 40
4.0
 10
102.6622494123024
 20
-164.9208980571856
 30
0.0
 10
102.6622494123024
 20
-164.8662179322806
 30
0.0
 10
102.6174443306282
 20
-164.821420925049
 30
0.0
 10
102.5624116217322
 20
-164.821420925049
 30
0.0
 10
102.5073789128362
 20
-164.821420925049
 30
0.0
 10
102.4625765226428
 20
-164.8662179322806
 30
0.0
 10
102.4625765226428
 20
-164.9208980571856
 30
0.0
 10
102.4625765226428
 20
-164.9759334575624
 30
0.0
 10
102.5073789128362
 20
-165.0207412307175
 30
0.0
 10
102.5624116217322
 20
-165.0207412307175
 30
0.0
 10
102.6174443306282
 20
-165.0207412307175
 30
0.0
 10
102.6622494123024
 20
-164.9759334575624
 30
0.0
 10
102.6622494123024
 20
-164.9208980571856
 30
0.0
  0
SPLINE
  5
EF
330
1F
100
AcDbEntity
  8
_U+30EC_U+30A4_U+30E4_U+30FC 1
 62
   179
420
  2234388
370
     9
100
AcDbSpline
210
0.0
220
0.0
230
1.0
 70
    11
 71
     3
 72
    17
 73
    13
 74
     0
 42
0.0000000001
 43
0.0000000001
 12
1.0
 22
0.0
 32
0.0
 13
1.0
 23
0.0
 33
0.0
 40
0.0
 40
0.0
 40
0.0
 40
0.0
 40
1.0
 40
1.0
 40
1.0
 40
2.0
 40
2.0
 40
2.0
 40
3.0
 40
3.0
 40
3.0
 40
4.0
 40
4.0
 40
4.0
 40
4.0
 10
100.6635853409772
 20
-164.9208980571856
 30
0.0
 10
100.6635853409772
 20
-164.8662179322806
 30
0.0
 10
100.6187802593031
 20
-164.821420925049
 30
0.0
 10
100.563747550407
 20
-164.821420925049
 30
0.0
 10
100.508714841511
 20
-164.821420925049
 30
0.0
 10
100.4639124513177
 20
-164.8662179322806
 30
0.0
 10
100.4639124513177
 20
-164.9208980571856
 30
0.0
 10
100.4639124513177
 20
-164.9759334575624
 30
0.0
 10
100.508714841511
 20
-165.0207412307175
 30
0.0
 10
100.563747550407
 20
-165.0207412307175
 30
0.0
 10
100.6187802593031
 20
-165.0207412307175
 30
0.0
 10
100.6635853409772
 20
-164.9759334575624
 30
0.0
 10
100.6635853409772
 20
-164.9208980571856
 30
0.0
  0
POLYLINE
  5
F0
330
1F
100
AcDbEntity
  8
_U+30EC_U+30A4_U+30E4_U+30FC 1
 62
   179
420
  2234388
370
     9
100
AcDb2dPolyline
 66
     1
 10
0.0
 20
0.0
 30
0.0
  0
VERTEX
  5
F1
330
F0
100
AcDbEntity
  8
_U+30EC_U+30A4_U+30E4_U+30FC 1
 62
   179
420
  2234388
370
     9
100
AcDbVertex
100
AcDb2dVertex
 10
100.4901247832949
 20
-164.9208980571856
 30
0.0
  0
VERTEX
  5
F2
330
F0
100
AcDbEntity
  8
_U+30EC_U+30A4_U+30E4_U+30FC 1
 62
   179
420
  2234388
370
     9
100
AcDbVertex
100
AcDb2dVertex
 10
106.7494595578667
 20
-164.9208980571856
 30
0.0
  0
SEQEND
  5
F3
330
F0
100
AcDbEntity
  8
_U+30EC_U+30A4_U+30E4_U+30FC 1
 62
   179
420
  2234388
370
     9
  0
POLYLINE
  5
F4
330
1F
100
AcDbEntity
  8
_U+30EC_U+30A4_U+30E4_U+30FC 1
 62
   179
420
  2234388
370
     9
100
AcDb2dPolyline
 66
     1
 10
0.0
 20
0.0
 30
0.0
  0
VERTEX
  5
F5
330
F4
100
AcDbEntity
  8
_U+30EC_U+30A4_U+30E4_U+30FC 1
 62
   179
420
  2234388
370
     9
100
AcDbVertex
100
AcDb2dVertex
 10
102.5623416432301
 20
-154.0616556418231
 30
0.0
  0
VERTEX
  5
F6
330
F4
100
AcDbEntity
  8
_U+30EC_U+30A4_U+30E4_U+30FC 1
 62
   179
420
  2234388
370
     9
100
AcDbVertex
100
AcDb2dVertex
 10
106.5621351823371
 20
-154.0616556418231
 30
0.0
  0
SEQEND
  5
F7
330
F4
100
AcDbEntity
  8
_U+30EC_U+30A4_U+30E4_U+30FC 1
 62
   179
420
  2234388
370
     9
  0
POLYLINE
  5
F8
330
1F
100
AcDbEntity
  8
_U+30EC_U+30A4_U+30E4_U+30FC 1
 62
   179
420
  2234388
370
     9
100
AcDb2dPolyline
 66
     1
 10
0.0
 20
0.0
 30
0.0
  0
VERTEX
  5
F9
330
F8
100
AcDbEntity
  8
_U+30EC_U+30A4_U+30E4_U+30FC 1
 62
   179
420
  2234388
370
     9
100
AcDbVertex
100
AcDb2dVertex
 10
102.5623416432301
 20
-152.6994864188021
 30
0.0
  0
VERTEX
  5
FA
330
F8
100
AcDbEntity
  8
_U+30EC_U+30A4_U+30E4_U+30FC 1
 62
   179
420
  2234388
370
     9
100
AcDbVertex
100
AcDb2dVertex
 10
102.5623416432301
 20
-165.9212461268682
 30
0.0
  0
SEQEND
  5
FB
330
F8
100
AcDbEntity
  8
_U+30EC_U+30A4_U+30E4_U+30FC 1
 62
   179
420
  2234388
370
     9
  0
POLYLINE
  5
FC
330
1F
100
AcDbEntity
  8
_U+30EC_U+30A4_U+30E4_U+30FC 1
 62
   179
420
  2234388
370
     9
100
AcDb2dPolyline
 66
     1
 10
0.0
 20
0.0
 30
0.0
  0
VERTEX
  5
FD
330
FC
100
AcDbEntity
  8
_U+30EC_U+30A4_U+30E4_U+30FC 1
 62
   179
420
  2234388
370
     9
100
AcDbVertex
100
AcDb2dVertex
 10
106.562277830822
 20
-152.6994864188021
 30
0.0
  0
VERTEX
  5
FE
330
FC
100
AcDbEntity
  8
_U+30EC_U+30A4_U+30E4_U+30FC 1
 62
   179
420
  2234388
370
     9
100
AcDbVertex
100
AcDb2dVertex
 10
106.562277830822
 20
-155.0772159612578
 30
0.0
  0
SEQEND
  5
FF
330
FC
100
AcDbEntity
  8
_U+30EC_U+30A4_U+30E4_U+30FC 1
 62
   179
420
  2234388
370
     9
  0
POLYLINE
  5
100
330
1F
100
AcDbEntity
  8
_U+30EC_U+30A4_U+30E4_U+30FC 1
 62
   179
420
  2234388
370
     9
100
AcDb2dPolyline
 66
     1
 10
0.0
 20
0.0
 30
0.0
  0
VERTEX
  5
101
330
100
100
AcDbEntity
  8
_U+30EC_U+30A4_U+30E4_U+30FC 1
 62
   179
420
  2234388
370
     9
100
AcDbVertex
100
AcDb2dVertex
 10
100.5623049166726
 20
-163.9811406043498
 30
0.0
  0
VERTEX
  5
102
330
100
100
AcDbEntity
  8
_U+30EC_U+30A4_U+30E4_U+30FC 1
 62
   179
420
  2234388
370
     9
100
AcDbVertex
100
AcDb2dVertex
 10
100.5623049166726
 20
-165.9214183816425
 30
0.0
  0
SEQEND
  5
103
330
100
100
AcDbEntity
  8
_U+30EC_U+30A4_U+30E4_U+30FC 1
 62
   179
420
  2234388
370
     9
  0
SPLINE
  5
104
330
1F
100
AcDbEntity
  8
_U+30EC_U+30A4_U+30E4_U+30FC 1
 62
   179
420
  2234388
370
     9
100
AcDbSpline
210
0.0
220
0.0
230
1.0
 70
    11
 71
     3
 72
    17
 73
    13
 74
     0
 42
0.0000000001
 43
0.0000000001
 12
1.0
 22
0.0
 32
0.0
 13
1.0
 23
0.0
 33
0.0
 40
0.0
 40
0.0
 40
0.0
 40
0.0
 40
1.0
 40
1.0
 40
1.0
 40
2.0
 40
2.0
 40
2.0
 40
3.0
 40
3.0
 40
3.0
 40
4.0
 40
4.0
 40
4.0
 40
4.0
 10
102.6620717745664
 20
-154.0613111322746
 30
0.0
 10
102.6620717745664
 20
-154.006641773293
 30
0.0
 10
102.6172666928922
 20
-153.961834000138
 30
0.0
 10
102.5622339839962
 20
-153.961834000138
 30
0.0
 10
102.5072012751002
 20
-153.961834000138
 30
0.0
 10
102.4623988849069
 20
-154.006641773293
 30
0.0
 10
102.4623988849069
 20
-154.0613111322746
 30
0.0
 10
102.4623988849069
 20
-154.1163465326515
 30
0.0
 10
102.5072012751002
 20
-154.1611543058065
 30
0.0
 10
102.5622339839962
 20
-154.1611543058065
 30
0.0
 10
102.6172666928922
 20
-154.1611543058065
 30
0.0
 10
102.6620717745664
 20
-154.1163465326515
 30
0.0
 10
102.6620717745664
 20
-154.0613111322746
 30
0.0
  0
SPLINE
  5
105
330
1F
100
AcDbEntity
  8
_U+30EC_U+30A4_U+30E4_U+30FC 1
 62
   179
420
  2234388
370
     9
100
AcDbSpline
210
0.0
220
0.0
230
1.0
 70
    11
 71
     3
 72
    17
 73
    13
 74
     0
 42
0.0000000001
 43
0.0000000001
 12
1.0
 22
0.0
 32
0.0
 13
1.0
 23
0.0
 33
0.0
 40
0.0
 40
0.0
 40
0.0
 40
0.0
 40
1.0
 40
1.0
 40
1.0
 40
2.0
 40
2.0
 40
2.0
 40
3.0
 40
3.0
 40
3.0
 40
4.0
 40
4.0
 40
4.0
 40
4.0
 10
106.6620079621583
 20
-154.0613111322746
 30
0.0
 10
106.6620079621583
 20
-154.006641773293
 30
0.0
 10
106.6172028804841
 20
-153.961834000138
 30
0.0
 10
106.5621701715881
 20
-153.961834000138
 30
0.0
 10
106.5071374626921
 20
-153.961834000138
 30
0.0
 10
106.4623350724987
 20
-154.006641773293
 30
0.0
 10
106.4623350724987
 20
-154.0613111322746
 30
0.0
 10
106.4623350724987
 20
-154.1163465326515
 30
0.0
 10
106.5071374626921
 20
-154.1611543058065
 30
0.0
 10
106.5621701715881
 20
-154.1611543058065
 30
0.0
 10
106.6172028804841
 20
-154.1611543058065
 30
0.0
 10
106.6620079621583
 20
-154.1163465326515
 30
0.0
 10
106.6620079621583
 20
-154.0613111322746
 30
0.0
  0
SPLINE
  5
106
330
1F
100
AcDbEntity
  8
_U+30EC_U+30A4_U+30E4_U+30FC 1
 62
   179
420
  2234388
370
    25
100
AcDbSpline
210
0.0
220
0.0
230
1.0
 70
     8
 71
     3
 72
    32
 73
    28
 74
     0
 42
0.0000000001
 43
0.0000000001
 12
1.0
 22
0.0
 32
0.0
 13
1.0
 23
0.0
 33
0.0
 40
0.0
 40
0.0
 40
0.0
 40
0.0
 40
1.0
 40
1.0
 40
1.0
 40
2.0
 40
2.0
 40
2.0
 40
3.0
 40
3.0
 40
3.0
 40
4.0
 40
4.0
 40
4.0
 40
5.0
 40
5.0
 40
5.0
 40
6.0
 40
6.0
 40
6.0
 40
7.0
 40
7.0
 40
7.0
 40
8.0
 40
8.0
 40
8.0
 40
9.0
 40
9.0
 40
9.0
 40
9.0
 10
99.56270777014649
 20
-139.3097567739833
 30
0.0
 10
99.56270777014649
 20
-139.3097567739833
 30
0.0
 10
99.56270777014649
 20
-138.2454375875093
 30
0.0
 10
99.56270777014649
 20
-138.2454375875093
 30
0.0
 10
99.56270777014649
 20
-138.2454375875093
 30
0.0
 10
105.4533904129881
 20
-138.2454375875093
 30
0.0
 10
105.4533904129881
 20
-138.2454375875093
 30
0.0
 10
105.4533904129881
 20
-138.2454375875093
 30
0.0
 10
106.555820968268
 20
-138.1935889004563
 30
0.0
 10
106.555820968268
 20
-139.3097567739833
 30
0.0
 10
106.555820968268
 20
-139.3097567739833
 30
0.0
 10
106.555820968268
 20
-150.2448128218681
 30
0.0
 10
106.555820968268
 20
-150.2448128218681
 30
0.0
 10
106.555820968268
 20
-150.2448128218681
 30
0.0
 10
102.5507332863334
 20
-150.2448128218681
 30
0.0
 10
102.5507332863334
 20
-150.2448128218681
 30
0.0
 10
102.5507332863334
 20
-150.2448128218681
 30
0.0
 10
102.5507332863334
 20
-149.2457566629924
 30
0.0
 10
102.5507332863334
 20
-149.2457566629924
 30
0.0
 10
102.5507332863334
 20
-149.2457566629924
 30
0.0
 10
103.0590867314713
 20
-149.2457566629924
 30
0.0
 10
103.0590867314713
 20
-149.2457566629924
 30
0.0
 10
103.0590867314713
 20
-149.2457566629924
 30
0.0
 10
103.0950691389262
 20
-139.2681357141522
 30
0.0
 10
103.0950691389262
 20
-139.2681357141522
 30
0.0
 10
103.0950691389262
 20
-139.2681357141522
 30
0.0
 10
99.56270777014649
 20
-139.2681357141522
 30
0.0
 10
99.56270777014649
 20
-139.2681357141522
 30
0.0
  0
POLYLINE
  5
107
330
1F
100
AcDbEntity
  8
_U+30EC_U+30A4_U+30E4_U+30FC 1
 62
   179
420
  2234388
370
    25
100
AcDb2dPolyline
 66
     1
 10
0.0
 20
0.0
 30
0.0
  0
VERTEX
  5
108
330
107
100
AcDbEntity
  8
_U+30EC_U+30A4_U+30E4_U+30FC 1
 62
   179
420
  2234388
370
    25
100
AcDbVertex
100
AcDb2dVertex
 10
105.5859296958596
 20
-149.2447231343468
 30
0.0
  0
VERTEX
  5
109
330
107
100
AcDbEntity
  8
_U+30EC_U+30A4_U+30E4_U+30FC 1
 62
   179
420
  2234388
370
    25
100
AcDbVertex
100
AcDb2dVertex
 10
104.0859162812159
 20
-149.2461442362345
 30
0.0
  0
VERTEX
  5
10A
330
107
100
AcDbEntity
  8
_U+30EC_U+30A4_U+30E4_U+30FC 1
 62
   179
420
  2234388
370
    25
100
AcDbVertex
100
AcDb2dVertex
 10
104.0859162812159
 20
-139.2681787778457
 30
0.0
  0
VERTEX
  5
10B
330
107
100
AcDbEntity
  8
_U+30EC_U+30A4_U+30E4_U+30FC 1
 62
   179
420
  2234388
370
    25
100
AcDbVertex
100
AcDb2dVertex
 10
105.5859296958596
 20
-139.2681787778457
 30
0.0
  0
VERTEX
  5
10C
330
107
100
AcDbEntity
  8
_U+30EC_U+30A4_U+30E4_U+30FC 1
 62
   179
420
  2234388
370
    25
100
AcDbVertex
100
AcDb2dVertex
 10
105.5859296958596
 20
-149.2447231343468
 30
0.0
  0
SEQEND
  5
10D
330
107
100
AcDbEntity
  8
_U+30EC_U+30A4_U+30E4_U+30FC 1
 62
   179
420
  2234388
370
    25
  0
POLYLINE
  5
10E
330
1F
100
AcDbEntity
  8
_U+30EC_U+30A4_U+30E4_U+30FC 1
370
     0
100
AcDb2dPolyline
 66
     1
 10
0.0
 20
0.0
 30
0.0
  0
VERTEX
  5
10F
330
10E
100
AcDbEntity
  8
_U+30EC_U+30A4_U+30E4_U+30FC 1
370
     0
100
AcDbVertex
100
AcDb2dVertex
 10
106.8457715085262
 20
-137.9594300666929
 30
0.0
  0
VERTEX
  5
110
330
10E
100
AcDbEntity
  8
_U+30EC_U+30A4_U+30E4_U+30FC 1
370
     0
100
AcDbVertex
100
AcDb2dVertex
 10
106.8274263750672
 20
-137.6775781923059
 30
0.0
  0
VERTEX
  5
111
330
10E
100
AcDbEntity
  8
_U+30EC_U+30A4_U+30E4_U+30FC 1
370
     0
100
AcDbVertex
100
AcDb2dVertex
 10
106.7127719824296
 20
-138.1404052389024
 30
0.0
  0
VERTEX
  5
112
330
10E
100
AcDbEntity
  8
_U+30EC_U+30A4_U+30E4_U+30FC 1
370
     0
100
AcDbVertex
100
AcDb2dVertex
 10
107.1276395317983
 20
-137.9411064650807
 30
0.0
  0
VERTEX
  5
113
330
10E
100
AcDbEntity
  8
_U+30EC_U+30A4_U+30E4_U+30FC 1
370
     0
100
AcDbVertex
100
AcDb2dVertex
 10
106.8457715085262
 20
-137.9594300666929
 30
0.0
  0
SEQEND
  5
115
330
10E
100
AcDbEntity
  8
_U+30EC_U+30A4_U+30E4_U+30FC 1
370
     0
  0
HATCH
  5
114
330
1F
100
AcDbEntity
  8
_U+30EC_U+30A4_U+30E4_U+30FC 1
 62
   179
420
  2234388
100
AcDbHatch
 10
0.0
 20
0.0
 30
0.0
210
0.0
220
0.0
230
1.0
  2
SOLID
 70
     1
 71
     0
 91
        1
 92
        1
 93
        4
 72
     1
 10
106.8457715085262
 20
-137.9594300666929
 11
106.8274263750672
 21
-137.6775781923059
 72
     1
 10
106.8274263750672
 20
-137.6775781923059
 11
106.7127719824296
 21
-138.1404052389024
 72
     1
 10
106.7127719824296
 20
-138.1404052389024
 11
107.1276395317983
 21
-137.9411064650807
 72
     1
 10
107.1276395317983
 20
-137.9411064650807
 11
106.8457715085262
 21
-137.9594300666929
 97
        0
 75
     2
 76
     1
 98
        0
  0
POLYLINE
  5
116
330
1F
100
AcDbEntity
  8
_U+30EC_U+30A4_U+30E4_U+30FC 1
 62
   179
420
  2234388
370
     9
100
AcDb2dPolyline
 66
     1
 10
0.0
 20
0.0
 30
0.0
  0
VERTEX
  5
117
330
116
100
AcDbEntity
  8
_U+30EC_U+30A4_U+30E4_U+30FC 1
 62
   179
420
  2234388
370
     9
100
AcDbVertex
100
AcDb2dVertex
 10
106.8457715085262
 20
-137.9594300666929
 30
0.0
  0
VERTEX
  5
118
330
116
100
AcDbEntity
  8
_U+30EC_U+30A4_U+30E4_U+30FC 1
 62
   179
420
  2234388
370
     9
100
AcDbVertex
100
AcDb2dVertex
 10
106.8274263750672
 20
-137.6775781923059
 30
0.0
  0
VERTEX
  5
119
330
116
100
AcDbEntity
  8
_U+30EC_U+30A4_U+30E4_U+30FC 1
 62
   179
420
  2234388
370
     9
100
AcDbVertex
100
AcDb2dVertex
 10
106.7127719824296
 20
-138.1404052389024
 30
0.0
  0
VERTEX
  5
11A
330
116
100
AcDbEntity
  8
_U+30EC_U+30A4_U+30E4_U+30FC 1
 62
   179
420
  2234388
370
     9
100
AcDbVertex
100
AcDb2dVertex
 10
107.1276395317983
 20
-137.9411064650807
 30
0.0
  0
VERTEX
  5
11B
330
116
100
AcDbEntity
  8
_U+30EC_U+30A4_U+30E4_U+30FC 1
 62
   179
420
  2234388
370
     9
100
AcDbVertex
100
AcDb2dVertex
 10
106.8457715085262
 20
-137.9594300666929
 30
0.0
  0
SEQEND
  5
11C
330
116
100
AcDbEntity
  8
_U+30EC_U+30A4_U+30E4_U+30FC 1
 62
   179
420
  2234388
370
     9
  0
POLYLINE
  5
11D
330
1F
100
AcDbEntity
  8
_U+30EC_U+30A4_U+30E4_U+30FC 1
 62
   179
420
  2234388
370
     9
100
AcDb2dPolyline
 66
     1
 10
0.0
 20
0.0
 30
0.0
  0
VERTEX
  5
11E
330
11D
100
AcDbEntity
  8
_U+30EC_U+30A4_U+30E4_U+30FC 1
 62
   179
420
  2234388
370
     9
100
AcDbVertex
100
AcDb2dVertex
 10
106.8854224043767
 20
-137.9089809496807
 30
0.0
  0
VERTEX
  5
11F
330
11D
100
AcDbEntity
  8
_U+30EC_U+30A4_U+30E4_U+30FC 1
 62
   179
420
  2234388
370
     9
100
AcDbVertex
100
AcDb2dVertex
 10
109.7245740404264
 20
-135.0867587281641
 30
0.0
  0
SEQEND
  5
120
330
11D
100
AcDbEntity
  8
_U+30EC_U+30A4_U+30E4_U+30FC 1
 62
   179
420
  2234388
370
     9
  0
INSERT
  5
122
330
1F
100
AcDbEntity
  8
_U+30EC_U+30A4_U+30E4_U+30FC 1
100
AcDbBlockReference
  2
block 7
 10
0.0
 20
0.0
 30
0.0
  0
POLYLINE
  5
15D
330
1F
100
AcDbEntity
  8
_U+30EC_U+30A4_U+30E4_U+30FC 1
370
     0
100
AcDb2dPolyline
 66
     1
 10
0.0
 20
0.0
 30
0.0
  0
VERTEX
  5
15E
330
15D
100
AcDbEntity
  8
_U+30EC_U+30A4_U+30E4_U+30FC 1
370
     0
100
AcDbVertex
100
AcDb2dVertex
 10
128.9058267906902
 20
-166.8870554927108
 30
0.0
  0
VERTEX
  5
15F
330
15D
100
AcDbEntity
  8
_U+30EC_U+30A4_U+30E4_U+30FC 1
370
     0
100
AcDbVertex
100
AcDb2dVertex
 10
80.30113352563612
 20
-166.8870554927108
 30
0.0
  0
VERTEX
  5
160
330
15D
100
AcDbEntity
  8
_U+30EC_U+30A4_U+30E4_U+30FC 1
370
     0
100
AcDbVertex
100
AcDb2dVertex
 10
80.30113352563612
 20
-130.1749999414463
 30
0.0
  0
VERTEX
  5
161
330
15D
100
AcDbEntity
  8
_U+30EC_U+30A4_U+30E4_U+30FC 1
370
     0
100
AcDbVertex
100
AcDb2dVertex
 10
128.9058267906902
 20
-130.1749999414463
 30
0.0
  0
VERTEX
  5
162
330
15D
100
AcDbEntity
  8
_U+30EC_U+30A4_U+30E4_U+30FC 1
370
     0
100
AcDbVertex
100
AcDb2dVertex
 10
128.9058267906902
 20
-166.8870554927108
 30
0.0
  0
SEQEND
  5
163
330
15D
100
AcDbEntity
  8
_U+30EC_U+30A4_U+30E4_U+30FC 1
370
     0
  0
ENDSEC
  0
SECTION
  2
OBJECTS
  0
DICTIONARY
  5
C
330
0
100
AcDbDictionary
281
     1
  3
ACAD_GROUP
350
D
  3
ACAD_LAYOUT
350
1A
  3
ACAD_MATERIAL
350
3B
  3
ACAD_MLEADERSTYLE
350
165
  3
ACAD_MLINESTYLE
350
17
  3
ACAD_PLOTSETTINGS
350
19
  3
ACAD_PLOTSTYLENAME
350
E
  3
ACAD_TABLESTYLE
350
164
  3
ACAD_VISUALSTYLE
350
2A
  0
SUN
  5
3F
330
29
100
AcDbSun
 90
        1
290
     0
 63
     7
421
 16777215
 40
1.0
291
     1
 91
  2455826
 92
 54000000
292
     0
 70
     2
 71
   256
280
     1
  0
DICTIONARY
  5
D
102
{ACAD_REACTORS
330
C
102
}
330
C
100
AcDbDictionary
281
     1
  0
DICTIONARY
  5
1A
102
{ACAD_REACTORS
330
C
102
}
330
C
100
AcDbDictionary
281
     1
  3
Layout1
350
1E
  3
Layout2
350
26
  3
Model
350
22
  0
DICTIONARY
  5
3B
102
{ACAD_REACTORS
330
C
102
}
330
C
100
AcDbDictionary
281
     1
  3
ByBlock
350
3D
  3
ByLayer
350
3C
  3
Global
350
3E
  0
DICTIONARY
  5
165
102
{ACAD_REACTORS
330
C
102
}
330
C
100
AcDbDictionary
281
     1
  0
DICTIONARY
  5
17
102
{ACAD_REACTORS
330
C
102
}
330
C
100
AcDbDictionary
281
     1
  3
Standard
350
18
  0
DICTIONARY
  5
19
102
{ACAD_REACTORS
330
C
102
}
330
C
100
AcDbDictionary
281
     1
  0
ACDBDICTIONARYWDFLT
  5
E
102
{ACAD_REACTORS
330
C
102
}
330
C
100
AcDbDictionary
281
     1
  3
Normal
350
F
100
AcDbDictionaryWithDefault
340
F
  0
DICTIONARY
  5
164
102
{ACAD_REACTORS
330
C
102
}
330
C
100
AcDbDictionary
281
     1
  0
DICTIONARY
  5
2A
102
{ACAD_REACTORS
330
C
102
}
330
C
100
AcDbDictionary
281
     1
  3
2dWireframe
350
2F
  3
3D Hidden
350
31
  3
3dWireframe
350
30
  3
Basic
350
32
  3
Brighten
350
36
  3
ColorChange
350
3A
  3
Conceptual
350
34
  3
Dim
350
35
  3
Facepattern
350
39
  3
Flat
350
2B
  3
FlatWithEdges
350
2C
  3
Gouraud
350
2D
  3
GouraudWithEdges
350
2E
  3
Linepattern
350
38
  3
Realistic
350
33
  3
Thicken
350
37
  0
LAYOUT
  5
1E
102
{ACAD_REACTORS
330
1A
102
}
330
1A
100
AcDbPlotSettings
  1

  2
none_device
  4

  6

 40
0.0
 41
0.0
 42
0.0
 43
0.0
 44
0.0
 45
0.0
 46
0.0
 47
0.0
 48
0.0
 49
0.0
140
0.0
141
0.0
142
1.0
143
1.0
 70
   688
 72
     0
 73
     0
 74
     5
  7

 75
    16
 76
     0
 77
     2
 78
   300
147
1.0
148
0.0
149
0.0
100
AcDbLayout
  1
Layout1
 70
     1
 71
     1
 10
0.0
 20
0.0
 11
12.0
 21
9.0
 12
0.0
 22
0.0
 32
0.0
 14
1.000000000000000E+20
 24
1.000000000000000E+20
 34
1.000000000000000E+20
 15
-1.000000000000000E+20
 25
-1.000000000000000E+20
 35
-1.000000000000000E+20
146
0.0
 13
0.0
 23
0.0
 33
0.0
 16
1.0
 26
0.0
 36
0.0
 17
0.0
 27
1.0
 37
0.0
 76
     0
330
1B
  0
LAYOUT
  5
26
102
{ACAD_REACTORS
330
1A
102
}
330
1A
100
AcDbPlotSettings
  1

  2
none_device
  4

  6

 40
0.0
 41
0.0
 42
0.0
 43
0.0
 44
0.0
 45
0.0
 46
0.0
 47
0.0
 48
0.0
 49
0.0
140
0.0
141
0.0
142
1.0
143
1.0
 70
   688
 72
     0
 73
     0
 74
     5
  7

 75
    16
 76
     0
 77
     2
 78
   300
147
1.0
148
0.0
149
0.0
100
AcDbLayout
  1
Layout2
 70
     1
 71
     2
 10
0.0
 20
0.0
 11
0.0
 21
0.0
 12
0.0
 22
0.0
 32
0.0
 14
0.0
 24
0.0
 34
0.0
 15
0.0
 25
0.0
 35
0.0
146
0.0
 13
0.0
 23
0.0
 33
0.0
 16
1.0
 26
0.0
 36
0.0
 17
0.0
 27
1.0
 37
0.0
 76
     0
330
23
  0
LAYOUT
  5
22
102
{ACAD_REACTORS
330
1A
102
}
330
1A
100
AcDbPlotSettings
  1

  2
none_device
  4

  6

 40
0.0
 41
0.0
 42
0.0
 43
0.0
 44
0.0
 45
0.0
 46
0.0
 47
0.0
 48
0.0
 49
0.0
140
0.0
141
0.0
142
1.0
143
1.0
 70
  1712
 72
     0
 73
     0
 74
     0
  7

 75
     0
 76
     0
 77
     2
 78
   300
147
1.0
148
0.0
149
0.0
100
AcDbLayout
  1
Model
 70
     1
 71
     0
 10
0.0
 20
0.0
 11
12.0
 21
9.0
 12
0.0
 22
0.0
 32
0.0
 14
1.000000000000000E+20
 24
1.000000000000000E+20
 34
1.000000000000000E+20
 15
-1.000000000000000E+20
 25
-1.000000000000000E+20
 35
-1.000000000000000E+20
146
0.0
 13
0.0
 23
0.0
 33
0.0
 16
1.0
 26
0.0
 36
0.0
 17
0.0
 27
1.0
 37
0.0
 76
     0
330
1F
331
29
  0
MATERIAL
  5
3D
102
{ACAD_REACTORS
330
3B
102
}
330
3B
100
AcDbMaterial
  1
ByBlock
 72
     1
 94
      127
  0
MATERIAL
  5
3C
102
{ACAD_REACTORS
330
3B
102
}
330
3B
100
AcDbMaterial
  1
ByLayer
 72
     1
 94
      127
  0
MATERIAL
  5
3E
102
{ACAD_REACTORS
330
3B
102
}
330
3B
100
AcDbMaterial
  1
Global
 72
     1
 94
      127
  0
MLINESTYLE
  5
18
102
{ACAD_REACTORS
330
17
102
}
330
17
100
AcDbMlineStyle
  2
Standard
 70
     0
  3

 62
   256
 51
90.0
 52
90.0
 71
     2
 49
0.5
 62
   256
  6
BYLAYER
 49
-0.5
 62
   256
  6
BYLAYER
  0
ACDBPLACEHOLDER
  5
F
102
{ACAD_REACTORS
330
E
102
}
330
E
  0
VISUALSTYLE
  5
2F
102
{ACAD_REACTORS
330
2A
102
}
330
2A
100
AcDbVisualStyle
  2
2dWireframe
 70
     4
177
     2
291
     0
 71
     0
176
     1
 72
     2
176
     1
 73
     0
176
     1
 90
        0
176
     1
 40
-0.6
176
     1
 41
-30.0
176
     1
 62
     5
 63
     7
421
 16777215
176
     1
 74
     1
176
     1
 91
        4
176
     1
 64
     7
176
     1
 65
   257
176
     1
 75
     1
176
     1
175
     1
176
     1
 42
1.0
176
     1
 92
        0
176
     1
 66
   257
176
     1
 43
1.0
176
     1
 76
     1
176
     1
 77
     6
176
     1
 78
     2
176
     1
 67
     7
176
     1
 79
     5
176
     1
170
     0
176
     1
171
     0
176
     1
290
     0
176
     1
 93
        1
176
     1
 44
0.0
176
     1
173
     0
176
     1
  0
VISUALSTYLE
  5
31
102
{ACAD_REACTORS
330
2A
102
}
330
2A
100
AcDbVisualStyle
  2
3D Hidden
 70
     6
177
     2
291
     0
 71
     1
176
     1
 72
     2
176
     1
 73
     2
176
     1
 90
        0
176
     1
 40
-0.6
176
     1
 41
-30.0
176
     1
 62
     5
 63
     7
421
 16777215
176
     1
 74
     2
176
     1
 91
        2
176
     1
 64
     7
176
     1
 65
   257
176
     1
 75
     2
176
     1
175
     1
176
     1
 42
40.0
176
     1
 92
        0
176
     1
 66
   257
176
     1
 43
1.0
176
     1
 76
     1
176
     1
 77
     6
176
     1
 78
     2
176
     1
 67
     7
176
     1
 79
     3
176
     1
170
     0
176
     1
171
     0
176
     1
290
     0
176
     1
 93
        1
176
     1
 44
0.0
176
     1
173
     0
176
     1
  0
VISUALSTYLE
  5
30
102
{ACAD_REACTORS
330
2A
102
}
330
2A
100
AcDbVisualStyle
  2
3dWireframe
 70
     5
177
     2
291
     0
 71
     0
176
     1
 72
     2
176
     1
 73
     0
176
     1
 90
        0
176
     1
 40
-0.6
176
     1
 41
-30.0
176
     1
 62
     5
 63
     7
421
 16777215
176
     1
 74
     1
176
     1
 91
        4
176
     1
 64
     7
176
     1
 65
   257
176
     1
 75
     1
176
     1
175
     1
176
     1
 42
1.0
176
     1
 92
        0
176
     1
 66
   257
176
     1
 43
1.0
176
     1
 76
     1
176
     1
 77
     6
176
     1
 78
     2
176
     1
 67
     7
176
     1
 79
     5
176
     1
170
     0
176
     1
171
     0
176
     1
290
     0
176
     1
 93
        1
176
     1
 44
0.0
176
     1
173
     0
176
     1
  0
VISUALSTYLE
  5
32
102
{ACAD_REACTORS
330
2A
102
}
330
2A
100
AcDbVisualStyle
  2
Basic
 70
     7
177
     2
291
     1
 71
     1
176
     1
 72
     0
176
     1
 73
     1
176
     1
 90
        0
176
     1
 40
-0.6
176
     1
 41
-30.0
176
     1
 62
     5
 63
     7
421
 16777215
176
     1
 74
     0
176
     1
 91
        4
176
     1
 64
     7
176
     1
 65
   257
176
     1
 75
     1
176
     1
175
     1
176
     1
 42
1.0
176
     1
 92
        8
176
     1
 66
     7
176
     1
 43
1.0
176
     1
 76
     1
176
     1
 77
     6
176
     1
 78
     2
176
     1
 67
     7
176
     1
 79
     5
176
     1
170
     0
176
     1
171
     0
176
     1
290
     0
176
     1
 93
        1
176
     1
 44
0.0
176
     1
173
     0
176
     1
  0
VISUALSTYLE
  5
36
102
{ACAD_REACTORS
330
2A
102
}
330
2A
100
AcDbVisualStyle
  2
Brighten
 70
    12
177
     2
291
     1
 71
     2
176
     1
 72
     2
176
     1
 73
     0
176
     1
 90
        0
176
     1
 40
-0.6
176
     1
 41
-30.0
176
     1
 62
     5
 63
     7
421
 16777215
176
     1
 74
     1
176
     1
 91
        4
176
     1
 64
     7
176
     1
 65
   257
176
     1
 75
     1
176
     1
175
     1
176
     1
 42
1.0
176
     1
 92
        8
176
     1
 66
     7
176
     1
 43
1.0
176
     1
 76
     1
176
     1
 77
     6
176
     1
 78
     2
176
     1
 67
     7
176
     1
 79
     5
176
     1
170
     0
176
     1
171
     0
176
     1
290
     0
176
     1
 93
        1
176
     1
 44
50.0
176
     1
173
     0
176
     1
  0
VISUALSTYLE
  5
3A
102
{ACAD_REACTORS
330
2A
102
}
330
2A
100
AcDbVisualStyle
  2
ColorChange
 70
    16
177
     2
291
     1
 71
     2
176
     1
 72
     2
176
     1
 73
     3
176
     1
 90
        0
176
     1
 40
-0.6
176
     1
 41
-30.0
176
     1
 62
     5
 63
     8
421
  8421504
176
     1
 74
     1
176
     1
 91
        4
176
     1
 64
     7
176
     1
 65
   257
176
     1
 75
     1
176
     1
175
     1
176
     1
 42
1.0
176
     1
 92
        8
176
     1
 66
     8
424
  8421504
176
     1
 43
1.0
176
     1
 76
     1
176
     1
 77
     6
176
     1
 78
     2
176
     1
 67
     7
176
     1
 79
     5
176
     1
170
     0
176
     1
171
     0
176
     1
290
     0
176
     1
 93
        1
176
     1
 44
0.0
176
     1
173
     0
176
     1
  0
VISUALSTYLE
  5
34
102
{ACAD_REACTORS
330
2A
102
}
330
2A
100
AcDbVisualStyle
  2
Conceptual
 70
     9
177
     2
291
     0
 71
     3
176
     1
 72
     2
176
     1
 73
     0
176
     1
 90
        0
176
     1
 40
-0.6
176
     1
 41
-30.0
176
     1
 62
     5
 63
     7
421
 16777215
176
     1
 74
     2
176
     1
 91
        2
176
     1
 64
     7
176
     1
 65
   257
176
     1
 75
     1
176
     1
175
     1
176
     1
 42
40.0
176
     1
 92
        8
176
     1
 66
     7
176
     1
 43
1.0
176
     1
 76
     1
176
     1
 77
     6
176
     1
 78
     2
176
     1
 67
     7
176
     1
 79
     3
176
     1
170
     0
176
     1
171
     0
176
     1
290
     0
176
     1
 93
        1
176
     1
 44
0.0
176
     1
173
     0
176
     1
  0
VISUALSTYLE
  5
35
102
{ACAD_REACTORS
330
2A
102
}
330
2A
100
AcDbVisualStyle
  2
Dim
 70
    11
177
     2
291
     1
 71
     2
176
     1
 72
     2
176
     1
 73
     0
176
     1
 90
        0
176
     1
 40
-0.6
176
     1
 41
-30.0
176
     1
 62
     5
 63
     7
421
 16777215
176
     1
 74
     1
176
     1
 91
        4
176
     1
 64
     7
176
     1
 65
   257
176
     1
 75
     1
176
     1
175
     1
176
     1
 42
1.0
176
     1
 92
        8
176
     1
 66
     7
176
     1
 43
1.0
176
     1
 76
     1
176
     1
 77
     6
176
     1
 78
     2
176
     1
 67
     7
176
     1
 79
     5
176
     1
170
     0
176
     1
171
     0
176
     1
290
     0
176
     1
 93
        1
176
     1
 44
-50.0
176
     1
173
     0
176
     1
  0
VISUALSTYLE
  5
39
102
{ACAD_REACTORS
330
2A
102
}
330
2A
100
AcDbVisualStyle
  2
Facepattern
 70
    15
177
     2
291
     1
 71
     2
176
     1
 72
     2
176
     1
 73
     0
176
     1
 90
        0
176
     1
 40
-0.6
176
     1
 41
-30.0
176
     1
 62
     5
 63
     7
421
 16777215
176
     1
 74
     1
176
     1
 91
        4
176
     1
 64
     7
176
     1
 65
   257
176
     1
 75
     1
176
     1
175
     1
176
     1
 42
1.0
176
     1
 92
        8
176
     1
 66
     7
176
     1
 43
1.0
176
     1
 76
     1
176
     1
 77
     6
176
     1
 78
     2
176
     1
 67
     7
176
     1
 79
     5
176
     1
170
     0
176
     1
171
     0
176
     1
290
     0
176
     1
 93
        1
176
     1
 44
0.0
176
     1
173
     0
176
     1
  0
VISUALSTYLE
  5
2B
102
{ACAD_REACTORS
330
2A
102
}
330
2A
100
AcDbVisualStyle
  2
Flat
 70
     0
177
     2
291
     1
 71
     2
176
     1
 72
     1
176
     1
 73
     1
176
     1
 90
        2
176
     1
 40
-0.6
176
     1
 41
30.0
176
     1
 62
     5
 63
     7
421
 16777215
176
     1
 74
     0
176
     1
 91
        4
176
     1
 64
     7
176
     1
 65
   257
176
     1
 75
     1
176
     1
175
     1
176
     1
 42
1.0
176
     1
 92
        8
176
     1
 66
     7
176
     1
 43
1.0
176
     1
 76
     1
176
     1
 77
     6
176
     1
 78
     2
176
     1
 67
     7
176
     1
 79
     5
176
     1
170
     0
176
     1
171
     0
176
     1
290
     0
176
     1
 93
       13
176
     1
 44
0.0
176
     1
173
     0
176
     1
  0
VISUALSTYLE
  5
2C
102
{ACAD_REACTORS
330
2A
102
}
330
2A
100
AcDbVisualStyle
  2
FlatWithEdges
 70
     1
177
     2
291
     1
 71
     2
176
     1
 72
     1
176
     1
 73
     1
176
     1
 90
        2
176
     1
 40
-0.6
176
     1
 41
30.0
176
     1
 62
     5
 63
     7
421
 16777215
176
     1
 74
     1
176
     1
 91
        4
176
     1
 64
     7
176
     1
 65
   257
176
     1
 75
     1
176
     1
175
     1
176
     1
 42
1.0
176
     1
 92
        0
176
     1
 66
   257
176
     1
 43
1.0
176
     1
 76
     1
176
     1
 77
     6
176
     1
 78
     2
176
     1
 67
     7
176
     1
 79
     5
176
     1
170
     0
176
     1
171
     0
176
     1
290
     0
176
     1
 93
       13
176
     1
 44
0.0
176
     1
173
     0
176
     1
  0
VISUALSTYLE
  5
2D
102
{ACAD_REACTORS
330
2A
102
}
330
2A
100
AcDbVisualStyle
  2
Gouraud
 70
     2
177
     2
291
     1
 71
     2
176
     1
 72
     2
176
     1
 73
     1
176
     1
 90
        2
176
     1
 40
-0.6
176
     1
 41
30.0
176
     1
 62
     5
 63
     7
421
 16777215
176
     1
 74
     0
176
     1
 91
        4
176
     1
 64
     7
176
     1
 65
   257
176
     1
 75
     1
176
     1
175
     1
176
     1
 42
1.0
176
     1
 92
        0
176
     1
 66
     7
176
     1
 43
1.0
176
     1
 76
     1
176
     1
 77
     6
176
     1
 78
     2
176
     1
 67
     7
176
     1
 79
     5
176
     1
170
     0
176
     1
171
     0
176
     1
290
     0
176
     1
 93
       13
176
     1
 44
0.0
176
     1
173
     0
176
     1
  0
VISUALSTYLE
  5
2E
102
{ACAD_REACTORS
330
2A
102
}
330
2A
100
AcDbVisualStyle
  2
GouraudWithEdges
 70
     3
177
     2
291
     1
 71
     2
176
     1
 72
     2
176
     1
 73
     1
176
     1
 90
        2
176
     1
 40
-0.6
176
     1
 41
30.0
176
     1
 62
     5
 63
     7
421
 16777215
176
     1
 74
     1
176
     1
 91
        4
176
     1
 64
     7
176
     1
 65
   257
176
     1
 75
     1
176
     1
175
     1
176
     1
 42
1.0
176
     1
 92
        0
176
     1
 66
   257
176
     1
 43
1.0
176
     1
 76
     1
176
     1
 77
     6
176
     1
 78
     2
176
     1
 67
     7
176
     1
 79
     5
176
     1
170
     0
176
     1
171
     0
176
     1
290
     0
176
     1
 93
       13
176
     1
 44
0.0
176
     1
173
     0
176
     1
  0
VISUALSTYLE
  5
38
102
{ACAD_REACTORS
330
2A
102
}
330
2A
100
AcDbVisualStyle
  2
Linepattern
 70
    14
177
     2
291
     1
 71
     2
176
     1
 72
     2
176
     1
 73
     0
176
     1
 90
        0
176
     1
 40
-0.6
176
     1
 41
-30.0
176
     1
 62
     5
 63
     7
421
 16777215
176
     1
 74
     1
176
     1
 91
        4
176
     1
 64
     7
176
     1
 65
   257
176
     1
 75
     7
176
     1
175
     7
176
     1
 42
1.0
176
     1
 92
        8
176
     1
 66
     7
176
     1
 43
1.0
176
     1
 76
     1
176
     1
 77
     6
176
     1
 78
     2
176
     1
 67
     7
176
     1
 79
     5
176
     1
170
     0
176
     1
171
     0
176
     1
290
     0
176
     1
 93
        1
176
     1
 44
0.0
176
     1
173
     0
176
     1
  0
VISUALSTYLE
  5
33
102
{ACAD_REACTORS
330
2A
102
}
330
2A
100
AcDbVisualStyle
  2
Realistic
 70
     8
177
     2
291
     0
 71
     2
176
     1
 72
     2
176
     1
 73
     0
176
     1
 90
        0
176
     1
 40
-0.6
176
     1
 41
-30.0
176
     1
 62
     5
 63
     7
421
 16777215
176
     1
 74
     1
176
     1
 91
        0
176
     1
 64
     7
176
     1
 65
   257
176
     1
 75
     1
176
     1
175
     1
176
     1
 42
1.0
176
     1
 92
        8
176
     1
 66
     8
424
  7895160
176
     1
 43
1.0
176
     1
 76
     1
176
     1
 77
     6
176
     1
 78
     2
176
     1
 67
     7
176
     1
 79
     5
176
     1
170
     0
176
     1
171
     0
176
     1
290
     0
176
     1
 93
       13
176
     1
 44
0.0
176
     1
173
     0
176
     1
  0
VISUALSTYLE
  5
37
102
{ACAD_REACTORS
330
2A
102
}
330
2A
100
AcDbVisualStyle
  2
Thicken
 70
    13
177
     2
291
     1
 71
     2
176
     1
 72
     2
176
     1
 73
     0
176
     1
 90
        0
176
     1
 40
-0.6
176
     1
 41
-30.0
176
     1
 62
     5
 63
     7
421
 16777215
176
     1
 74
     1
176
     1
 91
        4
176
     1
 64
     7
176
     1
 65
   257
176
     1
 75
     1
176
     1
175
     1
176
     1
 42
1.0
176
     1
 92
       12
176
     1
 66
     7
176
     1
 43
1.0
176
     1
 76
     1
176
     1
 77
     6
176
     1
 78
     2
176
     1
 67
     7
176
     1
 79
     5
176
     1
170
     0
176
     1
171
     0
176
     1
290
     0
176
     1
 93
        1
176
     1
 44
0.0
176
     1
173
     0
176
     1
  0
ENDSEC
  0
EOF
