  0
SECTION
  2
HEADER
  9
$ACADVER
  1
AC1024
  9
$ACADMAINTVER
 70
     6
  9
$DWGCODEPAGE
  3
UNDEFINED
  9
$INSBASE
 10
0.0
 20
0.0
 30
0.0
  9
$EXTMIN
 10
1.000000000000000E+20
 20
1.000000000000000E+20
 30
1.000000000000000E+20
  9
$EXTMAX
 10
-1.000000000000000E+20
 20
-1.000000000000000E+20
 30
-1.000000000000000E+20
  9
$LIMMIN
 10
0.0
 20
0.0
  9
$LIMMAX
 10
12.0
 20
9.0
  9
$ORTHOMODE
 70
     0
  9
$REGENMODE
 70
     1
  9
$FILLMODE
 70
     1
  9
$QTEXTMODE
 70
     0
  9
$MIRRTEXT
 70
     1
  9
$LTSCALE
 40
1.0
  9
$ATTMODE
 70
     1
  9
$TEXTSIZE
 40
0.2
  9
$TRACEWID
 40
0.05
  9
$TEXTSTYLE
  7
Standard
  9
$CLAYER
  8
0
  9
$CELTYPE
  6
ByLayer
  9
$CECOLOR
 62
   256
  9
$CELTSCALE
 40
1.0
  9
$DISPSILH
 70
     0
  9
$DIMSCALE
 40
1.0
  9
$DIMASZ
 40
0.18
  9
$DIMEXO
 40
0.0625
  9
$DIMDLI
 40
0.38
  9
$DIMRND
 40
0.0
  9
$DIMDLE
 40
0.0
  9
$DIMEXE
 40
0.18
  9
$DIMTP
 40
0.0
  9
$DIMTM
 40
0.0
  9
$DIMTXT
 40
0.18
  9
$DIMCEN
 40
0.09
  9
$DIMTSZ
 40
0.0
  9
$DIMTOL
 70
     0
  9
$DIMLIM
 70
     0
  9
$DIMTIH
 70
     1
  9
$DIMTOH
 70
     1
  9
$DIMSE1
 70
     0
  9
$DIMSE2
 70
     0
  9
$DIMTAD
 70
     0
  9
$DIMZIN
 70
     0
  9
$DIMBLK
  1

  9
$DIMASO
 70
     1
  9
$DIMSHO
 70
     1
  9
$DIMPOST
  1

  9
$DIMAPOST
  1

  9
$DIMALT
 70
     0
  9
$DIMALTD
 70
     2
  9
$DIMALTF
 40
25.4
  9
$DIMLFAC
 40
1.0
  9
$DIMTOFL
 70
     0
  9
$DIMTVP
 40
0.0
  9
$DIMTIX
 70
     0
  9
$DIMSOXD
 70
     0
  9
$DIMSAH
 70
     0
  9
$DIMBLK1
  1

  9
$DIMBLK2
  1

  9
$DIMSTYLE
  2
Standard
  9
$DIMCLRD
 70
     0
  9
$DIMCLRE
 70
     0
  9
$DIMCLRT
 70
     0
  9
$DIMTFAC
 40
1.0
  9
$DIMGAP
 40
0.09
  9
$DIMJUST
 70
     0
  9
$DIMSD1
 70
     0
  9
$DIMSD2
 70
     0
  9
$DIMTOLJ
 70
     1
  9
$DIMTZIN
 70
     0
  9
$DIMALTZ
 70
     0
  9
$DIMALTTZ
 70
     0
  9
$DIMUPT
 70
     0
  9
$DIMDEC
 70
     4
  9
$DIMTDEC
 70
     4
  9
$DIMALTU
 70
     2
  9
$DIMALTTD
 70
     2
  9
$DIMTXSTY
  7
Standard
  9
$DIMAUNIT
 70
     0
  9
$DIMADEC
 70
     0
  9
$DIMALTRND
 40
0.0
  9
$DIMAZIN
 70
     0
  9
$DIMDSEP
 70
    46
  9
$DIMATFIT
 70
     3
  9
$DIMFRAC
 70
     0
  9
$DIMLDRBLK
  1

  9
$DIMLUNIT
 70
     2
  9
$DIMLWD
 70
    -2
  9
$DIMLWE
 70
    -2
  9
$DIMTMOVE
 70
     0
  9
$DIMFXL
 40
1.0
  9
$DIMFXLON
 70
     0
  9
$DIMJOGANG
 40
0.7853981633974483
  9
$DIMTFILL
 70
     0
  9
$DIMTFILLCLR
 70
     0
  9
$DIMARCSYM
 70
     0
  9
$DIMLTYPE
  6

  9
$DIMLTEX1
  6

  9
$DIMLTEX2
  6

  9
$DIMTXTDIRECTION
 70
     0
  9
$LUNITS
 70
     2
  9
$LUPREC
 70
     4
  9
$SKETCHINC
 40
0.1
  9
$FILLETRAD
 40
0.5
  9
$AUNITS
 70
     0
  9
$AUPREC
 70
     0
  9
$MENU
  1
.
  9
$ELEVATION
 40
0.0
  9
$PELEVATION
 40
0.0
  9
$THICKNESS
 40
0.0
  9
$LIMCHECK
 70
     0
  9
$CHAMFERA
 40
0.5
  9
$CHAMFERB
 40
0.5
  9
$CHAMFERC
 40
1.0
  9
$CHAMFERD
 40
0.0
  9
$SKPOLY
 70
     0
  9
$TDCREATE
 40
2458270.587152766
  9
$TDUCREATE
 40
2458270.212152778
  9
$TDUPDATE
 40
2458270.587152766
  9
$TDUUPDATE
 40
2458270.212152778
  9
$TDINDWG
 40
0.0000000116
  9
$TDUSRTIMER
 40
0.0000000116
  9
$USRTIMER
 70
     1
  9
$ANGBASE
 50
0.0
  9
$ANGDIR
 70
     0
  9
$PDMODE
 70
     0
  9
$PDSIZE
 40
0.0
  9
$PLINEWID
 40
0.0
  9
$SPLFRAME
 70
     0
  9
$SPLINETYPE
 70
     6
  9
$SPLINESEGS
 70
     8
  9
$HANDSEED
  5
B8
  9
$SURFTAB1
 70
     6
  9
$SURFTAB2
 70
     6
  9
$SURFTYPE
 70
     6
  9
$SURFU
 70
     6
  9
$SURFV
 70
     6
  9
$UCSBASE
  2

  9
$UCSNAME
  2

  9
$UCSORG
 10
0.0
 20
0.0
 30
0.0
  9
$UCSXDIR
 10
1.0
 20
0.0
 30
0.0
  9
$UCSYDIR
 10
0.0
 20
1.0
 30
0.0
  9
$UCSORTHOREF
  2

  9
$UCSORTHOVIEW
 70
     0
  9
$UCSORGTOP
 10
0.0
 20
0.0
 30
0.0
  9
$UCSORGBOTTOM
 10
0.0
 20
0.0
 30
0.0
  9
$UCSORGLEFT
 10
0.0
 20
0.0
 30
0.0
  9
$UCSORGRIGHT
 10
0.0
 20
0.0
 30
0.0
  9
$UCSORGFRONT
 10
0.0
 20
0.0
 30
0.0
  9
$UCSORGBACK
 10
0.0
 20
0.0
 30
0.0
  9
$PUCSBASE
  2

  9
$PUCSNAME
  2

  9
$PUCSORG
 10
0.0
 20
0.0
 30
0.0
  9
$PUCSXDIR
 10
1.0
 20
0.0
 30
0.0
  9
$PUCSYDIR
 10
0.0
 20
1.0
 30
0.0
  9
$PUCSORTHOREF
  2

  9
$PUCSORTHOVIEW
 70
     0
  9
$PUCSORGTOP
 10
0.0
 20
0.0
 30
0.0
  9
$PUCSORGBOTTOM
 10
0.0
 20
0.0
 30
0.0
  9
$PUCSORGLEFT
 10
0.0
 20
0.0
 30
0.0
  9
$PUCSORGRIGHT
 10
0.0
 20
0.0
 30
0.0
  9
$PUCSORGFRONT
 10
0.0
 20
0.0
 30
0.0
  9
$PUCSORGBACK
 10
0.0
 20
0.0
 30
0.0
  9
$USERI1
 70
     0
  9
$USERI2
 70
     0
  9
$USERI3
 70
     0
  9
$USERI4
 70
     0
  9
$USERI5
 70
     0
  9
$USERR1
 40
0.0
  9
$USERR2
 40
0.0
  9
$USERR3
 40
0.0
  9
$USERR4
 40
0.0
  9
$USERR5
 40
0.0
  9
$WORLDVIEW
 70
     1
  9
$SHADEDGE
 70
     3
  9
$SHADEDIF
 70
    70
  9
$TILEMODE
 70
     1
  9
$MAXACTVP
 70
    64
  9
$PINSBASE
 10
0.0
 20
0.0
 30
0.0
  9
$PLIMCHECK
 70
     0
  9
$PEXTMIN
 10
1.000000000000000E+20
 20
1.000000000000000E+20
 30
1.000000000000000E+20
  9
$PEXTMAX
 10
-1.000000000000000E+20
 20
-1.000000000000000E+20
 30
-1.000000000000000E+20
  9
$PLIMMIN
 10
0.0
 20
0.0
  9
$PLIMMAX
 10
12.0
 20
9.0
  9
$UNITMODE
 70
     0
  9
$VISRETAIN
 70
     1
  9
$PLINEGEN
 70
     0
  9
$PSLTSCALE
 70
     1
  9
$TREEDEPTH
 70
  3020
  9
$CMLSTYLE
  2
Standard
  9
$CMLJUST
 70
     0
  9
$CMLSCALE
 40
1.0
  9
$PROXYGRAPHICS
 70
     1
  9
$MEASUREMENT
 70
     0
  9
$CELWEIGHT
370
    -1
  9
$ENDCAPS
280
     0
  9
$JOINSTYLE
280
     0
  9
$LWDISPLAY
290
     1
  9
$INSUNITS
 70
     1
  9
$HYPERLINKBASE
  1

  9
$STYLESHEET
  1

  9
$XEDIT
290
     1
  9
$CEPSNTYPE
380
     0
  9
$PSTYLEMODE
290
     1
  9
$FINGERPRINTGUID
  2
{A597E1F4-73AE-857E-9909-9778713DB37E}
  9
$VERSIONGUID
  2
{FAEB1C32-E019-11D5-929B-00C0DF256EC4}
  9
$EXTNAMES
290
     1
  9
$PSVPSCALE
 40
0.0
  9
$OLESTARTUP
290
     0
  9
$SORTENTS
280
   127
  9
$INDEXCTL
280
     0
  9
$HIDETEXT
280
     1
  9
$XCLIPFRAME
280
     2
  9
$HALOGAP
280
     0
  9
$OBSCOLOR
 70
   257
  9
$OBSLTYPE
280
     0
  9
$INTERSECTIONDISPLAY
280
     0
  9
$INTERSECTIONCOLOR
 70
   257
  9
$DIMASSOC
280
     2
  9
$PROJECTNAME
  1

  9
$CAMERADISPLAY
290
     0
  9
$LENSLENGTH
 40
50.0
  9
$CAMERAHEIGHT
 40
0.0
  9
$STEPSPERSEC
 40
2.0
  9
$STEPSIZE
 40
6.0
  9
$3DDWFPREC
 40
2.0
  9
$PSOLWIDTH
 40
0.25
  9
$PSOLHEIGHT
 40
4.0
  9
$LOFTANG1
 40
1.570796326794897
  9
$LOFTANG2
 40
1.570796326794897
  9
$LOFTMAG1
 40
0.0
  9
$LOFTMAG2
 40
0.0
  9
$LOFTPARAM
 70
     7
  9
$LOFTNORMALS
280
     1
  9
$LATITUDE
 40
37.795
  9
$LONGITUDE
 40
-122.394
  9
$NORTHDIRECTION
 40
0.0
  9
$TIMEZONE
 70
 -8000
  9
$LIGHTGLYPHDISPLAY
280
     1
  9
$TILEMODELIGHTSYNCH
280
     1
  9
$CMATERIAL
347
3C
  9
$SOLIDHIST
280
     1
  9
$SHOWHIST
280
     1
  9
$DWFFRAME
280
     2
  9
$DGNFRAME
280
     2
  9
$REALWORLDSCALE
290
     1
  9
$INTERFERECOLOR
 62
   256
  9
$CSHADOW
280
     0
  9
$SHADOWPLANELOCATION
 40
0.0
  0
ENDSEC
  0
SECTION
  2
CLASSES
  0
CLASS
  1
ACDBDICTIONARYWDFLT
  2
AcDbDictionaryWithDefault
  3
ObjectDBX Classes
 90
        0
 91
        4
280
     0
281
     0
  0
CLASS
  1
VISUALSTYLE
  2
AcDbVisualStyle
  3
ObjectDBX Classes
 90
     4095
 91
        4
280
     0
281
     0
  0
CLASS
  1
MATERIAL
  2
AcDbMaterial
  3
ObjectDBX Classes
 90
     1153
 91
        4
280
     0
281
     0
  0
CLASS
  1
SUN
  2
AcDbSun
  3
SCENEOE
 90
     1024
 91
        4
280
     0
281
     0
  0
ENDSEC
  0
SECTION
  2
TABLES
  0
TABLE
  2
VPORT
  5
8
330
0
100
AcDbSymbolTable
 70
     1
  0
VPORT
  5
29
330
8
100
AcDbSymbolTableRecord
100
AcDbViewportTableRecord
  2
*Active
 70
     0
 10
0.0
 20
0.0
 11
1.0
 21
1.0
 12
0.0
 22
0.0
 13
0.0
 23
0.0
 14
0.5
 24
0.5
 15
0.5
 25
0.5
 16
0.0
 26
0.0
 36
1.0
 17
105.0007777515277
 27
-148.5000416295416
 37
0.0
 40
297.0000832590831
 41
0.7070757462376333
 42
50.0
 43
0.0
 44
0.0
 50
0.0
 51
0.0
 71
     0
 72
   100
 73
     1
 74
     3
 75
     0
 76
     0
 77
     0
 78
     0
281
     0
 65
     1
110
0.0
120
0.0
130
0.0
111
1.0
121
0.0
131
0.0
112
0.0
122
1.0
132
0.0
 79
     0
146
0.0
 60
     3
 61
     5
292
     1
282
     1
141
0.0
142
0.0
 63
   250
361
3F
  0
ENDTAB
  0
TABLE
  2
LTYPE
  5
5
330
0
100
AcDbSymbolTable
 70
     1
  0
LTYPE
  5
14
330
5
100
AcDbSymbolTableRecord
100
AcDbLinetypeTableRecord
  2
ByBlock
 70
     0
  3

 72
    65
 73
     0
 40
0.0
  0
LTYPE
  5
15
330
5
100
AcDbSymbolTableRecord
100
AcDbLinetypeTableRecord
  2
ByLayer
 70
     0
  3

 72
    65
 73
     0
 40
0.0
  0
LTYPE
  5
16
330
5
100
AcDbSymbolTableRecord
100
AcDbLinetypeTableRecord
  2
Continuous
 70
     0
  3
Solid line
 72
    65
 73
     0
 40
0.0
  0
ENDTAB
  0
TABLE
  2
LAYER
  5
2
330
0
100
AcDbSymbolTable
 70
     2
  0
LAYER
  5
10
330
2
100
AcDbSymbolTableRecord
100
AcDbLayerTableRecord
  2
0
 70
     0
 62
     7
  6
Continuous
370
    -3
390
F
347
3E
  0
LAYER
  5
40
330
2
100
AcDbSymbolTableRecord
100
AcDbLayerTableRecord
  2
_U+30EC_U+30A4_U+30E4_U+30FC 1
 70
     0
 62
     7
  6
Continuous
370
    -3
390
F
347
3E
  0
ENDTAB
  0
TABLE
  2
STYLE
  5
3
330
0
100
AcDbSymbolTable
 70
     1
  0
STYLE
  5
11
330
3
100
AcDbSymbolTableRecord
100
AcDbTextStyleTableRecord
  2
Standard
 70
     0
 40
0.0
 41
1.0
 50
0.0
 71
     0
 42
0.2
  3
txt
  4

  0
ENDTAB
  0
TABLE
  2
VIEW
  5
6
330
0
100
AcDbSymbolTable
 70
     0
  0
ENDTAB
  0
TABLE
  2
UCS
  5
7
330
0
100
AcDbSymbolTable
 70
     0
  0
ENDTAB
  0
TABLE
  2
APPID
  5
9
330
0
100
AcDbSymbolTable
 70
     1
  0
APPID
  5
12
330
9
100
AcDbSymbolTableRecord
100
AcDbRegAppTableRecord
  2
ACAD
 70
     0
  0
ENDTAB
  0
TABLE
  2
DIMSTYLE
  5
A
330
0
100
AcDbSymbolTable
 70
     1
100
AcDbDimStyleTable
  0
DIMSTYLE
105
27
330
A
100
AcDbSymbolTableRecord
100
AcDbDimStyleTableRecord
  2
Standard
 70
     0
178
     0
340
11
  0
ENDTAB
  0
TABLE
  2
BLOCK_RECORD
  5
1
330
0
100
AcDbSymbolTable
 70
     5
  0
BLOCK_RECORD
  5
1F
330
1
100
AcDbSymbolTableRecord
100
AcDbBlockTableRecord
  2
*Model_Space
340
22
 70
     0
280
     1
281
     0
  0
BLOCK_RECORD
  5
1B
330
1
100
AcDbSymbolTableRecord
100
AcDbBlockTableRecord
  2
*Paper_Space
340
1E
 70
     0
280
     1
281
     0
  0
BLOCK_RECORD
  5
23
330
1
100
AcDbSymbolTableRecord
100
AcDbBlockTableRecord
  2
*Paper_Space0
340
26
 70
     0
280
     1
281
     0
  0
BLOCK_RECORD
  5
51
330
1
100
AcDbSymbolTableRecord
100
AcDbBlockTableRecord
  2
block 2
340
0
102
{BLKREFS
331
52
102
}
 70
     0
280
     1
281
     0
  0
BLOCK_RECORD
  5
67
330
1
100
AcDbSymbolTableRecord
100
AcDbBlockTableRecord
  2
block 3
340
0
102
{BLKREFS
331
68
102
}
 70
     0
280
     1
281
     0
  0
BLOCK_RECORD
  5
90
330
1
100
AcDbSymbolTableRecord
100
AcDbBlockTableRecord
  2
block 4
340
0
102
{BLKREFS
331
91
102
}
 70
     0
280
     1
281
     0
  0
BLOCK_RECORD
  5
A6
330
1
100
AcDbSymbolTableRecord
100
AcDbBlockTableRecord
  2
block 5
340
0
102
{BLKREFS
331
A7
102
}
 70
     0
280
     1
281
     0
  0
ENDTAB
  0
ENDSEC
  0
SECTION
  2
BLOCKS
  0
BLOCK
  5
20
330
1F
100
AcDbEntity
  8
0
100
AcDbBlockBegin
  2
*Model_Space
 70
     0
 10
0.0
 20
0.0
 30
0.0
  3
*Model_Space
  1

  0
ENDBLK
  5
21
330
1F
100
AcDbEntity
  8
0
100
AcDbBlockEnd
  0
BLOCK
  5
1C
330
1B
100
AcDbEntity
 67
     1
  8
0
100
AcDbBlockBegin
  2
*Paper_Space
 70
     0
 10
0.0
 20
0.0
 30
0.0
  3
*Paper_Space
  1

  0
ENDBLK
  5
1D
330
1B
100
AcDbEntity
 67
     1
  8
0
100
AcDbBlockEnd
  0
BLOCK
  5
24
330
23
100
AcDbEntity
  8
0
100
AcDbBlockBegin
  2
*Paper_Space0
 70
     0
 10
0.0
 20
0.0
 30
0.0
  3
*Paper_Space0
  1

  0
ENDBLK
  5
25
330
23
100
AcDbEntity
  8
0
100
AcDbBlockEnd
  0
BLOCK
  5
53
330
51
100
AcDbEntity
  8
0
100
AcDbBlockBegin
  2
block 2
 70
     0
 10
0.0
 20
0.0
 30
0.0
  3
block 2
  1

  0
SPLINE
  5
55
330
51
100
AcDbEntity
  8
_U+30EC_U+30A4_U+30E4_U+30FC 1
370
     0
100
AcDbSpline
210
0.0
220
0.0
230
1.0
 70
    11
 71
     3
 72
    44
 73
    40
 74
     0
 42
0.0000000001
 43
0.0000000001
 12
1.0
 22
0.0
 32
0.0
 13
1.0
 23
0.0
 33
0.0
 40
0.0
 40
0.0
 40
0.0
 40
0.0
 40
1.0
 40
1.0
 40
1.0
 40
2.0
 40
2.0
 40
2.0
 40
3.0
 40
3.0
 40
3.0
 40
4.0
 40
4.0
 40
4.0
 40
5.0
 40
5.0
 40
5.0
 40
6.0
 40
6.0
 40
6.0
 40
7.0
 40
7.0
 40
7.0
 40
8.0
 40
8.0
 40
8.0
 40
9.0
 40
9.0
 40
9.0
 40
10.0
 40
10.0
 40
10.0
 40
11.0
 40
11.0
 40
11.0
 40
12.0
 40
12.0
 40
12.0
 40
13.0
 40
13.0
 40
13.0
 40
13.0
 10
96.81217852397404
 20
-151.3206515463712
 30
0.0
 10
96.9708251710698
 20
-151.5115098362541
 30
0.0
 10
97.04489472400267
 20
-151.5931585992545
 30
0.0
 10
97.18872746051186
 20
-151.6355332737231
 30
0.0
 10
97.18872746051186
 20
-151.6355332737231
 30
0.0
 10
97.18872746051186
 20
-150.9540933867407
 30
0.0
 10
97.18872746051186
 20
-150.9540933867407
 30
0.0
 10
97.18872746051186
 20
-150.9540933867407
 30
0.0
 10
97.39388289665848
 20
-150.9540933867407
 30
0.0
 10
97.39388289665848
 20
-150.9540933867407
 30
0.0
 10
97.39388289665848
 20
-150.9540933867407
 30
0.0
 10
97.39388289665848
 20
-151.8539523274879
 30
0.0
 10
97.39388289665848
 20
-151.8539523274879
 30
0.0
 10
97.03628198528955
 20
-151.8260470540574
 30
0.0
 10
96.95807831777438
 20
-151.7688584690022
 30
0.0
 10
96.65973304875173
 20
-151.4319281305448
 30
0.0
 10
96.46095103925282
 20
-151.2079969240036
 30
0.0
 10
96.39325491296766
 20
-151.1504638293999
 30
0.0
 10
96.2557956031062
 20
-151.1504638293999
 30
0.0
 10
96.1372843184136
 20
-151.1504638293999
 30
0.0
 10
96.00602618042558
 20
-151.21350907678
 30
0.0
 10
96.00602618042558
 20
-151.3857638510424
 30
0.0
 10
96.00602618042558
 20
-151.6131401530689
 30
0.0
 10
96.23667532316306
 20
-151.6207193631365
 30
0.0
 10
96.3531195505645
 20
-151.6245089681703
 30
0.0
 10
96.3531195505645
 20
-151.6245089681703
 30
0.0
 10
96.3531195505645
 20
-151.820534901281
 30
0.0
 10
96.3531195505645
 20
-151.820534901281
 30
0.0
 10
96.22616778193304
 20
-151.813300200762
 30
0.0
 10
96.11402992388817
 20
-151.8039984429518
 30
0.0
 10
95.99551863919557
 20
-151.7337184950527
 30
0.0
 10
95.83480493480866
 20
-151.6372558214657
 30
0.0
 10
95.80087074427895
 20
-151.4746473145619
 30
0.0
 10
95.80087074427895
 20
-151.3726724881985
 30
0.0
 10
95.80087074427895
 20
-151.1301377660369
 30
0.0
 10
95.98501109796555
 20
-150.9485812339643
 30
0.0
 10
96.25786266039735
 20
-150.9485812339643
 30
0.0
 10
96.48627249106941
 20
-150.9485812339643
 30
0.0
 10
96.58583575059313
 20
-151.0502115507791
 30
0.0
 10
96.81217852397404
 20
-151.3206515463712
 30
0.0
  0
HATCH
  5
56
330
51
100
AcDbEntity
  8
_U+30EC_U+30A4_U+30E4_U+30FC 1
 62
   179
420
  2234388
100
AcDbHatch
 10
0.0
 20
0.0
 30
0.0
210
0.0
220
0.0
230
1.0
  2
SOLID
 70
     1
 71
     0
 91
        1
 92
        1
 93
        1
 72
     4
 94
        3
 73
     0
 74
     1
 95
       44
 96
       40
 40
0.0
 40
0.0
 40
0.0
 40
0.0
 40
1.0
 40
1.0
 40
1.0
 40
2.0
 40
2.0
 40
2.0
 40
3.0
 40
3.0
 40
3.0
 40
4.0
 40
4.0
 40
4.0
 40
5.0
 40
5.0
 40
5.0
 40
6.0
 40
6.0
 40
6.0
 40
7.0
 40
7.0
 40
7.0
 40
8.0
 40
8.0
 40
8.0
 40
9.0
 40
9.0
 40
9.0
 40
10.0
 40
10.0
 40
10.0
 40
11.0
 40
11.0
 40
11.0
 40
12.0
 40
12.0
 40
12.0
 40
13.0
 40
13.0
 40
13.0
 40
13.0
 10
96.81217852397404
 20
-151.3206515463712
 10
96.9708251710698
 20
-151.5115098362541
 10
97.04489472400267
 20
-151.5931585992545
 10
97.18872746051186
 20
-151.6355332737231
 10
97.18872746051186
 20
-151.6355332737231
 10
97.18872746051186
 20
-150.9540933867407
 10
97.18872746051186
 20
-150.9540933867407
 10
97.18872746051186
 20
-150.9540933867407
 10
97.39388289665848
 20
-150.9540933867407
 10
97.39388289665848
 20
-150.9540933867407
 10
97.39388289665848
 20
-150.9540933867407
 10
97.39388289665848
 20
-151.8539523274879
 10
97.39388289665848
 20
-151.8539523274879
 10
97.03628198528955
 20
-151.8260470540574
 10
96.95807831777438
 20
-151.7688584690022
 10
96.65973304875173
 20
-151.4319281305448
 10
96.46095103925282
 20
-151.2079969240036
 10
96.39325491296766
 20
-151.1504638293999
 10
96.2557956031062
 20
-151.1504638293999
 10
96.1372843184136
 20
-151.1504638293999
 10
96.00602618042558
 20
-151.21350907678
 10
96.00602618042558
 20
-151.3857638510424
 10
96.00602618042558
 20
-151.6131401530689
 10
96.23667532316306
 20
-151.6207193631365
 10
96.3531195505645
 20
-151.6245089681703
 10
96.3531195505645
 20
-151.6245089681703
 10
96.3531195505645
 20
-151.820534901281
 10
96.3531195505645
 20
-151.820534901281
 10
96.22616778193304
 20
-151.813300200762
 10
96.11402992388817
 20
-151.8039984429518
 10
95.99551863919557
 20
-151.7337184950527
 10
95.83480493480866
 20
-151.6372558214657
 10
95.80087074427895
 20
-151.4746473145619
 10
95.80087074427895
 20
-151.3726724881985
 10
95.80087074427895
 20
-151.1301377660369
 10
95.98501109796555
 20
-150.9485812339643
 10
96.25786266039735
 20
-150.9485812339643
 10
96.48627249106941
 20
-150.9485812339643
 10
96.58583575059313
 20
-151.0502115507791
 10
96.81217852397404
 20
-151.3206515463712
 97
        0
 97
        0
 75
     2
 76
     1
 98
        0
  0
SPLINE
  5
57
330
51
100
AcDbEntity
  8
_U+30EC_U+30A4_U+30E4_U+30FC 1
370
     0
100
AcDbSpline
210
0.0
220
0.0
230
1.0
 70
    11
 71
     3
 72
    53
 73
    49
 74
     0
 42
0.0000000001
 43
0.0000000001
 12
1.0
 22
0.0
 32
0.0
 13
1.0
 23
0.0
 33
0.0
 40
0.0
 40
0.0
 40
0.0
 40
0.0
 40
1.0
 40
1.0
 40
1.0
 40
2.0
 40
2.0
 40
2.0
 40
3.0
 40
3.0
 40
3.0
 40
4.0
 40
4.0
 40
4.0
 40
5.0
 40
5.0
 40
5.0
 40
6.0
 40
6.0
 40
6.0
 40
7.0
 40
7.0
 40
7.0
 40
8.0
 40
8.0
 40
8.0
 40
9.0
 40
9.0
 40
9.0
 40
10.0
 40
10.0
 40
10.0
 40
11.0
 40
11.0
 40
11.0
 40
12.0
 40
12.0
 40
12.0
 40
13.0
 40
13.0
 40
13.0
 40
14.0
 40
14.0
 40
14.0
 40
15.0
 40
15.0
 40
15.0
 40
16.0
 40
16.0
 40
16.0
 40
16.0
 10
97.44469805506591
 20
-150.3880641985141
 30
0.0
 10
97.44469805506591
 20
-150.4566215986706
 30
0.0
 10
97.42781708718819
 20
-150.54550506219
 30
0.0
 10
97.36425507548533
 20
-150.6343885257095
 30
0.0
 10
97.2541842747316
 20
-150.786317236609
 30
0.0
 10
97.12309839151784
 20
-150.8049207522293
 30
0.0
 10
97.01526690282952
 20
-150.8214572105585
 30
0.0
 10
97.01526690282952
 20
-150.8214572105585
 30
0.0
 10
97.01526690282952
 20
-150.6271538251904
 30
0.0
 10
97.01526690282952
 20
-150.6271538251904
 30
0.0
 10
97.21404891232844
 20
-150.578922488397
 30
0.0
 10
97.24367673350159
 20
-150.4676459042234
 30
0.0
 10
97.24367673350159
 20
-150.3863416507715
 30
0.0
 10
97.24367673350159
 20
-150.2640407610451
 30
0.0
 10
97.14428572875212
 20
-150.1307155657659
 30
0.0
 10
96.9115695287235
 20
-150.1307155657659
 30
0.0
 10
96.65559893416943
 20
-150.1307155657659
 30
0.0
 10
96.58583575059313
 20
-150.2881564294419
 30
0.0
 10
96.58583575059313
 20
-150.3935763512905
 30
0.0
 10
96.58583575059313
 20
-150.421481624721
 30
0.0
 10
96.58583575059313
 20
-150.54550506219
 30
0.0
 10
96.71485457651573
 20
-150.6233642201567
 30
0.0
 10
96.71485457651573
 20
-150.6233642201567
 30
0.0
 10
96.6957342965726
 20
-150.7770154787988
 30
0.0
 10
96.6957342965726
 20
-150.7770154787988
 30
0.0
 10
96.6957342965726
 20
-150.7770154787988
 30
0.0
 10
95.84961884539524
 20
-150.6712510474016
 30
0.0
 10
95.84961884539524
 20
-150.6712510474016
 30
0.0
 10
95.84961884539524
 20
-150.6712510474016
 30
0.0
 10
95.84961884539524
 20
-149.9898111604192
 30
0.0
 10
95.84961884539524
 20
-149.9898111604192
 30
0.0
 10
95.84961884539524
 20
-149.9898111604192
 30
0.0
 10
96.04426674031185
 20
-149.9898111604192
 30
0.0
 10
96.04426674031185
 20
-149.9898111604192
 30
0.0
 10
96.04426674031185
 20
-149.9898111604192
 30
0.0
 10
96.04426674031185
 20
-150.5286240943123
 30
0.0
 10
96.04426674031185
 20
-150.5286240943123
 30
0.0
 10
96.04426674031185
 20
-150.5286240943123
 30
0.0
 10
96.46732446590053
 20
-150.586157188916
 30
0.0
 10
96.46732446590053
 20
-150.586157188916
 30
0.0
 10
96.43339027537083
 20
-150.5327582088946
 30
0.0
 10
96.39325491296766
 20
-150.4604112037044
 30
0.0
 10
96.39325491296766
 20
-150.3567138295983
 30
0.0
 10
96.39325491296766
 20
-150.1345051707997
 30
0.0
 10
96.57946232394542
 20
-149.9271104225877
 30
0.0
 10
96.89244924878037
 20
-149.9271104225877
 30
0.0
 10
97.20991479774614
 20
-149.9271104225877
 30
0.0
 10
97.44469805506591
 20
-150.1234808652469
 30
0.0
 10
97.44469805506591
 20
-150.3880641985141
 30
0.0
  0
HATCH
  5
58
330
51
100
AcDbEntity
  8
_U+30EC_U+30A4_U+30E4_U+30FC 1
 62
   179
420
  2234388
100
AcDbHatch
 10
0.0
 20
0.0
 30
0.0
210
0.0
220
0.0
230
1.0
  2
SOLID
 70
     1
 71
     0
 91
        1
 92
        1
 93
        1
 72
     4
 94
        3
 73
     0
 74
     1
 95
       53
 96
       49
 40
0.0
 40
0.0
 40
0.0
 40
0.0
 40
1.0
 40
1.0
 40
1.0
 40
2.0
 40
2.0
 40
2.0
 40
3.0
 40
3.0
 40
3.0
 40
4.0
 40
4.0
 40
4.0
 40
5.0
 40
5.0
 40
5.0
 40
6.0
 40
6.0
 40
6.0
 40
7.0
 40
7.0
 40
7.0
 40
8.0
 40
8.0
 40
8.0
 40
9.0
 40
9.0
 40
9.0
 40
10.0
 40
10.0
 40
10.0
 40
11.0
 40
11.0
 40
11.0
 40
12.0
 40
12.0
 40
12.0
 40
13.0
 40
13.0
 40
13.0
 40
14.0
 40
14.0
 40
14.0
 40
15.0
 40
15.0
 40
15.0
 40
16.0
 40
16.0
 40
16.0
 40
16.0
 10
97.44469805506591
 20
-150.3880641985141
 10
97.44469805506591
 20
-150.4566215986706
 10
97.42781708718819
 20
-150.54550506219
 10
97.36425507548533
 20
-150.6343885257095
 10
97.2541842747316
 20
-150.786317236609
 10
97.12309839151784
 20
-150.8049207522293
 10
97.01526690282952
 20
-150.8214572105585
 10
97.01526690282952
 20
-150.8214572105585
 10
97.01526690282952
 20
-150.6271538251904
 10
97.01526690282952
 20
-150.6271538251904
 10
97.21404891232844
 20
-150.578922488397
 10
97.24367673350159
 20
-150.4676459042234
 10
97.24367673350159
 20
-150.3863416507715
 10
97.24367673350159
 20
-150.2640407610451
 10
97.14428572875212
 20
-150.1307155657659
 10
96.9115695287235
 20
-150.1307155657659
 10
96.65559893416943
 20
-150.1307155657659
 10
96.58583575059313
 20
-150.2881564294419
 10
96.58583575059313
 20
-150.3935763512905
 10
96.58583575059313
 20
-150.421481624721
 10
96.58583575059313
 20
-150.54550506219
 10
96.71485457651573
 20
-150.6233642201567
 10
96.71485457651573
 20
-150.6233642201567
 10
96.6957342965726
 20
-150.7770154787988
 10
96.6957342965726
 20
-150.7770154787988
 10
96.6957342965726
 20
-150.7770154787988
 10
95.84961884539524
 20
-150.6712510474016
 10
95.84961884539524
 20
-150.6712510474016
 10
95.84961884539524
 20
-150.6712510474016
 10
95.84961884539524
 20
-149.9898111604192
 10
95.84961884539524
 20
-149.9898111604192
 10
95.84961884539524
 20
-149.9898111604192
 10
96.04426674031185
 20
-149.9898111604192
 10
96.04426674031185
 20
-149.9898111604192
 10
96.04426674031185
 20
-149.9898111604192
 10
96.04426674031185
 20
-150.5286240943123
 10
96.04426674031185
 20
-150.5286240943123
 10
96.04426674031185
 20
-150.5286240943123
 10
96.46732446590053
 20
-150.586157188916
 10
96.46732446590053
 20
-150.586157188916
 10
96.43339027537083
 20
-150.5327582088946
 10
96.39325491296766
 20
-150.4604112037044
 10
96.39325491296766
 20
-150.3567138295983
 10
96.39325491296766
 20
-150.1345051707997
 10
96.57946232394542
 20
-149.9271104225877
 10
96.89244924878037
 20
-149.9271104225877
 10
97.20991479774614
 20
-149.9271104225877
 10
97.44469805506591
 20
-150.1234808652469
 10
97.44469805506591
 20
-150.3880641985141
 97
        0
 97
        0
 75
     2
 76
     1
 98
        0
  0
ENDBLK
  5
54
330
51
100
AcDbEntity
  8
0
100
AcDbBlockEnd
  0
BLOCK
  5
69
330
67
100
AcDbEntity
  8
0
100
AcDbBlockBegin
  2
block 3
 70
     0
 10
0.0
 20
0.0
 30
0.0
  3
block 3
  1

  0
SPLINE
  5
6B
330
67
100
AcDbEntity
  8
_U+30EC_U+30A4_U+30E4_U+30FC 1
370
     0
100
AcDbSpline
210
0.0
220
0.0
230
1.0
 70
    11
 71
     3
 72
    26
 73
    22
 74
     0
 42
0.0000000001
 43
0.0000000001
 12
1.0
 22
0.0
 32
0.0
 13
1.0
 23
0.0
 33
0.0
 40
0.0
 40
0.0
 40
0.0
 40
0.0
 40
1.0
 40
1.0
 40
1.0
 40
2.0
 40
2.0
 40
2.0
 40
3.0
 40
3.0
 40
3.0
 40
4.0
 40
4.0
 40
4.0
 40
5.0
 40
5.0
 40
5.0
 40
6.0
 40
6.0
 40
6.0
 40
7.0
 40
7.0
 40
7.0
 40
7.0
 10
113.5785969768137
 20
-145.9712795316495
 30
0.0
 10
113.5785969768137
 20
-145.9712795316495
 30
0.0
 10
112.4744438737911
 20
-145.9712795316495
 30
0.0
 10
112.4744438737911
 20
-145.9712795316495
 30
0.0
 10
112.4744438737911
 20
-145.9712795316495
 30
0.0
 10
112.4744438737911
 20
-146.3013196791365
 30
0.0
 10
112.4744438737911
 20
-146.3013196791365
 30
0.0
 10
112.4744438737911
 20
-146.3013196791365
 30
0.0
 10
112.3263047679254
 20
-146.3013196791365
 30
0.0
 10
112.3263047679254
 20
-146.3013196791365
 30
0.0
 10
112.3114908573388
 20
-145.9692124743584
 30
0.0
 10
112.1485378408865
 20
-145.9227036853075
 30
0.0
 10
112.0345051803247
 20
-145.8930758641344
 30
0.0
 10
112.0345051803247
 20
-145.8930758641344
 30
0.0
 10
112.0345051803247
 20
-145.7470038155598
 30
0.0
 10
112.0345051803247
 20
-145.7470038155598
 30
0.0
 10
112.0345051803247
 20
-145.7470038155598
 30
0.0
 10
113.5785969768137
 20
-145.7470038155598
 30
0.0
 10
113.5785969768137
 20
-145.7470038155598
 30
0.0
 10
113.5785969768137
 20
-145.7470038155598
 30
0.0
 10
113.5785969768137
 20
-145.9712795316495
 30
0.0
 10
113.5785969768137
 20
-145.9712795316495
 30
0.0
  0
HATCH
  5
6C
330
67
100
AcDbEntity
  8
_U+30EC_U+30A4_U+30E4_U+30FC 1
 62
   179
420
  2234388
100
AcDbHatch
 10
0.0
 20
0.0
 30
0.0
210
0.0
220
0.0
230
1.0
  2
SOLID
 70
     1
 71
     0
 91
        1
 92
        1
 93
        1
 72
     4
 94
        3
 73
     0
 74
     1
 95
       26
 96
       22
 40
0.0
 40
0.0
 40
0.0
 40
0.0
 40
1.0
 40
1.0
 40
1.0
 40
2.0
 40
2.0
 40
2.0
 40
3.0
 40
3.0
 40
3.0
 40
4.0
 40
4.0
 40
4.0
 40
5.0
 40
5.0
 40
5.0
 40
6.0
 40
6.0
 40
6.0
 40
7.0
 40
7.0
 40
7.0
 40
7.0
 10
113.5785969768137
 20
-145.9712795316495
 10
113.5785969768137
 20
-145.9712795316495
 10
112.4744438737911
 20
-145.9712795316495
 10
112.4744438737911
 20
-145.9712795316495
 10
112.4744438737911
 20
-145.9712795316495
 10
112.4744438737911
 20
-146.3013196791365
 10
112.4744438737911
 20
-146.3013196791365
 10
112.4744438737911
 20
-146.3013196791365
 10
112.3263047679254
 20
-146.3013196791365
 10
112.3263047679254
 20
-146.3013196791365
 10
112.3114908573388
 20
-145.9692124743584
 10
112.1485378408865
 20
-145.9227036853075
 10
112.0345051803247
 20
-145.8930758641344
 10
112.0345051803247
 20
-145.8930758641344
 10
112.0345051803247
 20
-145.7470038155598
 10
112.0345051803247
 20
-145.7470038155598
 10
112.0345051803247
 20
-145.7470038155598
 10
113.5785969768137
 20
-145.7470038155598
 10
113.5785969768137
 20
-145.7470038155598
 10
113.5785969768137
 20
-145.7470038155598
 10
113.5785969768137
 20
-145.9712795316495
 10
113.5785969768137
 20
-145.9712795316495
 97
        0
 97
        0
 75
     2
 76
     1
 98
        0
  0
POLYLINE
  5
6D
330
67
100
AcDbEntity
  8
_U+30EC_U+30A4_U+30E4_U+30FC 1
370
     0
100
AcDb2dPolyline
 66
     1
 10
0.0
 20
0.0
 30
0.0
  0
VERTEX
  5
6E
330
6D
100
AcDbEntity
  8
_U+30EC_U+30A4_U+30E4_U+30FC 1
370
     0
100
AcDbVertex
100
AcDb2dVertex
 10
113.231675861449
 20
-144.4137518627681
 30
0.0
  0
VERTEX
  5
6F
330
6D
100
AcDbEntity
  8
_U+30EC_U+30A4_U+30E4_U+30FC 1
370
     0
100
AcDbVertex
100
AcDb2dVertex
 10
113.5785969768137
 20
-144.4137518627681
 30
0.0
  0
VERTEX
  5
70
330
6D
100
AcDbEntity
  8
_U+30EC_U+30A4_U+30E4_U+30FC 1
370
     0
100
AcDbVertex
100
AcDb2dVertex
 10
113.5785969768137
 20
-144.6316541522102
 30
0.0
  0
VERTEX
  5
71
330
6D
100
AcDbEntity
  8
_U+30EC_U+30A4_U+30E4_U+30FC 1
370
     0
100
AcDbVertex
100
AcDb2dVertex
 10
113.231675861449
 20
-144.6316541522102
 30
0.0
  0
VERTEX
  5
72
330
6D
100
AcDbEntity
  8
_U+30EC_U+30A4_U+30E4_U+30FC 1
370
     0
100
AcDbVertex
100
AcDb2dVertex
 10
113.231675861449
 20
-145.2874280778275
 30
0.0
  0
VERTEX
  5
73
330
6D
100
AcDbEntity
  8
_U+30EC_U+30A4_U+30E4_U+30FC 1
370
     0
100
AcDbVertex
100
AcDb2dVertex
 10
113.0074001453593
 20
-145.2874280778275
 30
0.0
  0
VERTEX
  5
74
330
6D
100
AcDbEntity
  8
_U+30EC_U+30A4_U+30E4_U+30FC 1
370
     0
100
AcDbVertex
100
AcDb2dVertex
 10
112.0345051803247
 20
-144.6083997576847
 30
0.0
  0
VERTEX
  5
75
330
6D
100
AcDbEntity
  8
_U+30EC_U+30A4_U+30E4_U+30FC 1
370
     0
100
AcDbVertex
100
AcDb2dVertex
 10
112.0345051803247
 20
-144.4137518627681
 30
0.0
  0
VERTEX
  5
76
330
6D
100
AcDbEntity
  8
_U+30EC_U+30A4_U+30E4_U+30FC 1
370
     0
100
AcDbVertex
100
AcDb2dVertex
 10
113.0328938519501
 20
-144.4137518627681
 30
0.0
  0
VERTEX
  5
77
330
6D
100
AcDbEntity
  8
_U+30EC_U+30A4_U+30E4_U+30FC 1
370
     0
100
AcDbVertex
100
AcDb2dVertex
 10
113.0328938519501
 20
-144.2063571145561
 30
0.0
  0
VERTEX
  5
78
330
6D
100
AcDbEntity
  8
_U+30EC_U+30A4_U+30E4_U+30FC 1
370
     0
100
AcDbVertex
100
AcDb2dVertex
 10
113.231675861449
 20
-144.2063571145561
 30
0.0
  0
VERTEX
  5
79
330
6D
100
AcDbEntity
  8
_U+30EC_U+30A4_U+30E4_U+30FC 1
370
     0
100
AcDbVertex
100
AcDb2dVertex
 10
113.231675861449
 20
-144.4137518627681
 30
0.0
  0
SEQEND
  5
7A
330
6D
100
AcDbEntity
  8
_U+30EC_U+30A4_U+30E4_U+30FC 1
370
     0
  0
POLYLINE
  5
7B
330
67
100
AcDbEntity
  8
_U+30EC_U+30A4_U+30E4_U+30FC 1
370
     0
100
AcDb2dPolyline
 66
     1
 10
0.0
 20
0.0
 30
0.0
  0
VERTEX
  5
7C
330
7B
100
AcDbEntity
  8
_U+30EC_U+30A4_U+30E4_U+30FC 1
370
     0
100
AcDbVertex
100
AcDb2dVertex
 10
112.3769476715585
 20
-144.6316541522102
 30
0.0
  0
VERTEX
  5
7D
330
7B
100
AcDbEntity
  8
_U+30EC_U+30A4_U+30E4_U+30FC 1
370
     0
100
AcDbVertex
100
AcDb2dVertex
 10
113.0328938519501
 20
-145.0884738135543
 30
0.0
  0
VERTEX
  5
7E
330
7B
100
AcDbEntity
  8
_U+30EC_U+30A4_U+30E4_U+30FC 1
370
     0
100
AcDbVertex
100
AcDb2dVertex
 10
113.0328938519501
 20
-144.6316541522102
 30
0.0
  0
VERTEX
  5
7F
330
7B
100
AcDbEntity
  8
_U+30EC_U+30A4_U+30E4_U+30FC 1
370
     0
100
AcDbVertex
100
AcDb2dVertex
 10
112.3769476715585
 20
-144.6316541522102
 30
0.0
  0
SEQEND
  5
80
330
7B
100
AcDbEntity
  8
_U+30EC_U+30A4_U+30E4_U+30FC 1
370
     0
  0
HATCH
  5
81
330
67
100
AcDbEntity
  8
_U+30EC_U+30A4_U+30E4_U+30FC 1
 62
   179
420
  2234388
100
AcDbHatch
 10
0.0
 20
0.0
 30
0.0
210
0.0
220
0.0
230
1.0
  2
SOLID
 70
     1
 71
     0
 91
        2
 92
        1
 93
       11
 72
     1
 10
113.231675861449
 20
-144.4137518627681
 11
113.5785969768137
 21
-144.4137518627681
 72
     1
 10
113.5785969768137
 20
-144.4137518627681
 11
113.5785969768137
 21
-144.6316541522102
 72
     1
 10
113.5785969768137
 20
-144.6316541522102
 11
113.231675861449
 21
-144.6316541522102
 72
     1
 10
113.231675861449
 20
-144.6316541522102
 11
113.231675861449
 21
-145.2874280778275
 72
     1
 10
113.231675861449
 20
-145.2874280778275
 11
113.0074001453593
 21
-145.2874280778275
 72
     1
 10
113.0074001453593
 20
-145.2874280778275
 11
112.0345051803247
 21
-144.6083997576847
 72
     1
 10
112.0345051803247
 20
-144.6083997576847
 11
112.0345051803247
 21
-144.4137518627681
 72
     1
 10
112.0345051803247
 20
-144.4137518627681
 11
113.0328938519501
 21
-144.4137518627681
 72
     1
 10
113.0328938519501
 20
-144.4137518627681
 11
113.0328938519501
 21
-144.2063571145561
 72
     1
 10
113.0328938519501
 20
-144.2063571145561
 11
113.231675861449
 21
-144.2063571145561
 72
     1
 10
113.231675861449
 20
-144.2063571145561
 11
113.231675861449
 21
-144.4137518627681
 97
        0
 92
        1
 93
        3
 72
     1
 10
112.3769476715585
 20
-144.6316541522102
 11
113.0328938519501
 21
-145.0884738135543
 72
     1
 10
113.0328938519501
 20
-145.0884738135543
 11
113.0328938519501
 21
-144.6316541522102
 72
     1
 10
113.0328938519501
 20
-144.6316541522102
 11
112.3769476715585
 21
-144.6316541522102
 97
        0
 75
     2
 76
     1
 98
        0
  0
ENDBLK
  5
6A
330
67
100
AcDbEntity
  8
0
100
AcDbBlockEnd
  0
BLOCK
  5
92
330
90
100
AcDbEntity
  8
0
100
AcDbBlockBegin
  2
block 4
 70
     0
 10
0.0
 20
0.0
 30
0.0
  3
block 4
  1

  0
SPLINE
  5
94
330
90
100
AcDbEntity
  8
_U+30EC_U+30A4_U+30E4_U+30FC 1
370
     0
100
AcDbSpline
210
0.0
220
0.0
230
1.0
 70
    11
 71
     3
 72
    29
 73
    25
 74
     0
 42
0.0000000001
 43
0.0000000001
 12
1.0
 22
0.0
 32
0.0
 13
1.0
 23
0.0
 33
0.0
 40
0.0
 40
0.0
 40
0.0
 40
0.0
 40
1.0
 40
1.0
 40
1.0
 40
2.0
 40
2.0
 40
2.0
 40
3.0
 40
3.0
 40
3.0
 40
4.0
 40
4.0
 40
4.0
 40
5.0
 40
5.0
 40
5.0
 40
6.0
 40
6.0
 40
6.0
 40
7.0
 40
7.0
 40
7.0
 40
8.0
 40
8.0
 40
8.0
 40
8.0
 10
104.7553629295403
 20
-133.8423041115047
 30
0.0
 10
104.4888847937563
 20
-133.8423041115047
 30
0.0
 10
104.2349812564933
 20
-133.704672546869
 30
0.0
 10
104.2349812564933
 20
-133.3556843742132
 30
0.0
 10
104.2349812564933
 20
-133.0997137796591
 30
0.0
 10
104.3767469357114
 20
-133.0044568894919
 30
0.0
 10
104.4825113671085
 20
-132.9431341898545
 30
0.0
 10
104.3576266557682
 20
-132.8838785475082
 30
0.0
 10
104.2814900455442
 20
-132.7696736321722
 30
0.0
 10
104.2814900455442
 20
-132.6089599277853
 30
0.0
 10
104.2814900455442
 20
-132.3338690532881
 30
0.0
 10
104.4804443098174
 20
-132.1984768007177
 30
0.0
 10
104.7553629295403
 20
-132.1984768007177
 30
0.0
 10
105.0388942879764
 20
-132.1984768007177
 30
0.0
 10
105.2292358135364
 20
-132.3423095372269
 30
0.0
 10
105.2292358135364
 20
-132.6089599277853
 30
0.0
 10
105.2292358135364
 20
-132.7696736321722
 30
0.0
 10
105.1510321460213
 20
-132.8838785475082
 30
0.0
 10
105.026147434681
 20
-132.9431341898545
 30
0.0
 10
105.1150308982004
 20
-132.9939493482619
 30
0.0
 10
105.2736775452962
 20
-133.0892062384291
 30
0.0
 10
105.2736775452962
 20
-133.3515502596309
 30
0.0
 10
105.2736775452962
 20
-133.7258598841033
 30
0.0
 10
104.9944525562167
 20
-133.8423041115047
 30
0.0
 10
104.7553629295403
 20
-133.8423041115047
 30
0.0
  0
SPLINE
  5
95
330
90
100
AcDbEntity
  8
_U+30EC_U+30A4_U+30E4_U+30FC 1
370
     0
100
AcDbSpline
210
0.0
220
0.0
230
1.0
 70
    11
 71
     3
 72
    17
 73
    13
 74
     0
 42
0.0000000001
 43
0.0000000001
 12
1.0
 22
0.0
 32
0.0
 13
1.0
 23
0.0
 33
0.0
 40
0.0
 40
0.0
 40
0.0
 40
0.0
 40
1.0
 40
1.0
 40
1.0
 40
2.0
 40
2.0
 40
2.0
 40
3.0
 40
3.0
 40
3.0
 40
4.0
 40
4.0
 40
4.0
 40
4.0
 10
104.7553629295403
 20
-133.0511379333171
 30
0.0
 10
104.6115301930311
 20
-133.0511379333171
 30
0.0
 10
104.4592569725831
 20
-133.1377820847711
 30
0.0
 10
104.4592569725831
 20
-133.3408704636266
 30
0.0
 10
104.4592569725831
 20
-133.5460258997732
 30
0.0
 10
104.5862087412146
 20
-133.6476562165881
 30
0.0
 10
104.7553629295403
 20
-133.6476562165881
 30
0.0
 10
104.9415703405181
 20
-133.6476562165881
 30
0.0
 10
105.0516411412718
 20
-133.5250108173132
 30
0.0
 10
105.0516411412718
 20
-133.3472438902743
 30
0.0
 10
105.0516411412718
 20
-133.1250352314757
 30
0.0
 10
104.8886881248195
 20
-133.0511379333171
 30
0.0
 10
104.7553629295403
 20
-133.0511379333171
 30
0.0
  0
SPLINE
  5
96
330
90
100
AcDbEntity
  8
_U+30EC_U+30A4_U+30E4_U+30FC 1
370
     0
100
AcDbSpline
210
0.0
220
0.0
230
1.0
 70
    11
 71
     3
 72
    17
 73
    13
 74
     0
 42
0.0000000001
 43
0.0000000001
 12
1.0
 22
0.0
 32
0.0
 13
1.0
 23
0.0
 33
0.0
 40
0.0
 40
0.0
 40
0.0
 40
0.0
 40
1.0
 40
1.0
 40
1.0
 40
2.0
 40
2.0
 40
2.0
 40
3.0
 40
3.0
 40
3.0
 40
4.0
 40
4.0
 40
4.0
 40
4.0
 10
104.7553629295403
 20
-132.3910576383432
 30
0.0
 10
104.5903428557969
 20
-132.3910576383432
 30
0.0
 10
104.505765761634
 20
-132.4861422737361
 30
0.0
 10
104.505765761634
 20
-132.6215345263064
 30
0.0
 10
104.505765761634
 20
-132.7443521803556
 30
0.0
 10
104.5777682572757
 20
-132.8628634650482
 30
0.0
 10
104.7553629295403
 20
-132.8628634650482
 30
0.0
 10
104.9331298565792
 20
-132.8628634650482
 30
0.0
 10
105.0049600974467
 20
-132.7443521803556
 30
0.0
 10
105.0049600974467
 20
-132.6215345263064
 30
0.0
 10
105.0049600974467
 20
-132.4861422737361
 30
0.0
 10
104.9183159459926
 20
-132.3910576383432
 30
0.0
 10
104.7553629295403
 20
-132.3910576383432
 30
0.0
  0
HATCH
  5
97
330
90
100
AcDbEntity
  8
_U+30EC_U+30A4_U+30E4_U+30FC 1
 62
   179
420
  2234388
100
AcDbHatch
 10
0.0
 20
0.0
 30
0.0
210
0.0
220
0.0
230
1.0
  2
SOLID
 70
     1
 71
     0
 91
        3
 92
        1
 93
        1
 72
     4
 94
        3
 73
     0
 74
     1
 95
       29
 96
       25
 40
0.0
 40
0.0
 40
0.0
 40
0.0
 40
1.0
 40
1.0
 40
1.0
 40
2.0
 40
2.0
 40
2.0
 40
3.0
 40
3.0
 40
3.0
 40
4.0
 40
4.0
 40
4.0
 40
5.0
 40
5.0
 40
5.0
 40
6.0
 40
6.0
 40
6.0
 40
7.0
 40
7.0
 40
7.0
 40
8.0
 40
8.0
 40
8.0
 40
8.0
 10
104.7553629295403
 20
-133.8423041115047
 10
104.4888847937563
 20
-133.8423041115047
 10
104.2349812564933
 20
-133.704672546869
 10
104.2349812564933
 20
-133.3556843742132
 10
104.2349812564933
 20
-133.0997137796591
 10
104.3767469357114
 20
-133.0044568894919
 10
104.4825113671085
 20
-132.9431341898545
 10
104.3576266557682
 20
-132.8838785475082
 10
104.2814900455442
 20
-132.7696736321722
 10
104.2814900455442
 20
-132.6089599277853
 10
104.2814900455442
 20
-132.3338690532881
 10
104.4804443098174
 20
-132.1984768007177
 10
104.7553629295403
 20
-132.1984768007177
 10
105.0388942879764
 20
-132.1984768007177
 10
105.2292358135364
 20
-132.3423095372269
 10
105.2292358135364
 20
-132.6089599277853
 10
105.2292358135364
 20
-132.7696736321722
 10
105.1510321460213
 20
-132.8838785475082
 10
105.026147434681
 20
-132.9431341898545
 10
105.1150308982004
 20
-132.9939493482619
 10
105.2736775452962
 20
-133.0892062384291
 10
105.2736775452962
 20
-133.3515502596309
 10
105.2736775452962
 20
-133.7258598841033
 10
104.9944525562167
 20
-133.8423041115047
 10
104.7553629295403
 20
-133.8423041115047
 97
        0
 97
        0
 92
        1
 93
        1
 72
     4
 94
        3
 73
     0
 74
     1
 95
       17
 96
       13
 40
0.0
 40
0.0
 40
0.0
 40
0.0
 40
1.0
 40
1.0
 40
1.0
 40
2.0
 40
2.0
 40
2.0
 40
3.0
 40
3.0
 40
3.0
 40
4.0
 40
4.0
 40
4.0
 40
4.0
 10
104.7553629295403
 20
-133.0511379333171
 10
104.6115301930311
 20
-133.0511379333171
 10
104.4592569725831
 20
-133.1377820847711
 10
104.4592569725831
 20
-133.3408704636266
 10
104.4592569725831
 20
-133.5460258997732
 10
104.5862087412146
 20
-133.6476562165881
 10
104.7553629295403
 20
-133.6476562165881
 10
104.9415703405181
 20
-133.6476562165881
 10
105.0516411412718
 20
-133.5250108173132
 10
105.0516411412718
 20
-133.3472438902743
 10
105.0516411412718
 20
-133.1250352314757
 10
104.8886881248195
 20
-133.0511379333171
 10
104.7553629295403
 20
-133.0511379333171
 97
        0
 97
        0
 92
        1
 93
        1
 72
     4
 94
        3
 73
     0
 74
     1
 95
       17
 96
       13
 40
0.0
 40
0.0
 40
0.0
 40
0.0
 40
1.0
 40
1.0
 40
1.0
 40
2.0
 40
2.0
 40
2.0
 40
3.0
 40
3.0
 40
3.0
 40
4.0
 40
4.0
 40
4.0
 40
4.0
 10
104.7553629295403
 20
-132.3910576383432
 10
104.5903428557969
 20
-132.3910576383432
 10
104.505765761634
 20
-132.4861422737361
 10
104.505765761634
 20
-132.6215345263064
 10
104.505765761634
 20
-132.7443521803556
 10
104.5777682572757
 20
-132.8628634650482
 10
104.7553629295403
 20
-132.8628634650482
 10
104.9331298565792
 20
-132.8628634650482
 10
105.0049600974467
 20
-132.7443521803556
 10
105.0049600974467
 20
-132.6215345263064
 10
105.0049600974467
 20
-132.4861422737361
 10
104.9183159459926
 20
-132.3910576383432
 10
104.7553629295403
 20
-132.3910576383432
 97
        0
 97
        0
 75
     2
 76
     1
 98
        0
  0
ENDBLK
  5
93
330
90
100
AcDbEntity
  8
0
100
AcDbBlockEnd
  0
BLOCK
  5
A8
330
A6
100
AcDbEntity
  8
0
100
AcDbBlockBegin
  2
block 5
 70
     0
 10
0.0
 20
0.0
 30
0.0
  3
block 5
  1

  0
SPLINE
  5
AA
330
A6
100
AcDbEntity
  8
_U+30EC_U+30A4_U+30E4_U+30FC 1
370
     0
100
AcDbSpline
210
0.0
220
0.0
230
1.0
 70
    11
 71
     3
 72
    62
 73
    58
 74
     0
 42
0.0000000001
 43
0.0000000001
 12
1.0
 22
0.0
 32
0.0
 13
1.0
 23
0.0
 33
0.0
 40
0.0
 40
0.0
 40
0.0
 40
0.0
 40
1.0
 40
1.0
 40
1.0
 40
2.0
 40
2.0
 40
2.0
 40
3.0
 40
3.0
 40
3.0
 40
4.0
 40
4.0
 40
4.0
 40
5.0
 40
5.0
 40
5.0
 40
6.0
 40
6.0
 40
6.0
 40
7.0
 40
7.0
 40
7.0
 40
8.0
 40
8.0
 40
8.0
 40
9.0
 40
9.0
 40
9.0
 40
10.0
 40
10.0
 40
10.0
 40
11.0
 40
11.0
 40
11.0
 40
12.0
 40
12.0
 40
12.0
 40
13.0
 40
13.0
 40
13.0
 40
14.0
 40
14.0
 40
14.0
 40
15.0
 40
15.0
 40
15.0
 40
16.0
 40
16.0
 40
16.0
 40
17.0
 40
17.0
 40
17.0
 40
18.0
 40
18.0
 40
18.0
 40
19.0
 40
19.0
 40
19.0
 40
19.0
 10
106.0455511887664
 20
-164.5170898026207
 30
0.0
 10
105.9504665533735
 20
-164.5170898026207
 30
0.0
 10
105.7327365187057
 20
-164.4957302106122
 30
0.0
 10
105.6080240621397
 20
-164.3096950544087
 30
0.0
 10
105.5336099996583
 20
-164.1973849415895
 30
0.0
 10
105.529475885076
 20
-164.0981661916144
 30
0.0
 10
105.5253417704937
 20
-164.0134168426772
 30
0.0
 10
105.5253417704937
 20
-164.0134168426772
 30
0.0
 10
105.7451388624526
 20
-164.0134168426772
 30
0.0
 10
105.7451388624526
 20
-164.0134168426772
 30
0.0
 10
105.7472059197438
 20
-164.0874863956101
 30
0.0
 10
105.7582302252966
 20
-164.3224419077041
 30
0.0
 10
106.0414170741841
 20
-164.3224419077041
 30
0.0
 10
106.1792208935941
 20
-164.3224419077041
 30
0.0
 10
106.3314941140421
 20
-164.2525064693535
 30
0.0
 10
106.3314941140421
 20
-164.0240966386815
 30
0.0
 10
106.3314941140421
 20
-163.90765241128
 30
0.0
 10
106.2932535541559
 20
-163.859076564938
 30
0.0
 10
106.2615586756916
 20
-163.8273816864737
 30
0.0
 10
106.1874891227587
 20
-163.7533121335408
 30
0.0
 10
106.0710448953572
 20
-163.7405652802454
 30
0.0
 10
106.0159233675932
 20
-163.7405652802454
 30
0.0
 10
105.9973198519729
 20
-163.7405652802454
 30
0.0
 10
105.9611463493778
 20
-163.7426323375366
 30
0.0
 10
105.9335855854958
 20
-163.7467664521189
 30
0.0
 10
105.9335855854958
 20
-163.7467664521189
 30
0.0
 10
105.9335855854958
 20
-163.5521185572022
 30
0.0
 10
105.9335855854958
 20
-163.5521185572022
 30
0.0
 10
105.9718261453821
 20
-163.5586642386242
 30
0.0
 10
106.0138563103021
 20
-163.5607312959154
 30
0.0
 10
106.0204019917241
 20
-163.5607312959154
 30
0.0
 10
106.0858588059438
 20
-163.5607312959154
 30
0.0
 10
106.2846408154427
 20
-163.5397162134554
 30
0.0
 10
106.2846408154427
 20
-163.3026936440702
 30
0.0
 10
106.2846408154427
 20
-163.1249267170313
 30
0.0
 10
106.1537271870032
 20
-163.0698051892673
 30
0.0
 10
106.0434841314752
 20
-163.0698051892673
 30
0.0
 10
105.7792453077566
 20
-163.0698051892673
 30
0.0
 10
105.7706325690435
 20
-163.3026936440702
 30
0.0
 10
105.7664984544612
 20
-163.3746961397119
 30
0.0
 10
105.7664984544612
 20
-163.3746961397119
 30
0.0
 10
105.5632378208314
 20
-163.3746961397119
 30
0.0
 10
105.5632378208314
 20
-163.3746961397119
 30
0.0
 10
105.5718505595445
 20
-163.2496391735973
 30
0.0
 10
105.5994113234265
 20
-162.8730902370595
 30
0.0
 10
106.0562309847707
 20
-162.8730902370595
 30
0.0
 10
106.2805067008604
 20
-162.8730902370595
 30
0.0
 10
106.5216633848279
 20
-163.0002142604652
 30
0.0
 10
106.5216633848279
 20
-163.2961479626482
 30
0.0
 10
106.5216633848279
 20
-163.4825276284002
 30
0.0
 10
106.426578749435
 20
-163.5648654104977
 30
0.0
 10
106.3270154899113
 20
-163.6261881101351
 30
0.0
 10
106.3886826990973
 20
-163.6537488740171
 30
0.0
 10
106.5705837407185
 20
-163.734364108372
 30
0.0
 10
106.5705837407185
 20
-164.011349785386
 30
0.0
 10
106.5705837407185
 20
-164.3500026715861
 30
0.0
 10
106.322881375329
 20
-164.5170898026207
 30
0.0
 10
106.0455511887664
 20
-164.5170898026207
 30
0.0
  0
HATCH
  5
AB
330
A6
100
AcDbEntity
  8
_U+30EC_U+30A4_U+30E4_U+30FC 1
 62
   179
420
  2234388
100
AcDbHatch
 10
0.0
 20
0.0
 30
0.0
210
0.0
220
0.0
230
1.0
  2
SOLID
 70
     1
 71
     0
 91
        1
 92
        1
 93
        1
 72
     4
 94
        3
 73
     0
 74
     1
 95
       62
 96
       58
 40
0.0
 40
0.0
 40
0.0
 40
0.0
 40
1.0
 40
1.0
 40
1.0
 40
2.0
 40
2.0
 40
2.0
 40
3.0
 40
3.0
 40
3.0
 40
4.0
 40
4.0
 40
4.0
 40
5.0
 40
5.0
 40
5.0
 40
6.0
 40
6.0
 40
6.0
 40
7.0
 40
7.0
 40
7.0
 40
8.0
 40
8.0
 40
8.0
 40
9.0
 40
9.0
 40
9.0
 40
10.0
 40
10.0
 40
10.0
 40
11.0
 40
11.0
 40
11.0
 40
12.0
 40
12.0
 40
12.0
 40
13.0
 40
13.0
 40
13.0
 40
14.0
 40
14.0
 40
14.0
 40
15.0
 40
15.0
 40
15.0
 40
16.0
 40
16.0
 40
16.0
 40
17.0
 40
17.0
 40
17.0
 40
18.0
 40
18.0
 40
18.0
 40
19.0
 40
19.0
 40
19.0
 40
19.0
 10
106.0455511887664
 20
-164.5170898026207
 10
105.9504665533735
 20
-164.5170898026207
 10
105.7327365187057
 20
-164.4957302106122
 10
105.6080240621397
 20
-164.3096950544087
 10
105.5336099996583
 20
-164.1973849415895
 10
105.529475885076
 20
-164.0981661916144
 10
105.5253417704937
 20
-164.0134168426772
 10
105.5253417704937
 20
-164.0134168426772
 10
105.7451388624526
 20
-164.0134168426772
 10
105.7451388624526
 20
-164.0134168426772
 10
105.7472059197438
 20
-164.0874863956101
 10
105.7582302252966
 20
-164.3224419077041
 10
106.0414170741841
 20
-164.3224419077041
 10
106.1792208935941
 20
-164.3224419077041
 10
106.3314941140421
 20
-164.2525064693535
 10
106.3314941140421
 20
-164.0240966386815
 10
106.3314941140421
 20
-163.90765241128
 10
106.2932535541559
 20
-163.859076564938
 10
106.2615586756916
 20
-163.8273816864737
 10
106.1874891227587
 20
-163.7533121335408
 10
106.0710448953572
 20
-163.7405652802454
 10
106.0159233675932
 20
-163.7405652802454
 10
105.9973198519729
 20
-163.7405652802454
 10
105.9611463493778
 20
-163.7426323375366
 10
105.9335855854958
 20
-163.7467664521189
 10
105.9335855854958
 20
-163.7467664521189
 10
105.9335855854958
 20
-163.5521185572022
 10
105.9335855854958
 20
-163.5521185572022
 10
105.9718261453821
 20
-163.5586642386242
 10
106.0138563103021
 20
-163.5607312959154
 10
106.0204019917241
 20
-163.5607312959154
 10
106.0858588059438
 20
-163.5607312959154
 10
106.2846408154427
 20
-163.5397162134554
 10
106.2846408154427
 20
-163.3026936440702
 10
106.2846408154427
 20
-163.1249267170313
 10
106.1537271870032
 20
-163.0698051892673
 10
106.0434841314752
 20
-163.0698051892673
 10
105.7792453077566
 20
-163.0698051892673
 10
105.7706325690435
 20
-163.3026936440702
 10
105.7664984544612
 20
-163.3746961397119
 10
105.7664984544612
 20
-163.3746961397119
 10
105.5632378208314
 20
-163.3746961397119
 10
105.5632378208314
 20
-163.3746961397119
 10
105.5718505595445
 20
-163.2496391735973
 10
105.5994113234265
 20
-162.8730902370595
 10
106.0562309847707
 20
-162.8730902370595
 10
106.2805067008604
 20
-162.8730902370595
 10
106.5216633848279
 20
-163.0002142604652
 10
106.5216633848279
 20
-163.2961479626482
 10
106.5216633848279
 20
-163.4825276284002
 10
106.426578749435
 20
-163.5648654104977
 10
106.3270154899113
 20
-163.6261881101351
 10
106.3886826990973
 20
-163.6537488740171
 10
106.5705837407185
 20
-163.734364108372
 10
106.5705837407185
 20
-164.011349785386
 10
106.5705837407185
 20
-164.3500026715861
 10
106.322881375329
 20
-164.5170898026207
 10
106.0455511887664
 20
-164.5170898026207
 97
        0
 97
        0
 75
     2
 76
     1
 98
        0
  0
ENDBLK
  5
A9
330
A6
100
AcDbEntity
  8
0
100
AcDbBlockEnd
  0
ENDSEC
  0
SECTION
  2
ENTITIES
  0
SPLINE
  5
41
330
1F
100
AcDbEntity
  8
_U+30EC_U+30A4_U+30E4_U+30FC 1
 62
   179
420
  2234388
370
     9
100
AcDbSpline
210
0.0
220
0.0
230
1.0
 70
    11
 71
     3
 72
    17
 73
    13
 74
     0
 42
0.0000000001
 43
0.0000000001
 12
1.0
 22
0.0
 32
0.0
 13
1.0
 23
0.0
 33
0.0
 40
0.0
 40
0.0
 40
0.0
 40
0.0
 40
1.0
 40
1.0
 40
1.0
 40
2.0
 40
2.0
 40
2.0
 40
3.0
 40
3.0
 40
3.0
 40
4.0
 40
4.0
 40
4.0
 40
4.0
 10
98.21029516519894
 20
-163.3868401012974
 30
0.0
 10
98.21029516519894
 20
-163.3318262327673
 30
0.0
 10
98.16548739204391
 20
-163.2870184596123
 30
0.0
 10
98.11045199166705
 20
-163.2870184596123
 30
0.0
 10
98.0557718667621
 20
-163.2870184596123
 30
0.0
 10
98.01097485953046
 20
-163.3318262327673
 30
0.0
 10
98.01097485953046
 20
-163.3868401012974
 30
0.0
 10
98.01097485953046
 20
-163.4422415430696
 30
0.0
 10
98.0557718667621
 20
-163.4870493162246
 30
0.0
 10
98.11045199166705
 20
-163.4870493162246
 30
0.0
 10
98.16548739204391
 20
-163.4870493162246
 30
0.0
 10
98.21029516519894
 20
-163.4422415430696
 30
0.0
 10
98.21029516519894
 20
-163.3868401012974
 30
0.0
  0
SPLINE
  5
42
330
1F
100
AcDbEntity
  8
_U+30EC_U+30A4_U+30E4_U+30FC 1
 62
   179
420
  2234388
370
     9
100
AcDbSpline
210
0.0
220
0.0
230
1.0
 70
    11
 71
     3
 72
    17
 73
    13
 74
     0
 42
0.0000000001
 43
0.0000000001
 12
1.0
 22
0.0
 32
0.0
 13
1.0
 23
0.0
 33
0.0
 40
0.0
 40
0.0
 40
0.0
 40
0.0
 40
1.0
 40
1.0
 40
1.0
 40
2.0
 40
2.0
 40
2.0
 40
3.0
 40
3.0
 40
3.0
 40
4.0
 40
4.0
 40
4.0
 40
4.0
 10
98.21029516519894
 20
-138.3870094801059
 30
0.0
 10
98.21029516519894
 20
-138.3316295701806
 30
0.0
 10
98.16548739204391
 20
-138.286477287477
 30
0.0
 10
98.11045199166705
 20
-138.286477287477
 30
0.0
 10
98.0557718667621
 20
-138.286477287477
 30
0.0
 10
98.01097485953046
 20
-138.3316295701806
 30
0.0
 10
98.01097485953046
 20
-138.3870094801059
 30
0.0
 10
98.01097485953046
 20
-138.4420448804828
 30
0.0
 10
98.0557718667621
 20
-138.4868526536382
 30
0.0
 10
98.11045199166705
 20
-138.4868526536382
 30
0.0
 10
98.16548739204391
 20
-138.4868526536382
 30
0.0
 10
98.21029516519894
 20
-138.4420448804828
 30
0.0
 10
98.21029516519894
 20
-138.3870094801059
 30
0.0
  0
POLYLINE
  5
43
330
1F
100
AcDbEntity
  8
_U+30EC_U+30A4_U+30E4_U+30FC 1
 62
   179
420
  2234388
370
     9
100
AcDb2dPolyline
 66
     1
 10
0.0
 20
0.0
 30
0.0
  0
VERTEX
  5
44
330
43
100
AcDbEntity
  8
_U+30EC_U+30A4_U+30E4_U+30FC 1
 62
   179
420
  2234388
370
     9
100
AcDbVertex
100
AcDb2dVertex
 10
98.11038739612671
 20
-163.3868401012974
 30
0.0
  0
VERTEX
  5
45
330
43
100
AcDbEntity
  8
_U+30EC_U+30A4_U+30E4_U+30FC 1
 62
   179
420
  2234388
370
     9
100
AcDbVertex
100
AcDb2dVertex
 10
98.11038739612671
 20
-138.3865573113235
 30
0.0
  0
SEQEND
  5
46
330
43
100
AcDbEntity
  8
_U+30EC_U+30A4_U+30E4_U+30FC 1
 62
   179
420
  2234388
370
     9
  0
POLYLINE
  5
47
330
1F
100
AcDbEntity
  8
_U+30EC_U+30A4_U+30E4_U+30FC 1
 62
   179
420
  2234388
370
     9
100
AcDb2dPolyline
 66
     1
 10
0.0
 20
0.0
 30
0.0
  0
VERTEX
  5
48
330
47
100
AcDbEntity
  8
_U+30EC_U+30A4_U+30E4_U+30FC 1
 62
   179
420
  2234388
370
     9
100
AcDbVertex
100
AcDb2dVertex
 10
100.171954066347
 20
-163.3868401012974
 30
0.0
  0
VERTEX
  5
49
330
47
100
AcDbEntity
  8
_U+30EC_U+30A4_U+30E4_U+30FC 1
 62
   179
420
  2234388
370
     9
100
AcDbVertex
100
AcDb2dVertex
 10
97.11054532484346
 20
-163.3868401012974
 30
0.0
  0
SEQEND
  5
4A
330
47
100
AcDbEntity
  8
_U+30EC_U+30A4_U+30E4_U+30FC 1
 62
   179
420
  2234388
370
     9
  0
POLYLINE
  5
4B
330
1F
100
AcDbEntity
  8
_U+30EC_U+30A4_U+30E4_U+30FC 1
 62
   179
420
  2234388
370
     9
100
AcDb2dPolyline
 66
     1
 10
0.0
 20
0.0
 30
0.0
  0
VERTEX
  5
4C
330
4B
100
AcDbEntity
  8
_U+30EC_U+30A4_U+30E4_U+30FC 1
 62
   179
420
  2234388
370
     9
100
AcDbVertex
100
AcDb2dVertex
 10
97.1110082595493
 20
-138.3870094801059
 30
0.0
  0
VERTEX
  5
4D
330
4B
100
AcDbEntity
  8
_U+30EC_U+30A4_U+30E4_U+30FC 1
 62
   179
420
  2234388
370
     9
100
AcDbVertex
100
AcDb2dVertex
 10
99.9699099820608
 20
-138.3870094801059
 30
0.0
  0
VERTEX
  5
4E
330
4B
100
AcDbEntity
  8
_U+30EC_U+30A4_U+30E4_U+30FC 1
 62
   179
420
  2234388
370
     9
100
AcDbVertex
100
AcDb2dVertex
 10
97.7117790825599
 20
-138.3870094801059
 30
0.0
  0
VERTEX
  5
4F
330
4B
100
AcDbEntity
  8
_U+30EC_U+30A4_U+30E4_U+30FC 1
 62
   179
420
  2234388
370
     9
100
AcDbVertex
100
AcDb2dVertex
 10
100.1720509596578
 20
-138.3870094801059
 30
0.0
  0
SEQEND
  5
50
330
4B
100
AcDbEntity
  8
_U+30EC_U+30A4_U+30E4_U+30FC 1
 62
   179
420
  2234388
370
     9
  0
INSERT
  5
52
330
1F
100
AcDbEntity
  8
_U+30EC_U+30A4_U+30E4_U+30FC 1
100
AcDbBlockReference
  2
block 2
 10
0.0
 20
0.0
 30
0.0
  0
SPLINE
  5
59
330
1F
100
AcDbEntity
  8
_U+30EC_U+30A4_U+30E4_U+30FC 1
 62
   179
420
  2234388
370
     9
100
AcDbSpline
210
0.0
220
0.0
230
1.0
 70
    11
 71
     3
 72
    17
 73
    13
 74
     0
 42
0.0000000001
 43
0.0000000001
 12
1.0
 22
0.0
 32
0.0
 13
1.0
 23
0.0
 33
0.0
 40
0.0
 40
0.0
 40
0.0
 40
0.0
 40
1.0
 40
1.0
 40
1.0
 40
2.0
 40
2.0
 40
2.0
 40
3.0
 40
3.0
 40
3.0
 40
4.0
 40
4.0
 40
4.0
 40
4.0
 10
114.2758304734113
 20
-152.3864564302736
 30
0.0
 10
114.2758304734113
 20
-152.3314425617435
 30
0.0
 10
114.2310227002563
 20
-152.2866347885885
 30
0.0
 10
114.1759872998794
 20
-152.2866347885885
 30
0.0
 10
114.1209518995025
 20
-152.2866347885885
 30
0.0
 10
114.0761548922709
 20
-152.3314425617435
 30
0.0
 10
114.0761548922709
 20
-152.3864564302736
 30
0.0
 10
114.0761548922709
 20
-152.4422023815943
 30
0.0
 10
114.1209518995025
 20
-152.4870101547494
 30
0.0
 10
114.1759872998794
 20
-152.4870101547494
 30
0.0
 10
114.2310227002563
 20
-152.4870101547494
 30
0.0
 10
114.2758304734113
 20
-152.4422023815943
 30
0.0
 10
114.2758304734113
 20
-152.3864564302736
 30
0.0
  0
SPLINE
  5
5A
330
1F
100
AcDbEntity
  8
_U+30EC_U+30A4_U+30E4_U+30FC 1
 62
   179
420
  2234388
370
     9
100
AcDbSpline
210
0.0
220
0.0
230
1.0
 70
    11
 71
     3
 72
    17
 73
    13
 74
     0
 42
0.0000000001
 43
0.0000000001
 12
1.0
 22
0.0
 32
0.0
 13
1.0
 23
0.0
 33
0.0
 40
0.0
 40
0.0
 40
0.0
 40
0.0
 40
1.0
 40
1.0
 40
1.0
 40
2.0
 40
2.0
 40
2.0
 40
3.0
 40
3.0
 40
3.0
 40
4.0
 40
4.0
 40
4.0
 40
4.0
 10
114.2758304734113
 20
-138.3864711839364
 30
0.0
 10
114.2758304734113
 20
-138.3314573154063
 30
0.0
 10
114.2310227002563
 20
-138.2866495422513
 30
0.0
 10
114.1759872998794
 20
-138.2866495422513
 30
0.0
 10
114.1209518995025
 20
-138.2866495422513
 30
0.0
 10
114.0761548922709
 20
-138.3314573154063
 30
0.0
 10
114.0761548922709
 20
-138.3864711839364
 30
0.0
 10
114.0761548922709
 20
-138.4422171352571
 30
0.0
 10
114.1209518995025
 20
-138.4870249084124
 30
0.0
 10
114.1759872998794
 20
-138.4870249084124
 30
0.0
 10
114.2310227002563
 20
-138.4870249084124
 30
0.0
 10
114.2758304734113
 20
-138.4422171352571
 30
0.0
 10
114.2758304734113
 20
-138.3864711839364
 30
0.0
  0
POLYLINE
  5
5B
330
1F
100
AcDbEntity
  8
_U+30EC_U+30A4_U+30E4_U+30FC 1
 62
   179
420
  2234388
370
     9
100
AcDb2dPolyline
 66
     1
 10
0.0
 20
0.0
 30
0.0
  0
VERTEX
  5
5C
330
5B
100
AcDbEntity
  8
_U+30EC_U+30A4_U+30E4_U+30FC 1
 62
   179
420
  2234388
370
     9
100
AcDbVertex
100
AcDb2dVertex
 10
114.1759227043391
 20
-152.3864564302736
 30
0.0
  0
VERTEX
  5
5D
330
5B
100
AcDbEntity
  8
_U+30EC_U+30A4_U+30E4_U+30FC 1
 62
   179
420
  2234388
370
     9
100
AcDbVertex
100
AcDb2dVertex
 10
114.1759227043391
 20
-138.3864711839364
 30
0.0
  0
SEQEND
  5
5E
330
5B
100
AcDbEntity
  8
_U+30EC_U+30A4_U+30E4_U+30FC 1
 62
   179
420
  2234388
370
     9
  0
POLYLINE
  5
5F
330
1F
100
AcDbEntity
  8
_U+30EC_U+30A4_U+30E4_U+30FC 1
 62
   179
420
  2234388
370
     9
100
AcDb2dPolyline
 66
     1
 10
0.0
 20
0.0
 30
0.0
  0
VERTEX
  5
60
330
5F
100
AcDbEntity
  8
_U+30EC_U+30A4_U+30E4_U+30FC 1
 62
   179
420
  2234388
370
     9
100
AcDbVertex
100
AcDb2dVertex
 10
112.7158912376902
 20
-152.3868440035157
 30
0.0
  0
VERTEX
  5
61
330
5F
100
AcDbEntity
  8
_U+30EC_U+30A4_U+30E4_U+30FC 1
 62
   179
420
  2234388
370
     9
100
AcDbVertex
100
AcDb2dVertex
 10
115.1758078393159
 20
-152.3868440035157
 30
0.0
  0
SEQEND
  5
62
330
5F
100
AcDbEntity
  8
_U+30EC_U+30A4_U+30E4_U+30FC 1
 62
   179
420
  2234388
370
     9
  0
POLYLINE
  5
63
330
1F
100
AcDbEntity
  8
_U+30EC_U+30A4_U+30E4_U+30FC 1
 62
   179
420
  2234388
370
     9
100
AcDb2dPolyline
 66
     1
 10
0.0
 20
0.0
 30
0.0
  0
VERTEX
  5
64
330
63
100
AcDbEntity
  8
_U+30EC_U+30A4_U+30E4_U+30FC 1
 62
   179
420
  2234388
370
     9
100
AcDbVertex
100
AcDb2dVertex
 10
112.7158912376902
 20
-138.3868372253317
 30
0.0
  0
VERTEX
  5
65
330
63
100
AcDbEntity
  8
_U+30EC_U+30A4_U+30E4_U+30FC 1
 62
   179
420
  2234388
370
     9
100
AcDbVertex
100
AcDb2dVertex
 10
115.1758078393159
 20
-138.3868372253317
 30
0.0
  0
SEQEND
  5
66
330
63
100
AcDbEntity
  8
_U+30EC_U+30A4_U+30E4_U+30FC 1
 62
   179
420
  2234388
370
     9
  0
INSERT
  5
68
330
1F
100
AcDbEntity
  8
_U+30EC_U+30A4_U+30E4_U+30FC 1
100
AcDbBlockReference
  2
block 3
 10
0.0
 20
0.0
 30
0.0
  0
SPLINE
  5
82
330
1F
100
AcDbEntity
  8
_U+30EC_U+30A4_U+30E4_U+30FC 1
 62
   179
420
  2234388
370
     9
100
AcDbSpline
210
0.0
220
0.0
230
1.0
 70
    11
 71
     3
 72
    17
 73
    13
 74
     0
 42
0.0000000001
 43
0.0000000001
 12
1.0
 22
0.0
 32
0.0
 13
1.0
 23
0.0
 33
0.0
 40
0.0
 40
0.0
 40
0.0
 40
0.0
 40
1.0
 40
1.0
 40
1.0
 40
2.0
 40
2.0
 40
2.0
 40
3.0
 40
3.0
 40
3.0
 40
4.0
 40
4.0
 40
4.0
 40
4.0
 10
108.8156771069921
 20
-134.3872536217309
 30
0.0
 10
108.8156771069921
 20
-134.3322397532011
 30
0.0
 10
108.770869333837
 20
-134.2874319800458
 30
0.0
 10
108.7158339334601
 20
-134.2874319800458
 30
0.0
 10
108.6607985330833
 20
-134.2874319800458
 30
0.0
 10
108.6160015258516
 20
-134.3322397532011
 30
0.0
 10
108.6160015258516
 20
-134.3872536217309
 30
0.0
 10
108.6160015258516
 20
-134.4422890221078
 30
0.0
 10
108.6607985330833
 20
-134.4870967952631
 30
0.0
 10
108.7158339334601
 20
-134.4870967952631
 30
0.0
 10
108.770869333837
 20
-134.4870967952631
 30
0.0
 10
108.8156771069921
 20
-134.4422890221078
 30
0.0
 10
108.8156771069921
 20
-134.3872536217309
 30
0.0
  0
SPLINE
  5
83
330
1F
100
AcDbEntity
  8
_U+30EC_U+30A4_U+30E4_U+30FC 1
 62
   179
420
  2234388
370
     9
100
AcDbSpline
210
0.0
220
0.0
230
1.0
 70
    11
 71
     3
 72
    17
 73
    13
 74
     0
 42
0.0000000001
 43
0.0000000001
 12
1.0
 22
0.0
 32
0.0
 13
1.0
 23
0.0
 33
0.0
 40
0.0
 40
0.0
 40
0.0
 40
0.0
 40
1.0
 40
1.0
 40
1.0
 40
2.0
 40
2.0
 40
2.0
 40
3.0
 40
3.0
 40
3.0
 40
4.0
 40
4.0
 40
4.0
 40
4.0
 10
100.8158424125402
 20
-134.3872536217309
 30
0.0
 10
100.8158424125402
 20
-134.3322397532011
 30
0.0
 10
100.7710346393851
 20
-134.2874319800458
 30
0.0
 10
100.7159992390083
 20
-134.2874319800458
 30
0.0
 10
100.6609638386314
 20
-134.2874319800458
 30
0.0
 10
100.6161668313998
 20
-134.3322397532011
 30
0.0
 10
100.6161668313998
 20
-134.3872536217309
 30
0.0
 10
100.6161668313998
 20
-134.4422890221078
 30
0.0
 10
100.6609638386314
 20
-134.4870967952631
 30
0.0
 10
100.7159992390083
 20
-134.4870967952631
 30
0.0
 10
100.7710346393851
 20
-134.4870967952631
 30
0.0
 10
100.8158424125402
 20
-134.4422890221078
 30
0.0
 10
100.8158424125402
 20
-134.3872536217309
 30
0.0
  0
POLYLINE
  5
84
330
1F
100
AcDbEntity
  8
_U+30EC_U+30A4_U+30E4_U+30FC 1
 62
   179
420
  2234388
370
     9
100
AcDb2dPolyline
 66
     1
 10
0.0
 20
0.0
 30
0.0
  0
VERTEX
  5
85
330
84
100
AcDbEntity
  8
_U+30EC_U+30A4_U+30E4_U+30FC 1
 62
   179
420
  2234388
370
     9
100
AcDbVertex
100
AcDb2dVertex
 10
100.7159346434679
 20
-134.3872536217309
 30
0.0
  0
VERTEX
  5
86
330
84
100
AcDbEntity
  8
_U+30EC_U+30A4_U+30E4_U+30FC 1
 62
   179
420
  2234388
370
     9
100
AcDbVertex
100
AcDb2dVertex
 10
108.7158662312303
 20
-134.3872536217309
 30
0.0
  0
SEQEND
  5
87
330
84
100
AcDbEntity
  8
_U+30EC_U+30A4_U+30E4_U+30FC 1
 62
   179
420
  2234388
370
     9
  0
POLYLINE
  5
88
330
1F
100
AcDbEntity
  8
_U+30EC_U+30A4_U+30E4_U+30FC 1
 62
   179
420
  2234388
370
     9
100
AcDb2dPolyline
 66
     1
 10
0.0
 20
0.0
 30
0.0
  0
VERTEX
  5
89
330
88
100
AcDbEntity
  8
_U+30EC_U+30A4_U+30E4_U+30FC 1
 62
   179
420
  2234388
370
     9
100
AcDbVertex
100
AcDb2dVertex
 10
100.7159346434679
 20
-136.8869503102881
 30
0.0
  0
VERTEX
  5
8A
330
88
100
AcDbEntity
  8
_U+30EC_U+30A4_U+30E4_U+30FC 1
 62
   179
420
  2234388
370
     9
100
AcDbVertex
100
AcDb2dVertex
 10
100.7159346434679
 20
-133.3874007845243
 30
0.0
  0
SEQEND
  5
8B
330
88
100
AcDbEntity
  8
_U+30EC_U+30A4_U+30E4_U+30FC 1
 62
   179
420
  2234388
370
     9
  0
POLYLINE
  5
8C
330
1F
100
AcDbEntity
  8
_U+30EC_U+30A4_U+30E4_U+30FC 1
 62
   179
420
  2234388
370
     9
100
AcDb2dPolyline
 66
     1
 10
0.0
 20
0.0
 30
0.0
  0
VERTEX
  5
8D
330
8C
100
AcDbEntity
  8
_U+30EC_U+30A4_U+30E4_U+30FC 1
 62
   179
420
  2234388
370
     9
100
AcDbVertex
100
AcDb2dVertex
 10
108.7157693379198
 20
-139.9552169449917
 30
0.0
  0
VERTEX
  5
8E
330
8C
100
AcDbEntity
  8
_U+30EC_U+30A4_U+30E4_U+30FC 1
 62
   179
420
  2234388
370
     9
100
AcDbVertex
100
AcDb2dVertex
 10
108.7157693379198
 20
-133.3875730392985
 30
0.0
  0
SEQEND
  5
8F
330
8C
100
AcDbEntity
  8
_U+30EC_U+30A4_U+30E4_U+30FC 1
 62
   179
420
  2234388
370
     9
  0
INSERT
  5
91
330
1F
100
AcDbEntity
  8
_U+30EC_U+30A4_U+30E4_U+30FC 1
100
AcDbBlockReference
  2
block 4
 10
0.0
 20
0.0
 30
0.0
  0
SPLINE
  5
98
330
1F
100
AcDbEntity
  8
_U+30EC_U+30A4_U+30E4_U+30FC 1
 62
   179
420
  2234388
370
     9
100
AcDbSpline
210
0.0
220
0.0
230
1.0
 70
    11
 71
     3
 72
    17
 73
    13
 74
     0
 42
0.0000000001
 43
0.0000000001
 12
1.0
 22
0.0
 32
0.0
 13
1.0
 23
0.0
 33
0.0
 40
0.0
 40
0.0
 40
0.0
 40
0.0
 40
1.0
 40
1.0
 40
1.0
 40
2.0
 40
2.0
 40
2.0
 40
3.0
 40
3.0
 40
3.0
 40
4.0
 40
4.0
 40
4.0
 40
4.0
 10
104.815426016141
 20
-165.0625345453229
 30
0.0
 10
104.815426016141
 20
-165.0075206767928
 30
0.0
 10
104.7706182429859
 20
-164.9627129036378
 30
0.0
 10
104.7155828426091
 20
-164.9627129036378
 30
0.0
 10
104.6605474422322
 20
-164.9627129036378
 30
0.0
 10
104.6157504350006
 20
-165.0075206767928
 30
0.0
 10
104.6157504350006
 20
-165.0625345453229
 30
0.0
 10
104.6157504350006
 20
-165.1175699456998
 30
0.0
 10
104.6605474422322
 20
-165.1623777188548
 30
0.0
 10
104.7155828426091
 20
-165.1623777188548
 30
0.0
 10
104.7706182429859
 20
-165.1623777188548
 30
0.0
 10
104.815426016141
 20
-165.1175699456998
 30
0.0
 10
104.815426016141
 20
-165.0625345453229
 30
0.0
  0
SPLINE
  5
99
330
1F
100
AcDbEntity
  8
_U+30EC_U+30A4_U+30E4_U+30FC 1
 62
   179
420
  2234388
370
     9
100
AcDbSpline
210
0.0
220
0.0
230
1.0
 70
    11
 71
     3
 72
    17
 73
    13
 74
     0
 42
0.0000000001
 43
0.0000000001
 12
1.0
 22
0.0
 32
0.0
 13
1.0
 23
0.0
 33
0.0
 40
0.0
 40
0.0
 40
0.0
 40
0.0
 40
1.0
 40
1.0
 40
1.0
 40
2.0
 40
2.0
 40
2.0
 40
3.0
 40
3.0
 40
3.0
 40
4.0
 40
4.0
 40
4.0
 40
4.0
 10
101.8168149057795
 20
-165.0625345453229
 30
0.0
 10
101.8168149057795
 20
-165.0075206767928
 30
0.0
 10
101.7720071326245
 20
-164.9627129036378
 30
0.0
 10
101.7169717322476
 20
-164.9627129036378
 30
0.0
 10
101.6619363318708
 20
-164.9627129036378
 30
0.0
 10
101.6171393246391
 20
-165.0075206767928
 30
0.0
 10
101.6171393246391
 20
-165.0625345453229
 30
0.0
 10
101.6171393246391
 20
-165.1175699456998
 30
0.0
 10
101.6619363318708
 20
-165.1623777188548
 30
0.0
 10
101.7169717322476
 20
-165.1623777188548
 30
0.0
 10
101.7720071326245
 20
-165.1623777188548
 30
0.0
 10
101.8168149057795
 20
-165.1175699456998
 30
0.0
 10
101.8168149057795
 20
-165.0625345453229
 30
0.0
  0
POLYLINE
  5
9A
330
1F
100
AcDbEntity
  8
_U+30EC_U+30A4_U+30E4_U+30FC 1
 62
   179
420
  2234388
370
     9
100
AcDb2dPolyline
 66
     1
 10
0.0
 20
0.0
 30
0.0
  0
VERTEX
  5
9B
330
9A
100
AcDbEntity
  8
_U+30EC_U+30A4_U+30E4_U+30FC 1
 62
   179
420
  2234388
370
     9
100
AcDbVertex
100
AcDb2dVertex
 10
101.6433543480972
 20
-165.0625345453229
 30
0.0
  0
VERTEX
  5
9C
330
9A
100
AcDbEntity
  8
_U+30EC_U+30A4_U+30E4_U+30FC 1
 62
   179
420
  2234388
370
     9
100
AcDbVertex
100
AcDb2dVertex
 10
108.9024612154502
 20
-165.0625345453229
 30
0.0
  0
SEQEND
  5
9D
330
9A
100
AcDbEntity
  8
_U+30EC_U+30A4_U+30E4_U+30FC 1
 62
   179
420
  2234388
370
     9
  0
POLYLINE
  5
9E
330
1F
100
AcDbEntity
  8
_U+30EC_U+30A4_U+30E4_U+30FC 1
 62
   179
420
  2234388
370
     9
100
AcDb2dPolyline
 66
     1
 10
0.0
 20
0.0
 30
0.0
  0
VERTEX
  5
9F
330
9E
100
AcDbEntity
  8
_U+30EC_U+30A4_U+30E4_U+30FC 1
 62
   179
420
  2234388
370
     9
100
AcDbVertex
100
AcDb2dVertex
 10
104.7155182470687
 20
-156.3860400338744
 30
0.0
  0
VERTEX
  5
A0
330
9E
100
AcDbEntity
  8
_U+30EC_U+30A4_U+30E4_U+30FC 1
 62
   179
420
  2234388
370
     9
100
AcDbVertex
100
AcDb2dVertex
 10
104.7155182470687
 20
-166.0627534239248
 30
0.0
  0
SEQEND
  5
A1
330
9E
100
AcDbEntity
  8
_U+30EC_U+30A4_U+30E4_U+30FC 1
 62
   179
420
  2234388
370
     9
  0
POLYLINE
  5
A2
330
1F
100
AcDbEntity
  8
_U+30EC_U+30A4_U+30E4_U+30FC 1
 62
   179
420
  2234388
370
     9
100
AcDb2dPolyline
 66
     1
 10
0.0
 20
0.0
 30
0.0
  0
VERTEX
  5
A3
330
A2
100
AcDbEntity
  8
_U+30EC_U+30A4_U+30E4_U+30FC 1
 62
   179
420
  2234388
370
     9
100
AcDbVertex
100
AcDb2dVertex
 10
101.7155398644369
 20
-164.1227340287935
 30
0.0
  0
VERTEX
  5
A4
330
A2
100
AcDbEntity
  8
_U+30EC_U+30A4_U+30E4_U+30FC 1
 62
   179
420
  2234388
370
     9
100
AcDbVertex
100
AcDb2dVertex
 10
101.7155398644369
 20
-166.0630118060863
 30
0.0
  0
SEQEND
  5
A5
330
A2
100
AcDbEntity
  8
_U+30EC_U+30A4_U+30E4_U+30FC 1
 62
   179
420
  2234388
370
     9
  0
INSERT
  5
A7
330
1F
100
AcDbEntity
  8
_U+30EC_U+30A4_U+30E4_U+30FC 1
100
AcDbBlockReference
  2
block 5
 10
0.0
 20
0.0
 30
0.0
  0
SPLINE
  5
AC
330
1F
100
AcDbEntity
  8
_U+30EC_U+30A4_U+30E4_U+30FC 1
370
     0
100
AcDbSpline
210
0.0
220
0.0
230
1.0
 70
     8
 71
     3
 72
    95
 73
    91
 74
     0
 42
0.0000000001
 43
0.0000000001
 12
1.0
 22
0.0
 32
0.0
 13
1.0
 23
0.0
 33
0.0
 40
0.0
 40
0.0
 40
0.0
 40
0.0
 40
1.0
 40
1.0
 40
1.0
 40
2.0
 40
2.0
 40
2.0
 40
3.0
 40
3.0
 40
3.0
 40
4.0
 40
4.0
 40
4.0
 40
5.0
 40
5.0
 40
5.0
 40
6.0
 40
6.0
 40
6.0
 40
7.0
 40
7.0
 40
7.0
 40
8.0
 40
8.0
 40
8.0
 40
9.0
 40
9.0
 40
9.0
 40
10.0
 40
10.0
 40
10.0
 40
11.0
 40
11.0
 40
11.0
 40
12.0
 40
12.0
 40
12.0
 40
13.0
 40
13.0
 40
13.0
 40
14.0
 40
14.0
 40
14.0
 40
15.0
 40
15.0
 40
15.0
 40
16.0
 40
16.0
 40
16.0
 40
17.0
 40
17.0
 40
17.0
 40
18.0
 40
18.0
 40
18.0
 40
19.0
 40
19.0
 40
19.0
 40
20.0
 40
20.0
 40
20.0
 40
21.0
 40
21.0
 40
21.0
 40
22.0
 40
22.0
 40
22.0
 40
23.0
 40
23.0
 40
23.0
 40
24.0
 40
24.0
 40
24.0
 40
25.0
 40
25.0
 40
25.0
 40
26.0
 40
26.0
 40
26.0
 40
27.0
 40
27.0
 40
27.0
 40
28.0
 40
28.0
 40
28.0
 40
29.0
 40
29.0
 40
29.0
 40
30.0
 40
30.0
 40
30.0
 40
30.0
 10
100.7159346434679
 20
-152.405253732515
 30
0.0
 10
100.7159346434679
 20
-152.405253732515
 30
0.0
 10
100.9424173738529
 20
-152.8938543997106
 30
0.0
 10
100.9424173738529
 20
-152.8938543997106
 30
0.0
 10
100.9424173738529
 20
-152.8938543997106
 30
0.0
 10
100.7162791530165
 20
-153.4036208722936
 30
0.0
 10
100.7162791530165
 20
-153.4036208722936
 30
0.0
 10
100.7162791530165
 20
-153.4036208722936
 30
0.0
 10
100.9424173738529
 20
-153.8922215394892
 30
0.0
 10
100.9424173738529
 20
-153.8922215394892
 30
0.0
 10
100.9424173738529
 20
-153.8922215394892
 30
0.0
 10
100.7162791530165
 20
-154.4019880120723
 30
0.0
 10
100.7162791530165
 20
-154.4019880120723
 30
0.0
 10
100.7162791530165
 20
-154.4019880120723
 30
0.0
 10
100.9424173738529
 20
-154.8902226378725
 30
0.0
 10
100.9424173738529
 20
-154.8902226378725
 30
0.0
 10
100.9424173738529
 20
-154.8902226378725
 30
0.0
 10
100.7162791530165
 20
-155.4003551518509
 30
0.0
 10
100.7162791530165
 20
-155.4003551518509
 30
0.0
 10
100.7162791530165
 20
-155.4003551518509
 30
0.0
 10
100.9424173738529
 20
-155.8889342871996
 30
0.0
 10
100.9424173738529
 20
-155.8889342871996
 30
0.0
 10
100.9424173738529
 20
-155.8889342871996
 30
0.0
 10
100.7162791530165
 20
-156.3987007597827
 30
0.0
 10
100.7162791530165
 20
-156.3987007597827
 30
0.0
 10
100.7162791530165
 20
-156.3987007597827
 30
0.0
 10
100.9424173738529
 20
-156.8873014269783
 30
0.0
 10
100.9424173738529
 20
-156.8873014269783
 30
0.0
 10
100.9424173738529
 20
-156.8873014269783
 30
0.0
 10
100.7162791530165
 20
-157.3967233900128
 30
0.0
 10
100.7162791530165
 20
-157.3967233900128
 30
0.0
 10
100.7162791530165
 20
-157.3967233900128
 30
0.0
 10
100.9424173738529
 20
-157.8853240572084
 30
0.0
 10
100.9424173738529
 20
-157.8853240572084
 30
0.0
 10
100.9424173738529
 20
-157.8853240572084
 30
0.0
 10
100.7162791530165
 20
-158.3950689979446
 30
0.0
 10
100.7162791530165
 20
-158.3950689979446
 30
0.0
 10
100.7162791530165
 20
-158.3950689979446
 30
0.0
 10
100.9424173738529
 20
-158.8836696651402
 30
0.0
 10
100.9424173738529
 20
-158.8836696651402
 30
0.0
 10
100.9424173738529
 20
-158.8836696651402
 30
0.0
 10
100.7162791530165
 20
-159.3938021791186
 30
0.0
 10
100.7162791530165
 20
-159.3938021791186
 30
0.0
 10
100.7162791530165
 20
-159.3938021791186
 30
0.0
 10
100.9424173738529
 20
-159.8820368049188
 30
0.0
 10
100.9424173738529
 20
-159.8820368049188
 30
0.0
 10
100.9424173738529
 20
-159.8820368049188
 30
0.0
 10
100.7162791530165
 20
-160.3918032775019
 30
0.0
 10
100.7162791530165
 20
-160.3918032775019
 30
0.0
 10
100.7162791530165
 20
-160.3918032775019
 30
0.0
 10
100.9424173738529
 20
-160.8804039446974
 30
0.0
 10
100.9424173738529
 20
-160.8804039446974
 30
0.0
 10
100.9424173738529
 20
-160.8804039446974
 30
0.0
 10
100.7162791530165
 20
-161.3901704172805
 30
0.0
 10
100.7162791530165
 20
-161.3901704172805
 30
0.0
 10
100.7162791530165
 20
-161.3901704172805
 30
0.0
 10
100.9424173738529
 20
-161.8787495526293
 30
0.0
 10
100.9424173738529
 20
-161.8787495526293
 30
0.0
 10
100.9424173738529
 20
-161.8787495526293
 30
0.0
 10
100.7162791530165
 20
-162.3885160252123
 30
0.0
 10
100.7162791530165
 20
-162.3885160252123
 30
0.0
 10
100.7162791530165
 20
-162.3885160252123
 30
0.0
 10
100.9424173738529
 20
-162.8771166924079
 30
0.0
 10
100.9424173738529
 20
-162.8771166924079
 30
0.0
 10
100.9424173738529
 20
-162.8771166924079
 30
0.0
 10
100.7162791530165
 20
-163.386883164991
 30
0.0
 10
100.7162791530165
 20
-163.386883164991
 30
0.0
 10
100.7162791530165
 20
-163.386883164991
 30
0.0
 10
101.7160566287597
 20
-163.3865386554424
 30
0.0
 10
101.7160566287597
 20
-163.3865386554424
 30
0.0
 10
101.7160566287597
 20
-163.3865386554424
 30
0.0
 10
101.7157013532874
 20
-148.3867651674392
 30
0.0
 10
101.7157013532874
 20
-148.3867651674392
 30
0.0
 10
101.7157013532874
 20
-148.3867651674392
 30
0.0
 10
101.7157013532874
 20
-139.7627652984469
 30
0.0
 10
101.7157013532874
 20
-139.7627652984469
 30
0.0
 10
109.7872586293729
 20
-141.5263096773463
 30
0.0
 10
107.7206858047756
 20
-149.1586603427559
 30
0.0
 10
104.9654922222938
 20
-151.0050807999224
 30
0.0
 10
104.9654922222938
 20
-151.0050807999224
 30
0.0
 10
104.0009946775045
 20
-149.985569386603
 30
0.0
 10
104.0009946775045
 20
-149.985569386603
 30
0.0
 10
104.0009946775045
 20
-149.985569386603
 30
0.0
 10
104.7153675241413
 20
-152.3865640895075
 30
0.0
 10
104.7153675241413
 20
-152.3865640895075
 30
0.0
 10
109.8976739396751
 20
-150.2335731978474
 30
0.0
 10
111.1376929958972
 20
-139.5976590973163
 30
0.0
 10
100.7159346434679
 20
-138.3869233527188
 30
0.0
 10
100.7159346434679
 20
-138.3869233527188
 30
0.0
 10
100.7159346434679
 20
-152.3893847614361
 30
0.0
 10
100.7159346434679
 20
-152.3893847614361
 30
0.0
  0
HATCH
  5
AD
330
1F
100
AcDbEntity
  8
_U+30EC_U+30A4_U+30E4_U+30FC 1
 62
   254
420
 16050385
100
AcDbHatch
 10
0.0
 20
0.0
 30
0.0
210
0.0
220
0.0
230
1.0
  2
SOLID
 70
     1
 71
     0
 91
        1
 92
        1
 93
        2
 72
     4
 94
        3
 73
     0
 74
     0
 95
       95
 96
       91
 40
0.0
 40
0.0
 40
0.0
 40
0.0
 40
0.3527777776895833
 40
0.3527777776895833
 40
0.3527777776895833
 40
0.7055555553791667
 40
0.7055555553791667
 40
0.7055555553791667
 40
1.05833333306875
 40
1.05833333306875
 40
1.05833333306875
 40
1.411111110758333
 40
1.411111110758333
 40
1.411111110758333
 40
1.763888888447917
 40
1.763888888447917
 40
1.763888888447917
 40
2.1166666661375
 40
2.1166666661375
 40
2.1166666661375
 40
2.469444443827083
 40
2.469444443827083
 40
2.469444443827083
 40
2.822222221516667
 40
2.822222221516667
 40
2.822222221516667
 40
3.17499999920625
 40
3.17499999920625
 40
3.17499999920625
 40
3.527777776895833
 40
3.527777776895833
 40
3.527777776895833
 40
3.880555554585417
 40
3.880555554585417
 40
3.880555554585417
 40
4.233333332275
 40
4.233333332275
 40
4.233333332275
 40
4.586111109964584
 40
4.586111109964584
 40
4.586111109964584
 40
4.938888887654167
 40
4.938888887654167
 40
4.938888887654167
 40
5.29166666534375
 40
5.29166666534375
 40
5.29166666534375
 40
5.644444443033334
 40
5.644444443033334
 40
5.644444443033334
 40
5.997222220722917
 40
5.997222220722917
 40
5.997222220722917
 40
6.349999998412501
 40
6.349999998412501
 40
6.349999998412501
 40
6.702777776102083
 40
6.702777776102083
 40
6.702777776102083
 40
7.055555553791667
 40
7.055555553791667
 40
7.055555553791667
 40
7.40833333148125
 40
7.40833333148125
 40
7.40833333148125
 40
7.761111109170834
 40
7.761111109170834
 40
7.761111109170834
 40
8.113888886860417
 40
8.113888886860417
 40
8.113888886860417
 40
8.46666666455
 40
8.46666666455
 40
8.46666666455
 40
8.819444442239584
 40
8.819444442239584
 40
8.819444442239584
 40
9.172222219929168
 40
9.172222219929168
 40
9.172222219929168
 40
9.52499999761875
 40
9.52499999761875
 40
9.52499999761875
 40
9.877777775308333
 40
9.877777775308333
 40
9.877777775308333
 40
10.23055555299792
 40
10.23055555299792
 40
10.23055555299792
 40
10.5833333306875
 40
10.5833333306875
 40
10.5833333306875
 40
10.5833333306875
 10
100.7159346434679
 20
-152.405253732515
 10
100.7159346434679
 20
-152.405253732515
 10
100.9424173738529
 20
-152.8938543997106
 10
100.9424173738529
 20
-152.8938543997106
 10
100.9424173738529
 20
-152.8938543997106
 10
100.7162791530165
 20
-153.4036208722936
 10
100.7162791530165
 20
-153.4036208722936
 10
100.7162791530165
 20
-153.4036208722936
 10
100.9424173738529
 20
-153.8922215394892
 10
100.9424173738529
 20
-153.8922215394892
 10
100.9424173738529
 20
-153.8922215394892
 10
100.7162791530165
 20
-154.4019880120723
 10
100.7162791530165
 20
-154.4019880120723
 10
100.7162791530165
 20
-154.4019880120723
 10
100.9424173738529
 20
-154.8902226378725
 10
100.9424173738529
 20
-154.8902226378725
 10
100.9424173738529
 20
-154.8902226378725
 10
100.7162791530165
 20
-155.4003551518509
 10
100.7162791530165
 20
-155.4003551518509
 10
100.7162791530165
 20
-155.4003551518509
 10
100.9424173738529
 20
-155.8889342871996
 10
100.9424173738529
 20
-155.8889342871996
 10
100.9424173738529
 20
-155.8889342871996
 10
100.7162791530165
 20
-156.3987007597827
 10
100.7162791530165
 20
-156.3987007597827
 10
100.7162791530165
 20
-156.3987007597827
 10
100.9424173738529
 20
-156.8873014269783
 10
100.9424173738529
 20
-156.8873014269783
 10
100.9424173738529
 20
-156.8873014269783
 10
100.7162791530165
 20
-157.3967233900128
 10
100.7162791530165
 20
-157.3967233900128
 10
100.7162791530165
 20
-157.3967233900128
 10
100.9424173738529
 20
-157.8853240572084
 10
100.9424173738529
 20
-157.8853240572084
 10
100.9424173738529
 20
-157.8853240572084
 10
100.7162791530165
 20
-158.3950689979446
 10
100.7162791530165
 20
-158.3950689979446
 10
100.7162791530165
 20
-158.3950689979446
 10
100.9424173738529
 20
-158.8836696651402
 10
100.9424173738529
 20
-158.8836696651402
 10
100.9424173738529
 20
-158.8836696651402
 10
100.7162791530165
 20
-159.3938021791186
 10
100.7162791530165
 20
-159.3938021791186
 10
100.7162791530165
 20
-159.3938021791186
 10
100.9424173738529
 20
-159.8820368049188
 10
100.9424173738529
 20
-159.8820368049188
 10
100.9424173738529
 20
-159.8820368049188
 10
100.7162791530165
 20
-160.3918032775019
 10
100.7162791530165
 20
-160.3918032775019
 10
100.7162791530165
 20
-160.3918032775019
 10
100.9424173738529
 20
-160.8804039446974
 10
100.9424173738529
 20
-160.8804039446974
 10
100.9424173738529
 20
-160.8804039446974
 10
100.7162791530165
 20
-161.3901704172805
 10
100.7162791530165
 20
-161.3901704172805
 10
100.7162791530165
 20
-161.3901704172805
 10
100.9424173738529
 20
-161.8787495526293
 10
100.9424173738529
 20
-161.8787495526293
 10
100.9424173738529
 20
-161.8787495526293
 10
100.7162791530165
 20
-162.3885160252123
 10
100.7162791530165
 20
-162.3885160252123
 10
100.7162791530165
 20
-162.3885160252123
 10
100.9424173738529
 20
-162.8771166924079
 10
100.9424173738529
 20
-162.8771166924079
 10
100.9424173738529
 20
-162.8771166924079
 10
100.7162791530165
 20
-163.386883164991
 10
100.7162791530165
 20
-163.386883164991
 10
100.7162791530165
 20
-163.386883164991
 10
101.7160566287597
 20
-163.3865386554424
 10
101.7160566287597
 20
-163.3865386554424
 10
101.7160566287597
 20
-163.3865386554424
 10
101.7157013532874
 20
-148.3867651674392
 10
101.7157013532874
 20
-148.3867651674392
 10
101.7157013532874
 20
-148.3867651674392
 10
101.7157013532874
 20
-139.7627652984469
 10
101.7157013532874
 20
-139.7627652984469
 10
109.7872586293729
 20
-141.5263096773463
 10
107.7206858047756
 20
-149.1586603427559
 10
104.9654922222938
 20
-151.0050807999224
 10
104.9654922222938
 20
-151.0050807999224
 10
104.0009946775045
 20
-149.985569386603
 10
104.0009946775045
 20
-149.985569386603
 10
104.0009946775045
 20
-149.985569386603
 10
104.7153675241413
 20
-152.3865640895075
 10
104.7153675241413
 20
-152.3865640895075
 10
109.8976739396751
 20
-150.2335731978474
 10
111.1376929958972
 20
-139.5976590973163
 10
100.7159346434679
 20
-138.3869233527188
 10
100.7159346434679
 20
-138.3869233527188
 10
100.7159346434679
 20
-152.3893847614361
 10
100.7159346434679
 20
-152.3893847614361
 97
        0
 72
     1
 10
100.7159346434679
 20
-152.3893847614361
 11
100.7159346434679
 21
-152.405253732515
 97
        0
 75
     2
 76
     1
 98
        0
  0
SPLINE
  5
AE
330
1F
100
AcDbEntity
  8
_U+30EC_U+30A4_U+30E4_U+30FC 1
 62
   179
420
  2234388
370
    25
100
AcDbSpline
210
0.0
220
0.0
230
1.0
 70
     8
 71
     3
 72
    95
 73
    91
 74
     0
 42
0.0000000001
 43
0.0000000001
 12
1.0
 22
0.0
 32
0.0
 13
1.0
 23
0.0
 33
0.0
 40
0.0
 40
0.0
 40
0.0
 40
0.0
 40
1.0
 40
1.0
 40
1.0
 40
2.0
 40
2.0
 40
2.0
 40
3.0
 40
3.0
 40
3.0
 40
4.0
 40
4.0
 40
4.0
 40
5.0
 40
5.0
 40
5.0
 40
6.0
 40
6.0
 40
6.0
 40
7.0
 40
7.0
 40
7.0
 40
8.0
 40
8.0
 40
8.0
 40
9.0
 40
9.0
 40
9.0
 40
10.0
 40
10.0
 40
10.0
 40
11.0
 40
11.0
 40
11.0
 40
12.0
 40
12.0
 40
12.0
 40
13.0
 40
13.0
 40
13.0
 40
14.0
 40
14.0
 40
14.0
 40
15.0
 40
15.0
 40
15.0
 40
16.0
 40
16.0
 40
16.0
 40
17.0
 40
17.0
 40
17.0
 40
18.0
 40
18.0
 40
18.0
 40
19.0
 40
19.0
 40
19.0
 40
20.0
 40
20.0
 40
20.0
 40
21.0
 40
21.0
 40
21.0
 40
22.0
 40
22.0
 40
22.0
 40
23.0
 40
23.0
 40
23.0
 40
24.0
 40
24.0
 40
24.0
 40
25.0
 40
25.0
 40
25.0
 40
26.0
 40
26.0
 40
26.0
 40
27.0
 40
27.0
 40
27.0
 40
28.0
 40
28.0
 40
28.0
 40
29.0
 40
29.0
 40
29.0
 40
30.0
 40
30.0
 40
30.0
 40
30.0
 10
100.7159346434679
 20
-152.405253732515
 30
0.0
 10
100.7159346434679
 20
-152.405253732515
 30
0.0
 10
100.9424173738529
 20
-152.8938543997106
 30
0.0
 10
100.9424173738529
 20
-152.8938543997106
 30
0.0
 10
100.9424173738529
 20
-152.8938543997106
 30
0.0
 10
100.7162791530165
 20
-153.4036208722936
 30
0.0
 10
100.7162791530165
 20
-153.4036208722936
 30
0.0
 10
100.7162791530165
 20
-153.4036208722936
 30
0.0
 10
100.9424173738529
 20
-153.8922215394892
 30
0.0
 10
100.9424173738529
 20
-153.8922215394892
 30
0.0
 10
100.9424173738529
 20
-153.8922215394892
 30
0.0
 10
100.7162791530165
 20
-154.4019880120723
 30
0.0
 10
100.7162791530165
 20
-154.4019880120723
 30
0.0
 10
100.7162791530165
 20
-154.4019880120723
 30
0.0
 10
100.9424173738529
 20
-154.8902226378725
 30
0.0
 10
100.9424173738529
 20
-154.8902226378725
 30
0.0
 10
100.9424173738529
 20
-154.8902226378725
 30
0.0
 10
100.7162791530165
 20
-155.4003551518509
 30
0.0
 10
100.7162791530165
 20
-155.4003551518509
 30
0.0
 10
100.7162791530165
 20
-155.4003551518509
 30
0.0
 10
100.9424173738529
 20
-155.8889342871996
 30
0.0
 10
100.9424173738529
 20
-155.8889342871996
 30
0.0
 10
100.9424173738529
 20
-155.8889342871996
 30
0.0
 10
100.7162791530165
 20
-156.3987007597827
 30
0.0
 10
100.7162791530165
 20
-156.3987007597827
 30
0.0
 10
100.7162791530165
 20
-156.3987007597827
 30
0.0
 10
100.9424173738529
 20
-156.8873014269783
 30
0.0
 10
100.9424173738529
 20
-156.8873014269783
 30
0.0
 10
100.9424173738529
 20
-156.8873014269783
 30
0.0
 10
100.7162791530165
 20
-157.3967233900128
 30
0.0
 10
100.7162791530165
 20
-157.3967233900128
 30
0.0
 10
100.7162791530165
 20
-157.3967233900128
 30
0.0
 10
100.9424173738529
 20
-157.8853240572084
 30
0.0
 10
100.9424173738529
 20
-157.8853240572084
 30
0.0
 10
100.9424173738529
 20
-157.8853240572084
 30
0.0
 10
100.7162791530165
 20
-158.3950689979446
 30
0.0
 10
100.7162791530165
 20
-158.3950689979446
 30
0.0
 10
100.7162791530165
 20
-158.3950689979446
 30
0.0
 10
100.9424173738529
 20
-158.8836696651402
 30
0.0
 10
100.9424173738529
 20
-158.8836696651402
 30
0.0
 10
100.9424173738529
 20
-158.8836696651402
 30
0.0
 10
100.7162791530165
 20
-159.3938021791186
 30
0.0
 10
100.7162791530165
 20
-159.3938021791186
 30
0.0
 10
100.7162791530165
 20
-159.3938021791186
 30
0.0
 10
100.9424173738529
 20
-159.8820368049188
 30
0.0
 10
100.9424173738529
 20
-159.8820368049188
 30
0.0
 10
100.9424173738529
 20
-159.8820368049188
 30
0.0
 10
100.7162791530165
 20
-160.3918032775019
 30
0.0
 10
100.7162791530165
 20
-160.3918032775019
 30
0.0
 10
100.7162791530165
 20
-160.3918032775019
 30
0.0
 10
100.9424173738529
 20
-160.8804039446974
 30
0.0
 10
100.9424173738529
 20
-160.8804039446974
 30
0.0
 10
100.9424173738529
 20
-160.8804039446974
 30
0.0
 10
100.7162791530165
 20
-161.3901704172805
 30
0.0
 10
100.7162791530165
 20
-161.3901704172805
 30
0.0
 10
100.7162791530165
 20
-161.3901704172805
 30
0.0
 10
100.9424173738529
 20
-161.8787495526293
 30
0.0
 10
100.9424173738529
 20
-161.8787495526293
 30
0.0
 10
100.9424173738529
 20
-161.8787495526293
 30
0.0
 10
100.7162791530165
 20
-162.3885160252123
 30
0.0
 10
100.7162791530165
 20
-162.3885160252123
 30
0.0
 10
100.7162791530165
 20
-162.3885160252123
 30
0.0
 10
100.9424173738529
 20
-162.8771166924079
 30
0.0
 10
100.9424173738529
 20
-162.8771166924079
 30
0.0
 10
100.9424173738529
 20
-162.8771166924079
 30
0.0
 10
100.7162791530165
 20
-163.386883164991
 30
0.0
 10
100.7162791530165
 20
-163.386883164991
 30
0.0
 10
100.7162791530165
 20
-163.386883164991
 30
0.0
 10
101.7160566287597
 20
-163.3865386554424
 30
0.0
 10
101.7160566287597
 20
-163.3865386554424
 30
0.0
 10
101.7160566287597
 20
-163.3865386554424
 30
0.0
 10
101.7157013532874
 20
-148.3867651674392
 30
0.0
 10
101.7157013532874
 20
-148.3867651674392
 30
0.0
 10
101.7157013532874
 20
-148.3867651674392
 30
0.0
 10
101.7157013532874
 20
-139.7627652984469
 30
0.0
 10
101.7157013532874
 20
-139.7627652984469
 30
0.0
 10
109.7872586293729
 20
-141.5263096773463
 30
0.0
 10
107.7206858047756
 20
-149.1586603427559
 30
0.0
 10
104.9654922222938
 20
-151.0050807999224
 30
0.0
 10
104.9654922222938
 20
-151.0050807999224
 30
0.0
 10
104.0009946775045
 20
-149.985569386603
 30
0.0
 10
104.0009946775045
 20
-149.985569386603
 30
0.0
 10
104.0009946775045
 20
-149.985569386603
 30
0.0
 10
104.7153675241413
 20
-152.3865640895075
 30
0.0
 10
104.7153675241413
 20
-152.3865640895075
 30
0.0
 10
109.8976739396751
 20
-150.2335731978474
 30
0.0
 10
111.1376929958972
 20
-139.5976590973163
 30
0.0
 10
100.7159346434679
 20
-138.3869233527188
 30
0.0
 10
100.7159346434679
 20
-138.3869233527188
 30
0.0
 10
100.7159346434679
 20
-152.3893847614361
 30
0.0
 10
100.7159346434679
 20
-152.3893847614361
 30
0.0
  0
POLYLINE
  5
AF
330
1F
100
AcDbEntity
  8
_U+30EC_U+30A4_U+30E4_U+30FC 1
370
     0
100
AcDb2dPolyline
 66
     1
 10
0.0
 20
0.0
 30
0.0
  0
VERTEX
  5
B0
330
AF
100
AcDbEntity
  8
_U+30EC_U+30A4_U+30E4_U+30FC 1
370
     0
100
AcDbVertex
100
AcDb2dVertex
 10
128.9058267906902
 20
-166.8870554927108
 30
0.0
  0
VERTEX
  5
B1
330
AF
100
AcDbEntity
  8
_U+30EC_U+30A4_U+30E4_U+30FC 1
370
     0
100
AcDbVertex
100
AcDb2dVertex
 10
80.30113352563612
 20
-166.8870554927108
 30
0.0
  0
VERTEX
  5
B2
330
AF
100
AcDbEntity
  8
_U+30EC_U+30A4_U+30E4_U+30FC 1
370
     0
100
AcDbVertex
100
AcDb2dVertex
 10
80.30113352563612
 20
-130.1749999414463
 30
0.0
  0
VERTEX
  5
B3
330
AF
100
AcDbEntity
  8
_U+30EC_U+30A4_U+30E4_U+30FC 1
370
     0
100
AcDbVertex
100
AcDb2dVertex
 10
128.9058267906902
 20
-130.1749999414463
 30
0.0
  0
VERTEX
  5
B4
330
AF
100
AcDbEntity
  8
_U+30EC_U+30A4_U+30E4_U+30FC 1
370
     0
100
AcDbVertex
100
AcDb2dVertex
 10
128.9058267906902
 20
-166.8870554927108
 30
0.0
  0
SEQEND
  5
B5
330
AF
100
AcDbEntity
  8
_U+30EC_U+30A4_U+30E4_U+30FC 1
370
     0
  0
ENDSEC
  0
SECTION
  2
OBJECTS
  0
DICTIONARY
  5
C
330
0
100
AcDbDictionary
281
     1
  3
ACAD_GROUP
350
D
  3
ACAD_LAYOUT
350
1A
  3
ACAD_MATERIAL
350
3B
  3
ACAD_MLEADERSTYLE
350
B7
  3
ACAD_MLINESTYLE
350
17
  3
ACAD_PLOTSETTINGS
350
19
  3
ACAD_PLOTSTYLENAME
350
E
  3
ACAD_TABLESTYLE
350
B6
  3
ACAD_VISUALSTYLE
350
2A
  0
SUN
  5
3F
330
29
100
AcDbSun
 90
        1
290
     0
 63
     7
421
 16777215
 40
1.0
291
     1
 91
  2455826
 92
 54000000
292
     0
 70
     2
 71
   256
280
     1
  0
DICTIONARY
  5
D
102
{ACAD_REACTORS
330
C
102
}
330
C
100
AcDbDictionary
281
     1
  0
DICTIONARY
  5
1A
102
{ACAD_REACTORS
330
C
102
}
330
C
100
AcDbDictionary
281
     1
  3
Layout1
350
1E
  3
Layout2
350
26
  3
Model
350
22
  0
DICTIONARY
  5
3B
102
{ACAD_REACTORS
330
C
102
}
330
C
100
AcDbDictionary
281
     1
  3
ByBlock
350
3D
  3
ByLayer
350
3C
  3
Global
350
3E
  0
DICTIONARY
  5
B7
102
{ACAD_REACTORS
330
C
102
}
330
C
100
AcDbDictionary
281
     1
  0
DICTIONARY
  5
17
102
{ACAD_REACTORS
330
C
102
}
330
C
100
AcDbDictionary
281
     1
  3
Standard
350
18
  0
DICTIONARY
  5
19
102
{ACAD_REACTORS
330
C
102
}
330
C
100
AcDbDictionary
281
     1
  0
ACDBDICTIONARYWDFLT
  5
E
102
{ACAD_REACTORS
330
C
102
}
330
C
100
AcDbDictionary
281
     1
  3
Normal
350
F
100
AcDbDictionaryWithDefault
340
F
  0
DICTIONARY
  5
B6
102
{ACAD_REACTORS
330
C
102
}
330
C
100
AcDbDictionary
281
     1
  0
DICTIONARY
  5
2A
102
{ACAD_REACTORS
330
C
102
}
330
C
100
AcDbDictionary
281
     1
  3
2dWireframe
350
2F
  3
3D Hidden
350
31
  3
3dWireframe
350
30
  3
Basic
350
32
  3
Brighten
350
36
  3
ColorChange
350
3A
  3
Conceptual
350
34
  3
Dim
350
35
  3
Facepattern
350
39
  3
Flat
350
2B
  3
FlatWithEdges
350
2C
  3
Gouraud
350
2D
  3
GouraudWithEdges
350
2E
  3
Linepattern
350
38
  3
Realistic
350
33
  3
Thicken
350
37
  0
LAYOUT
  5
1E
102
{ACAD_REACTORS
330
1A
102
}
330
1A
100
AcDbPlotSettings
  1

  2
none_device
  4

  6

 40
0.0
 41
0.0
 42
0.0
 43
0.0
 44
0.0
 45
0.0
 46
0.0
 47
0.0
 48
0.0
 49
0.0
140
0.0
141
0.0
142
1.0
143
1.0
 70
   688
 72
     0
 73
     0
 74
     5
  7

 75
    16
 76
     0
 77
     2
 78
   300
147
1.0
148
0.0
149
0.0
100
AcDbLayout
  1
Layout1
 70
     1
 71
     1
 10
0.0
 20
0.0
 11
12.0
 21
9.0
 12
0.0
 22
0.0
 32
0.0
 14
1.000000000000000E+20
 24
1.000000000000000E+20
 34
1.000000000000000E+20
 15
-1.000000000000000E+20
 25
-1.000000000000000E+20
 35
-1.000000000000000E+20
146
0.0
 13
0.0
 23
0.0
 33
0.0
 16
1.0
 26
0.0
 36
0.0
 17
0.0
 27
1.0
 37
0.0
 76
     0
330
1B
  0
LAYOUT
  5
26
102
{ACAD_REACTORS
330
1A
102
}
330
1A
100
AcDbPlotSettings
  1

  2
none_device
  4

  6

 40
0.0
 41
0.0
 42
0.0
 43
0.0
 44
0.0
 45
0.0
 46
0.0
 47
0.0
 48
0.0
 49
0.0
140
0.0
141
0.0
142
1.0
143
1.0
 70
   688
 72
     0
 73
     0
 74
     5
  7

 75
    16
 76
     0
 77
     2
 78
   300
147
1.0
148
0.0
149
0.0
100
AcDbLayout
  1
Layout2
 70
     1
 71
     2
 10
0.0
 20
0.0
 11
0.0
 21
0.0
 12
0.0
 22
0.0
 32
0.0
 14
0.0
 24
0.0
 34
0.0
 15
0.0
 25
0.0
 35
0.0
146
0.0
 13
0.0
 23
0.0
 33
0.0
 16
1.0
 26
0.0
 36
0.0
 17
0.0
 27
1.0
 37
0.0
 76
     0
330
23
  0
LAYOUT
  5
22
102
{ACAD_REACTORS
330
1A
102
}
330
1A
100
AcDbPlotSettings
  1

  2
none_device
  4

  6

 40
0.0
 41
0.0
 42
0.0
 43
0.0
 44
0.0
 45
0.0
 46
0.0
 47
0.0
 48
0.0
 49
0.0
140
0.0
141
0.0
142
1.0
143
1.0
 70
  1712
 72
     0
 73
     0
 74
     0
  7

 75
     0
 76
     0
 77
     2
 78
   300
147
1.0
148
0.0
149
0.0
100
AcDbLayout
  1
Model
 70
     1
 71
     0
 10
0.0
 20
0.0
 11
12.0
 21
9.0
 12
0.0
 22
0.0
 32
0.0
 14
1.000000000000000E+20
 24
1.000000000000000E+20
 34
1.000000000000000E+20
 15
-1.000000000000000E+20
 25
-1.000000000000000E+20
 35
-1.000000000000000E+20
146
0.0
 13
0.0
 23
0.0
 33
0.0
 16
1.0
 26
0.0
 36
0.0
 17
0.0
 27
1.0
 37
0.0
 76
     0
330
1F
331
29
  0
MATERIAL
  5
3D
102
{ACAD_REACTORS
330
3B
102
}
330
3B
100
AcDbMaterial
  1
ByBlock
 72
     1
 94
      127
  0
MATERIAL
  5
3C
102
{ACAD_REACTORS
330
3B
102
}
330
3B
100
AcDbMaterial
  1
ByLayer
 72
     1
 94
      127
  0
MATERIAL
  5
3E
102
{ACAD_REACTORS
330
3B
102
}
330
3B
100
AcDbMaterial
  1
Global
 72
     1
 94
      127
  0
MLINESTYLE
  5
18
102
{ACAD_REACTORS
330
17
102
}
330
17
100
AcDbMlineStyle
  2
Standard
 70
     0
  3

 62
   256
 51
90.0
 52
90.0
 71
     2
 49
0.5
 62
   256
  6
BYLAYER
 49
-0.5
 62
   256
  6
BYLAYER
  0
ACDBPLACEHOLDER
  5
F
102
{ACAD_REACTORS
330
E
102
}
330
E
  0
VISUALSTYLE
  5
2F
102
{ACAD_REACTORS
330
2A
102
}
330
2A
100
AcDbVisualStyle
  2
2dWireframe
 70
     4
177
     2
291
     0
 71
     0
176
     1
 72
     2
176
     1
 73
     0
176
     1
 90
        0
176
     1
 40
-0.6
176
     1
 41
-30.0
176
     1
 62
     5
 63
     7
421
 16777215
176
     1
 74
     1
176
     1
 91
        4
176
     1
 64
     7
176
     1
 65
   257
176
     1
 75
     1
176
     1
175
     1
176
     1
 42
1.0
176
     1
 92
        0
176
     1
 66
   257
176
     1
 43
1.0
176
     1
 76
     1
176
     1
 77
     6
176
     1
 78
     2
176
     1
 67
     7
176
     1
 79
     5
176
     1
170
     0
176
     1
171
     0
176
     1
290
     0
176
     1
 93
        1
176
     1
 44
0.0
176
     1
173
     0
176
     1
  0
VISUALSTYLE
  5
31
102
{ACAD_REACTORS
330
2A
102
}
330
2A
100
AcDbVisualStyle
  2
3D Hidden
 70
     6
177
     2
291
     0
 71
     1
176
     1
 72
     2
176
     1
 73
     2
176
     1
 90
        0
176
     1
 40
-0.6
176
     1
 41
-30.0
176
     1
 62
     5
 63
     7
421
 16777215
176
     1
 74
     2
176
     1
 91
        2
176
     1
 64
     7
176
     1
 65
   257
176
     1
 75
     2
176
     1
175
     1
176
     1
 42
40.0
176
     1
 92
        0
176
     1
 66
   257
176
     1
 43
1.0
176
     1
 76
     1
176
     1
 77
     6
176
     1
 78
     2
176
     1
 67
     7
176
     1
 79
     3
176
     1
170
     0
176
     1
171
     0
176
     1
290
     0
176
     1
 93
        1
176
     1
 44
0.0
176
     1
173
     0
176
     1
  0
VISUALSTYLE
  5
30
102
{ACAD_REACTORS
330
2A
102
}
330
2A
100
AcDbVisualStyle
  2
3dWireframe
 70
     5
177
     2
291
     0
 71
     0
176
     1
 72
     2
176
     1
 73
     0
176
     1
 90
        0
176
     1
 40
-0.6
176
     1
 41
-30.0
176
     1
 62
     5
 63
     7
421
 16777215
176
     1
 74
     1
176
     1
 91
        4
176
     1
 64
     7
176
     1
 65
   257
176
     1
 75
     1
176
     1
175
     1
176
     1
 42
1.0
176
     1
 92
        0
176
     1
 66
   257
176
     1
 43
1.0
176
     1
 76
     1
176
     1
 77
     6
176
     1
 78
     2
176
     1
 67
     7
176
     1
 79
     5
176
     1
170
     0
176
     1
171
     0
176
     1
290
     0
176
     1
 93
        1
176
     1
 44
0.0
176
     1
173
     0
176
     1
  0
VISUALSTYLE
  5
32
102
{ACAD_REACTORS
330
2A
102
}
330
2A
100
AcDbVisualStyle
  2
Basic
 70
     7
177
     2
291
     1
 71
     1
176
     1
 72
     0
176
     1
 73
     1
176
     1
 90
        0
176
     1
 40
-0.6
176
     1
 41
-30.0
176
     1
 62
     5
 63
     7
421
 16777215
176
     1
 74
     0
176
     1
 91
        4
176
     1
 64
     7
176
     1
 65
   257
176
     1
 75
     1
176
     1
175
     1
176
     1
 42
1.0
176
     1
 92
        8
176
     1
 66
     7
176
     1
 43
1.0
176
     1
 76
     1
176
     1
 77
     6
176
     1
 78
     2
176
     1
 67
     7
176
     1
 79
     5
176
     1
170
     0
176
     1
171
     0
176
     1
290
     0
176
     1
 93
        1
176
     1
 44
0.0
176
     1
173
     0
176
     1
  0
VISUALSTYLE
  5
36
102
{ACAD_REACTORS
330
2A
102
}
330
2A
100
AcDbVisualStyle
  2
Brighten
 70
    12
177
     2
291
     1
 71
     2
176
     1
 72
     2
176
     1
 73
     0
176
     1
 90
        0
176
     1
 40
-0.6
176
     1
 41
-30.0
176
     1
 62
     5
 63
     7
421
 16777215
176
     1
 74
     1
176
     1
 91
        4
176
     1
 64
     7
176
     1
 65
   257
176
     1
 75
     1
176
     1
175
     1
176
     1
 42
1.0
176
     1
 92
        8
176
     1
 66
     7
176
     1
 43
1.0
176
     1
 76
     1
176
     1
 77
     6
176
     1
 78
     2
176
     1
 67
     7
176
     1
 79
     5
176
     1
170
     0
176
     1
171
     0
176
     1
290
     0
176
     1
 93
        1
176
     1
 44
50.0
176
     1
173
     0
176
     1
  0
VISUALSTYLE
  5
3A
102
{ACAD_REACTORS
330
2A
102
}
330
2A
100
AcDbVisualStyle
  2
ColorChange
 70
    16
177
     2
291
     1
 71
     2
176
     1
 72
     2
176
     1
 73
     3
176
     1
 90
        0
176
     1
 40
-0.6
176
     1
 41
-30.0
176
     1
 62
     5
 63
     8
421
  8421504
176
     1
 74
     1
176
     1
 91
        4
176
     1
 64
     7
176
     1
 65
   257
176
     1
 75
     1
176
     1
175
     1
176
     1
 42
1.0
176
     1
 92
        8
176
     1
 66
     8
424
  8421504
176
     1
 43
1.0
176
     1
 76
     1
176
     1
 77
     6
176
     1
 78
     2
176
     1
 67
     7
176
     1
 79
     5
176
     1
170
     0
176
     1
171
     0
176
     1
290
     0
176
     1
 93
        1
176
     1
 44
0.0
176
     1
173
     0
176
     1
  0
VISUALSTYLE
  5
34
102
{ACAD_REACTORS
330
2A
102
}
330
2A
100
AcDbVisualStyle
  2
Conceptual
 70
     9
177
     2
291
     0
 71
     3
176
     1
 72
     2
176
     1
 73
     0
176
     1
 90
        0
176
     1
 40
-0.6
176
     1
 41
-30.0
176
     1
 62
     5
 63
     7
421
 16777215
176
     1
 74
     2
176
     1
 91
        2
176
     1
 64
     7
176
     1
 65
   257
176
     1
 75
     1
176
     1
175
     1
176
     1
 42
40.0
176
     1
 92
        8
176
     1
 66
     7
176
     1
 43
1.0
176
     1
 76
     1
176
     1
 77
     6
176
     1
 78
     2
176
     1
 67
     7
176
     1
 79
     3
176
     1
170
     0
176
     1
171
     0
176
     1
290
     0
176
     1
 93
        1
176
     1
 44
0.0
176
     1
173
     0
176
     1
  0
VISUALSTYLE
  5
35
102
{ACAD_REACTORS
330
2A
102
}
330
2A
100
AcDbVisualStyle
  2
Dim
 70
    11
177
     2
291
     1
 71
     2
176
     1
 72
     2
176
     1
 73
     0
176
     1
 90
        0
176
     1
 40
-0.6
176
     1
 41
-30.0
176
     1
 62
     5
 63
     7
421
 16777215
176
     1
 74
     1
176
     1
 91
        4
176
     1
 64
     7
176
     1
 65
   257
176
     1
 75
     1
176
     1
175
     1
176
     1
 42
1.0
176
     1
 92
        8
176
     1
 66
     7
176
     1
 43
1.0
176
     1
 76
     1
176
     1
 77
     6
176
     1
 78
     2
176
     1
 67
     7
176
     1
 79
     5
176
     1
170
     0
176
     1
171
     0
176
     1
290
     0
176
     1
 93
        1
176
     1
 44
-50.0
176
     1
173
     0
176
     1
  0
VISUALSTYLE
  5
39
102
{ACAD_REACTORS
330
2A
102
}
330
2A
100
AcDbVisualStyle
  2
Facepattern
 70
    15
177
     2
291
     1
 71
     2
176
     1
 72
     2
176
     1
 73
     0
176
     1
 90
        0
176
     1
 40
-0.6
176
     1
 41
-30.0
176
     1
 62
     5
 63
     7
421
 16777215
176
     1
 74
     1
176
     1
 91
        4
176
     1
 64
     7
176
     1
 65
   257
176
     1
 75
     1
176
     1
175
     1
176
     1
 42
1.0
176
     1
 92
        8
176
     1
 66
     7
176
     1
 43
1.0
176
     1
 76
     1
176
     1
 77
     6
176
     1
 78
     2
176
     1
 67
     7
176
     1
 79
     5
176
     1
170
     0
176
     1
171
     0
176
     1
290
     0
176
     1
 93
        1
176
     1
 44
0.0
176
     1
173
     0
176
     1
  0
VISUALSTYLE
  5
2B
102
{ACAD_REACTORS
330
2A
102
}
330
2A
100
AcDbVisualStyle
  2
Flat
 70
     0
177
     2
291
     1
 71
     2
176
     1
 72
     1
176
     1
 73
     1
176
     1
 90
        2
176
     1
 40
-0.6
176
     1
 41
30.0
176
     1
 62
     5
 63
     7
421
 16777215
176
     1
 74
     0
176
     1
 91
        4
176
     1
 64
     7
176
     1
 65
   257
176
     1
 75
     1
176
     1
175
     1
176
     1
 42
1.0
176
     1
 92
        8
176
     1
 66
     7
176
     1
 43
1.0
176
     1
 76
     1
176
     1
 77
     6
176
     1
 78
     2
176
     1
 67
     7
176
     1
 79
     5
176
     1
170
     0
176
     1
171
     0
176
     1
290
     0
176
     1
 93
       13
176
     1
 44
0.0
176
     1
173
     0
176
     1
  0
VISUALSTYLE
  5
2C
102
{ACAD_REACTORS
330
2A
102
}
330
2A
100
AcDbVisualStyle
  2
FlatWithEdges
 70
     1
177
     2
291
     1
 71
     2
176
     1
 72
     1
176
     1
 73
     1
176
     1
 90
        2
176
     1
 40
-0.6
176
     1
 41
30.0
176
     1
 62
     5
 63
     7
421
 16777215
176
     1
 74
     1
176
     1
 91
        4
176
     1
 64
     7
176
     1
 65
   257
176
     1
 75
     1
176
     1
175
     1
176
     1
 42
1.0
176
     1
 92
        0
176
     1
 66
   257
176
     1
 43
1.0
176
     1
 76
     1
176
     1
 77
     6
176
     1
 78
     2
176
     1
 67
     7
176
     1
 79
     5
176
     1
170
     0
176
     1
171
     0
176
     1
290
     0
176
     1
 93
       13
176
     1
 44
0.0
176
     1
173
     0
176
     1
  0
VISUALSTYLE
  5
2D
102
{ACAD_REACTORS
330
2A
102
}
330
2A
100
AcDbVisualStyle
  2
Gouraud
 70
     2
177
     2
291
     1
 71
     2
176
     1
 72
     2
176
     1
 73
     1
176
     1
 90
        2
176
     1
 40
-0.6
176
     1
 41
30.0
176
     1
 62
     5
 63
     7
421
 16777215
176
     1
 74
     0
176
     1
 91
        4
176
     1
 64
     7
176
     1
 65
   257
176
     1
 75
     1
176
     1
175
     1
176
     1
 42
1.0
176
     1
 92
        0
176
     1
 66
     7
176
     1
 43
1.0
176
     1
 76
     1
176
     1
 77
     6
176
     1
 78
     2
176
     1
 67
     7
176
     1
 79
     5
176
     1
170
     0
176
     1
171
     0
176
     1
290
     0
176
     1
 93
       13
176
     1
 44
0.0
176
     1
173
     0
176
     1
  0
VISUALSTYLE
  5
2E
102
{ACAD_REACTORS
330
2A
102
}
330
2A
100
AcDbVisualStyle
  2
GouraudWithEdges
 70
     3
177
     2
291
     1
 71
     2
176
     1
 72
     2
176
     1
 73
     1
176
     1
 90
        2
176
     1
 40
-0.6
176
     1
 41
30.0
176
     1
 62
     5
 63
     7
421
 16777215
176
     1
 74
     1
176
     1
 91
        4
176
     1
 64
     7
176
     1
 65
   257
176
     1
 75
     1
176
     1
175
     1
176
     1
 42
1.0
176
     1
 92
        0
176
     1
 66
   257
176
     1
 43
1.0
176
     1
 76
     1
176
     1
 77
     6
176
     1
 78
     2
176
     1
 67
     7
176
     1
 79
     5
176
     1
170
     0
176
     1
171
     0
176
     1
290
     0
176
     1
 93
       13
176
     1
 44
0.0
176
     1
173
     0
176
     1
  0
VISUALSTYLE
  5
38
102
{ACAD_REACTORS
330
2A
102
}
330
2A
100
AcDbVisualStyle
  2
Linepattern
 70
    14
177
     2
291
     1
 71
     2
176
     1
 72
     2
176
     1
 73
     0
176
     1
 90
        0
176
     1
 40
-0.6
176
     1
 41
-30.0
176
     1
 62
     5
 63
     7
421
 16777215
176
     1
 74
     1
176
     1
 91
        4
176
     1
 64
     7
176
     1
 65
   257
176
     1
 75
     7
176
     1
175
     7
176
     1
 42
1.0
176
     1
 92
        8
176
     1
 66
     7
176
     1
 43
1.0
176
     1
 76
     1
176
     1
 77
     6
176
     1
 78
     2
176
     1
 67
     7
176
     1
 79
     5
176
     1
170
     0
176
     1
171
     0
176
     1
290
     0
176
     1
 93
        1
176
     1
 44
0.0
176
     1
173
     0
176
     1
  0
VISUALSTYLE
  5
33
102
{ACAD_REACTORS
330
2A
102
}
330
2A
100
AcDbVisualStyle
  2
Realistic
 70
     8
177
     2
291
     0
 71
     2
176
     1
 72
     2
176
     1
 73
     0
176
     1
 90
        0
176
     1
 40
-0.6
176
     1
 41
-30.0
176
     1
 62
     5
 63
     7
421
 16777215
176
     1
 74
     1
176
     1
 91
        0
176
     1
 64
     7
176
     1
 65
   257
176
     1
 75
     1
176
     1
175
     1
176
     1
 42
1.0
176
     1
 92
        8
176
     1
 66
     8
424
  7895160
176
     1
 43
1.0
176
     1
 76
     1
176
     1
 77
     6
176
     1
 78
     2
176
     1
 67
     7
176
     1
 79
     5
176
     1
170
     0
176
     1
171
     0
176
     1
290
     0
176
     1
 93
       13
176
     1
 44
0.0
176
     1
173
     0
176
     1
  0
VISUALSTYLE
  5
37
102
{ACAD_REACTORS
330
2A
102
}
330
2A
100
AcDbVisualStyle
  2
Thicken
 70
    13
177
     2
291
     1
 71
     2
176
     1
 72
     2
176
     1
 73
     0
176
     1
 90
        0
176
     1
 40
-0.6
176
     1
 41
-30.0
176
     1
 62
     5
 63
     7
421
 16777215
176
     1
 74
     1
176
     1
 91
        4
176
     1
 64
     7
176
     1
 65
   257
176
     1
 75
     1
176
     1
175
     1
176
     1
 42
1.0
176
     1
 92
       12
176
     1
 66
     7
176
     1
 43
1.0
176
     1
 76
     1
176
     1
 77
     6
176
     1
 78
     2
176
     1
 67
     7
176
     1
 79
     5
176
     1
170
     0
176
     1
171
     0
176
     1
290
     0
176
     1
 93
        1
176
     1
 44
0.0
176
     1
173
     0
176
     1
  0
ENDSEC
  0
EOF
