  0
SECTION
  2
HEADER
  9
$ACADVER
  1
AC1024
  9
$ACADMAINTVER
 70
     6
  9
$DWGCODEPAGE
  3
UNDEFINED
  9
$INSBASE
 10
0.0
 20
0.0
 30
0.0
  9
$EXTMIN
 10
1.000000000000000E+20
 20
1.000000000000000E+20
 30
1.000000000000000E+20
  9
$EXTMAX
 10
-1.000000000000000E+20
 20
-1.000000000000000E+20
 30
-1.000000000000000E+20
  9
$LIMMIN
 10
0.0
 20
0.0
  9
$LIMMAX
 10
12.0
 20
9.0
  9
$ORTHOMODE
 70
     0
  9
$REGENMODE
 70
     1
  9
$FILLMODE
 70
     1
  9
$QTEXTMODE
 70
     0
  9
$MIRRTEXT
 70
     1
  9
$LTSCALE
 40
1.0
  9
$ATTMODE
 70
     1
  9
$TEXTSIZE
 40
0.2
  9
$TRACEWID
 40
0.05
  9
$TEXTSTYLE
  7
Standard
  9
$CLAYER
  8
0
  9
$CELTYPE
  6
ByLayer
  9
$CECOLOR
 62
   256
  9
$CELTSCALE
 40
1.0
  9
$DISPSILH
 70
     0
  9
$DIMSCALE
 40
1.0
  9
$DIMASZ
 40
0.18
  9
$DIMEXO
 40
0.0625
  9
$DIMDLI
 40
0.38
  9
$DIMRND
 40
0.0
  9
$DIMDLE
 40
0.0
  9
$DIMEXE
 40
0.18
  9
$DIMTP
 40
0.0
  9
$DIMTM
 40
0.0
  9
$DIMTXT
 40
0.18
  9
$DIMCEN
 40
0.09
  9
$DIMTSZ
 40
0.0
  9
$DIMTOL
 70
     0
  9
$DIMLIM
 70
     0
  9
$DIMTIH
 70
     1
  9
$DIMTOH
 70
     1
  9
$DIMSE1
 70
     0
  9
$DIMSE2
 70
     0
  9
$DIMTAD
 70
     0
  9
$DIMZIN
 70
     0
  9
$DIMBLK
  1

  9
$DIMASO
 70
     1
  9
$DIMSHO
 70
     1
  9
$DIMPOST
  1

  9
$DIMAPOST
  1

  9
$DIMALT
 70
     0
  9
$DIMALTD
 70
     2
  9
$DIMALTF
 40
25.4
  9
$DIMLFAC
 40
1.0
  9
$DIMTOFL
 70
     0
  9
$DIMTVP
 40
0.0
  9
$DIMTIX
 70
     0
  9
$DIMSOXD
 70
     0
  9
$DIMSAH
 70
     0
  9
$DIMBLK1
  1

  9
$DIMBLK2
  1

  9
$DIMSTYLE
  2
Standard
  9
$DIMCLRD
 70
     0
  9
$DIMCLRE
 70
     0
  9
$DIMCLRT
 70
     0
  9
$DIMTFAC
 40
1.0
  9
$DIMGAP
 40
0.09
  9
$DIMJUST
 70
     0
  9
$DIMSD1
 70
     0
  9
$DIMSD2
 70
     0
  9
$DIMTOLJ
 70
     1
  9
$DIMTZIN
 70
     0
  9
$DIMALTZ
 70
     0
  9
$DIMALTTZ
 70
     0
  9
$DIMUPT
 70
     0
  9
$DIMDEC
 70
     4
  9
$DIMTDEC
 70
     4
  9
$DIMALTU
 70
     2
  9
$DIMALTTD
 70
     2
  9
$DIMTXSTY
  7
Standard
  9
$DIMAUNIT
 70
     0
  9
$DIMADEC
 70
     0
  9
$DIMALTRND
 40
0.0
  9
$DIMAZIN
 70
     0
  9
$DIMDSEP
 70
    46
  9
$DIMATFIT
 70
     3
  9
$DIMFRAC
 70
     0
  9
$DIMLDRBLK
  1

  9
$DIMLUNIT
 70
     2
  9
$DIMLWD
 70
    -2
  9
$DIMLWE
 70
    -2
  9
$DIMTMOVE
 70
     0
  9
$DIMFXL
 40
1.0
  9
$DIMFXLON
 70
     0
  9
$DIMJOGANG
 40
0.7853981633974483
  9
$DIMTFILL
 70
     0
  9
$DIMTFILLCLR
 70
     0
  9
$DIMARCSYM
 70
     0
  9
$DIMLTYPE
  6

  9
$DIMLTEX1
  6

  9
$DIMLTEX2
  6

  9
$DIMTXTDIRECTION
 70
     0
  9
$LUNITS
 70
     2
  9
$LUPREC
 70
     4
  9
$SKETCHINC
 40
0.1
  9
$FILLETRAD
 40
0.5
  9
$AUNITS
 70
     0
  9
$AUPREC
 70
     0
  9
$MENU
  1
.
  9
$ELEVATION
 40
0.0
  9
$PELEVATION
 40
0.0
  9
$THICKNESS
 40
0.0
  9
$LIMCHECK
 70
     0
  9
$CHAMFERA
 40
0.5
  9
$CHAMFERB
 40
0.5
  9
$CHAMFERC
 40
1.0
  9
$CHAMFERD
 40
0.0
  9
$SKPOLY
 70
     0
  9
$TDCREATE
 40
2458270.587106482
  9
$TDUCREATE
 40
2458270.212106482
  9
$TDUPDATE
 40
2458270.587106482
  9
$TDUUPDATE
 40
2458270.212106482
  9
$TDINDWG
 40
0.0000000116
  9
$TDUSRTIMER
 40
0.0000000116
  9
$USRTIMER
 70
     1
  9
$ANGBASE
 50
0.0
  9
$ANGDIR
 70
     0
  9
$PDMODE
 70
     0
  9
$PDSIZE
 40
0.0
  9
$PLINEWID
 40
0.0
  9
$SPLFRAME
 70
     0
  9
$SPLINETYPE
 70
     6
  9
$SPLINESEGS
 70
     8
  9
$HANDSEED
  5
A3
  9
$SURFTAB1
 70
     6
  9
$SURFTAB2
 70
     6
  9
$SURFTYPE
 70
     6
  9
$SURFU
 70
     6
  9
$SURFV
 70
     6
  9
$UCSBASE
  2

  9
$UCSNAME
  2

  9
$UCSORG
 10
0.0
 20
0.0
 30
0.0
  9
$UCSXDIR
 10
1.0
 20
0.0
 30
0.0
  9
$UCSYDIR
 10
0.0
 20
1.0
 30
0.0
  9
$UCSORTHOREF
  2

  9
$UCSORTHOVIEW
 70
     0
  9
$UCSORGTOP
 10
0.0
 20
0.0
 30
0.0
  9
$UCSORGBOTTOM
 10
0.0
 20
0.0
 30
0.0
  9
$UCSORGLEFT
 10
0.0
 20
0.0
 30
0.0
  9
$UCSORGRIGHT
 10
0.0
 20
0.0
 30
0.0
  9
$UCSORGFRONT
 10
0.0
 20
0.0
 30
0.0
  9
$UCSORGBACK
 10
0.0
 20
0.0
 30
0.0
  9
$PUCSBASE
  2

  9
$PUCSNAME
  2

  9
$PUCSORG
 10
0.0
 20
0.0
 30
0.0
  9
$PUCSXDIR
 10
1.0
 20
0.0
 30
0.0
  9
$PUCSYDIR
 10
0.0
 20
1.0
 30
0.0
  9
$PUCSORTHOREF
  2

  9
$PUCSORTHOVIEW
 70
     0
  9
$PUCSORGTOP
 10
0.0
 20
0.0
 30
0.0
  9
$PUCSORGBOTTOM
 10
0.0
 20
0.0
 30
0.0
  9
$PUCSORGLEFT
 10
0.0
 20
0.0
 30
0.0
  9
$PUCSORGRIGHT
 10
0.0
 20
0.0
 30
0.0
  9
$PUCSORGFRONT
 10
0.0
 20
0.0
 30
0.0
  9
$PUCSORGBACK
 10
0.0
 20
0.0
 30
0.0
  9
$USERI1
 70
     0
  9
$USERI2
 70
     0
  9
$USERI3
 70
     0
  9
$USERI4
 70
     0
  9
$USERI5
 70
     0
  9
$USERR1
 40
0.0
  9
$USERR2
 40
0.0
  9
$USERR3
 40
0.0
  9
$USERR4
 40
0.0
  9
$USERR5
 40
0.0
  9
$WORLDVIEW
 70
     1
  9
$SHADEDGE
 70
     3
  9
$SHADEDIF
 70
    70
  9
$TILEMODE
 70
     1
  9
$MAXACTVP
 70
    64
  9
$PINSBASE
 10
0.0
 20
0.0
 30
0.0
  9
$PLIMCHECK
 70
     0
  9
$PEXTMIN
 10
1.000000000000000E+20
 20
1.000000000000000E+20
 30
1.000000000000000E+20
  9
$PEXTMAX
 10
-1.000000000000000E+20
 20
-1.000000000000000E+20
 30
-1.000000000000000E+20
  9
$PLIMMIN
 10
0.0
 20
0.0
  9
$PLIMMAX
 10
12.0
 20
9.0
  9
$UNITMODE
 70
     0
  9
$VISRETAIN
 70
     1
  9
$PLINEGEN
 70
     0
  9
$PSLTSCALE
 70
     1
  9
$TREEDEPTH
 70
  3020
  9
$CMLSTYLE
  2
Standard
  9
$CMLJUST
 70
     0
  9
$CMLSCALE
 40
1.0
  9
$PROXYGRAPHICS
 70
     1
  9
$MEASUREMENT
 70
     0
  9
$CELWEIGHT
370
    -1
  9
$ENDCAPS
280
     0
  9
$JOINSTYLE
280
     0
  9
$LWDISPLAY
290
     1
  9
$INSUNITS
 70
     1
  9
$HYPERLINKBASE
  1

  9
$STYLESHEET
  1

  9
$XEDIT
290
     1
  9
$CEPSNTYPE
380
     0
  9
$PSTYLEMODE
290
     1
  9
$FINGERPRINTGUID
  2
{A7DED790-AB71-9CC9-61BC-86A3D050E911}
  9
$VERSIONGUID
  2
{FAEB1C32-E019-11D5-929B-00C0DF256EC4}
  9
$EXTNAMES
290
     1
  9
$PSVPSCALE
 40
0.0
  9
$OLESTARTUP
290
     0
  9
$SORTENTS
280
   127
  9
$INDEXCTL
280
     0
  9
$HIDETEXT
280
     1
  9
$XCLIPFRAME
280
     2
  9
$HALOGAP
280
     0
  9
$OBSCOLOR
 70
   257
  9
$OBSLTYPE
280
     0
  9
$INTERSECTIONDISPLAY
280
     0
  9
$INTERSECTIONCOLOR
 70
   257
  9
$DIMASSOC
280
     2
  9
$PROJECTNAME
  1

  9
$CAMERADISPLAY
290
     0
  9
$LENSLENGTH
 40
50.0
  9
$CAMERAHEIGHT
 40
0.0
  9
$STEPSPERSEC
 40
2.0
  9
$STEPSIZE
 40
6.0
  9
$3DDWFPREC
 40
2.0
  9
$PSOLWIDTH
 40
0.25
  9
$PSOLHEIGHT
 40
4.0
  9
$LOFTANG1
 40
1.570796326794897
  9
$LOFTANG2
 40
1.570796326794897
  9
$LOFTMAG1
 40
0.0
  9
$LOFTMAG2
 40
0.0
  9
$LOFTPARAM
 70
     7
  9
$LOFTNORMALS
280
     1
  9
$LATITUDE
 40
37.795
  9
$LONGITUDE
 40
-122.394
  9
$NORTHDIRECTION
 40
0.0
  9
$TIMEZONE
 70
 -8000
  9
$LIGHTGLYPHDISPLAY
280
     1
  9
$TILEMODELIGHTSYNCH
280
     1
  9
$CMATERIAL
347
3C
  9
$SOLIDHIST
280
     1
  9
$SHOWHIST
280
     1
  9
$DWFFRAME
280
     2
  9
$DGNFRAME
280
     2
  9
$REALWORLDSCALE
290
     1
  9
$INTERFERECOLOR
 62
   256
  9
$CSHADOW
280
     0
  9
$SHADOWPLANELOCATION
 40
0.0
  0
ENDSEC
  0
SECTION
  2
CLASSES
  0
CLASS
  1
ACDBDICTIONARYWDFLT
  2
AcDbDictionaryWithDefault
  3
ObjectDBX Classes
 90
        0
 91
        4
280
     0
281
     0
  0
CLASS
  1
VISUALSTYLE
  2
AcDbVisualStyle
  3
ObjectDBX Classes
 90
     4095
 91
        4
280
     0
281
     0
  0
CLASS
  1
MATERIAL
  2
AcDbMaterial
  3
ObjectDBX Classes
 90
     1153
 91
        4
280
     0
281
     0
  0
CLASS
  1
SUN
  2
AcDbSun
  3
SCENEOE
 90
     1024
 91
        4
280
     0
281
     0
  0
ENDSEC
  0
SECTION
  2
TABLES
  0
TABLE
  2
VPORT
  5
8
330
0
100
AcDbSymbolTable
 70
     1
  0
VPORT
  5
29
330
8
100
AcDbSymbolTableRecord
100
AcDbViewportTableRecord
  2
*Active
 70
     0
 10
0.0
 20
0.0
 11
1.0
 21
1.0
 12
0.0
 22
0.0
 13
0.0
 23
0.0
 14
0.5
 24
0.5
 15
0.5
 25
0.5
 16
0.0
 26
0.0
 36
1.0
 17
105.0007777515277
 27
-148.5000416295416
 37
0.0
 40
297.0000832590831
 41
0.7070757462376333
 42
50.0
 43
0.0
 44
0.0
 50
0.0
 51
0.0
 71
     0
 72
   100
 73
     1
 74
     3
 75
     0
 76
     0
 77
     0
 78
     0
281
     0
 65
     1
110
0.0
120
0.0
130
0.0
111
1.0
121
0.0
131
0.0
112
0.0
122
1.0
132
0.0
 79
     0
146
0.0
 60
     3
 61
     5
292
     1
282
     1
141
0.0
142
0.0
 63
   250
361
3F
  0
ENDTAB
  0
TABLE
  2
LTYPE
  5
5
330
0
100
AcDbSymbolTable
 70
     1
  0
LTYPE
  5
14
330
5
100
AcDbSymbolTableRecord
100
AcDbLinetypeTableRecord
  2
ByBlock
 70
     0
  3

 72
    65
 73
     0
 40
0.0
  0
LTYPE
  5
15
330
5
100
AcDbSymbolTableRecord
100
AcDbLinetypeTableRecord
  2
ByLayer
 70
     0
  3

 72
    65
 73
     0
 40
0.0
  0
LTYPE
  5
16
330
5
100
AcDbSymbolTableRecord
100
AcDbLinetypeTableRecord
  2
Continuous
 70
     0
  3
Solid line
 72
    65
 73
     0
 40
0.0
  0
ENDTAB
  0
TABLE
  2
LAYER
  5
2
330
0
100
AcDbSymbolTable
 70
     2
  0
LAYER
  5
10
330
2
100
AcDbSymbolTableRecord
100
AcDbLayerTableRecord
  2
0
 70
     0
 62
     7
  6
Continuous
370
    -3
390
F
347
3E
  0
LAYER
  5
40
330
2
100
AcDbSymbolTableRecord
100
AcDbLayerTableRecord
  2
_U+30EC_U+30A4_U+30E4_U+30FC 1
 70
     0
 62
     7
  6
Continuous
370
    -3
390
F
347
3E
  0
ENDTAB
  0
TABLE
  2
STYLE
  5
3
330
0
100
AcDbSymbolTable
 70
     1
  0
STYLE
  5
11
330
3
100
AcDbSymbolTableRecord
100
AcDbTextStyleTableRecord
  2
Standard
 70
     0
 40
0.0
 41
1.0
 50
0.0
 71
     0
 42
0.2
  3
txt
  4

  0
ENDTAB
  0
TABLE
  2
VIEW
  5
6
330
0
100
AcDbSymbolTable
 70
     0
  0
ENDTAB
  0
TABLE
  2
UCS
  5
7
330
0
100
AcDbSymbolTable
 70
     0
  0
ENDTAB
  0
TABLE
  2
APPID
  5
9
330
0
100
AcDbSymbolTable
 70
     1
  0
APPID
  5
12
330
9
100
AcDbSymbolTableRecord
100
AcDbRegAppTableRecord
  2
ACAD
 70
     0
  0
ENDTAB
  0
TABLE
  2
DIMSTYLE
  5
A
330
0
100
AcDbSymbolTable
 70
     1
100
AcDbDimStyleTable
  0
DIMSTYLE
105
27
330
A
100
AcDbSymbolTableRecord
100
AcDbDimStyleTableRecord
  2
Standard
 70
     0
178
     0
340
11
  0
ENDTAB
  0
TABLE
  2
BLOCK_RECORD
  5
1
330
0
100
AcDbSymbolTable
 70
     5
  0
BLOCK_RECORD
  5
1F
330
1
100
AcDbSymbolTableRecord
100
AcDbBlockTableRecord
  2
*Model_Space
340
22
 70
     0
280
     1
281
     0
  0
BLOCK_RECORD
  5
1B
330
1
100
AcDbSymbolTableRecord
100
AcDbBlockTableRecord
  2
*Paper_Space
340
1E
 70
     0
280
     1
281
     0
  0
BLOCK_RECORD
  5
23
330
1
100
AcDbSymbolTableRecord
100
AcDbBlockTableRecord
  2
*Paper_Space0
340
26
 70
     0
280
     1
281
     0
  0
BLOCK_RECORD
  5
51
330
1
100
AcDbSymbolTableRecord
100
AcDbBlockTableRecord
  2
block 2
340
0
102
{BLKREFS
331
52
102
}
 70
     0
280
     1
281
     0
  0
BLOCK_RECORD
  5
67
330
1
100
AcDbSymbolTableRecord
100
AcDbBlockTableRecord
  2
block 3
340
0
102
{BLKREFS
331
68
102
}
 70
     0
280
     1
281
     0
  0
BLOCK_RECORD
  5
7D
330
1
100
AcDbSymbolTableRecord
100
AcDbBlockTableRecord
  2
block 4
340
0
102
{BLKREFS
331
7E
102
}
 70
     0
280
     1
281
     0
  0
BLOCK_RECORD
  5
91
330
1
100
AcDbSymbolTableRecord
100
AcDbBlockTableRecord
  2
block 5
340
0
102
{BLKREFS
331
92
102
}
 70
     0
280
     1
281
     0
  0
ENDTAB
  0
ENDSEC
  0
SECTION
  2
BLOCKS
  0
BLOCK
  5
20
330
1F
100
AcDbEntity
  8
0
100
AcDbBlockBegin
  2
*Model_Space
 70
     0
 10
0.0
 20
0.0
 30
0.0
  3
*Model_Space
  1

  0
ENDBLK
  5
21
330
1F
100
AcDbEntity
  8
0
100
AcDbBlockEnd
  0
BLOCK
  5
1C
330
1B
100
AcDbEntity
 67
     1
  8
0
100
AcDbBlockBegin
  2
*Paper_Space
 70
     0
 10
0.0
 20
0.0
 30
0.0
  3
*Paper_Space
  1

  0
ENDBLK
  5
1D
330
1B
100
AcDbEntity
 67
     1
  8
0
100
AcDbBlockEnd
  0
BLOCK
  5
24
330
23
100
AcDbEntity
  8
0
100
AcDbBlockBegin
  2
*Paper_Space0
 70
     0
 10
0.0
 20
0.0
 30
0.0
  3
*Paper_Space0
  1

  0
ENDBLK
  5
25
330
23
100
AcDbEntity
  8
0
100
AcDbBlockEnd
  0
BLOCK
  5
53
330
51
100
AcDbEntity
  8
0
100
AcDbBlockBegin
  2
block 2
 70
     0
 10
0.0
 20
0.0
 30
0.0
  3
block 2
  1

  0
SPLINE
  5
55
330
51
100
AcDbEntity
  8
_U+30EC_U+30A4_U+30E4_U+30FC 1
370
     0
100
AcDbSpline
210
0.0
220
0.0
230
1.0
 70
    11
 71
     3
 72
    44
 73
    40
 74
     0
 42
0.0000000001
 43
0.0000000001
 12
1.0
 22
0.0
 32
0.0
 13
1.0
 23
0.0
 33
0.0
 40
0.0
 40
0.0
 40
0.0
 40
0.0
 40
1.0
 40
1.0
 40
1.0
 40
2.0
 40
2.0
 40
2.0
 40
3.0
 40
3.0
 40
3.0
 40
4.0
 40
4.0
 40
4.0
 40
5.0
 40
5.0
 40
5.0
 40
6.0
 40
6.0
 40
6.0
 40
7.0
 40
7.0
 40
7.0
 40
8.0
 40
8.0
 40
8.0
 40
9.0
 40
9.0
 40
9.0
 40
10.0
 40
10.0
 40
10.0
 40
11.0
 40
11.0
 40
11.0
 40
12.0
 40
12.0
 40
12.0
 40
13.0
 40
13.0
 40
13.0
 40
13.0
 10
98.12837725411374
 20
-150.9682182782302
 30
0.0
 10
98.2870239012095
 20
-151.159076568113
 30
0.0
 10
98.36109345414236
 20
-151.2403808215649
 30
0.0
 10
98.50492619065155
 20
-151.283100005582
 30
0.0
 10
98.50492619065155
 20
-151.283100005582
 30
0.0
 10
98.50492619065155
 20
-150.6016601185996
 30
0.0
 10
98.50492619065155
 20
-150.6016601185996
 30
0.0
 10
98.50492619065155
 20
-150.6016601185996
 30
0.0
 10
98.71008162679819
 20
-150.6016601185996
 30
0.0
 10
98.71008162679819
 20
-150.6016601185996
 30
0.0
 10
98.71008162679819
 20
-150.6016601185996
 30
0.0
 10
98.71008162679819
 20
-151.5015190593469
 30
0.0
 10
98.71008162679819
 20
-151.5015190593469
 30
0.0
 10
98.35248071542925
 20
-151.4736137859163
 30
0.0
 10
98.27427704791407
 20
-151.4160806913127
 30
0.0
 10
97.97593177889144
 20
-151.0791503528552
 30
0.0
 10
97.77714976939252
 20
-150.855219146314
 30
0.0
 10
97.70945364310737
 20
-150.7976860517103
 30
0.0
 10
97.5719943332459
 20
-150.7976860517103
 30
0.0
 10
97.4534830485533
 20
-150.7976860517103
 30
0.0
 10
97.32222491056528
 20
-150.8607312990904
 30
0.0
 10
97.32222491056528
 20
-151.0329860733529
 30
0.0
 10
97.32222491056528
 20
-151.2607068849279
 30
0.0
 10
97.55287405330276
 20
-151.2679415854469
 30
0.0
 10
97.6693182807042
 20
-151.2717311904807
 30
0.0
 10
97.6693182807042
 20
-151.2717311904807
 30
0.0
 10
97.6693182807042
 20
-151.4681016331399
 30
0.0
 10
97.6693182807042
 20
-151.4681016331399
 30
0.0
 10
97.54236651207275
 20
-151.4608669326209
 30
0.0
 10
97.43022865402786
 20
-151.4512206652622
 30
0.0
 10
97.31171736933527
 20
-151.3809407173631
 30
0.0
 10
97.15100366494836
 20
-151.2848225533246
 30
0.0
 10
97.11706947441866
 20
-151.1218695368723
 30
0.0
 10
97.11706947441866
 20
-151.0198947105089
 30
0.0
 10
97.11706947441866
 20
-150.7773599883473
 30
0.0
 10
97.30120982810526
 20
-150.5961479658232
 30
0.0
 10
97.57406139053704
 20
-150.5961479658232
 30
0.0
 10
97.8024712212091
 20
-150.5961479658232
 30
0.0
 10
97.90203448073282
 20
-150.6977782826381
 30
0.0
 10
98.12837725411374
 20
-150.9682182782302
 30
0.0
  0
HATCH
  5
56
330
51
100
AcDbEntity
  8
_U+30EC_U+30A4_U+30E4_U+30FC 1
 62
   179
420
  2234388
100
AcDbHatch
 10
0.0
 20
0.0
 30
0.0
210
0.0
220
0.0
230
1.0
  2
SOLID
 70
     1
 71
     0
 91
        1
 92
        1
 93
        1
 72
     4
 94
        3
 73
     0
 74
     1
 95
       44
 96
       40
 40
0.0
 40
0.0
 40
0.0
 40
0.0
 40
1.0
 40
1.0
 40
1.0
 40
2.0
 40
2.0
 40
2.0
 40
3.0
 40
3.0
 40
3.0
 40
4.0
 40
4.0
 40
4.0
 40
5.0
 40
5.0
 40
5.0
 40
6.0
 40
6.0
 40
6.0
 40
7.0
 40
7.0
 40
7.0
 40
8.0
 40
8.0
 40
8.0
 40
9.0
 40
9.0
 40
9.0
 40
10.0
 40
10.0
 40
10.0
 40
11.0
 40
11.0
 40
11.0
 40
12.0
 40
12.0
 40
12.0
 40
13.0
 40
13.0
 40
13.0
 40
13.0
 10
98.12837725411374
 20
-150.9682182782302
 10
98.2870239012095
 20
-151.159076568113
 10
98.36109345414236
 20
-151.2403808215649
 10
98.50492619065155
 20
-151.283100005582
 10
98.50492619065155
 20
-151.283100005582
 10
98.50492619065155
 20
-150.6016601185996
 10
98.50492619065155
 20
-150.6016601185996
 10
98.50492619065155
 20
-150.6016601185996
 10
98.71008162679819
 20
-150.6016601185996
 10
98.71008162679819
 20
-150.6016601185996
 10
98.71008162679819
 20
-150.6016601185996
 10
98.71008162679819
 20
-151.5015190593469
 10
98.71008162679819
 20
-151.5015190593469
 10
98.35248071542925
 20
-151.4736137859163
 10
98.27427704791407
 20
-151.4160806913127
 10
97.97593177889144
 20
-151.0791503528552
 10
97.77714976939252
 20
-150.855219146314
 10
97.70945364310737
 20
-150.7976860517103
 10
97.5719943332459
 20
-150.7976860517103
 10
97.4534830485533
 20
-150.7976860517103
 10
97.32222491056528
 20
-150.8607312990904
 10
97.32222491056528
 20
-151.0329860733529
 10
97.32222491056528
 20
-151.2607068849279
 10
97.55287405330276
 20
-151.2679415854469
 10
97.6693182807042
 20
-151.2717311904807
 10
97.6693182807042
 20
-151.2717311904807
 10
97.6693182807042
 20
-151.4681016331399
 10
97.6693182807042
 20
-151.4681016331399
 10
97.54236651207275
 20
-151.4608669326209
 10
97.43022865402786
 20
-151.4512206652622
 10
97.31171736933527
 20
-151.3809407173631
 10
97.15100366494836
 20
-151.2848225533246
 10
97.11706947441866
 20
-151.1218695368723
 10
97.11706947441866
 20
-151.0198947105089
 10
97.11706947441866
 20
-150.7773599883473
 10
97.30120982810526
 20
-150.5961479658232
 10
97.57406139053704
 20
-150.5961479658232
 10
97.8024712212091
 20
-150.5961479658232
 10
97.90203448073282
 20
-150.6977782826381
 10
98.12837725411374
 20
-150.9682182782302
 97
        0
 97
        0
 75
     2
 76
     1
 98
        0
  0
SPLINE
  5
57
330
51
100
AcDbEntity
  8
_U+30EC_U+30A4_U+30E4_U+30FC 1
370
     0
100
AcDbSpline
210
0.0
220
0.0
230
1.0
 70
    11
 71
     3
 72
    53
 73
    49
 74
     0
 42
0.0000000001
 43
0.0000000001
 12
1.0
 22
0.0
 32
0.0
 13
1.0
 23
0.0
 33
0.0
 40
0.0
 40
0.0
 40
0.0
 40
0.0
 40
1.0
 40
1.0
 40
1.0
 40
2.0
 40
2.0
 40
2.0
 40
3.0
 40
3.0
 40
3.0
 40
4.0
 40
4.0
 40
4.0
 40
5.0
 40
5.0
 40
5.0
 40
6.0
 40
6.0
 40
6.0
 40
7.0
 40
7.0
 40
7.0
 40
8.0
 40
8.0
 40
8.0
 40
9.0
 40
9.0
 40
9.0
 40
10.0
 40
10.0
 40
10.0
 40
11.0
 40
11.0
 40
11.0
 40
12.0
 40
12.0
 40
12.0
 40
13.0
 40
13.0
 40
13.0
 40
14.0
 40
14.0
 40
14.0
 40
15.0
 40
15.0
 40
15.0
 40
16.0
 40
16.0
 40
16.0
 40
16.0
 10
98.76089678520562
 20
-150.0352864208245
 30
0.0
 10
98.76089678520562
 20
-150.1041883305295
 30
0.0
 10
98.74401581732789
 20
-150.193071794049
 30
0.0
 10
98.68045380562504
 20
-150.2819552575684
 30
0.0
 10
98.5703830048713
 20
-150.4335394589194
 30
0.0
 10
98.43929712165755
 20
-150.4521429745398
 30
0.0
 10
98.33146563296923
 20
-150.468679432869
 30
0.0
 10
98.33146563296923
 20
-150.468679432869
 30
0.0
 10
98.33146563296923
 20
-150.2743760475009
 30
0.0
 10
98.33146563296923
 20
-150.2743760475009
 30
0.0
 10
98.53024764246814
 20
-150.2261447107074
 30
0.0
 10
98.55987546364129
 20
-150.1152126360823
 30
0.0
 10
98.55987546364129
 20
-150.0335638730819
 30
0.0
 10
98.55987546364129
 20
-149.9112629833555
 30
0.0
 10
98.46048445889183
 20
-149.7782822976249
 30
0.0
 10
98.22776825886321
 20
-149.7782822976249
 30
0.0
 10
97.97179766430914
 20
-149.7782822976249
 30
0.0
 10
97.90203448073282
 20
-149.9353786517523
 30
0.0
 10
97.90203448073282
 20
-150.0411430831494
 30
0.0
 10
97.90203448073282
 20
-150.06904835658
 30
0.0
 10
97.90203448073282
 20
-150.193071794049
 30
0.0
 10
98.03105330665544
 20
-150.2705864424671
 30
0.0
 10
98.03105330665544
 20
-150.2705864424671
 30
0.0
 10
98.0119330267123
 20
-150.4245822106577
 30
0.0
 10
98.0119330267123
 20
-150.4245822106577
 30
0.0
 10
98.0119330267123
 20
-150.4245822106577
 30
0.0
 10
97.16581757553494
 20
-150.3188177792606
 30
0.0
 10
97.16581757553494
 20
-150.3188177792606
 30
0.0
 10
97.16581757553494
 20
-150.3188177792606
 30
0.0
 10
97.16581757553494
 20
-149.6373778922782
 30
0.0
 10
97.16581757553494
 20
-149.6373778922782
 30
0.0
 10
97.16581757553494
 20
-149.6373778922782
 30
0.0
 10
97.36046547045156
 20
-149.6373778922782
 30
0.0
 10
97.36046547045156
 20
-149.6373778922782
 30
0.0
 10
97.36046547045156
 20
-149.6373778922782
 30
0.0
 10
97.36046547045156
 20
-150.1761908261713
 30
0.0
 10
97.36046547045156
 20
-150.1761908261713
 30
0.0
 10
97.36046547045156
 20
-150.1761908261713
 30
0.0
 10
97.78352319604024
 20
-150.2337239207749
 30
0.0
 10
97.78352319604024
 20
-150.2337239207749
 30
0.0
 10
97.74958900551053
 20
-150.179980431205
 30
0.0
 10
97.70945364310737
 20
-150.1076334260148
 30
0.0
 10
97.70945364310737
 20
-150.0039360519087
 30
0.0
 10
97.70945364310737
 20
-149.7817273931101
 30
0.0
 10
97.89566105408511
 20
-149.5743326448981
 30
0.0
 10
98.20864797892007
 20
-149.5743326448981
 30
0.0
 10
98.52611352788584
 20
-149.5743326448981
 30
0.0
 10
98.76089678520562
 20
-149.7707030875573
 30
0.0
 10
98.76089678520562
 20
-150.0352864208245
 30
0.0
  0
HATCH
  5
58
330
51
100
AcDbEntity
  8
_U+30EC_U+30A4_U+30E4_U+30FC 1
 62
   179
420
  2234388
100
AcDbHatch
 10
0.0
 20
0.0
 30
0.0
210
0.0
220
0.0
230
1.0
  2
SOLID
 70
     1
 71
     0
 91
        1
 92
        1
 93
        1
 72
     4
 94
        3
 73
     0
 74
     1
 95
       53
 96
       49
 40
0.0
 40
0.0
 40
0.0
 40
0.0
 40
1.0
 40
1.0
 40
1.0
 40
2.0
 40
2.0
 40
2.0
 40
3.0
 40
3.0
 40
3.0
 40
4.0
 40
4.0
 40
4.0
 40
5.0
 40
5.0
 40
5.0
 40
6.0
 40
6.0
 40
6.0
 40
7.0
 40
7.0
 40
7.0
 40
8.0
 40
8.0
 40
8.0
 40
9.0
 40
9.0
 40
9.0
 40
10.0
 40
10.0
 40
10.0
 40
11.0
 40
11.0
 40
11.0
 40
12.0
 40
12.0
 40
12.0
 40
13.0
 40
13.0
 40
13.0
 40
14.0
 40
14.0
 40
14.0
 40
15.0
 40
15.0
 40
15.0
 40
16.0
 40
16.0
 40
16.0
 40
16.0
 10
98.76089678520562
 20
-150.0352864208245
 10
98.76089678520562
 20
-150.1041883305295
 10
98.74401581732789
 20
-150.193071794049
 10
98.68045380562504
 20
-150.2819552575684
 10
98.5703830048713
 20
-150.4335394589194
 10
98.43929712165755
 20
-150.4521429745398
 10
98.33146563296923
 20
-150.468679432869
 10
98.33146563296923
 20
-150.468679432869
 10
98.33146563296923
 20
-150.2743760475009
 10
98.33146563296923
 20
-150.2743760475009
 10
98.53024764246814
 20
-150.2261447107074
 10
98.55987546364129
 20
-150.1152126360823
 10
98.55987546364129
 20
-150.0335638730819
 10
98.55987546364129
 20
-149.9112629833555
 10
98.46048445889183
 20
-149.7782822976249
 10
98.22776825886321
 20
-149.7782822976249
 10
97.97179766430914
 20
-149.7782822976249
 10
97.90203448073282
 20
-149.9353786517523
 10
97.90203448073282
 20
-150.0411430831494
 10
97.90203448073282
 20
-150.06904835658
 10
97.90203448073282
 20
-150.193071794049
 10
98.03105330665544
 20
-150.2705864424671
 10
98.03105330665544
 20
-150.2705864424671
 10
98.0119330267123
 20
-150.4245822106577
 10
98.0119330267123
 20
-150.4245822106577
 10
98.0119330267123
 20
-150.4245822106577
 10
97.16581757553494
 20
-150.3188177792606
 10
97.16581757553494
 20
-150.3188177792606
 10
97.16581757553494
 20
-150.3188177792606
 10
97.16581757553494
 20
-149.6373778922782
 10
97.16581757553494
 20
-149.6373778922782
 10
97.16581757553494
 20
-149.6373778922782
 10
97.36046547045156
 20
-149.6373778922782
 10
97.36046547045156
 20
-149.6373778922782
 10
97.36046547045156
 20
-149.6373778922782
 10
97.36046547045156
 20
-150.1761908261713
 10
97.36046547045156
 20
-150.1761908261713
 10
97.36046547045156
 20
-150.1761908261713
 10
97.78352319604024
 20
-150.2337239207749
 10
97.78352319604024
 20
-150.2337239207749
 10
97.74958900551053
 20
-150.179980431205
 10
97.70945364310737
 20
-150.1076334260148
 10
97.70945364310737
 20
-150.0039360519087
 10
97.70945364310737
 20
-149.7817273931101
 10
97.89566105408511
 20
-149.5743326448981
 10
98.20864797892007
 20
-149.5743326448981
 10
98.52611352788584
 20
-149.5743326448981
 10
98.76089678520562
 20
-149.7707030875573
 10
98.76089678520562
 20
-150.0352864208245
 97
        0
 97
        0
 75
     2
 76
     1
 98
        0
  0
ENDBLK
  5
54
330
51
100
AcDbEntity
  8
0
100
AcDbBlockEnd
  0
BLOCK
  5
69
330
67
100
AcDbEntity
  8
0
100
AcDbBlockBegin
  2
block 3
 70
     0
 10
0.0
 20
0.0
 30
0.0
  3
block 3
  1

  0
SPLINE
  5
6B
330
67
100
AcDbEntity
  8
_U+30EC_U+30A4_U+30E4_U+30FC 1
370
     0
100
AcDbSpline
210
0.0
220
0.0
230
1.0
 70
    11
 71
     3
 72
    26
 73
    22
 74
     0
 42
0.0000000001
 43
0.0000000001
 12
1.0
 22
0.0
 32
0.0
 13
1.0
 23
0.0
 33
0.0
 40
0.0
 40
0.0
 40
0.0
 40
0.0
 40
1.0
 40
1.0
 40
1.0
 40
2.0
 40
2.0
 40
2.0
 40
3.0
 40
3.0
 40
3.0
 40
4.0
 40
4.0
 40
4.0
 40
5.0
 40
5.0
 40
5.0
 40
6.0
 40
6.0
 40
6.0
 40
7.0
 40
7.0
 40
7.0
 40
7.0
 10
111.8949788131721
 20
-144.6185627893662
 30
0.0
 10
111.8949788131721
 20
-144.6185627893662
 30
0.0
 10
110.7908257101495
 20
-144.6185627893662
 30
0.0
 10
110.7908257101495
 20
-144.6185627893662
 30
0.0
 10
110.7908257101495
 20
-144.6185627893662
 30
0.0
 10
110.7908257101495
 20
-144.9486029368531
 30
0.0
 10
110.7908257101495
 20
-144.9486029368531
 30
0.0
 10
110.7908257101495
 20
-144.9486029368531
 30
0.0
 10
110.6426866042838
 20
-144.9486029368531
 30
0.0
 10
110.6426866042838
 20
-144.9486029368531
 30
0.0
 10
110.6278726936972
 20
-144.616495732075
 30
0.0
 10
110.4649196772449
 20
-144.5699869430242
 30
0.0
 10
110.3505425071346
 20
-144.540359121851
 30
0.0
 10
110.3505425071346
 20
-144.540359121851
 30
0.0
 10
110.3505425071346
 20
-144.3942870732764
 30
0.0
 10
110.3505425071346
 20
-144.3942870732764
 30
0.0
 10
110.3505425071346
 20
-144.3942870732764
 30
0.0
 10
111.8949788131721
 20
-144.3942870732764
 30
0.0
 10
111.8949788131721
 20
-144.3942870732764
 30
0.0
 10
111.8949788131721
 20
-144.3942870732764
 30
0.0
 10
111.8949788131721
 20
-144.6185627893662
 30
0.0
 10
111.8949788131721
 20
-144.6185627893662
 30
0.0
  0
HATCH
  5
6C
330
67
100
AcDbEntity
  8
_U+30EC_U+30A4_U+30E4_U+30FC 1
 62
   179
420
  2234388
100
AcDbHatch
 10
0.0
 20
0.0
 30
0.0
210
0.0
220
0.0
230
1.0
  2
SOLID
 70
     1
 71
     0
 91
        1
 92
        1
 93
        1
 72
     4
 94
        3
 73
     0
 74
     1
 95
       26
 96
       22
 40
0.0
 40
0.0
 40
0.0
 40
0.0
 40
1.0
 40
1.0
 40
1.0
 40
2.0
 40
2.0
 40
2.0
 40
3.0
 40
3.0
 40
3.0
 40
4.0
 40
4.0
 40
4.0
 40
5.0
 40
5.0
 40
5.0
 40
6.0
 40
6.0
 40
6.0
 40
7.0
 40
7.0
 40
7.0
 40
7.0
 10
111.8949788131721
 20
-144.6185627893662
 10
111.8949788131721
 20
-144.6185627893662
 10
110.7908257101495
 20
-144.6185627893662
 10
110.7908257101495
 20
-144.6185627893662
 10
110.7908257101495
 20
-144.6185627893662
 10
110.7908257101495
 20
-144.9486029368531
 10
110.7908257101495
 20
-144.9486029368531
 10
110.7908257101495
 20
-144.9486029368531
 10
110.6426866042838
 20
-144.9486029368531
 10
110.6426866042838
 20
-144.9486029368531
 10
110.6278726936972
 20
-144.616495732075
 10
110.4649196772449
 20
-144.5699869430242
 10
110.3505425071346
 20
-144.540359121851
 10
110.3505425071346
 20
-144.540359121851
 10
110.3505425071346
 20
-144.3942870732764
 10
110.3505425071346
 20
-144.3942870732764
 10
110.3505425071346
 20
-144.3942870732764
 10
111.8949788131721
 20
-144.3942870732764
 10
111.8949788131721
 20
-144.3942870732764
 10
111.8949788131721
 20
-144.3942870732764
 10
111.8949788131721
 20
-144.6185627893662
 10
111.8949788131721
 20
-144.6185627893662
 97
        0
 97
        0
 75
     2
 76
     1
 98
        0
  0
SPLINE
  5
6D
330
67
100
AcDbEntity
  8
_U+30EC_U+30A4_U+30E4_U+30FC 1
370
     0
100
AcDbSpline
210
0.0
220
0.0
230
1.0
 70
    11
 71
     3
 72
    44
 73
    40
 74
     0
 42
0.0000000001
 43
0.0000000001
 12
1.0
 22
0.0
 32
0.0
 13
1.0
 23
0.0
 33
0.0
 40
0.0
 40
0.0
 40
0.0
 40
0.0
 40
1.0
 40
1.0
 40
1.0
 40
2.0
 40
2.0
 40
2.0
 40
3.0
 40
3.0
 40
3.0
 40
4.0
 40
4.0
 40
4.0
 40
5.0
 40
5.0
 40
5.0
 40
6.0
 40
6.0
 40
6.0
 40
7.0
 40
7.0
 40
7.0
 40
8.0
 40
8.0
 40
8.0
 40
9.0
 40
9.0
 40
9.0
 40
10.0
 40
10.0
 40
10.0
 40
11.0
 40
11.0
 40
11.0
 40
12.0
 40
12.0
 40
12.0
 40
13.0
 40
13.0
 40
13.0
 40
13.0
 10
111.3131021857134
 20
-143.2999524923868
 30
0.0
 10
111.4719210875834
 20
-143.5178547818289
 30
0.0
 10
111.5459906405163
 20
-143.6110446147049
 30
0.0
 10
111.6899956317997
 20
-143.6596204610469
 30
0.0
 10
111.6899956317997
 20
-143.6596204610469
 30
0.0
 10
111.6899956317997
 20
-142.8812011361547
 30
0.0
 10
111.6899956317997
 20
-142.8812011361547
 30
0.0
 10
111.6899956317997
 20
-142.8812011361547
 30
0.0
 10
111.8949788131721
 20
-142.8812011361547
 30
0.0
 10
111.8949788131721
 20
-142.8812011361547
 30
0.0
 10
111.8949788131721
 20
-142.8812011361547
 30
0.0
 10
111.8949788131721
 20
-143.9092176289533
 30
0.0
 10
111.8949788131721
 20
-143.9092176289533
 30
0.0
 10
111.5373779018032
 20
-143.877522750489
 30
0.0
 10
111.459174234288
 20
-143.8120659362692
 30
0.0
 10
111.1608289652654
 20
-143.4269042610183
 30
0.0
 10
110.9620469557664
 20
-143.1709336664642
 30
0.0
 10
110.894178574707
 20
-143.1054768522445
 30
0.0
 10
110.7570637743941
 20
-143.1054768522445
 30
0.0
 10
110.6385524897015
 20
-143.1054768522445
 30
0.0
 10
110.5072943517135
 20
-143.1773070931119
 30
0.0
 10
110.5072943517135
 20
-143.3740220453197
 30
0.0
 10
110.5072943517135
 20
-143.6342990092303
 30
0.0
 10
110.7377712396767
 20
-143.6427394931692
 30
0.0
 10
110.8542154670781
 20
-143.6470458625257
 30
0.0
 10
110.8542154670781
 20
-143.6470458625257
 30
0.0
 10
110.8542154670781
 20
-143.8711493238413
 30
0.0
 10
110.8542154670781
 20
-143.8711493238413
 30
0.0
 10
110.7274359532209
 20
-143.8627088399024
 30
0.0
 10
110.6151258404018
 20
-143.8522012986724
 30
0.0
 10
110.4966145557092
 20
-143.7717583190918
 30
0.0
 10
110.3360731060965
 20
-143.6618597731123
 30
0.0
 10
110.3019666607926
 20
-143.4756523621346
 30
0.0
 10
110.3019666607926
 20
-143.3592081347331
 30
0.0
 10
110.3019666607926
 20
-143.0820502029448
 30
0.0
 10
110.4862792692534
 20
-142.874827709507
 30
0.0
 10
110.7591308316852
 20
-142.874827709507
 30
0.0
 10
110.9871961528088
 20
-142.874827709507
 30
0.0
 10
111.087103921881
 20
-142.9910996821342
 30
0.0
 10
111.3131021857134
 20
-143.2999524923868
 30
0.0
  0
HATCH
  5
6E
330
67
100
AcDbEntity
  8
_U+30EC_U+30A4_U+30E4_U+30FC 1
 62
   179
420
  2234388
100
AcDbHatch
 10
0.0
 20
0.0
 30
0.0
210
0.0
220
0.0
230
1.0
  2
SOLID
 70
     1
 71
     0
 91
        1
 92
        1
 93
        1
 72
     4
 94
        3
 73
     0
 74
     1
 95
       44
 96
       40
 40
0.0
 40
0.0
 40
0.0
 40
0.0
 40
1.0
 40
1.0
 40
1.0
 40
2.0
 40
2.0
 40
2.0
 40
3.0
 40
3.0
 40
3.0
 40
4.0
 40
4.0
 40
4.0
 40
5.0
 40
5.0
 40
5.0
 40
6.0
 40
6.0
 40
6.0
 40
7.0
 40
7.0
 40
7.0
 40
8.0
 40
8.0
 40
8.0
 40
9.0
 40
9.0
 40
9.0
 40
10.0
 40
10.0
 40
10.0
 40
11.0
 40
11.0
 40
11.0
 40
12.0
 40
12.0
 40
12.0
 40
13.0
 40
13.0
 40
13.0
 40
13.0
 10
111.3131021857134
 20
-143.2999524923868
 10
111.4719210875834
 20
-143.5178547818289
 10
111.5459906405163
 20
-143.6110446147049
 10
111.6899956317997
 20
-143.6596204610469
 10
111.6899956317997
 20
-143.6596204610469
 10
111.6899956317997
 20
-142.8812011361547
 10
111.6899956317997
 20
-142.8812011361547
 10
111.6899956317997
 20
-142.8812011361547
 10
111.8949788131721
 20
-142.8812011361547
 10
111.8949788131721
 20
-142.8812011361547
 10
111.8949788131721
 20
-142.8812011361547
 10
111.8949788131721
 20
-143.9092176289533
 10
111.8949788131721
 20
-143.9092176289533
 10
111.5373779018032
 20
-143.877522750489
 10
111.459174234288
 20
-143.8120659362692
 10
111.1608289652654
 20
-143.4269042610183
 10
110.9620469557664
 20
-143.1709336664642
 10
110.894178574707
 20
-143.1054768522445
 10
110.7570637743941
 20
-143.1054768522445
 10
110.6385524897015
 20
-143.1054768522445
 10
110.5072943517135
 20
-143.1773070931119
 10
110.5072943517135
 20
-143.3740220453197
 10
110.5072943517135
 20
-143.6342990092303
 10
110.7377712396767
 20
-143.6427394931692
 10
110.8542154670781
 20
-143.6470458625257
 10
110.8542154670781
 20
-143.6470458625257
 10
110.8542154670781
 20
-143.8711493238413
 10
110.8542154670781
 20
-143.8711493238413
 10
110.7274359532209
 20
-143.8627088399024
 10
110.6151258404018
 20
-143.8522012986724
 10
110.4966145557092
 20
-143.7717583190918
 10
110.3360731060965
 20
-143.6618597731123
 10
110.3019666607926
 20
-143.4756523621346
 10
110.3019666607926
 20
-143.3592081347331
 10
110.3019666607926
 20
-143.0820502029448
 10
110.4862792692534
 20
-142.874827709507
 10
110.7591308316852
 20
-142.874827709507
 10
110.9871961528088
 20
-142.874827709507
 10
111.087103921881
 20
-142.9910996821342
 10
111.3131021857134
 20
-143.2999524923868
 97
        0
 97
        0
 75
     2
 76
     1
 98
        0
  0
ENDBLK
  5
6A
330
67
100
AcDbEntity
  8
0
100
AcDbBlockEnd
  0
BLOCK
  5
7F
330
7D
100
AcDbEntity
  8
0
100
AcDbBlockBegin
  2
block 4
 70
     0
 10
0.0
 20
0.0
 30
0.0
  3
block 4
  1

  0
SPLINE
  5
81
330
7D
100
AcDbEntity
  8
_U+30EC_U+30A4_U+30E4_U+30FC 1
370
     0
100
AcDbSpline
210
0.0
220
0.0
230
1.0
 70
    11
 71
     3
 72
    53
 73
    49
 74
     0
 42
0.0000000001
 43
0.0000000001
 12
1.0
 22
0.0
 32
0.0
 13
1.0
 23
0.0
 33
0.0
 40
0.0
 40
0.0
 40
0.0
 40
0.0
 40
1.0
 40
1.0
 40
1.0
 40
2.0
 40
2.0
 40
2.0
 40
3.0
 40
3.0
 40
3.0
 40
4.0
 40
4.0
 40
4.0
 40
5.0
 40
5.0
 40
5.0
 40
6.0
 40
6.0
 40
6.0
 40
7.0
 40
7.0
 40
7.0
 40
8.0
 40
8.0
 40
8.0
 40
9.0
 40
9.0
 40
9.0
 40
10.0
 40
10.0
 40
10.0
 40
11.0
 40
11.0
 40
11.0
 40
12.0
 40
12.0
 40
12.0
 40
13.0
 40
13.0
 40
13.0
 40
14.0
 40
14.0
 40
14.0
 40
15.0
 40
15.0
 40
15.0
 40
16.0
 40
16.0
 40
16.0
 40
16.0
 10
104.5527913150076
 20
-133.4895263338151
 30
0.0
 10
104.4744153927182
 20
-133.4895263338151
 30
0.0
 10
104.3729573306776
 20
-133.4724731111631
 30
0.0
 10
104.2713270138627
 20
-133.4090833542346
 30
0.0
 10
104.0978664561804
 20
-133.2990125534808
 30
0.0
 10
104.0766791189461
 20
-133.1679266702671
 30
0.0
 10
104.0577310937772
 20
-133.0600951815787
 30
0.0
 10
104.0577310937772
 20
-133.0600951815787
 30
0.0
 10
104.2797674978016
 20
-133.0600951815787
 30
0.0
 10
104.2797674978016
 20
-133.0600951815787
 30
0.0
 10
104.3348890255656
 20
-133.2588771910777
 30
0.0
 10
104.461840794197
 20
-133.2885050122508
 30
0.0
 10
104.5548583722988
 20
-133.2885050122508
 30
0.0
 10
104.6943847394514
 20
-133.2885050122508
 30
0.0
 10
104.8468302146737
 20
-133.1891140075013
 30
0.0
 10
104.8468302146737
 20
-132.9563978074727
 30
0.0
 10
104.8468302146737
 20
-132.7004272129186
 30
0.0
 10
104.6669962303437
 20
-132.6306640293423
 30
0.0
 10
104.5464178883599
 20
-132.6306640293423
 30
0.0
 10
104.5147230098956
 20
-132.6306640293423
 30
0.0
 10
104.3729573306776
 20
-132.6306640293423
 30
0.0
 10
104.2840738671582
 20
-132.7596828552649
 30
0.0
 10
104.2840738671582
 20
-132.7596828552649
 30
0.0
 10
104.1085462521847
 20
-132.7405625753218
 30
0.0
 10
104.1085462521847
 20
-132.7405625753218
 30
0.0
 10
104.1085462521847
 20
-132.7405625753218
 30
0.0
 10
104.2291245941684
 20
-131.8944471241444
 30
0.0
 10
104.2291245941684
 20
-131.8944471241444
 30
0.0
 10
104.2291245941684
 20
-131.8944471241444
 30
0.0
 10
105.0075439190606
 20
-131.8944471241444
 30
0.0
 10
105.0075439190606
 20
-131.8944471241444
 30
0.0
 10
105.0075439190606
 20
-131.8944471241444
 30
0.0
 10
105.0075439190606
 20
-132.0890950190611
 30
0.0
 10
105.0075439190606
 20
-132.0890950190611
 30
0.0
 10
105.0075439190606
 20
-132.0890950190611
 30
0.0
 10
104.3919053558465
 20
-132.0890950190611
 30
0.0
 10
104.3919053558465
 20
-132.0890950190611
 30
0.0
 10
104.3919053558465
 20
-132.0890950190611
 30
0.0
 10
104.3264485416267
 20
-132.5121527446497
 30
0.0
 10
104.3264485416267
 20
-132.5121527446497
 30
0.0
 10
104.3877712412642
 20
-132.47821855412
 30
0.0
 10
104.4702812781359
 20
-132.4380831917169
 30
0.0
 10
104.5886203080542
 20
-132.4380831917169
 30
0.0
 10
104.8425238453171
 20
-132.4380831917169
 30
0.0
 10
105.0795464147023
 20
-132.6242906026946
 30
0.0
 10
105.0795464147023
 20
-132.9372775275296
 30
0.0
 10
105.0795464147023
 20
-133.2547430764953
 30
0.0
 10
104.8552706986126
 20
-133.4895263338151
 30
0.0
 10
104.5527913150076
 20
-133.4895263338151
 30
0.0
  0
HATCH
  5
82
330
7D
100
AcDbEntity
  8
_U+30EC_U+30A4_U+30E4_U+30FC 1
 62
   179
420
  2234388
100
AcDbHatch
 10
0.0
 20
0.0
 30
0.0
210
0.0
220
0.0
230
1.0
  2
SOLID
 70
     1
 71
     0
 91
        1
 92
        1
 93
        1
 72
     4
 94
        3
 73
     0
 74
     1
 95
       53
 96
       49
 40
0.0
 40
0.0
 40
0.0
 40
0.0
 40
1.0
 40
1.0
 40
1.0
 40
2.0
 40
2.0
 40
2.0
 40
3.0
 40
3.0
 40
3.0
 40
4.0
 40
4.0
 40
4.0
 40
5.0
 40
5.0
 40
5.0
 40
6.0
 40
6.0
 40
6.0
 40
7.0
 40
7.0
 40
7.0
 40
8.0
 40
8.0
 40
8.0
 40
9.0
 40
9.0
 40
9.0
 40
10.0
 40
10.0
 40
10.0
 40
11.0
 40
11.0
 40
11.0
 40
12.0
 40
12.0
 40
12.0
 40
13.0
 40
13.0
 40
13.0
 40
14.0
 40
14.0
 40
14.0
 40
15.0
 40
15.0
 40
15.0
 40
16.0
 40
16.0
 40
16.0
 40
16.0
 10
104.5527913150076
 20
-133.4895263338151
 10
104.4744153927182
 20
-133.4895263338151
 10
104.3729573306776
 20
-133.4724731111631
 10
104.2713270138627
 20
-133.4090833542346
 10
104.0978664561804
 20
-133.2990125534808
 10
104.0766791189461
 20
-133.1679266702671
 10
104.0577310937772
 20
-133.0600951815787
 10
104.0577310937772
 20
-133.0600951815787
 10
104.2797674978016
 20
-133.0600951815787
 10
104.2797674978016
 20
-133.0600951815787
 10
104.3348890255656
 20
-133.2588771910777
 10
104.461840794197
 20
-133.2885050122508
 10
104.5548583722988
 20
-133.2885050122508
 10
104.6943847394514
 20
-133.2885050122508
 10
104.8468302146737
 20
-133.1891140075013
 10
104.8468302146737
 20
-132.9563978074727
 10
104.8468302146737
 20
-132.7004272129186
 10
104.6669962303437
 20
-132.6306640293423
 10
104.5464178883599
 20
-132.6306640293423
 10
104.5147230098956
 20
-132.6306640293423
 10
104.3729573306776
 20
-132.6306640293423
 10
104.2840738671582
 20
-132.7596828552649
 10
104.2840738671582
 20
-132.7596828552649
 10
104.1085462521847
 20
-132.7405625753218
 10
104.1085462521847
 20
-132.7405625753218
 10
104.1085462521847
 20
-132.7405625753218
 10
104.2291245941684
 20
-131.8944471241444
 10
104.2291245941684
 20
-131.8944471241444
 10
104.2291245941684
 20
-131.8944471241444
 10
105.0075439190606
 20
-131.8944471241444
 10
105.0075439190606
 20
-131.8944471241444
 10
105.0075439190606
 20
-131.8944471241444
 10
105.0075439190606
 20
-132.0890950190611
 10
105.0075439190606
 20
-132.0890950190611
 10
105.0075439190606
 20
-132.0890950190611
 10
104.3919053558465
 20
-132.0890950190611
 10
104.3919053558465
 20
-132.0890950190611
 10
104.3919053558465
 20
-132.0890950190611
 10
104.3264485416267
 20
-132.5121527446497
 10
104.3264485416267
 20
-132.5121527446497
 10
104.3877712412642
 20
-132.47821855412
 10
104.4702812781359
 20
-132.4380831917169
 10
104.5886203080542
 20
-132.4380831917169
 10
104.8425238453171
 20
-132.4380831917169
 10
105.0795464147023
 20
-132.6242906026946
 10
105.0795464147023
 20
-132.9372775275296
 10
105.0795464147023
 20
-133.2547430764953
 10
104.8552706986126
 20
-133.4895263338151
 10
104.5527913150076
 20
-133.4895263338151
 97
        0
 97
        0
 75
     2
 76
     1
 98
        0
  0
ENDBLK
  5
80
330
7D
100
AcDbEntity
  8
0
100
AcDbBlockEnd
  0
BLOCK
  5
93
330
91
100
AcDbEntity
  8
0
100
AcDbBlockBegin
  2
block 5
 70
     0
 10
0.0
 20
0.0
 30
0.0
  3
block 5
  1

  0
SPLINE
  5
95
330
91
100
AcDbEntity
  8
_U+30EC_U+30A4_U+30E4_U+30FC 1
370
     0
100
AcDbSpline
210
0.0
220
0.0
230
1.0
 70
    11
 71
     3
 72
    44
 73
    40
 74
     0
 42
0.0000000001
 43
0.0000000001
 12
1.0
 22
0.0
 32
0.0
 13
1.0
 23
0.0
 33
0.0
 40
0.0
 40
0.0
 40
0.0
 40
0.0
 40
1.0
 40
1.0
 40
1.0
 40
2.0
 40
2.0
 40
2.0
 40
3.0
 40
3.0
 40
3.0
 40
4.0
 40
4.0
 40
4.0
 40
5.0
 40
5.0
 40
5.0
 40
6.0
 40
6.0
 40
6.0
 40
7.0
 40
7.0
 40
7.0
 40
8.0
 40
8.0
 40
8.0
 40
9.0
 40
9.0
 40
9.0
 40
10.0
 40
10.0
 40
10.0
 40
11.0
 40
11.0
 40
11.0
 40
12.0
 40
12.0
 40
12.0
 40
13.0
 40
13.0
 40
13.0
 40
13.0
 10
106.4637857806757
 20
-163.5317924938393
 30
0.0
 10
106.2457112364594
 20
-163.6902668861608
 30
0.0
 10
106.1523491488091
 20
-163.7643364390937
 30
0.0
 10
106.1041178120156
 20
-163.9083414303771
 30
0.0
 10
106.1041178120156
 20
-163.9083414303771
 30
0.0
 10
106.8823648821336
 20
-163.9083414303771
 30
0.0
 10
106.8823648821336
 20
-163.9083414303771
 30
0.0
 10
106.8823648821336
 20
-163.9083414303771
 30
0.0
 10
106.8823648821336
 20
-164.1133246117494
 30
0.0
 10
106.8823648821336
 20
-164.1133246117494
 30
0.0
 10
106.8823648821336
 20
-164.1133246117494
 30
0.0
 10
105.854348389335
 20
-164.1133246117494
 30
0.0
 10
105.854348389335
 20
-164.1133246117494
 30
0.0
 10
105.8860432677993
 20
-163.7557237003805
 30
0.0
 10
105.9515000820191
 20
-163.6775200328653
 30
0.0
 10
106.33666175727
 20
-163.3791747638427
 30
0.0
 10
106.5926323518241
 20
-163.1803927543438
 30
0.0
 10
106.6580891660438
 20
-163.1128688828329
 30
0.0
 10
106.6580891660438
 20
-162.9754095729714
 30
0.0
 10
106.6580891660438
 20
-162.8568982882788
 30
0.0
 10
106.5864311799506
 20
-162.7256401502908
 30
0.0
 10
106.3893717181943
 20
-162.7256401502908
 30
0.0
 10
106.129267009058
 20
-162.7256401502908
 30
0.0
 10
106.1206542703448
 20
-162.956117038254
 30
0.0
 10
106.1165201557625
 20
-163.0725612656555
 30
0.0
 10
106.1165201557625
 20
-163.0725612656555
 30
0.0
 10
105.8925889492213
 20
-163.0725612656555
 30
0.0
 10
105.8925889492213
 20
-163.0725612656555
 30
0.0
 10
105.9008571783859
 20
-162.9457817517983
 30
0.0
 10
105.9111924648416
 20
-162.8334716389791
 30
0.0
 10
105.9918076991965
 20
-162.7149603542865
 30
0.0
 10
106.101706245176
 20
-162.5544189046739
 30
0.0
 10
106.288085910928
 20
-162.5203124593699
 30
0.0
 10
106.4045301383294
 20
-162.5203124593699
 30
0.0
 10
106.6815158153435
 20
-162.5203124593699
 30
0.0
 10
106.8889105635556
 20
-162.7046250678308
 30
0.0
 10
106.8889105635556
 20
-162.9774766302626
 30
0.0
 10
106.8889105635556
 20
-163.2058864609346
 30
0.0
 10
106.7724663361541
 20
-163.3054497204584
 30
0.0
 10
106.4637857806757
 20
-163.5317924938393
 30
0.0
  0
HATCH
  5
96
330
91
100
AcDbEntity
  8
_U+30EC_U+30A4_U+30E4_U+30FC 1
 62
   179
420
  2234388
100
AcDbHatch
 10
0.0
 20
0.0
 30
0.0
210
0.0
220
0.0
230
1.0
  2
SOLID
 70
     1
 71
     0
 91
        1
 92
        1
 93
        1
 72
     4
 94
        3
 73
     0
 74
     1
 95
       44
 96
       40
 40
0.0
 40
0.0
 40
0.0
 40
0.0
 40
1.0
 40
1.0
 40
1.0
 40
2.0
 40
2.0
 40
2.0
 40
3.0
 40
3.0
 40
3.0
 40
4.0
 40
4.0
 40
4.0
 40
5.0
 40
5.0
 40
5.0
 40
6.0
 40
6.0
 40
6.0
 40
7.0
 40
7.0
 40
7.0
 40
8.0
 40
8.0
 40
8.0
 40
9.0
 40
9.0
 40
9.0
 40
10.0
 40
10.0
 40
10.0
 40
11.0
 40
11.0
 40
11.0
 40
12.0
 40
12.0
 40
12.0
 40
13.0
 40
13.0
 40
13.0
 40
13.0
 10
106.4637857806757
 20
-163.5317924938393
 10
106.2457112364594
 20
-163.6902668861608
 10
106.1523491488091
 20
-163.7643364390937
 10
106.1041178120156
 20
-163.9083414303771
 10
106.1041178120156
 20
-163.9083414303771
 10
106.8823648821336
 20
-163.9083414303771
 10
106.8823648821336
 20
-163.9083414303771
 10
106.8823648821336
 20
-163.9083414303771
 10
106.8823648821336
 20
-164.1133246117494
 10
106.8823648821336
 20
-164.1133246117494
 10
106.8823648821336
 20
-164.1133246117494
 10
105.854348389335
 20
-164.1133246117494
 10
105.854348389335
 20
-164.1133246117494
 10
105.8860432677993
 20
-163.7557237003805
 10
105.9515000820191
 20
-163.6775200328653
 10
106.33666175727
 20
-163.3791747638427
 10
106.5926323518241
 20
-163.1803927543438
 10
106.6580891660438
 20
-163.1128688828329
 10
106.6580891660438
 20
-162.9754095729714
 10
106.6580891660438
 20
-162.8568982882788
 10
106.5864311799506
 20
-162.7256401502908
 10
106.3893717181943
 20
-162.7256401502908
 10
106.129267009058
 20
-162.7256401502908
 10
106.1206542703448
 20
-162.956117038254
 10
106.1165201557625
 20
-163.0725612656555
 10
106.1165201557625
 20
-163.0725612656555
 10
105.8925889492213
 20
-163.0725612656555
 10
105.8925889492213
 20
-163.0725612656555
 10
105.9008571783859
 20
-162.9457817517983
 10
105.9111924648416
 20
-162.8334716389791
 10
105.9918076991965
 20
-162.7149603542865
 10
106.101706245176
 20
-162.5544189046739
 10
106.288085910928
 20
-162.5203124593699
 10
106.4045301383294
 20
-162.5203124593699
 10
106.6815158153435
 20
-162.5203124593699
 10
106.8889105635556
 20
-162.7046250678308
 10
106.8889105635556
 20
-162.9774766302626
 10
106.8889105635556
 20
-163.2058864609346
 10
106.7724663361541
 20
-163.3054497204584
 10
106.4637857806757
 20
-163.5317924938393
 97
        0
 97
        0
 75
     2
 76
     1
 98
        0
  0
ENDBLK
  5
94
330
91
100
AcDbEntity
  8
0
100
AcDbBlockEnd
  0
ENDSEC
  0
SECTION
  2
ENTITIES
  0
SPLINE
  5
41
330
1F
100
AcDbEntity
  8
_U+30EC_U+30A4_U+30E4_U+30FC 1
 62
   179
420
  2234388
370
     9
100
AcDbSpline
210
0.0
220
0.0
230
1.0
 70
    11
 71
     3
 72
    17
 73
    13
 74
     0
 42
0.0000000001
 43
0.0000000001
 12
1.0
 22
0.0
 32
0.0
 13
1.0
 23
0.0
 33
0.0
 40
0.0
 40
0.0
 40
0.0
 40
0.0
 40
1.0
 40
1.0
 40
1.0
 40
2.0
 40
2.0
 40
2.0
 40
3.0
 40
3.0
 40
3.0
 40
4.0
 40
4.0
 40
4.0
 40
4.0
 10
99.5265477249556
 20
-163.0340623236078
 30
0.0
 10
99.5265477249556
 20
-162.9790484550777
 30
0.0
 10
99.48174264328142
 20
-162.9342406819227
 30
0.0
 10
99.4267099343854
 20
-162.9342406819227
 30
0.0
 10
99.37202980948045
 20
-162.9342406819227
 30
0.0
 10
99.32722741928744
 20
-162.9790484550777
 30
0.0
 10
99.32722741928744
 20
-163.0340623236078
 30
0.0
 10
99.32722741928744
 20
-163.08946376538
 30
0.0
 10
99.37202980948045
 20
-163.134271538535
 30
0.0
 10
99.4267099343854
 20
-163.134271538535
 30
0.0
 10
99.48174264328142
 20
-163.134271538535
 30
0.0
 10
99.5265477249556
 20
-163.08946376538
 30
0.0
 10
99.5265477249556
 20
-163.0340623236078
 30
0.0
  0
SPLINE
  5
42
330
1F
100
AcDbEntity
  8
_U+30EC_U+30A4_U+30E4_U+30FC 1
 62
   179
420
  2234388
370
     9
100
AcDbSpline
210
0.0
220
0.0
230
1.0
 70
    11
 71
     3
 72
    17
 73
    13
 74
     0
 42
0.0000000001
 43
0.0000000001
 12
1.0
 22
0.0
 32
0.0
 13
1.0
 23
0.0
 33
0.0
 40
0.0
 40
0.0
 40
0.0
 40
0.0
 40
1.0
 40
1.0
 40
1.0
 40
2.0
 40
2.0
 40
2.0
 40
3.0
 40
3.0
 40
3.0
 40
4.0
 40
4.0
 40
4.0
 40
4.0
 10
99.5265477249556
 20
-138.0342317024163
 30
0.0
 10
99.5265477249556
 20
-137.978851792491
 30
0.0
 10
99.48174264328142
 20
-137.9336995097874
 30
0.0
 10
99.4267099343854
 20
-137.9336995097874
 30
0.0
 10
99.37202980948045
 20
-137.9336995097874
 30
0.0
 10
99.32722741928744
 20
-137.978851792491
 30
0.0
 10
99.32722741928744
 20
-138.0342317024163
 30
0.0
 10
99.32722741928744
 20
-138.0892671027932
 30
0.0
 10
99.37202980948045
 20
-138.1340748759486
 30
0.0
 10
99.4267099343854
 20
-138.1340748759486
 30
0.0
 10
99.48174264328142
 20
-138.1340748759486
 30
0.0
 10
99.5265477249556
 20
-138.0892671027932
 30
0.0
 10
99.5265477249556
 20
-138.0342317024163
 30
0.0
  0
POLYLINE
  5
43
330
1F
100
AcDbEntity
  8
_U+30EC_U+30A4_U+30E4_U+30FC 1
 62
   179
420
  2234388
370
     9
100
AcDb2dPolyline
 66
     1
 10
0.0
 20
0.0
 30
0.0
  0
VERTEX
  5
44
330
43
100
AcDbEntity
  8
_U+30EC_U+30A4_U+30E4_U+30FC 1
 62
   179
420
  2234388
370
     9
100
AcDbVertex
100
AcDb2dVertex
 10
99.42660765811318
 20
-163.0340623236078
 30
0.0
  0
VERTEX
  5
45
330
43
100
AcDbEntity
  8
_U+30EC_U+30A4_U+30E4_U+30FC 1
 62
   179
420
  2234388
370
     9
100
AcDbVertex
100
AcDb2dVertex
 10
99.42660765811318
 20
-138.0337795336339
 30
0.0
  0
SEQEND
  5
46
330
43
100
AcDbEntity
  8
_U+30EC_U+30A4_U+30E4_U+30FC 1
 62
   179
420
  2234388
370
     9
  0
POLYLINE
  5
47
330
1F
100
AcDbEntity
  8
_U+30EC_U+30A4_U+30E4_U+30FC 1
 62
   179
420
  2234388
370
     9
100
AcDb2dPolyline
 66
     1
 10
0.0
 20
0.0
 30
0.0
  0
VERTEX
  5
48
330
47
100
AcDbEntity
  8
_U+30EC_U+30A4_U+30E4_U+30FC 1
 62
   179
420
  2234388
370
     9
100
AcDbVertex
100
AcDb2dVertex
 10
101.4881689453718
 20
-163.0340623236078
 30
0.0
  0
VERTEX
  5
49
330
47
100
AcDbEntity
  8
_U+30EC_U+30A4_U+30E4_U+30FC 1
 62
   179
420
  2234388
370
     9
100
AcDbVertex
100
AcDb2dVertex
 10
98.4267628953491
 20
-163.0340623236078
 30
0.0
  0
SEQEND
  5
4A
330
47
100
AcDbEntity
  8
_U+30EC_U+30A4_U+30E4_U+30FC 1
 62
   179
420
  2234388
370
     9
  0
POLYLINE
  5
4B
330
1F
100
AcDbEntity
  8
_U+30EC_U+30A4_U+30E4_U+30FC 1
 62
   179
420
  2234388
370
     9
100
AcDb2dPolyline
 66
     1
 10
0.0
 20
0.0
 30
0.0
  0
VERTEX
  5
4C
330
4B
100
AcDbEntity
  8
_U+30EC_U+30A4_U+30E4_U+30FC 1
 62
   179
420
  2234388
370
     9
100
AcDbVertex
100
AcDb2dVertex
 10
98.42715316007204
 20
-138.0342317024163
 30
0.0
  0
VERTEX
  5
4D
330
4B
100
AcDbEntity
  8
_U+30EC_U+30A4_U+30E4_U+30FC 1
 62
   179
420
  2234388
370
     9
100
AcDbVertex
100
AcDb2dVertex
 10
101.2860629570261
 20
-138.0342317024163
 30
0.0
  0
VERTEX
  5
4E
330
4B
100
AcDbEntity
  8
_U+30EC_U+30A4_U+30E4_U+30FC 1
 62
   179
420
  2234388
370
     9
100
AcDbVertex
100
AcDb2dVertex
 10
99.02793205752519
 20
-138.0342317024163
 30
0.0
  0
VERTEX
  5
4F
330
4B
100
AcDbEntity
  8
_U+30EC_U+30A4_U+30E4_U+30FC 1
 62
   179
420
  2234388
370
     9
100
AcDbVertex
100
AcDb2dVertex
 10
101.4882039346231
 20
-138.0342317024163
 30
0.0
  0
SEQEND
  5
50
330
4B
100
AcDbEntity
  8
_U+30EC_U+30A4_U+30E4_U+30FC 1
 62
   179
420
  2234388
370
     9
  0
INSERT
  5
52
330
1F
100
AcDbEntity
  8
_U+30EC_U+30A4_U+30E4_U+30FC 1
100
AcDbBlockReference
  2
block 2
 10
0.0
 20
0.0
 30
0.0
  0
SPLINE
  5
59
330
1F
100
AcDbEntity
  8
_U+30EC_U+30A4_U+30E4_U+30FC 1
 62
   179
420
  2234388
370
     9
100
AcDbSpline
210
0.0
220
0.0
230
1.0
 70
    11
 71
     3
 72
    17
 73
    13
 74
     0
 42
0.0000000001
 43
0.0000000001
 12
1.0
 22
0.0
 32
0.0
 13
1.0
 23
0.0
 33
0.0
 40
0.0
 40
0.0
 40
0.0
 40
0.0
 40
1.0
 40
1.0
 40
1.0
 40
2.0
 40
2.0
 40
2.0
 40
3.0
 40
3.0
 40
3.0
 40
4.0
 40
4.0
 40
4.0
 40
4.0
 10
112.5920615868422
 20
-150.0336715323158
 30
0.0
 10
112.5920615868422
 20
-149.9786576637857
 30
0.0
 10
112.5472538136872
 20
-149.9338498906307
 30
0.0
 10
112.492223796272
 20
-149.9338498906307
 30
0.0
 10
112.4371883958952
 20
-149.9338498906307
 30
0.0
 10
112.3923860057018
 20
-149.9786576637857
 30
0.0
 10
112.3923860057018
 20
-150.0336715323158
 30
0.0
 10
112.3923860057018
 20
-150.0894174836365
 30
0.0
 10
112.4371883958952
 20
-150.1342252567915
 30
0.0
 10
112.492223796272
 20
-150.1342252567915
 30
0.0
 10
112.5472538136872
 20
-150.1342252567915
 30
0.0
 10
112.5920615868422
 20
-150.0894174836365
 30
0.0
 10
112.5920615868422
 20
-150.0336715323158
 30
0.0
  0
SPLINE
  5
5A
330
1F
100
AcDbEntity
  8
_U+30EC_U+30A4_U+30E4_U+30FC 1
 62
   179
420
  2234388
370
     9
100
AcDbSpline
210
0.0
220
0.0
230
1.0
 70
    11
 71
     3
 72
    17
 73
    13
 74
     0
 42
0.0000000001
 43
0.0000000001
 12
1.0
 22
0.0
 32
0.0
 13
1.0
 23
0.0
 33
0.0
 40
0.0
 40
0.0
 40
0.0
 40
0.0
 40
1.0
 40
1.0
 40
1.0
 40
2.0
 40
2.0
 40
2.0
 40
3.0
 40
3.0
 40
3.0
 40
4.0
 40
4.0
 40
4.0
 40
4.0
 10
112.5920615868422
 20
-138.0336934062468
 30
0.0
 10
112.5920615868422
 20
-137.9786795377167
 30
0.0
 10
112.5472538136872
 20
-137.9338717645617
 30
0.0
 10
112.492223796272
 20
-137.9338717645617
 30
0.0
 10
112.4371883958952
 20
-137.9338717645617
 30
0.0
 10
112.3923860057018
 20
-137.9786795377167
 30
0.0
 10
112.3923860057018
 20
-138.0336934062468
 30
0.0
 10
112.3923860057018
 20
-138.0894393575675
 30
0.0
 10
112.4371883958952
 20
-138.1342471307229
 30
0.0
 10
112.492223796272
 20
-138.1342471307229
 30
0.0
 10
112.5472538136872
 20
-138.1342471307229
 30
0.0
 10
112.5920615868422
 20
-138.0894393575675
 30
0.0
 10
112.5920615868422
 20
-138.0336934062468
 30
0.0
  0
POLYLINE
  5
5B
330
1F
100
AcDbEntity
  8
_U+30EC_U+30A4_U+30E4_U+30FC 1
 62
   179
420
  2234388
370
     9
100
AcDb2dPolyline
 66
     1
 10
0.0
 20
0.0
 30
0.0
  0
VERTEX
  5
5C
330
5B
100
AcDbEntity
  8
_U+30EC_U+30A4_U+30E4_U+30FC 1
 62
   179
420
  2234388
370
     9
100
AcDbVertex
100
AcDb2dVertex
 10
112.49215381777
 20
-150.0336715323158
 30
0.0
  0
VERTEX
  5
5D
330
5B
100
AcDbEntity
  8
_U+30EC_U+30A4_U+30E4_U+30FC 1
 62
   179
420
  2234388
370
     9
100
AcDbVertex
100
AcDb2dVertex
 10
112.49215381777
 20
-138.0339517884082
 30
0.0
  0
SEQEND
  5
5E
330
5B
100
AcDbEntity
  8
_U+30EC_U+30A4_U+30E4_U+30FC 1
 62
   179
420
  2234388
370
     9
  0
POLYLINE
  5
5F
330
1F
100
AcDbEntity
  8
_U+30EC_U+30A4_U+30E4_U+30FC 1
 62
   179
420
  2234388
370
     9
100
AcDb2dPolyline
 66
     1
 10
0.0
 20
0.0
 30
0.0
  0
VERTEX
  5
60
330
5F
100
AcDbEntity
  8
_U+30EC_U+30A4_U+30E4_U+30FC 1
 62
   179
420
  2234388
370
     9
100
AcDbVertex
100
AcDb2dVertex
 10
111.0320792874275
 20
-150.0339945100175
 30
0.0
  0
VERTEX
  5
61
330
5F
100
AcDbEntity
  8
_U+30EC_U+30A4_U+30E4_U+30FC 1
 62
   179
420
  2234388
370
     9
100
AcDbVertex
100
AcDb2dVertex
 10
113.4919958890532
 20
-150.0339945100175
 30
0.0
  0
SEQEND
  5
62
330
5F
100
AcDbEntity
  8
_U+30EC_U+30A4_U+30E4_U+30FC 1
 62
   179
420
  2234388
370
     9
  0
POLYLINE
  5
63
330
1F
100
AcDbEntity
  8
_U+30EC_U+30A4_U+30E4_U+30FC 1
 62
   179
420
  2234388
370
     9
100
AcDb2dPolyline
 66
     1
 10
0.0
 20
0.0
 30
0.0
  0
VERTEX
  5
64
330
63
100
AcDbEntity
  8
_U+30EC_U+30A4_U+30E4_U+30FC 1
 62
   179
420
  2234388
370
     9
100
AcDbVertex
100
AcDb2dVertex
 10
111.0320792874275
 20
-138.0340594476421
 30
0.0
  0
VERTEX
  5
65
330
63
100
AcDbEntity
  8
_U+30EC_U+30A4_U+30E4_U+30FC 1
 62
   179
420
  2234388
370
     9
100
AcDbVertex
100
AcDb2dVertex
 10
113.4919958890532
 20
-138.0340594476421
 30
0.0
  0
SEQEND
  5
66
330
63
100
AcDbEntity
  8
_U+30EC_U+30A4_U+30E4_U+30FC 1
 62
   179
420
  2234388
370
     9
  0
INSERT
  5
68
330
1F
100
AcDbEntity
  8
_U+30EC_U+30A4_U+30E4_U+30FC 1
100
AcDbBlockReference
  2
block 3
 10
0.0
 20
0.0
 30
0.0
  0
SPLINE
  5
6F
330
1F
100
AcDbEntity
  8
_U+30EC_U+30A4_U+30E4_U+30FC 1
 62
   179
420
  2234388
370
     9
100
AcDbSpline
210
0.0
220
0.0
230
1.0
 70
    11
 71
     3
 72
    17
 73
    13
 74
     0
 42
0.0000000001
 43
0.0000000001
 12
1.0
 22
0.0
 32
0.0
 13
1.0
 23
0.0
 33
0.0
 40
0.0
 40
0.0
 40
0.0
 40
0.0
 40
1.0
 40
1.0
 40
1.0
 40
2.0
 40
2.0
 40
2.0
 40
3.0
 40
3.0
 40
3.0
 40
4.0
 40
4.0
 40
4.0
 40
4.0
 10
107.131908220423
 20
-134.0344758440413
 30
0.0
 10
107.131908220423
 20
-133.9794619755115
 30
0.0
 10
107.0871031387488
 20
-133.9346542023562
 30
0.0
 10
107.0320704298528
 20
-133.9346542023562
 30
0.0
 10
106.9770377209568
 20
-133.9346542023562
 30
0.0
 10
106.9322353307634
 20
-133.9794619755115
 30
0.0
 10
106.9322353307634
 20
-134.0344758440413
 30
0.0
 10
106.9322353307634
 20
-134.0895112444182
 30
0.0
 10
106.9770377209568
 20
-134.1343190175735
 30
0.0
 10
107.0320704298528
 20
-134.1343190175735
 30
0.0
 10
107.0871031387488
 20
-134.1343190175735
 30
0.0
 10
107.131908220423
 20
-134.0895112444182
 30
0.0
 10
107.131908220423
 20
-134.0344758440413
 30
0.0
  0
SPLINE
  5
70
330
1F
100
AcDbEntity
  8
_U+30EC_U+30A4_U+30E4_U+30FC 1
 62
   179
420
  2234388
370
     9
100
AcDbSpline
210
0.0
220
0.0
230
1.0
 70
    11
 71
     3
 72
    17
 73
    13
 74
     0
 42
0.0000000001
 43
0.0000000001
 12
1.0
 22
0.0
 32
0.0
 13
1.0
 23
0.0
 33
0.0
 40
0.0
 40
0.0
 40
0.0
 40
0.0
 40
1.0
 40
1.0
 40
1.0
 40
2.0
 40
2.0
 40
2.0
 40
3.0
 40
3.0
 40
3.0
 40
4.0
 40
4.0
 40
4.0
 40
4.0
 10
102.1320249937948
 20
-134.0344758440413
 30
0.0
 10
102.1320249937948
 20
-133.9794619755115
 30
0.0
 10
102.0872199121209
 20
-133.9346542023562
 30
0.0
 10
102.0321872032246
 20
-133.9346542023562
 30
0.0
 10
101.9771544943286
 20
-133.9346542023562
 30
0.0
 10
101.9323521041352
 20
-133.9794619755115
 30
0.0
 10
101.9323521041352
 20
-134.0344758440413
 30
0.0
 10
101.9323521041352
 20
-134.0895112444182
 30
0.0
 10
101.9771544943286
 20
-134.1343190175735
 30
0.0
 10
102.0321872032246
 20
-134.1343190175735
 30
0.0
 10
102.0872199121209
 20
-134.1343190175735
 30
0.0
 10
102.1320249937948
 20
-134.0895112444182
 30
0.0
 10
102.1320249937948
 20
-134.0344758440413
 30
0.0
  0
POLYLINE
  5
71
330
1F
100
AcDbEntity
  8
_U+30EC_U+30A4_U+30E4_U+30FC 1
 62
   179
420
  2234388
370
     9
100
AcDb2dPolyline
 66
     1
 10
0.0
 20
0.0
 30
0.0
  0
VERTEX
  5
72
330
71
100
AcDbEntity
  8
_U+30EC_U+30A4_U+30E4_U+30FC 1
 62
   179
420
  2234388
370
     9
100
AcDbVertex
100
AcDb2dVertex
 10
102.0321522139736
 20
-134.0344758440413
 30
0.0
  0
VERTEX
  5
73
330
71
100
AcDbEntity
  8
_U+30EC_U+30A4_U+30E4_U+30FC 1
 62
   179
420
  2234388
370
     9
100
AcDbVertex
100
AcDb2dVertex
 10
107.0320704298528
 20
-134.0344758440413
 30
0.0
  0
SEQEND
  5
74
330
71
100
AcDbEntity
  8
_U+30EC_U+30A4_U+30E4_U+30FC 1
 62
   179
420
  2234388
370
     9
  0
POLYLINE
  5
75
330
1F
100
AcDbEntity
  8
_U+30EC_U+30A4_U+30E4_U+30FC 1
 62
   179
420
  2234388
370
     9
100
AcDb2dPolyline
 66
     1
 10
0.0
 20
0.0
 30
0.0
  0
VERTEX
  5
76
330
75
100
AcDbEntity
  8
_U+30EC_U+30A4_U+30E4_U+30FC 1
 62
   179
420
  2234388
370
     9
100
AcDbVertex
100
AcDb2dVertex
 10
102.0321522139736
 20
-136.5341725325985
 30
0.0
  0
VERTEX
  5
77
330
75
100
AcDbEntity
  8
_U+30EC_U+30A4_U+30E4_U+30FC 1
 62
   179
420
  2234388
370
     9
100
AcDbVertex
100
AcDb2dVertex
 10
102.0321522139736
 20
-133.0346230068347
 30
0.0
  0
SEQEND
  5
78
330
75
100
AcDbEntity
  8
_U+30EC_U+30A4_U+30E4_U+30FC 1
 62
   179
420
  2234388
370
     9
  0
POLYLINE
  5
79
330
1F
100
AcDbEntity
  8
_U+30EC_U+30A4_U+30E4_U+30FC 1
 62
   179
420
  2234388
370
     9
100
AcDb2dPolyline
 66
     1
 10
0.0
 20
0.0
 30
0.0
  0
VERTEX
  5
7A
330
79
100
AcDbEntity
  8
_U+30EC_U+30A4_U+30E4_U+30FC 1
 62
   179
420
  2234388
370
     9
100
AcDbVertex
100
AcDb2dVertex
 10
107.0320004513507
 20
-139.6024391673021
 30
0.0
  0
VERTEX
  5
7B
330
79
100
AcDbEntity
  8
_U+30EC_U+30A4_U+30E4_U+30FC 1
 62
   179
420
  2234388
370
     9
100
AcDbVertex
100
AcDb2dVertex
 10
107.0320004513507
 20
-133.0347952616089
 30
0.0
  0
SEQEND
  5
7C
330
79
100
AcDbEntity
  8
_U+30EC_U+30A4_U+30E4_U+30FC 1
 62
   179
420
  2234388
370
     9
  0
INSERT
  5
7E
330
1F
100
AcDbEntity
  8
_U+30EC_U+30A4_U+30E4_U+30FC 1
100
AcDbBlockReference
  2
block 4
 10
0.0
 20
0.0
 30
0.0
  0
SPLINE
  5
83
330
1F
100
AcDbEntity
  8
_U+30EC_U+30A4_U+30E4_U+30FC 1
 62
   179
420
  2234388
370
     9
100
AcDbSpline
210
0.0
220
0.0
230
1.0
 70
    11
 71
     3
 72
    17
 73
    13
 74
     0
 42
0.0000000001
 43
0.0000000001
 12
1.0
 22
0.0
 32
0.0
 13
1.0
 23
0.0
 33
0.0
 40
0.0
 40
0.0
 40
0.0
 40
0.0
 40
1.0
 40
1.0
 40
1.0
 40
2.0
 40
2.0
 40
2.0
 40
3.0
 40
3.0
 40
3.0
 40
4.0
 40
4.0
 40
4.0
 40
4.0
 10
105.1316938561295
 20
-164.7097567676333
 30
0.0
 10
105.1316938561295
 20
-164.6547428991032
 30
0.0
 10
105.0868887744553
 20
-164.6099351259482
 30
0.0
 10
105.0318560655593
 20
-164.6099351259482
 30
0.0
 10
104.9768233566632
 20
-164.6099351259482
 30
0.0
 10
104.9320209664699
 20
-164.6547428991032
 30
0.0
 10
104.9320209664699
 20
-164.7097567676333
 30
0.0
 10
104.9320209664699
 20
-164.7647921680102
 30
0.0
 10
104.9768233566632
 20
-164.8095999411652
 30
0.0
 10
105.0318560655593
 20
-164.8095999411652
 30
0.0
 10
105.0868887744553
 20
-164.8095999411652
 30
0.0
 10
105.1316938561295
 20
-164.7647921680102
 30
0.0
 10
105.1316938561295
 20
-164.7097567676333
 30
0.0
  0
SPLINE
  5
84
330
1F
100
AcDbEntity
  8
_U+30EC_U+30A4_U+30E4_U+30FC 1
 62
   179
420
  2234388
370
     9
100
AcDbSpline
210
0.0
220
0.0
230
1.0
 70
    11
 71
     3
 72
    17
 73
    13
 74
     0
 42
0.0000000001
 43
0.0000000001
 12
1.0
 22
0.0
 32
0.0
 13
1.0
 23
0.0
 33
0.0
 40
0.0
 40
0.0
 40
0.0
 40
0.0
 40
1.0
 40
1.0
 40
1.0
 40
2.0
 40
2.0
 40
2.0
 40
3.0
 40
3.0
 40
3.0
 40
4.0
 40
4.0
 40
4.0
 40
4.0
 10
103.1330297848043
 20
-164.7097567676333
 30
0.0
 10
103.1330297848043
 20
-164.6547428991032
 30
0.0
 10
103.0882247031301
 20
-164.6099351259482
 30
0.0
 10
103.0331919942341
 20
-164.6099351259482
 30
0.0
 10
102.9781592853381
 20
-164.6099351259482
 30
0.0
 10
102.9333568951448
 20
-164.6547428991032
 30
0.0
 10
102.9333568951448
 20
-164.7097567676333
 30
0.0
 10
102.9333568951448
 20
-164.7647921680102
 30
0.0
 10
102.9781592853381
 20
-164.8095999411652
 30
0.0
 10
103.0331919942341
 20
-164.8095999411652
 30
0.0
 10
103.0882247031301
 20
-164.8095999411652
 30
0.0
 10
103.1330297848043
 20
-164.7647921680102
 30
0.0
 10
103.1330297848043
 20
-164.7097567676333
 30
0.0
  0
POLYLINE
  5
85
330
1F
100
AcDbEntity
  8
_U+30EC_U+30A4_U+30E4_U+30FC 1
 62
   179
420
  2234388
370
     9
100
AcDb2dPolyline
 66
     1
 10
0.0
 20
0.0
 30
0.0
  0
VERTEX
  5
86
330
85
100
AcDbEntity
  8
_U+30EC_U+30A4_U+30E4_U+30FC 1
 62
   179
420
  2234388
370
     9
100
AcDbVertex
100
AcDb2dVertex
 10
102.959569227122
 20
-164.7097567676333
 30
0.0
  0
VERTEX
  5
87
330
85
100
AcDbEntity
  8
_U+30EC_U+30A4_U+30E4_U+30FC 1
 62
   179
420
  2234388
370
     9
100
AcDbVertex
100
AcDb2dVertex
 10
109.2189040016938
 20
-164.7097567676333
 30
0.0
  0
SEQEND
  5
88
330
85
100
AcDbEntity
  8
_U+30EC_U+30A4_U+30E4_U+30FC 1
 62
   179
420
  2234388
370
     9
  0
POLYLINE
  5
89
330
1F
100
AcDbEntity
  8
_U+30EC_U+30A4_U+30E4_U+30FC 1
 62
   179
420
  2234388
370
     9
100
AcDb2dPolyline
 66
     1
 10
0.0
 20
0.0
 30
0.0
  0
VERTEX
  5
8A
330
89
100
AcDbEntity
  8
_U+30EC_U+30A4_U+30E4_U+30FC 1
 62
   179
420
  2234388
370
     9
100
AcDbVertex
100
AcDb2dVertex
 10
105.0317860870572
 20
-156.0332622561848
 30
0.0
  0
VERTEX
  5
8B
330
89
100
AcDbEntity
  8
_U+30EC_U+30A4_U+30E4_U+30FC 1
 62
   179
420
  2234388
370
     9
100
AcDbVertex
100
AcDb2dVertex
 10
105.0317860870572
 20
-165.7099756462353
 30
0.0
  0
SEQEND
  5
8C
330
89
100
AcDbEntity
  8
_U+30EC_U+30A4_U+30E4_U+30FC 1
 62
   179
420
  2234388
370
     9
  0
POLYLINE
  5
8D
330
1F
100
AcDbEntity
  8
_U+30EC_U+30A4_U+30E4_U+30FC 1
 62
   179
420
  2234388
370
     9
100
AcDb2dPolyline
 66
     1
 10
0.0
 20
0.0
 30
0.0
  0
VERTEX
  5
8E
330
8D
100
AcDbEntity
  8
_U+30EC_U+30A4_U+30E4_U+30FC 1
 62
   179
420
  2234388
370
     9
100
AcDbVertex
100
AcDb2dVertex
 10
103.0317493604997
 20
-163.769956251104
 30
0.0
  0
VERTEX
  5
8F
330
8D
100
AcDbEntity
  8
_U+30EC_U+30A4_U+30E4_U+30FC 1
 62
   179
420
  2234388
370
     9
100
AcDbVertex
100
AcDb2dVertex
 10
103.0317493604997
 20
-165.7102340283967
 30
0.0
  0
SEQEND
  5
90
330
8D
100
AcDbEntity
  8
_U+30EC_U+30A4_U+30E4_U+30FC 1
 62
   179
420
  2234388
370
     9
  0
INSERT
  5
92
330
1F
100
AcDbEntity
  8
_U+30EC_U+30A4_U+30E4_U+30FC 1
100
AcDbBlockReference
  2
block 5
 10
0.0
 20
0.0
 30
0.0
  0
SPLINE
  5
97
330
1F
100
AcDbEntity
  8
_U+30EC_U+30A4_U+30E4_U+30FC 1
370
     0
100
AcDbSpline
210
0.0
220
0.0
230
1.0
 70
     8
 71
     3
 72
    95
 73
    91
 74
     0
 42
0.0000000001
 43
0.0000000001
 12
1.0
 22
0.0
 32
0.0
 13
1.0
 23
0.0
 33
0.0
 40
0.0
 40
0.0
 40
0.0
 40
0.0
 40
1.0
 40
1.0
 40
1.0
 40
2.0
 40
2.0
 40
2.0
 40
3.0
 40
3.0
 40
3.0
 40
4.0
 40
4.0
 40
4.0
 40
5.0
 40
5.0
 40
5.0
 40
6.0
 40
6.0
 40
6.0
 40
7.0
 40
7.0
 40
7.0
 40
8.0
 40
8.0
 40
8.0
 40
9.0
 40
9.0
 40
9.0
 40
10.0
 40
10.0
 40
10.0
 40
11.0
 40
11.0
 40
11.0
 40
12.0
 40
12.0
 40
12.0
 40
13.0
 40
13.0
 40
13.0
 40
14.0
 40
14.0
 40
14.0
 40
15.0
 40
15.0
 40
15.0
 40
16.0
 40
16.0
 40
16.0
 40
17.0
 40
17.0
 40
17.0
 40
18.0
 40
18.0
 40
18.0
 40
19.0
 40
19.0
 40
19.0
 40
20.0
 40
20.0
 40
20.0
 40
21.0
 40
21.0
 40
21.0
 40
22.0
 40
22.0
 40
22.0
 40
23.0
 40
23.0
 40
23.0
 40
24.0
 40
24.0
 40
24.0
 40
25.0
 40
25.0
 40
25.0
 40
26.0
 40
26.0
 40
26.0
 40
27.0
 40
27.0
 40
27.0
 40
28.0
 40
28.0
 40
28.0
 40
29.0
 40
29.0
 40
29.0
 40
30.0
 40
30.0
 40
30.0
 40
30.0
 10
102.0321522139736
 20
-152.0524759548254
 30
0.0
 10
102.0321522139736
 20
-152.0524759548254
 30
0.0
 10
102.2586349443586
 20
-152.541076622021
 30
0.0
 10
102.2586349443586
 20
-152.541076622021
 30
0.0
 10
102.2586349443586
 20
-152.541076622021
 30
0.0
 10
102.0857718954245
 20
-153.0508430946041
 30
0.0
 10
102.0857718954245
 20
-153.0508430946041
 30
0.0
 10
102.0857718954245
 20
-153.0508430946041
 30
0.0
 10
102.3119047332993
 20
-153.5394437617996
 30
0.0
 10
102.3119047332993
 20
-153.5394437617996
 30
0.0
 10
102.3119047332993
 20
-153.5394437617996
 30
0.0
 10
102.1393942683562
 20
-154.0492102343827
 30
0.0
 10
102.1393942683562
 20
-154.0492102343827
 30
0.0
 10
102.1393942683562
 20
-154.0492102343827
 30
0.0
 10
102.365527106231
 20
-154.5374448601829
 30
0.0
 10
102.365527106231
 20
-154.5374448601829
 30
0.0
 10
102.365527106231
 20
-154.5374448601829
 30
0.0
 10
102.193016641288
 20
-155.0475773741613
 30
0.0
 10
102.193016641288
 20
-155.0475773741613
 30
0.0
 10
102.193016641288
 20
-155.0475773741613
 30
0.0
 10
102.4191467876819
 20
-155.5361565095101
 30
0.0
 10
102.4191467876819
 20
-155.5361565095101
 30
0.0
 10
102.4191467876819
 20
-155.5361565095101
 30
0.0
 10
102.2462864302286
 20
-156.0459229820931
 30
0.0
 10
102.2462864302286
 20
-156.0459229820931
 30
0.0
 10
102.2462864302286
 20
-156.0459229820931
 30
0.0
 10
102.4727691606136
 20
-156.5345236492887
 30
0.0
 10
102.4727691606136
 20
-156.5345236492887
 30
0.0
 10
102.4727691606136
 20
-156.5345236492887
 30
0.0
 10
102.3002613871515
 20
-157.0439456123232
 30
0.0
 10
102.3002613871515
 20
-157.0439456123232
 30
0.0
 10
102.3002613871515
 20
-157.0439456123232
 30
0.0
 10
102.5260389495546
 20
-157.5325462795188
 30
0.0
 10
102.5260389495546
 20
-157.5325462795188
 30
0.0
 10
102.5260389495546
 20
-157.5325462795188
 30
0.0
 10
102.3535311760921
 20
-158.0422912202551
 30
0.0
 10
102.3535311760921
 20
-158.0422912202551
 30
0.0
 10
102.3535311760921
 20
-158.0422912202551
 30
0.0
 10
102.5800139064771
 20
-158.5308918874506
 30
0.0
 10
102.5800139064771
 20
-158.5308918874506
 30
0.0
 10
102.5800139064771
 20
-158.5308918874506
 30
0.0
 10
102.4071535490239
 20
-159.041024401429
 30
0.0
 10
102.4071535490239
 20
-159.041024401429
 30
0.0
 10
102.4071535490239
 20
-159.041024401429
 30
0.0
 10
102.6332836954178
 20
-159.5292590272292
 30
0.0
 10
102.6332836954178
 20
-159.5292590272292
 30
0.0
 10
102.6332836954178
 20
-159.5292590272292
 30
0.0
 10
102.4607759219556
 20
-160.0390254998123
 30
0.0
 10
102.4607759219556
 20
-160.0390254998123
 30
0.0
 10
102.4607759219556
 20
-160.0390254998123
 30
0.0
 10
102.6869060683495
 20
-160.5276261670079
 30
0.0
 10
102.6869060683495
 20
-160.5276261670079
 30
0.0
 10
102.6869060683495
 20
-160.5276261670079
 30
0.0
 10
102.5140457108963
 20
-161.0373926395909
 30
0.0
 10
102.5140457108963
 20
-161.0373926395909
 30
0.0
 10
102.5140457108963
 20
-161.0373926395909
 30
0.0
 10
102.7405284412813
 20
-161.5259717749397
 30
0.0
 10
102.7405284412813
 20
-161.5259717749397
 30
0.0
 10
102.7405284412813
 20
-161.5259717749397
 30
0.0
 10
102.5680206678191
 20
-162.0357382475227
 30
0.0
 10
102.5680206678191
 20
-162.0357382475227
 30
0.0
 10
102.5680206678191
 20
-162.0357382475227
 30
0.0
 10
102.794150814213
 20
-162.5243389147183
 30
0.0
 10
102.794150814213
 20
-162.5243389147183
 30
0.0
 10
102.794150814213
 20
-162.5243389147183
 30
0.0
 10
102.6212904567598
 20
-163.0341053873014
 30
0.0
 10
102.6212904567598
 20
-163.0341053873014
 30
0.0
 10
102.6212904567598
 20
-163.0341053873014
 30
0.0
 10
103.0322768907458
 20
-163.0337608777529
 30
0.0
 10
103.0322768907458
 20
-163.0337608777529
 30
0.0
 10
103.0322768907458
 20
-163.0337608777529
 30
0.0
 10
103.0319243067548
 20
-148.0339873897497
 30
0.0
 10
103.0319243067548
 20
-148.0339873897497
 30
0.0
 10
103.0319243067548
 20
-148.0339873897497
 30
0.0
 10
103.0319243067548
 20
-139.602245380681
 30
0.0
 10
103.0319243067548
 20
-139.602245380681
 30
0.0
 10
105.0318210763082
 20
-140.4792590319917
 30
0.0
 10
105.9818519115403
 20
-145.0060929677635
 30
0.0
 10
104.7319605035683
 20
-148.300702375848
 30
0.0
 10
104.7319605035683
 20
-148.300702375848
 30
0.0
 10
103.9815998665149
 20
-147.7051960893758
 30
0.0
 10
103.9815998665149
 20
-147.7051960893758
 30
0.0
 10
103.9815998665149
 20
-147.7051960893758
 30
0.0
 10
105.0314684923172
 20
-150.0338868507836
 30
0.0
 10
105.0314684923172
 20
-150.0338868507836
 30
0.0
 10
107.8991982720093
 20
-144.5337273130419
 30
0.0
 10
105.0318210763082
 20
-138.0341455750292
 30
0.0
 10
102.0321522139736
 20
-138.0341455750292
 30
0.0
 10
102.0321522139736
 20
-138.0341455750292
 30
0.0
 10
102.0321522139736
 20
-152.0366069837465
 30
0.0
 10
102.0321522139736
 20
-152.0366069837465
 30
0.0
  0
HATCH
  5
98
330
1F
100
AcDbEntity
  8
_U+30EC_U+30A4_U+30E4_U+30FC 1
 62
   254
420
 15394000
100
AcDbHatch
 10
0.0
 20
0.0
 30
0.0
210
0.0
220
0.0
230
1.0
  2
SOLID
 70
     1
 71
     0
 91
        1
 92
        1
 93
        2
 72
     4
 94
        3
 73
     0
 74
     0
 95
       95
 96
       91
 40
0.0
 40
0.0
 40
0.0
 40
0.0
 40
0.3527777776895833
 40
0.3527777776895833
 40
0.3527777776895833
 40
0.7055555553791667
 40
0.7055555553791667
 40
0.7055555553791667
 40
1.05833333306875
 40
1.05833333306875
 40
1.05833333306875
 40
1.411111110758333
 40
1.411111110758333
 40
1.411111110758333
 40
1.763888888447917
 40
1.763888888447917
 40
1.763888888447917
 40
2.1166666661375
 40
2.1166666661375
 40
2.1166666661375
 40
2.469444443827083
 40
2.469444443827083
 40
2.469444443827083
 40
2.822222221516667
 40
2.822222221516667
 40
2.822222221516667
 40
3.17499999920625
 40
3.17499999920625
 40
3.17499999920625
 40
3.527777776895833
 40
3.527777776895833
 40
3.527777776895833
 40
3.880555554585417
 40
3.880555554585417
 40
3.880555554585417
 40
4.233333332275
 40
4.233333332275
 40
4.233333332275
 40
4.586111109964584
 40
4.586111109964584
 40
4.586111109964584
 40
4.938888887654167
 40
4.938888887654167
 40
4.938888887654167
 40
5.29166666534375
 40
5.29166666534375
 40
5.29166666534375
 40
5.644444443033334
 40
5.644444443033334
 40
5.644444443033334
 40
5.997222220722917
 40
5.997222220722917
 40
5.997222220722917
 40
6.349999998412501
 40
6.349999998412501
 40
6.349999998412501
 40
6.702777776102083
 40
6.702777776102083
 40
6.702777776102083
 40
7.055555553791667
 40
7.055555553791667
 40
7.055555553791667
 40
7.40833333148125
 40
7.40833333148125
 40
7.40833333148125
 40
7.761111109170834
 40
7.761111109170834
 40
7.761111109170834
 40
8.113888886860417
 40
8.113888886860417
 40
8.113888886860417
 40
8.46666666455
 40
8.46666666455
 40
8.46666666455
 40
8.819444442239584
 40
8.819444442239584
 40
8.819444442239584
 40
9.172222219929168
 40
9.172222219929168
 40
9.172222219929168
 40
9.52499999761875
 40
9.52499999761875
 40
9.52499999761875
 40
9.877777775308333
 40
9.877777775308333
 40
9.877777775308333
 40
10.23055555299792
 40
10.23055555299792
 40
10.23055555299792
 40
10.5833333306875
 40
10.5833333306875
 40
10.5833333306875
 40
10.5833333306875
 10
102.0321522139736
 20
-152.0524759548254
 10
102.0321522139736
 20
-152.0524759548254
 10
102.2586349443586
 20
-152.541076622021
 10
102.2586349443586
 20
-152.541076622021
 10
102.2586349443586
 20
-152.541076622021
 10
102.0857718954245
 20
-153.0508430946041
 10
102.0857718954245
 20
-153.0508430946041
 10
102.0857718954245
 20
-153.0508430946041
 10
102.3119047332993
 20
-153.5394437617996
 10
102.3119047332993
 20
-153.5394437617996
 10
102.3119047332993
 20
-153.5394437617996
 10
102.1393942683562
 20
-154.0492102343827
 10
102.1393942683562
 20
-154.0492102343827
 10
102.1393942683562
 20
-154.0492102343827
 10
102.365527106231
 20
-154.5374448601829
 10
102.365527106231
 20
-154.5374448601829
 10
102.365527106231
 20
-154.5374448601829
 10
102.193016641288
 20
-155.0475773741613
 10
102.193016641288
 20
-155.0475773741613
 10
102.193016641288
 20
-155.0475773741613
 10
102.4191467876819
 20
-155.5361565095101
 10
102.4191467876819
 20
-155.5361565095101
 10
102.4191467876819
 20
-155.5361565095101
 10
102.2462864302286
 20
-156.0459229820931
 10
102.2462864302286
 20
-156.0459229820931
 10
102.2462864302286
 20
-156.0459229820931
 10
102.4727691606136
 20
-156.5345236492887
 10
102.4727691606136
 20
-156.5345236492887
 10
102.4727691606136
 20
-156.5345236492887
 10
102.3002613871515
 20
-157.0439456123232
 10
102.3002613871515
 20
-157.0439456123232
 10
102.3002613871515
 20
-157.0439456123232
 10
102.5260389495546
 20
-157.5325462795188
 10
102.5260389495546
 20
-157.5325462795188
 10
102.5260389495546
 20
-157.5325462795188
 10
102.3535311760921
 20
-158.0422912202551
 10
102.3535311760921
 20
-158.0422912202551
 10
102.3535311760921
 20
-158.0422912202551
 10
102.5800139064771
 20
-158.5308918874506
 10
102.5800139064771
 20
-158.5308918874506
 10
102.5800139064771
 20
-158.5308918874506
 10
102.4071535490239
 20
-159.041024401429
 10
102.4071535490239
 20
-159.041024401429
 10
102.4071535490239
 20
-159.041024401429
 10
102.6332836954178
 20
-159.5292590272292
 10
102.6332836954178
 20
-159.5292590272292
 10
102.6332836954178
 20
-159.5292590272292
 10
102.4607759219556
 20
-160.0390254998123
 10
102.4607759219556
 20
-160.0390254998123
 10
102.4607759219556
 20
-160.0390254998123
 10
102.6869060683495
 20
-160.5276261670079
 10
102.6869060683495
 20
-160.5276261670079
 10
102.6869060683495
 20
-160.5276261670079
 10
102.5140457108963
 20
-161.0373926395909
 10
102.5140457108963
 20
-161.0373926395909
 10
102.5140457108963
 20
-161.0373926395909
 10
102.7405284412813
 20
-161.5259717749397
 10
102.7405284412813
 20
-161.5259717749397
 10
102.7405284412813
 20
-161.5259717749397
 10
102.5680206678191
 20
-162.0357382475227
 10
102.5680206678191
 20
-162.0357382475227
 10
102.5680206678191
 20
-162.0357382475227
 10
102.794150814213
 20
-162.5243389147183
 10
102.794150814213
 20
-162.5243389147183
 10
102.794150814213
 20
-162.5243389147183
 10
102.6212904567598
 20
-163.0341053873014
 10
102.6212904567598
 20
-163.0341053873014
 10
102.6212904567598
 20
-163.0341053873014
 10
103.0322768907458
 20
-163.0337608777529
 10
103.0322768907458
 20
-163.0337608777529
 10
103.0322768907458
 20
-163.0337608777529
 10
103.0319243067548
 20
-148.0339873897497
 10
103.0319243067548
 20
-148.0339873897497
 10
103.0319243067548
 20
-148.0339873897497
 10
103.0319243067548
 20
-139.602245380681
 10
103.0319243067548
 20
-139.602245380681
 10
105.0318210763082
 20
-140.4792590319917
 10
105.9818519115403
 20
-145.0060929677635
 10
104.7319605035683
 20
-148.300702375848
 10
104.7319605035683
 20
-148.300702375848
 10
103.9815998665149
 20
-147.7051960893758
 10
103.9815998665149
 20
-147.7051960893758
 10
103.9815998665149
 20
-147.7051960893758
 10
105.0314684923172
 20
-150.0338868507836
 10
105.0314684923172
 20
-150.0338868507836
 10
107.8991982720093
 20
-144.5337273130419
 10
105.0318210763082
 20
-138.0341455750292
 10
102.0321522139736
 20
-138.0341455750292
 10
102.0321522139736
 20
-138.0341455750292
 10
102.0321522139736
 20
-152.0366069837465
 10
102.0321522139736
 20
-152.0366069837465
 97
        0
 72
     1
 10
102.0321522139736
 20
-152.0366069837465
 11
102.0321522139736
 21
-152.0524759548254
 97
        0
 75
     2
 76
     1
 98
        0
  0
SPLINE
  5
99
330
1F
100
AcDbEntity
  8
_U+30EC_U+30A4_U+30E4_U+30FC 1
 62
   179
420
  2234388
370
    25
100
AcDbSpline
210
0.0
220
0.0
230
1.0
 70
     8
 71
     3
 72
    95
 73
    91
 74
     0
 42
0.0000000001
 43
0.0000000001
 12
1.0
 22
0.0
 32
0.0
 13
1.0
 23
0.0
 33
0.0
 40
0.0
 40
0.0
 40
0.0
 40
0.0
 40
1.0
 40
1.0
 40
1.0
 40
2.0
 40
2.0
 40
2.0
 40
3.0
 40
3.0
 40
3.0
 40
4.0
 40
4.0
 40
4.0
 40
5.0
 40
5.0
 40
5.0
 40
6.0
 40
6.0
 40
6.0
 40
7.0
 40
7.0
 40
7.0
 40
8.0
 40
8.0
 40
8.0
 40
9.0
 40
9.0
 40
9.0
 40
10.0
 40
10.0
 40
10.0
 40
11.0
 40
11.0
 40
11.0
 40
12.0
 40
12.0
 40
12.0
 40
13.0
 40
13.0
 40
13.0
 40
14.0
 40
14.0
 40
14.0
 40
15.0
 40
15.0
 40
15.0
 40
16.0
 40
16.0
 40
16.0
 40
17.0
 40
17.0
 40
17.0
 40
18.0
 40
18.0
 40
18.0
 40
19.0
 40
19.0
 40
19.0
 40
20.0
 40
20.0
 40
20.0
 40
21.0
 40
21.0
 40
21.0
 40
22.0
 40
22.0
 40
22.0
 40
23.0
 40
23.0
 40
23.0
 40
24.0
 40
24.0
 40
24.0
 40
25.0
 40
25.0
 40
25.0
 40
26.0
 40
26.0
 40
26.0
 40
27.0
 40
27.0
 40
27.0
 40
28.0
 40
28.0
 40
28.0
 40
29.0
 40
29.0
 40
29.0
 40
30.0
 40
30.0
 40
30.0
 40
30.0
 10
102.0321522139736
 20
-152.0524759548254
 30
0.0
 10
102.0321522139736
 20
-152.0524759548254
 30
0.0
 10
102.2586349443586
 20
-152.541076622021
 30
0.0
 10
102.2586349443586
 20
-152.541076622021
 30
0.0
 10
102.2586349443586
 20
-152.541076622021
 30
0.0
 10
102.0857718954245
 20
-153.0508430946041
 30
0.0
 10
102.0857718954245
 20
-153.0508430946041
 30
0.0
 10
102.0857718954245
 20
-153.0508430946041
 30
0.0
 10
102.3119047332993
 20
-153.5394437617996
 30
0.0
 10
102.3119047332993
 20
-153.5394437617996
 30
0.0
 10
102.3119047332993
 20
-153.5394437617996
 30
0.0
 10
102.1393942683562
 20
-154.0492102343827
 30
0.0
 10
102.1393942683562
 20
-154.0492102343827
 30
0.0
 10
102.1393942683562
 20
-154.0492102343827
 30
0.0
 10
102.365527106231
 20
-154.5374448601829
 30
0.0
 10
102.365527106231
 20
-154.5374448601829
 30
0.0
 10
102.365527106231
 20
-154.5374448601829
 30
0.0
 10
102.193016641288
 20
-155.0475773741613
 30
0.0
 10
102.193016641288
 20
-155.0475773741613
 30
0.0
 10
102.193016641288
 20
-155.0475773741613
 30
0.0
 10
102.4191467876819
 20
-155.5361565095101
 30
0.0
 10
102.4191467876819
 20
-155.5361565095101
 30
0.0
 10
102.4191467876819
 20
-155.5361565095101
 30
0.0
 10
102.2462864302286
 20
-156.0459229820931
 30
0.0
 10
102.2462864302286
 20
-156.0459229820931
 30
0.0
 10
102.2462864302286
 20
-156.0459229820931
 30
0.0
 10
102.4727691606136
 20
-156.5345236492887
 30
0.0
 10
102.4727691606136
 20
-156.5345236492887
 30
0.0
 10
102.4727691606136
 20
-156.5345236492887
 30
0.0
 10
102.3002613871515
 20
-157.0439456123232
 30
0.0
 10
102.3002613871515
 20
-157.0439456123232
 30
0.0
 10
102.3002613871515
 20
-157.0439456123232
 30
0.0
 10
102.5260389495546
 20
-157.5325462795188
 30
0.0
 10
102.5260389495546
 20
-157.5325462795188
 30
0.0
 10
102.5260389495546
 20
-157.5325462795188
 30
0.0
 10
102.3535311760921
 20
-158.0422912202551
 30
0.0
 10
102.3535311760921
 20
-158.0422912202551
 30
0.0
 10
102.3535311760921
 20
-158.0422912202551
 30
0.0
 10
102.5800139064771
 20
-158.5308918874506
 30
0.0
 10
102.5800139064771
 20
-158.5308918874506
 30
0.0
 10
102.5800139064771
 20
-158.5308918874506
 30
0.0
 10
102.4071535490239
 20
-159.041024401429
 30
0.0
 10
102.4071535490239
 20
-159.041024401429
 30
0.0
 10
102.4071535490239
 20
-159.041024401429
 30
0.0
 10
102.6332836954178
 20
-159.5292590272292
 30
0.0
 10
102.6332836954178
 20
-159.5292590272292
 30
0.0
 10
102.6332836954178
 20
-159.5292590272292
 30
0.0
 10
102.4607759219556
 20
-160.0390254998123
 30
0.0
 10
102.4607759219556
 20
-160.0390254998123
 30
0.0
 10
102.4607759219556
 20
-160.0390254998123
 30
0.0
 10
102.6869060683495
 20
-160.5276261670079
 30
0.0
 10
102.6869060683495
 20
-160.5276261670079
 30
0.0
 10
102.6869060683495
 20
-160.5276261670079
 30
0.0
 10
102.5140457108963
 20
-161.0373926395909
 30
0.0
 10
102.5140457108963
 20
-161.0373926395909
 30
0.0
 10
102.5140457108963
 20
-161.0373926395909
 30
0.0
 10
102.7405284412813
 20
-161.5259717749397
 30
0.0
 10
102.7405284412813
 20
-161.5259717749397
 30
0.0
 10
102.7405284412813
 20
-161.5259717749397
 30
0.0
 10
102.5680206678191
 20
-162.0357382475227
 30
0.0
 10
102.5680206678191
 20
-162.0357382475227
 30
0.0
 10
102.5680206678191
 20
-162.0357382475227
 30
0.0
 10
102.794150814213
 20
-162.5243389147183
 30
0.0
 10
102.794150814213
 20
-162.5243389147183
 30
0.0
 10
102.794150814213
 20
-162.5243389147183
 30
0.0
 10
102.6212904567598
 20
-163.0341053873014
 30
0.0
 10
102.6212904567598
 20
-163.0341053873014
 30
0.0
 10
102.6212904567598
 20
-163.0341053873014
 30
0.0
 10
103.0322768907458
 20
-163.0337608777529
 30
0.0
 10
103.0322768907458
 20
-163.0337608777529
 30
0.0
 10
103.0322768907458
 20
-163.0337608777529
 30
0.0
 10
103.0319243067548
 20
-148.0339873897497
 30
0.0
 10
103.0319243067548
 20
-148.0339873897497
 30
0.0
 10
103.0319243067548
 20
-148.0339873897497
 30
0.0
 10
103.0319243067548
 20
-139.602245380681
 30
0.0
 10
103.0319243067548
 20
-139.602245380681
 30
0.0
 10
105.0318210763082
 20
-140.4792590319917
 30
0.0
 10
105.9818519115403
 20
-145.0060929677635
 30
0.0
 10
104.7319605035683
 20
-148.300702375848
 30
0.0
 10
104.7319605035683
 20
-148.300702375848
 30
0.0
 10
103.9815998665149
 20
-147.7051960893758
 30
0.0
 10
103.9815998665149
 20
-147.7051960893758
 30
0.0
 10
103.9815998665149
 20
-147.7051960893758
 30
0.0
 10
105.0314684923172
 20
-150.0338868507836
 30
0.0
 10
105.0314684923172
 20
-150.0338868507836
 30
0.0
 10
107.8991982720093
 20
-144.5337273130419
 30
0.0
 10
105.0318210763082
 20
-138.0341455750292
 30
0.0
 10
102.0321522139736
 20
-138.0341455750292
 30
0.0
 10
102.0321522139736
 20
-138.0341455750292
 30
0.0
 10
102.0321522139736
 20
-152.0366069837465
 30
0.0
 10
102.0321522139736
 20
-152.0366069837465
 30
0.0
  0
POLYLINE
  5
9A
330
1F
100
AcDbEntity
  8
_U+30EC_U+30A4_U+30E4_U+30FC 1
370
     0
100
AcDb2dPolyline
 66
     1
 10
0.0
 20
0.0
 30
0.0
  0
VERTEX
  5
9B
330
9A
100
AcDbEntity
  8
_U+30EC_U+30A4_U+30E4_U+30FC 1
370
     0
100
AcDbVertex
100
AcDb2dVertex
 10
128.9058267906902
 20
-166.8870554927108
 30
0.0
  0
VERTEX
  5
9C
330
9A
100
AcDbEntity
  8
_U+30EC_U+30A4_U+30E4_U+30FC 1
370
     0
100
AcDbVertex
100
AcDb2dVertex
 10
80.30113352563612
 20
-166.8870554927108
 30
0.0
  0
VERTEX
  5
9D
330
9A
100
AcDbEntity
  8
_U+30EC_U+30A4_U+30E4_U+30FC 1
370
     0
100
AcDbVertex
100
AcDb2dVertex
 10
80.30113352563612
 20
-130.1749999414463
 30
0.0
  0
VERTEX
  5
9E
330
9A
100
AcDbEntity
  8
_U+30EC_U+30A4_U+30E4_U+30FC 1
370
     0
100
AcDbVertex
100
AcDb2dVertex
 10
128.9058267906902
 20
-130.1749999414463
 30
0.0
  0
VERTEX
  5
9F
330
9A
100
AcDbEntity
  8
_U+30EC_U+30A4_U+30E4_U+30FC 1
370
     0
100
AcDbVertex
100
AcDb2dVertex
 10
128.9058267906902
 20
-166.8870554927108
 30
0.0
  0
SEQEND
  5
A0
330
9A
100
AcDbEntity
  8
_U+30EC_U+30A4_U+30E4_U+30FC 1
370
     0
  0
ENDSEC
  0
SECTION
  2
OBJECTS
  0
DICTIONARY
  5
C
330
0
100
AcDbDictionary
281
     1
  3
ACAD_GROUP
350
D
  3
ACAD_LAYOUT
350
1A
  3
ACAD_MATERIAL
350
3B
  3
ACAD_MLEADERSTYLE
350
A2
  3
ACAD_MLINESTYLE
350
17
  3
ACAD_PLOTSETTINGS
350
19
  3
ACAD_PLOTSTYLENAME
350
E
  3
ACAD_TABLESTYLE
350
A1
  3
ACAD_VISUALSTYLE
350
2A
  0
SUN
  5
3F
330
29
100
AcDbSun
 90
        1
290
     0
 63
     7
421
 16777215
 40
1.0
291
     1
 91
  2455826
 92
 54000000
292
     0
 70
     2
 71
   256
280
     1
  0
DICTIONARY
  5
D
102
{ACAD_REACTORS
330
C
102
}
330
C
100
AcDbDictionary
281
     1
  0
DICTIONARY
  5
1A
102
{ACAD_REACTORS
330
C
102
}
330
C
100
AcDbDictionary
281
     1
  3
Layout1
350
1E
  3
Layout2
350
26
  3
Model
350
22
  0
DICTIONARY
  5
3B
102
{ACAD_REACTORS
330
C
102
}
330
C
100
AcDbDictionary
281
     1
  3
ByBlock
350
3D
  3
ByLayer
350
3C
  3
Global
350
3E
  0
DICTIONARY
  5
A2
102
{ACAD_REACTORS
330
C
102
}
330
C
100
AcDbDictionary
281
     1
  0
DICTIONARY
  5
17
102
{ACAD_REACTORS
330
C
102
}
330
C
100
AcDbDictionary
281
     1
  3
Standard
350
18
  0
DICTIONARY
  5
19
102
{ACAD_REACTORS
330
C
102
}
330
C
100
AcDbDictionary
281
     1
  0
ACDBDICTIONARYWDFLT
  5
E
102
{ACAD_REACTORS
330
C
102
}
330
C
100
AcDbDictionary
281
     1
  3
Normal
350
F
100
AcDbDictionaryWithDefault
340
F
  0
DICTIONARY
  5
A1
102
{ACAD_REACTORS
330
C
102
}
330
C
100
AcDbDictionary
281
     1
  0
DICTIONARY
  5
2A
102
{ACAD_REACTORS
330
C
102
}
330
C
100
AcDbDictionary
281
     1
  3
2dWireframe
350
2F
  3
3D Hidden
350
31
  3
3dWireframe
350
30
  3
Basic
350
32
  3
Brighten
350
36
  3
ColorChange
350
3A
  3
Conceptual
350
34
  3
Dim
350
35
  3
Facepattern
350
39
  3
Flat
350
2B
  3
FlatWithEdges
350
2C
  3
Gouraud
350
2D
  3
GouraudWithEdges
350
2E
  3
Linepattern
350
38
  3
Realistic
350
33
  3
Thicken
350
37
  0
LAYOUT
  5
1E
102
{ACAD_REACTORS
330
1A
102
}
330
1A
100
AcDbPlotSettings
  1

  2
none_device
  4

  6

 40
0.0
 41
0.0
 42
0.0
 43
0.0
 44
0.0
 45
0.0
 46
0.0
 47
0.0
 48
0.0
 49
0.0
140
0.0
141
0.0
142
1.0
143
1.0
 70
   688
 72
     0
 73
     0
 74
     5
  7

 75
    16
 76
     0
 77
     2
 78
   300
147
1.0
148
0.0
149
0.0
100
AcDbLayout
  1
Layout1
 70
     1
 71
     1
 10
0.0
 20
0.0
 11
12.0
 21
9.0
 12
0.0
 22
0.0
 32
0.0
 14
1.000000000000000E+20
 24
1.000000000000000E+20
 34
1.000000000000000E+20
 15
-1.000000000000000E+20
 25
-1.000000000000000E+20
 35
-1.000000000000000E+20
146
0.0
 13
0.0
 23
0.0
 33
0.0
 16
1.0
 26
0.0
 36
0.0
 17
0.0
 27
1.0
 37
0.0
 76
     0
330
1B
  0
LAYOUT
  5
26
102
{ACAD_REACTORS
330
1A
102
}
330
1A
100
AcDbPlotSettings
  1

  2
none_device
  4

  6

 40
0.0
 41
0.0
 42
0.0
 43
0.0
 44
0.0
 45
0.0
 46
0.0
 47
0.0
 48
0.0
 49
0.0
140
0.0
141
0.0
142
1.0
143
1.0
 70
   688
 72
     0
 73
     0
 74
     5
  7

 75
    16
 76
     0
 77
     2
 78
   300
147
1.0
148
0.0
149
0.0
100
AcDbLayout
  1
Layout2
 70
     1
 71
     2
 10
0.0
 20
0.0
 11
0.0
 21
0.0
 12
0.0
 22
0.0
 32
0.0
 14
0.0
 24
0.0
 34
0.0
 15
0.0
 25
0.0
 35
0.0
146
0.0
 13
0.0
 23
0.0
 33
0.0
 16
1.0
 26
0.0
 36
0.0
 17
0.0
 27
1.0
 37
0.0
 76
     0
330
23
  0
LAYOUT
  5
22
102
{ACAD_REACTORS
330
1A
102
}
330
1A
100
AcDbPlotSettings
  1

  2
none_device
  4

  6

 40
0.0
 41
0.0
 42
0.0
 43
0.0
 44
0.0
 45
0.0
 46
0.0
 47
0.0
 48
0.0
 49
0.0
140
0.0
141
0.0
142
1.0
143
1.0
 70
  1712
 72
     0
 73
     0
 74
     0
  7

 75
     0
 76
     0
 77
     2
 78
   300
147
1.0
148
0.0
149
0.0
100
AcDbLayout
  1
Model
 70
     1
 71
     0
 10
0.0
 20
0.0
 11
12.0
 21
9.0
 12
0.0
 22
0.0
 32
0.0
 14
1.000000000000000E+20
 24
1.000000000000000E+20
 34
1.000000000000000E+20
 15
-1.000000000000000E+20
 25
-1.000000000000000E+20
 35
-1.000000000000000E+20
146
0.0
 13
0.0
 23
0.0
 33
0.0
 16
1.0
 26
0.0
 36
0.0
 17
0.0
 27
1.0
 37
0.0
 76
     0
330
1F
331
29
  0
MATERIAL
  5
3D
102
{ACAD_REACTORS
330
3B
102
}
330
3B
100
AcDbMaterial
  1
ByBlock
 72
     1
 94
      127
  0
MATERIAL
  5
3C
102
{ACAD_REACTORS
330
3B
102
}
330
3B
100
AcDbMaterial
  1
ByLayer
 72
     1
 94
      127
  0
MATERIAL
  5
3E
102
{ACAD_REACTORS
330
3B
102
}
330
3B
100
AcDbMaterial
  1
Global
 72
     1
 94
      127
  0
MLINESTYLE
  5
18
102
{ACAD_REACTORS
330
17
102
}
330
17
100
AcDbMlineStyle
  2
Standard
 70
     0
  3

 62
   256
 51
90.0
 52
90.0
 71
     2
 49
0.5
 62
   256
  6
BYLAYER
 49
-0.5
 62
   256
  6
BYLAYER
  0
ACDBPLACEHOLDER
  5
F
102
{ACAD_REACTORS
330
E
102
}
330
E
  0
VISUALSTYLE
  5
2F
102
{ACAD_REACTORS
330
2A
102
}
330
2A
100
AcDbVisualStyle
  2
2dWireframe
 70
     4
177
     2
291
     0
 71
     0
176
     1
 72
     2
176
     1
 73
     0
176
     1
 90
        0
176
     1
 40
-0.6
176
     1
 41
-30.0
176
     1
 62
     5
 63
     7
421
 16777215
176
     1
 74
     1
176
     1
 91
        4
176
     1
 64
     7
176
     1
 65
   257
176
     1
 75
     1
176
     1
175
     1
176
     1
 42
1.0
176
     1
 92
        0
176
     1
 66
   257
176
     1
 43
1.0
176
     1
 76
     1
176
     1
 77
     6
176
     1
 78
     2
176
     1
 67
     7
176
     1
 79
     5
176
     1
170
     0
176
     1
171
     0
176
     1
290
     0
176
     1
 93
        1
176
     1
 44
0.0
176
     1
173
     0
176
     1
  0
VISUALSTYLE
  5
31
102
{ACAD_REACTORS
330
2A
102
}
330
2A
100
AcDbVisualStyle
  2
3D Hidden
 70
     6
177
     2
291
     0
 71
     1
176
     1
 72
     2
176
     1
 73
     2
176
     1
 90
        0
176
     1
 40
-0.6
176
     1
 41
-30.0
176
     1
 62
     5
 63
     7
421
 16777215
176
     1
 74
     2
176
     1
 91
        2
176
     1
 64
     7
176
     1
 65
   257
176
     1
 75
     2
176
     1
175
     1
176
     1
 42
40.0
176
     1
 92
        0
176
     1
 66
   257
176
     1
 43
1.0
176
     1
 76
     1
176
     1
 77
     6
176
     1
 78
     2
176
     1
 67
     7
176
     1
 79
     3
176
     1
170
     0
176
     1
171
     0
176
     1
290
     0
176
     1
 93
        1
176
     1
 44
0.0
176
     1
173
     0
176
     1
  0
VISUALSTYLE
  5
30
102
{ACAD_REACTORS
330
2A
102
}
330
2A
100
AcDbVisualStyle
  2
3dWireframe
 70
     5
177
     2
291
     0
 71
     0
176
     1
 72
     2
176
     1
 73
     0
176
     1
 90
        0
176
     1
 40
-0.6
176
     1
 41
-30.0
176
     1
 62
     5
 63
     7
421
 16777215
176
     1
 74
     1
176
     1
 91
        4
176
     1
 64
     7
176
     1
 65
   257
176
     1
 75
     1
176
     1
175
     1
176
     1
 42
1.0
176
     1
 92
        0
176
     1
 66
   257
176
     1
 43
1.0
176
     1
 76
     1
176
     1
 77
     6
176
     1
 78
     2
176
     1
 67
     7
176
     1
 79
     5
176
     1
170
     0
176
     1
171
     0
176
     1
290
     0
176
     1
 93
        1
176
     1
 44
0.0
176
     1
173
     0
176
     1
  0
VISUALSTYLE
  5
32
102
{ACAD_REACTORS
330
2A
102
}
330
2A
100
AcDbVisualStyle
  2
Basic
 70
     7
177
     2
291
     1
 71
     1
176
     1
 72
     0
176
     1
 73
     1
176
     1
 90
        0
176
     1
 40
-0.6
176
     1
 41
-30.0
176
     1
 62
     5
 63
     7
421
 16777215
176
     1
 74
     0
176
     1
 91
        4
176
     1
 64
     7
176
     1
 65
   257
176
     1
 75
     1
176
     1
175
     1
176
     1
 42
1.0
176
     1
 92
        8
176
     1
 66
     7
176
     1
 43
1.0
176
     1
 76
     1
176
     1
 77
     6
176
     1
 78
     2
176
     1
 67
     7
176
     1
 79
     5
176
     1
170
     0
176
     1
171
     0
176
     1
290
     0
176
     1
 93
        1
176
     1
 44
0.0
176
     1
173
     0
176
     1
  0
VISUALSTYLE
  5
36
102
{ACAD_REACTORS
330
2A
102
}
330
2A
100
AcDbVisualStyle
  2
Brighten
 70
    12
177
     2
291
     1
 71
     2
176
     1
 72
     2
176
     1
 73
     0
176
     1
 90
        0
176
     1
 40
-0.6
176
     1
 41
-30.0
176
     1
 62
     5
 63
     7
421
 16777215
176
     1
 74
     1
176
     1
 91
        4
176
     1
 64
     7
176
     1
 65
   257
176
     1
 75
     1
176
     1
175
     1
176
     1
 42
1.0
176
     1
 92
        8
176
     1
 66
     7
176
     1
 43
1.0
176
     1
 76
     1
176
     1
 77
     6
176
     1
 78
     2
176
     1
 67
     7
176
     1
 79
     5
176
     1
170
     0
176
     1
171
     0
176
     1
290
     0
176
     1
 93
        1
176
     1
 44
50.0
176
     1
173
     0
176
     1
  0
VISUALSTYLE
  5
3A
102
{ACAD_REACTORS
330
2A
102
}
330
2A
100
AcDbVisualStyle
  2
ColorChange
 70
    16
177
     2
291
     1
 71
     2
176
     1
 72
     2
176
     1
 73
     3
176
     1
 90
        0
176
     1
 40
-0.6
176
     1
 41
-30.0
176
     1
 62
     5
 63
     8
421
  8421504
176
     1
 74
     1
176
     1
 91
        4
176
     1
 64
     7
176
     1
 65
   257
176
     1
 75
     1
176
     1
175
     1
176
     1
 42
1.0
176
     1
 92
        8
176
     1
 66
     8
424
  8421504
176
     1
 43
1.0
176
     1
 76
     1
176
     1
 77
     6
176
     1
 78
     2
176
     1
 67
     7
176
     1
 79
     5
176
     1
170
     0
176
     1
171
     0
176
     1
290
     0
176
     1
 93
        1
176
     1
 44
0.0
176
     1
173
     0
176
     1
  0
VISUALSTYLE
  5
34
102
{ACAD_REACTORS
330
2A
102
}
330
2A
100
AcDbVisualStyle
  2
Conceptual
 70
     9
177
     2
291
     0
 71
     3
176
     1
 72
     2
176
     1
 73
     0
176
     1
 90
        0
176
     1
 40
-0.6
176
     1
 41
-30.0
176
     1
 62
     5
 63
     7
421
 16777215
176
     1
 74
     2
176
     1
 91
        2
176
     1
 64
     7
176
     1
 65
   257
176
     1
 75
     1
176
     1
175
     1
176
     1
 42
40.0
176
     1
 92
        8
176
     1
 66
     7
176
     1
 43
1.0
176
     1
 76
     1
176
     1
 77
     6
176
     1
 78
     2
176
     1
 67
     7
176
     1
 79
     3
176
     1
170
     0
176
     1
171
     0
176
     1
290
     0
176
     1
 93
        1
176
     1
 44
0.0
176
     1
173
     0
176
     1
  0
VISUALSTYLE
  5
35
102
{ACAD_REACTORS
330
2A
102
}
330
2A
100
AcDbVisualStyle
  2
Dim
 70
    11
177
     2
291
     1
 71
     2
176
     1
 72
     2
176
     1
 73
     0
176
     1
 90
        0
176
     1
 40
-0.6
176
     1
 41
-30.0
176
     1
 62
     5
 63
     7
421
 16777215
176
     1
 74
     1
176
     1
 91
        4
176
     1
 64
     7
176
     1
 65
   257
176
     1
 75
     1
176
     1
175
     1
176
     1
 42
1.0
176
     1
 92
        8
176
     1
 66
     7
176
     1
 43
1.0
176
     1
 76
     1
176
     1
 77
     6
176
     1
 78
     2
176
     1
 67
     7
176
     1
 79
     5
176
     1
170
     0
176
     1
171
     0
176
     1
290
     0
176
     1
 93
        1
176
     1
 44
-50.0
176
     1
173
     0
176
     1
  0
VISUALSTYLE
  5
39
102
{ACAD_REACTORS
330
2A
102
}
330
2A
100
AcDbVisualStyle
  2
Facepattern
 70
    15
177
     2
291
     1
 71
     2
176
     1
 72
     2
176
     1
 73
     0
176
     1
 90
        0
176
     1
 40
-0.6
176
     1
 41
-30.0
176
     1
 62
     5
 63
     7
421
 16777215
176
     1
 74
     1
176
     1
 91
        4
176
     1
 64
     7
176
     1
 65
   257
176
     1
 75
     1
176
     1
175
     1
176
     1
 42
1.0
176
     1
 92
        8
176
     1
 66
     7
176
     1
 43
1.0
176
     1
 76
     1
176
     1
 77
     6
176
     1
 78
     2
176
     1
 67
     7
176
     1
 79
     5
176
     1
170
     0
176
     1
171
     0
176
     1
290
     0
176
     1
 93
        1
176
     1
 44
0.0
176
     1
173
     0
176
     1
  0
VISUALSTYLE
  5
2B
102
{ACAD_REACTORS
330
2A
102
}
330
2A
100
AcDbVisualStyle
  2
Flat
 70
     0
177
     2
291
     1
 71
     2
176
     1
 72
     1
176
     1
 73
     1
176
     1
 90
        2
176
     1
 40
-0.6
176
     1
 41
30.0
176
     1
 62
     5
 63
     7
421
 16777215
176
     1
 74
     0
176
     1
 91
        4
176
     1
 64
     7
176
     1
 65
   257
176
     1
 75
     1
176
     1
175
     1
176
     1
 42
1.0
176
     1
 92
        8
176
     1
 66
     7
176
     1
 43
1.0
176
     1
 76
     1
176
     1
 77
     6
176
     1
 78
     2
176
     1
 67
     7
176
     1
 79
     5
176
     1
170
     0
176
     1
171
     0
176
     1
290
     0
176
     1
 93
       13
176
     1
 44
0.0
176
     1
173
     0
176
     1
  0
VISUALSTYLE
  5
2C
102
{ACAD_REACTORS
330
2A
102
}
330
2A
100
AcDbVisualStyle
  2
FlatWithEdges
 70
     1
177
     2
291
     1
 71
     2
176
     1
 72
     1
176
     1
 73
     1
176
     1
 90
        2
176
     1
 40
-0.6
176
     1
 41
30.0
176
     1
 62
     5
 63
     7
421
 16777215
176
     1
 74
     1
176
     1
 91
        4
176
     1
 64
     7
176
     1
 65
   257
176
     1
 75
     1
176
     1
175
     1
176
     1
 42
1.0
176
     1
 92
        0
176
     1
 66
   257
176
     1
 43
1.0
176
     1
 76
     1
176
     1
 77
     6
176
     1
 78
     2
176
     1
 67
     7
176
     1
 79
     5
176
     1
170
     0
176
     1
171
     0
176
     1
290
     0
176
     1
 93
       13
176
     1
 44
0.0
176
     1
173
     0
176
     1
  0
VISUALSTYLE
  5
2D
102
{ACAD_REACTORS
330
2A
102
}
330
2A
100
AcDbVisualStyle
  2
Gouraud
 70
     2
177
     2
291
     1
 71
     2
176
     1
 72
     2
176
     1
 73
     1
176
     1
 90
        2
176
     1
 40
-0.6
176
     1
 41
30.0
176
     1
 62
     5
 63
     7
421
 16777215
176
     1
 74
     0
176
     1
 91
        4
176
     1
 64
     7
176
     1
 65
   257
176
     1
 75
     1
176
     1
175
     1
176
     1
 42
1.0
176
     1
 92
        0
176
     1
 66
     7
176
     1
 43
1.0
176
     1
 76
     1
176
     1
 77
     6
176
     1
 78
     2
176
     1
 67
     7
176
     1
 79
     5
176
     1
170
     0
176
     1
171
     0
176
     1
290
     0
176
     1
 93
       13
176
     1
 44
0.0
176
     1
173
     0
176
     1
  0
VISUALSTYLE
  5
2E
102
{ACAD_REACTORS
330
2A
102
}
330
2A
100
AcDbVisualStyle
  2
GouraudWithEdges
 70
     3
177
     2
291
     1
 71
     2
176
     1
 72
     2
176
     1
 73
     1
176
     1
 90
        2
176
     1
 40
-0.6
176
     1
 41
30.0
176
     1
 62
     5
 63
     7
421
 16777215
176
     1
 74
     1
176
     1
 91
        4
176
     1
 64
     7
176
     1
 65
   257
176
     1
 75
     1
176
     1
175
     1
176
     1
 42
1.0
176
     1
 92
        0
176
     1
 66
   257
176
     1
 43
1.0
176
     1
 76
     1
176
     1
 77
     6
176
     1
 78
     2
176
     1
 67
     7
176
     1
 79
     5
176
     1
170
     0
176
     1
171
     0
176
     1
290
     0
176
     1
 93
       13
176
     1
 44
0.0
176
     1
173
     0
176
     1
  0
VISUALSTYLE
  5
38
102
{ACAD_REACTORS
330
2A
102
}
330
2A
100
AcDbVisualStyle
  2
Linepattern
 70
    14
177
     2
291
     1
 71
     2
176
     1
 72
     2
176
     1
 73
     0
176
     1
 90
        0
176
     1
 40
-0.6
176
     1
 41
-30.0
176
     1
 62
     5
 63
     7
421
 16777215
176
     1
 74
     1
176
     1
 91
        4
176
     1
 64
     7
176
     1
 65
   257
176
     1
 75
     7
176
     1
175
     7
176
     1
 42
1.0
176
     1
 92
        8
176
     1
 66
     7
176
     1
 43
1.0
176
     1
 76
     1
176
     1
 77
     6
176
     1
 78
     2
176
     1
 67
     7
176
     1
 79
     5
176
     1
170
     0
176
     1
171
     0
176
     1
290
     0
176
     1
 93
        1
176
     1
 44
0.0
176
     1
173
     0
176
     1
  0
VISUALSTYLE
  5
33
102
{ACAD_REACTORS
330
2A
102
}
330
2A
100
AcDbVisualStyle
  2
Realistic
 70
     8
177
     2
291
     0
 71
     2
176
     1
 72
     2
176
     1
 73
     0
176
     1
 90
        0
176
     1
 40
-0.6
176
     1
 41
-30.0
176
     1
 62
     5
 63
     7
421
 16777215
176
     1
 74
     1
176
     1
 91
        0
176
     1
 64
     7
176
     1
 65
   257
176
     1
 75
     1
176
     1
175
     1
176
     1
 42
1.0
176
     1
 92
        8
176
     1
 66
     8
424
  7895160
176
     1
 43
1.0
176
     1
 76
     1
176
     1
 77
     6
176
     1
 78
     2
176
     1
 67
     7
176
     1
 79
     5
176
     1
170
     0
176
     1
171
     0
176
     1
290
     0
176
     1
 93
       13
176
     1
 44
0.0
176
     1
173
     0
176
     1
  0
VISUALSTYLE
  5
37
102
{ACAD_REACTORS
330
2A
102
}
330
2A
100
AcDbVisualStyle
  2
Thicken
 70
    13
177
     2
291
     1
 71
     2
176
     1
 72
     2
176
     1
 73
     0
176
     1
 90
        0
176
     1
 40
-0.6
176
     1
 41
-30.0
176
     1
 62
     5
 63
     7
421
 16777215
176
     1
 74
     1
176
     1
 91
        4
176
     1
 64
     7
176
     1
 65
   257
176
     1
 75
     1
176
     1
175
     1
176
     1
 42
1.0
176
     1
 92
       12
176
     1
 66
     7
176
     1
 43
1.0
176
     1
 76
     1
176
     1
 77
     6
176
     1
 78
     2
176
     1
 67
     7
176
     1
 79
     5
176
     1
170
     0
176
     1
171
     0
176
     1
290
     0
176
     1
 93
        1
176
     1
 44
0.0
176
     1
173
     0
176
     1
  0
ENDSEC
  0
EOF
