  0
SECTION
  2
HEADER
  9
$ACADVER
  1
AC1024
  9
$ACADMAINTVER
 70
     6
  9
$DWGCODEPAGE
  3
UNDEFINED
  9
$INSBASE
 10
0.0
 20
0.0
 30
0.0
  9
$EXTMIN
 10
1.000000000000000E+20
 20
1.000000000000000E+20
 30
1.000000000000000E+20
  9
$EXTMAX
 10
-1.000000000000000E+20
 20
-1.000000000000000E+20
 30
-1.000000000000000E+20
  9
$LIMMIN
 10
0.0
 20
0.0
  9
$LIMMAX
 10
12.0
 20
9.0
  9
$ORTHOMODE
 70
     0
  9
$REGENMODE
 70
     1
  9
$FILLMODE
 70
     1
  9
$QTEXTMODE
 70
     0
  9
$MIRRTEXT
 70
     1
  9
$LTSCALE
 40
1.0
  9
$ATTMODE
 70
     1
  9
$TEXTSIZE
 40
0.2
  9
$TRACEWID
 40
0.05
  9
$TEXTSTYLE
  7
Standard
  9
$CLAYER
  8
0
  9
$CELTYPE
  6
ByLayer
  9
$CECOLOR
 62
   256
  9
$CELTSCALE
 40
1.0
  9
$DISPSILH
 70
     0
  9
$DIMSCALE
 40
1.0
  9
$DIMASZ
 40
0.18
  9
$DIMEXO
 40
0.0625
  9
$DIMDLI
 40
0.38
  9
$DIMRND
 40
0.0
  9
$DIMDLE
 40
0.0
  9
$DIMEXE
 40
0.18
  9
$DIMTP
 40
0.0
  9
$DIMTM
 40
0.0
  9
$DIMTXT
 40
0.18
  9
$DIMCEN
 40
0.09
  9
$DIMTSZ
 40
0.0
  9
$DIMTOL
 70
     0
  9
$DIMLIM
 70
     0
  9
$DIMTIH
 70
     1
  9
$DIMTOH
 70
     1
  9
$DIMSE1
 70
     0
  9
$DIMSE2
 70
     0
  9
$DIMTAD
 70
     0
  9
$DIMZIN
 70
     0
  9
$DIMBLK
  1

  9
$DIMASO
 70
     1
  9
$DIMSHO
 70
     1
  9
$DIMPOST
  1

  9
$DIMAPOST
  1

  9
$DIMALT
 70
     0
  9
$DIMALTD
 70
     2
  9
$DIMALTF
 40
25.4
  9
$DIMLFAC
 40
1.0
  9
$DIMTOFL
 70
     0
  9
$DIMTVP
 40
0.0
  9
$DIMTIX
 70
     0
  9
$DIMSOXD
 70
     0
  9
$DIMSAH
 70
     0
  9
$DIMBLK1
  1

  9
$DIMBLK2
  1

  9
$DIMSTYLE
  2
Standard
  9
$DIMCLRD
 70
     0
  9
$DIMCLRE
 70
     0
  9
$DIMCLRT
 70
     0
  9
$DIMTFAC
 40
1.0
  9
$DIMGAP
 40
0.09
  9
$DIMJUST
 70
     0
  9
$DIMSD1
 70
     0
  9
$DIMSD2
 70
     0
  9
$DIMTOLJ
 70
     1
  9
$DIMTZIN
 70
     0
  9
$DIMALTZ
 70
     0
  9
$DIMALTTZ
 70
     0
  9
$DIMUPT
 70
     0
  9
$DIMDEC
 70
     4
  9
$DIMTDEC
 70
     4
  9
$DIMALTU
 70
     2
  9
$DIMALTTD
 70
     2
  9
$DIMTXSTY
  7
Standard
  9
$DIMAUNIT
 70
     0
  9
$DIMADEC
 70
     0
  9
$DIMALTRND
 40
0.0
  9
$DIMAZIN
 70
     0
  9
$DIMDSEP
 70
    46
  9
$DIMATFIT
 70
     3
  9
$DIMFRAC
 70
     0
  9
$DIMLDRBLK
  1

  9
$DIMLUNIT
 70
     2
  9
$DIMLWD
 70
    -2
  9
$DIMLWE
 70
    -2
  9
$DIMTMOVE
 70
     0
  9
$DIMFXL
 40
1.0
  9
$DIMFXLON
 70
     0
  9
$DIMJOGANG
 40
0.7853981633974483
  9
$DIMTFILL
 70
     0
  9
$DIMTFILLCLR
 70
     0
  9
$DIMARCSYM
 70
     0
  9
$DIMLTYPE
  6

  9
$DIMLTEX1
  6

  9
$DIMLTEX2
  6

  9
$DIMTXTDIRECTION
 70
     0
  9
$LUNITS
 70
     2
  9
$LUPREC
 70
     4
  9
$SKETCHINC
 40
0.1
  9
$FILLETRAD
 40
0.5
  9
$AUNITS
 70
     0
  9
$AUPREC
 70
     0
  9
$MENU
  1
.
  9
$ELEVATION
 40
0.0
  9
$PELEVATION
 40
0.0
  9
$THICKNESS
 40
0.0
  9
$LIMCHECK
 70
     0
  9
$CHAMFERA
 40
0.5
  9
$CHAMFERB
 40
0.5
  9
$CHAMFERC
 40
1.0
  9
$CHAMFERD
 40
0.0
  9
$SKPOLY
 70
     0
  9
$TDCREATE
 40
2457917.610011563
  9
$TDUCREATE
 40
2457917.235011574
  9
$TDUPDATE
 40
2457917.610011563
  9
$TDUUPDATE
 40
2457917.235011574
  9
$TDINDWG
 40
0.0000000116
  9
$TDUSRTIMER
 40
0.0000000116
  9
$USRTIMER
 70
     1
  9
$ANGBASE
 50
0.0
  9
$ANGDIR
 70
     0
  9
$PDMODE
 70
     0
  9
$PDSIZE
 40
0.0
  9
$PLINEWID
 40
0.0
  9
$SPLFRAME
 70
     0
  9
$SPLINETYPE
 70
     6
  9
$SPLINESEGS
 70
     8
  9
$HANDSEED
  5
AE
  9
$SURFTAB1
 70
     6
  9
$SURFTAB2
 70
     6
  9
$SURFTYPE
 70
     6
  9
$SURFU
 70
     6
  9
$SURFV
 70
     6
  9
$UCSBASE
  2

  9
$UCSNAME
  2

  9
$UCSORG
 10
0.0
 20
0.0
 30
0.0
  9
$UCSXDIR
 10
1.0
 20
0.0
 30
0.0
  9
$UCSYDIR
 10
0.0
 20
1.0
 30
0.0
  9
$UCSORTHOREF
  2

  9
$UCSORTHOVIEW
 70
     0
  9
$UCSORGTOP
 10
0.0
 20
0.0
 30
0.0
  9
$UCSORGBOTTOM
 10
0.0
 20
0.0
 30
0.0
  9
$UCSORGLEFT
 10
0.0
 20
0.0
 30
0.0
  9
$UCSORGRIGHT
 10
0.0
 20
0.0
 30
0.0
  9
$UCSORGFRONT
 10
0.0
 20
0.0
 30
0.0
  9
$UCSORGBACK
 10
0.0
 20
0.0
 30
0.0
  9
$PUCSBASE
  2

  9
$PUCSNAME
  2

  9
$PUCSORG
 10
0.0
 20
0.0
 30
0.0
  9
$PUCSXDIR
 10
1.0
 20
0.0
 30
0.0
  9
$PUCSYDIR
 10
0.0
 20
1.0
 30
0.0
  9
$PUCSORTHOREF
  2

  9
$PUCSORTHOVIEW
 70
     0
  9
$PUCSORGTOP
 10
0.0
 20
0.0
 30
0.0
  9
$PUCSORGBOTTOM
 10
0.0
 20
0.0
 30
0.0
  9
$PUCSORGLEFT
 10
0.0
 20
0.0
 30
0.0
  9
$PUCSORGRIGHT
 10
0.0
 20
0.0
 30
0.0
  9
$PUCSORGFRONT
 10
0.0
 20
0.0
 30
0.0
  9
$PUCSORGBACK
 10
0.0
 20
0.0
 30
0.0
  9
$USERI1
 70
     0
  9
$USERI2
 70
     0
  9
$USERI3
 70
     0
  9
$USERI4
 70
     0
  9
$USERI5
 70
     0
  9
$USERR1
 40
0.0
  9
$USERR2
 40
0.0
  9
$USERR3
 40
0.0
  9
$USERR4
 40
0.0
  9
$USERR5
 40
0.0
  9
$WORLDVIEW
 70
     1
  9
$SHADEDGE
 70
     3
  9
$SHADEDIF
 70
    70
  9
$TILEMODE
 70
     1
  9
$MAXACTVP
 70
    64
  9
$PINSBASE
 10
0.0
 20
0.0
 30
0.0
  9
$PLIMCHECK
 70
     0
  9
$PEXTMIN
 10
1.000000000000000E+20
 20
1.000000000000000E+20
 30
1.000000000000000E+20
  9
$PEXTMAX
 10
-1.000000000000000E+20
 20
-1.000000000000000E+20
 30
-1.000000000000000E+20
  9
$PLIMMIN
 10
0.0
 20
0.0
  9
$PLIMMAX
 10
12.0
 20
9.0
  9
$UNITMODE
 70
     0
  9
$VISRETAIN
 70
     1
  9
$PLINEGEN
 70
     0
  9
$PSLTSCALE
 70
     1
  9
$TREEDEPTH
 70
  3020
  9
$CMLSTYLE
  2
Standard
  9
$CMLJUST
 70
     0
  9
$CMLSCALE
 40
1.0
  9
$PROXYGRAPHICS
 70
     1
  9
$MEASUREMENT
 70
     0
  9
$CELWEIGHT
370
    -1
  9
$ENDCAPS
280
     0
  9
$JOINSTYLE
280
     0
  9
$LWDISPLAY
290
     1
  9
$INSUNITS
 70
     1
  9
$HYPERLINKBASE
  1

  9
$STYLESHEET
  1

  9
$XEDIT
290
     1
  9
$CEPSNTYPE
380
     0
  9
$PSTYLEMODE
290
     1
  9
$FINGERPRINTGUID
  2
{FA96B49D-E778-F923-867A-82E0CCDB0A47}
  9
$VERSIONGUID
  2
{FAEB1C32-E019-11D5-929B-00C0DF256EC4}
  9
$EXTNAMES
290
     1
  9
$PSVPSCALE
 40
0.0
  9
$OLESTARTUP
290
     0
  9
$SORTENTS
280
   127
  9
$INDEXCTL
280
     0
  9
$HIDETEXT
280
     1
  9
$XCLIPFRAME
280
     2
  9
$HALOGAP
280
     0
  9
$OBSCOLOR
 70
   257
  9
$OBSLTYPE
280
     0
  9
$INTERSECTIONDISPLAY
280
     0
  9
$INTERSECTIONCOLOR
 70
   257
  9
$DIMASSOC
280
     2
  9
$PROJECTNAME
  1

  9
$CAMERADISPLAY
290
     0
  9
$LENSLENGTH
 40
50.0
  9
$CAMERAHEIGHT
 40
0.0
  9
$STEPSPERSEC
 40
2.0
  9
$STEPSIZE
 40
6.0
  9
$3DDWFPREC
 40
2.0
  9
$PSOLWIDTH
 40
0.25
  9
$PSOLHEIGHT
 40
4.0
  9
$LOFTANG1
 40
1.570796326794897
  9
$LOFTANG2
 40
1.570796326794897
  9
$LOFTMAG1
 40
0.0
  9
$LOFTMAG2
 40
0.0
  9
$LOFTPARAM
 70
     7
  9
$LOFTNORMALS
280
     1
  9
$LATITUDE
 40
37.795
  9
$LONGITUDE
 40
-122.394
  9
$NORTHDIRECTION
 40
0.0
  9
$TIMEZONE
 70
 -8000
  9
$LIGHTGLYPHDISPLAY
280
     1
  9
$TILEMODELIGHTSYNCH
280
     1
  9
$CMATERIAL
347
3C
  9
$SOLIDHIST
280
     1
  9
$SHOWHIST
280
     1
  9
$DWFFRAME
280
     2
  9
$DGNFRAME
280
     2
  9
$REALWORLDSCALE
290
     1
  9
$INTERFERECOLOR
 62
   256
  9
$CSHADOW
280
     0
  9
$SHADOWPLANELOCATION
 40
0.0
  0
ENDSEC
  0
SECTION
  2
CLASSES
  0
CLASS
  1
ACDBDICTIONARYWDFLT
  2
AcDbDictionaryWithDefault
  3
ObjectDBX Classes
 90
        0
 91
        4
280
     0
281
     0
  0
CLASS
  1
VISUALSTYLE
  2
AcDbVisualStyle
  3
ObjectDBX Classes
 90
     4095
 91
        4
280
     0
281
     0
  0
CLASS
  1
MATERIAL
  2
AcDbMaterial
  3
ObjectDBX Classes
 90
     1153
 91
        4
280
     0
281
     0
  0
CLASS
  1
SUN
  2
AcDbSun
  3
SCENEOE
 90
     1024
 91
        4
280
     0
281
     0
  0
ENDSEC
  0
SECTION
  2
TABLES
  0
TABLE
  2
VPORT
  5
8
330
0
100
AcDbSymbolTable
 70
     1
  0
VPORT
  5
29
330
8
100
AcDbSymbolTableRecord
100
AcDbViewportTableRecord
  2
*Active
 70
     0
 10
0.0
 20
0.0
 11
1.0
 21
1.0
 12
0.0
 22
0.0
 13
0.0
 23
0.0
 14
0.5
 24
0.5
 15
0.5
 25
0.5
 16
0.0
 26
0.0
 36
1.0
 17
91.00082462281999
 27
-128.4993055234307
 37
0.0
 40
256.9986110468615
 41
0.7081814508812795
 42
50.0
 43
0.0
 44
0.0
 50
0.0
 51
0.0
 71
     0
 72
   100
 73
     1
 74
     3
 75
     0
 76
     0
 77
     0
 78
     0
281
     0
 65
     1
110
0.0
120
0.0
130
0.0
111
1.0
121
0.0
131
0.0
112
0.0
122
1.0
132
0.0
 79
     0
146
0.0
 60
     3
 61
     5
292
     1
282
     1
141
0.0
142
0.0
 63
   250
361
3F
  0
ENDTAB
  0
TABLE
  2
LTYPE
  5
5
330
0
100
AcDbSymbolTable
 70
     1
  0
LTYPE
  5
14
330
5
100
AcDbSymbolTableRecord
100
AcDbLinetypeTableRecord
  2
ByBlock
 70
     0
  3

 72
    65
 73
     0
 40
0.0
  0
LTYPE
  5
15
330
5
100
AcDbSymbolTableRecord
100
AcDbLinetypeTableRecord
  2
ByLayer
 70
     0
  3

 72
    65
 73
     0
 40
0.0
  0
LTYPE
  5
16
330
5
100
AcDbSymbolTableRecord
100
AcDbLinetypeTableRecord
  2
Continuous
 70
     0
  3
Solid line
 72
    65
 73
     0
 40
0.0
  0
ENDTAB
  0
TABLE
  2
LAYER
  5
2
330
0
100
AcDbSymbolTable
 70
     2
  0
LAYER
  5
10
330
2
100
AcDbSymbolTableRecord
100
AcDbLayerTableRecord
  2
0
 70
     0
 62
     7
  6
Continuous
370
    -3
390
F
347
3E
  0
LAYER
  5
40
330
2
100
AcDbSymbolTableRecord
100
AcDbLayerTableRecord
  2
_U+30EC_U+30A4_U+30E4_U+30FC 1
 70
     0
 62
     7
  6
Continuous
370
    -3
390
F
347
3E
  0
ENDTAB
  0
TABLE
  2
STYLE
  5
3
330
0
100
AcDbSymbolTable
 70
     1
  0
STYLE
  5
11
330
3
100
AcDbSymbolTableRecord
100
AcDbTextStyleTableRecord
  2
Standard
 70
     0
 40
0.0
 41
1.0
 50
0.0
 71
     0
 42
0.2
  3
txt
  4

  0
ENDTAB
  0
TABLE
  2
VIEW
  5
6
330
0
100
AcDbSymbolTable
 70
     0
  0
ENDTAB
  0
TABLE
  2
UCS
  5
7
330
0
100
AcDbSymbolTable
 70
     0
  0
ENDTAB
  0
TABLE
  2
APPID
  5
9
330
0
100
AcDbSymbolTable
 70
     1
  0
APPID
  5
12
330
9
100
AcDbSymbolTableRecord
100
AcDbRegAppTableRecord
  2
ACAD
 70
     0
  0
ENDTAB
  0
TABLE
  2
DIMSTYLE
  5
A
330
0
100
AcDbSymbolTable
 70
     1
100
AcDbDimStyleTable
  0
DIMSTYLE
105
27
330
A
100
AcDbSymbolTableRecord
100
AcDbDimStyleTableRecord
  2
Standard
 70
     0
178
     0
340
11
  0
ENDTAB
  0
TABLE
  2
BLOCK_RECORD
  5
1
330
0
100
AcDbSymbolTable
 70
     4
  0
BLOCK_RECORD
  5
1F
330
1
100
AcDbSymbolTableRecord
100
AcDbBlockTableRecord
  2
*Model_Space
340
22
 70
     0
280
     1
281
     0
  0
BLOCK_RECORD
  5
1B
330
1
100
AcDbSymbolTableRecord
100
AcDbBlockTableRecord
  2
*Paper_Space
340
1E
 70
     0
280
     1
281
     0
  0
BLOCK_RECORD
  5
23
330
1
100
AcDbSymbolTableRecord
100
AcDbBlockTableRecord
  2
*Paper_Space0
340
26
 70
     0
280
     1
281
     0
  0
BLOCK_RECORD
  5
42
330
1
100
AcDbSymbolTableRecord
100
AcDbBlockTableRecord
  2
block 2
340
0
102
{BLKREFS
331
43
102
}
 70
     0
280
     1
281
     0
  0
BLOCK_RECORD
  5
67
330
1
100
AcDbSymbolTableRecord
100
AcDbBlockTableRecord
  2
block 3
340
0
102
{BLKREFS
331
68
102
}
 70
     0
280
     1
281
     0
  0
BLOCK_RECORD
  5
87
330
1
100
AcDbSymbolTableRecord
100
AcDbBlockTableRecord
  2
block 4
340
0
102
{BLKREFS
331
88
102
}
 70
     0
280
     1
281
     0
  0
ENDTAB
  0
ENDSEC
  0
SECTION
  2
BLOCKS
  0
BLOCK
  5
20
330
1F
100
AcDbEntity
  8
0
100
AcDbBlockBegin
  2
*Model_Space
 70
     0
 10
0.0
 20
0.0
 30
0.0
  3
*Model_Space
  1

  0
ENDBLK
  5
21
330
1F
100
AcDbEntity
  8
0
100
AcDbBlockEnd
  0
BLOCK
  5
1C
330
1B
100
AcDbEntity
 67
     1
  8
0
100
AcDbBlockBegin
  2
*Paper_Space
 70
     0
 10
0.0
 20
0.0
 30
0.0
  3
*Paper_Space
  1

  0
ENDBLK
  5
1D
330
1B
100
AcDbEntity
 67
     1
  8
0
100
AcDbBlockEnd
  0
BLOCK
  5
24
330
23
100
AcDbEntity
  8
0
100
AcDbBlockBegin
  2
*Paper_Space0
 70
     0
 10
0.0
 20
0.0
 30
0.0
  3
*Paper_Space0
  1

  0
ENDBLK
  5
25
330
23
100
AcDbEntity
  8
0
100
AcDbBlockEnd
  0
BLOCK
  5
44
330
42
100
AcDbEntity
  8
0
100
AcDbBlockBegin
  2
block 2
 70
     0
 10
0.0
 20
0.0
 30
0.0
  3
block 2
  1

  0
SPLINE
  5
46
330
42
100
AcDbEntity
  8
_U+30EC_U+30A4_U+30E4_U+30FC 1
370
     0
100
AcDbSpline
210
0.0
220
0.0
230
1.0
 70
    11
 71
     3
 72
    44
 73
    40
 74
     0
 42
0.0000000001
 43
0.0000000001
 12
1.0
 22
0.0
 32
0.0
 13
1.0
 23
0.0
 33
0.0
 40
0.0
 40
0.0
 40
0.0
 40
0.0
 40
1.0
 40
1.0
 40
1.0
 40
2.0
 40
2.0
 40
2.0
 40
3.0
 40
3.0
 40
3.0
 40
4.0
 40
4.0
 40
4.0
 40
5.0
 40
5.0
 40
5.0
 40
6.0
 40
6.0
 40
6.0
 40
7.0
 40
7.0
 40
7.0
 40
8.0
 40
8.0
 40
8.0
 40
9.0
 40
9.0
 40
9.0
 40
10.0
 40
10.0
 40
10.0
 40
11.0
 40
11.0
 40
11.0
 40
12.0
 40
12.0
 40
12.0
 40
13.0
 40
13.0
 40
13.0
 40
13.0
 10
85.22167152817376
 20
-128.8179768558163
 30
0.0
 10
85.19824487887405
 20
-128.7735351240566
 30
0.0
 10
85.17722979641403
 20
-128.720652908358
 30
0.0
 10
85.17499048434861
 20
-128.4900037656206
 30
0.0
 10
85.17085636976631
 20
-128.2467800243619
 30
0.0
 10
85.11160072742003
 20
-128.1770168407856
 30
0.0
 10
84.93383380038112
 20
-128.1770168407856
 30
0.0
 10
84.93383380038112
 20
-128.1770168407856
 30
0.0
 10
84.52558998537903
 20
-128.1770168407856
 30
0.0
 10
84.52558998537903
 20
-128.1770168407856
 30
0.0
 10
84.52558998537903
 20
-128.1770168407856
 30
0.0
 10
84.52558998537903
 20
-128.8179768558163
 30
0.0
 10
84.52558998537903
 20
-128.8179768558163
 30
0.0
 10
84.52558998537903
 20
-128.8179768558163
 30
0.0
 10
84.29080672805925
 20
-128.8179768558163
 30
0.0
 10
84.29080672805925
 20
-128.8179768558163
 30
0.0
 10
84.29080672805925
 20
-128.8179768558163
 30
0.0
 10
84.29080672805925
 20
-127.2737128045531
 30
0.0
 10
84.29080672805925
 20
-127.2737128045531
 30
0.0
 10
84.29080672805925
 20
-127.2737128045531
 30
0.0
 10
84.96552867884543
 20
-127.2737128045531
 30
0.0
 10
84.96552867884543
 20
-127.2737128045531
 30
0.0
 10
85.27231443180692
 20
-127.2737128045531
 30
0.0
 10
85.43957381761581
 20
-127.44493405017
 30
0.0
 10
85.43957381761581
 20
-127.7010768994983
 30
0.0
 10
85.43957381761581
 20
-127.7517198031315
 30
0.0
 10
85.43096107890268
 20
-127.8342298400033
 30
0.0
 10
85.38651934714295
 20
-127.9146728195838
 30
0.0
 10
85.32743595957092
 20
-128.0183701936899
 30
0.0
 10
85.2618068905769
 20
-128.0373182188587
 30
0.0
 10
85.20048419093946
 20
-128.0541991867365
 30
0.0
 10
85.33794350080093
 20
-128.096573861205
 30
0.0
 10
85.40563962708609
 20
-128.1453219623213
 30
0.0
 10
85.40994599644266
 20
-128.4603759444474
 30
0.0
 10
85.41408011102496
 20
-128.7311604495881
 30
0.0
 10
85.45008135884582
 20
-128.7630275828266
 30
0.0
 10
85.51777748513098
 20
-128.8179768558163
 30
0.0
 10
85.51777748513098
 20
-128.8179768558163
 30
0.0
 10
85.22167152817376
 20
-128.8179768558163
 30
0.0
 10
85.22167152817376
 20
-128.8179768558163
 30
0.0
  0
SPLINE
  5
47
330
42
100
AcDbEntity
  8
_U+30EC_U+30A4_U+30E4_U+30FC 1
370
     0
100
AcDbSpline
210
0.0
220
0.0
230
1.0
 70
    11
 71
     3
 72
    20
 73
    16
 74
     0
 42
0.0000000001
 43
0.0000000001
 12
1.0
 22
0.0
 32
0.0
 13
1.0
 23
0.0
 33
0.0
 40
0.0
 40
0.0
 40
0.0
 40
0.0
 40
1.0
 40
1.0
 40
1.0
 40
2.0
 40
2.0
 40
2.0
 40
3.0
 40
3.0
 40
3.0
 40
4.0
 40
4.0
 40
4.0
 40
5.0
 40
5.0
 40
5.0
 40
5.0
 10
84.96983504820199
 20
-127.4852416673475
 30
0.0
 10
84.96983504820199
 20
-127.4852416673475
 30
0.0
 10
84.52558998537903
 20
-127.4852416673475
 30
0.0
 10
84.52558998537903
 20
-127.4852416673475
 30
0.0
 10
84.52558998537903
 20
-127.4852416673475
 30
0.0
 10
84.52558998537903
 20
-127.9654879779913
 30
0.0
 10
84.52558998537903
 20
-127.9654879779913
 30
0.0
 10
84.52558998537903
 20
-127.9654879779913
 30
0.0
 10
84.96776799091084
 20
-127.9654879779913
 30
0.0
 10
84.96776799091084
 20
-127.9654879779913
 30
0.0
 10
85.0671589956603
 20
-127.9654879779913
 30
0.0
 10
85.20255124823062
 20
-127.8893513677672
 30
0.0
 10
85.20255124823062
 20
-127.7179578673761
 30
0.0
 10
85.20255124823062
 20
-127.6395819450866
 30
0.0
 10
85.16878931247517
 20
-127.4852416673475
 30
0.0
 10
84.96983504820199
 20
-127.4852416673475
 30
0.0
  0
HATCH
  5
48
330
42
100
AcDbEntity
  8
_U+30EC_U+30A4_U+30E4_U+30FC 1
 62
   179
420
  2234388
100
AcDbHatch
 10
0.0
 20
0.0
 30
0.0
210
0.0
220
0.0
230
1.0
  2
SOLID
 70
     1
 71
     0
 91
        2
 92
        1
 93
        1
 72
     4
 94
        3
 73
     0
 74
     1
 95
       44
 96
       40
 40
0.0
 40
0.0
 40
0.0
 40
0.0
 40
1.0
 40
1.0
 40
1.0
 40
2.0
 40
2.0
 40
2.0
 40
3.0
 40
3.0
 40
3.0
 40
4.0
 40
4.0
 40
4.0
 40
5.0
 40
5.0
 40
5.0
 40
6.0
 40
6.0
 40
6.0
 40
7.0
 40
7.0
 40
7.0
 40
8.0
 40
8.0
 40
8.0
 40
9.0
 40
9.0
 40
9.0
 40
10.0
 40
10.0
 40
10.0
 40
11.0
 40
11.0
 40
11.0
 40
12.0
 40
12.0
 40
12.0
 40
13.0
 40
13.0
 40
13.0
 40
13.0
 10
85.22167152817376
 20
-128.8179768558163
 10
85.19824487887405
 20
-128.7735351240566
 10
85.17722979641403
 20
-128.720652908358
 10
85.17499048434861
 20
-128.4900037656206
 10
85.17085636976631
 20
-128.2467800243619
 10
85.11160072742003
 20
-128.1770168407856
 10
84.93383380038112
 20
-128.1770168407856
 10
84.93383380038112
 20
-128.1770168407856
 10
84.52558998537903
 20
-128.1770168407856
 10
84.52558998537903
 20
-128.1770168407856
 10
84.52558998537903
 20
-128.1770168407856
 10
84.52558998537903
 20
-128.8179768558163
 10
84.52558998537903
 20
-128.8179768558163
 10
84.52558998537903
 20
-128.8179768558163
 10
84.29080672805925
 20
-128.8179768558163
 10
84.29080672805925
 20
-128.8179768558163
 10
84.29080672805925
 20
-128.8179768558163
 10
84.29080672805925
 20
-127.2737128045531
 10
84.29080672805925
 20
-127.2737128045531
 10
84.29080672805925
 20
-127.2737128045531
 10
84.96552867884543
 20
-127.2737128045531
 10
84.96552867884543
 20
-127.2737128045531
 10
85.27231443180692
 20
-127.2737128045531
 10
85.43957381761581
 20
-127.44493405017
 10
85.43957381761581
 20
-127.7010768994983
 10
85.43957381761581
 20
-127.7517198031315
 10
85.43096107890268
 20
-127.8342298400033
 10
85.38651934714295
 20
-127.9146728195838
 10
85.32743595957092
 20
-128.0183701936899
 10
85.2618068905769
 20
-128.0373182188587
 10
85.20048419093946
 20
-128.0541991867365
 10
85.33794350080093
 20
-128.096573861205
 10
85.40563962708609
 20
-128.1453219623213
 10
85.40994599644266
 20
-128.4603759444474
 10
85.41408011102496
 20
-128.7311604495881
 10
85.45008135884582
 20
-128.7630275828266
 10
85.51777748513098
 20
-128.8179768558163
 10
85.51777748513098
 20
-128.8179768558163
 10
85.22167152817376
 20
-128.8179768558163
 10
85.22167152817376
 20
-128.8179768558163
 97
        0
 97
        0
 92
        1
 93
        1
 72
     4
 94
        3
 73
     0
 74
     1
 95
       20
 96
       16
 40
0.0
 40
0.0
 40
0.0
 40
0.0
 40
1.0
 40
1.0
 40
1.0
 40
2.0
 40
2.0
 40
2.0
 40
3.0
 40
3.0
 40
3.0
 40
4.0
 40
4.0
 40
4.0
 40
5.0
 40
5.0
 40
5.0
 40
5.0
 10
84.96983504820199
 20
-127.4852416673475
 10
84.96983504820199
 20
-127.4852416673475
 10
84.52558998537903
 20
-127.4852416673475
 10
84.52558998537903
 20
-127.4852416673475
 10
84.52558998537903
 20
-127.4852416673475
 10
84.52558998537903
 20
-127.9654879779913
 10
84.52558998537903
 20
-127.9654879779913
 10
84.52558998537903
 20
-127.9654879779913
 10
84.96776799091084
 20
-127.9654879779913
 10
84.96776799091084
 20
-127.9654879779913
 10
85.0671589956603
 20
-127.9654879779913
 10
85.20255124823062
 20
-127.8893513677672
 10
85.20255124823062
 20
-127.7179578673761
 10
85.20255124823062
 20
-127.6395819450866
 10
85.16878931247517
 20
-127.4852416673475
 10
84.96983504820199
 20
-127.4852416673475
 97
        0
 97
        0
 75
     2
 76
     1
 98
        0
  0
SPLINE
  5
49
330
42
100
AcDbEntity
  8
_U+30EC_U+30A4_U+30E4_U+30FC 1
370
     0
100
AcDbSpline
210
0.0
220
0.0
230
1.0
 70
    11
 71
     3
 72
    26
 73
    22
 74
     0
 42
0.0000000001
 43
0.0000000001
 12
1.0
 22
0.0
 32
0.0
 13
1.0
 23
0.0
 33
0.0
 40
0.0
 40
0.0
 40
0.0
 40
0.0
 40
1.0
 40
1.0
 40
1.0
 40
2.0
 40
2.0
 40
2.0
 40
3.0
 40
3.0
 40
3.0
 40
4.0
 40
4.0
 40
4.0
 40
5.0
 40
5.0
 40
5.0
 40
6.0
 40
6.0
 40
6.0
 40
7.0
 40
7.0
 40
7.0
 40
7.0
 10
86.10878361562558
 20
-128.8179768558163
 30
0.0
 10
86.10878361562558
 20
-128.8179768558163
 30
0.0
 10
86.10878361562558
 20
-127.7136514980195
 30
0.0
 10
86.10878361562558
 20
-127.7136514980195
 30
0.0
 10
86.10878361562558
 20
-127.7136514980195
 30
0.0
 10
85.77874346813866
 20
-127.7136514980195
 30
0.0
 10
85.77874346813866
 20
-127.7136514980195
 30
0.0
 10
85.77874346813866
 20
-127.7136514980195
 30
0.0
 10
85.77874346813866
 20
-127.565684646928
 30
0.0
 10
85.77874346813866
 20
-127.565684646928
 30
0.0
 10
86.11085067291674
 20
-127.5508707363415
 30
0.0
 10
86.1573594619676
 20
-127.3879177198891
 30
0.0
 10
86.18698728314075
 20
-127.2737128045531
 30
0.0
 10
86.18698728314075
 20
-127.2737128045531
 30
0.0
 10
86.33305933171535
 20
-127.2737128045531
 30
0.0
 10
86.33305933171535
 20
-127.2737128045531
 30
0.0
 10
86.33305933171535
 20
-127.2737128045531
 30
0.0
 10
86.33305933171535
 20
-128.8179768558163
 30
0.0
 10
86.33305933171535
 20
-128.8179768558163
 30
0.0
 10
86.33305933171535
 20
-128.8179768558163
 30
0.0
 10
86.10878361562558
 20
-128.8179768558163
 30
0.0
 10
86.10878361562558
 20
-128.8179768558163
 30
0.0
  0
HATCH
  5
4A
330
42
100
AcDbEntity
  8
_U+30EC_U+30A4_U+30E4_U+30FC 1
 62
   179
420
  2234388
100
AcDbHatch
 10
0.0
 20
0.0
 30
0.0
210
0.0
220
0.0
230
1.0
  2
SOLID
 70
     1
 71
     0
 91
        1
 92
        1
 93
        1
 72
     4
 94
        3
 73
     0
 74
     1
 95
       26
 96
       22
 40
0.0
 40
0.0
 40
0.0
 40
0.0
 40
1.0
 40
1.0
 40
1.0
 40
2.0
 40
2.0
 40
2.0
 40
3.0
 40
3.0
 40
3.0
 40
4.0
 40
4.0
 40
4.0
 40
5.0
 40
5.0
 40
5.0
 40
6.0
 40
6.0
 40
6.0
 40
7.0
 40
7.0
 40
7.0
 40
7.0
 10
86.10878361562558
 20
-128.8179768558163
 10
86.10878361562558
 20
-128.8179768558163
 10
86.10878361562558
 20
-127.7136514980195
 10
86.10878361562558
 20
-127.7136514980195
 10
86.10878361562558
 20
-127.7136514980195
 10
85.77874346813866
 20
-127.7136514980195
 10
85.77874346813866
 20
-127.7136514980195
 10
85.77874346813866
 20
-127.7136514980195
 10
85.77874346813866
 20
-127.565684646928
 10
85.77874346813866
 20
-127.565684646928
 10
86.11085067291674
 20
-127.5508707363415
 10
86.1573594619676
 20
-127.3879177198891
 10
86.18698728314075
 20
-127.2737128045531
 10
86.18698728314075
 20
-127.2737128045531
 10
86.33305933171535
 20
-127.2737128045531
 10
86.33305933171535
 20
-127.2737128045531
 10
86.33305933171535
 20
-127.2737128045531
 10
86.33305933171535
 20
-128.8179768558163
 10
86.33305933171535
 20
-128.8179768558163
 10
86.33305933171535
 20
-128.8179768558163
 10
86.10878361562558
 20
-128.8179768558163
 10
86.10878361562558
 20
-128.8179768558163
 97
        0
 97
        0
 75
     2
 76
     1
 98
        0
  0
SPLINE
  5
4B
330
42
100
AcDbEntity
  8
_U+30EC_U+30A4_U+30E4_U+30FC 1
370
     0
100
AcDbSpline
210
0.0
220
0.0
230
1.0
 70
    11
 71
     3
 72
    53
 73
    49
 74
     0
 42
0.0000000001
 43
0.0000000001
 12
1.0
 22
0.0
 32
0.0
 13
1.0
 23
0.0
 33
0.0
 40
0.0
 40
0.0
 40
0.0
 40
0.0
 40
1.0
 40
1.0
 40
1.0
 40
2.0
 40
2.0
 40
2.0
 40
3.0
 40
3.0
 40
3.0
 40
4.0
 40
4.0
 40
4.0
 40
5.0
 40
5.0
 40
5.0
 40
6.0
 40
6.0
 40
6.0
 40
7.0
 40
7.0
 40
7.0
 40
8.0
 40
8.0
 40
8.0
 40
9.0
 40
9.0
 40
9.0
 40
10.0
 40
10.0
 40
10.0
 40
11.0
 40
11.0
 40
11.0
 40
12.0
 40
12.0
 40
12.0
 40
13.0
 40
13.0
 40
13.0
 40
14.0
 40
14.0
 40
14.0
 40
15.0
 40
15.0
 40
15.0
 40
16.0
 40
16.0
 40
16.0
 40
16.0
 10
87.31525605456008
 20
-128.8686197594495
 30
0.0
 10
87.23688013227064
 20
-128.8686197594495
 30
0.0
 10
87.13542207023004
 20
-128.8517387915718
 30
0.0
 10
87.03379175341517
 20
-128.7883490346432
 30
0.0
 10
86.86033119573284
 20
-128.6782782338895
 30
0.0
 10
86.83914385849855
 20
-128.5471923506757
 30
0.0
 10
86.82019583332968
 20
-128.4393608619874
 30
0.0
 10
86.82019583332968
 20
-128.4393608619874
 30
0.0
 10
87.04223223735403
 20
-128.4393608619874
 30
0.0
 10
87.04223223735403
 20
-128.4393608619874
 30
0.0
 10
87.09735376511803
 20
-128.6381428714863
 30
0.0
 10
87.22430553374949
 20
-128.6677706926594
 30
0.0
 10
87.31732311185122
 20
-128.6677706926594
 30
0.0
 10
87.4570217337781
 20
-128.6677706926594
 30
0.0
 10
87.60929495422616
 20
-128.56837968791
 30
0.0
 10
87.60929495422616
 20
-128.3356634878814
 30
0.0
 10
87.60929495422616
 20
-128.0796928933273
 30
0.0
 10
87.42946096989611
 20
-128.009929709751
 30
0.0
 10
87.30888262791237
 20
-128.009929709751
 30
0.0
 10
87.27718774944807
 20
-128.009929709751
 30
0.0
 10
87.13542207023004
 20
-128.009929709751
 30
0.0
 10
87.0465386067106
 20
-128.1389485356736
 30
0.0
 10
87.0465386067106
 20
-128.1389485356736
 30
0.0
 10
86.87101099173711
 20
-128.1198282557305
 30
0.0
 10
86.87101099173711
 20
-128.1198282557305
 30
0.0
 10
86.87101099173711
 20
-128.1198282557305
 30
0.0
 10
86.99158933372085
 20
-127.2737128045531
 30
0.0
 10
86.99158933372085
 20
-127.2737128045531
 30
0.0
 10
86.99158933372085
 20
-127.2737128045531
 30
0.0
 10
87.77000865861305
 20
-127.2737128045531
 30
0.0
 10
87.77000865861305
 20
-127.2737128045531
 30
0.0
 10
87.77000865861305
 20
-127.2737128045531
 30
0.0
 10
87.77000865861305
 20
-127.4683606994697
 30
0.0
 10
87.77000865861305
 20
-127.4683606994697
 30
0.0
 10
87.77000865861305
 20
-127.4683606994697
 30
0.0
 10
87.15437009539892
 20
-127.4683606994697
 30
0.0
 10
87.15437009539892
 20
-127.4683606994697
 30
0.0
 10
87.15437009539892
 20
-127.4683606994697
 30
0.0
 10
87.08891328117916
 20
-127.8914184250584
 30
0.0
 10
87.08891328117916
 20
-127.8914184250584
 30
0.0
 10
87.15023598081662
 20
-127.8574842345287
 30
0.0
 10
87.23274601768834
 20
-127.8173488721255
 30
0.0
 10
87.35108504760667
 20
-127.8173488721255
 30
0.0
 10
87.60498858486959
 20
-127.8173488721255
 30
0.0
 10
87.84201115425478
 20
-128.0035562831033
 30
0.0
 10
87.84201115425478
 20
-128.3165432079382
 30
0.0
 10
87.84201115425478
 20
-128.634008756904
 30
0.0
 10
87.61773543816501
 20
-128.8686197594495
 30
0.0
 10
87.31525605456008
 20
-128.8686197594495
 30
0.0
  0
HATCH
  5
4C
330
42
100
AcDbEntity
  8
_U+30EC_U+30A4_U+30E4_U+30FC 1
 62
   179
420
  2234388
100
AcDbHatch
 10
0.0
 20
0.0
 30
0.0
210
0.0
220
0.0
230
1.0
  2
SOLID
 70
     1
 71
     0
 91
        1
 92
        1
 93
        1
 72
     4
 94
        3
 73
     0
 74
     1
 95
       53
 96
       49
 40
0.0
 40
0.0
 40
0.0
 40
0.0
 40
1.0
 40
1.0
 40
1.0
 40
2.0
 40
2.0
 40
2.0
 40
3.0
 40
3.0
 40
3.0
 40
4.0
 40
4.0
 40
4.0
 40
5.0
 40
5.0
 40
5.0
 40
6.0
 40
6.0
 40
6.0
 40
7.0
 40
7.0
 40
7.0
 40
8.0
 40
8.0
 40
8.0
 40
9.0
 40
9.0
 40
9.0
 40
10.0
 40
10.0
 40
10.0
 40
11.0
 40
11.0
 40
11.0
 40
12.0
 40
12.0
 40
12.0
 40
13.0
 40
13.0
 40
13.0
 40
14.0
 40
14.0
 40
14.0
 40
15.0
 40
15.0
 40
15.0
 40
16.0
 40
16.0
 40
16.0
 40
16.0
 10
87.31525605456008
 20
-128.8686197594495
 10
87.23688013227064
 20
-128.8686197594495
 10
87.13542207023004
 20
-128.8517387915718
 10
87.03379175341517
 20
-128.7883490346432
 10
86.86033119573284
 20
-128.6782782338895
 10
86.83914385849855
 20
-128.5471923506757
 10
86.82019583332968
 20
-128.4393608619874
 10
86.82019583332968
 20
-128.4393608619874
 10
87.04223223735403
 20
-128.4393608619874
 10
87.04223223735403
 20
-128.4393608619874
 10
87.09735376511803
 20
-128.6381428714863
 10
87.22430553374949
 20
-128.6677706926594
 10
87.31732311185122
 20
-128.6677706926594
 10
87.4570217337781
 20
-128.6677706926594
 10
87.60929495422616
 20
-128.56837968791
 10
87.60929495422616
 20
-128.3356634878814
 10
87.60929495422616
 20
-128.0796928933273
 10
87.42946096989611
 20
-128.009929709751
 10
87.30888262791237
 20
-128.009929709751
 10
87.27718774944807
 20
-128.009929709751
 10
87.13542207023004
 20
-128.009929709751
 10
87.0465386067106
 20
-128.1389485356736
 10
87.0465386067106
 20
-128.1389485356736
 10
86.87101099173711
 20
-128.1198282557305
 10
86.87101099173711
 20
-128.1198282557305
 10
86.87101099173711
 20
-128.1198282557305
 10
86.99158933372085
 20
-127.2737128045531
 10
86.99158933372085
 20
-127.2737128045531
 10
86.99158933372085
 20
-127.2737128045531
 10
87.77000865861305
 20
-127.2737128045531
 10
87.77000865861305
 20
-127.2737128045531
 10
87.77000865861305
 20
-127.2737128045531
 10
87.77000865861305
 20
-127.4683606994697
 10
87.77000865861305
 20
-127.4683606994697
 10
87.77000865861305
 20
-127.4683606994697
 10
87.15437009539892
 20
-127.4683606994697
 10
87.15437009539892
 20
-127.4683606994697
 10
87.15437009539892
 20
-127.4683606994697
 10
87.08891328117916
 20
-127.8914184250584
 10
87.08891328117916
 20
-127.8914184250584
 10
87.15023598081662
 20
-127.8574842345287
 10
87.23274601768834
 20
-127.8173488721255
 10
87.35108504760667
 20
-127.8173488721255
 10
87.60498858486959
 20
-127.8173488721255
 10
87.84201115425478
 20
-128.0035562831033
 10
87.84201115425478
 20
-128.3165432079382
 10
87.84201115425478
 20
-128.634008756904
 10
87.61773543816501
 20
-128.8686197594495
 10
87.31525605456008
 20
-128.8686197594495
 97
        0
 97
        0
 75
     2
 76
     1
 98
        0
  0
ENDBLK
  5
45
330
42
100
AcDbEntity
  8
0
100
AcDbBlockEnd
  0
BLOCK
  5
69
330
67
100
AcDbEntity
  8
0
100
AcDbBlockBegin
  2
block 3
 70
     0
 10
0.0
 20
0.0
 30
0.0
  3
block 3
  1

  0
SPLINE
  5
6B
330
67
100
AcDbEntity
  8
_U+30EC_U+30A4_U+30E4_U+30FC 1
370
     0
100
AcDbSpline
210
0.0
220
0.0
230
1.0
 70
    11
 71
     3
 72
    29
 73
    25
 74
     0
 42
0.0000000001
 43
0.0000000001
 12
1.0
 22
0.0
 32
0.0
 13
1.0
 23
0.0
 33
0.0
 40
0.0
 40
0.0
 40
0.0
 40
0.0
 40
1.0
 40
1.0
 40
1.0
 40
2.0
 40
2.0
 40
2.0
 40
3.0
 40
3.0
 40
3.0
 40
4.0
 40
4.0
 40
4.0
 40
5.0
 40
5.0
 40
5.0
 40
6.0
 40
6.0
 40
6.0
 40
7.0
 40
7.0
 40
7.0
 40
8.0
 40
8.0
 40
8.0
 40
8.0
 10
97.29328610848918
 20
-117.0085340419284
 30
0.0
 10
97.18511011025234
 20
-117.2179958474316
 30
0.0
 10
97.01182180734428
 20
-117.2371161273747
 30
0.0
 10
96.89537757994283
 20
-117.2371161273747
 30
0.0
 10
96.73449162078165
 20
-117.2371161273747
 30
0.0
 10
96.59289819633788
 20
-117.1906073383239
 30
0.0
 10
96.49781356094499
 20
-117.0085340419284
 30
0.0
 10
96.39411618683897
 20
-116.8138861470118
 30
0.0
 10
96.3751681616701
 20
-116.5770358324009
 30
0.0
 10
96.3751681616701
 20
-116.4140828159486
 30
0.0
 10
96.3751681616701
 20
-116.2702500794394
 30
0.0
 10
96.39204912954783
 20
-116.0185858542419
 30
0.0
 10
96.49781356094499
 20
-115.8196315899687
 30
0.0
 10
96.60564504963331
 20
-115.6165432111132
 30
0.0
 10
96.76653100879449
 20
-115.5932888165878
 30
0.0
 10
96.89537757994283
 20
-115.5932888165878
 30
0.0
 10
97.05419648181284
 20
-115.5932888165878
 30
0.0
 10
97.19785696354776
 20
-115.6377305483475
 30
0.0
 10
97.29328610848918
 20
-115.8196315899687
 30
0.0
 10
97.39250485846438
 20
-116.0122124275942
 30
0.0
 10
97.41593150776407
 20
-116.2406222582662
 30
0.0
 10
97.41593150776407
 20
-116.4140828159486
 30
0.0
 10
97.41593150776407
 20
-116.5854763163398
 30
0.0
 10
97.39457191575553
 20
-116.8161254590772
 30
0.0
 10
97.29328610848918
 20
-117.0085340419284
 30
0.0
  0
SPLINE
  5
6C
330
67
100
AcDbEntity
  8
_U+30EC_U+30A4_U+30E4_U+30FC 1
370
     0
100
AcDbSpline
210
0.0
220
0.0
230
1.0
 70
    11
 71
     3
 72
    17
 73
    13
 74
     0
 42
0.0000000001
 43
0.0000000001
 12
1.0
 22
0.0
 32
0.0
 13
1.0
 23
0.0
 33
0.0
 40
0.0
 40
0.0
 40
0.0
 40
0.0
 40
1.0
 40
1.0
 40
1.0
 40
2.0
 40
2.0
 40
2.0
 40
3.0
 40
3.0
 40
3.0
 40
4.0
 40
4.0
 40
4.0
 40
4.0
 10
96.89537757994283
 20
-115.7858696542133
 30
0.0
 10
96.64595266681074
 20
-115.7858696542133
 30
0.0
 10
96.59909936821134
 20
-116.0694010126493
 30
0.0
 10
96.59909936821134
 20
-116.4140828159486
 30
0.0
 10
96.59909936821134
 20
-116.7336154222055
 30
0.0
 10
96.63527287080646
 20
-117.0424682324581
 30
0.0
 10
96.89537757994283
 20
-117.0424682324581
 30
0.0
 10
97.14307994533229
 20
-117.0424682324581
 30
0.0
 10
97.19165579167431
 20
-116.7610039313132
 30
0.0
 10
97.19165579167431
 20
-116.4140828159486
 30
0.0
 10
97.19165579167431
 20
-116.0947224644659
 30
0.0
 10
97.15341523178805
 20
-115.7858696542133
 30
0.0
 10
96.89537757994283
 20
-115.7858696542133
 30
0.0
  0
HATCH
  5
6D
330
67
100
AcDbEntity
  8
_U+30EC_U+30A4_U+30E4_U+30FC 1
 62
     7
420
 16777215
100
AcDbHatch
 10
0.0
 20
0.0
 30
0.0
210
0.0
220
0.0
230
1.0
  2
SOLID
 70
     1
 71
     0
 91
        2
 92
        1
 93
        1
 72
     4
 94
        3
 73
     0
 74
     1
 95
       29
 96
       25
 40
0.0
 40
0.0
 40
0.0
 40
0.0
 40
1.0
 40
1.0
 40
1.0
 40
2.0
 40
2.0
 40
2.0
 40
3.0
 40
3.0
 40
3.0
 40
4.0
 40
4.0
 40
4.0
 40
5.0
 40
5.0
 40
5.0
 40
6.0
 40
6.0
 40
6.0
 40
7.0
 40
7.0
 40
7.0
 40
8.0
 40
8.0
 40
8.0
 40
8.0
 10
97.29328610848918
 20
-117.0085340419284
 10
97.18511011025234
 20
-117.2179958474316
 10
97.01182180734428
 20
-117.2371161273747
 10
96.89537757994283
 20
-117.2371161273747
 10
96.73449162078165
 20
-117.2371161273747
 10
96.59289819633788
 20
-117.1906073383239
 10
96.49781356094499
 20
-117.0085340419284
 10
96.39411618683897
 20
-116.8138861470118
 10
96.3751681616701
 20
-116.5770358324009
 10
96.3751681616701
 20
-116.4140828159486
 10
96.3751681616701
 20
-116.2702500794394
 10
96.39204912954783
 20
-116.0185858542419
 10
96.49781356094499
 20
-115.8196315899687
 10
96.60564504963331
 20
-115.6165432111132
 10
96.76653100879449
 20
-115.5932888165878
 10
96.89537757994283
 20
-115.5932888165878
 10
97.05419648181284
 20
-115.5932888165878
 10
97.19785696354776
 20
-115.6377305483475
 10
97.29328610848918
 20
-115.8196315899687
 10
97.39250485846438
 20
-116.0122124275942
 10
97.41593150776407
 20
-116.2406222582662
 10
97.41593150776407
 20
-116.4140828159486
 10
97.41593150776407
 20
-116.5854763163398
 10
97.39457191575553
 20
-116.8161254590772
 10
97.29328610848918
 20
-117.0085340419284
 97
        0
 97
        0
 92
        1
 93
        1
 72
     4
 94
        3
 73
     0
 74
     1
 95
       17
 96
       13
 40
0.0
 40
0.0
 40
0.0
 40
0.0
 40
1.0
 40
1.0
 40
1.0
 40
2.0
 40
2.0
 40
2.0
 40
3.0
 40
3.0
 40
3.0
 40
4.0
 40
4.0
 40
4.0
 40
4.0
 10
96.89537757994283
 20
-115.7858696542133
 10
96.64595266681074
 20
-115.7858696542133
 10
96.59909936821134
 20
-116.0694010126493
 10
96.59909936821134
 20
-116.4140828159486
 10
96.59909936821134
 20
-116.7336154222055
 10
96.63527287080646
 20
-117.0424682324581
 10
96.89537757994283
 20
-117.0424682324581
 10
97.14307994533229
 20
-117.0424682324581
 10
97.19165579167431
 20
-116.7610039313132
 10
97.19165579167431
 20
-116.4140828159486
 10
97.19165579167431
 20
-116.0947224644659
 10
97.15341523178805
 20
-115.7858696542133
 10
96.89537757994283
 20
-115.7858696542133
 97
        0
 97
        0
 75
     2
 76
     1
 98
        0
  0
POLYLINE
  5
6E
330
67
100
AcDbEntity
  8
_U+30EC_U+30A4_U+30E4_U+30FC 1
370
     0
100
AcDb2dPolyline
 66
     1
 10
0.0
 20
0.0
 30
0.0
  0
VERTEX
  5
6F
330
6E
100
AcDbEntity
  8
_U+30EC_U+30A4_U+30E4_U+30FC 1
370
     0
100
AcDbVertex
100
AcDb2dVertex
 10
97.63228350423776
 20
-117.1863009689673
 30
0.0
  0
VERTEX
  5
70
330
6E
100
AcDbEntity
  8
_U+30EC_U+30A4_U+30E4_U+30FC 1
370
     0
100
AcDbVertex
100
AcDb2dVertex
 10
97.63228350423776
 20
-116.9346367437698
 30
0.0
  0
VERTEX
  5
71
330
6E
100
AcDbEntity
  8
_U+30EC_U+30A4_U+30E4_U+30FC 1
370
     0
100
AcDbVertex
100
AcDb2dVertex
 10
97.88411998420953
 20
-116.9346367437698
 30
0.0
  0
VERTEX
  5
72
330
6E
100
AcDbEntity
  8
_U+30EC_U+30A4_U+30E4_U+30FC 1
370
     0
100
AcDbVertex
100
AcDb2dVertex
 10
97.88411998420953
 20
-117.1863009689673
 30
0.0
  0
VERTEX
  5
73
330
6E
100
AcDbEntity
  8
_U+30EC_U+30A4_U+30E4_U+30FC 1
370
     0
100
AcDbVertex
100
AcDb2dVertex
 10
97.63228350423776
 20
-117.1863009689673
 30
0.0
  0
SEQEND
  5
74
330
6E
100
AcDbEntity
  8
_U+30EC_U+30A4_U+30E4_U+30FC 1
370
     0
  0
HATCH
  5
75
330
67
100
AcDbEntity
  8
_U+30EC_U+30A4_U+30E4_U+30FC 1
 62
     7
420
 16777215
100
AcDbHatch
 10
0.0
 20
0.0
 30
0.0
210
0.0
220
0.0
230
1.0
  2
SOLID
 70
     1
 71
     0
 91
        1
 92
        1
 93
        4
 72
     1
 10
97.63228350423776
 20
-117.1863009689673
 11
97.63228350423776
 21
-116.9346367437698
 72
     1
 10
97.63228350423776
 20
-116.9346367437698
 11
97.88411998420953
 21
-116.9346367437698
 72
     1
 10
97.88411998420953
 20
-116.9346367437698
 11
97.88411998420953
 21
-117.1863009689673
 72
     1
 10
97.88411998420953
 20
-117.1863009689673
 11
97.63228350423776
 21
-117.1863009689673
 97
        0
 75
     2
 76
     1
 98
        0
  0
SPLINE
  5
76
330
67
100
AcDbEntity
  8
_U+30EC_U+30A4_U+30E4_U+30FC 1
370
     0
100
AcDbSpline
210
0.0
220
0.0
230
1.0
 70
    11
 71
     3
 72
    32
 73
    28
 74
     0
 42
0.0000000001
 43
0.0000000001
 12
1.0
 22
0.0
 32
0.0
 13
1.0
 23
0.0
 33
0.0
 40
0.0
 40
0.0
 40
0.0
 40
0.0
 40
1.0
 40
1.0
 40
1.0
 40
2.0
 40
2.0
 40
2.0
 40
3.0
 40
3.0
 40
3.0
 40
4.0
 40
4.0
 40
4.0
 40
5.0
 40
5.0
 40
5.0
 40
6.0
 40
6.0
 40
6.0
 40
7.0
 40
7.0
 40
7.0
 40
8.0
 40
8.0
 40
8.0
 40
9.0
 40
9.0
 40
9.0
 40
9.0
 10
98.62481551353825
 20
-117.2371161273747
 30
0.0
 10
98.1083957002993
 20
-117.2371161273747
 30
0.0
 10
98.1001274711347
 20
-116.6828002637981
 30
0.0
 10
98.1001274711347
 20
-116.4692043437126
 30
0.0
 10
98.1001274711347
 20
-116.2385552009751
 30
0.0
 10
98.11907549630357
 20
-115.5912217592966
 30
0.0
 10
98.66271156387599
 20
-115.5912217592966
 30
0.0
 10
98.83634437633259
 20
-115.5912217592966
 30
0.0
 10
99.08163517488238
 20
-115.660984942873
 30
0.0
 10
99.11987573476864
 20
-115.993092147651
 30
0.0
 10
99.11987573476864
 20
-115.993092147651
 30
0.0
 10
98.90593530513463
 20
-115.993092147651
 30
0.0
 10
98.90593530513463
 20
-115.993092147651
 30
0.0
 10
98.89560001867888
 20
-115.9360758173702
 30
0.0
 10
98.86390514021458
 20
-115.7879367115044
 30
0.0
 10
98.66064450658484
 20
-115.7879367115044
 30
0.0
 10
98.36884491898418
 20
-115.7879367115044
 30
0.0
 10
98.32853730180676
 20
-116.1159098017002
 30
0.0
 10
98.31579044851134
 20
-116.3210652378468
 30
0.0
 10
98.40880802661309
 20
-116.2428615703317
 30
0.0
 10
98.4766764076725
 20
-116.1836059279854
 30
0.0
 10
98.65857744929369
 20
-116.1836059279854
 30
0.0
 10
98.83841143362373
 20
-116.1836059279854
 30
0.0
 10
99.14089081722867
 20
-116.2914374166737
 30
0.0
 10
99.14089081722867
 20
-116.6976141743846
 30
0.0
 10
99.14089081722867
 20
-117.0171467806416
 30
0.0
 10
98.94210880772975
 20
-117.2371161273747
 30
0.0
 10
98.62481551353825
 20
-117.2371161273747
 30
0.0
  0
SPLINE
  5
77
330
67
100
AcDbEntity
  8
_U+30EC_U+30A4_U+30E4_U+30FC 1
370
     0
100
AcDbSpline
210
0.0
220
0.0
230
1.0
 70
    11
 71
     3
 72
    17
 73
    13
 74
     0
 42
0.0000000001
 43
0.0000000001
 12
1.0
 22
0.0
 32
0.0
 13
1.0
 23
0.0
 33
0.0
 40
0.0
 40
0.0
 40
0.0
 40
0.0
 40
1.0
 40
1.0
 40
1.0
 40
2.0
 40
2.0
 40
2.0
 40
3.0
 40
3.0
 40
3.0
 40
4.0
 40
4.0
 40
4.0
 40
4.0
 10
98.64169648141596
 20
-116.378253822902
 30
0.0
 10
98.37918020543994
 20
-116.378253822902
 30
0.0
 10
98.34128415510219
 20
-116.5897826856963
 30
0.0
 10
98.34128415510219
 20
-116.7060546583235
 30
0.0
 10
98.34128415510219
 20
-116.8817545280712
 30
0.0
 10
98.43636879049508
 20
-117.0445352897493
 30
0.0
 10
98.62033688940743
 20
-117.0445352897493
 30
0.0
 10
98.74091523139117
 20
-117.0445352897493
 30
0.0
 10
98.9166151011389
 20
-116.985279647403
 30
0.0
 10
98.9166151011389
 20
-116.6996812316758
 30
0.0
 10
98.9166151011389
 20
-116.4755777703603
 30
0.0
 10
98.77708873398629
 20
-116.378253822902
 30
0.0
 10
98.64169648141596
 20
-116.378253822902
 30
0.0
  0
HATCH
  5
78
330
67
100
AcDbEntity
  8
_U+30EC_U+30A4_U+30E4_U+30FC 1
 62
     7
420
 16777215
100
AcDbHatch
 10
0.0
 20
0.0
 30
0.0
210
0.0
220
0.0
230
1.0
  2
SOLID
 70
     1
 71
     0
 91
        2
 92
        1
 93
        1
 72
     4
 94
        3
 73
     0
 74
     1
 95
       32
 96
       28
 40
0.0
 40
0.0
 40
0.0
 40
0.0
 40
1.0
 40
1.0
 40
1.0
 40
2.0
 40
2.0
 40
2.0
 40
3.0
 40
3.0
 40
3.0
 40
4.0
 40
4.0
 40
4.0
 40
5.0
 40
5.0
 40
5.0
 40
6.0
 40
6.0
 40
6.0
 40
7.0
 40
7.0
 40
7.0
 40
8.0
 40
8.0
 40
8.0
 40
9.0
 40
9.0
 40
9.0
 40
9.0
 10
98.62481551353825
 20
-117.2371161273747
 10
98.1083957002993
 20
-117.2371161273747
 10
98.1001274711347
 20
-116.6828002637981
 10
98.1001274711347
 20
-116.4692043437126
 10
98.1001274711347
 20
-116.2385552009751
 10
98.11907549630357
 20
-115.5912217592966
 10
98.66271156387599
 20
-115.5912217592966
 10
98.83634437633259
 20
-115.5912217592966
 10
99.08163517488238
 20
-115.660984942873
 10
99.11987573476864
 20
-115.993092147651
 10
99.11987573476864
 20
-115.993092147651
 10
98.90593530513463
 20
-115.993092147651
 10
98.90593530513463
 20
-115.993092147651
 10
98.89560001867888
 20
-115.9360758173702
 10
98.86390514021458
 20
-115.7879367115044
 10
98.66064450658484
 20
-115.7879367115044
 10
98.36884491898418
 20
-115.7879367115044
 10
98.32853730180676
 20
-116.1159098017002
 10
98.31579044851134
 20
-116.3210652378468
 10
98.40880802661309
 20
-116.2428615703317
 10
98.4766764076725
 20
-116.1836059279854
 10
98.65857744929369
 20
-116.1836059279854
 10
98.83841143362373
 20
-116.1836059279854
 10
99.14089081722867
 20
-116.2914374166737
 10
99.14089081722867
 20
-116.6976141743846
 10
99.14089081722867
 20
-117.0171467806416
 10
98.94210880772975
 20
-117.2371161273747
 10
98.62481551353825
 20
-117.2371161273747
 97
        0
 97
        0
 92
        1
 93
        1
 72
     4
 94
        3
 73
     0
 74
     1
 95
       17
 96
       13
 40
0.0
 40
0.0
 40
0.0
 40
0.0
 40
1.0
 40
1.0
 40
1.0
 40
2.0
 40
2.0
 40
2.0
 40
3.0
 40
3.0
 40
3.0
 40
4.0
 40
4.0
 40
4.0
 40
4.0
 10
98.64169648141596
 20
-116.378253822902
 10
98.37918020543994
 20
-116.378253822902
 10
98.34128415510219
 20
-116.5897826856963
 10
98.34128415510219
 20
-116.7060546583235
 10
98.34128415510219
 20
-116.8817545280712
 10
98.43636879049508
 20
-117.0445352897493
 10
98.62033688940743
 20
-117.0445352897493
 10
98.74091523139117
 20
-117.0445352897493
 10
98.9166151011389
 20
-116.985279647403
 10
98.9166151011389
 20
-116.6996812316758
 10
98.9166151011389
 20
-116.4755777703603
 10
98.77708873398629
 20
-116.378253822902
 10
98.64169648141596
 20
-116.378253822902
 97
        0
 97
        0
 75
     2
 76
     1
 98
        0
  0
ENDBLK
  5
6A
330
67
100
AcDbEntity
  8
0
100
AcDbBlockEnd
  0
BLOCK
  5
89
330
87
100
AcDbEntity
  8
0
100
AcDbBlockBegin
  2
block 4
 70
     0
 10
0.0
 20
0.0
 30
0.0
  3
block 4
  1

  0
SPLINE
  5
8B
330
87
100
AcDbEntity
  8
_U+30EC_U+30A4_U+30E4_U+30FC 1
370
     0
100
AcDbSpline
210
0.0
220
0.0
230
1.0
 70
    11
 71
     3
 72
    26
 73
    22
 74
     0
 42
0.0000000001
 43
0.0000000001
 12
1.0
 22
0.0
 32
0.0
 13
1.0
 23
0.0
 33
0.0
 40
0.0
 40
0.0
 40
0.0
 40
0.0
 40
1.0
 40
1.0
 40
1.0
 40
2.0
 40
2.0
 40
2.0
 40
3.0
 40
3.0
 40
3.0
 40
4.0
 40
4.0
 40
4.0
 40
5.0
 40
5.0
 40
5.0
 40
6.0
 40
6.0
 40
6.0
 40
7.0
 40
7.0
 40
7.0
 40
7.0
 10
87.02052813579695
 20
-139.8632974910759
 30
0.0
 10
87.02052813579695
 20
-139.8632974910759
 30
0.0
 10
87.02052813579695
 20
-138.7591443880533
 30
0.0
 10
87.02052813579695
 20
-138.7591443880533
 30
0.0
 10
87.02052813579695
 20
-138.7591443880533
 30
0.0
 10
86.69048798831003
 20
-138.7591443880533
 30
0.0
 10
86.69048798831003
 20
-138.7591443880533
 30
0.0
 10
86.69048798831003
 20
-138.7591443880533
 30
0.0
 10
86.69048798831003
 20
-138.6110052821875
 30
0.0
 10
86.69048798831003
 20
-138.6110052821875
 30
0.0
 10
87.02259519308811
 20
-138.596191371601
 30
0.0
 10
87.06910398213898
 20
-138.4332383551486
 30
0.0
 10
87.09873180331212
 20
-138.3188611850383
 30
0.0
 10
87.09873180331212
 20
-138.3188611850383
 30
0.0
 10
87.24480385188672
 20
-138.3188611850383
 30
0.0
 10
87.24480385188672
 20
-138.3188611850383
 30
0.0
 10
87.24480385188672
 20
-138.3188611850383
 30
0.0
 10
87.24480385188672
 20
-139.8632974910759
 30
0.0
 10
87.24480385188672
 20
-139.8632974910759
 30
0.0
 10
87.24480385188672
 20
-139.8632974910759
 30
0.0
 10
87.02052813579695
 20
-139.8632974910759
 30
0.0
 10
87.02052813579695
 20
-139.8632974910759
 30
0.0
  0
HATCH
  5
8C
330
87
100
AcDbEntity
  8
_U+30EC_U+30A4_U+30E4_U+30FC 1
 62
     7
420
 16777215
100
AcDbHatch
 10
0.0
 20
0.0
 30
0.0
210
0.0
220
0.0
230
1.0
  2
SOLID
 70
     1
 71
     0
 91
        1
 92
        1
 93
        1
 72
     4
 94
        3
 73
     0
 74
     1
 95
       26
 96
       22
 40
0.0
 40
0.0
 40
0.0
 40
0.0
 40
1.0
 40
1.0
 40
1.0
 40
2.0
 40
2.0
 40
2.0
 40
3.0
 40
3.0
 40
3.0
 40
4.0
 40
4.0
 40
4.0
 40
5.0
 40
5.0
 40
5.0
 40
6.0
 40
6.0
 40
6.0
 40
7.0
 40
7.0
 40
7.0
 40
7.0
 10
87.02052813579695
 20
-139.8632974910759
 10
87.02052813579695
 20
-139.8632974910759
 10
87.02052813579695
 20
-138.7591443880533
 10
87.02052813579695
 20
-138.7591443880533
 10
87.02052813579695
 20
-138.7591443880533
 10
86.69048798831003
 20
-138.7591443880533
 10
86.69048798831003
 20
-138.7591443880533
 10
86.69048798831003
 20
-138.7591443880533
 10
86.69048798831003
 20
-138.6110052821875
 10
86.69048798831003
 20
-138.6110052821875
 10
87.02259519308811
 20
-138.596191371601
 10
87.06910398213898
 20
-138.4332383551486
 10
87.09873180331212
 20
-138.3188611850383
 10
87.09873180331212
 20
-138.3188611850383
 10
87.24480385188672
 20
-138.3188611850383
 10
87.24480385188672
 20
-138.3188611850383
 10
87.24480385188672
 20
-138.3188611850383
 10
87.24480385188672
 20
-139.8632974910759
 10
87.24480385188672
 20
-139.8632974910759
 10
87.24480385188672
 20
-139.8632974910759
 10
87.02052813579695
 20
-139.8632974910759
 10
87.02052813579695
 20
-139.8632974910759
 97
        0
 97
        0
 75
     2
 76
     1
 98
        0
  0
POLYLINE
  5
8D
330
87
100
AcDbEntity
  8
_U+30EC_U+30A4_U+30E4_U+30FC 1
370
     0
100
AcDb2dPolyline
 66
     1
 10
0.0
 20
0.0
 30
0.0
  0
VERTEX
  5
8E
330
8D
100
AcDbEntity
  8
_U+30EC_U+30A4_U+30E4_U+30FC 1
370
     0
100
AcDbVertex
100
AcDb2dVertex
 10
88.57822805945267
 20
-139.5163763757112
 30
0.0
  0
VERTEX
  5
8F
330
8D
100
AcDbEntity
  8
_U+30EC_U+30A4_U+30E4_U+30FC 1
370
     0
100
AcDbVertex
100
AcDb2dVertex
 10
88.57822805945267
 20
-139.8632974910759
 30
0.0
  0
VERTEX
  5
90
330
8D
100
AcDbEntity
  8
_U+30EC_U+30A4_U+30E4_U+30FC 1
370
     0
100
AcDbVertex
100
AcDb2dVertex
 10
88.36015351523635
 20
-139.8632974910759
 30
0.0
  0
VERTEX
  5
91
330
8D
100
AcDbEntity
  8
_U+30EC_U+30A4_U+30E4_U+30FC 1
370
     0
100
AcDbVertex
100
AcDb2dVertex
 10
88.36015351523635
 20
-139.5163763757112
 30
0.0
  0
VERTEX
  5
92
330
8D
100
AcDbEntity
  8
_U+30EC_U+30A4_U+30E4_U+30FC 1
370
     0
100
AcDbVertex
100
AcDb2dVertex
 10
87.70437958961905
 20
-139.5163763757112
 30
0.0
  0
VERTEX
  5
93
330
8D
100
AcDbEntity
  8
_U+30EC_U+30A4_U+30E4_U+30FC 1
370
     0
100
AcDbVertex
100
AcDb2dVertex
 10
87.70437958961905
 20
-139.2921006596214
 30
0.0
  0
VERTEX
  5
94
330
8D
100
AcDbEntity
  8
_U+30EC_U+30A4_U+30E4_U+30FC 1
370
     0
100
AcDbVertex
100
AcDb2dVertex
 10
88.38340790976179
 20
-138.3188611850383
 30
0.0
  0
VERTEX
  5
95
330
8D
100
AcDbEntity
  8
_U+30EC_U+30A4_U+30E4_U+30FC 1
370
     0
100
AcDbVertex
100
AcDb2dVertex
 10
88.57822805945267
 20
-138.3188611850383
 30
0.0
  0
VERTEX
  5
96
330
8D
100
AcDbEntity
  8
_U+30EC_U+30A4_U+30E4_U+30FC 1
370
     0
100
AcDbVertex
100
AcDb2dVertex
 10
88.57822805945267
 20
-139.3175943662123
 30
0.0
  0
VERTEX
  5
97
330
8D
100
AcDbEntity
  8
_U+30EC_U+30A4_U+30E4_U+30FC 1
370
     0
100
AcDbVertex
100
AcDb2dVertex
 10
88.78527829811618
 20
-139.3175943662123
 30
0.0
  0
VERTEX
  5
98
330
8D
100
AcDbEntity
  8
_U+30EC_U+30A4_U+30E4_U+30FC 1
370
     0
100
AcDbVertex
100
AcDb2dVertex
 10
88.78527829811618
 20
-139.5163763757112
 30
0.0
  0
VERTEX
  5
99
330
8D
100
AcDbEntity
  8
_U+30EC_U+30A4_U+30E4_U+30FC 1
370
     0
100
AcDbVertex
100
AcDb2dVertex
 10
88.57822805945267
 20
-139.5163763757112
 30
0.0
  0
SEQEND
  5
9A
330
8D
100
AcDbEntity
  8
_U+30EC_U+30A4_U+30E4_U+30FC 1
370
     0
  0
POLYLINE
  5
9B
330
87
100
AcDbEntity
  8
_U+30EC_U+30A4_U+30E4_U+30FC 1
370
     0
100
AcDb2dPolyline
 66
     1
 10
0.0
 20
0.0
 30
0.0
  0
VERTEX
  5
9C
330
9B
100
AcDbEntity
  8
_U+30EC_U+30A4_U+30E4_U+30FC 1
370
     0
100
AcDbVertex
100
AcDb2dVertex
 10
88.36015351523635
 20
-138.6616481858207
 30
0.0
  0
VERTEX
  5
9D
330
9B
100
AcDbEntity
  8
_U+30EC_U+30A4_U+30E4_U+30FC 1
370
     0
100
AcDbVertex
100
AcDb2dVertex
 10
87.90333385389222
 20
-139.3175943662123
 30
0.0
  0
VERTEX
  5
9E
330
9B
100
AcDbEntity
  8
_U+30EC_U+30A4_U+30E4_U+30FC 1
370
     0
100
AcDbVertex
100
AcDb2dVertex
 10
88.36015351523635
 20
-139.3175943662123
 30
0.0
  0
VERTEX
  5
9F
330
9B
100
AcDbEntity
  8
_U+30EC_U+30A4_U+30E4_U+30FC 1
370
     0
100
AcDbVertex
100
AcDb2dVertex
 10
88.36015351523635
 20
-138.6616481858207
 30
0.0
  0
SEQEND
  5
A0
330
9B
100
AcDbEntity
  8
_U+30EC_U+30A4_U+30E4_U+30FC 1
370
     0
  0
HATCH
  5
A1
330
87
100
AcDbEntity
  8
_U+30EC_U+30A4_U+30E4_U+30FC 1
 62
     7
420
 16777215
100
AcDbHatch
 10
0.0
 20
0.0
 30
0.0
210
0.0
220
0.0
230
1.0
  2
SOLID
 70
     1
 71
     0
 91
        2
 92
        1
 93
       11
 72
     1
 10
88.57822805945267
 20
-139.5163763757112
 11
88.57822805945267
 21
-139.8632974910759
 72
     1
 10
88.57822805945267
 20
-139.8632974910759
 11
88.36015351523635
 21
-139.8632974910759
 72
     1
 10
88.36015351523635
 20
-139.8632974910759
 11
88.36015351523635
 21
-139.5163763757112
 72
     1
 10
88.36015351523635
 20
-139.5163763757112
 11
87.70437958961905
 21
-139.5163763757112
 72
     1
 10
87.70437958961905
 20
-139.5163763757112
 11
87.70437958961905
 21
-139.2921006596214
 72
     1
 10
87.70437958961905
 20
-139.2921006596214
 11
88.38340790976179
 21
-138.3188611850383
 72
     1
 10
88.38340790976179
 20
-138.3188611850383
 11
88.57822805945267
 21
-138.3188611850383
 72
     1
 10
88.57822805945267
 20
-138.3188611850383
 11
88.57822805945267
 21
-139.3175943662123
 72
     1
 10
88.57822805945267
 20
-139.3175943662123
 11
88.78527829811618
 21
-139.3175943662123
 72
     1
 10
88.78527829811618
 20
-139.3175943662123
 11
88.78527829811618
 21
-139.5163763757112
 72
     1
 10
88.78527829811618
 20
-139.5163763757112
 11
88.57822805945267
 21
-139.5163763757112
 97
        0
 92
        1
 93
        3
 72
     1
 10
88.36015351523635
 20
-138.6616481858207
 11
87.90333385389222
 21
-139.3175943662123
 72
     1
 10
87.90333385389222
 20
-139.3175943662123
 11
88.36015351523635
 21
-139.3175943662123
 72
     1
 10
88.36015351523635
 20
-139.3175943662123
 11
88.36015351523635
 21
-138.6616481858207
 97
        0
 75
     2
 76
     1
 98
        0
  0
POLYLINE
  5
A2
330
87
100
AcDbEntity
  8
_U+30EC_U+30A4_U+30E4_U+30FC 1
370
     0
100
AcDb2dPolyline
 66
     1
 10
0.0
 20
0.0
 30
0.0
  0
VERTEX
  5
A3
330
A2
100
AcDbEntity
  8
_U+30EC_U+30A4_U+30E4_U+30FC 1
370
     0
100
AcDbVertex
100
AcDb2dVertex
 10
88.98302677896953
 20
-139.8632974910759
 30
0.0
  0
VERTEX
  5
A4
330
A2
100
AcDbEntity
  8
_U+30EC_U+30A4_U+30E4_U+30FC 1
370
     0
100
AcDbVertex
100
AcDb2dVertex
 10
88.98302677896953
 20
-139.6114610111041
 30
0.0
  0
VERTEX
  5
A5
330
A2
100
AcDbEntity
  8
_U+30EC_U+30A4_U+30E4_U+30FC 1
370
     0
100
AcDbVertex
100
AcDb2dVertex
 10
89.23486325894129
 20
-139.6114610111041
 30
0.0
  0
VERTEX
  5
A6
330
A2
100
AcDbEntity
  8
_U+30EC_U+30A4_U+30E4_U+30FC 1
370
     0
100
AcDbVertex
100
AcDb2dVertex
 10
89.23486325894129
 20
-139.8632974910759
 30
0.0
  0
VERTEX
  5
A7
330
A2
100
AcDbEntity
  8
_U+30EC_U+30A4_U+30E4_U+30FC 1
370
     0
100
AcDbVertex
100
AcDb2dVertex
 10
88.98302677896953
 20
-139.8632974910759
 30
0.0
  0
SEQEND
  5
A8
330
A2
100
AcDbEntity
  8
_U+30EC_U+30A4_U+30E4_U+30FC 1
370
     0
  0
HATCH
  5
A9
330
87
100
AcDbEntity
  8
_U+30EC_U+30A4_U+30E4_U+30FC 1
 62
     7
420
 16777215
100
AcDbHatch
 10
0.0
 20
0.0
 30
0.0
210
0.0
220
0.0
230
1.0
  2
SOLID
 70
     1
 71
     0
 91
        1
 92
        1
 93
        4
 72
     1
 10
88.98302677896953
 20
-139.8632974910759
 11
88.98302677896953
 21
-139.6114610111041
 72
     1
 10
88.98302677896953
 20
-139.6114610111041
 11
89.23486325894129
 21
-139.6114610111041
 72
     1
 10
89.23486325894129
 20
-139.6114610111041
 11
89.23486325894129
 21
-139.8632974910759
 72
     1
 10
89.23486325894129
 20
-139.8632974910759
 11
88.98302677896953
 21
-139.8632974910759
 97
        0
 75
     2
 76
     1
 98
        0
  0
SPLINE
  5
AA
330
87
100
AcDbEntity
  8
_U+30EC_U+30A4_U+30E4_U+30FC 1
370
     0
100
AcDbSpline
210
0.0
220
0.0
230
1.0
 70
    11
 71
     3
 72
    53
 73
    49
 74
     0
 42
0.0000000001
 43
0.0000000001
 12
1.0
 22
0.0
 32
0.0
 13
1.0
 23
0.0
 33
0.0
 40
0.0
 40
0.0
 40
0.0
 40
0.0
 40
1.0
 40
1.0
 40
1.0
 40
2.0
 40
2.0
 40
2.0
 40
3.0
 40
3.0
 40
3.0
 40
4.0
 40
4.0
 40
4.0
 40
5.0
 40
5.0
 40
5.0
 40
6.0
 40
6.0
 40
6.0
 40
7.0
 40
7.0
 40
7.0
 40
8.0
 40
8.0
 40
8.0
 40
9.0
 40
9.0
 40
9.0
 40
10.0
 40
10.0
 40
10.0
 40
11.0
 40
11.0
 40
11.0
 40
12.0
 40
12.0
 40
12.0
 40
13.0
 40
13.0
 40
13.0
 40
14.0
 40
14.0
 40
14.0
 40
15.0
 40
15.0
 40
15.0
 40
16.0
 40
16.0
 40
16.0
 40
16.0
 10
89.9521321389703
 20
-139.913940394709
 30
0.0
 10
89.87392847145513
 20
-139.913940394709
 30
0.0
 10
89.77229815464027
 20
-139.8970594268313
 30
0.0
 10
89.67066783782539
 20
-139.8336696699027
 30
0.0
 10
89.49737953491733
 20
-139.7237711239232
 30
0.0
 10
89.47601994290878
 20
-139.5925129859352
 30
0.0
 10
89.45707191773991
 20
-139.4846814972469
 30
0.0
 10
89.45707191773991
 20
-139.4846814972469
 30
0.0
 10
89.67928057653852
 20
-139.4846814972469
 30
0.0
 10
89.67928057653852
 20
-139.4846814972469
 30
0.0
 10
89.73405759475399
 20
-139.6834635067458
 30
0.0
 10
89.8611816181597
 20
-139.713091327919
 30
0.0
 10
89.95419919626146
 20
-139.713091327919
 30
0.0
 10
90.09372556341407
 20
-139.713091327919
 30
0.0
 10
90.24599878386212
 20
-139.6135280683952
 30
0.0
 10
90.24599878386212
 20
-139.3809841231409
 30
0.0
 10
90.24599878386212
 20
-139.1250135285868
 30
0.0
 10
90.06616479953207
 20
-139.0550780902362
 30
0.0
 10
89.94558645754833
 20
-139.0550780902362
 30
0.0
 10
89.91389157908404
 20
-139.0550780902362
 30
0.0
 10
89.77229815464027
 20
-139.0550780902362
 30
0.0
 10
89.68341469112082
 20
-139.1842691709331
 30
0.0
 10
89.68341469112082
 20
-139.1842691709331
 30
0.0
 10
89.50771482137307
 20
-139.1653211457642
 30
0.0
 10
89.50771482137307
 20
-139.1653211457642
 30
0.0
 10
89.50771482137307
 20
-139.1653211457642
 30
0.0
 10
89.62829316335682
 20
-138.3188611850383
 30
0.0
 10
89.62829316335682
 20
-138.3188611850383
 30
0.0
 10
89.62829316335682
 20
-138.3188611850383
 30
0.0
 10
90.40688474302328
 20
-138.3188611850383
 30
0.0
 10
90.40688474302328
 20
-138.3188611850383
 30
0.0
 10
90.40688474302328
 20
-138.3188611850383
 30
0.0
 10
90.40688474302328
 20
-138.513509079955
 30
0.0
 10
90.40688474302328
 20
-138.513509079955
 30
0.0
 10
90.40688474302328
 20
-138.513509079955
 30
0.0
 10
89.79124617980914
 20
-138.513509079955
 30
0.0
 10
89.79124617980914
 20
-138.513509079955
 30
0.0
 10
89.79124617980914
 20
-138.513509079955
 30
0.0
 10
89.72578936558939
 20
-138.9365668055436
 30
0.0
 10
89.72578936558939
 20
-138.9365668055436
 30
0.0
 10
89.78711206522684
 20
-138.9028048697882
 30
0.0
 10
89.8694498473243
 20
-138.8624972526108
 30
0.0
 10
89.9879611320169
 20
-138.8624972526108
 30
0.0
 10
90.24186466927982
 20
-138.8624972526108
 30
0.0
 10
90.47888723866501
 20
-139.0488769183628
 30
0.0
 10
90.47888723866501
 20
-139.362036097972
 30
0.0
 10
90.47888723866501
 20
-139.6793293921635
 30
0.0
 10
90.25461152257525
 20
-139.913940394709
 30
0.0
 10
89.9521321389703
 20
-139.913940394709
 30
0.0
  0
HATCH
  5
AB
330
87
100
AcDbEntity
  8
_U+30EC_U+30A4_U+30E4_U+30FC 1
 62
     7
420
 16777215
100
AcDbHatch
 10
0.0
 20
0.0
 30
0.0
210
0.0
220
0.0
230
1.0
  2
SOLID
 70
     1
 71
     0
 91
        1
 92
        1
 93
        1
 72
     4
 94
        3
 73
     0
 74
     1
 95
       53
 96
       49
 40
0.0
 40
0.0
 40
0.0
 40
0.0
 40
1.0
 40
1.0
 40
1.0
 40
2.0
 40
2.0
 40
2.0
 40
3.0
 40
3.0
 40
3.0
 40
4.0
 40
4.0
 40
4.0
 40
5.0
 40
5.0
 40
5.0
 40
6.0
 40
6.0
 40
6.0
 40
7.0
 40
7.0
 40
7.0
 40
8.0
 40
8.0
 40
8.0
 40
9.0
 40
9.0
 40
9.0
 40
10.0
 40
10.0
 40
10.0
 40
11.0
 40
11.0
 40
11.0
 40
12.0
 40
12.0
 40
12.0
 40
13.0
 40
13.0
 40
13.0
 40
14.0
 40
14.0
 40
14.0
 40
15.0
 40
15.0
 40
15.0
 40
16.0
 40
16.0
 40
16.0
 40
16.0
 10
89.9521321389703
 20
-139.913940394709
 10
89.87392847145513
 20
-139.913940394709
 10
89.77229815464027
 20
-139.8970594268313
 10
89.67066783782539
 20
-139.8336696699027
 10
89.49737953491733
 20
-139.7237711239232
 10
89.47601994290878
 20
-139.5925129859352
 10
89.45707191773991
 20
-139.4846814972469
 10
89.45707191773991
 20
-139.4846814972469
 10
89.67928057653852
 20
-139.4846814972469
 10
89.67928057653852
 20
-139.4846814972469
 10
89.73405759475399
 20
-139.6834635067458
 10
89.8611816181597
 20
-139.713091327919
 10
89.95419919626146
 20
-139.713091327919
 10
90.09372556341407
 20
-139.713091327919
 10
90.24599878386212
 20
-139.6135280683952
 10
90.24599878386212
 20
-139.3809841231409
 10
90.24599878386212
 20
-139.1250135285868
 10
90.06616479953207
 20
-139.0550780902362
 10
89.94558645754833
 20
-139.0550780902362
 10
89.91389157908404
 20
-139.0550780902362
 10
89.77229815464027
 20
-139.0550780902362
 10
89.68341469112082
 20
-139.1842691709331
 10
89.68341469112082
 20
-139.1842691709331
 10
89.50771482137307
 20
-139.1653211457642
 10
89.50771482137307
 20
-139.1653211457642
 10
89.50771482137307
 20
-139.1653211457642
 10
89.62829316335682
 20
-138.3188611850383
 10
89.62829316335682
 20
-138.3188611850383
 10
89.62829316335682
 20
-138.3188611850383
 10
90.40688474302328
 20
-138.3188611850383
 10
90.40688474302328
 20
-138.3188611850383
 10
90.40688474302328
 20
-138.3188611850383
 10
90.40688474302328
 20
-138.513509079955
 10
90.40688474302328
 20
-138.513509079955
 10
90.40688474302328
 20
-138.513509079955
 10
89.79124617980914
 20
-138.513509079955
 10
89.79124617980914
 20
-138.513509079955
 10
89.79124617980914
 20
-138.513509079955
 10
89.72578936558939
 20
-138.9365668055436
 10
89.72578936558939
 20
-138.9365668055436
 10
89.78711206522684
 20
-138.9028048697882
 10
89.8694498473243
 20
-138.8624972526108
 10
89.9879611320169
 20
-138.8624972526108
 10
90.24186466927982
 20
-138.8624972526108
 10
90.47888723866501
 20
-139.0488769183628
 10
90.47888723866501
 20
-139.362036097972
 10
90.47888723866501
 20
-139.6793293921635
 10
90.25461152257525
 20
-139.913940394709
 10
89.9521321389703
 20
-139.913940394709
 97
        0
 97
        0
 75
     2
 76
     1
 98
        0
  0
ENDBLK
  5
8A
330
87
100
AcDbEntity
  8
0
100
AcDbBlockEnd
  0
ENDSEC
  0
SECTION
  2
ENTITIES
  0
SPLINE
  5
41
330
1F
100
AcDbEntity
  8
_U+30EC_U+30A4_U+30E4_U+30FC 1
 62
   179
420
  2234388
370
    25
100
AcDbSpline
210
0.0
220
0.0
230
1.0
 70
    11
 71
     3
 72
    62
 73
    58
 74
     0
 42
0.0000000001
 43
0.0000000001
 12
1.0
 22
0.0
 32
0.0
 13
1.0
 23
0.0
 33
0.0
 40
0.0
 40
0.0
 40
0.0
 40
0.0
 40
1.0
 40
1.0
 40
1.0
 40
2.0
 40
2.0
 40
2.0
 40
3.0
 40
3.0
 40
3.0
 40
4.0
 40
4.0
 40
4.0
 40
5.0
 40
5.0
 40
5.0
 40
6.0
 40
6.0
 40
6.0
 40
7.0
 40
7.0
 40
7.0
 40
8.0
 40
8.0
 40
8.0
 40
9.0
 40
9.0
 40
9.0
 40
10.0
 40
10.0
 40
10.0
 40
11.0
 40
11.0
 40
11.0
 40
12.0
 40
12.0
 40
12.0
 40
13.0
 40
13.0
 40
13.0
 40
14.0
 40
14.0
 40
14.0
 40
15.0
 40
15.0
 40
15.0
 40
16.0
 40
16.0
 40
16.0
 40
17.0
 40
17.0
 40
17.0
 40
18.0
 40
18.0
 40
18.0
 40
19.0
 40
19.0
 40
19.0
 40
19.0
 10
95.77090922334722
 20
-135.0439682995721
 30
0.0
 10
95.77090922334722
 20
-135.0439682995721
 30
0.0
 10
94.77043147109376
 20
-134.0438432998224
 30
0.0
 10
94.77043147109376
 20
-134.0438432998224
 30
0.0
 10
94.77043147109376
 20
-134.0438432998224
 30
0.0
 10
95.77090922334722
 20
-133.0437183000721
 30
0.0
 10
95.77090922334722
 20
-133.0440710778499
 30
0.0
 10
95.77090922334722
 20
-133.0440710778499
 30
0.0
 10
94.77043147109376
 20
-132.0439813558777
 30
0.0
 10
94.77043147109376
 20
-132.0439813558777
 30
0.0
 10
94.77043147109376
 20
-132.0439813558777
 30
0.0
 10
95.77090922334722
 20
-131.0438563561281
 30
0.0
 10
95.77090922334722
 20
-131.0438563561281
 30
0.0
 10
95.77090922334722
 20
-131.0438563561281
 30
0.0
 10
94.77043147109376
 20
-130.0437313563778
 30
0.0
 10
94.77043147109376
 20
-130.0437313563778
 30
0.0
 10
94.77043147109376
 20
-130.0437313563778
 30
0.0
 10
95.77090922334722
 20
-129.0436416344056
 30
0.0
 10
95.77090922334722
 20
-129.0436416344056
 30
0.0
 10
95.77090922334722
 20
-129.0436416344056
 30
0.0
 10
95.77055644557844
 20
-121.9577471917329
 30
0.0
 10
95.77055644557844
 20
-121.9577471917329
 30
0.0
 10
95.43912173181182
 20
-121.9577471917329
 30
0.0
 10
95.17041090533387
 20
-122.2264933027766
 30
0.0
 10
95.17041090533387
 20
-122.5578927471383
 30
0.0
 10
95.17041090533387
 20
-126.2672452462108
 30
0.0
 10
93.8240721987664
 20
-129.6623785786953
 30
0.0
 10
91.59338544103584
 20
-132.28065996693
 30
0.0
 10
88.97510411894487
 20
-134.5113444108164
 30
0.0
 10
85.5799708722286
 20
-135.8576855215908
 30
0.0
 10
81.87061846686207
 20
-135.8576855215908
 30
0.0
 10
81.53921903087233
 20
-135.8576855215908
 30
0.0
 10
81.27047497968225
 20
-136.1263963548573
 30
0.0
 10
81.27047497968225
 20
-136.4578310769968
 30
0.0
 10
81.27047497968225
 20
-136.4578310769968
 30
0.0
 10
88.3563694223553
 20
-136.4581485769965
 30
0.0
 10
88.3563694223553
 20
-136.4581485769965
 30
0.0
 10
88.3563694223553
 20
-136.4581485769965
 30
0.0
 10
89.35645688699353
 20
-135.4577060772465
 30
0.0
 10
89.35645688699353
 20
-135.4577060772465
 30
0.0
 10
89.35645688699353
 20
-135.4577060772465
 30
0.0
 10
90.35658186147822
 20
-136.4581485769965
 30
0.0
 10
90.35658186147822
 20
-136.4581485769965
 30
0.0
 10
90.35658186147822
 20
-136.4581485769965
 30
0.0
 10
91.3567068359629
 20
-135.4577060772465
 30
0.0
 10
91.3567068359629
 20
-135.4577060772465
 30
0.0
 10
91.3567068359629
 20
-135.4577060772465
 30
0.0
 10
92.35679653267071
 20
-136.4581485769965
 30
0.0
 10
92.35679653267071
 20
-136.4581485769965
 30
0.0
 10
92.35679653267071
 20
-136.4581485769965
 30
0.0
 10
93.35656872938662
 20
-135.4577060772465
 30
0.0
 10
93.35656872938662
 20
-135.4577060772465
 30
0.0
 10
93.35656872938662
 20
-135.4577060772465
 30
0.0
 10
94.3566937038713
 20
-136.4581485769965
 30
0.0
 10
94.3566937038713
 20
-136.4581485769965
 30
0.0
 10
94.3566937038713
 20
-136.4581485769965
 30
0.0
 10
95.77090922334722
 20
-135.0439682995721
 30
0.0
 10
95.77090922334722
 20
-135.0439682995721
 30
0.0
  0
INSERT
  5
43
330
1F
100
AcDbEntity
  8
_U+30EC_U+30A4_U+30E4_U+30FC 1
100
AcDbBlockReference
  2
block 2
 10
0.0
 20
0.0
 30
0.0
  0
POLYLINE
  5
4D
330
1F
100
AcDbEntity
  8
_U+30EC_U+30A4_U+30E4_U+30FC 1
 62
   179
420
  2234388
370
     9
100
AcDb2dPolyline
 66
     1
 10
0.0
 20
0.0
 30
0.0
  0
VERTEX
  5
4E
330
4D
100
AcDbEntity
  8
_U+30EC_U+30A4_U+30E4_U+30FC 1
 62
   179
420
  2234388
370
     9
100
AcDbVertex
100
AcDb2dVertex
 10
88.32500524664138
 20
-129.0122796899695
 30
0.0
  0
VERTEX
  5
4F
330
4D
100
AcDbEntity
  8
_U+30EC_U+30A4_U+30E4_U+30FC 1
 62
   179
420
  2234388
370
     9
100
AcDbVertex
100
AcDb2dVertex
 10
91.32326350348278
 20
-132.0105380225532
 30
0.0
  0
SEQEND
  5
50
330
4D
100
AcDbEntity
  8
_U+30EC_U+30A4_U+30E4_U+30FC 1
 62
   179
420
  2234388
370
     9
  0
POLYLINE
  5
51
330
1F
100
AcDbEntity
  8
_U+30EC_U+30A4_U+30E4_U+30FC 1
 62
   179
420
  2234388
370
     9
100
AcDb2dPolyline
 66
     1
 10
0.0
 20
0.0
 30
0.0
  0
VERTEX
  5
52
330
51
100
AcDbEntity
  8
_U+30EC_U+30A4_U+30E4_U+30FC 1
 62
   179
420
  2234388
370
     9
100
AcDbVertex
100
AcDb2dVertex
 10
91.32326350348278
 20
-132.0105380225532
 30
0.0
  0
VERTEX
  5
53
330
51
100
AcDbEntity
  8
_U+30EC_U+30A4_U+30E4_U+30FC 1
 62
   179
420
  2234388
370
     9
100
AcDbVertex
100
AcDb2dVertex
 10
90.81685101640244
 20
-131.0986427450034
 30
0.0
  0
SEQEND
  5
54
330
51
100
AcDbEntity
  8
_U+30EC_U+30A4_U+30E4_U+30FC 1
 62
   179
420
  2234388
370
     9
  0
POLYLINE
  5
55
330
1F
100
AcDbEntity
  8
_U+30EC_U+30A4_U+30E4_U+30FC 1
 62
   179
420
  2234388
370
     9
100
AcDb2dPolyline
 66
     1
 10
0.0
 20
0.0
 30
0.0
  0
VERTEX
  5
56
330
55
100
AcDbEntity
  8
_U+30EC_U+30A4_U+30E4_U+30FC 1
 62
   179
420
  2234388
370
     9
100
AcDbVertex
100
AcDb2dVertex
 10
91.32326350348278
 20
-132.0105380225532
 30
0.0
  0
VERTEX
  5
57
330
55
100
AcDbEntity
  8
_U+30EC_U+30A4_U+30E4_U+30FC 1
 62
   179
420
  2234388
370
     9
100
AcDbVertex
100
AcDb2dVertex
 10
90.42929164405936
 20
-131.4731163560208
 30
0.0
  0
SEQEND
  5
58
330
55
100
AcDbEntity
  8
_U+30EC_U+30A4_U+30E4_U+30FC 1
 62
   179
420
  2234388
370
     9
  0
SPLINE
  5
59
330
1F
100
AcDbEntity
  8
_U+30EC_U+30A4_U+30E4_U+30FC 1
 62
     7
420
 16777215
370
     9
100
AcDbSpline
210
0.0
220
0.0
230
1.0
 70
    11
 71
     3
 72
    17
 73
    13
 74
     0
 42
0.0000000001
 43
0.0000000001
 12
1.0
 22
0.0
 32
0.0
 13
1.0
 23
0.0
 33
0.0
 40
0.0
 40
0.0
 40
0.0
 40
0.0
 40
1.0
 40
1.0
 40
1.0
 40
2.0
 40
2.0
 40
2.0
 40
3.0
 40
3.0
 40
3.0
 40
4.0
 40
4.0
 40
4.0
 40
4.0
 10
95.87046310969627
 20
-117.7823046927768
 30
0.0
 10
95.87046310969627
 20
-117.7271655261237
 30
0.0
 10
95.8256603330615
 20
-117.6823980261351
 30
0.0
 10
95.77055644557844
 20
-117.6823980261351
 30
0.0
 10
95.71474700255781
 20
-117.6823980261351
 30
0.0
 10
95.66994422592305
 20
-117.7271655261237
 30
0.0
 10
95.66994422592305
 20
-117.7823046927768
 30
0.0
 10
95.66994422592305
 20
-117.8374085816517
 30
0.0
 10
95.71474700255781
 20
-117.8822113594184
 30
0.0
 10
95.77055644557844
 20
-117.8822113594184
 30
0.0
 10
95.8256603330615
 20
-117.8822113594184
 30
0.0
 10
95.87046310969627
 20
-117.8374085816517
 30
0.0
 10
95.87046310969627
 20
-117.7823046927768
 30
0.0
  0
POLYLINE
  5
5A
330
1F
100
AcDbEntity
  8
_U+30EC_U+30A4_U+30E4_U+30FC 1
 62
     7
420
 16777215
370
     9
100
AcDb2dPolyline
 66
     1
 10
0.0
 20
0.0
 30
0.0
  0
VERTEX
  5
5B
330
5A
100
AcDbEntity
  8
_U+30EC_U+30A4_U+30E4_U+30FC 1
 62
     7
420
 16777215
370
     9
100
AcDbVertex
100
AcDb2dVertex
 10
95.17041090533387
 20
-117.7823046927768
 30
0.0
  0
VERTEX
  5
5C
330
5A
100
AcDbEntity
  8
_U+30EC_U+30A4_U+30E4_U+30FC 1
 62
     7
420
 16777215
370
     9
100
AcDbVertex
100
AcDb2dVertex
 10
99.54845357141848
 20
-117.7823046927768
 30
0.0
  0
SEQEND
  5
5D
330
5A
100
AcDbEntity
  8
_U+30EC_U+30A4_U+30E4_U+30FC 1
 62
     7
420
 16777215
370
     9
  0
POLYLINE
  5
5E
330
1F
100
AcDbEntity
  8
_U+30EC_U+30A4_U+30E4_U+30FC 1
 62
     7
420
 16777215
370
     9
100
AcDb2dPolyline
 66
     1
 10
0.0
 20
0.0
 30
0.0
  0
VERTEX
  5
5F
330
5E
100
AcDbEntity
  8
_U+30EC_U+30A4_U+30E4_U+30FC 1
 62
     7
420
 16777215
370
     9
100
AcDbVertex
100
AcDb2dVertex
 10
95.77055644557844
 20
-119.9578852477882
 30
0.0
  0
VERTEX
  5
60
330
5E
100
AcDbEntity
  8
_U+30EC_U+30A4_U+30E4_U+30FC 1
 62
     7
420
 16777215
370
     9
100
AcDbVertex
100
AcDb2dVertex
 10
95.77055644557844
 20
-116.7825324708042
 30
0.0
  0
SEQEND
  5
61
330
5E
100
AcDbEntity
  8
_U+30EC_U+30A4_U+30E4_U+30FC 1
 62
     7
420
 16777215
370
     9
  0
SPLINE
  5
62
330
1F
100
AcDbEntity
  8
_U+30EC_U+30A4_U+30E4_U+30FC 1
 62
     7
420
 16777215
370
     9
100
AcDbSpline
210
0.0
220
0.0
230
1.0
 70
    11
 71
     3
 72
    17
 73
    13
 74
     0
 42
0.0000000001
 43
0.0000000001
 12
1.0
 22
0.0
 32
0.0
 13
1.0
 23
0.0
 33
0.0
 40
0.0
 40
0.0
 40
0.0
 40
0.0
 40
1.0
 40
1.0
 40
1.0
 40
2.0
 40
2.0
 40
2.0
 40
3.0
 40
3.0
 40
3.0
 40
4.0
 40
4.0
 40
4.0
 40
4.0
 10
95.2703175694517
 20
-117.7823046927768
 30
0.0
 10
95.2703175694517
 20
-117.7271655261237
 30
0.0
 10
95.22555007059383
 20
-117.6823980261351
 30
0.0
 10
95.17041090533387
 20
-117.6823980261351
 30
0.0
 10
95.11460146231325
 20
-117.6823980261351
 30
0.0
 10
95.06983396345537
 20
-117.7271655261237
 30
0.0
 10
95.06983396345537
 20
-117.7823046927768
 30
0.0
 10
95.06983396345537
 20
-117.8374085816517
 30
0.0
 10
95.11460146231325
 20
-117.8822113594184
 30
0.0
 10
95.17041090533387
 20
-117.8822113594184
 30
0.0
 10
95.22555007059383
 20
-117.8822113594184
 30
0.0
 10
95.2703175694517
 20
-117.8374085816517
 30
0.0
 10
95.2703175694517
 20
-117.7823046927768
 30
0.0
  0
POLYLINE
  5
63
330
1F
100
AcDbEntity
  8
_U+30EC_U+30A4_U+30E4_U+30FC 1
 62
     7
420
 16777215
370
     9
100
AcDb2dPolyline
 66
     1
 10
0.0
 20
0.0
 30
0.0
  0
VERTEX
  5
64
330
63
100
AcDbEntity
  8
_U+30EC_U+30A4_U+30E4_U+30FC 1
 62
     7
420
 16777215
370
     9
100
AcDbVertex
100
AcDb2dVertex
 10
95.17041090533387
 20
-119.9578852477882
 30
0.0
  0
VERTEX
  5
65
330
63
100
AcDbEntity
  8
_U+30EC_U+30A4_U+30E4_U+30FC 1
 62
     7
420
 16777215
370
     9
100
AcDbVertex
100
AcDb2dVertex
 10
95.17041090533387
 20
-116.7825324708042
 30
0.0
  0
SEQEND
  5
66
330
63
100
AcDbEntity
  8
_U+30EC_U+30A4_U+30E4_U+30FC 1
 62
     7
420
 16777215
370
     9
  0
INSERT
  5
68
330
1F
100
AcDbEntity
  8
_U+30EC_U+30A4_U+30E4_U+30FC 1
100
AcDbBlockReference
  2
block 3
 10
0.0
 20
0.0
 30
0.0
  0
SPLINE
  5
79
330
1F
100
AcDbEntity
  8
_U+30EC_U+30A4_U+30E4_U+30FC 1
 62
     7
420
 16777215
370
     9
100
AcDbSpline
210
0.0
220
0.0
230
1.0
 70
    11
 71
     3
 72
    17
 73
    13
 74
     0
 42
0.0000000001
 43
0.0000000001
 12
1.0
 22
0.0
 32
0.0
 13
1.0
 23
0.0
 33
0.0
 40
0.0
 40
0.0
 40
0.0
 40
0.0
 40
1.0
 40
1.0
 40
1.0
 40
2.0
 40
2.0
 40
2.0
 40
3.0
 40
3.0
 40
3.0
 40
4.0
 40
4.0
 40
4.0
 40
4.0
 10
95.87011033192749
 20
-140.459636353774
 30
0.0
 10
95.87011033192749
 20
-140.4045324648991
 30
0.0
 10
95.82534283306961
 20
-140.3597296871323
 30
0.0
 10
95.77020366780967
 20
-140.3597296871323
 30
0.0
 10
95.7150997803266
 20
-140.3597296871323
 30
0.0
 10
95.67029700369183
 20
-140.4045324648991
 30
0.0
 10
95.67029700369183
 20
-140.459636353774
 30
0.0
 10
95.67029700369183
 20
-140.514775520427
 30
0.0
 10
95.7150997803266
 20
-140.5595430204156
 30
0.0
 10
95.77020366780967
 20
-140.5595430204156
 30
0.0
 10
95.82534283306961
 20
-140.5595430204156
 30
0.0
 10
95.87011033192749
 20
-140.514775520427
 30
0.0
 10
95.87011033192749
 20
-140.459636353774
 30
0.0
  0
SPLINE
  5
7A
330
1F
100
AcDbEntity
  8
_U+30EC_U+30A4_U+30E4_U+30FC 1
 62
     7
420
 16777215
370
     9
100
AcDbSpline
210
0.0
220
0.0
230
1.0
 70
    11
 71
     3
 72
    17
 73
    13
 74
     0
 42
0.0000000001
 43
0.0000000001
 12
1.0
 22
0.0
 32
0.0
 13
1.0
 23
0.0
 33
0.0
 40
0.0
 40
0.0
 40
0.0
 40
0.0
 40
1.0
 40
1.0
 40
1.0
 40
2.0
 40
2.0
 40
2.0
 40
3.0
 40
3.0
 40
3.0
 40
4.0
 40
4.0
 40
4.0
 40
4.0
 10
81.37108514627289
 20
-140.459636353774
 30
0.0
 10
81.37108514627289
 20
-140.4045324648991
 30
0.0
 10
81.32631764741501
 20
-140.3597296871323
 30
0.0
 10
81.27047497968225
 20
-140.3597296871323
 30
0.0
 10
81.21536903913443
 20
-140.3597296871323
 30
0.0
 10
81.17056626249966
 20
-140.4045324648991
 30
0.0
 10
81.17056626249966
 20
-140.459636353774
 30
0.0
 10
81.17056626249966
 20
-140.514775520427
 30
0.0
 10
81.21536903913443
 20
-140.5595430204156
 30
0.0
 10
81.27047497968225
 20
-140.5595430204156
 30
0.0
 10
81.32631764741501
 20
-140.5595430204156
 30
0.0
 10
81.37108514627289
 20
-140.514775520427
 30
0.0
 10
81.37108514627289
 20
-140.459636353774
 30
0.0
  0
POLYLINE
  5
7B
330
1F
100
AcDbEntity
  8
_U+30EC_U+30A4_U+30E4_U+30FC 1
 62
     7
420
 16777215
370
     9
100
AcDb2dPolyline
 66
     1
 10
0.0
 20
0.0
 30
0.0
  0
VERTEX
  5
7C
330
7B
100
AcDbEntity
  8
_U+30EC_U+30A4_U+30E4_U+30FC 1
 62
     7
420
 16777215
370
     9
100
AcDbVertex
100
AcDb2dVertex
 10
81.27047497968225
 20
-140.459636353774
 30
0.0
  0
VERTEX
  5
7D
330
7B
100
AcDbEntity
  8
_U+30EC_U+30A4_U+30E4_U+30FC 1
 62
     7
420
 16777215
370
     9
100
AcDbVertex
100
AcDb2dVertex
 10
95.76953339004899
 20
-140.459636353774
 30
0.0
  0
SEQEND
  5
7E
330
7B
100
AcDbEntity
  8
_U+30EC_U+30A4_U+30E4_U+30FC 1
 62
     7
420
 16777215
370
     9
  0
POLYLINE
  5
7F
330
1F
100
AcDbEntity
  8
_U+30EC_U+30A4_U+30E4_U+30FC 1
 62
     7
420
 16777215
370
     9
100
AcDb2dPolyline
 66
     1
 10
0.0
 20
0.0
 30
0.0
  0
VERTEX
  5
80
330
7F
100
AcDbEntity
  8
_U+30EC_U+30A4_U+30E4_U+30FC 1
 62
     7
420
 16777215
370
     9
100
AcDbVertex
100
AcDb2dVertex
 10
95.77020366780967
 20
-138.9995949652503
 30
0.0
  0
VERTEX
  5
81
330
7F
100
AcDbEntity
  8
_U+30EC_U+30A4_U+30E4_U+30FC 1
 62
     7
420
 16777215
370
     9
100
AcDbVertex
100
AcDb2dVertex
 10
95.77020366780967
 20
-141.4594085757465
 30
0.0
  0
SEQEND
  5
82
330
7F
100
AcDbEntity
  8
_U+30EC_U+30A4_U+30E4_U+30FC 1
 62
     7
420
 16777215
370
     9
  0
POLYLINE
  5
83
330
1F
100
AcDbEntity
  8
_U+30EC_U+30A4_U+30E4_U+30FC 1
 62
     7
420
 16777215
370
     9
100
AcDb2dPolyline
 66
     1
 10
0.0
 20
0.0
 30
0.0
  0
VERTEX
  5
84
330
83
100
AcDbEntity
  8
_U+30EC_U+30A4_U+30E4_U+30FC 1
 62
     7
420
 16777215
370
     9
100
AcDbVertex
100
AcDb2dVertex
 10
81.27047497968225
 20
-138.9995949652503
 30
0.0
  0
VERTEX
  5
85
330
83
100
AcDbEntity
  8
_U+30EC_U+30A4_U+30E4_U+30FC 1
 62
     7
420
 16777215
370
     9
100
AcDbVertex
100
AcDb2dVertex
 10
81.27047497968225
 20
-141.4594085757465
 30
0.0
  0
SEQEND
  5
86
330
83
100
AcDbEntity
  8
_U+30EC_U+30A4_U+30E4_U+30FC 1
 62
     7
420
 16777215
370
     9
  0
INSERT
  5
88
330
1F
100
AcDbEntity
  8
_U+30EC_U+30A4_U+30E4_U+30FC 1
100
AcDbBlockReference
  2
block 4
 10
0.0
 20
0.0
 30
0.0
  0
ENDSEC
  0
SECTION
  2
OBJECTS
  0
DICTIONARY
  5
C
330
0
100
AcDbDictionary
281
     1
  3
ACAD_GROUP
350
D
  3
ACAD_LAYOUT
350
1A
  3
ACAD_MATERIAL
350
3B
  3
ACAD_MLEADERSTYLE
350
AD
  3
ACAD_MLINESTYLE
350
17
  3
ACAD_PLOTSETTINGS
350
19
  3
ACAD_PLOTSTYLENAME
350
E
  3
ACAD_TABLESTYLE
350
AC
  3
ACAD_VISUALSTYLE
350
2A
  0
SUN
  5
3F
330
29
100
AcDbSun
 90
        1
290
     0
 63
     7
421
 16777215
 40
1.0
291
     1
 91
  2455826
 92
 54000000
292
     0
 70
     2
 71
   256
280
     1
  0
DICTIONARY
  5
D
102
{ACAD_REACTORS
330
C
102
}
330
C
100
AcDbDictionary
281
     1
  0
DICTIONARY
  5
1A
102
{ACAD_REACTORS
330
C
102
}
330
C
100
AcDbDictionary
281
     1
  3
Layout1
350
1E
  3
Layout2
350
26
  3
Model
350
22
  0
DICTIONARY
  5
3B
102
{ACAD_REACTORS
330
C
102
}
330
C
100
AcDbDictionary
281
     1
  3
ByBlock
350
3D
  3
ByLayer
350
3C
  3
Global
350
3E
  0
DICTIONARY
  5
AD
102
{ACAD_REACTORS
330
C
102
}
330
C
100
AcDbDictionary
281
     1
  0
DICTIONARY
  5
17
102
{ACAD_REACTORS
330
C
102
}
330
C
100
AcDbDictionary
281
     1
  3
Standard
350
18
  0
DICTIONARY
  5
19
102
{ACAD_REACTORS
330
C
102
}
330
C
100
AcDbDictionary
281
     1
  0
ACDBDICTIONARYWDFLT
  5
E
102
{ACAD_REACTORS
330
C
102
}
330
C
100
AcDbDictionary
281
     1
  3
Normal
350
F
100
AcDbDictionaryWithDefault
340
F
  0
DICTIONARY
  5
AC
102
{ACAD_REACTORS
330
C
102
}
330
C
100
AcDbDictionary
281
     1
  0
DICTIONARY
  5
2A
102
{ACAD_REACTORS
330
C
102
}
330
C
100
AcDbDictionary
281
     1
  3
2dWireframe
350
2F
  3
3D Hidden
350
31
  3
3dWireframe
350
30
  3
Basic
350
32
  3
Brighten
350
36
  3
ColorChange
350
3A
  3
Conceptual
350
34
  3
Dim
350
35
  3
Facepattern
350
39
  3
Flat
350
2B
  3
FlatWithEdges
350
2C
  3
Gouraud
350
2D
  3
GouraudWithEdges
350
2E
  3
Linepattern
350
38
  3
Realistic
350
33
  3
Thicken
350
37
  0
LAYOUT
  5
1E
102
{ACAD_REACTORS
330
1A
102
}
330
1A
100
AcDbPlotSettings
  1

  2
none_device
  4

  6

 40
0.0
 41
0.0
 42
0.0
 43
0.0
 44
0.0
 45
0.0
 46
0.0
 47
0.0
 48
0.0
 49
0.0
140
0.0
141
0.0
142
1.0
143
1.0
 70
   688
 72
     0
 73
     0
 74
     5
  7

 75
    16
 76
     0
 77
     2
 78
   300
147
1.0
148
0.0
149
0.0
100
AcDbLayout
  1
Layout1
 70
     1
 71
     1
 10
0.0
 20
0.0
 11
12.0
 21
9.0
 12
0.0
 22
0.0
 32
0.0
 14
1.000000000000000E+20
 24
1.000000000000000E+20
 34
1.000000000000000E+20
 15
-1.000000000000000E+20
 25
-1.000000000000000E+20
 35
-1.000000000000000E+20
146
0.0
 13
0.0
 23
0.0
 33
0.0
 16
1.0
 26
0.0
 36
0.0
 17
0.0
 27
1.0
 37
0.0
 76
     0
330
1B
  0
LAYOUT
  5
26
102
{ACAD_REACTORS
330
1A
102
}
330
1A
100
AcDbPlotSettings
  1

  2
none_device
  4

  6

 40
0.0
 41
0.0
 42
0.0
 43
0.0
 44
0.0
 45
0.0
 46
0.0
 47
0.0
 48
0.0
 49
0.0
140
0.0
141
0.0
142
1.0
143
1.0
 70
   688
 72
     0
 73
     0
 74
     5
  7

 75
    16
 76
     0
 77
     2
 78
   300
147
1.0
148
0.0
149
0.0
100
AcDbLayout
  1
Layout2
 70
     1
 71
     2
 10
0.0
 20
0.0
 11
0.0
 21
0.0
 12
0.0
 22
0.0
 32
0.0
 14
0.0
 24
0.0
 34
0.0
 15
0.0
 25
0.0
 35
0.0
146
0.0
 13
0.0
 23
0.0
 33
0.0
 16
1.0
 26
0.0
 36
0.0
 17
0.0
 27
1.0
 37
0.0
 76
     0
330
23
  0
LAYOUT
  5
22
102
{ACAD_REACTORS
330
1A
102
}
330
1A
100
AcDbPlotSettings
  1

  2
none_device
  4

  6

 40
0.0
 41
0.0
 42
0.0
 43
0.0
 44
0.0
 45
0.0
 46
0.0
 47
0.0
 48
0.0
 49
0.0
140
0.0
141
0.0
142
1.0
143
1.0
 70
  1712
 72
     0
 73
     0
 74
     0
  7

 75
     0
 76
     0
 77
     2
 78
   300
147
1.0
148
0.0
149
0.0
100
AcDbLayout
  1
Model
 70
     1
 71
     0
 10
0.0
 20
0.0
 11
12.0
 21
9.0
 12
0.0
 22
0.0
 32
0.0
 14
1.000000000000000E+20
 24
1.000000000000000E+20
 34
1.000000000000000E+20
 15
-1.000000000000000E+20
 25
-1.000000000000000E+20
 35
-1.000000000000000E+20
146
0.0
 13
0.0
 23
0.0
 33
0.0
 16
1.0
 26
0.0
 36
0.0
 17
0.0
 27
1.0
 37
0.0
 76
     0
330
1F
331
29
  0
MATERIAL
  5
3D
102
{ACAD_REACTORS
330
3B
102
}
330
3B
100
AcDbMaterial
  1
ByBlock
 72
     1
 94
      127
  0
MATERIAL
  5
3C
102
{ACAD_REACTORS
330
3B
102
}
330
3B
100
AcDbMaterial
  1
ByLayer
 72
     1
 94
      127
  0
MATERIAL
  5
3E
102
{ACAD_REACTORS
330
3B
102
}
330
3B
100
AcDbMaterial
  1
Global
 72
     1
 94
      127
  0
MLINESTYLE
  5
18
102
{ACAD_REACTORS
330
17
102
}
330
17
100
AcDbMlineStyle
  2
Standard
 70
     0
  3

 62
   256
 51
90.0
 52
90.0
 71
     2
 49
0.5
 62
   256
  6
BYLAYER
 49
-0.5
 62
   256
  6
BYLAYER
  0
ACDBPLACEHOLDER
  5
F
102
{ACAD_REACTORS
330
E
102
}
330
E
  0
VISUALSTYLE
  5
2F
102
{ACAD_REACTORS
330
2A
102
}
330
2A
100
AcDbVisualStyle
  2
2dWireframe
 70
     4
177
     2
291
     0
 71
     0
176
     1
 72
     2
176
     1
 73
     0
176
     1
 90
        0
176
     1
 40
-0.6
176
     1
 41
-30.0
176
     1
 62
     5
 63
     7
421
 16777215
176
     1
 74
     1
176
     1
 91
        4
176
     1
 64
     7
176
     1
 65
   257
176
     1
 75
     1
176
     1
175
     1
176
     1
 42
1.0
176
     1
 92
        0
176
     1
 66
   257
176
     1
 43
1.0
176
     1
 76
     1
176
     1
 77
     6
176
     1
 78
     2
176
     1
 67
     7
176
     1
 79
     5
176
     1
170
     0
176
     1
171
     0
176
     1
290
     0
176
     1
 93
        1
176
     1
 44
0.0
176
     1
173
     0
176
     1
  0
VISUALSTYLE
  5
31
102
{ACAD_REACTORS
330
2A
102
}
330
2A
100
AcDbVisualStyle
  2
3D Hidden
 70
     6
177
     2
291
     0
 71
     1
176
     1
 72
     2
176
     1
 73
     2
176
     1
 90
        0
176
     1
 40
-0.6
176
     1
 41
-30.0
176
     1
 62
     5
 63
     7
421
 16777215
176
     1
 74
     2
176
     1
 91
        2
176
     1
 64
     7
176
     1
 65
   257
176
     1
 75
     2
176
     1
175
     1
176
     1
 42
40.0
176
     1
 92
        0
176
     1
 66
   257
176
     1
 43
1.0
176
     1
 76
     1
176
     1
 77
     6
176
     1
 78
     2
176
     1
 67
     7
176
     1
 79
     3
176
     1
170
     0
176
     1
171
     0
176
     1
290
     0
176
     1
 93
        1
176
     1
 44
0.0
176
     1
173
     0
176
     1
  0
VISUALSTYLE
  5
30
102
{ACAD_REACTORS
330
2A
102
}
330
2A
100
AcDbVisualStyle
  2
3dWireframe
 70
     5
177
     2
291
     0
 71
     0
176
     1
 72
     2
176
     1
 73
     0
176
     1
 90
        0
176
     1
 40
-0.6
176
     1
 41
-30.0
176
     1
 62
     5
 63
     7
421
 16777215
176
     1
 74
     1
176
     1
 91
        4
176
     1
 64
     7
176
     1
 65
   257
176
     1
 75
     1
176
     1
175
     1
176
     1
 42
1.0
176
     1
 92
        0
176
     1
 66
   257
176
     1
 43
1.0
176
     1
 76
     1
176
     1
 77
     6
176
     1
 78
     2
176
     1
 67
     7
176
     1
 79
     5
176
     1
170
     0
176
     1
171
     0
176
     1
290
     0
176
     1
 93
        1
176
     1
 44
0.0
176
     1
173
     0
176
     1
  0
VISUALSTYLE
  5
32
102
{ACAD_REACTORS
330
2A
102
}
330
2A
100
AcDbVisualStyle
  2
Basic
 70
     7
177
     2
291
     1
 71
     1
176
     1
 72
     0
176
     1
 73
     1
176
     1
 90
        0
176
     1
 40
-0.6
176
     1
 41
-30.0
176
     1
 62
     5
 63
     7
421
 16777215
176
     1
 74
     0
176
     1
 91
        4
176
     1
 64
     7
176
     1
 65
   257
176
     1
 75
     1
176
     1
175
     1
176
     1
 42
1.0
176
     1
 92
        8
176
     1
 66
     7
176
     1
 43
1.0
176
     1
 76
     1
176
     1
 77
     6
176
     1
 78
     2
176
     1
 67
     7
176
     1
 79
     5
176
     1
170
     0
176
     1
171
     0
176
     1
290
     0
176
     1
 93
        1
176
     1
 44
0.0
176
     1
173
     0
176
     1
  0
VISUALSTYLE
  5
36
102
{ACAD_REACTORS
330
2A
102
}
330
2A
100
AcDbVisualStyle
  2
Brighten
 70
    12
177
     2
291
     1
 71
     2
176
     1
 72
     2
176
     1
 73
     0
176
     1
 90
        0
176
     1
 40
-0.6
176
     1
 41
-30.0
176
     1
 62
     5
 63
     7
421
 16777215
176
     1
 74
     1
176
     1
 91
        4
176
     1
 64
     7
176
     1
 65
   257
176
     1
 75
     1
176
     1
175
     1
176
     1
 42
1.0
176
     1
 92
        8
176
     1
 66
     7
176
     1
 43
1.0
176
     1
 76
     1
176
     1
 77
     6
176
     1
 78
     2
176
     1
 67
     7
176
     1
 79
     5
176
     1
170
     0
176
     1
171
     0
176
     1
290
     0
176
     1
 93
        1
176
     1
 44
50.0
176
     1
173
     0
176
     1
  0
VISUALSTYLE
  5
3A
102
{ACAD_REACTORS
330
2A
102
}
330
2A
100
AcDbVisualStyle
  2
ColorChange
 70
    16
177
     2
291
     1
 71
     2
176
     1
 72
     2
176
     1
 73
     3
176
     1
 90
        0
176
     1
 40
-0.6
176
     1
 41
-30.0
176
     1
 62
     5
 63
     8
421
  8421504
176
     1
 74
     1
176
     1
 91
        4
176
     1
 64
     7
176
     1
 65
   257
176
     1
 75
     1
176
     1
175
     1
176
     1
 42
1.0
176
     1
 92
        8
176
     1
 66
     8
424
  8421504
176
     1
 43
1.0
176
     1
 76
     1
176
     1
 77
     6
176
     1
 78
     2
176
     1
 67
     7
176
     1
 79
     5
176
     1
170
     0
176
     1
171
     0
176
     1
290
     0
176
     1
 93
        1
176
     1
 44
0.0
176
     1
173
     0
176
     1
  0
VISUALSTYLE
  5
34
102
{ACAD_REACTORS
330
2A
102
}
330
2A
100
AcDbVisualStyle
  2
Conceptual
 70
     9
177
     2
291
     0
 71
     3
176
     1
 72
     2
176
     1
 73
     0
176
     1
 90
        0
176
     1
 40
-0.6
176
     1
 41
-30.0
176
     1
 62
     5
 63
     7
421
 16777215
176
     1
 74
     2
176
     1
 91
        2
176
     1
 64
     7
176
     1
 65
   257
176
     1
 75
     1
176
     1
175
     1
176
     1
 42
40.0
176
     1
 92
        8
176
     1
 66
     7
176
     1
 43
1.0
176
     1
 76
     1
176
     1
 77
     6
176
     1
 78
     2
176
     1
 67
     7
176
     1
 79
     3
176
     1
170
     0
176
     1
171
     0
176
     1
290
     0
176
     1
 93
        1
176
     1
 44
0.0
176
     1
173
     0
176
     1
  0
VISUALSTYLE
  5
35
102
{ACAD_REACTORS
330
2A
102
}
330
2A
100
AcDbVisualStyle
  2
Dim
 70
    11
177
     2
291
     1
 71
     2
176
     1
 72
     2
176
     1
 73
     0
176
     1
 90
        0
176
     1
 40
-0.6
176
     1
 41
-30.0
176
     1
 62
     5
 63
     7
421
 16777215
176
     1
 74
     1
176
     1
 91
        4
176
     1
 64
     7
176
     1
 65
   257
176
     1
 75
     1
176
     1
175
     1
176
     1
 42
1.0
176
     1
 92
        8
176
     1
 66
     7
176
     1
 43
1.0
176
     1
 76
     1
176
     1
 77
     6
176
     1
 78
     2
176
     1
 67
     7
176
     1
 79
     5
176
     1
170
     0
176
     1
171
     0
176
     1
290
     0
176
     1
 93
        1
176
     1
 44
-50.0
176
     1
173
     0
176
     1
  0
VISUALSTYLE
  5
39
102
{ACAD_REACTORS
330
2A
102
}
330
2A
100
AcDbVisualStyle
  2
Facepattern
 70
    15
177
     2
291
     1
 71
     2
176
     1
 72
     2
176
     1
 73
     0
176
     1
 90
        0
176
     1
 40
-0.6
176
     1
 41
-30.0
176
     1
 62
     5
 63
     7
421
 16777215
176
     1
 74
     1
176
     1
 91
        4
176
     1
 64
     7
176
     1
 65
   257
176
     1
 75
     1
176
     1
175
     1
176
     1
 42
1.0
176
     1
 92
        8
176
     1
 66
     7
176
     1
 43
1.0
176
     1
 76
     1
176
     1
 77
     6
176
     1
 78
     2
176
     1
 67
     7
176
     1
 79
     5
176
     1
170
     0
176
     1
171
     0
176
     1
290
     0
176
     1
 93
        1
176
     1
 44
0.0
176
     1
173
     0
176
     1
  0
VISUALSTYLE
  5
2B
102
{ACAD_REACTORS
330
2A
102
}
330
2A
100
AcDbVisualStyle
  2
Flat
 70
     0
177
     2
291
     1
 71
     2
176
     1
 72
     1
176
     1
 73
     1
176
     1
 90
        2
176
     1
 40
-0.6
176
     1
 41
30.0
176
     1
 62
     5
 63
     7
421
 16777215
176
     1
 74
     0
176
     1
 91
        4
176
     1
 64
     7
176
     1
 65
   257
176
     1
 75
     1
176
     1
175
     1
176
     1
 42
1.0
176
     1
 92
        8
176
     1
 66
     7
176
     1
 43
1.0
176
     1
 76
     1
176
     1
 77
     6
176
     1
 78
     2
176
     1
 67
     7
176
     1
 79
     5
176
     1
170
     0
176
     1
171
     0
176
     1
290
     0
176
     1
 93
       13
176
     1
 44
0.0
176
     1
173
     0
176
     1
  0
VISUALSTYLE
  5
2C
102
{ACAD_REACTORS
330
2A
102
}
330
2A
100
AcDbVisualStyle
  2
FlatWithEdges
 70
     1
177
     2
291
     1
 71
     2
176
     1
 72
     1
176
     1
 73
     1
176
     1
 90
        2
176
     1
 40
-0.6
176
     1
 41
30.0
176
     1
 62
     5
 63
     7
421
 16777215
176
     1
 74
     1
176
     1
 91
        4
176
     1
 64
     7
176
     1
 65
   257
176
     1
 75
     1
176
     1
175
     1
176
     1
 42
1.0
176
     1
 92
        0
176
     1
 66
   257
176
     1
 43
1.0
176
     1
 76
     1
176
     1
 77
     6
176
     1
 78
     2
176
     1
 67
     7
176
     1
 79
     5
176
     1
170
     0
176
     1
171
     0
176
     1
290
     0
176
     1
 93
       13
176
     1
 44
0.0
176
     1
173
     0
176
     1
  0
VISUALSTYLE
  5
2D
102
{ACAD_REACTORS
330
2A
102
}
330
2A
100
AcDbVisualStyle
  2
Gouraud
 70
     2
177
     2
291
     1
 71
     2
176
     1
 72
     2
176
     1
 73
     1
176
     1
 90
        2
176
     1
 40
-0.6
176
     1
 41
30.0
176
     1
 62
     5
 63
     7
421
 16777215
176
     1
 74
     0
176
     1
 91
        4
176
     1
 64
     7
176
     1
 65
   257
176
     1
 75
     1
176
     1
175
     1
176
     1
 42
1.0
176
     1
 92
        0
176
     1
 66
     7
176
     1
 43
1.0
176
     1
 76
     1
176
     1
 77
     6
176
     1
 78
     2
176
     1
 67
     7
176
     1
 79
     5
176
     1
170
     0
176
     1
171
     0
176
     1
290
     0
176
     1
 93
       13
176
     1
 44
0.0
176
     1
173
     0
176
     1
  0
VISUALSTYLE
  5
2E
102
{ACAD_REACTORS
330
2A
102
}
330
2A
100
AcDbVisualStyle
  2
GouraudWithEdges
 70
     3
177
     2
291
     1
 71
     2
176
     1
 72
     2
176
     1
 73
     1
176
     1
 90
        2
176
     1
 40
-0.6
176
     1
 41
30.0
176
     1
 62
     5
 63
     7
421
 16777215
176
     1
 74
     1
176
     1
 91
        4
176
     1
 64
     7
176
     1
 65
   257
176
     1
 75
     1
176
     1
175
     1
176
     1
 42
1.0
176
     1
 92
        0
176
     1
 66
   257
176
     1
 43
1.0
176
     1
 76
     1
176
     1
 77
     6
176
     1
 78
     2
176
     1
 67
     7
176
     1
 79
     5
176
     1
170
     0
176
     1
171
     0
176
     1
290
     0
176
     1
 93
       13
176
     1
 44
0.0
176
     1
173
     0
176
     1
  0
VISUALSTYLE
  5
38
102
{ACAD_REACTORS
330
2A
102
}
330
2A
100
AcDbVisualStyle
  2
Linepattern
 70
    14
177
     2
291
     1
 71
     2
176
     1
 72
     2
176
     1
 73
     0
176
     1
 90
        0
176
     1
 40
-0.6
176
     1
 41
-30.0
176
     1
 62
     5
 63
     7
421
 16777215
176
     1
 74
     1
176
     1
 91
        4
176
     1
 64
     7
176
     1
 65
   257
176
     1
 75
     7
176
     1
175
     7
176
     1
 42
1.0
176
     1
 92
        8
176
     1
 66
     7
176
     1
 43
1.0
176
     1
 76
     1
176
     1
 77
     6
176
     1
 78
     2
176
     1
 67
     7
176
     1
 79
     5
176
     1
170
     0
176
     1
171
     0
176
     1
290
     0
176
     1
 93
        1
176
     1
 44
0.0
176
     1
173
     0
176
     1
  0
VISUALSTYLE
  5
33
102
{ACAD_REACTORS
330
2A
102
}
330
2A
100
AcDbVisualStyle
  2
Realistic
 70
     8
177
     2
291
     0
 71
     2
176
     1
 72
     2
176
     1
 73
     0
176
     1
 90
        0
176
     1
 40
-0.6
176
     1
 41
-30.0
176
     1
 62
     5
 63
     7
421
 16777215
176
     1
 74
     1
176
     1
 91
        0
176
     1
 64
     7
176
     1
 65
   257
176
     1
 75
     1
176
     1
175
     1
176
     1
 42
1.0
176
     1
 92
        8
176
     1
 66
     8
424
  7895160
176
     1
 43
1.0
176
     1
 76
     1
176
     1
 77
     6
176
     1
 78
     2
176
     1
 67
     7
176
     1
 79
     5
176
     1
170
     0
176
     1
171
     0
176
     1
290
     0
176
     1
 93
       13
176
     1
 44
0.0
176
     1
173
     0
176
     1
  0
VISUALSTYLE
  5
37
102
{ACAD_REACTORS
330
2A
102
}
330
2A
100
AcDbVisualStyle
  2
Thicken
 70
    13
177
     2
291
     1
 71
     2
176
     1
 72
     2
176
     1
 73
     0
176
     1
 90
        0
176
     1
 40
-0.6
176
     1
 41
-30.0
176
     1
 62
     5
 63
     7
421
 16777215
176
     1
 74
     1
176
     1
 91
        4
176
     1
 64
     7
176
     1
 65
   257
176
     1
 75
     1
176
     1
175
     1
176
     1
 42
1.0
176
     1
 92
       12
176
     1
 66
     7
176
     1
 43
1.0
176
     1
 76
     1
176
     1
 77
     6
176
     1
 78
     2
176
     1
 67
     7
176
     1
 79
     5
176
     1
170
     0
176
     1
171
     0
176
     1
290
     0
176
     1
 93
        1
176
     1
 44
0.0
176
     1
173
     0
176
     1
  0
ENDSEC
  0
EOF
