  0
SECTION
  2
HEADER
  9
$ACADVER
  1
AC1024
  9
$ACADMAINTVER
 70
     6
  9
$DWGCODEPAGE
  3
UNDEFINED
  9
$INSBASE
 10
0.0
 20
0.0
 30
0.0
  9
$EXTMIN
 10
1.000000000000000E+20
 20
1.000000000000000E+20
 30
1.000000000000000E+20
  9
$EXTMAX
 10
-1.000000000000000E+20
 20
-1.000000000000000E+20
 30
-1.000000000000000E+20
  9
$LIMMIN
 10
0.0
 20
0.0
  9
$LIMMAX
 10
12.0
 20
9.0
  9
$ORTHOMODE
 70
     0
  9
$REGENMODE
 70
     1
  9
$FILLMODE
 70
     1
  9
$QTEXTMODE
 70
     0
  9
$MIRRTEXT
 70
     1
  9
$LTSCALE
 40
1.0
  9
$ATTMODE
 70
     1
  9
$TEXTSIZE
 40
0.2
  9
$TRACEWID
 40
0.05
  9
$TEXTSTYLE
  7
Standard
  9
$CLAYER
  8
0
  9
$CELTYPE
  6
ByLayer
  9
$CECOLOR
 62
   256
  9
$CELTSCALE
 40
1.0
  9
$DISPSILH
 70
     0
  9
$DIMSCALE
 40
1.0
  9
$DIMASZ
 40
0.18
  9
$DIMEXO
 40
0.0625
  9
$DIMDLI
 40
0.38
  9
$DIMRND
 40
0.0
  9
$DIMDLE
 40
0.0
  9
$DIMEXE
 40
0.18
  9
$DIMTP
 40
0.0
  9
$DIMTM
 40
0.0
  9
$DIMTXT
 40
0.18
  9
$DIMCEN
 40
0.09
  9
$DIMTSZ
 40
0.0
  9
$DIMTOL
 70
     0
  9
$DIMLIM
 70
     0
  9
$DIMTIH
 70
     1
  9
$DIMTOH
 70
     1
  9
$DIMSE1
 70
     0
  9
$DIMSE2
 70
     0
  9
$DIMTAD
 70
     0
  9
$DIMZIN
 70
     0
  9
$DIMBLK
  1

  9
$DIMASO
 70
     1
  9
$DIMSHO
 70
     1
  9
$DIMPOST
  1

  9
$DIMAPOST
  1

  9
$DIMALT
 70
     0
  9
$DIMALTD
 70
     2
  9
$DIMALTF
 40
25.4
  9
$DIMLFAC
 40
1.0
  9
$DIMTOFL
 70
     0
  9
$DIMTVP
 40
0.0
  9
$DIMTIX
 70
     0
  9
$DIMSOXD
 70
     0
  9
$DIMSAH
 70
     0
  9
$DIMBLK1
  1

  9
$DIMBLK2
  1

  9
$DIMSTYLE
  2
Standard
  9
$DIMCLRD
 70
     0
  9
$DIMCLRE
 70
     0
  9
$DIMCLRT
 70
     0
  9
$DIMTFAC
 40
1.0
  9
$DIMGAP
 40
0.09
  9
$DIMJUST
 70
     0
  9
$DIMSD1
 70
     0
  9
$DIMSD2
 70
     0
  9
$DIMTOLJ
 70
     1
  9
$DIMTZIN
 70
     0
  9
$DIMALTZ
 70
     0
  9
$DIMALTTZ
 70
     0
  9
$DIMUPT
 70
     0
  9
$DIMDEC
 70
     4
  9
$DIMTDEC
 70
     4
  9
$DIMALTU
 70
     2
  9
$DIMALTTD
 70
     2
  9
$DIMTXSTY
  7
Standard
  9
$DIMAUNIT
 70
     0
  9
$DIMADEC
 70
     0
  9
$DIMALTRND
 40
0.0
  9
$DIMAZIN
 70
     0
  9
$DIMDSEP
 70
    46
  9
$DIMATFIT
 70
     3
  9
$DIMFRAC
 70
     0
  9
$DIMLDRBLK
  1

  9
$DIMLUNIT
 70
     2
  9
$DIMLWD
 70
    -2
  9
$DIMLWE
 70
    -2
  9
$DIMTMOVE
 70
     0
  9
$DIMFXL
 40
1.0
  9
$DIMFXLON
 70
     0
  9
$DIMJOGANG
 40
0.7853981633974483
  9
$DIMTFILL
 70
     0
  9
$DIMTFILLCLR
 70
     0
  9
$DIMARCSYM
 70
     0
  9
$DIMLTYPE
  6

  9
$DIMLTEX1
  6

  9
$DIMLTEX2
  6

  9
$DIMTXTDIRECTION
 70
     0
  9
$LUNITS
 70
     2
  9
$LUPREC
 70
     4
  9
$SKETCHINC
 40
0.1
  9
$FILLETRAD
 40
0.5
  9
$AUNITS
 70
     0
  9
$AUPREC
 70
     0
  9
$MENU
  1
.
  9
$ELEVATION
 40
0.0
  9
$PELEVATION
 40
0.0
  9
$THICKNESS
 40
0.0
  9
$LIMCHECK
 70
     0
  9
$CHAMFERA
 40
0.5
  9
$CHAMFERB
 40
0.5
  9
$CHAMFERC
 40
1.0
  9
$CHAMFERD
 40
0.0
  9
$SKPOLY
 70
     0
  9
$TDCREATE
 40
2457917.609953704
  9
$TDUCREATE
 40
2457917.234953704
  9
$TDUPDATE
 40
2457917.609953704
  9
$TDUUPDATE
 40
2457917.234953704
  9
$TDINDWG
 40
0.0000000116
  9
$TDUSRTIMER
 40
0.0000000116
  9
$USRTIMER
 70
     1
  9
$ANGBASE
 50
0.0
  9
$ANGDIR
 70
     0
  9
$PDMODE
 70
     0
  9
$PDSIZE
 40
0.0
  9
$PLINEWID
 40
0.0
  9
$SPLFRAME
 70
     0
  9
$SPLINETYPE
 70
     6
  9
$SPLINESEGS
 70
     8
  9
$HANDSEED
  5
130
  9
$SURFTAB1
 70
     6
  9
$SURFTAB2
 70
     6
  9
$SURFTYPE
 70
     6
  9
$SURFU
 70
     6
  9
$SURFV
 70
     6
  9
$UCSBASE
  2

  9
$UCSNAME
  2

  9
$UCSORG
 10
0.0
 20
0.0
 30
0.0
  9
$UCSXDIR
 10
1.0
 20
0.0
 30
0.0
  9
$UCSYDIR
 10
0.0
 20
1.0
 30
0.0
  9
$UCSORTHOREF
  2

  9
$UCSORTHOVIEW
 70
     0
  9
$UCSORGTOP
 10
0.0
 20
0.0
 30
0.0
  9
$UCSORGBOTTOM
 10
0.0
 20
0.0
 30
0.0
  9
$UCSORGLEFT
 10
0.0
 20
0.0
 30
0.0
  9
$UCSORGRIGHT
 10
0.0
 20
0.0
 30
0.0
  9
$UCSORGFRONT
 10
0.0
 20
0.0
 30
0.0
  9
$UCSORGBACK
 10
0.0
 20
0.0
 30
0.0
  9
$PUCSBASE
  2

  9
$PUCSNAME
  2

  9
$PUCSORG
 10
0.0
 20
0.0
 30
0.0
  9
$PUCSXDIR
 10
1.0
 20
0.0
 30
0.0
  9
$PUCSYDIR
 10
0.0
 20
1.0
 30
0.0
  9
$PUCSORTHOREF
  2

  9
$PUCSORTHOVIEW
 70
     0
  9
$PUCSORGTOP
 10
0.0
 20
0.0
 30
0.0
  9
$PUCSORGBOTTOM
 10
0.0
 20
0.0
 30
0.0
  9
$PUCSORGLEFT
 10
0.0
 20
0.0
 30
0.0
  9
$PUCSORGRIGHT
 10
0.0
 20
0.0
 30
0.0
  9
$PUCSORGFRONT
 10
0.0
 20
0.0
 30
0.0
  9
$PUCSORGBACK
 10
0.0
 20
0.0
 30
0.0
  9
$USERI1
 70
     0
  9
$USERI2
 70
     0
  9
$USERI3
 70
     0
  9
$USERI4
 70
     0
  9
$USERI5
 70
     0
  9
$USERR1
 40
0.0
  9
$USERR2
 40
0.0
  9
$USERR3
 40
0.0
  9
$USERR4
 40
0.0
  9
$USERR5
 40
0.0
  9
$WORLDVIEW
 70
     1
  9
$SHADEDGE
 70
     3
  9
$SHADEDIF
 70
    70
  9
$TILEMODE
 70
     1
  9
$MAXACTVP
 70
    64
  9
$PINSBASE
 10
0.0
 20
0.0
 30
0.0
  9
$PLIMCHECK
 70
     0
  9
$PEXTMIN
 10
1.000000000000000E+20
 20
1.000000000000000E+20
 30
1.000000000000000E+20
  9
$PEXTMAX
 10
-1.000000000000000E+20
 20
-1.000000000000000E+20
 30
-1.000000000000000E+20
  9
$PLIMMIN
 10
0.0
 20
0.0
  9
$PLIMMAX
 10
12.0
 20
9.0
  9
$UNITMODE
 70
     0
  9
$VISRETAIN
 70
     1
  9
$PLINEGEN
 70
     0
  9
$PSLTSCALE
 70
     1
  9
$TREEDEPTH
 70
  3020
  9
$CMLSTYLE
  2
Standard
  9
$CMLJUST
 70
     0
  9
$CMLSCALE
 40
1.0
  9
$PROXYGRAPHICS
 70
     1
  9
$MEASUREMENT
 70
     0
  9
$CELWEIGHT
370
    -1
  9
$ENDCAPS
280
     0
  9
$JOINSTYLE
280
     0
  9
$LWDISPLAY
290
     1
  9
$INSUNITS
 70
     1
  9
$HYPERLINKBASE
  1

  9
$STYLESHEET
  1

  9
$XEDIT
290
     1
  9
$CEPSNTYPE
380
     0
  9
$PSTYLEMODE
290
     1
  9
$FINGERPRINTGUID
  2
{34A4A5F3-9BC4-6E25-27C6-ED094918DBDF}
  9
$VERSIONGUID
  2
{FAEB1C32-E019-11D5-929B-00C0DF256EC4}
  9
$EXTNAMES
290
     1
  9
$PSVPSCALE
 40
0.0
  9
$OLESTARTUP
290
     0
  9
$SORTENTS
280
   127
  9
$INDEXCTL
280
     0
  9
$HIDETEXT
280
     1
  9
$XCLIPFRAME
280
     2
  9
$HALOGAP
280
     0
  9
$OBSCOLOR
 70
   257
  9
$OBSLTYPE
280
     0
  9
$INTERSECTIONDISPLAY
280
     0
  9
$INTERSECTIONCOLOR
 70
   257
  9
$DIMASSOC
280
     2
  9
$PROJECTNAME
  1

  9
$CAMERADISPLAY
290
     0
  9
$LENSLENGTH
 40
50.0
  9
$CAMERAHEIGHT
 40
0.0
  9
$STEPSPERSEC
 40
2.0
  9
$STEPSIZE
 40
6.0
  9
$3DDWFPREC
 40
2.0
  9
$PSOLWIDTH
 40
0.25
  9
$PSOLHEIGHT
 40
4.0
  9
$LOFTANG1
 40
1.570796326794897
  9
$LOFTANG2
 40
1.570796326794897
  9
$LOFTMAG1
 40
0.0
  9
$LOFTMAG2
 40
0.0
  9
$LOFTPARAM
 70
     7
  9
$LOFTNORMALS
280
     1
  9
$LATITUDE
 40
37.795
  9
$LONGITUDE
 40
-122.394
  9
$NORTHDIRECTION
 40
0.0
  9
$TIMEZONE
 70
 -8000
  9
$LIGHTGLYPHDISPLAY
280
     1
  9
$TILEMODELIGHTSYNCH
280
     1
  9
$CMATERIAL
347
3C
  9
$SOLIDHIST
280
     1
  9
$SHOWHIST
280
     1
  9
$DWFFRAME
280
     2
  9
$DGNFRAME
280
     2
  9
$REALWORLDSCALE
290
     1
  9
$INTERFERECOLOR
 62
   256
  9
$CSHADOW
280
     0
  9
$SHADOWPLANELOCATION
 40
0.0
  0
ENDSEC
  0
SECTION
  2
CLASSES
  0
CLASS
  1
ACDBDICTIONARYWDFLT
  2
AcDbDictionaryWithDefault
  3
ObjectDBX Classes
 90
        0
 91
        4
280
     0
281
     0
  0
CLASS
  1
VISUALSTYLE
  2
AcDbVisualStyle
  3
ObjectDBX Classes
 90
     4095
 91
        4
280
     0
281
     0
  0
CLASS
  1
MATERIAL
  2
AcDbMaterial
  3
ObjectDBX Classes
 90
     1153
 91
        4
280
     0
281
     0
  0
CLASS
  1
SUN
  2
AcDbSun
  3
SCENEOE
 90
     1024
 91
        4
280
     0
281
     0
  0
ENDSEC
  0
SECTION
  2
TABLES
  0
TABLE
  2
VPORT
  5
8
330
0
100
AcDbSymbolTable
 70
     1
  0
VPORT
  5
29
330
8
100
AcDbSymbolTableRecord
100
AcDbViewportTableRecord
  2
*Active
 70
     0
 10
0.0
 20
0.0
 11
1.0
 21
1.0
 12
0.0
 22
0.0
 13
0.0
 23
0.0
 14
0.5
 24
0.5
 15
0.5
 25
0.5
 16
0.0
 26
0.0
 36
1.0
 17
91.00082462281999
 27
-128.4993055234307
 37
0.0
 40
256.9986110468615
 41
0.7081814508812795
 42
50.0
 43
0.0
 44
0.0
 50
0.0
 51
0.0
 71
     0
 72
   100
 73
     1
 74
     3
 75
     0
 76
     0
 77
     0
 78
     0
281
     0
 65
     1
110
0.0
120
0.0
130
0.0
111
1.0
121
0.0
131
0.0
112
0.0
122
1.0
132
0.0
 79
     0
146
0.0
 60
     3
 61
     5
292
     1
282
     1
141
0.0
142
0.0
 63
   250
361
3F
  0
ENDTAB
  0
TABLE
  2
LTYPE
  5
5
330
0
100
AcDbSymbolTable
 70
     1
  0
LTYPE
  5
14
330
5
100
AcDbSymbolTableRecord
100
AcDbLinetypeTableRecord
  2
ByBlock
 70
     0
  3

 72
    65
 73
     0
 40
0.0
  0
LTYPE
  5
15
330
5
100
AcDbSymbolTableRecord
100
AcDbLinetypeTableRecord
  2
ByLayer
 70
     0
  3

 72
    65
 73
     0
 40
0.0
  0
LTYPE
  5
16
330
5
100
AcDbSymbolTableRecord
100
AcDbLinetypeTableRecord
  2
Continuous
 70
     0
  3
Solid line
 72
    65
 73
     0
 40
0.0
  0
ENDTAB
  0
TABLE
  2
LAYER
  5
2
330
0
100
AcDbSymbolTable
 70
     2
  0
LAYER
  5
10
330
2
100
AcDbSymbolTableRecord
100
AcDbLayerTableRecord
  2
0
 70
     0
 62
     7
  6
Continuous
370
    -3
390
F
347
3E
  0
LAYER
  5
40
330
2
100
AcDbSymbolTableRecord
100
AcDbLayerTableRecord
  2
_U+30EC_U+30A4_U+30E4_U+30FC 1
 70
     0
 62
     7
  6
Continuous
370
    -3
390
F
347
3E
  0
ENDTAB
  0
TABLE
  2
STYLE
  5
3
330
0
100
AcDbSymbolTable
 70
     1
  0
STYLE
  5
11
330
3
100
AcDbSymbolTableRecord
100
AcDbTextStyleTableRecord
  2
Standard
 70
     0
 40
0.0
 41
1.0
 50
0.0
 71
     0
 42
0.2
  3
txt
  4

  0
ENDTAB
  0
TABLE
  2
VIEW
  5
6
330
0
100
AcDbSymbolTable
 70
     0
  0
ENDTAB
  0
TABLE
  2
UCS
  5
7
330
0
100
AcDbSymbolTable
 70
     0
  0
ENDTAB
  0
TABLE
  2
APPID
  5
9
330
0
100
AcDbSymbolTable
 70
     1
  0
APPID
  5
12
330
9
100
AcDbSymbolTableRecord
100
AcDbRegAppTableRecord
  2
ACAD
 70
     0
  0
ENDTAB
  0
TABLE
  2
DIMSTYLE
  5
A
330
0
100
AcDbSymbolTable
 70
     1
100
AcDbDimStyleTable
  0
DIMSTYLE
105
27
330
A
100
AcDbSymbolTableRecord
100
AcDbDimStyleTableRecord
  2
Standard
 70
     0
178
     0
340
11
  0
ENDTAB
  0
TABLE
  2
BLOCK_RECORD
  5
1
330
0
100
AcDbSymbolTable
 70
     7
  0
BLOCK_RECORD
  5
1F
330
1
100
AcDbSymbolTableRecord
100
AcDbBlockTableRecord
  2
*Model_Space
340
22
 70
     0
280
     1
281
     0
  0
BLOCK_RECORD
  5
1B
330
1
100
AcDbSymbolTableRecord
100
AcDbBlockTableRecord
  2
*Paper_Space
340
1E
 70
     0
280
     1
281
     0
  0
BLOCK_RECORD
  5
23
330
1
100
AcDbSymbolTableRecord
100
AcDbBlockTableRecord
  2
*Paper_Space0
340
26
 70
     0
280
     1
281
     0
  0
BLOCK_RECORD
  5
68
330
1
100
AcDbSymbolTableRecord
100
AcDbBlockTableRecord
  2
block 2
340
0
102
{BLKREFS
331
69
102
}
 70
     0
280
     1
281
     0
  0
BLOCK_RECORD
  5
82
330
1
100
AcDbSymbolTableRecord
100
AcDbBlockTableRecord
  2
block 3
340
0
102
{BLKREFS
331
83
102
}
 70
     0
280
     1
281
     0
  0
BLOCK_RECORD
  5
97
330
1
100
AcDbSymbolTableRecord
100
AcDbBlockTableRecord
  2
block 4
340
0
102
{BLKREFS
331
98
102
}
 70
     0
280
     1
281
     0
  0
BLOCK_RECORD
  5
BC
330
1
100
AcDbSymbolTableRecord
100
AcDbBlockTableRecord
  2
block 5
340
0
102
{BLKREFS
331
BD
102
}
 70
     0
280
     1
281
     0
  0
BLOCK_RECORD
  5
FB
330
1
100
AcDbSymbolTableRecord
100
AcDbBlockTableRecord
  2
block 6
340
0
102
{BLKREFS
331
FC
102
}
 70
     0
280
     1
281
     0
  0
BLOCK_RECORD
  5
11C
330
1
100
AcDbSymbolTableRecord
100
AcDbBlockTableRecord
  2
block 7
340
0
102
{BLKREFS
331
11D
102
}
 70
     0
280
     1
281
     0
  0
ENDTAB
  0
ENDSEC
  0
SECTION
  2
BLOCKS
  0
BLOCK
  5
20
330
1F
100
AcDbEntity
  8
0
100
AcDbBlockBegin
  2
*Model_Space
 70
     0
 10
0.0
 20
0.0
 30
0.0
  3
*Model_Space
  1

  0
ENDBLK
  5
21
330
1F
100
AcDbEntity
  8
0
100
AcDbBlockEnd
  0
BLOCK
  5
1C
330
1B
100
AcDbEntity
 67
     1
  8
0
100
AcDbBlockBegin
  2
*Paper_Space
 70
     0
 10
0.0
 20
0.0
 30
0.0
  3
*Paper_Space
  1

  0
ENDBLK
  5
1D
330
1B
100
AcDbEntity
 67
     1
  8
0
100
AcDbBlockEnd
  0
BLOCK
  5
24
330
23
100
AcDbEntity
  8
0
100
AcDbBlockBegin
  2
*Paper_Space0
 70
     0
 10
0.0
 20
0.0
 30
0.0
  3
*Paper_Space0
  1

  0
ENDBLK
  5
25
330
23
100
AcDbEntity
  8
0
100
AcDbBlockEnd
  0
BLOCK
  5
6A
330
68
100
AcDbEntity
  8
0
100
AcDbBlockBegin
  2
block 2
 70
     0
 10
0.0
 20
0.0
 30
0.0
  3
block 2
  1

  0
SPLINE
  5
6C
330
68
100
AcDbEntity
  8
_U+30EC_U+30A4_U+30E4_U+30FC 1
370
     0
100
AcDbSpline
210
0.0
220
0.0
230
1.0
 70
    11
 71
     3
 72
    32
 73
    28
 74
     0
 42
0.0000000001
 43
0.0000000001
 12
1.0
 22
0.0
 32
0.0
 13
1.0
 23
0.0
 33
0.0
 40
0.0
 40
0.0
 40
0.0
 40
0.0
 40
1.0
 40
1.0
 40
1.0
 40
2.0
 40
2.0
 40
2.0
 40
3.0
 40
3.0
 40
3.0
 40
4.0
 40
4.0
 40
4.0
 40
5.0
 40
5.0
 40
5.0
 40
6.0
 40
6.0
 40
6.0
 40
7.0
 40
7.0
 40
7.0
 40
8.0
 40
8.0
 40
8.0
 40
9.0
 40
9.0
 40
9.0
 40
9.0
 10
85.15431991143711
 20
-121.5922335850533
 30
0.0
 10
84.98137611807758
 20
-121.5922335850533
 30
0.0
 10
84.73660208385057
 20
-121.522470401477
 30
0.0
 10
84.69853377873856
 20
-121.1901909419247
 30
0.0
 10
84.69853377873856
 20
-121.1901909419247
 30
0.0
 10
84.91161293450126
 20
-121.1901909419247
 30
0.0
 10
84.91161293450126
 20
-121.1901909419247
 30
0.0
 10
84.92229273050555
 20
-121.249446584271
 30
0.0
 10
84.95381535419558
 20
-121.3975856901367
 30
0.0
 10
85.15638696872827
 20
-121.3975856901367
 30
0.0
 10
85.44766979200614
 20
-121.3975856901367
 30
0.0
 10
85.48556584234389
 20
-121.0675455426498
 30
0.0
 10
85.49831269563931
 20
-120.8623901065032
 30
0.0
 10
85.40753442960298
 20
-120.9428330860837
 30
0.0
 10
85.34001055809209
 20
-120.9998494163646
 30
0.0
 10
85.15862628079368
 20
-120.9998494163646
 30
0.0
 10
84.97913680601216
 20
-120.9998494163646
 30
0.0
 10
84.67751869627854
 20
-120.8940849849675
 30
0.0
 10
84.67751869627854
 20
-120.4879082272565
 30
0.0
 10
84.67751869627854
 20
-120.1685478757738
 30
0.0
 10
84.87578394145467
 20
-119.9484062742664
 30
0.0
 10
85.19238821654913
 20
-119.9484062742664
 30
0.0
 10
85.7050184247543
 20
-119.9484062742664
 30
0.0
 10
85.71569822075858
 20
-120.5027221378431
 30
0.0
 10
85.71569822075858
 20
-120.7164903127028
 30
0.0
 10
85.71569822075858
 20
-120.946967200666
 30
0.0
 10
85.69657794081544
 20
-121.5922335850533
 30
0.0
 10
85.15431991143711
 20
-121.5922335850533
 30
0.0
  0
SPLINE
  5
6D
330
68
100
AcDbEntity
  8
_U+30EC_U+30A4_U+30E4_U+30FC 1
370
     0
100
AcDbSpline
210
0.0
220
0.0
230
1.0
 70
    11
 71
     3
 72
    17
 73
    13
 74
     0
 42
0.0000000001
 43
0.0000000001
 12
1.0
 22
0.0
 32
0.0
 13
1.0
 23
0.0
 33
0.0
 40
0.0
 40
0.0
 40
0.0
 40
0.0
 40
1.0
 40
1.0
 40
1.0
 40
2.0
 40
2.0
 40
2.0
 40
3.0
 40
3.0
 40
3.0
 40
4.0
 40
4.0
 40
4.0
 40
4.0
 10
85.19445527384028
 20
-120.1409871118918
 30
0.0
 10
85.07628849869621
 20
-120.1409871118918
 30
0.0
 10
84.90110539327125
 20
-120.198175696947
 30
0.0
 10
84.90110539327125
 20
-120.4837741126742
 30
0.0
 10
84.90110539327125
 20
-120.7101168860551
 30
0.0
 10
85.04045950564961
 20
-120.805201521448
 30
0.0
 10
85.17550724867141
 20
-120.805201521448
 30
0.0
 10
85.43716225077613
 20
-120.805201521448
 30
0.0
 10
85.47505830111388
 20
-120.5957397159448
 30
0.0
 10
85.47505830111388
 20
-120.4794677433176
 30
0.0
 10
85.47505830111388
 20
-120.3039401283442
 30
0.0
 10
85.38014592049525
 20
-120.1409871118918
 30
0.0
 10
85.19445527384028
 20
-120.1409871118918
 30
0.0
  0
HATCH
  5
6E
330
68
100
AcDbEntity
  8
_U+30EC_U+30A4_U+30E4_U+30FC 1
 62
   179
420
  2234388
100
AcDbHatch
 10
0.0
 20
0.0
 30
0.0
210
0.0
220
0.0
230
1.0
  2
SOLID
 70
     1
 71
     0
 91
        2
 92
        1
 93
        1
 72
     4
 94
        3
 73
     0
 74
     1
 95
       32
 96
       28
 40
0.0
 40
0.0
 40
0.0
 40
0.0
 40
1.0
 40
1.0
 40
1.0
 40
2.0
 40
2.0
 40
2.0
 40
3.0
 40
3.0
 40
3.0
 40
4.0
 40
4.0
 40
4.0
 40
5.0
 40
5.0
 40
5.0
 40
6.0
 40
6.0
 40
6.0
 40
7.0
 40
7.0
 40
7.0
 40
8.0
 40
8.0
 40
8.0
 40
9.0
 40
9.0
 40
9.0
 40
9.0
 10
85.15431991143711
 20
-121.5922335850533
 10
84.98137611807758
 20
-121.5922335850533
 10
84.73660208385057
 20
-121.522470401477
 10
84.69853377873856
 20
-121.1901909419247
 10
84.69853377873856
 20
-121.1901909419247
 10
84.91161293450126
 20
-121.1901909419247
 10
84.91161293450126
 20
-121.1901909419247
 10
84.92229273050555
 20
-121.249446584271
 10
84.95381535419558
 20
-121.3975856901367
 10
85.15638696872827
 20
-121.3975856901367
 10
85.44766979200614
 20
-121.3975856901367
 10
85.48556584234389
 20
-121.0675455426498
 10
85.49831269563931
 20
-120.8623901065032
 10
85.40753442960298
 20
-120.9428330860837
 10
85.34001055809209
 20
-120.9998494163646
 10
85.15862628079368
 20
-120.9998494163646
 10
84.97913680601216
 20
-120.9998494163646
 10
84.67751869627854
 20
-120.8940849849675
 10
84.67751869627854
 20
-120.4879082272565
 10
84.67751869627854
 20
-120.1685478757738
 10
84.87578394145467
 20
-119.9484062742664
 10
85.19238821654913
 20
-119.9484062742664
 10
85.7050184247543
 20
-119.9484062742664
 10
85.71569822075858
 20
-120.5027221378431
 10
85.71569822075858
 20
-120.7164903127028
 10
85.71569822075858
 20
-120.946967200666
 10
85.69657794081544
 20
-121.5922335850533
 10
85.15431991143711
 20
-121.5922335850533
 97
        0
 97
        0
 92
        1
 93
        1
 72
     4
 94
        3
 73
     0
 74
     1
 95
       17
 96
       13
 40
0.0
 40
0.0
 40
0.0
 40
0.0
 40
1.0
 40
1.0
 40
1.0
 40
2.0
 40
2.0
 40
2.0
 40
3.0
 40
3.0
 40
3.0
 40
4.0
 40
4.0
 40
4.0
 40
4.0
 10
85.19445527384028
 20
-120.1409871118918
 10
85.07628849869621
 20
-120.1409871118918
 10
84.90110539327125
 20
-120.198175696947
 10
84.90110539327125
 20
-120.4837741126742
 10
84.90110539327125
 20
-120.7101168860551
 10
85.04045950564961
 20
-120.805201521448
 10
85.17550724867141
 20
-120.805201521448
 10
85.43716225077613
 20
-120.805201521448
 10
85.47505830111388
 20
-120.5957397159448
 10
85.47505830111388
 20
-120.4794677433176
 10
85.47505830111388
 20
-120.3039401283442
 10
85.38014592049525
 20
-120.1409871118918
 10
85.19445527384028
 20
-120.1409871118918
 97
        0
 97
        0
 75
     2
 76
     1
 98
        0
  0
POLYLINE
  5
6F
330
68
100
AcDbEntity
  8
_U+30EC_U+30A4_U+30E4_U+30FC 1
370
     0
100
AcDb2dPolyline
 66
     1
 10
0.0
 20
0.0
 30
0.0
  0
VERTEX
  5
70
330
6F
100
AcDbEntity
  8
_U+30EC_U+30A4_U+30E4_U+30FC 1
370
     0
100
AcDbVertex
100
AcDb2dVertex
 10
85.92998315994112
 20
-121.5414184266459
 30
0.0
  0
VERTEX
  5
71
330
6F
100
AcDbEntity
  8
_U+30EC_U+30A4_U+30E4_U+30FC 1
370
     0
100
AcDbVertex
100
AcDb2dVertex
 10
85.92998315994112
 20
-121.2897542014484
 30
0.0
  0
VERTEX
  5
72
330
6F
100
AcDbEntity
  8
_U+30EC_U+30A4_U+30E4_U+30FC 1
370
     0
100
AcDbVertex
100
AcDb2dVertex
 10
86.18095836604157
 20
-121.2897542014484
 30
0.0
  0
VERTEX
  5
73
330
6F
100
AcDbEntity
  8
_U+30EC_U+30A4_U+30E4_U+30FC 1
370
     0
100
AcDbVertex
100
AcDb2dVertex
 10
86.18095836604157
 20
-121.5414184266459
 30
0.0
  0
VERTEX
  5
74
330
6F
100
AcDbEntity
  8
_U+30EC_U+30A4_U+30E4_U+30FC 1
370
     0
100
AcDbVertex
100
AcDb2dVertex
 10
85.92998315994112
 20
-121.5414184266459
 30
0.0
  0
SEQEND
  5
75
330
6F
100
AcDbEntity
  8
_U+30EC_U+30A4_U+30E4_U+30FC 1
370
     0
  0
HATCH
  5
76
330
68
100
AcDbEntity
  8
_U+30EC_U+30A4_U+30E4_U+30FC 1
 62
   179
420
  2234388
100
AcDbHatch
 10
0.0
 20
0.0
 30
0.0
210
0.0
220
0.0
230
1.0
  2
SOLID
 70
     1
 71
     0
 91
        1
 92
        1
 93
        4
 72
     1
 10
85.92998315994112
 20
-121.5414184266459
 11
85.92998315994112
 21
-121.2897542014484
 72
     1
 10
85.92998315994112
 20
-121.2897542014484
 11
86.18095836604157
 21
-121.2897542014484
 72
     1
 10
86.18095836604157
 20
-121.2897542014484
 11
86.18095836604157
 21
-121.5414184266459
 72
     1
 10
86.18095836604157
 20
-121.5414184266459
 11
85.92998315994112
 21
-121.5414184266459
 97
        0
 75
     2
 76
     1
 98
        0
  0
SPLINE
  5
77
330
68
100
AcDbEntity
  8
_U+30EC_U+30A4_U+30E4_U+30FC 1
370
     0
100
AcDbSpline
210
0.0
220
0.0
230
1.0
 70
    11
 71
     3
 72
    29
 73
    25
 74
     0
 42
0.0000000001
 43
0.0000000001
 12
1.0
 22
0.0
 32
0.0
 13
1.0
 23
0.0
 33
0.0
 40
0.0
 40
0.0
 40
0.0
 40
0.0
 40
1.0
 40
1.0
 40
1.0
 40
2.0
 40
2.0
 40
2.0
 40
3.0
 40
3.0
 40
3.0
 40
4.0
 40
4.0
 40
4.0
 40
5.0
 40
5.0
 40
5.0
 40
6.0
 40
6.0
 40
6.0
 40
7.0
 40
7.0
 40
7.0
 40
8.0
 40
8.0
 40
8.0
 40
8.0
 10
86.91476370439979
 20
-121.5922335850533
 30
0.0
 10
86.64897458771276
 20
-121.5922335850533
 30
0.0
 10
86.3957600695469
 20
-121.4547742751919
 30
0.0
 10
86.3957600695469
 20
-121.1056138477618
 30
0.0
 10
86.3957600695469
 20
-120.8496432532077
 30
0.0
 10
86.53718123921641
 20
-120.7545586178148
 30
0.0
 10
86.64260116106504
 20
-120.6930636634031
 30
0.0
 10
86.51806095927327
 20
-120.6339802758311
 30
0.0
 10
86.4420966038235
 20
-120.5196031057208
 30
0.0
 10
86.4420966038235
 20
-120.3588894013339
 30
0.0
 10
86.4420966038235
 20
-120.0837985268367
 30
0.0
 10
86.6405341037739
 20
-119.9484062742664
 30
0.0
 10
86.91476370439979
 20
-119.9484062742664
 30
0.0
 10
87.1976060437388
 20
-119.9484062742664
 30
0.0
 10
87.38743080497606
 20
-120.0924112655498
 30
0.0
 10
87.38743080497606
 20
-120.3588894013339
 30
0.0
 10
87.38743080497606
 20
-120.5196031057208
 30
0.0
 10
87.30939939223515
 20
-120.6339802758311
 30
0.0
 10
87.18485919044338
 20
-120.6930636634031
 30
0.0
 10
87.27357039918856
 20
-120.7438788218106
 30
0.0
 10
87.43187253673578
 20
-120.8391357119777
 30
0.0
 10
87.43187253673578
 20
-121.1014797331795
 30
0.0
 10
87.43187253673578
 20
-121.4757893576519
 30
0.0
 10
87.15333656675334
 20
-121.5922335850533
 30
0.0
 10
86.91476370439979
 20
-121.5922335850533
 30
0.0
  0
SPLINE
  5
78
330
68
100
AcDbEntity
  8
_U+30EC_U+30A4_U+30E4_U+30FC 1
370
     0
100
AcDbSpline
210
0.0
220
0.0
230
1.0
 70
    11
 71
     3
 72
    17
 73
    13
 74
     0
 42
0.0000000001
 43
0.0000000001
 12
1.0
 22
0.0
 32
0.0
 13
1.0
 23
0.0
 33
0.0
 40
0.0
 40
0.0
 40
0.0
 40
0.0
 40
1.0
 40
1.0
 40
1.0
 40
2.0
 40
2.0
 40
2.0
 40
3.0
 40
3.0
 40
3.0
 40
4.0
 40
4.0
 40
4.0
 40
4.0
 10
86.91476370439979
 20
-120.8010674068657
 30
0.0
 10
86.77127547743913
 20
-120.8010674068657
 30
0.0
 10
86.6193467665396
 20
-120.8877115583198
 30
0.0
 10
86.6193467665396
 20
-121.0907999371752
 30
0.0
 10
86.6193467665396
 20
-121.2961276280961
 30
0.0
 10
86.74595402562254
 20
-121.3975856901367
 30
0.0
 10
86.91476370439979
 20
-121.3975856901367
 30
0.0
 10
87.10045435105475
 20
-121.3975856901367
 30
0.0
 10
87.21018064225996
 20
-121.2749402908618
 30
0.0
 10
87.21018064225996
 20
-121.0971733638229
 30
0.0
 10
87.21018064225996
 20
-120.8751369597986
 30
0.0
 10
87.04774439013043
 20
-120.8010674068657
 30
0.0
 10
86.91476370439979
 20
-120.8010674068657
 30
0.0
  0
SPLINE
  5
79
330
68
100
AcDbEntity
  8
_U+30EC_U+30A4_U+30E4_U+30FC 1
370
     0
100
AcDbSpline
210
0.0
220
0.0
230
1.0
 70
    11
 71
     3
 72
    17
 73
    13
 74
     0
 42
0.0000000001
 43
0.0000000001
 12
1.0
 22
0.0
 32
0.0
 13
1.0
 23
0.0
 33
0.0
 40
0.0
 40
0.0
 40
0.0
 40
0.0
 40
1.0
 40
1.0
 40
1.0
 40
2.0
 40
2.0
 40
2.0
 40
3.0
 40
3.0
 40
3.0
 40
4.0
 40
4.0
 40
4.0
 40
4.0
 10
86.91476370439979
 20
-120.1409871118918
 30
0.0
 10
86.75026039497911
 20
-120.1409871118918
 30
0.0
 10
86.66585555559048
 20
-120.236244002059
 30
0.0
 10
86.66585555559048
 20
-120.3716362546293
 30
0.0
 10
86.66585555559048
 20
-120.4942816539042
 30
0.0
 10
86.73751354168368
 20
-120.6127929385968
 30
0.0
 10
86.91476370439979
 20
-120.6127929385968
 30
0.0
 10
87.0920138671159
 20
-120.6127929385968
 30
0.0
 10
87.16384410798335
 20
-120.4942816539042
 30
0.0
 10
87.16384410798335
 20
-120.3716362546293
 30
0.0
 10
87.16384410798335
 20
-120.236244002059
 30
0.0
 10
87.07737221130358
 20
-120.1409871118918
 30
0.0
 10
86.91476370439979
 20
-120.1409871118918
 30
0.0
  0
HATCH
  5
7A
330
68
100
AcDbEntity
  8
_U+30EC_U+30A4_U+30E4_U+30FC 1
 62
   179
420
  2234388
100
AcDbHatch
 10
0.0
 20
0.0
 30
0.0
210
0.0
220
0.0
230
1.0
  2
SOLID
 70
     1
 71
     0
 91
        3
 92
        1
 93
        1
 72
     4
 94
        3
 73
     0
 74
     1
 95
       29
 96
       25
 40
0.0
 40
0.0
 40
0.0
 40
0.0
 40
1.0
 40
1.0
 40
1.0
 40
2.0
 40
2.0
 40
2.0
 40
3.0
 40
3.0
 40
3.0
 40
4.0
 40
4.0
 40
4.0
 40
5.0
 40
5.0
 40
5.0
 40
6.0
 40
6.0
 40
6.0
 40
7.0
 40
7.0
 40
7.0
 40
8.0
 40
8.0
 40
8.0
 40
8.0
 10
86.91476370439979
 20
-121.5922335850533
 10
86.64897458771276
 20
-121.5922335850533
 10
86.3957600695469
 20
-121.4547742751919
 10
86.3957600695469
 20
-121.1056138477618
 10
86.3957600695469
 20
-120.8496432532077
 10
86.53718123921641
 20
-120.7545586178148
 10
86.64260116106504
 20
-120.6930636634031
 10
86.51806095927327
 20
-120.6339802758311
 10
86.4420966038235
 20
-120.5196031057208
 10
86.4420966038235
 20
-120.3588894013339
 10
86.4420966038235
 20
-120.0837985268367
 10
86.6405341037739
 20
-119.9484062742664
 10
86.91476370439979
 20
-119.9484062742664
 10
87.1976060437388
 20
-119.9484062742664
 10
87.38743080497606
 20
-120.0924112655498
 10
87.38743080497606
 20
-120.3588894013339
 10
87.38743080497606
 20
-120.5196031057208
 10
87.30939939223515
 20
-120.6339802758311
 10
87.18485919044338
 20
-120.6930636634031
 10
87.27357039918856
 20
-120.7438788218106
 10
87.43187253673578
 20
-120.8391357119777
 10
87.43187253673578
 20
-121.1014797331795
 10
87.43187253673578
 20
-121.4757893576519
 10
87.15333656675334
 20
-121.5922335850533
 10
86.91476370439979
 20
-121.5922335850533
 97
        0
 97
        0
 92
        1
 93
        1
 72
     4
 94
        3
 73
     0
 74
     1
 95
       17
 96
       13
 40
0.0
 40
0.0
 40
0.0
 40
0.0
 40
1.0
 40
1.0
 40
1.0
 40
2.0
 40
2.0
 40
2.0
 40
3.0
 40
3.0
 40
3.0
 40
4.0
 40
4.0
 40
4.0
 40
4.0
 10
86.91476370439979
 20
-120.8010674068657
 10
86.77127547743913
 20
-120.8010674068657
 10
86.6193467665396
 20
-120.8877115583198
 10
86.6193467665396
 20
-121.0907999371752
 10
86.6193467665396
 20
-121.2961276280961
 10
86.74595402562254
 20
-121.3975856901367
 10
86.91476370439979
 20
-121.3975856901367
 10
87.10045435105475
 20
-121.3975856901367
 10
87.21018064225996
 20
-121.2749402908618
 10
87.21018064225996
 20
-121.0971733638229
 10
87.21018064225996
 20
-120.8751369597986
 10
87.04774439013043
 20
-120.8010674068657
 10
86.91476370439979
 20
-120.8010674068657
 97
        0
 97
        0
 92
        1
 93
        1
 72
     4
 94
        3
 73
     0
 74
     1
 95
       17
 96
       13
 40
0.0
 40
0.0
 40
0.0
 40
0.0
 40
1.0
 40
1.0
 40
1.0
 40
2.0
 40
2.0
 40
2.0
 40
3.0
 40
3.0
 40
3.0
 40
4.0
 40
4.0
 40
4.0
 40
4.0
 10
86.91476370439979
 20
-120.1409871118918
 10
86.75026039497911
 20
-120.1409871118918
 10
86.66585555559048
 20
-120.236244002059
 10
86.66585555559048
 20
-120.3716362546293
 10
86.66585555559048
 20
-120.4942816539042
 10
86.73751354168368
 20
-120.6127929385968
 10
86.91476370439979
 20
-120.6127929385968
 10
87.0920138671159
 20
-120.6127929385968
 10
87.16384410798335
 20
-120.4942816539042
 10
87.16384410798335
 20
-120.3716362546293
 10
87.16384410798335
 20
-120.236244002059
 10
87.07737221130358
 20
-120.1409871118918
 10
86.91476370439979
 20
-120.1409871118918
 97
        0
 97
        0
 75
     2
 76
     1
 98
        0
  0
ENDBLK
  5
6B
330
68
100
AcDbEntity
  8
0
100
AcDbBlockEnd
  0
BLOCK
  5
84
330
82
100
AcDbEntity
  8
0
100
AcDbBlockBegin
  2
block 3
 70
     0
 10
0.0
 20
0.0
 30
0.0
  3
block 3
  1

  0
SPLINE
  5
86
330
82
100
AcDbEntity
  8
_U+30EC_U+30A4_U+30E4_U+30FC 1
370
     0
100
AcDbSpline
210
0.0
220
0.0
230
1.0
 70
    11
 71
     3
 72
    44
 73
    40
 74
     0
 42
0.0000000001
 43
0.0000000001
 12
1.0
 22
0.0
 32
0.0
 13
1.0
 23
0.0
 33
0.0
 40
0.0
 40
0.0
 40
0.0
 40
0.0
 40
1.0
 40
1.0
 40
1.0
 40
2.0
 40
2.0
 40
2.0
 40
3.0
 40
3.0
 40
3.0
 40
4.0
 40
4.0
 40
4.0
 40
5.0
 40
5.0
 40
5.0
 40
6.0
 40
6.0
 40
6.0
 40
7.0
 40
7.0
 40
7.0
 40
8.0
 40
8.0
 40
8.0
 40
9.0
 40
9.0
 40
9.0
 40
10.0
 40
10.0
 40
10.0
 40
11.0
 40
11.0
 40
11.0
 40
12.0
 40
12.0
 40
12.0
 40
13.0
 40
13.0
 40
13.0
 40
13.0
 10
91.66262204739685
 20
-135.1597086250642
 30
0.0
 10
91.44523652227758
 20
-135.3181830173857
 30
0.0
 10
91.35221894417583
 20
-135.3922525703186
 30
0.0
 10
91.30381535260808
 20
-135.536257561602
 30
0.0
 10
91.30381535260808
 20
-135.536257561602
 30
0.0
 10
92.08016762020912
 20
-135.536257561602
 30
0.0
 10
92.08016762020912
 20
-135.536257561602
 30
0.0
 10
92.08016762020912
 20
-135.536257561602
 30
0.0
 10
92.08016762020912
 20
-135.741585252523
 30
0.0
 10
92.08016762020912
 20
-135.741585252523
 30
0.0
 10
92.08016762020912
 20
-135.741585252523
 30
0.0
 10
91.05473494902452
 20
-135.741585252523
 30
0.0
 10
91.05473494902452
 20
-135.741585252523
 30
0.0
 10
91.08642982748881
 20
-135.383984341154
 30
0.0
 10
91.15188664170856
 20
-135.3057806736388
 30
0.0
 10
91.53584253353965
 20
-135.0074354046162
 30
0.0
 10
91.79112410899667
 20
-134.8086533951173
 30
0.0
 10
91.85658092321641
 20
-134.7407850140579
 30
0.0
 10
91.85658092321641
 20
-134.6033257041964
 30
0.0
 10
91.85658092321641
 20
-134.4848144195038
 30
0.0
 10
91.78492293712321
 20
-134.3535562815158
 30
0.0
 10
91.58855249446398
 20
-134.3535562815158
 30
0.0
 10
91.32913680442466
 20
-134.3535562815158
 30
0.0
 10
91.32069632048581
 20
-134.5843776790275
 30
0.0
 10
91.31638995112924
 20
-134.7004773968804
 30
0.0
 10
91.31638995112924
 20
-134.7004773968804
 30
0.0
 10
91.09280325413653
 20
-134.7004773968804
 30
0.0
 10
91.09280325413653
 20
-134.7004773968804
 30
0.0
 10
91.10124373807538
 20
-134.5736978830232
 30
0.0
 10
91.1117512793054
 20
-134.4617322797526
 30
0.0
 10
91.19184974933746
 20
-134.34322099506
 30
0.0
 10
91.30157604054267
 20
-134.1823350358989
 30
0.0
 10
91.48726668719763
 20
-134.1485731001434
 30
0.0
 10
91.60336640505055
 20
-134.1485731001434
 30
0.0
 10
91.8796630629676
 20
-134.1485731001434
 30
0.0
 10
92.08671330163111
 20
-134.3325411990558
 30
0.0
 10
92.08671330163111
 20
-134.6053927614875
 30
0.0
 10
92.08671330163111
 20
-134.8338025921596
 30
0.0
 10
91.97061358377819
 20
-134.9333658516833
 30
0.0
 10
91.66262204739685
 20
-135.1597086250642
 30
0.0
  0
HATCH
  5
87
330
82
100
AcDbEntity
  8
_U+30EC_U+30A4_U+30E4_U+30FC 1
 62
   179
420
  2234388
100
AcDbHatch
 10
0.0
 20
0.0
 30
0.0
210
0.0
220
0.0
230
1.0
  2
SOLID
 70
     1
 71
     0
 91
        1
 92
        1
 93
        1
 72
     4
 94
        3
 73
     0
 74
     1
 95
       44
 96
       40
 40
0.0
 40
0.0
 40
0.0
 40
0.0
 40
1.0
 40
1.0
 40
1.0
 40
2.0
 40
2.0
 40
2.0
 40
3.0
 40
3.0
 40
3.0
 40
4.0
 40
4.0
 40
4.0
 40
5.0
 40
5.0
 40
5.0
 40
6.0
 40
6.0
 40
6.0
 40
7.0
 40
7.0
 40
7.0
 40
8.0
 40
8.0
 40
8.0
 40
9.0
 40
9.0
 40
9.0
 40
10.0
 40
10.0
 40
10.0
 40
11.0
 40
11.0
 40
11.0
 40
12.0
 40
12.0
 40
12.0
 40
13.0
 40
13.0
 40
13.0
 40
13.0
 10
91.66262204739685
 20
-135.1597086250642
 10
91.44523652227758
 20
-135.3181830173857
 10
91.35221894417583
 20
-135.3922525703186
 10
91.30381535260808
 20
-135.536257561602
 10
91.30381535260808
 20
-135.536257561602
 10
92.08016762020912
 20
-135.536257561602
 10
92.08016762020912
 20
-135.536257561602
 10
92.08016762020912
 20
-135.536257561602
 10
92.08016762020912
 20
-135.741585252523
 10
92.08016762020912
 20
-135.741585252523
 10
92.08016762020912
 20
-135.741585252523
 10
91.05473494902452
 20
-135.741585252523
 10
91.05473494902452
 20
-135.741585252523
 10
91.08642982748881
 20
-135.383984341154
 10
91.15188664170856
 20
-135.3057806736388
 10
91.53584253353965
 20
-135.0074354046162
 10
91.79112410899667
 20
-134.8086533951173
 10
91.85658092321641
 20
-134.7407850140579
 10
91.85658092321641
 20
-134.6033257041964
 10
91.85658092321641
 20
-134.4848144195038
 10
91.78492293712321
 20
-134.3535562815158
 10
91.58855249446398
 20
-134.3535562815158
 10
91.32913680442466
 20
-134.3535562815158
 10
91.32069632048581
 20
-134.5843776790275
 10
91.31638995112924
 20
-134.7004773968804
 10
91.31638995112924
 20
-134.7004773968804
 10
91.09280325413653
 20
-134.7004773968804
 10
91.09280325413653
 20
-134.7004773968804
 10
91.10124373807538
 20
-134.5736978830232
 10
91.1117512793054
 20
-134.4617322797526
 10
91.19184974933746
 20
-134.34322099506
 10
91.30157604054267
 20
-134.1823350358989
 10
91.48726668719763
 20
-134.1485731001434
 10
91.60336640505055
 20
-134.1485731001434
 10
91.8796630629676
 20
-134.1485731001434
 10
92.08671330163111
 20
-134.3325411990558
 10
92.08671330163111
 20
-134.6053927614875
 10
92.08671330163111
 20
-134.8338025921596
 10
91.97061358377819
 20
-134.9333658516833
 10
91.66262204739685
 20
-135.1597086250642
 97
        0
 97
        0
 75
     2
 76
     1
 98
        0
  0
SPLINE
  5
88
330
82
100
AcDbEntity
  8
_U+30EC_U+30A4_U+30E4_U+30FC 1
370
     0
100
AcDbSpline
210
0.0
220
0.0
230
1.0
 70
    11
 71
     3
 72
    44
 73
    40
 74
     0
 42
0.0000000001
 43
0.0000000001
 12
1.0
 22
0.0
 32
0.0
 13
1.0
 23
0.0
 33
0.0
 40
0.0
 40
0.0
 40
0.0
 40
0.0
 40
1.0
 40
1.0
 40
1.0
 40
2.0
 40
2.0
 40
2.0
 40
3.0
 40
3.0
 40
3.0
 40
4.0
 40
4.0
 40
4.0
 40
5.0
 40
5.0
 40
5.0
 40
6.0
 40
6.0
 40
6.0
 40
7.0
 40
7.0
 40
7.0
 40
8.0
 40
8.0
 40
8.0
 40
9.0
 40
9.0
 40
9.0
 40
10.0
 40
10.0
 40
10.0
 40
11.0
 40
11.0
 40
11.0
 40
12.0
 40
12.0
 40
12.0
 40
13.0
 40
13.0
 40
13.0
 40
13.0
 10
92.83464353147885
 20
-135.1597086250642
 30
0.0
 10
92.61725800635958
 20
-135.3181830173857
 30
0.0
 10
92.52458493780635
 20
-135.3922525703186
 30
0.0
 10
92.47600909146433
 20
-135.536257561602
 30
0.0
 10
92.47600909146433
 20
-135.536257561602
 30
0.0
 10
93.25253361383965
 20
-135.536257561602
 30
0.0
 10
93.25253361383965
 20
-135.536257561602
 30
0.0
 10
93.25253361383965
 20
-135.536257561602
 30
0.0
 10
93.25253361383965
 20
-135.741585252523
 30
0.0
 10
93.25253361383965
 20
-135.741585252523
 30
0.0
 10
93.25253361383965
 20
-135.741585252523
 30
0.0
 10
92.22692868788077
 20
-135.741585252523
 30
0.0
 10
92.22692868788077
 20
-135.741585252523
 30
0.0
 10
92.25862356634507
 20
-135.383984341154
 30
0.0
 10
92.32408038056482
 20
-135.3057806736388
 30
0.0
 10
92.70820852717017
 20
-135.0074354046162
 30
0.0
 10
92.96349010262719
 20
-134.8086533951173
 30
0.0
 10
93.02894691684693
 20
-134.7407850140579
 30
0.0
 10
93.02894691684693
 20
-134.6033257041964
 30
0.0
 10
93.02894691684693
 20
-134.4848144195038
 30
0.0
 10
92.95694442120521
 20
-134.3535562815158
 30
0.0
 10
92.7609184880945
 20
-134.3535562815158
 30
0.0
 10
92.50150279805518
 20
-134.3535562815158
 30
0.0
 10
92.49289005934206
 20
-134.5843776790275
 30
0.0
 10
92.48875594475976
 20
-134.7004773968804
 30
0.0
 10
92.48875594475976
 20
-134.7004773968804
 30
0.0
 10
92.26516924776705
 20
-134.7004773968804
 30
0.0
 10
92.26516924776705
 20
-134.7004773968804
 30
0.0
 10
92.27343747693165
 20
-134.5736978830232
 30
0.0
 10
92.28411727293592
 20
-134.4617322797526
 30
0.0
 10
92.36404348819372
 20
-134.34322099506
 30
0.0
 10
92.47394203417319
 20
-134.1823350358989
 30
0.0
 10
92.65963268082815
 20
-134.1485731001434
 30
0.0
 10
92.77573239868107
 20
-134.1485731001434
 30
0.0
 10
93.0520290565981
 20
-134.1485731001434
 30
0.0
 10
93.2587347857131
 20
-134.3325411990558
 30
0.0
 10
93.2587347857131
 20
-134.6053927614875
 30
0.0
 10
93.2587347857131
 20
-134.8338025921596
 30
0.0
 10
93.14297957740871
 20
-134.9333658516833
 30
0.0
 10
92.83464353147885
 20
-135.1597086250642
 30
0.0
  0
HATCH
  5
89
330
82
100
AcDbEntity
  8
_U+30EC_U+30A4_U+30E4_U+30FC 1
 62
   179
420
  2234388
100
AcDbHatch
 10
0.0
 20
0.0
 30
0.0
210
0.0
220
0.0
230
1.0
  2
SOLID
 70
     1
 71
     0
 91
        1
 92
        1
 93
        1
 72
     4
 94
        3
 73
     0
 74
     1
 95
       44
 96
       40
 40
0.0
 40
0.0
 40
0.0
 40
0.0
 40
1.0
 40
1.0
 40
1.0
 40
2.0
 40
2.0
 40
2.0
 40
3.0
 40
3.0
 40
3.0
 40
4.0
 40
4.0
 40
4.0
 40
5.0
 40
5.0
 40
5.0
 40
6.0
 40
6.0
 40
6.0
 40
7.0
 40
7.0
 40
7.0
 40
8.0
 40
8.0
 40
8.0
 40
9.0
 40
9.0
 40
9.0
 40
10.0
 40
10.0
 40
10.0
 40
11.0
 40
11.0
 40
11.0
 40
12.0
 40
12.0
 40
12.0
 40
13.0
 40
13.0
 40
13.0
 40
13.0
 10
92.83464353147885
 20
-135.1597086250642
 10
92.61725800635958
 20
-135.3181830173857
 10
92.52458493780635
 20
-135.3922525703186
 10
92.47600909146433
 20
-135.536257561602
 10
92.47600909146433
 20
-135.536257561602
 10
93.25253361383965
 20
-135.536257561602
 10
93.25253361383965
 20
-135.536257561602
 10
93.25253361383965
 20
-135.536257561602
 10
93.25253361383965
 20
-135.741585252523
 10
93.25253361383965
 20
-135.741585252523
 10
93.25253361383965
 20
-135.741585252523
 10
92.22692868788077
 20
-135.741585252523
 10
92.22692868788077
 20
-135.741585252523
 10
92.25862356634507
 20
-135.383984341154
 10
92.32408038056482
 20
-135.3057806736388
 10
92.70820852717017
 20
-135.0074354046162
 10
92.96349010262719
 20
-134.8086533951173
 10
93.02894691684693
 20
-134.7407850140579
 10
93.02894691684693
 20
-134.6033257041964
 10
93.02894691684693
 20
-134.4848144195038
 10
92.95694442120521
 20
-134.3535562815158
 10
92.7609184880945
 20
-134.3535562815158
 10
92.50150279805518
 20
-134.3535562815158
 10
92.49289005934206
 20
-134.5843776790275
 10
92.48875594475976
 20
-134.7004773968804
 10
92.48875594475976
 20
-134.7004773968804
 10
92.26516924776705
 20
-134.7004773968804
 10
92.26516924776705
 20
-134.7004773968804
 10
92.27343747693165
 20
-134.5736978830232
 10
92.28411727293592
 20
-134.4617322797526
 10
92.36404348819372
 20
-134.34322099506
 10
92.47394203417319
 20
-134.1823350358989
 10
92.65963268082815
 20
-134.1485731001434
 10
92.77573239868107
 20
-134.1485731001434
 10
93.0520290565981
 20
-134.1485731001434
 10
93.2587347857131
 20
-134.3325411990558
 10
93.2587347857131
 20
-134.6053927614875
 10
93.2587347857131
 20
-134.8338025921596
 10
93.14297957740871
 20
-134.9333658516833
 10
92.83464353147885
 20
-135.1597086250642
 97
        0
 97
        0
 75
     2
 76
     1
 98
        0
  0
ENDBLK
  5
85
330
82
100
AcDbEntity
  8
0
100
AcDbBlockEnd
  0
BLOCK
  5
99
330
97
100
AcDbEntity
  8
0
100
AcDbBlockBegin
  2
block 4
 70
     0
 10
0.0
 20
0.0
 30
0.0
  3
block 4
  1

  0
SPLINE
  5
9B
330
97
100
AcDbEntity
  8
_U+30EC_U+30A4_U+30E4_U+30FC 1
370
     0
100
AcDbSpline
210
0.0
220
0.0
230
1.0
 70
    11
 71
     3
 72
    32
 73
    28
 74
     0
 42
0.0000000001
 43
0.0000000001
 12
1.0
 22
0.0
 32
0.0
 13
1.0
 23
0.0
 33
0.0
 40
0.0
 40
0.0
 40
0.0
 40
0.0
 40
1.0
 40
1.0
 40
1.0
 40
2.0
 40
2.0
 40
2.0
 40
3.0
 40
3.0
 40
3.0
 40
4.0
 40
4.0
 40
4.0
 40
5.0
 40
5.0
 40
5.0
 40
6.0
 40
6.0
 40
6.0
 40
7.0
 40
7.0
 40
7.0
 40
8.0
 40
8.0
 40
8.0
 40
9.0
 40
9.0
 40
9.0
 40
9.0
 10
76.83338078591319
 20
-129.868386469269
 30
0.0
 10
76.83338078591319
 20
-130.3830837347653
 30
0.0
 10
76.27906492233649
 20
-130.3916964734785
 30
0.0
 10
76.06546900225099
 20
-130.3916964734785
 30
0.0
 10
75.83481985951352
 20
-130.3916964734785
 30
0.0
 10
75.18748641783507
 20
-130.3727484483096
 30
0.0
 10
75.18748641783507
 20
-129.8304904189313
 30
0.0
 10
75.18748641783507
 20
-129.6572021160232
 30
0.0
 10
75.25724960141139
 20
-129.4126003365705
 30
0.0
 10
75.58952906096373
 20
-129.3747042862327
 30
0.0
 10
75.58952906096373
 20
-129.3747042862327
 30
0.0
 10
75.58952906096373
 20
-129.5876111872212
 30
0.0
 10
75.58952906096373
 20
-129.5876111872212
 30
0.0
 10
75.53234047590858
 20
-129.5982909832254
 30
0.0
 10
75.38420137004285
 20
-129.6299858616897
 30
0.0
 10
75.38420137004285
 20
-129.8325574762224
 30
0.0
 10
75.38420137004285
 20
-130.123668044726
 30
0.0
 10
75.71217446023863
 20
-130.1636311523549
 30
0.0
 10
75.91732989638525
 20
-130.1763780056503
 30
0.0
 10
75.83912622887009
 20
-130.0837049370971
 30
0.0
 10
75.77987058652378
 20
-130.0161810655862
 30
0.0
 10
75.77987058652378
 20
-129.8346245335136
 30
0.0
 10
75.77987058652378
 20
-129.655135058732
 30
0.0
 10
75.8877020752121
 20
-129.3533446942242
 30
0.0
 10
76.29387883292306
 20
-129.3533446942242
 30
0.0
 10
76.61341143917998
 20
-129.3533446942242
 30
0.0
 10
76.83338078591319
 20
-129.5517821941746
 30
0.0
 10
76.83338078591319
 20
-129.868386469269
 30
0.0
  0
SPLINE
  5
9C
330
97
100
AcDbEntity
  8
_U+30EC_U+30A4_U+30E4_U+30FC 1
370
     0
100
AcDbSpline
210
0.0
220
0.0
230
1.0
 70
    11
 71
     3
 72
    17
 73
    13
 74
     0
 42
0.0000000001
 43
0.0000000001
 12
1.0
 22
0.0
 32
0.0
 13
1.0
 23
0.0
 33
0.0
 40
0.0
 40
0.0
 40
0.0
 40
0.0
 40
1.0
 40
1.0
 40
1.0
 40
2.0
 40
2.0
 40
2.0
 40
3.0
 40
3.0
 40
3.0
 40
4.0
 40
4.0
 40
4.0
 40
4.0
 10
75.9745184814404
 20
-129.8515055013913
 30
0.0
 10
75.9745184814404
 20
-130.1129882487218
 30
0.0
 10
76.18604734423474
 20
-130.151228808608
 30
0.0
 10
76.30231931686193
 20
-130.151228808608
 30
0.0
 10
76.47801918660967
 20
-130.151228808608
 30
0.0
 10
76.64079994828772
 20
-130.0561441732151
 30
0.0
 10
76.64079994828772
 20
-129.8725205838513
 30
0.0
 10
76.64079994828772
 20
-129.7522867514161
 30
0.0
 10
76.58154430594142
 20
-129.5772759007654
 30
0.0
 10
76.29611814498847
 20
-129.5772759007654
 30
0.0
 10
76.0718424288987
 20
-129.5772759007654
 30
0.0
 10
75.9745184814404
 20
-129.7164577583695
 30
0.0
 10
75.9745184814404
 20
-129.8515055013913
 30
0.0
  0
HATCH
  5
9D
330
97
100
AcDbEntity
  8
_U+30EC_U+30A4_U+30E4_U+30FC 1
 62
   179
420
  2234388
100
AcDbHatch
 10
0.0
 20
0.0
 30
0.0
210
0.0
220
0.0
230
1.0
  2
SOLID
 70
     1
 71
     0
 91
        2
 92
        1
 93
        1
 72
     4
 94
        3
 73
     0
 74
     1
 95
       32
 96
       28
 40
0.0
 40
0.0
 40
0.0
 40
0.0
 40
1.0
 40
1.0
 40
1.0
 40
2.0
 40
2.0
 40
2.0
 40
3.0
 40
3.0
 40
3.0
 40
4.0
 40
4.0
 40
4.0
 40
5.0
 40
5.0
 40
5.0
 40
6.0
 40
6.0
 40
6.0
 40
7.0
 40
7.0
 40
7.0
 40
8.0
 40
8.0
 40
8.0
 40
9.0
 40
9.0
 40
9.0
 40
9.0
 10
76.83338078591319
 20
-129.868386469269
 10
76.83338078591319
 20
-130.3830837347653
 10
76.27906492233649
 20
-130.3916964734785
 10
76.06546900225099
 20
-130.3916964734785
 10
75.83481985951352
 20
-130.3916964734785
 10
75.18748641783507
 20
-130.3727484483096
 10
75.18748641783507
 20
-129.8304904189313
 10
75.18748641783507
 20
-129.6572021160232
 10
75.25724960141139
 20
-129.4126003365705
 10
75.58952906096373
 20
-129.3747042862327
 10
75.58952906096373
 20
-129.3747042862327
 10
75.58952906096373
 20
-129.5876111872212
 10
75.58952906096373
 20
-129.5876111872212
 10
75.53234047590858
 20
-129.5982909832254
 10
75.38420137004285
 20
-129.6299858616897
 10
75.38420137004285
 20
-129.8325574762224
 10
75.38420137004285
 20
-130.123668044726
 10
75.71217446023863
 20
-130.1636311523549
 10
75.91732989638525
 20
-130.1763780056503
 10
75.83912622887009
 20
-130.0837049370971
 10
75.77987058652378
 20
-130.0161810655862
 10
75.77987058652378
 20
-129.8346245335136
 10
75.77987058652378
 20
-129.655135058732
 10
75.8877020752121
 20
-129.3533446942242
 10
76.29387883292306
 20
-129.3533446942242
 10
76.61341143917998
 20
-129.3533446942242
 10
76.83338078591319
 20
-129.5517821941746
 10
76.83338078591319
 20
-129.868386469269
 97
        0
 97
        0
 92
        1
 93
        1
 72
     4
 94
        3
 73
     0
 74
     1
 95
       17
 96
       13
 40
0.0
 40
0.0
 40
0.0
 40
0.0
 40
1.0
 40
1.0
 40
1.0
 40
2.0
 40
2.0
 40
2.0
 40
3.0
 40
3.0
 40
3.0
 40
4.0
 40
4.0
 40
4.0
 40
4.0
 10
75.9745184814404
 20
-129.8515055013913
 10
75.9745184814404
 20
-130.1129882487218
 10
76.18604734423474
 20
-130.151228808608
 10
76.30231931686193
 20
-130.151228808608
 10
76.47801918660967
 20
-130.151228808608
 10
76.64079994828772
 20
-130.0561441732151
 10
76.64079994828772
 20
-129.8725205838513
 10
76.64079994828772
 20
-129.7522867514161
 10
76.58154430594142
 20
-129.5772759007654
 10
76.29611814498847
 20
-129.5772759007654
 10
76.0718424288987
 20
-129.5772759007654
 10
75.9745184814404
 20
-129.7164577583695
 10
75.9745184814404
 20
-129.8515055013913
 97
        0
 97
        0
 75
     2
 76
     1
 98
        0
  0
POLYLINE
  5
9E
330
97
100
AcDbEntity
  8
_U+30EC_U+30A4_U+30E4_U+30FC 1
370
     0
100
AcDb2dPolyline
 66
     1
 10
0.0
 20
0.0
 30
0.0
  0
VERTEX
  5
9F
330
9E
100
AcDbEntity
  8
_U+30EC_U+30A4_U+30E4_U+30FC 1
370
     0
100
AcDbVertex
100
AcDb2dVertex
 10
76.78256562750575
 20
-129.1390597550416
 30
0.0
  0
VERTEX
  5
A0
330
9E
100
AcDbEntity
  8
_U+30EC_U+30A4_U+30E4_U+30FC 1
370
     0
100
AcDbVertex
100
AcDb2dVertex
 10
76.53090140230825
 20
-129.1390597550416
 30
0.0
  0
VERTEX
  5
A1
330
9E
100
AcDbEntity
  8
_U+30EC_U+30A4_U+30E4_U+30FC 1
370
     0
100
AcDbVertex
100
AcDb2dVertex
 10
76.53090140230825
 20
-128.8882568037154
 30
0.0
  0
VERTEX
  5
A2
330
9E
100
AcDbEntity
  8
_U+30EC_U+30A4_U+30E4_U+30FC 1
370
     0
100
AcDbVertex
100
AcDb2dVertex
 10
76.78256562750575
 20
-128.8882568037154
 30
0.0
  0
VERTEX
  5
A3
330
9E
100
AcDbEntity
  8
_U+30EC_U+30A4_U+30E4_U+30FC 1
370
     0
100
AcDbVertex
100
AcDb2dVertex
 10
76.78256562750575
 20
-129.1390597550416
 30
0.0
  0
SEQEND
  5
A4
330
9E
100
AcDbEntity
  8
_U+30EC_U+30A4_U+30E4_U+30FC 1
370
     0
  0
HATCH
  5
A5
330
97
100
AcDbEntity
  8
_U+30EC_U+30A4_U+30E4_U+30FC 1
 62
   179
420
  2234388
100
AcDbHatch
 10
0.0
 20
0.0
 30
0.0
210
0.0
220
0.0
230
1.0
  2
SOLID
 70
     1
 71
     0
 91
        1
 92
        1
 93
        4
 72
     1
 10
76.78256562750575
 20
-129.1390597550416
 11
76.53090140230825
 21
-129.1390597550416
 72
     1
 10
76.53090140230825
 20
-129.1390597550416
 11
76.53090140230825
 21
-128.8882568037154
 72
     1
 10
76.53090140230825
 20
-128.8882568037154
 11
76.78256562750575
 21
-128.8882568037154
 72
     1
 10
76.78256562750575
 20
-128.8882568037154
 11
76.78256562750575
 21
-129.1390597550416
 97
        0
 75
     2
 76
     1
 98
        0
  0
SPLINE
  5
A6
330
97
100
AcDbEntity
  8
_U+30EC_U+30A4_U+30E4_U+30FC 1
370
     0
100
AcDbSpline
210
0.0
220
0.0
230
1.0
 70
    11
 71
     3
 72
    44
 73
    40
 74
     0
 42
0.0000000001
 43
0.0000000001
 12
1.0
 22
0.0
 32
0.0
 13
1.0
 23
0.0
 33
0.0
 40
0.0
 40
0.0
 40
0.0
 40
0.0
 40
1.0
 40
1.0
 40
1.0
 40
2.0
 40
2.0
 40
2.0
 40
3.0
 40
3.0
 40
3.0
 40
4.0
 40
4.0
 40
4.0
 40
5.0
 40
5.0
 40
5.0
 40
6.0
 40
6.0
 40
6.0
 40
7.0
 40
7.0
 40
7.0
 40
8.0
 40
8.0
 40
8.0
 40
9.0
 40
9.0
 40
9.0
 40
10.0
 40
10.0
 40
10.0
 40
11.0
 40
11.0
 40
11.0
 40
12.0
 40
12.0
 40
12.0
 40
13.0
 40
13.0
 40
13.0
 40
13.0
 10
76.20086125482132
 20
-128.0614338872555
 30
0.0
 10
76.35950790191707
 20
-128.2788194123748
 30
0.0
 10
76.43357745484994
 20
-128.3716647357022
 30
0.0
 10
76.57741019135912
 20
-128.4202405820442
 30
0.0
 10
76.57741019135912
 20
-128.4202405820442
 30
0.0
 10
76.57741019135912
 20
-127.6437160596689
 30
0.0
 10
76.57741019135912
 20
-127.6437160596689
 30
0.0
 10
76.57741019135912
 20
-127.6437160596689
 30
0.0
 10
76.78256562750575
 20
-127.6437160596689
 30
0.0
 10
76.78256562750575
 20
-127.6437160596689
 30
0.0
 10
76.78256562750575
 20
-127.6437160596689
 30
0.0
 10
76.78256562750575
 20
-128.6691487308535
 30
0.0
 10
76.78256562750575
 20
-128.6691487308535
 30
0.0
 10
76.42513697091108
 20
-128.6374538523893
 30
0.0
 10
76.34676104862164
 20
-128.5721692929438
 30
0.0
 10
76.04858803437327
 20
-128.1880411463384
 30
0.0
 10
75.8496337701001
 20
-127.9327595708814
 30
0.0
 10
75.78193764381494
 20
-127.8673027566617
 30
0.0
 10
75.64447833395347
 20
-127.8673027566617
 30
0.0
 10
75.52596704926087
 20
-127.8673027566617
 30
0.0
 10
75.39488116604711
 20
-127.9391329975291
 30
0.0
 10
75.39488116604711
 20
-128.1353311854141
 30
0.0
 10
75.39488116604711
 20
-128.3949191302277
 30
0.0
 10
75.62535805401033
 20
-128.4033596141665
 30
0.0
 10
75.74180228141178
 20
-128.4074937287488
 30
0.0
 10
75.74180228141178
 20
-128.4074937287488
 30
0.0
 10
75.74180228141178
 20
-128.6312526805158
 30
0.0
 10
75.74180228141178
 20
-128.6312526805158
 30
0.0
 10
75.61485051278032
 20
-128.6228121965769
 30
0.0
 10
75.50271265473543
 20
-128.6121324005727
 30
0.0
 10
75.38420137004285
 20
-128.5320339305406
 30
0.0
 10
75.22348766565594
 20
-128.4223076393354
 30
0.0
 10
75.18955347512623
 20
-128.2366169926804
 30
0.0
 10
75.18955347512623
 20
-128.1205172748275
 30
0.0
 10
75.18955347512623
 20
-127.8440483621362
 30
0.0
 10
75.37369382881283
 20
-127.6373426330212
 30
0.0
 10
75.64654539124462
 20
-127.6373426330212
 30
0.0
 10
75.87512747669095
 20
-127.6373426330212
 30
0.0
 10
75.9745184814404
 20
-127.7534423508741
 30
0.0
 10
76.20086125482132
 20
-128.0614338872555
 30
0.0
  0
HATCH
  5
A7
330
97
100
AcDbEntity
  8
_U+30EC_U+30A4_U+30E4_U+30FC 1
 62
   179
420
  2234388
100
AcDbHatch
 10
0.0
 20
0.0
 30
0.0
210
0.0
220
0.0
230
1.0
  2
SOLID
 70
     1
 71
     0
 91
        1
 92
        1
 93
        1
 72
     4
 94
        3
 73
     0
 74
     1
 95
       44
 96
       40
 40
0.0
 40
0.0
 40
0.0
 40
0.0
 40
1.0
 40
1.0
 40
1.0
 40
2.0
 40
2.0
 40
2.0
 40
3.0
 40
3.0
 40
3.0
 40
4.0
 40
4.0
 40
4.0
 40
5.0
 40
5.0
 40
5.0
 40
6.0
 40
6.0
 40
6.0
 40
7.0
 40
7.0
 40
7.0
 40
8.0
 40
8.0
 40
8.0
 40
9.0
 40
9.0
 40
9.0
 40
10.0
 40
10.0
 40
10.0
 40
11.0
 40
11.0
 40
11.0
 40
12.0
 40
12.0
 40
12.0
 40
13.0
 40
13.0
 40
13.0
 40
13.0
 10
76.20086125482132
 20
-128.0614338872555
 10
76.35950790191707
 20
-128.2788194123748
 10
76.43357745484994
 20
-128.3716647357022
 10
76.57741019135912
 20
-128.4202405820442
 10
76.57741019135912
 20
-128.4202405820442
 10
76.57741019135912
 20
-127.6437160596689
 10
76.57741019135912
 20
-127.6437160596689
 10
76.57741019135912
 20
-127.6437160596689
 10
76.78256562750575
 20
-127.6437160596689
 10
76.78256562750575
 20
-127.6437160596689
 10
76.78256562750575
 20
-127.6437160596689
 10
76.78256562750575
 20
-128.6691487308535
 10
76.78256562750575
 20
-128.6691487308535
 10
76.42513697091108
 20
-128.6374538523893
 10
76.34676104862164
 20
-128.5721692929438
 10
76.04858803437327
 20
-128.1880411463384
 10
75.8496337701001
 20
-127.9327595708814
 10
75.78193764381494
 20
-127.8673027566617
 10
75.64447833395347
 20
-127.8673027566617
 10
75.52596704926087
 20
-127.8673027566617
 10
75.39488116604711
 20
-127.9391329975291
 10
75.39488116604711
 20
-128.1353311854141
 10
75.39488116604711
 20
-128.3949191302277
 10
75.62535805401033
 20
-128.4033596141665
 10
75.74180228141178
 20
-128.4074937287488
 10
75.74180228141178
 20
-128.4074937287488
 10
75.74180228141178
 20
-128.6312526805158
 10
75.74180228141178
 20
-128.6312526805158
 10
75.61485051278032
 20
-128.6228121965769
 10
75.50271265473543
 20
-128.6121324005727
 10
75.38420137004285
 20
-128.5320339305406
 10
75.22348766565594
 20
-128.4223076393354
 10
75.18955347512623
 20
-128.2366169926804
 10
75.18955347512623
 20
-128.1205172748275
 10
75.18955347512623
 20
-127.8440483621362
 10
75.37369382881283
 20
-127.6373426330212
 10
75.64654539124462
 20
-127.6373426330212
 10
75.87512747669095
 20
-127.6373426330212
 10
75.9745184814404
 20
-127.7534423508741
 10
76.20086125482132
 20
-128.0614338872555
 97
        0
 97
        0
 75
     2
 76
     1
 98
        0
  0
ENDBLK
  5
9A
330
97
100
AcDbEntity
  8
0
100
AcDbBlockEnd
  0
BLOCK
  5
BE
330
BC
100
AcDbEntity
  8
0
100
AcDbBlockBegin
  2
block 5
 70
     0
 10
0.0
 20
0.0
 30
0.0
  3
block 5
  1

  0
SPLINE
  5
C0
330
BC
100
AcDbEntity
  8
_U+30EC_U+30A4_U+30E4_U+30FC 1
370
     0
100
AcDbSpline
210
0.0
220
0.0
230
1.0
 70
    11
 71
     3
 72
    26
 73
    22
 74
     0
 42
0.0000000001
 43
0.0000000001
 12
1.0
 22
0.0
 32
0.0
 13
1.0
 23
0.0
 33
0.0
 40
0.0
 40
0.0
 40
0.0
 40
0.0
 40
1.0
 40
1.0
 40
1.0
 40
2.0
 40
2.0
 40
2.0
 40
3.0
 40
3.0
 40
3.0
 40
4.0
 40
4.0
 40
4.0
 40
5.0
 40
5.0
 40
5.0
 40
6.0
 40
6.0
 40
6.0
 40
7.0
 40
7.0
 40
7.0
 40
7.0
 10
94.58302949024313
 20
-123.8213826187842
 30
0.0
 10
94.58302949024313
 20
-123.8213826187842
 30
0.0
 10
93.47853187767204
 20
-123.8213826187842
 30
0.0
 10
93.47853187767204
 20
-123.8213826187842
 30
0.0
 10
93.47853187767204
 20
-123.8213826187842
 30
0.0
 10
93.47853187767204
 20
-124.1505614923999
 30
0.0
 10
93.47853187767204
 20
-124.1505614923999
 30
0.0
 10
93.47853187767204
 20
-124.1505614923999
 30
0.0
 10
93.33039277180629
 20
-124.1505614923999
 30
0.0
 10
93.33039277180629
 20
-124.1505614923999
 30
0.0
 10
93.31557886121972
 20
-123.8191433067188
 30
0.0
 10
93.15297035431593
 20
-123.7728067724422
 30
0.0
 10
93.03859318420564
 20
-123.7431789512691
 30
0.0
 10
93.03859318420564
 20
-123.7431789512691
 30
0.0
 10
93.03859318420564
 20
-123.5976236670173
 30
0.0
 10
93.03859318420564
 20
-123.5976236670173
 30
0.0
 10
93.03859318420564
 20
-123.5976236670173
 30
0.0
 10
94.58302949024313
 20
-123.5976236670173
 30
0.0
 10
94.58302949024313
 20
-123.5976236670173
 30
0.0
 10
94.58302949024313
 20
-123.5976236670173
 30
0.0
 10
94.58302949024313
 20
-123.8213826187842
 30
0.0
 10
94.58302949024313
 20
-123.8213826187842
 30
0.0
  0
HATCH
  5
C1
330
BC
100
AcDbEntity
  8
_U+30EC_U+30A4_U+30E4_U+30FC 1
 62
   179
420
  2234388
100
AcDbHatch
 10
0.0
 20
0.0
 30
0.0
210
0.0
220
0.0
230
1.0
  2
SOLID
 70
     1
 71
     0
 91
        1
 92
        1
 93
        1
 72
     4
 94
        3
 73
     0
 74
     1
 95
       26
 96
       22
 40
0.0
 40
0.0
 40
0.0
 40
0.0
 40
1.0
 40
1.0
 40
1.0
 40
2.0
 40
2.0
 40
2.0
 40
3.0
 40
3.0
 40
3.0
 40
4.0
 40
4.0
 40
4.0
 40
5.0
 40
5.0
 40
5.0
 40
6.0
 40
6.0
 40
6.0
 40
7.0
 40
7.0
 40
7.0
 40
7.0
 10
94.58302949024313
 20
-123.8213826187842
 10
94.58302949024313
 20
-123.8213826187842
 10
93.47853187767204
 20
-123.8213826187842
 10
93.47853187767204
 20
-123.8213826187842
 10
93.47853187767204
 20
-123.8213826187842
 10
93.47853187767204
 20
-124.1505614923999
 10
93.47853187767204
 20
-124.1505614923999
 10
93.47853187767204
 20
-124.1505614923999
 10
93.33039277180629
 20
-124.1505614923999
 10
93.33039277180629
 20
-124.1505614923999
 10
93.31557886121972
 20
-123.8191433067188
 10
93.15297035431593
 20
-123.7728067724422
 10
93.03859318420564
 20
-123.7431789512691
 10
93.03859318420564
 20
-123.7431789512691
 10
93.03859318420564
 20
-123.5976236670173
 10
93.03859318420564
 20
-123.5976236670173
 10
93.03859318420564
 20
-123.5976236670173
 10
94.58302949024313
 20
-123.5976236670173
 10
94.58302949024313
 20
-123.5976236670173
 10
94.58302949024313
 20
-123.5976236670173
 10
94.58302949024313
 20
-123.8213826187842
 10
94.58302949024313
 20
-123.8213826187842
 97
        0
 97
        0
 75
     2
 76
     1
 98
        0
  0
POLYLINE
  5
C2
330
BC
100
AcDbEntity
  8
_U+30EC_U+30A4_U+30E4_U+30FC 1
370
     0
100
AcDb2dPolyline
 66
     1
 10
0.0
 20
0.0
 30
0.0
  0
VERTEX
  5
C3
330
C2
100
AcDbEntity
  8
_U+30EC_U+30A4_U+30E4_U+30FC 1
370
     0
100
AcDbVertex
100
AcDb2dVertex
 10
94.58302949024313
 20
-123.0395181984068
 30
0.0
  0
VERTEX
  5
C4
330
C2
100
AcDbEntity
  8
_U+30EC_U+30A4_U+30E4_U+30FC 1
370
     0
100
AcDbVertex
100
AcDb2dVertex
 10
94.33119301027138
 20
-123.0395181984068
 30
0.0
  0
VERTEX
  5
C5
330
C2
100
AcDbEntity
  8
_U+30EC_U+30A4_U+30E4_U+30FC 1
370
     0
100
AcDbVertex
100
AcDb2dVertex
 10
94.33119301027138
 20
-122.7883707375321
 30
0.0
  0
VERTEX
  5
C6
330
C2
100
AcDbEntity
  8
_U+30EC_U+30A4_U+30E4_U+30FC 1
370
     0
100
AcDbVertex
100
AcDb2dVertex
 10
94.58302949024313
 20
-122.7883707375321
 30
0.0
  0
VERTEX
  5
C7
330
C2
100
AcDbEntity
  8
_U+30EC_U+30A4_U+30E4_U+30FC 1
370
     0
100
AcDbVertex
100
AcDb2dVertex
 10
94.58302949024313
 20
-123.0395181984068
 30
0.0
  0
SEQEND
  5
C8
330
C2
100
AcDbEntity
  8
_U+30EC_U+30A4_U+30E4_U+30FC 1
370
     0
  0
HATCH
  5
C9
330
BC
100
AcDbEntity
  8
_U+30EC_U+30A4_U+30E4_U+30FC 1
 62
   179
420
  2234388
100
AcDbHatch
 10
0.0
 20
0.0
 30
0.0
210
0.0
220
0.0
230
1.0
  2
SOLID
 70
     1
 71
     0
 91
        1
 92
        1
 93
        4
 72
     1
 10
94.58302949024313
 20
-123.0395181984068
 11
94.33119301027138
 21
-123.0395181984068
 72
     1
 10
94.33119301027138
 20
-123.0395181984068
 11
94.33119301027138
 21
-122.7883707375321
 72
     1
 10
94.33119301027138
 20
-122.7883707375321
 11
94.58302949024313
 21
-122.7883707375321
 72
     1
 10
94.58302949024313
 20
-122.7883707375321
 11
94.58302949024313
 21
-123.0395181984068
 97
        0
 75
     2
 76
     1
 98
        0
  0
SPLINE
  5
CA
330
BC
100
AcDbEntity
  8
_U+30EC_U+30A4_U+30E4_U+30FC 1
370
     0
100
AcDbSpline
210
0.0
220
0.0
230
1.0
 70
    11
 71
     3
 72
    29
 73
    25
 74
     0
 42
0.0000000001
 43
0.0000000001
 12
1.0
 22
0.0
 32
0.0
 13
1.0
 23
0.0
 33
0.0
 40
0.0
 40
0.0
 40
0.0
 40
0.0
 40
1.0
 40
1.0
 40
1.0
 40
2.0
 40
2.0
 40
2.0
 40
3.0
 40
3.0
 40
3.0
 40
4.0
 40
4.0
 40
4.0
 40
5.0
 40
5.0
 40
5.0
 40
6.0
 40
6.0
 40
6.0
 40
7.0
 40
7.0
 40
7.0
 40
8.0
 40
8.0
 40
8.0
 40
8.0
 10
94.63367239387631
 20
-122.0545653991739
 30
0.0
 10
94.63367239387631
 20
-122.3203545158609
 30
0.0
 10
94.49621308401484
 20
-122.5735690340267
 30
0.0
 10
94.14722491135903
 20
-122.5735690340267
 30
0.0
 10
93.89125431680498
 20
-122.5735690340267
 30
0.0
 10
93.79582517186354
 20
-122.4321478643572
 30
0.0
 10
93.7345024722261
 20
-122.3267279425086
 30
0.0
 10
93.67524682987981
 20
-122.4512681443004
 30
0.0
 10
93.56121416931803
 20
-122.5272324997501
 30
0.0
 10
93.40032821015687
 20
-122.5272324997501
 30
0.0
 10
93.12540959043393
 20
-122.5272324997501
 30
0.0
 10
92.9900173378636
 20
-122.3287949997998
 30
0.0
 10
92.9900173378636
 20
-122.0545653991739
 30
0.0
 10
92.9900173378636
 20
-121.7717230598349
 30
0.0
 10
93.13367781959853
 20
-121.5818982985976
 30
0.0
 10
93.40032821015687
 20
-121.5818982985976
 30
0.0
 10
93.56121416931803
 20
-121.5818982985976
 30
0.0
 10
93.67524682987981
 20
-121.6599297113385
 30
0.0
 10
93.7345024722261
 20
-121.7844699131303
 30
0.0
 10
93.7854898854078
 20
-121.6957587043851
 30
0.0
 10
93.88057452080069
 20
-121.5374565668379
 30
0.0
 10
94.1427462872282
 20
-121.5374565668379
 30
0.0
 10
94.51722816647487
 20
-121.5374565668379
 30
0.0
 10
94.63367239387631
 20
-121.8159925368203
 30
0.0
 10
94.63367239387631
 20
-122.0545653991739
 30
0.0
  0
SPLINE
  5
CB
330
BC
100
AcDbEntity
  8
_U+30EC_U+30A4_U+30E4_U+30FC 1
370
     0
100
AcDbSpline
210
0.0
220
0.0
230
1.0
 70
    11
 71
     3
 72
    17
 73
    13
 74
     0
 42
0.0000000001
 43
0.0000000001
 12
1.0
 22
0.0
 32
0.0
 13
1.0
 23
0.0
 33
0.0
 40
0.0
 40
0.0
 40
0.0
 40
0.0
 40
1.0
 40
1.0
 40
1.0
 40
2.0
 40
2.0
 40
2.0
 40
3.0
 40
3.0
 40
3.0
 40
4.0
 40
4.0
 40
4.0
 40
4.0
 10
93.18225366594055
 20
-122.0545653991739
 30
0.0
 10
93.18225366594055
 20
-122.2190687085945
 30
0.0
 10
93.27768281088197
 20
-122.3034735479832
 30
0.0
 10
93.4130750634523
 20
-122.3034735479832
 30
0.0
 10
93.53572046272718
 20
-122.3034735479832
 30
0.0
 10
93.65423174741979
 20
-122.23181556189
 30
0.0
 10
93.65423174741979
 20
-122.0545653991739
 30
0.0
 10
93.65423174741979
 20
-121.8773152364578
 30
0.0
 10
93.53572046272718
 20
-121.8054849955903
 30
0.0
 10
93.4130750634523
 20
-121.8054849955903
 30
0.0
 10
93.27768281088197
 20
-121.8054849955903
 30
0.0
 10
93.18225366594055
 20
-121.8919568922701
 30
0.0
 10
93.18225366594055
 20
-122.0545653991739
 30
0.0
  0
SPLINE
  5
CC
330
BC
100
AcDbEntity
  8
_U+30EC_U+30A4_U+30E4_U+30FC 1
370
     0
100
AcDbSpline
210
0.0
220
0.0
230
1.0
 70
    11
 71
     3
 72
    17
 73
    13
 74
     0
 42
0.0000000001
 43
0.0000000001
 12
1.0
 22
0.0
 32
0.0
 13
1.0
 23
0.0
 33
0.0
 40
0.0
 40
0.0
 40
0.0
 40
0.0
 40
1.0
 40
1.0
 40
1.0
 40
2.0
 40
2.0
 40
2.0
 40
3.0
 40
3.0
 40
3.0
 40
4.0
 40
4.0
 40
4.0
 40
4.0
 10
93.84233396091442
 20
-122.0545653991739
 30
0.0
 10
93.84233396091442
 20
-122.1980536261345
 30
0.0
 10
93.92915036714271
 20
-122.349982337034
 30
0.0
 10
94.13241100077246
 20
-122.349982337034
 30
0.0
 10
94.33739418214482
 20
-122.349982337034
 30
0.0
 10
94.4390244989597
 20
-122.2233750779511
 30
0.0
 10
94.4390244989597
 20
-122.0545653991739
 30
0.0
 10
94.4390244989597
 20
-121.8688747525189
 30
0.0
 10
94.3163790996848
 20
-121.7591484613137
 30
0.0
 10
94.1386121726459
 20
-121.7591484613137
 30
0.0
 10
93.91640351384729
 20
-121.7591484613137
 30
0.0
 10
93.84233396091442
 20
-121.9215847134432
 30
0.0
 10
93.84233396091442
 20
-122.0545653991739
 30
0.0
  0
HATCH
  5
CD
330
BC
100
AcDbEntity
  8
_U+30EC_U+30A4_U+30E4_U+30FC 1
 62
   179
420
  2234388
100
AcDbHatch
 10
0.0
 20
0.0
 30
0.0
210
0.0
220
0.0
230
1.0
  2
SOLID
 70
     1
 71
     0
 91
        3
 92
        1
 93
        1
 72
     4
 94
        3
 73
     0
 74
     1
 95
       29
 96
       25
 40
0.0
 40
0.0
 40
0.0
 40
0.0
 40
1.0
 40
1.0
 40
1.0
 40
2.0
 40
2.0
 40
2.0
 40
3.0
 40
3.0
 40
3.0
 40
4.0
 40
4.0
 40
4.0
 40
5.0
 40
5.0
 40
5.0
 40
6.0
 40
6.0
 40
6.0
 40
7.0
 40
7.0
 40
7.0
 40
8.0
 40
8.0
 40
8.0
 40
8.0
 10
94.63367239387631
 20
-122.0545653991739
 10
94.63367239387631
 20
-122.3203545158609
 10
94.49621308401484
 20
-122.5735690340267
 10
94.14722491135903
 20
-122.5735690340267
 10
93.89125431680498
 20
-122.5735690340267
 10
93.79582517186354
 20
-122.4321478643572
 10
93.7345024722261
 20
-122.3267279425086
 10
93.67524682987981
 20
-122.4512681443004
 10
93.56121416931803
 20
-122.5272324997501
 10
93.40032821015687
 20
-122.5272324997501
 10
93.12540959043393
 20
-122.5272324997501
 10
92.9900173378636
 20
-122.3287949997998
 10
92.9900173378636
 20
-122.0545653991739
 10
92.9900173378636
 20
-121.7717230598349
 10
93.13367781959853
 20
-121.5818982985976
 10
93.40032821015687
 20
-121.5818982985976
 10
93.56121416931803
 20
-121.5818982985976
 10
93.67524682987981
 20
-121.6599297113385
 10
93.7345024722261
 20
-121.7844699131303
 10
93.7854898854078
 20
-121.6957587043851
 10
93.88057452080069
 20
-121.5374565668379
 10
94.1427462872282
 20
-121.5374565668379
 10
94.51722816647487
 20
-121.5374565668379
 10
94.63367239387631
 20
-121.8159925368203
 10
94.63367239387631
 20
-122.0545653991739
 97
        0
 97
        0
 92
        1
 93
        1
 72
     4
 94
        3
 73
     0
 74
     1
 95
       17
 96
       13
 40
0.0
 40
0.0
 40
0.0
 40
0.0
 40
1.0
 40
1.0
 40
1.0
 40
2.0
 40
2.0
 40
2.0
 40
3.0
 40
3.0
 40
3.0
 40
4.0
 40
4.0
 40
4.0
 40
4.0
 10
93.18225366594055
 20
-122.0545653991739
 10
93.18225366594055
 20
-122.2190687085945
 10
93.27768281088197
 20
-122.3034735479832
 10
93.4130750634523
 20
-122.3034735479832
 10
93.53572046272718
 20
-122.3034735479832
 10
93.65423174741979
 20
-122.23181556189
 10
93.65423174741979
 20
-122.0545653991739
 10
93.65423174741979
 20
-121.8773152364578
 10
93.53572046272718
 20
-121.8054849955903
 10
93.4130750634523
 20
-121.8054849955903
 10
93.27768281088197
 20
-121.8054849955903
 10
93.18225366594055
 20
-121.8919568922701
 10
93.18225366594055
 20
-122.0545653991739
 97
        0
 97
        0
 92
        1
 93
        1
 72
     4
 94
        3
 73
     0
 74
     1
 95
       17
 96
       13
 40
0.0
 40
0.0
 40
0.0
 40
0.0
 40
1.0
 40
1.0
 40
1.0
 40
2.0
 40
2.0
 40
2.0
 40
3.0
 40
3.0
 40
3.0
 40
4.0
 40
4.0
 40
4.0
 40
4.0
 10
93.84233396091442
 20
-122.0545653991739
 10
93.84233396091442
 20
-122.1980536261345
 10
93.92915036714271
 20
-122.349982337034
 10
94.13241100077246
 20
-122.349982337034
 10
94.33739418214482
 20
-122.349982337034
 10
94.4390244989597
 20
-122.2233750779511
 10
94.4390244989597
 20
-122.0545653991739
 10
94.4390244989597
 20
-121.8688747525189
 10
94.3163790996848
 20
-121.7591484613137
 10
94.1386121726459
 20
-121.7591484613137
 10
93.91640351384729
 20
-121.7591484613137
 10
93.84233396091442
 20
-121.9215847134432
 10
93.84233396091442
 20
-122.0545653991739
 97
        0
 97
        0
 75
     2
 76
     1
 98
        0
  0
ENDBLK
  5
BF
330
BC
100
AcDbEntity
  8
0
100
AcDbBlockEnd
  0
BLOCK
  5
FD
330
FB
100
AcDbEntity
  8
0
100
AcDbBlockBegin
  2
block 6
 70
     0
 10
0.0
 20
0.0
 30
0.0
  3
block 6
  1

  0
SPLINE
  5
FF
330
FB
100
AcDbEntity
  8
_U+30EC_U+30A4_U+30E4_U+30FC 1
370
     0
100
AcDbSpline
210
0.0
220
0.0
230
1.0
 70
    11
 71
     3
 72
    29
 73
    25
 74
     0
 42
0.0000000001
 43
0.0000000001
 12
1.0
 22
0.0
 32
0.0
 13
1.0
 23
0.0
 33
0.0
 40
0.0
 40
0.0
 40
0.0
 40
0.0
 40
1.0
 40
1.0
 40
1.0
 40
2.0
 40
2.0
 40
2.0
 40
3.0
 40
3.0
 40
3.0
 40
4.0
 40
4.0
 40
4.0
 40
5.0
 40
5.0
 40
5.0
 40
6.0
 40
6.0
 40
6.0
 40
7.0
 40
7.0
 40
7.0
 40
8.0
 40
8.0
 40
8.0
 40
8.0
 10
106.6053792051195
 20
-135.5758761596824
 30
0.0
 10
106.8148410106227
 20
-135.6837076483708
 30
0.0
 10
106.8337890357916
 20
-135.8566514417303
 30
0.0
 10
106.8337890357916
 20
-135.9727511595832
 30
0.0
 10
106.8337890357916
 20
-136.1329480996473
 30
0.0
 10
106.7872802467407
 20
-136.2745415240911
 30
0.0
 10
106.6053792051195
 20
-136.3692816499355
 30
0.0
 10
106.4107313102029
 20
-136.472634514493
 30
0.0
 10
106.1737087408177
 20
-136.4915825396618
 30
0.0
 10
106.0107557243654
 20
-136.4915825396618
 30
0.0
 10
105.8670952426305
 20
-136.4915825396618
 30
0.0
 10
105.6152587626587
 20
-136.4747015717841
 30
0.0
 10
105.4164767531598
 20
-136.3692816499355
 30
0.0
 10
105.21321611953
 20
-136.2617946707957
 30
0.0
 10
105.1901339797789
 20
-136.101253221183
 30
0.0
 10
105.1901339797789
 20
-135.9727511595832
 30
0.0
 10
105.1901339797789
 20
-135.8142767672617
 30
0.0
 10
105.2345757115386
 20
-135.6709607950753
 30
0.0
 10
105.4164767531598
 20
-135.5758761596824
 30
0.0
 10
105.6090575907852
 20
-135.4766574097072
 30
0.0
 10
105.8374674214573
 20
-135.453575269956
 30
0.0
 10
106.0107557243654
 20
-135.453575269956
 30
0.0
 10
106.1823214795308
 20
-135.453575269956
 30
0.0
 10
106.412798367494
 20
-135.4745903524161
 30
0.0
 10
106.6053792051195
 20
-135.5758761596824
 30
0.0
  0
SPLINE
  5
100
330
FB
100
AcDbEntity
  8
_U+30EC_U+30A4_U+30E4_U+30FC 1
370
     0
100
AcDbSpline
210
0.0
220
0.0
230
1.0
 70
    11
 71
     3
 72
    17
 73
    13
 74
     0
 42
0.0000000001
 43
0.0000000001
 12
1.0
 22
0.0
 32
0.0
 13
1.0
 23
0.0
 33
0.0
 40
0.0
 40
0.0
 40
0.0
 40
0.0
 40
1.0
 40
1.0
 40
1.0
 40
2.0
 40
2.0
 40
2.0
 40
3.0
 40
3.0
 40
3.0
 40
4.0
 40
4.0
 40
4.0
 40
4.0
 10
105.3827148174043
 20
-135.9727511595832
 30
0.0
 10
105.3827148174043
 20
-136.2214870536182
 30
0.0
 10
105.6659016662919
 20
-136.2679958426691
 30
0.0
 10
106.0107557243654
 20
-136.2679958426691
 30
0.0
 10
106.330116075848
 20
-136.2679958426691
 30
0.0
 10
106.6391411408749
 20
-136.2321668496225
 30
0.0
 10
106.6391411408749
 20
-135.9727511595832
 30
0.0
 10
106.6391411408749
 20
-135.7257378132908
 30
0.0
 10
106.35767683973
 20
-135.6771619669488
 30
0.0
 10
106.0107557243654
 20
-135.6771619669488
 30
0.0
 10
105.6913953728827
 20
-135.6771619669488
 30
0.0
 10
105.3827148174043
 20
-135.7150580172865
 30
0.0
 10
105.3827148174043
 20
-135.9727511595832
 30
0.0
  0
HATCH
  5
101
330
FB
100
AcDbEntity
  8
_U+30EC_U+30A4_U+30E4_U+30FC 1
 62
   179
420
  2234388
100
AcDbHatch
 10
0.0
 20
0.0
 30
0.0
210
0.0
220
0.0
230
1.0
  2
SOLID
 70
     1
 71
     0
 91
        2
 92
        1
 93
        1
 72
     4
 94
        3
 73
     0
 74
     1
 95
       29
 96
       25
 40
0.0
 40
0.0
 40
0.0
 40
0.0
 40
1.0
 40
1.0
 40
1.0
 40
2.0
 40
2.0
 40
2.0
 40
3.0
 40
3.0
 40
3.0
 40
4.0
 40
4.0
 40
4.0
 40
5.0
 40
5.0
 40
5.0
 40
6.0
 40
6.0
 40
6.0
 40
7.0
 40
7.0
 40
7.0
 40
8.0
 40
8.0
 40
8.0
 40
8.0
 10
106.6053792051195
 20
-135.5758761596824
 10
106.8148410106227
 20
-135.6837076483708
 10
106.8337890357916
 20
-135.8566514417303
 10
106.8337890357916
 20
-135.9727511595832
 10
106.8337890357916
 20
-136.1329480996473
 10
106.7872802467407
 20
-136.2745415240911
 10
106.6053792051195
 20
-136.3692816499355
 10
106.4107313102029
 20
-136.472634514493
 10
106.1737087408177
 20
-136.4915825396618
 10
106.0107557243654
 20
-136.4915825396618
 10
105.8670952426305
 20
-136.4915825396618
 10
105.6152587626587
 20
-136.4747015717841
 10
105.4164767531598
 20
-136.3692816499355
 10
105.21321611953
 20
-136.2617946707957
 10
105.1901339797789
 20
-136.101253221183
 10
105.1901339797789
 20
-135.9727511595832
 10
105.1901339797789
 20
-135.8142767672617
 10
105.2345757115386
 20
-135.6709607950753
 10
105.4164767531598
 20
-135.5758761596824
 10
105.6090575907852
 20
-135.4766574097072
 10
105.8374674214573
 20
-135.453575269956
 10
106.0107557243654
 20
-135.453575269956
 10
106.1823214795308
 20
-135.453575269956
 10
106.412798367494
 20
-135.4745903524161
 10
106.6053792051195
 20
-135.5758761596824
 97
        0
 97
        0
 92
        1
 93
        1
 72
     4
 94
        3
 73
     0
 74
     1
 95
       17
 96
       13
 40
0.0
 40
0.0
 40
0.0
 40
0.0
 40
1.0
 40
1.0
 40
1.0
 40
2.0
 40
2.0
 40
2.0
 40
3.0
 40
3.0
 40
3.0
 40
4.0
 40
4.0
 40
4.0
 40
4.0
 10
105.3827148174043
 20
-135.9727511595832
 10
105.3827148174043
 20
-136.2214870536182
 10
105.6659016662919
 20
-136.2679958426691
 10
106.0107557243654
 20
-136.2679958426691
 10
106.330116075848
 20
-136.2679958426691
 10
106.6391411408749
 20
-136.2321668496225
 10
106.6391411408749
 20
-135.9727511595832
 10
106.6391411408749
 20
-135.7257378132908
 10
106.35767683973
 20
-135.6771619669488
 10
106.0107557243654
 20
-135.6771619669488
 10
105.6913953728827
 20
-135.6771619669488
 10
105.3827148174043
 20
-135.7150580172865
 10
105.3827148174043
 20
-135.9727511595832
 97
        0
 97
        0
 75
     2
 76
     1
 98
        0
  0
POLYLINE
  5
102
330
FB
100
AcDbEntity
  8
_U+30EC_U+30A4_U+30E4_U+30FC 1
370
     0
100
AcDb2dPolyline
 66
     1
 10
0.0
 20
0.0
 30
0.0
  0
VERTEX
  5
103
330
102
100
AcDbEntity
  8
_U+30EC_U+30A4_U+30E4_U+30FC 1
370
     0
100
AcDbVertex
100
AcDb2dVertex
 10
106.7831461321584
 20
-135.2392903307735
 30
0.0
  0
VERTEX
  5
104
330
102
100
AcDbEntity
  8
_U+30EC_U+30A4_U+30E4_U+30FC 1
370
     0
100
AcDbVertex
100
AcDb2dVertex
 10
106.5313096521866
 20
-135.2392903307735
 30
0.0
  0
VERTEX
  5
105
330
102
100
AcDbEntity
  8
_U+30EC_U+30A4_U+30E4_U+30FC 1
370
     0
100
AcDbVertex
100
AcDb2dVertex
 10
106.5313096521866
 20
-134.9881428698988
 30
0.0
  0
VERTEX
  5
106
330
102
100
AcDbEntity
  8
_U+30EC_U+30A4_U+30E4_U+30FC 1
370
     0
100
AcDbVertex
100
AcDb2dVertex
 10
106.7831461321584
 20
-134.9881428698988
 30
0.0
  0
VERTEX
  5
107
330
102
100
AcDbEntity
  8
_U+30EC_U+30A4_U+30E4_U+30FC 1
370
     0
100
AcDbVertex
100
AcDb2dVertex
 10
106.7831461321584
 20
-135.2392903307735
 30
0.0
  0
SEQEND
  5
108
330
102
100
AcDbEntity
  8
_U+30EC_U+30A4_U+30E4_U+30FC 1
370
     0
  0
HATCH
  5
109
330
FB
100
AcDbEntity
  8
_U+30EC_U+30A4_U+30E4_U+30FC 1
 62
   179
420
  2234388
100
AcDbHatch
 10
0.0
 20
0.0
 30
0.0
210
0.0
220
0.0
230
1.0
  2
SOLID
 70
     1
 71
     0
 91
        1
 92
        1
 93
        4
 72
     1
 10
106.7831461321584
 20
-135.2392903307735
 11
106.5313096521866
 21
-135.2392903307735
 72
     1
 10
106.5313096521866
 20
-135.2392903307735
 11
106.5313096521866
 21
-134.9881428698988
 72
     1
 10
106.5313096521866
 20
-134.9881428698988
 11
106.7831461321584
 21
-134.9881428698988
 72
     1
 10
106.7831461321584
 20
-134.9881428698988
 11
106.7831461321584
 21
-135.2392903307735
 97
        0
 75
     2
 76
     1
 98
        0
  0
SPLINE
  5
10A
330
FB
100
AcDbEntity
  8
_U+30EC_U+30A4_U+30E4_U+30FC 1
370
     0
100
AcDbSpline
210
0.0
220
0.0
230
1.0
 70
    11
 71
     3
 72
    32
 73
    28
 74
     0
 42
0.0000000001
 43
0.0000000001
 12
1.0
 22
0.0
 32
0.0
 13
1.0
 23
0.0
 33
0.0
 40
0.0
 40
0.0
 40
0.0
 40
0.0
 40
1.0
 40
1.0
 40
1.0
 40
2.0
 40
2.0
 40
2.0
 40
3.0
 40
3.0
 40
3.0
 40
4.0
 40
4.0
 40
4.0
 40
5.0
 40
5.0
 40
5.0
 40
6.0
 40
6.0
 40
6.0
 40
7.0
 40
7.0
 40
7.0
 40
8.0
 40
8.0
 40
8.0
 40
9.0
 40
9.0
 40
9.0
 40
9.0
 10
106.8337890357916
 20
-134.2967122060092
 30
0.0
 10
106.8337890357916
 20
-134.4696559993687
 30
0.0
 10
106.763853597441
 20
-134.7142577788214
 30
0.0
 10
106.4317463926629
 20
-134.7524983387077
 30
0.0
 10
106.4317463926629
 20
-134.7524983387077
 30
0.0
 10
106.4317463926629
 20
-134.5392469281707
 30
0.0
 10
106.4317463926629
 20
-134.5392469281707
 30
0.0
 10
106.4910020350092
 20
-134.5285671321665
 30
0.0
 10
106.6391411408749
 20
-134.4968722537022
 30
0.0
 10
106.6391411408749
 20
-134.2943006391695
 30
0.0
 10
106.6391411408749
 20
-134.0031900706659
 30
0.0
 10
106.309100993388
 20
-133.9652940203281
 30
0.0
 10
106.1037733024671
 20
-133.9525471670327
 30
0.0
 10
106.184388536822
 20
-134.0434976878433
 30
0.0
 10
106.2415771218771
 20
-134.1110215593542
 30
0.0
 10
106.2415771218771
 20
-134.2922335818783
 30
0.0
 10
106.2415771218771
 20
-134.4717230566598
 30
0.0
 10
106.1358126904799
 20
-134.7735134211677
 30
0.0
 10
105.729635932769
 20
-134.7735134211677
 30
0.0
 10
105.4099310717378
 20
-134.7735134211677
 30
0.0
 10
105.1901339797789
 20
-134.5750759212173
 30
0.0
 10
105.1901339797789
 20
-134.2584716461229
 30
0.0
 10
105.1901339797789
 20
-133.7458414379177
 30
0.0
 10
105.7444498433556
 20
-133.7351616419134
 30
0.0
 10
105.958045763441
 20
-133.7351616419134
 30
0.0
 10
106.1885226514043
 20
-133.7351616419134
 30
0.0
 10
106.8337890357916
 20
-133.7541096670823
 30
0.0
 10
106.8337890357916
 20
-134.2967122060092
 30
0.0
  0
SPLINE
  5
10B
330
FB
100
AcDbEntity
  8
_U+30EC_U+30A4_U+30E4_U+30FC 1
370
     0
100
AcDbSpline
210
0.0
220
0.0
230
1.0
 70
    11
 71
     3
 72
    17
 73
    13
 74
     0
 42
0.0000000001
 43
0.0000000001
 12
1.0
 22
0.0
 32
0.0
 13
1.0
 23
0.0
 33
0.0
 40
0.0
 40
0.0
 40
0.0
 40
0.0
 40
1.0
 40
1.0
 40
1.0
 40
2.0
 40
2.0
 40
2.0
 40
3.0
 40
3.0
 40
3.0
 40
4.0
 40
4.0
 40
4.0
 40
4.0
 10
105.3827148174043
 20
-134.2564045888317
 30
0.0
 10
105.3827148174043
 20
-134.3745713639758
 30
0.0
 10
105.439558892911
 20
-134.549926724175
 30
0.0
 10
105.7251573086382
 20
-134.549926724175
 30
0.0
 10
105.9515000820191
 20
-134.549926724175
 30
0.0
 10
106.0469292269605
 20
-134.4104003570224
 30
0.0
 10
106.0469292269605
 20
-134.2753526140006
 30
0.0
 10
106.0469292269605
 20
-134.0138698666701
 30
0.0
 10
105.8374674214573
 20
-133.9759738163324
 30
0.0
 10
105.7210231940559
 20
-133.9759738163324
 30
0.0
 10
105.5453233243081
 20
-133.9759738163324
 30
0.0
 10
105.3827148174043
 20
-134.0707139421768
 30
0.0
 10
105.3827148174043
 20
-134.2564045888317
 30
0.0
  0
HATCH
  5
10C
330
FB
100
AcDbEntity
  8
_U+30EC_U+30A4_U+30E4_U+30FC 1
 62
   179
420
  2234388
100
AcDbHatch
 10
0.0
 20
0.0
 30
0.0
210
0.0
220
0.0
230
1.0
  2
SOLID
 70
     1
 71
     0
 91
        2
 92
        1
 93
        1
 72
     4
 94
        3
 73
     0
 74
     1
 95
       32
 96
       28
 40
0.0
 40
0.0
 40
0.0
 40
0.0
 40
1.0
 40
1.0
 40
1.0
 40
2.0
 40
2.0
 40
2.0
 40
3.0
 40
3.0
 40
3.0
 40
4.0
 40
4.0
 40
4.0
 40
5.0
 40
5.0
 40
5.0
 40
6.0
 40
6.0
 40
6.0
 40
7.0
 40
7.0
 40
7.0
 40
8.0
 40
8.0
 40
8.0
 40
9.0
 40
9.0
 40
9.0
 40
9.0
 10
106.8337890357916
 20
-134.2967122060092
 10
106.8337890357916
 20
-134.4696559993687
 10
106.763853597441
 20
-134.7142577788214
 10
106.4317463926629
 20
-134.7524983387077
 10
106.4317463926629
 20
-134.7524983387077
 10
106.4317463926629
 20
-134.5392469281707
 10
106.4317463926629
 20
-134.5392469281707
 10
106.4910020350092
 20
-134.5285671321665
 10
106.6391411408749
 20
-134.4968722537022
 10
106.6391411408749
 20
-134.2943006391695
 10
106.6391411408749
 20
-134.0031900706659
 10
106.309100993388
 20
-133.9652940203281
 10
106.1037733024671
 20
-133.9525471670327
 10
106.184388536822
 20
-134.0434976878433
 10
106.2415771218771
 20
-134.1110215593542
 10
106.2415771218771
 20
-134.2922335818783
 10
106.2415771218771
 20
-134.4717230566598
 10
106.1358126904799
 20
-134.7735134211677
 10
105.729635932769
 20
-134.7735134211677
 10
105.4099310717378
 20
-134.7735134211677
 10
105.1901339797789
 20
-134.5750759212173
 10
105.1901339797789
 20
-134.2584716461229
 10
105.1901339797789
 20
-133.7458414379177
 10
105.7444498433556
 20
-133.7351616419134
 10
105.958045763441
 20
-133.7351616419134
 10
106.1885226514043
 20
-133.7351616419134
 10
106.8337890357916
 20
-133.7541096670823
 10
106.8337890357916
 20
-134.2967122060092
 97
        0
 97
        0
 92
        1
 93
        1
 72
     4
 94
        3
 73
     0
 74
     1
 95
       17
 96
       13
 40
0.0
 40
0.0
 40
0.0
 40
0.0
 40
1.0
 40
1.0
 40
1.0
 40
2.0
 40
2.0
 40
2.0
 40
3.0
 40
3.0
 40
3.0
 40
4.0
 40
4.0
 40
4.0
 40
4.0
 10
105.3827148174043
 20
-134.2564045888317
 10
105.3827148174043
 20
-134.3745713639758
 10
105.439558892911
 20
-134.549926724175
 10
105.7251573086382
 20
-134.549926724175
 10
105.9515000820191
 20
-134.549926724175
 10
106.0469292269605
 20
-134.4104003570224
 10
106.0469292269605
 20
-134.2753526140006
 10
106.0469292269605
 20
-134.0138698666701
 10
105.8374674214573
 20
-133.9759738163324
 10
105.7210231940559
 20
-133.9759738163324
 10
105.5453233243081
 20
-133.9759738163324
 10
105.3827148174043
 20
-134.0707139421768
 10
105.3827148174043
 20
-134.2564045888317
 97
        0
 97
        0
 75
     2
 76
     1
 98
        0
  0
ENDBLK
  5
FE
330
FB
100
AcDbEntity
  8
0
100
AcDbBlockEnd
  0
BLOCK
  5
11E
330
11C
100
AcDbEntity
  8
0
100
AcDbBlockBegin
  2
block 7
 70
     0
 10
0.0
 20
0.0
 30
0.0
  3
block 7
  1

  0
SPLINE
  5
120
330
11C
100
AcDbEntity
  8
_U+30EC_U+30A4_U+30E4_U+30FC 1
370
     0
100
AcDbSpline
210
0.0
220
0.0
230
1.0
 70
    11
 71
     3
 72
    62
 73
    58
 74
     0
 42
0.0000000001
 43
0.0000000001
 12
1.0
 22
0.0
 32
0.0
 13
1.0
 23
0.0
 33
0.0
 40
0.0
 40
0.0
 40
0.0
 40
0.0
 40
1.0
 40
1.0
 40
1.0
 40
2.0
 40
2.0
 40
2.0
 40
3.0
 40
3.0
 40
3.0
 40
4.0
 40
4.0
 40
4.0
 40
5.0
 40
5.0
 40
5.0
 40
6.0
 40
6.0
 40
6.0
 40
7.0
 40
7.0
 40
7.0
 40
8.0
 40
8.0
 40
8.0
 40
9.0
 40
9.0
 40
9.0
 40
10.0
 40
10.0
 40
10.0
 40
11.0
 40
11.0
 40
11.0
 40
12.0
 40
12.0
 40
12.0
 40
13.0
 40
13.0
 40
13.0
 40
14.0
 40
14.0
 40
14.0
 40
15.0
 40
15.0
 40
15.0
 40
16.0
 40
16.0
 40
16.0
 40
17.0
 40
17.0
 40
17.0
 40
18.0
 40
18.0
 40
18.0
 40
19.0
 40
19.0
 40
19.0
 40
19.0
 10
106.8341335453401
 20
-125.5809651378756
 30
0.0
 10
106.8341335453401
 20
-125.6758775184942
 30
0.0
 10
106.8131184628801
 20
-125.8932630436135
 30
0.0
 10
106.626738797128
 20
-126.0178032454053
 30
0.0
 10
106.5147731938574
 20
-126.0915282887896
 30
0.0
 10
106.4152099343337
 20
-126.0958346581462
 30
0.0
 10
106.3308050949451
 20
-126.0999687727285
 30
0.0
 10
106.3308050949451
 20
-126.0999687727285
 30
0.0
 10
106.3308050949451
 20
-125.8805161903181
 30
0.0
 10
106.3308050949451
 20
-125.8805161903181
 30
0.0
 10
106.4045301383294
 20
-125.8784491330269
 30
0.0
 10
106.6394856504235
 20
-125.8679415917969
 30
0.0
 10
106.6394856504235
 20
-125.5850992524579
 30
0.0
 10
106.6394856504235
 20
-125.447984452145
 30
0.0
 10
106.5695502120729
 20
-125.2960557412454
 30
0.0
 10
106.3411403814008
 20
-125.2960557412454
 30
0.0
 10
106.2246961539994
 20
-125.2960557412454
 30
0.0
 10
106.1761203076574
 20
-125.3341240463574
 30
0.0
 10
106.1444254291931
 20
-125.3656466700475
 30
0.0
 10
106.0703558762602
 20
-125.4395439682061
 30
0.0
 10
106.0576090229648
 20
-125.555643686059
 30
0.0
 10
106.0576090229648
 20
-125.6104207042745
 30
0.0
 10
106.0576090229648
 20
-125.6295409842176
 30
0.0
 10
106.0600205898044
 20
-125.6653699772642
 30
0.0
 10
106.0641547043867
 20
-125.692758486372
 30
0.0
 10
106.0641547043867
 20
-125.692758486372
 30
0.0
 10
105.8695068094701
 20
-125.692758486372
 30
0.0
 10
105.8695068094701
 20
-125.692758486372
 30
0.0
 10
105.8757079813436
 20
-125.6548624360342
 30
0.0
 10
105.8777750386347
 20
-125.6126600163399
 30
0.0
 10
105.8777750386347
 20
-125.6062865896922
 30
0.0
 10
105.8777750386347
 20
-125.5408297754724
 30
0.0
 10
105.8567599561747
 20
-125.3425645302963
 30
0.0
 10
105.6197373867895
 20
-125.3425645302963
 30
0.0
 10
105.4419704597506
 20
-125.3425645302963
 30
0.0
 10
105.3871934415351
 20
-125.4733059039615
 30
0.0
 10
105.3871934415351
 20
-125.5830321951668
 30
0.0
 10
105.3871934415351
 20
-125.8467542545626
 30
0.0
 10
105.6197373867895
 20
-125.8551947385015
 30
0.0
 10
105.6917398824312
 20
-125.8595011078581
 30
0.0
 10
105.6917398824312
 20
-125.8595011078581
 30
0.0
 10
105.6917398824312
 20
-126.0620727223907
 30
0.0
 10
105.6917398824312
 20
-126.0620727223907
 30
0.0
 10
105.5670274258652
 20
-126.0536322384519
 30
0.0
 10
105.1904784893274
 20
-126.0262437293441
 30
0.0
 10
105.1904784893274
 20
-125.5704575966456
 30
0.0
 10
105.1904784893274
 20
-125.3466986448786
 30
0.0
 10
105.3172580031846
 20
-125.1062309800082
 30
0.0
 10
105.6135362149161
 20
-125.1062309800082
 30
0.0
 10
105.7995713711196
 20
-125.1062309800082
 30
0.0
 10
105.8822536627655
 20
-125.2011433606268
 30
0.0
 10
105.943576362403
 20
-125.300362110602
 30
0.0
 10
105.971137126285
 20
-125.2390394109646
 30
0.0
 10
106.0514078510913
 20
-125.0576551336661
 30
0.0
 10
106.3283935281054
 20
-125.0576551336661
 30
0.0
 10
106.6670464143055
 20
-125.0576551336661
 30
0.0
 10
106.8341335453401
 20
-125.3044962251843
 30
0.0
 10
106.8341335453401
 20
-125.5809651378756
 30
0.0
  0
HATCH
  5
121
330
11C
100
AcDbEntity
  8
_U+30EC_U+30A4_U+30E4_U+30FC 1
 62
   179
420
  2234388
100
AcDbHatch
 10
0.0
 20
0.0
 30
0.0
210
0.0
220
0.0
230
1.0
  2
SOLID
 70
     1
 71
     0
 91
        1
 92
        1
 93
        1
 72
     4
 94
        3
 73
     0
 74
     1
 95
       62
 96
       58
 40
0.0
 40
0.0
 40
0.0
 40
0.0
 40
1.0
 40
1.0
 40
1.0
 40
2.0
 40
2.0
 40
2.0
 40
3.0
 40
3.0
 40
3.0
 40
4.0
 40
4.0
 40
4.0
 40
5.0
 40
5.0
 40
5.0
 40
6.0
 40
6.0
 40
6.0
 40
7.0
 40
7.0
 40
7.0
 40
8.0
 40
8.0
 40
8.0
 40
9.0
 40
9.0
 40
9.0
 40
10.0
 40
10.0
 40
10.0
 40
11.0
 40
11.0
 40
11.0
 40
12.0
 40
12.0
 40
12.0
 40
13.0
 40
13.0
 40
13.0
 40
14.0
 40
14.0
 40
14.0
 40
15.0
 40
15.0
 40
15.0
 40
16.0
 40
16.0
 40
16.0
 40
17.0
 40
17.0
 40
17.0
 40
18.0
 40
18.0
 40
18.0
 40
19.0
 40
19.0
 40
19.0
 40
19.0
 10
106.8341335453401
 20
-125.5809651378756
 10
106.8341335453401
 20
-125.6758775184942
 10
106.8131184628801
 20
-125.8932630436135
 10
106.626738797128
 20
-126.0178032454053
 10
106.5147731938574
 20
-126.0915282887896
 10
106.4152099343337
 20
-126.0958346581462
 10
106.3308050949451
 20
-126.0999687727285
 10
106.3308050949451
 20
-126.0999687727285
 10
106.3308050949451
 20
-125.8805161903181
 10
106.3308050949451
 20
-125.8805161903181
 10
106.4045301383294
 20
-125.8784491330269
 10
106.6394856504235
 20
-125.8679415917969
 10
106.6394856504235
 20
-125.5850992524579
 10
106.6394856504235
 20
-125.447984452145
 10
106.5695502120729
 20
-125.2960557412454
 10
106.3411403814008
 20
-125.2960557412454
 10
106.2246961539994
 20
-125.2960557412454
 10
106.1761203076574
 20
-125.3341240463574
 10
106.1444254291931
 20
-125.3656466700475
 10
106.0703558762602
 20
-125.4395439682061
 10
106.0576090229648
 20
-125.555643686059
 10
106.0576090229648
 20
-125.6104207042745
 10
106.0576090229648
 20
-125.6295409842176
 10
106.0600205898044
 20
-125.6653699772642
 10
106.0641547043867
 20
-125.692758486372
 10
106.0641547043867
 20
-125.692758486372
 10
105.8695068094701
 20
-125.692758486372
 10
105.8695068094701
 20
-125.692758486372
 10
105.8757079813436
 20
-125.6548624360342
 10
105.8777750386347
 20
-125.6126600163399
 10
105.8777750386347
 20
-125.6062865896922
 10
105.8777750386347
 20
-125.5408297754724
 10
105.8567599561747
 20
-125.3425645302963
 10
105.6197373867895
 20
-125.3425645302963
 10
105.4419704597506
 20
-125.3425645302963
 10
105.3871934415351
 20
-125.4733059039615
 10
105.3871934415351
 20
-125.5830321951668
 10
105.3871934415351
 20
-125.8467542545626
 10
105.6197373867895
 20
-125.8551947385015
 10
105.6917398824312
 20
-125.8595011078581
 10
105.6917398824312
 20
-125.8595011078581
 10
105.6917398824312
 20
-126.0620727223907
 10
105.6917398824312
 20
-126.0620727223907
 10
105.5670274258652
 20
-126.0536322384519
 10
105.1904784893274
 20
-126.0262437293441
 10
105.1904784893274
 20
-125.5704575966456
 10
105.1904784893274
 20
-125.3466986448786
 10
105.3172580031846
 20
-125.1062309800082
 10
105.6135362149161
 20
-125.1062309800082
 10
105.7995713711196
 20
-125.1062309800082
 10
105.8822536627655
 20
-125.2011433606268
 10
105.943576362403
 20
-125.300362110602
 10
105.971137126285
 20
-125.2390394109646
 10
106.0514078510913
 20
-125.0576551336661
 10
106.3283935281054
 20
-125.0576551336661
 10
106.6670464143055
 20
-125.0576551336661
 10
106.8341335453401
 20
-125.3044962251843
 10
106.8341335453401
 20
-125.5809651378756
 97
        0
 97
        0
 75
     2
 76
     1
 98
        0
  0
POLYLINE
  5
122
330
11C
100
AcDbEntity
  8
_U+30EC_U+30A4_U+30E4_U+30FC 1
370
     0
100
AcDb2dPolyline
 66
     1
 10
0.0
 20
0.0
 30
0.0
  0
VERTEX
  5
123
330
122
100
AcDbEntity
  8
_U+30EC_U+30A4_U+30E4_U+30FC 1
370
     0
100
AcDbVertex
100
AcDb2dVertex
 10
106.7834906417069
 20
-124.8392360799013
 30
0.0
  0
VERTEX
  5
124
330
122
100
AcDbEntity
  8
_U+30EC_U+30A4_U+30E4_U+30FC 1
370
     0
100
AcDbVertex
100
AcDb2dVertex
 10
106.5316541617351
 20
-124.8392360799013
 30
0.0
  0
VERTEX
  5
125
330
122
100
AcDbEntity
  8
_U+30EC_U+30A4_U+30E4_U+30FC 1
370
     0
100
AcDbVertex
100
AcDb2dVertex
 10
106.5316541617351
 20
-124.5880886190266
 30
0.0
  0
VERTEX
  5
126
330
122
100
AcDbEntity
  8
_U+30EC_U+30A4_U+30E4_U+30FC 1
370
     0
100
AcDbVertex
100
AcDb2dVertex
 10
106.7834906417069
 20
-124.5880886190266
 30
0.0
  0
VERTEX
  5
127
330
122
100
AcDbEntity
  8
_U+30EC_U+30A4_U+30E4_U+30FC 1
370
     0
100
AcDbVertex
100
AcDb2dVertex
 10
106.7834906417069
 20
-124.8392360799013
 30
0.0
  0
SEQEND
  5
128
330
122
100
AcDbEntity
  8
_U+30EC_U+30A4_U+30E4_U+30FC 1
370
     0
  0
HATCH
  5
129
330
11C
100
AcDbEntity
  8
_U+30EC_U+30A4_U+30E4_U+30FC 1
 62
   179
420
  2234388
100
AcDbHatch
 10
0.0
 20
0.0
 30
0.0
210
0.0
220
0.0
230
1.0
  2
SOLID
 70
     1
 71
     0
 91
        1
 92
        1
 93
        4
 72
     1
 10
106.7834906417069
 20
-124.8392360799013
 11
106.5316541617351
 21
-124.8392360799013
 72
     1
 10
106.5316541617351
 20
-124.8392360799013
 11
106.5316541617351
 21
-124.5880886190266
 72
     1
 10
106.5316541617351
 20
-124.5880886190266
 11
106.7834906417069
 21
-124.5880886190266
 72
     1
 10
106.7834906417069
 20
-124.5880886190266
 11
106.7834906417069
 21
-124.8392360799013
 97
        0
 75
     2
 76
     1
 98
        0
  0
SPLINE
  5
12A
330
11C
100
AcDbEntity
  8
_U+30EC_U+30A4_U+30E4_U+30FC 1
370
     0
100
AcDbSpline
210
0.0
220
0.0
230
1.0
 70
    11
 71
     3
 72
    53
 73
    49
 74
     0
 42
0.0000000001
 43
0.0000000001
 12
1.0
 22
0.0
 32
0.0
 13
1.0
 23
0.0
 33
0.0
 40
0.0
 40
0.0
 40
0.0
 40
0.0
 40
1.0
 40
1.0
 40
1.0
 40
2.0
 40
2.0
 40
2.0
 40
3.0
 40
3.0
 40
3.0
 40
4.0
 40
4.0
 40
4.0
 40
5.0
 40
5.0
 40
5.0
 40
6.0
 40
6.0
 40
6.0
 40
7.0
 40
7.0
 40
7.0
 40
8.0
 40
8.0
 40
8.0
 40
9.0
 40
9.0
 40
9.0
 40
10.0
 40
10.0
 40
10.0
 40
11.0
 40
11.0
 40
11.0
 40
12.0
 40
12.0
 40
12.0
 40
13.0
 40
13.0
 40
13.0
 40
14.0
 40
14.0
 40
14.0
 40
15.0
 40
15.0
 40
15.0
 40
16.0
 40
16.0
 40
16.0
 40
16.0
 10
106.8341335453401
 20
-123.8732313058373
 30
0.0
 10
106.8341335453401
 20
-123.9512627185782
 30
0.0
 10
106.8172525774624
 20
-124.0525485258445
 30
0.0
 10
106.7538628205338
 20
-124.1538343331109
 30
0.0
 10
106.6436197650058
 20
-124.3269503812447
 30
0.0
 10
106.5127061365663
 20
-124.3479654637047
 30
0.0
 10
106.4045301383294
 20
-124.3669134888735
 30
0.0
 10
106.4045301383294
 20
-124.3669134888735
 30
0.0
 10
106.4045301383294
 20
-124.145393849172
 30
0.0
 10
106.4045301383294
 20
-124.145393849172
 30
0.0
 10
106.6036566573769
 20
-124.0906168309565
 30
0.0
 10
106.63328447855
 20
-123.9640095718736
 30
0.0
 10
106.63328447855
 20
-123.8711642485461
 30
0.0
 10
106.63328447855
 20
-123.7318101361678
 30
0.0
 10
106.5337212190263
 20
-123.5798814252682
 30
0.0
 10
106.3011772737719
 20
-123.5798814252682
 30
0.0
 10
106.0452066792179
 20
-123.5798814252682
 30
0.0
 10
105.9752712408673
 20
-123.7591986452755
 30
0.0
 10
105.9752712408673
 20
-123.879604732485
 30
0.0
 10
105.9752712408673
 20
-123.911127356175
 30
0.0
 10
105.9752712408673
 20
-124.0525485258445
 30
0.0
 10
106.1041178120156
 20
-124.1412597345897
 30
0.0
 10
106.1041178120156
 20
-124.1412597345897
 30
0.0
 10
106.0851697868468
 20
-124.3162705852404
 30
0.0
 10
106.0851697868468
 20
-124.3162705852404
 30
0.0
 10
106.0851697868468
 20
-124.3162705852404
 30
0.0
 10
105.2390543356694
 20
-124.1960367528052
 30
0.0
 10
105.2390543356694
 20
-124.1960367528052
 30
0.0
 10
105.2390543356694
 20
-124.1960367528052
 30
0.0
 10
105.2390543356694
 20
-123.4195122304298
 30
0.0
 10
105.2390543356694
 20
-123.4195122304298
 30
0.0
 10
105.2390543356694
 20
-123.4195122304298
 30
0.0
 10
105.433702230586
 20
-123.4195122304298
 30
0.0
 10
105.433702230586
 20
-123.4195122304298
 30
0.0
 10
105.433702230586
 20
-123.4195122304298
 30
0.0
 10
105.433702230586
 20
-124.0336005006756
 30
0.0
 10
105.433702230586
 20
-124.0336005006756
 30
0.0
 10
105.433702230586
 20
-124.0336005006756
 30
0.0
 10
105.8567599561747
 20
-124.0990573148954
 30
0.0
 10
105.8567599561747
 20
-124.0990573148954
 30
0.0
 10
105.8229980204192
 20
-124.0377346152579
 30
0.0
 10
105.7826904032418
 20
-123.9555690879347
 30
0.0
 10
105.7826904032418
 20
-123.8374023127907
 30
0.0
 10
105.7826904032418
 20
-123.5841877946248
 30
0.0
 10
105.9687255594453
 20
-123.3478542443367
 30
0.0
 10
106.2818847390545
 20
-123.3478542443367
 30
0.0
 10
106.599178033246
 20
-123.3478542443367
 30
0.0
 10
106.8341335453401
 20
-123.5714409413294
 30
0.0
 10
106.8341335453401
 20
-123.8732313058373
 30
0.0
  0
HATCH
  5
12B
330
11C
100
AcDbEntity
  8
_U+30EC_U+30A4_U+30E4_U+30FC 1
 62
   179
420
  2234388
100
AcDbHatch
 10
0.0
 20
0.0
 30
0.0
210
0.0
220
0.0
230
1.0
  2
SOLID
 70
     1
 71
     0
 91
        1
 92
        1
 93
        1
 72
     4
 94
        3
 73
     0
 74
     1
 95
       53
 96
       49
 40
0.0
 40
0.0
 40
0.0
 40
0.0
 40
1.0
 40
1.0
 40
1.0
 40
2.0
 40
2.0
 40
2.0
 40
3.0
 40
3.0
 40
3.0
 40
4.0
 40
4.0
 40
4.0
 40
5.0
 40
5.0
 40
5.0
 40
6.0
 40
6.0
 40
6.0
 40
7.0
 40
7.0
 40
7.0
 40
8.0
 40
8.0
 40
8.0
 40
9.0
 40
9.0
 40
9.0
 40
10.0
 40
10.0
 40
10.0
 40
11.0
 40
11.0
 40
11.0
 40
12.0
 40
12.0
 40
12.0
 40
13.0
 40
13.0
 40
13.0
 40
14.0
 40
14.0
 40
14.0
 40
15.0
 40
15.0
 40
15.0
 40
16.0
 40
16.0
 40
16.0
 40
16.0
 10
106.8341335453401
 20
-123.8732313058373
 10
106.8341335453401
 20
-123.9512627185782
 10
106.8172525774624
 20
-124.0525485258445
 10
106.7538628205338
 20
-124.1538343331109
 10
106.6436197650058
 20
-124.3269503812447
 10
106.5127061365663
 20
-124.3479654637047
 10
106.4045301383294
 20
-124.3669134888735
 10
106.4045301383294
 20
-124.3669134888735
 10
106.4045301383294
 20
-124.145393849172
 10
106.4045301383294
 20
-124.145393849172
 10
106.6036566573769
 20
-124.0906168309565
 10
106.63328447855
 20
-123.9640095718736
 10
106.63328447855
 20
-123.8711642485461
 10
106.63328447855
 20
-123.7318101361678
 10
106.5337212190263
 20
-123.5798814252682
 10
106.3011772737719
 20
-123.5798814252682
 10
106.0452066792179
 20
-123.5798814252682
 10
105.9752712408673
 20
-123.7591986452755
 10
105.9752712408673
 20
-123.879604732485
 10
105.9752712408673
 20
-123.911127356175
 10
105.9752712408673
 20
-124.0525485258445
 10
106.1041178120156
 20
-124.1412597345897
 10
106.1041178120156
 20
-124.1412597345897
 10
106.0851697868468
 20
-124.3162705852404
 10
106.0851697868468
 20
-124.3162705852404
 10
106.0851697868468
 20
-124.3162705852404
 10
105.2390543356694
 20
-124.1960367528052
 10
105.2390543356694
 20
-124.1960367528052
 10
105.2390543356694
 20
-124.1960367528052
 10
105.2390543356694
 20
-123.4195122304298
 10
105.2390543356694
 20
-123.4195122304298
 10
105.2390543356694
 20
-123.4195122304298
 10
105.433702230586
 20
-123.4195122304298
 10
105.433702230586
 20
-123.4195122304298
 10
105.433702230586
 20
-123.4195122304298
 10
105.433702230586
 20
-124.0336005006756
 10
105.433702230586
 20
-124.0336005006756
 10
105.433702230586
 20
-124.0336005006756
 10
105.8567599561747
 20
-124.0990573148954
 10
105.8567599561747
 20
-124.0990573148954
 10
105.8229980204192
 20
-124.0377346152579
 10
105.7826904032418
 20
-123.9555690879347
 10
105.7826904032418
 20
-123.8374023127907
 10
105.7826904032418
 20
-123.5841877946248
 10
105.9687255594453
 20
-123.3478542443367
 10
106.2818847390545
 20
-123.3478542443367
 10
106.599178033246
 20
-123.3478542443367
 10
106.8341335453401
 20
-123.5714409413294
 10
106.8341335453401
 20
-123.8732313058373
 97
        0
 97
        0
 75
     2
 76
     1
 98
        0
  0
ENDBLK
  5
11F
330
11C
100
AcDbEntity
  8
0
100
AcDbBlockEnd
  0
ENDSEC
  0
SECTION
  2
ENTITIES
  0
POLYLINE
  5
41
330
1F
100
AcDbEntity
  8
_U+30EC_U+30A4_U+30E4_U+30FC 1
 62
   179
420
  2234388
370
    25
100
AcDb2dPolyline
 66
     1
 10
0.0
 20
0.0
 30
0.0
  0
VERTEX
  5
42
330
41
100
AcDbEntity
  8
_U+30EC_U+30A4_U+30E4_U+30FC 1
 62
   179
420
  2234388
370
    25
100
AcDbVertex
100
AcDb2dVertex
 10
81.15525570733472
 20
-125.9141146907438
 30
0.0
  0
VERTEX
  5
43
330
41
100
AcDbEntity
  8
_U+30EC_U+30A4_U+30E4_U+30FC 1
 62
   179
420
  2234388
370
    25
100
AcDbVertex
100
AcDb2dVertex
 10
89.9161388171593
 20
-125.9141146907438
 30
0.0
  0
SEQEND
  5
44
330
41
100
AcDbEntity
  8
_U+30EC_U+30A4_U+30E4_U+30FC 1
 62
   179
420
  2234388
370
    25
  0
POLYLINE
  5
45
330
1F
100
AcDbEntity
  8
_U+30EC_U+30A4_U+30E4_U+30FC 1
 62
   179
420
  2234388
370
    25
100
AcDb2dPolyline
 66
     1
 10
0.0
 20
0.0
 30
0.0
  0
VERTEX
  5
46
330
45
100
AcDbEntity
  8
_U+30EC_U+30A4_U+30E4_U+30FC 1
 62
   179
420
  2234388
370
    25
100
AcDbVertex
100
AcDb2dVertex
 10
81.15525570733472
 20
-125.9141146907438
 30
0.0
  0
VERTEX
  5
47
330
45
100
AcDbEntity
  8
_U+30EC_U+30A4_U+30E4_U+30FC 1
 62
   179
420
  2234388
370
    25
100
AcDbVertex
100
AcDb2dVertex
 10
81.15525570733472
 20
-132.1139019114161
 30
0.0
  0
SEQEND
  5
48
330
45
100
AcDbEntity
  8
_U+30EC_U+30A4_U+30E4_U+30FC 1
 62
   179
420
  2234388
370
    25
  0
POLYLINE
  5
49
330
1F
100
AcDbEntity
  8
_U+30EC_U+30A4_U+30E4_U+30FC 1
 62
   179
420
  2234388
370
     9
100
AcDb2dPolyline
 66
     1
 10
0.0
 20
0.0
 30
0.0
  0
VERTEX
  5
4A
330
49
100
AcDbEntity
  8
_U+30EC_U+30A4_U+30E4_U+30FC 1
 62
   179
420
  2234388
370
     9
100
AcDbVertex
100
AcDb2dVertex
 10
82.95530427252277
 20
-127.7138105236271
 30
0.0
  0
VERTEX
  5
4B
330
49
100
AcDbEntity
  8
_U+30EC_U+30A4_U+30E4_U+30FC 1
 62
   179
420
  2234388
370
     9
100
AcDbVertex
100
AcDb2dVertex
 10
90.95517517954016
 20
-127.7138105236271
 30
0.0
  0
SEQEND
  5
4C
330
49
100
AcDbEntity
  8
_U+30EC_U+30A4_U+30E4_U+30FC 1
 62
   179
420
  2234388
370
     9
  0
POLYLINE
  5
4D
330
1F
100
AcDbEntity
  8
_U+30EC_U+30A4_U+30E4_U+30FC 1
 62
   179
420
  2234388
370
     9
100
AcDb2dPolyline
 66
     1
 10
0.0
 20
0.0
 30
0.0
  0
VERTEX
  5
4E
330
4D
100
AcDbEntity
  8
_U+30EC_U+30A4_U+30E4_U+30FC 1
 62
   179
420
  2234388
370
     9
100
AcDbVertex
100
AcDb2dVertex
 10
82.95530427252277
 20
-127.7138105236271
 30
0.0
  0
VERTEX
  5
4F
330
4D
100
AcDbEntity
  8
_U+30EC_U+30A4_U+30E4_U+30FC 1
 62
   179
420
  2234388
370
     9
100
AcDbVertex
100
AcDb2dVertex
 10
82.95530427252277
 20
-131.2140363560852
 30
0.0
  0
SEQEND
  5
50
330
4D
100
AcDbEntity
  8
_U+30EC_U+30A4_U+30E4_U+30FC 1
 62
   179
420
  2234388
370
     9
  0
POLYLINE
  5
51
330
1F
100
AcDbEntity
  8
_U+30EC_U+30A4_U+30E4_U+30FC 1
 62
   179
420
  2234388
370
    25
100
AcDb2dPolyline
 66
     1
 10
0.0
 20
0.0
 30
0.0
  0
VERTEX
  5
52
330
51
100
AcDbEntity
  8
_U+30EC_U+30A4_U+30E4_U+30FC 1
 62
   179
420
  2234388
370
    25
100
AcDbVertex
100
AcDb2dVertex
 10
89.9161388171593
 20
-125.9141146907438
 30
0.0
  0
VERTEX
  5
53
330
51
100
AcDbEntity
  8
_U+30EC_U+30A4_U+30E4_U+30FC 1
 62
   179
420
  2234388
370
    25
100
AcDbVertex
100
AcDb2dVertex
 10
90.95517517954016
 20
-127.7138105236271
 30
0.0
  0
SEQEND
  5
54
330
51
100
AcDbEntity
  8
_U+30EC_U+30A4_U+30E4_U+30FC 1
 62
   179
420
  2234388
370
    25
  0
SPLINE
  5
55
330
1F
100
AcDbEntity
  8
_U+30EC_U+30A4_U+30E4_U+30FC 1
 62
   179
420
  2234388
370
     9
100
AcDbSpline
210
0.0
220
0.0
230
1.0
 70
    11
 71
     3
 72
    17
 73
    13
 74
     0
 42
0.0000000001
 43
0.0000000001
 12
1.0
 22
0.0
 32
0.0
 13
1.0
 23
0.0
 33
0.0
 40
0.0
 40
0.0
 40
0.0
 40
0.0
 40
1.0
 40
1.0
 40
1.0
 40
2.0
 40
2.0
 40
2.0
 40
3.0
 40
3.0
 40
3.0
 40
4.0
 40
4.0
 40
4.0
 40
4.0
 10
77.25540330682824
 20
-125.9141146907438
 30
0.0
 10
77.25540330682824
 20
-125.8589755240907
 30
0.0
 10
77.21060053019347
 20
-125.8142080241022
 30
0.0
 10
77.15514386494162
 20
-125.8142080241022
 30
0.0
 10
77.10003997745855
 20
-125.8142080241022
 30
0.0
 10
77.0552372008238
 20
-125.8589755240907
 30
0.0
 10
77.0552372008238
 20
-125.9141146907438
 30
0.0
 10
77.0552372008238
 20
-125.9692185796187
 30
0.0
 10
77.10003997745855
 20
-126.0140213573854
 30
0.0
 10
77.15514386494162
 20
-126.0140213573854
 30
0.0
 10
77.21060053019347
 20
-126.0140213573854
 30
0.0
 10
77.25540330682824
 20
-125.9692185796187
 30
0.0
 10
77.25540330682824
 20
-125.9141146907438
 30
0.0
  0
SPLINE
  5
56
330
1F
100
AcDbEntity
  8
_U+30EC_U+30A4_U+30E4_U+30FC 1
 62
   179
420
  2234388
370
     9
100
AcDbSpline
210
0.0
220
0.0
230
1.0
 70
    11
 71
     3
 72
    17
 73
    13
 74
     0
 42
0.0000000001
 43
0.0000000001
 12
1.0
 22
0.0
 32
0.0
 13
1.0
 23
0.0
 33
0.0
 40
0.0
 40
0.0
 40
0.0
 40
0.0
 40
1.0
 40
1.0
 40
1.0
 40
2.0
 40
2.0
 40
2.0
 40
3.0
 40
3.0
 40
3.0
 40
4.0
 40
4.0
 40
4.0
 40
4.0
 10
77.25540330682824
 20
-132.1139019114161
 30
0.0
 10
77.25540330682824
 20
-132.058762744763
 30
0.0
 10
77.21060053019347
 20
-132.0139952447744
 30
0.0
 10
77.15514386494162
 20
-132.0139952447744
 30
0.0
 10
77.10003997745855
 20
-132.0139952447744
 30
0.0
 10
77.0552372008238
 20
-132.058762744763
 30
0.0
 10
77.0552372008238
 20
-132.1139019114161
 30
0.0
 10
77.0552372008238
 20
-132.169005800291
 30
0.0
 10
77.10003997745855
 20
-132.2138085780577
 30
0.0
 10
77.15514386494162
 20
-132.2138085780577
 30
0.0
 10
77.21060053019347
 20
-132.2138085780577
 30
0.0
 10
77.25540330682824
 20
-132.169005800291
 30
0.0
 10
77.25540330682824
 20
-132.1139019114161
 30
0.0
  0
SPLINE
  5
57
330
1F
100
AcDbEntity
  8
_U+30EC_U+30A4_U+30E4_U+30FC 1
 62
   179
420
  2234388
370
     9
100
AcDbSpline
210
0.0
220
0.0
230
1.0
 70
    11
 71
     3
 72
    17
 73
    13
 74
     0
 42
0.0000000001
 43
0.0000000001
 12
1.0
 22
0.0
 32
0.0
 13
1.0
 23
0.0
 33
0.0
 40
0.0
 40
0.0
 40
0.0
 40
0.0
 40
1.0
 40
1.0
 40
1.0
 40
2.0
 40
2.0
 40
2.0
 40
3.0
 40
3.0
 40
3.0
 40
4.0
 40
4.0
 40
4.0
 40
4.0
 10
81.25516237145256
 20
-121.9136499695217
 30
0.0
 10
81.25516237145256
 20
-121.8585460806465
 30
0.0
 10
81.21071237258657
 20
-121.8137433028801
 30
0.0
 10
81.15525570733472
 20
-121.8137433028801
 30
0.0
 10
81.10011654207476
 20
-121.8137433028801
 30
0.0
 10
81.05534904321688
 20
-121.8585460806465
 30
0.0
 10
81.05534904321688
 20
-121.9136499695217
 30
0.0
 10
81.05534904321688
 20
-121.9694594139522
 30
0.0
 10
81.10011654207476
 20
-122.0142621917186
 30
0.0
 10
81.15525570733472
 20
-122.0142621917186
 30
0.0
 10
81.21071237258657
 20
-122.0142621917186
 30
0.0
 10
81.25516237145256
 20
-121.9694594139522
 30
0.0
 10
81.25516237145256
 20
-121.9136499695217
 30
0.0
  0
SPLINE
  5
58
330
1F
100
AcDbEntity
  8
_U+30EC_U+30A4_U+30E4_U+30FC 1
 62
   179
420
  2234388
370
     9
100
AcDbSpline
210
0.0
220
0.0
230
1.0
 70
    11
 71
     3
 72
    17
 73
    13
 74
     0
 42
0.0000000001
 43
0.0000000001
 12
1.0
 22
0.0
 32
0.0
 13
1.0
 23
0.0
 33
0.0
 40
0.0
 40
0.0
 40
0.0
 40
0.0
 40
1.0
 40
1.0
 40
1.0
 40
2.0
 40
2.0
 40
2.0
 40
3.0
 40
3.0
 40
3.0
 40
4.0
 40
4.0
 40
4.0
 40
4.0
 10
91.05561101031117
 20
-121.9136499695217
 30
0.0
 10
91.05561101031117
 20
-121.8585460806465
 30
0.0
 10
91.01063184479202
 20
-121.8137433028801
 30
0.0
 10
90.95517517954016
 20
-121.8137433028801
 30
0.0
 10
90.90003601428022
 20
-121.8137433028801
 30
0.0
 10
90.85526851542232
 20
-121.8585460806465
 30
0.0
 10
90.85526851542232
 20
-121.9136499695217
 30
0.0
 10
90.85526851542232
 20
-121.9694594139522
 30
0.0
 10
90.90003601428022
 20
-122.0142621917186
 30
0.0
 10
90.95517517954016
 20
-122.0142621917186
 30
0.0
 10
91.01063184479202
 20
-122.0142621917186
 30
0.0
 10
91.05561101031117
 20
-121.9694594139522
 30
0.0
 10
91.05561101031117
 20
-121.9136499695217
 30
0.0
  0
SPLINE
  5
59
330
1F
100
AcDbEntity
  8
_U+30EC_U+30A4_U+30E4_U+30FC 1
 62
   179
420
  2234388
370
     9
100
AcDbSpline
210
0.0
220
0.0
230
1.0
 70
    11
 71
     3
 72
    17
 73
    13
 74
     0
 42
0.0000000001
 43
0.0000000001
 12
1.0
 22
0.0
 32
0.0
 13
1.0
 23
0.0
 33
0.0
 40
0.0
 40
0.0
 40
0.0
 40
0.0
 40
1.0
 40
1.0
 40
1.0
 40
2.0
 40
2.0
 40
2.0
 40
3.0
 40
3.0
 40
3.0
 40
4.0
 40
4.0
 40
4.0
 40
4.0
 10
95.05568757492738
 20
-125.9141146907438
 30
0.0
 10
95.05568757492738
 20
-125.8589755240907
 30
0.0
 10
95.0109200760695
 20
-125.8142080241022
 30
0.0
 10
94.95578330959412
 20
-125.8142080241022
 30
0.0
 10
94.90067702332647
 20
-125.8142080241022
 30
0.0
 10
94.8558742466917
 20
-125.8589755240907
 30
0.0
 10
94.8558742466917
 20
-125.9141146907438
 30
0.0
 10
94.8558742466917
 20
-125.9692185796187
 30
0.0
 10
94.90067702332647
 20
-126.0140213573854
 30
0.0
 10
94.95578330959412
 20
-126.0140213573854
 30
0.0
 10
95.0109200760695
 20
-126.0140213573854
 30
0.0
 10
95.05568757492738
 20
-125.9692185796187
 30
0.0
 10
95.05568757492738
 20
-125.9141146907438
 30
0.0
  0
SPLINE
  5
5A
330
1F
100
AcDbEntity
  8
_U+30EC_U+30A4_U+30E4_U+30FC 1
 62
   179
420
  2234388
370
     9
100
AcDbSpline
210
0.0
220
0.0
230
1.0
 70
    11
 71
     3
 72
    17
 73
    13
 74
     0
 42
0.0000000001
 43
0.0000000001
 12
1.0
 22
0.0
 32
0.0
 13
1.0
 23
0.0
 33
0.0
 40
0.0
 40
0.0
 40
0.0
 40
0.0
 40
1.0
 40
1.0
 40
1.0
 40
2.0
 40
2.0
 40
2.0
 40
3.0
 40
3.0
 40
3.0
 40
4.0
 40
4.0
 40
4.0
 40
4.0
 10
95.05568757492738
 20
-127.7138105236271
 30
0.0
 10
95.05568757492738
 20
-127.6587066347519
 30
0.0
 10
95.0109200760695
 20
-127.6139038569855
 30
0.0
 10
94.95578330959412
 20
-127.6139038569855
 30
0.0
 10
94.90067702332647
 20
-127.6139038569855
 30
0.0
 10
94.8558742466917
 20
-127.6587066347519
 30
0.0
 10
94.8558742466917
 20
-127.7138105236271
 30
0.0
 10
94.8558742466917
 20
-127.7689496902799
 30
0.0
 10
94.90067702332647
 20
-127.8137171902688
 30
0.0
 10
94.95578330959412
 20
-127.8137171902688
 30
0.0
 10
95.0109200760695
 20
-127.8137171902688
 30
0.0
 10
95.05568757492738
 20
-127.7689496902799
 30
0.0
 10
95.05568757492738
 20
-127.7138105236271
 30
0.0
  0
SPLINE
  5
5B
330
1F
100
AcDbEntity
  8
_U+30EC_U+30A4_U+30E4_U+30FC 1
 62
   179
420
  2234388
370
     9
100
AcDbSpline
210
0.0
220
0.0
230
1.0
 70
    11
 71
     3
 72
    17
 73
    13
 74
     0
 42
0.0000000001
 43
0.0000000001
 12
1.0
 22
0.0
 32
0.0
 13
1.0
 23
0.0
 33
0.0
 40
0.0
 40
0.0
 40
0.0
 40
0.0
 40
1.0
 40
1.0
 40
1.0
 40
2.0
 40
2.0
 40
2.0
 40
3.0
 40
3.0
 40
3.0
 40
4.0
 40
4.0
 40
4.0
 40
4.0
 10
81.25516237145256
 20
-136.113661077083
 30
0.0
 10
81.25516237145256
 20
-136.0585219104299
 30
0.0
 10
81.21071237258657
 20
-136.0137544104413
 30
0.0
 10
81.15525570733472
 20
-136.0137544104413
 30
0.0
 10
81.10011654207476
 20
-136.0137544104413
 30
0.0
 10
81.05534904321688
 20
-136.0585219104299
 30
0.0
 10
81.05534904321688
 20
-136.113661077083
 30
0.0
 10
81.05534904321688
 20
-136.1694705215134
 30
0.0
 10
81.10011654207476
 20
-136.214238021502
 30
0.0
 10
81.15525570733472
 20
-136.214238021502
 30
0.0
 10
81.21071237258657
 20
-136.214238021502
 30
0.0
 10
81.25516237145256
 20
-136.1694705215134
 30
0.0
 10
81.25516237145256
 20
-136.113661077083
 30
0.0
  0
POLYLINE
  5
5C
330
1F
100
AcDbEntity
  8
_U+30EC_U+30A4_U+30E4_U+30FC 1
 62
   179
420
  2234388
370
     9
100
AcDb2dPolyline
 66
     1
 10
0.0
 20
0.0
 30
0.0
  0
VERTEX
  5
5D
330
5C
100
AcDbEntity
  8
_U+30EC_U+30A4_U+30E4_U+30FC 1
 62
   179
420
  2234388
370
     9
100
AcDbVertex
100
AcDb2dVertex
 10
81.15525570733472
 20
-121.9136499695217
 30
0.0
  0
VERTEX
  5
5E
330
5C
100
AcDbEntity
  8
_U+30EC_U+30A4_U+30E4_U+30FC 1
 62
   179
420
  2234388
370
     9
100
AcDbVertex
100
AcDb2dVertex
 10
90.95517517954016
 20
-121.9136499695217
 30
0.0
  0
SEQEND
  5
5F
330
5C
100
AcDbEntity
  8
_U+30EC_U+30A4_U+30E4_U+30FC 1
 62
   179
420
  2234388
370
     9
  0
POLYLINE
  5
60
330
1F
100
AcDbEntity
  8
_U+30EC_U+30A4_U+30E4_U+30FC 1
 62
   179
420
  2234388
370
     9
100
AcDb2dPolyline
 66
     1
 10
0.0
 20
0.0
 30
0.0
  0
VERTEX
  5
61
330
60
100
AcDbEntity
  8
_U+30EC_U+30A4_U+30E4_U+30FC 1
 62
   179
420
  2234388
370
     9
100
AcDbVertex
100
AcDb2dVertex
 10
81.15525570733472
 20
-123.3736913580454
 30
0.0
  0
VERTEX
  5
62
330
60
100
AcDbEntity
  8
_U+30EC_U+30A4_U+30E4_U+30FC 1
 62
   179
420
  2234388
370
     9
100
AcDbVertex
100
AcDb2dVertex
 10
81.15525570733472
 20
-120.9138777475492
 30
0.0
  0
SEQEND
  5
63
330
60
100
AcDbEntity
  8
_U+30EC_U+30A4_U+30E4_U+30FC 1
 62
   179
420
  2234388
370
     9
  0
POLYLINE
  5
64
330
1F
100
AcDbEntity
  8
_U+30EC_U+30A4_U+30E4_U+30FC 1
 62
   179
420
  2234388
370
     9
100
AcDb2dPolyline
 66
     1
 10
0.0
 20
0.0
 30
0.0
  0
VERTEX
  5
65
330
64
100
AcDbEntity
  8
_U+30EC_U+30A4_U+30E4_U+30FC 1
 62
   179
420
  2234388
370
     9
100
AcDbVertex
100
AcDb2dVertex
 10
90.95517517954016
 20
-125.1740927464843
 30
0.0
  0
VERTEX
  5
66
330
64
100
AcDbEntity
  8
_U+30EC_U+30A4_U+30E4_U+30FC 1
 62
   179
420
  2234388
370
     9
100
AcDbVertex
100
AcDb2dVertex
 10
90.95517517954016
 20
-120.9138777475492
 30
0.0
  0
SEQEND
  5
67
330
64
100
AcDbEntity
  8
_U+30EC_U+30A4_U+30E4_U+30FC 1
 62
   179
420
  2234388
370
     9
  0
INSERT
  5
69
330
1F
100
AcDbEntity
  8
_U+30EC_U+30A4_U+30E4_U+30FC 1
100
AcDbBlockReference
  2
block 2
 10
0.0
 20
0.0
 30
0.0
  0
SPLINE
  5
7B
330
1F
100
AcDbEntity
  8
_U+30EC_U+30A4_U+30E4_U+30FC 1
 62
   179
420
  2234388
370
    25
100
AcDbSpline
210
0.0
220
0.0
230
1.0
 70
    11
 71
     3
 72
    17
 73
    13
 74
     0
 42
0.0000000001
 43
0.0000000001
 12
1.0
 22
0.0
 32
0.0
 13
1.0
 23
0.0
 33
0.0
 40
0.0
 40
0.0
 40
0.0
 40
0.0
 40
1.0
 40
1.0
 40
1.0
 40
2.0
 40
2.0
 40
2.0
 40
3.0
 40
3.0
 40
3.0
 40
4.0
 40
4.0
 40
4.0
 40
4.0
 10
81.19074720192451
 20
-125.9141146907438
 30
0.0
 10
81.19074720192451
 20
-125.9334116351833
 30
0.0
 10
81.17490542905563
 20
-125.9492513574015
 30
0.0
 10
81.15525570733472
 20
-125.9492513574015
 30
0.0
 10
81.13595876338258
 20
-125.9492513574015
 30
0.0
 10
81.12011904156446
 20
-125.9334116351833
 30
0.0
 10
81.12011904156446
 20
-125.9141146907438
 30
0.0
 10
81.12011904156446
 20
-125.8941121907488
 30
0.0
 10
81.13595876338258
 20
-125.8789780240858
 30
0.0
 10
81.15525570733472
 20
-125.8789780240858
 30
0.0
 10
81.17490542905563
 20
-125.8789780240858
 30
0.0
 10
81.19074720192451
 20
-125.8941121907488
 30
0.0
 10
81.19074720192451
 20
-125.9141146907438
 30
0.0
  0
SPLINE
  5
7C
330
1F
100
AcDbEntity
  8
_U+30EC_U+30A4_U+30E4_U+30FC 1
 62
   179
420
  2234388
370
    25
100
AcDbSpline
210
0.0
220
0.0
230
1.0
 70
    11
 71
     3
 72
    17
 73
    13
 74
     0
 42
0.0000000001
 43
0.0000000001
 12
1.0
 22
0.0
 32
0.0
 13
1.0
 23
0.0
 33
0.0
 40
0.0
 40
0.0
 40
0.0
 40
0.0
 40
1.0
 40
1.0
 40
1.0
 40
2.0
 40
2.0
 40
2.0
 40
3.0
 40
3.0
 40
3.0
 40
4.0
 40
4.0
 40
4.0
 40
4.0
 10
90.9906646230792
 20
-127.7138105236271
 30
0.0
 10
90.9906646230792
 20
-127.7331074680666
 30
0.0
 10
90.9747896234842
 20
-127.7489471902849
 30
0.0
 10
90.95517517954016
 20
-127.7489471902849
 30
0.0
 10
90.9358805328215
 20
-127.7489471902849
 30
0.0
 10
90.92003851376991
 20
-127.7331074680666
 30
0.0
 10
90.92003851376991
 20
-127.7138105236271
 30
0.0
 10
90.92003851376991
 20
-127.6945488569651
 30
0.0
 10
90.9358805328215
 20
-127.6786738569694
 30
0.0
 10
90.95517517954016
 20
-127.6786738569694
 30
0.0
 10
90.9747896234842
 20
-127.6786738569694
 30
0.0
 10
90.9906646230792
 20
-127.6945488569651
 30
0.0
 10
90.9906646230792
 20
-127.7138105236271
 30
0.0
  0
SPLINE
  5
7D
330
1F
100
AcDbEntity
  8
_U+30EC_U+30A4_U+30E4_U+30FC 1
 62
   179
420
  2234388
370
     9
100
AcDbSpline
210
0.0
220
0.0
230
1.0
 70
    11
 71
     3
 72
    17
 73
    13
 74
     0
 42
0.0000000001
 43
0.0000000001
 12
1.0
 22
0.0
 32
0.0
 13
1.0
 23
0.0
 33
0.0
 40
0.0
 40
0.0
 40
0.0
 40
0.0
 40
1.0
 40
1.0
 40
1.0
 40
2.0
 40
2.0
 40
2.0
 40
3.0
 40
3.0
 40
3.0
 40
4.0
 40
4.0
 40
4.0
 40
4.0
 10
90.9906646230792
 20
-121.9136499695217
 30
0.0
 10
90.9906646230792
 20
-121.9336524695167
 30
0.0
 10
90.9747896234842
 20
-121.949492191735
 30
0.0
 10
90.95517517954016
 20
-121.949492191735
 30
0.0
 10
90.9358805328215
 20
-121.949492191735
 30
0.0
 10
90.92003851376991
 20
-121.9336524695167
 30
0.0
 10
90.92003851376991
 20
-121.9136499695217
 30
0.0
 10
90.92003851376991
 20
-121.8943530250819
 30
0.0
 10
90.9358805328215
 20
-121.8785133028637
 30
0.0
 10
90.95517517954016
 20
-121.8785133028637
 30
0.0
 10
90.9747896234842
 20
-121.8785133028637
 30
0.0
 10
90.9906646230792
 20
-121.8943530250819
 30
0.0
 10
90.9906646230792
 20
-121.9136499695217
 30
0.0
  0
POLYLINE
  5
7E
330
1F
100
AcDbEntity
  8
_U+30EC_U+30A4_U+30E4_U+30FC 1
 62
   179
420
  2234388
370
     9
100
AcDb2dPolyline
 66
     1
 10
0.0
 20
0.0
 30
0.0
  0
VERTEX
  5
7F
330
7E
100
AcDbEntity
  8
_U+30EC_U+30A4_U+30E4_U+30FC 1
 62
   179
420
  2234388
370
     9
100
AcDbVertex
100
AcDb2dVertex
 10
81.15525570733472
 20
-134.6536196885586
 30
0.0
  0
VERTEX
  5
80
330
7E
100
AcDbEntity
  8
_U+30EC_U+30A4_U+30E4_U+30FC 1
 62
   179
420
  2234388
370
     9
100
AcDbVertex
100
AcDb2dVertex
 10
81.15525570733472
 20
-137.1141035768329
 30
0.0
  0
SEQEND
  5
81
330
7E
100
AcDbEntity
  8
_U+30EC_U+30A4_U+30E4_U+30FC 1
 62
   179
420
  2234388
370
     9
  0
INSERT
  5
83
330
1F
100
AcDbEntity
  8
_U+30EC_U+30A4_U+30E4_U+30FC 1
100
AcDbBlockReference
  2
block 3
 10
0.0
 20
0.0
 30
0.0
  0
SPLINE
  5
8A
330
1F
100
AcDbEntity
  8
_U+30EC_U+30A4_U+30E4_U+30FC 1
 62
   179
420
  2234388
370
    25
100
AcDbSpline
210
0.0
220
0.0
230
1.0
 70
    11
 71
     3
 72
    17
 73
    13
 74
     0
 42
0.0000000001
 43
0.0000000001
 12
1.0
 22
0.0
 32
0.0
 13
1.0
 23
0.0
 33
0.0
 40
0.0
 40
0.0
 40
0.0
 40
0.0
 40
1.0
 40
1.0
 40
1.0
 40
2.0
 40
2.0
 40
2.0
 40
3.0
 40
3.0
 40
3.0
 40
4.0
 40
4.0
 40
4.0
 40
4.0
 10
81.19074720192451
 20
-132.1139019114161
 30
0.0
 10
81.19074720192451
 20
-132.1331988558559
 30
0.0
 10
81.17490542905563
 20
-132.1490385780738
 30
0.0
 10
81.15525570733472
 20
-132.1490385780738
 30
0.0
 10
81.13595876338258
 20
-132.1490385780738
 30
0.0
 10
81.12011904156446
 20
-132.1331988558559
 30
0.0
 10
81.12011904156446
 20
-132.1139019114161
 30
0.0
 10
81.12011904156446
 20
-132.0946049669762
 30
0.0
 10
81.13595876338258
 20
-132.0787652447584
 30
0.0
 10
81.15525570733472
 20
-132.0787652447584
 30
0.0
 10
81.17490542905563
 20
-132.0787652447584
 30
0.0
 10
81.19074720192451
 20
-132.0946049669762
 30
0.0
 10
81.19074720192451
 20
-132.1139019114161
 30
0.0
  0
POLYLINE
  5
8B
330
1F
100
AcDbEntity
  8
_U+30EC_U+30A4_U+30E4_U+30FC 1
 62
   179
420
  2234388
370
     9
100
AcDb2dPolyline
 66
     1
 10
0.0
 20
0.0
 30
0.0
  0
VERTEX
  5
8C
330
8B
100
AcDbEntity
  8
_U+30EC_U+30A4_U+30E4_U+30FC 1
 62
   179
420
  2234388
370
     9
100
AcDbVertex
100
AcDb2dVertex
 10
77.15514386494162
 20
-125.9141146907438
 30
0.0
  0
VERTEX
  5
8D
330
8B
100
AcDbEntity
  8
_U+30EC_U+30A4_U+30E4_U+30FC 1
 62
   179
420
  2234388
370
     9
100
AcDbVertex
100
AcDb2dVertex
 10
77.15514386494162
 20
-132.1139019114161
 30
0.0
  0
SEQEND
  5
8E
330
8B
100
AcDbEntity
  8
_U+30EC_U+30A4_U+30E4_U+30FC 1
 62
   179
420
  2234388
370
     9
  0
POLYLINE
  5
8F
330
1F
100
AcDbEntity
  8
_U+30EC_U+30A4_U+30E4_U+30FC 1
 62
   179
420
  2234388
370
     9
100
AcDb2dPolyline
 66
     1
 10
0.0
 20
0.0
 30
0.0
  0
VERTEX
  5
90
330
8F
100
AcDbEntity
  8
_U+30EC_U+30A4_U+30E4_U+30FC 1
 62
   179
420
  2234388
370
     9
100
AcDbVertex
100
AcDb2dVertex
 10
78.61518521658175
 20
-125.9141146907438
 30
0.0
  0
VERTEX
  5
91
330
8F
100
AcDbEntity
  8
_U+30EC_U+30A4_U+30E4_U+30FC 1
 62
   179
420
  2234388
370
     9
100
AcDbVertex
100
AcDb2dVertex
 10
76.15537166822571
 20
-125.9141146907438
 30
0.0
  0
SEQEND
  5
92
330
8F
100
AcDbEntity
  8
_U+30EC_U+30A4_U+30E4_U+30FC 1
 62
   179
420
  2234388
370
     9
  0
POLYLINE
  5
93
330
1F
100
AcDbEntity
  8
_U+30EC_U+30A4_U+30E4_U+30FC 1
 62
   179
420
  2234388
370
     9
100
AcDb2dPolyline
 66
     1
 10
0.0
 20
0.0
 30
0.0
  0
VERTEX
  5
94
330
93
100
AcDbEntity
  8
_U+30EC_U+30A4_U+30E4_U+30FC 1
 62
   179
420
  2234388
370
     9
100
AcDbVertex
100
AcDb2dVertex
 10
78.61518521658175
 20
-132.1139019114161
 30
0.0
  0
VERTEX
  5
95
330
93
100
AcDbEntity
  8
_U+30EC_U+30A4_U+30E4_U+30FC 1
 62
   179
420
  2234388
370
     9
100
AcDbVertex
100
AcDb2dVertex
 10
76.15537166822571
 20
-132.1139019114161
 30
0.0
  0
SEQEND
  5
96
330
93
100
AcDbEntity
  8
_U+30EC_U+30A4_U+30E4_U+30FC 1
 62
   179
420
  2234388
370
     9
  0
INSERT
  5
98
330
1F
100
AcDbEntity
  8
_U+30EC_U+30A4_U+30E4_U+30FC 1
100
AcDbBlockReference
  2
block 4
 10
0.0
 20
0.0
 30
0.0
  0
SPLINE
  5
A8
330
1F
100
AcDbEntity
  8
_U+30EC_U+30A4_U+30E4_U+30FC 1
 62
   179
420
  2234388
370
    25
100
AcDbSpline
210
0.0
220
0.0
230
1.0
 70
    11
 71
     3
 72
    17
 73
    13
 74
     0
 42
0.0000000001
 43
0.0000000001
 12
1.0
 22
0.0
 32
0.0
 13
1.0
 23
0.0
 33
0.0
 40
0.0
 40
0.0
 40
0.0
 40
0.0
 40
1.0
 40
1.0
 40
1.0
 40
2.0
 40
2.0
 40
2.0
 40
3.0
 40
3.0
 40
3.0
 40
4.0
 40
4.0
 40
4.0
 40
4.0
 10
81.19074720192451
 20
-125.9141146907438
 30
0.0
 10
81.19074720192451
 20
-125.9334116351833
 30
0.0
 10
81.17490542905563
 20
-125.9492513574015
 30
0.0
 10
81.15525570733472
 20
-125.9492513574015
 30
0.0
 10
81.13595876338258
 20
-125.9492513574015
 30
0.0
 10
81.12011904156446
 20
-125.9334116351833
 30
0.0
 10
81.12011904156446
 20
-125.9141146907438
 30
0.0
 10
81.12011904156446
 20
-125.8941121907488
 30
0.0
 10
81.13595876338258
 20
-125.8789780240858
 30
0.0
 10
81.15525570733472
 20
-125.8789780240858
 30
0.0
 10
81.17490542905563
 20
-125.8789780240858
 30
0.0
 10
81.19074720192451
 20
-125.8941121907488
 30
0.0
 10
81.19074720192451
 20
-125.9141146907438
 30
0.0
  0
SPLINE
  5
A9
330
1F
100
AcDbEntity
  8
_U+30EC_U+30A4_U+30E4_U+30FC 1
 62
   179
420
  2234388
370
    25
100
AcDbSpline
210
0.0
220
0.0
230
1.0
 70
    11
 71
     3
 72
    17
 73
    13
 74
     0
 42
0.0000000001
 43
0.0000000001
 12
1.0
 22
0.0
 32
0.0
 13
1.0
 23
0.0
 33
0.0
 40
0.0
 40
0.0
 40
0.0
 40
0.0
 40
1.0
 40
1.0
 40
1.0
 40
2.0
 40
2.0
 40
2.0
 40
3.0
 40
3.0
 40
3.0
 40
4.0
 40
4.0
 40
4.0
 40
4.0
 10
81.19074720192451
 20
-132.1139019114161
 30
0.0
 10
81.19074720192451
 20
-132.1331988558559
 30
0.0
 10
81.17490542905563
 20
-132.1490385780738
 30
0.0
 10
81.15525570733472
 20
-132.1490385780738
 30
0.0
 10
81.13595876338258
 20
-132.1490385780738
 30
0.0
 10
81.12011904156446
 20
-132.1331988558559
 30
0.0
 10
81.12011904156446
 20
-132.1139019114161
 30
0.0
 10
81.12011904156446
 20
-132.0946049669762
 30
0.0
 10
81.13595876338258
 20
-132.0787652447584
 30
0.0
 10
81.15525570733472
 20
-132.0787652447584
 30
0.0
 10
81.17490542905563
 20
-132.0787652447584
 30
0.0
 10
81.19074720192451
 20
-132.0946049669762
 30
0.0
 10
81.19074720192451
 20
-132.1139019114161
 30
0.0
  0
SPLINE
  5
AA
330
1F
100
AcDbEntity
  8
_U+30EC_U+30A4_U+30E4_U+30FC 1
 62
   179
420
  2234388
370
     9
100
AcDbSpline
210
0.0
220
0.0
230
1.0
 70
    11
 71
     3
 72
    17
 73
    13
 74
     0
 42
0.0000000001
 43
0.0000000001
 12
1.0
 22
0.0
 32
0.0
 13
1.0
 23
0.0
 33
0.0
 40
0.0
 40
0.0
 40
0.0
 40
0.0
 40
1.0
 40
1.0
 40
1.0
 40
2.0
 40
2.0
 40
2.0
 40
3.0
 40
3.0
 40
3.0
 40
4.0
 40
4.0
 40
4.0
 40
4.0
 10
77.19063330848066
 20
-132.1139019114161
 30
0.0
 10
77.19063330848066
 20
-132.1331988558559
 30
0.0
 10
77.17479358666255
 20
-132.1490385780738
 30
0.0
 10
77.15514386494162
 20
-132.1490385780738
 30
0.0
 10
77.1358469209895
 20
-132.1490385780738
 30
0.0
 10
77.12000719917137
 20
-132.1331988558559
 30
0.0
 10
77.12000719917137
 20
-132.1139019114161
 30
0.0
 10
77.12000719917137
 20
-132.0946049669762
 30
0.0
 10
77.1358469209895
 20
-132.0787652447584
 30
0.0
 10
77.15514386494162
 20
-132.0787652447584
 30
0.0
 10
77.17479358666255
 20
-132.0787652447584
 30
0.0
 10
77.19063330848066
 20
-132.0946049669762
 30
0.0
 10
77.19063330848066
 20
-132.1139019114161
 30
0.0
  0
SPLINE
  5
AB
330
1F
100
AcDbEntity
  8
_U+30EC_U+30A4_U+30E4_U+30FC 1
 62
   179
420
  2234388
370
    25
100
AcDbSpline
210
0.0
220
0.0
230
1.0
 70
    11
 71
     3
 72
    17
 73
    13
 74
     0
 42
0.0000000001
 43
0.0000000001
 12
1.0
 22
0.0
 32
0.0
 13
1.0
 23
0.0
 33
0.0
 40
0.0
 40
0.0
 40
0.0
 40
0.0
 40
1.0
 40
1.0
 40
1.0
 40
2.0
 40
2.0
 40
2.0
 40
3.0
 40
3.0
 40
3.0
 40
4.0
 40
4.0
 40
4.0
 40
4.0
 10
90.9906646230792
 20
-127.7138105236271
 30
0.0
 10
90.9906646230792
 20
-127.7331074680666
 30
0.0
 10
90.9747896234842
 20
-127.7489471902849
 30
0.0
 10
90.95517517954016
 20
-127.7489471902849
 30
0.0
 10
90.9358805328215
 20
-127.7489471902849
 30
0.0
 10
90.92003851376991
 20
-127.7331074680666
 30
0.0
 10
90.92003851376991
 20
-127.7138105236271
 30
0.0
 10
90.92003851376991
 20
-127.6945488569651
 30
0.0
 10
90.9358805328215
 20
-127.6786738569694
 30
0.0
 10
90.95517517954016
 20
-127.6786738569694
 30
0.0
 10
90.9747896234842
 20
-127.6786738569694
 30
0.0
 10
90.9906646230792
 20
-127.6945488569651
 30
0.0
 10
90.9906646230792
 20
-127.7138105236271
 30
0.0
  0
POLYLINE
  5
AC
330
1F
100
AcDbEntity
  8
_U+30EC_U+30A4_U+30E4_U+30FC 1
 62
   179
420
  2234388
370
     9
100
AcDb2dPolyline
 66
     1
 10
0.0
 20
0.0
 30
0.0
  0
VERTEX
  5
AD
330
AC
100
AcDbEntity
  8
_U+30EC_U+30A4_U+30E4_U+30FC 1
 62
   179
420
  2234388
370
     9
100
AcDbVertex
100
AcDb2dVertex
 10
94.95578330959412
 20
-125.9141146907438
 30
0.0
  0
VERTEX
  5
AE
330
AC
100
AcDbEntity
  8
_U+30EC_U+30A4_U+30E4_U+30FC 1
 62
   179
420
  2234388
370
     9
100
AcDbVertex
100
AcDb2dVertex
 10
94.95578330959412
 20
-120.6562088587249
 30
0.0
  0
SEQEND
  5
AF
330
AC
100
AcDbEntity
  8
_U+30EC_U+30A4_U+30E4_U+30FC 1
 62
   179
420
  2234388
370
     9
  0
POLYLINE
  5
B0
330
1F
100
AcDbEntity
  8
_U+30EC_U+30A4_U+30E4_U+30FC 1
 62
   179
420
  2234388
370
     9
100
AcDb2dPolyline
 66
     1
 10
0.0
 20
0.0
 30
0.0
  0
VERTEX
  5
B1
330
B0
100
AcDbEntity
  8
_U+30EC_U+30A4_U+30E4_U+30FC 1
 62
   179
420
  2234388
370
     9
100
AcDbVertex
100
AcDb2dVertex
 10
94.95578330959412
 20
-128.7135827455994
 30
0.0
  0
VERTEX
  5
B2
330
B0
100
AcDbEntity
  8
_U+30EC_U+30A4_U+30E4_U+30FC 1
 62
   179
420
  2234388
370
     9
100
AcDbVertex
100
AcDb2dVertex
 10
94.95578330959412
 20
-125.9141146907438
 30
0.0
  0
SEQEND
  5
B3
330
B0
100
AcDbEntity
  8
_U+30EC_U+30A4_U+30E4_U+30FC 1
 62
   179
420
  2234388
370
     9
  0
POLYLINE
  5
B4
330
1F
100
AcDbEntity
  8
_U+30EC_U+30A4_U+30E4_U+30FC 1
 62
   179
420
  2234388
370
     9
100
AcDb2dPolyline
 66
     1
 10
0.0
 20
0.0
 30
0.0
  0
VERTEX
  5
B5
330
B4
100
AcDbEntity
  8
_U+30EC_U+30A4_U+30E4_U+30FC 1
 62
   179
420
  2234388
370
     9
100
AcDbVertex
100
AcDb2dVertex
 10
93.49573955916941
 20
-127.7138105236271
 30
0.0
  0
VERTEX
  5
B6
330
B4
100
AcDbEntity
  8
_U+30EC_U+30A4_U+30E4_U+30FC 1
 62
   179
420
  2234388
370
     9
100
AcDbVertex
100
AcDb2dVertex
 10
95.95590830934444
 20
-127.7138105236271
 30
0.0
  0
SEQEND
  5
B7
330
B4
100
AcDbEntity
  8
_U+30EC_U+30A4_U+30E4_U+30FC 1
 62
   179
420
  2234388
370
     9
  0
POLYLINE
  5
B8
330
1F
100
AcDbEntity
  8
_U+30EC_U+30A4_U+30E4_U+30FC 1
 62
   179
420
  2234388
370
     9
100
AcDb2dPolyline
 66
     1
 10
0.0
 20
0.0
 30
0.0
  0
VERTEX
  5
B9
330
B8
100
AcDbEntity
  8
_U+30EC_U+30A4_U+30E4_U+30FC 1
 62
   179
420
  2234388
370
     9
100
AcDbVertex
100
AcDb2dVertex
 10
92.45638569679664
 20
-125.9141146907438
 30
0.0
  0
VERTEX
  5
BA
330
B8
100
AcDbEntity
  8
_U+30EC_U+30A4_U+30E4_U+30FC 1
 62
   179
420
  2234388
370
     9
100
AcDbVertex
100
AcDb2dVertex
 10
95.95590830934444
 20
-125.9141146907438
 30
0.0
  0
SEQEND
  5
BB
330
B8
100
AcDbEntity
  8
_U+30EC_U+30A4_U+30E4_U+30FC 1
 62
   179
420
  2234388
370
     9
  0
INSERT
  5
BD
330
1F
100
AcDbEntity
  8
_U+30EC_U+30A4_U+30E4_U+30FC 1
100
AcDbBlockReference
  2
block 5
 10
0.0
 20
0.0
 30
0.0
  0
SPLINE
  5
CE
330
1F
100
AcDbEntity
  8
_U+30EC_U+30A4_U+30E4_U+30FC 1
 62
   179
420
  2234388
370
    25
100
AcDbSpline
210
0.0
220
0.0
230
1.0
 70
    11
 71
     3
 72
    17
 73
    13
 74
     0
 42
0.0000000001
 43
0.0000000001
 12
1.0
 22
0.0
 32
0.0
 13
1.0
 23
0.0
 33
0.0
 40
0.0
 40
0.0
 40
0.0
 40
0.0
 40
1.0
 40
1.0
 40
1.0
 40
2.0
 40
2.0
 40
2.0
 40
3.0
 40
3.0
 40
3.0
 40
4.0
 40
4.0
 40
4.0
 40
4.0
 10
90.9906646230792
 20
-127.7138105236271
 30
0.0
 10
90.9906646230792
 20
-127.7331074680666
 30
0.0
 10
90.9747896234842
 20
-127.7489471902849
 30
0.0
 10
90.95517517954016
 20
-127.7489471902849
 30
0.0
 10
90.9358805328215
 20
-127.7489471902849
 30
0.0
 10
90.92003851376991
 20
-127.7331074680666
 30
0.0
 10
90.92003851376991
 20
-127.7138105236271
 30
0.0
 10
90.92003851376991
 20
-127.6945488569651
 30
0.0
 10
90.9358805328215
 20
-127.6786738569694
 30
0.0
 10
90.95517517954016
 20
-127.6786738569694
 30
0.0
 10
90.9747896234842
 20
-127.6786738569694
 30
0.0
 10
90.9906646230792
 20
-127.6945488569651
 30
0.0
 10
90.9906646230792
 20
-127.7138105236271
 30
0.0
  0
SPLINE
  5
CF
330
1F
100
AcDbEntity
  8
_U+30EC_U+30A4_U+30E4_U+30FC 1
 62
   179
420
  2234388
370
    25
100
AcDbSpline
210
0.0
220
0.0
230
1.0
 70
    11
 71
     3
 72
    17
 73
    13
 74
     0
 42
0.0000000001
 43
0.0000000001
 12
1.0
 22
0.0
 32
0.0
 13
1.0
 23
0.0
 33
0.0
 40
0.0
 40
0.0
 40
0.0
 40
0.0
 40
1.0
 40
1.0
 40
1.0
 40
2.0
 40
2.0
 40
2.0
 40
3.0
 40
3.0
 40
3.0
 40
4.0
 40
4.0
 40
4.0
 40
4.0
 10
89.95127775528981
 20
-125.9141146907438
 30
0.0
 10
89.95127775528981
 20
-125.9334116351833
 30
0.0
 10
89.93543576111144
 20
-125.9492513574015
 30
0.0
 10
89.9161388171593
 20
-125.9492513574015
 30
0.0
 10
89.89648909543838
 20
-125.9492513574015
 30
0.0
 10
89.88064937362027
 20
-125.9334116351833
 30
0.0
 10
89.88064937362027
 20
-125.9141146907438
 30
0.0
 10
89.88064937362027
 20
-125.8941121907488
 30
0.0
 10
89.89648909543838
 20
-125.8789780240858
 30
0.0
 10
89.9161388171593
 20
-125.8789780240858
 30
0.0
 10
89.93543576111144
 20
-125.8789780240858
 30
0.0
 10
89.95127775528981
 20
-125.8941121907488
 30
0.0
 10
89.95127775528981
 20
-125.9141146907438
 30
0.0
  0
SPLINE
  5
D0
330
1F
100
AcDbEntity
  8
_U+30EC_U+30A4_U+30E4_U+30FC 1
 62
   179
420
  2234388
370
     9
100
AcDbSpline
210
0.0
220
0.0
230
1.0
 70
    11
 71
     3
 72
    17
 73
    13
 74
     0
 42
0.0000000001
 43
0.0000000001
 12
1.0
 22
0.0
 32
0.0
 13
1.0
 23
0.0
 33
0.0
 40
0.0
 40
0.0
 40
0.0
 40
0.0
 40
1.0
 40
1.0
 40
1.0
 40
2.0
 40
2.0
 40
2.0
 40
3.0
 40
3.0
 40
3.0
 40
4.0
 40
4.0
 40
4.0
 40
4.0
 10
94.99127035434857
 20
-125.9141146907438
 30
0.0
 10
94.99127035434857
 20
-125.9334116351833
 30
0.0
 10
94.97543063253046
 20
-125.9492513574015
 30
0.0
 10
94.95578330959412
 20
-125.9492513574015
 30
0.0
 10
94.9364839668574
 20
-125.9492513574015
 30
0.0
 10
94.92064424503928
 20
-125.9334116351833
 30
0.0
 10
94.92064424503928
 20
-125.9141146907438
 30
0.0
 10
94.92064424503928
 20
-125.8941121907488
 30
0.0
 10
94.9364839668574
 20
-125.8789780240858
 30
0.0
 10
94.95578330959412
 20
-125.8789780240858
 30
0.0
 10
94.97543063253046
 20
-125.8789780240858
 30
0.0
 10
94.99127035434857
 20
-125.8941121907488
 30
0.0
 10
94.99127035434857
 20
-125.9141146907438
 30
0.0
  0
POLYLINE
  5
D1
330
1F
100
AcDbEntity
  8
_U+30EC_U+30A4_U+30E4_U+30FC 1
 62
   179
420
  2234388
370
    25
100
AcDb2dPolyline
 66
     1
 10
0.0
 20
0.0
 30
0.0
  0
VERTEX
  5
D2
330
D1
100
AcDbEntity
  8
_U+30EC_U+30A4_U+30E4_U+30FC 1
 62
   179
420
  2234388
370
    25
100
AcDbVertex
100
AcDb2dVertex
 10
81.15525570733472
 20
-132.1139019114161
 30
0.0
  0
VERTEX
  5
D3
330
D1
100
AcDbEntity
  8
_U+30EC_U+30A4_U+30E4_U+30FC 1
 62
   179
420
  2234388
370
    25
100
AcDbVertex
100
AcDb2dVertex
 10
103.1558179238314
 20
-132.1139019114161
 30
0.0
  0
SEQEND
  5
D4
330
D1
100
AcDbEntity
  8
_U+30EC_U+30A4_U+30E4_U+30FC 1
 62
   179
420
  2234388
370
    25
  0
POLYLINE
  5
D5
330
1F
100
AcDbEntity
  8
_U+30EC_U+30A4_U+30E4_U+30FC 1
 62
   179
420
  2234388
370
     9
100
AcDb2dPolyline
 66
     1
 10
0.0
 20
0.0
 30
0.0
  0
VERTEX
  5
D6
330
D5
100
AcDbEntity
  8
_U+30EC_U+30A4_U+30E4_U+30FC 1
 62
   179
420
  2234388
370
     9
100
AcDbVertex
100
AcDb2dVertex
 10
103.1558179238314
 20
-131.2140363560852
 30
0.0
  0
VERTEX
  5
D7
330
D5
100
AcDbEntity
  8
_U+30EC_U+30A4_U+30E4_U+30FC 1
 62
   179
420
  2234388
370
     9
100
AcDbVertex
100
AcDb2dVertex
 10
103.1558179238314
 20
-132.1139019114161
 30
0.0
  0
SEQEND
  5
D8
330
D5
100
AcDbEntity
  8
_U+30EC_U+30A4_U+30E4_U+30FC 1
 62
   179
420
  2234388
370
     9
  0
POLYLINE
  5
D9
330
1F
100
AcDbEntity
  8
_U+30EC_U+30A4_U+30E4_U+30FC 1
 62
   179
420
  2234388
370
     9
100
AcDb2dPolyline
 66
     1
 10
0.0
 20
0.0
 30
0.0
  0
VERTEX
  5
DA
330
D9
100
AcDbEntity
  8
_U+30EC_U+30A4_U+30E4_U+30FC 1
 62
   179
420
  2234388
370
     9
100
AcDbVertex
100
AcDb2dVertex
 10
82.95530427252277
 20
-131.2140363560852
 30
0.0
  0
VERTEX
  5
DB
330
D9
100
AcDbEntity
  8
_U+30EC_U+30A4_U+30E4_U+30FC 1
 62
   179
420
  2234388
370
     9
100
AcDbVertex
100
AcDb2dVertex
 10
103.1558179238314
 20
-131.2140363560852
 30
0.0
  0
SEQEND
  5
DC
330
D9
100
AcDbEntity
  8
_U+30EC_U+30A4_U+30E4_U+30FC 1
 62
   179
420
  2234388
370
     9
  0
SPLINE
  5
DD
330
1F
100
AcDbEntity
  8
_U+30EC_U+30A4_U+30E4_U+30FC 1
 62
   179
420
  2234388
370
     9
100
AcDbSpline
210
0.0
220
0.0
230
1.0
 70
    11
 71
     3
 72
    17
 73
    13
 74
     0
 42
0.0000000001
 43
0.0000000001
 12
1.0
 22
0.0
 32
0.0
 13
1.0
 23
0.0
 33
0.0
 40
0.0
 40
0.0
 40
0.0
 40
0.0
 40
1.0
 40
1.0
 40
1.0
 40
2.0
 40
2.0
 40
2.0
 40
3.0
 40
3.0
 40
3.0
 40
4.0
 40
4.0
 40
4.0
 40
4.0
 10
103.2557245879492
 20
-136.113661077083
 30
0.0
 10
103.2557245879492
 20
-136.0585219104299
 30
0.0
 10
103.2109218113145
 20
-136.0137544104413
 30
0.0
 10
103.1558179238314
 20
-136.0137544104413
 30
0.0
 10
103.1006787585714
 20
-136.0137544104413
 30
0.0
 10
103.0559138631251
 20
-136.0585219104299
 30
0.0
 10
103.0559138631251
 20
-136.113661077083
 30
0.0
 10
103.0559138631251
 20
-136.1694705215134
 30
0.0
 10
103.1006787585714
 20
-136.214238021502
 30
0.0
 10
103.1558179238314
 20
-136.214238021502
 30
0.0
 10
103.2109218113145
 20
-136.214238021502
 30
0.0
 10
103.2557245879492
 20
-136.1694705215134
 30
0.0
 10
103.2557245879492
 20
-136.113661077083
 30
0.0
  0
SPLINE
  5
DE
330
1F
100
AcDbEntity
  8
_U+30EC_U+30A4_U+30E4_U+30FC 1
 62
   179
420
  2234388
370
     9
100
AcDbSpline
210
0.0
220
0.0
230
1.0
 70
    11
 71
     3
 72
    17
 73
    13
 74
     0
 42
0.0000000001
 43
0.0000000001
 12
1.0
 22
0.0
 32
0.0
 13
1.0
 23
0.0
 33
0.0
 40
0.0
 40
0.0
 40
0.0
 40
0.0
 40
1.0
 40
1.0
 40
1.0
 40
2.0
 40
2.0
 40
2.0
 40
3.0
 40
3.0
 40
3.0
 40
4.0
 40
4.0
 40
4.0
 40
4.0
 10
107.2558011525654
 20
-132.1139019114161
 30
0.0
 10
107.2558011525654
 20
-132.058762744763
 30
0.0
 10
107.2110336537075
 20
-132.0139952447744
 30
0.0
 10
107.1558971954332
 20
-132.0139952447744
 30
0.0
 10
107.1004378231957
 20
-132.0139952447744
 30
0.0
 10
107.0559878243298
 20
-132.058762744763
 30
0.0
 10
107.0559878243298
 20
-132.1139019114161
 30
0.0
 10
107.0559878243298
 20
-132.169005800291
 30
0.0
 10
107.1004378231957
 20
-132.2138085780577
 30
0.0
 10
107.1558971954332
 20
-132.2138085780577
 30
0.0
 10
107.2110336537075
 20
-132.2138085780577
 30
0.0
 10
107.2558011525654
 20
-132.169005800291
 30
0.0
 10
107.2558011525654
 20
-132.1139019114161
 30
0.0
  0
SPLINE
  5
DF
330
1F
100
AcDbEntity
  8
_U+30EC_U+30A4_U+30E4_U+30FC 1
 62
   179
420
  2234388
370
     9
100
AcDbSpline
210
0.0
220
0.0
230
1.0
 70
    11
 71
     3
 72
    17
 73
    13
 74
     0
 42
0.0000000001
 43
0.0000000001
 12
1.0
 22
0.0
 32
0.0
 13
1.0
 23
0.0
 33
0.0
 40
0.0
 40
0.0
 40
0.0
 40
0.0
 40
1.0
 40
1.0
 40
1.0
 40
2.0
 40
2.0
 40
2.0
 40
3.0
 40
3.0
 40
3.0
 40
4.0
 40
4.0
 40
4.0
 40
4.0
 10
107.2558011525654
 20
-131.2140363560852
 30
0.0
 10
107.2558011525654
 20
-131.1589324672103
 30
0.0
 10
107.2110336537075
 20
-131.1141296894435
 30
0.0
 10
107.1558971954332
 20
-131.1141296894435
 30
0.0
 10
107.1004378231957
 20
-131.1141296894435
 30
0.0
 10
107.0559878243298
 20
-131.1589324672103
 30
0.0
 10
107.0559878243298
 20
-131.2140363560852
 30
0.0
 10
107.0559878243298
 20
-131.2691755227383
 30
0.0
 10
107.1004378231957
 20
-131.3139430227268
 30
0.0
 10
107.1558971954332
 20
-131.3139430227268
 30
0.0
 10
107.2110336537075
 20
-131.3139430227268
 30
0.0
 10
107.2558011525654
 20
-131.2691755227383
 30
0.0
 10
107.2558011525654
 20
-131.2140363560852
 30
0.0
  0
SPLINE
  5
E0
330
1F
100
AcDbEntity
  8
_U+30EC_U+30A4_U+30E4_U+30FC 1
 62
   179
420
  2234388
370
     9
100
AcDbSpline
210
0.0
220
0.0
230
1.0
 70
    11
 71
     3
 72
    17
 73
    13
 74
     0
 42
0.0000000001
 43
0.0000000001
 12
1.0
 22
0.0
 32
0.0
 13
1.0
 23
0.0
 33
0.0
 40
0.0
 40
0.0
 40
0.0
 40
0.0
 40
1.0
 40
1.0
 40
1.0
 40
2.0
 40
2.0
 40
2.0
 40
3.0
 40
3.0
 40
3.0
 40
4.0
 40
4.0
 40
4.0
 40
4.0
 10
107.2558011525654
 20
-127.7138105236271
 30
0.0
 10
107.2558011525654
 20
-127.6587066347519
 30
0.0
 10
107.2110336537075
 20
-127.6139038569855
 30
0.0
 10
107.1558971954332
 20
-127.6139038569855
 30
0.0
 10
107.1004378231957
 20
-127.6139038569855
 30
0.0
 10
107.0559878243298
 20
-127.6587066347519
 30
0.0
 10
107.0559878243298
 20
-127.7138105236271
 30
0.0
 10
107.0559878243298
 20
-127.7689496902799
 30
0.0
 10
107.1004378231957
 20
-127.8137171902688
 30
0.0
 10
107.1558971954332
 20
-127.8137171902688
 30
0.0
 10
107.2110336537075
 20
-127.8137171902688
 30
0.0
 10
107.2558011525654
 20
-127.7689496902799
 30
0.0
 10
107.2558011525654
 20
-127.7138105236271
 30
0.0
  0
POLYLINE
  5
E1
330
1F
100
AcDbEntity
  8
_U+30EC_U+30A4_U+30E4_U+30FC 1
 62
   179
420
  2234388
370
     9
100
AcDb2dPolyline
 66
     1
 10
0.0
 20
0.0
 30
0.0
  0
VERTEX
  5
E2
330
E1
100
AcDbEntity
  8
_U+30EC_U+30A4_U+30E4_U+30FC 1
 62
   179
420
  2234388
370
     9
100
AcDbVertex
100
AcDb2dVertex
 10
81.15525570733472
 20
-136.113661077083
 30
0.0
  0
VERTEX
  5
E3
330
E1
100
AcDbEntity
  8
_U+30EC_U+30A4_U+30E4_U+30FC 1
 62
   179
420
  2234388
370
     9
100
AcDbVertex
100
AcDb2dVertex
 10
103.1558179238314
 20
-136.113661077083
 30
0.0
  0
SEQEND
  5
E4
330
E1
100
AcDbEntity
  8
_U+30EC_U+30A4_U+30E4_U+30FC 1
 62
   179
420
  2234388
370
     9
  0
POLYLINE
  5
E5
330
1F
100
AcDbEntity
  8
_U+30EC_U+30A4_U+30E4_U+30FC 1
 62
   179
420
  2234388
370
     9
100
AcDb2dPolyline
 66
     1
 10
0.0
 20
0.0
 30
0.0
  0
VERTEX
  5
E6
330
E5
100
AcDbEntity
  8
_U+30EC_U+30A4_U+30E4_U+30FC 1
 62
   179
420
  2234388
370
     9
100
AcDbVertex
100
AcDb2dVertex
 10
103.1558179238314
 20
-134.6536196885586
 30
0.0
  0
VERTEX
  5
E7
330
E5
100
AcDbEntity
  8
_U+30EC_U+30A4_U+30E4_U+30FC 1
 62
   179
420
  2234388
370
     9
100
AcDbVertex
100
AcDb2dVertex
 10
103.1558179238314
 20
-137.1141035768329
 30
0.0
  0
SEQEND
  5
E8
330
E5
100
AcDbEntity
  8
_U+30EC_U+30A4_U+30E4_U+30FC 1
 62
   179
420
  2234388
370
     9
  0
SPLINE
  5
E9
330
1F
100
AcDbEntity
  8
_U+30EC_U+30A4_U+30E4_U+30FC 1
 62
   179
420
  2234388
370
    25
100
AcDbSpline
210
0.0
220
0.0
230
1.0
 70
    11
 71
     3
 72
    17
 73
    13
 74
     0
 42
0.0000000001
 43
0.0000000001
 12
1.0
 22
0.0
 32
0.0
 13
1.0
 23
0.0
 33
0.0
 40
0.0
 40
0.0
 40
0.0
 40
0.0
 40
1.0
 40
1.0
 40
1.0
 40
2.0
 40
2.0
 40
2.0
 40
3.0
 40
3.0
 40
3.0
 40
4.0
 40
4.0
 40
4.0
 40
4.0
 10
103.1909545896016
 20
-132.1139019114161
 30
0.0
 10
103.1909545896016
 20
-132.1331988558559
 30
0.0
 10
103.1754323677754
 20
-132.1490385780738
 30
0.0
 10
103.1558179238314
 20
-132.1490385780738
 30
0.0
 10
103.1365209798793
 20
-132.1490385780738
 30
0.0
 10
103.1206459802843
 20
-132.1331988558559
 30
0.0
 10
103.1206459802843
 20
-132.1139019114161
 30
0.0
 10
103.1206459802843
 20
-132.0946049669762
 30
0.0
 10
103.1365209798793
 20
-132.0787652447584
 30
0.0
 10
103.1558179238314
 20
-132.0787652447584
 30
0.0
 10
103.1754323677754
 20
-132.0787652447584
 30
0.0
 10
103.1909545896016
 20
-132.0946049669762
 30
0.0
 10
103.1909545896016
 20
-132.1139019114161
 30
0.0
  0
SPLINE
  5
EA
330
1F
100
AcDbEntity
  8
_U+30EC_U+30A4_U+30E4_U+30FC 1
 62
   179
420
  2234388
370
     9
100
AcDbSpline
210
0.0
220
0.0
230
1.0
 70
    11
 71
     3
 72
    17
 73
    13
 74
     0
 42
0.0000000001
 43
0.0000000001
 12
1.0
 22
0.0
 32
0.0
 13
1.0
 23
0.0
 33
0.0
 40
0.0
 40
0.0
 40
0.0
 40
0.0
 40
1.0
 40
1.0
 40
1.0
 40
2.0
 40
2.0
 40
2.0
 40
3.0
 40
3.0
 40
3.0
 40
4.0
 40
4.0
 40
4.0
 40
4.0
 10
103.1909545896016
 20
-136.113661077083
 30
0.0
 10
103.1909545896016
 20
-136.1336282993001
 30
0.0
 10
103.1754323677754
 20
-136.1494680215181
 30
0.0
 10
103.1558179238314
 20
-136.1494680215181
 30
0.0
 10
103.1365209798793
 20
-136.1494680215181
 30
0.0
 10
103.1206459802843
 20
-136.1336282993001
 30
0.0
 10
103.1206459802843
 20
-136.113661077083
 30
0.0
 10
103.1206459802843
 20
-136.0943641326431
 30
0.0
 10
103.1365209798793
 20
-136.0785244104246
 30
0.0
 10
103.1558179238314
 20
-136.0785244104246
 30
0.0
 10
103.1754323677754
 20
-136.0785244104246
 30
0.0
 10
103.1909545896016
 20
-136.0943641326431
 30
0.0
 10
103.1909545896016
 20
-136.113661077083
 30
0.0
  0
POLYLINE
  5
EB
330
1F
100
AcDbEntity
  8
_U+30EC_U+30A4_U+30E4_U+30FC 1
 62
   179
420
  2234388
370
     9
100
AcDb2dPolyline
 66
     1
 10
0.0
 20
0.0
 30
0.0
  0
VERTEX
  5
EC
330
EB
100
AcDbEntity
  8
_U+30EC_U+30A4_U+30E4_U+30FC 1
 62
   179
420
  2234388
370
     9
100
AcDbVertex
100
AcDb2dVertex
 10
107.1558971954332
 20
-132.1139019114161
 30
0.0
  0
VERTEX
  5
ED
330
EB
100
AcDbEntity
  8
_U+30EC_U+30A4_U+30E4_U+30FC 1
 62
   179
420
  2234388
370
     9
100
AcDbVertex
100
AcDb2dVertex
 10
107.1558971954332
 20
-137.371807743435
 30
0.0
  0
SEQEND
  5
EE
330
EB
100
AcDbEntity
  8
_U+30EC_U+30A4_U+30E4_U+30FC 1
 62
   179
420
  2234388
370
     9
  0
POLYLINE
  5
EF
330
1F
100
AcDbEntity
  8
_U+30EC_U+30A4_U+30E4_U+30FC 1
 62
   179
420
  2234388
370
     9
100
AcDb2dPolyline
 66
     1
 10
0.0
 20
0.0
 30
0.0
  0
VERTEX
  5
F0
330
EF
100
AcDbEntity
  8
_U+30EC_U+30A4_U+30E4_U+30FC 1
 62
   179
420
  2234388
370
     9
100
AcDbVertex
100
AcDb2dVertex
 10
107.1558971954332
 20
-131.2140363560852
 30
0.0
  0
VERTEX
  5
F1
330
EF
100
AcDbEntity
  8
_U+30EC_U+30A4_U+30E4_U+30FC 1
 62
   179
420
  2234388
370
     9
100
AcDbVertex
100
AcDb2dVertex
 10
107.1558971954332
 20
-132.1139019114161
 30
0.0
  0
SEQEND
  5
F2
330
EF
100
AcDbEntity
  8
_U+30EC_U+30A4_U+30E4_U+30FC 1
 62
   179
420
  2234388
370
     9
  0
POLYLINE
  5
F3
330
1F
100
AcDbEntity
  8
_U+30EC_U+30A4_U+30E4_U+30FC 1
 62
   179
420
  2234388
370
     9
100
AcDb2dPolyline
 66
     1
 10
0.0
 20
0.0
 30
0.0
  0
VERTEX
  5
F4
330
F3
100
AcDbEntity
  8
_U+30EC_U+30A4_U+30E4_U+30FC 1
 62
   179
420
  2234388
370
     9
100
AcDbVertex
100
AcDb2dVertex
 10
105.6958884145843
 20
-131.2140363560852
 30
0.0
  0
VERTEX
  5
F5
330
F3
100
AcDbEntity
  8
_U+30EC_U+30A4_U+30E4_U+30FC 1
 62
   179
420
  2234388
370
     9
100
AcDbVertex
100
AcDb2dVertex
 10
108.1556694174057
 20
-131.2140363560852
 30
0.0
  0
SEQEND
  5
F6
330
F3
100
AcDbEntity
  8
_U+30EC_U+30A4_U+30E4_U+30FC 1
 62
   179
420
  2234388
370
     9
  0
POLYLINE
  5
F7
330
1F
100
AcDbEntity
  8
_U+30EC_U+30A4_U+30E4_U+30FC 1
 62
   179
420
  2234388
370
     9
100
AcDb2dPolyline
 66
     1
 10
0.0
 20
0.0
 30
0.0
  0
VERTEX
  5
F8
330
F7
100
AcDbEntity
  8
_U+30EC_U+30A4_U+30E4_U+30FC 1
 62
   179
420
  2234388
370
     9
100
AcDbVertex
100
AcDb2dVertex
 10
105.6958884145843
 20
-132.1139019114161
 30
0.0
  0
VERTEX
  5
F9
330
F7
100
AcDbEntity
  8
_U+30EC_U+30A4_U+30E4_U+30FC 1
 62
   179
420
  2234388
370
     9
100
AcDbVertex
100
AcDb2dVertex
 10
108.1556694174057
 20
-132.1139019114161
 30
0.0
  0
SEQEND
  5
FA
330
F7
100
AcDbEntity
  8
_U+30EC_U+30A4_U+30E4_U+30FC 1
 62
   179
420
  2234388
370
     9
  0
INSERT
  5
FC
330
1F
100
AcDbEntity
  8
_U+30EC_U+30A4_U+30E4_U+30FC 1
100
AcDbBlockReference
  2
block 6
 10
0.0
 20
0.0
 30
0.0
  0
SPLINE
  5
10D
330
1F
100
AcDbEntity
  8
_U+30EC_U+30A4_U+30E4_U+30FC 1
 62
   179
420
  2234388
370
    25
100
AcDbSpline
210
0.0
220
0.0
230
1.0
 70
    11
 71
     3
 72
    17
 73
    13
 74
     0
 42
0.0000000001
 43
0.0000000001
 12
1.0
 22
0.0
 32
0.0
 13
1.0
 23
0.0
 33
0.0
 40
0.0
 40
0.0
 40
0.0
 40
0.0
 40
1.0
 40
1.0
 40
1.0
 40
2.0
 40
2.0
 40
2.0
 40
3.0
 40
3.0
 40
3.0
 40
4.0
 40
4.0
 40
4.0
 40
4.0
 10
103.1909545896016
 20
-131.2140363560852
 30
0.0
 10
103.1909545896016
 20
-131.233333300525
 30
0.0
 10
103.1754323677754
 20
-131.2491730227435
 30
0.0
 10
103.1558179238314
 20
-131.2491730227435
 30
0.0
 10
103.1365209798793
 20
-131.2491730227435
 30
0.0
 10
103.1206459802843
 20
-131.233333300525
 30
0.0
 10
103.1206459802843
 20
-131.2140363560852
 30
0.0
 10
103.1206459802843
 20
-131.194739411646
 30
0.0
 10
103.1365209798793
 20
-131.1788996894275
 30
0.0
 10
103.1558179238314
 20
-131.1788996894275
 30
0.0
 10
103.1754323677754
 20
-131.1788996894275
 30
0.0
 10
103.1909545896016
 20
-131.194739411646
 30
0.0
 10
103.1909545896016
 20
-131.2140363560852
 30
0.0
  0
SPLINE
  5
10E
330
1F
100
AcDbEntity
  8
_U+30EC_U+30A4_U+30E4_U+30FC 1
 62
   179
420
  2234388
370
     9
100
AcDbSpline
210
0.0
220
0.0
230
1.0
 70
    11
 71
     3
 72
    17
 73
    13
 74
     0
 42
0.0000000001
 43
0.0000000001
 12
1.0
 22
0.0
 32
0.0
 13
1.0
 23
0.0
 33
0.0
 40
0.0
 40
0.0
 40
0.0
 40
0.0
 40
1.0
 40
1.0
 40
1.0
 40
2.0
 40
2.0
 40
2.0
 40
3.0
 40
3.0
 40
3.0
 40
4.0
 40
4.0
 40
4.0
 40
4.0
 10
103.1909545896016
 20
-132.1139019114161
 30
0.0
 10
103.1909545896016
 20
-132.1331988558559
 30
0.0
 10
103.1754323677754
 20
-132.1490385780738
 30
0.0
 10
103.1558179238314
 20
-132.1490385780738
 30
0.0
 10
103.1365209798793
 20
-132.1490385780738
 30
0.0
 10
103.1206459802843
 20
-132.1331988558559
 30
0.0
 10
103.1206459802843
 20
-132.1139019114161
 30
0.0
 10
103.1206459802843
 20
-132.0946049669762
 30
0.0
 10
103.1365209798793
 20
-132.0787652447584
 30
0.0
 10
103.1558179238314
 20
-132.0787652447584
 30
0.0
 10
103.1754323677754
 20
-132.0787652447584
 30
0.0
 10
103.1909545896016
 20
-132.0946049669762
 30
0.0
 10
103.1909545896016
 20
-132.1139019114161
 30
0.0
  0
SPLINE
  5
10F
330
1F
100
AcDbEntity
  8
_U+30EC_U+30A4_U+30E4_U+30FC 1
 62
   179
420
  2234388
370
     9
100
AcDbSpline
210
0.0
220
0.0
230
1.0
 70
    11
 71
     3
 72
    17
 73
    13
 74
     0
 42
0.0000000001
 43
0.0000000001
 12
1.0
 22
0.0
 32
0.0
 13
1.0
 23
0.0
 33
0.0
 40
0.0
 40
0.0
 40
0.0
 40
0.0
 40
1.0
 40
1.0
 40
1.0
 40
2.0
 40
2.0
 40
2.0
 40
3.0
 40
3.0
 40
3.0
 40
4.0
 40
4.0
 40
4.0
 40
4.0
 10
107.1910311542179
 20
-132.1139019114161
 30
0.0
 10
107.1910311542179
 20
-132.1331988558559
 30
0.0
 10
107.1751914323997
 20
-132.1490385780738
 30
0.0
 10
107.1558971954332
 20
-132.1490385780738
 30
0.0
 10
107.1362800445036
 20
-132.1490385780738
 30
0.0
 10
107.1204050449086
 20
-132.1331988558559
 30
0.0
 10
107.1204050449086
 20
-132.1139019114161
 30
0.0
 10
107.1204050449086
 20
-132.0946049669762
 30
0.0
 10
107.1362800445036
 20
-132.0787652447584
 30
0.0
 10
107.1558971954332
 20
-132.0787652447584
 30
0.0
 10
107.1751914323997
 20
-132.0787652447584
 30
0.0
 10
107.1910311542179
 20
-132.0946049669762
 30
0.0
 10
107.1910311542179
 20
-132.1139019114161
 30
0.0
  0
POLYLINE
  5
110
330
1F
100
AcDbEntity
  8
_U+30EC_U+30A4_U+30E4_U+30FC 1
 62
   179
420
  2234388
370
     9
100
AcDb2dPolyline
 66
     1
 10
0.0
 20
0.0
 30
0.0
  0
VERTEX
  5
111
330
110
100
AcDbEntity
  8
_U+30EC_U+30A4_U+30E4_U+30FC 1
 62
   179
420
  2234388
370
     9
100
AcDbVertex
100
AcDb2dVertex
 10
107.1558971954332
 20
-127.7138105236271
 30
0.0
  0
VERTEX
  5
112
330
110
100
AcDbEntity
  8
_U+30EC_U+30A4_U+30E4_U+30FC 1
 62
   179
420
  2234388
370
     9
100
AcDbVertex
100
AcDb2dVertex
 10
107.1558971954332
 20
-122.4559046916082
 30
0.0
  0
SEQEND
  5
113
330
110
100
AcDbEntity
  8
_U+30EC_U+30A4_U+30E4_U+30FC 1
 62
   179
420
  2234388
370
     9
  0
POLYLINE
  5
114
330
1F
100
AcDbEntity
  8
_U+30EC_U+30A4_U+30E4_U+30FC 1
 62
   179
420
  2234388
370
     9
100
AcDb2dPolyline
 66
     1
 10
0.0
 20
0.0
 30
0.0
  0
VERTEX
  5
115
330
114
100
AcDbEntity
  8
_U+30EC_U+30A4_U+30E4_U+30FC 1
 62
   179
420
  2234388
370
     9
100
AcDbVertex
100
AcDb2dVertex
 10
107.1558971954332
 20
-131.2140363560852
 30
0.0
  0
VERTEX
  5
116
330
114
100
AcDbEntity
  8
_U+30EC_U+30A4_U+30E4_U+30FC 1
 62
   179
420
  2234388
370
     9
100
AcDbVertex
100
AcDb2dVertex
 10
107.1558971954332
 20
-127.7138105236271
 30
0.0
  0
SEQEND
  5
117
330
114
100
AcDbEntity
  8
_U+30EC_U+30A4_U+30E4_U+30FC 1
 62
   179
420
  2234388
370
     9
  0
POLYLINE
  5
118
330
1F
100
AcDbEntity
  8
_U+30EC_U+30A4_U+30E4_U+30FC 1
 62
   179
420
  2234388
370
     9
100
AcDb2dPolyline
 66
     1
 10
0.0
 20
0.0
 30
0.0
  0
VERTEX
  5
119
330
118
100
AcDbEntity
  8
_U+30EC_U+30A4_U+30E4_U+30FC 1
 62
   179
420
  2234388
370
     9
100
AcDbVertex
100
AcDb2dVertex
 10
93.49573955916941
 20
-127.7138105236271
 30
0.0
  0
VERTEX
  5
11A
330
118
100
AcDbEntity
  8
_U+30EC_U+30A4_U+30E4_U+30FC 1
 62
   179
420
  2234388
370
     9
100
AcDbVertex
100
AcDb2dVertex
 10
108.1556694174057
 20
-127.7138105236271
 30
0.0
  0
SEQEND
  5
11B
330
118
100
AcDbEntity
  8
_U+30EC_U+30A4_U+30E4_U+30FC 1
 62
   179
420
  2234388
370
     9
  0
INSERT
  5
11D
330
1F
100
AcDbEntity
  8
_U+30EC_U+30A4_U+30E4_U+30FC 1
100
AcDbBlockReference
  2
block 7
 10
0.0
 20
0.0
 30
0.0
  0
SPLINE
  5
12C
330
1F
100
AcDbEntity
  8
_U+30EC_U+30A4_U+30E4_U+30FC 1
 62
   179
420
  2234388
370
     9
100
AcDbSpline
210
0.0
220
0.0
230
1.0
 70
    11
 71
     3
 72
    17
 73
    13
 74
     0
 42
0.0000000001
 43
0.0000000001
 12
1.0
 22
0.0
 32
0.0
 13
1.0
 23
0.0
 33
0.0
 40
0.0
 40
0.0
 40
0.0
 40
0.0
 40
1.0
 40
1.0
 40
1.0
 40
2.0
 40
2.0
 40
2.0
 40
3.0
 40
3.0
 40
3.0
 40
4.0
 40
4.0
 40
4.0
 40
4.0
 10
103.1909545896016
 20
-131.2140363560852
 30
0.0
 10
103.1909545896016
 20
-131.233333300525
 30
0.0
 10
103.1754323677754
 20
-131.2491730227435
 30
0.0
 10
103.1558179238314
 20
-131.2491730227435
 30
0.0
 10
103.1365209798793
 20
-131.2491730227435
 30
0.0
 10
103.1206459802843
 20
-131.233333300525
 30
0.0
 10
103.1206459802843
 20
-131.2140363560852
 30
0.0
 10
103.1206459802843
 20
-131.194739411646
 30
0.0
 10
103.1365209798793
 20
-131.1788996894275
 30
0.0
 10
103.1558179238314
 20
-131.1788996894275
 30
0.0
 10
103.1754323677754
 20
-131.1788996894275
 30
0.0
 10
103.1909545896016
 20
-131.194739411646
 30
0.0
 10
103.1909545896016
 20
-131.2140363560852
 30
0.0
  0
SPLINE
  5
12D
330
1F
100
AcDbEntity
  8
_U+30EC_U+30A4_U+30E4_U+30FC 1
 62
   179
420
  2234388
370
     9
100
AcDbSpline
210
0.0
220
0.0
230
1.0
 70
    11
 71
     3
 72
    17
 73
    13
 74
     0
 42
0.0000000001
 43
0.0000000001
 12
1.0
 22
0.0
 32
0.0
 13
1.0
 23
0.0
 33
0.0
 40
0.0
 40
0.0
 40
0.0
 40
0.0
 40
1.0
 40
1.0
 40
1.0
 40
2.0
 40
2.0
 40
2.0
 40
3.0
 40
3.0
 40
3.0
 40
4.0
 40
4.0
 40
4.0
 40
4.0
 10
107.1910311542179
 20
-127.7138105236271
 30
0.0
 10
107.1910311542179
 20
-127.7331074680666
 30
0.0
 10
107.1751914323997
 20
-127.7489471902849
 30
0.0
 10
107.1558971954332
 20
-127.7489471902849
 30
0.0
 10
107.1362800445036
 20
-127.7489471902849
 30
0.0
 10
107.1204050449086
 20
-127.7331074680666
 30
0.0
 10
107.1204050449086
 20
-127.7138105236271
 30
0.0
 10
107.1204050449086
 20
-127.6945488569651
 30
0.0
 10
107.1362800445036
 20
-127.6786738569694
 30
0.0
 10
107.1558971954332
 20
-127.6786738569694
 30
0.0
 10
107.1751914323997
 20
-127.6786738569694
 30
0.0
 10
107.1910311542179
 20
-127.6945488569651
 30
0.0
 10
107.1910311542179
 20
-127.7138105236271
 30
0.0
  0
ENDSEC
  0
SECTION
  2
OBJECTS
  0
DICTIONARY
  5
C
330
0
100
AcDbDictionary
281
     1
  3
ACAD_GROUP
350
D
  3
ACAD_LAYOUT
350
1A
  3
ACAD_MATERIAL
350
3B
  3
ACAD_MLEADERSTYLE
350
12F
  3
ACAD_MLINESTYLE
350
17
  3
ACAD_PLOTSETTINGS
350
19
  3
ACAD_PLOTSTYLENAME
350
E
  3
ACAD_TABLESTYLE
350
12E
  3
ACAD_VISUALSTYLE
350
2A
  0
SUN
  5
3F
330
29
100
AcDbSun
 90
        1
290
     0
 63
     7
421
 16777215
 40
1.0
291
     1
 91
  2455826
 92
 54000000
292
     0
 70
     2
 71
   256
280
     1
  0
DICTIONARY
  5
D
102
{ACAD_REACTORS
330
C
102
}
330
C
100
AcDbDictionary
281
     1
  0
DICTIONARY
  5
1A
102
{ACAD_REACTORS
330
C
102
}
330
C
100
AcDbDictionary
281
     1
  3
Layout1
350
1E
  3
Layout2
350
26
  3
Model
350
22
  0
DICTIONARY
  5
3B
102
{ACAD_REACTORS
330
C
102
}
330
C
100
AcDbDictionary
281
     1
  3
ByBlock
350
3D
  3
ByLayer
350
3C
  3
Global
350
3E
  0
DICTIONARY
  5
12F
102
{ACAD_REACTORS
330
C
102
}
330
C
100
AcDbDictionary
281
     1
  0
DICTIONARY
  5
17
102
{ACAD_REACTORS
330
C
102
}
330
C
100
AcDbDictionary
281
     1
  3
Standard
350
18
  0
DICTIONARY
  5
19
102
{ACAD_REACTORS
330
C
102
}
330
C
100
AcDbDictionary
281
     1
  0
ACDBDICTIONARYWDFLT
  5
E
102
{ACAD_REACTORS
330
C
102
}
330
C
100
AcDbDictionary
281
     1
  3
Normal
350
F
100
AcDbDictionaryWithDefault
340
F
  0
DICTIONARY
  5
12E
102
{ACAD_REACTORS
330
C
102
}
330
C
100
AcDbDictionary
281
     1
  0
DICTIONARY
  5
2A
102
{ACAD_REACTORS
330
C
102
}
330
C
100
AcDbDictionary
281
     1
  3
2dWireframe
350
2F
  3
3D Hidden
350
31
  3
3dWireframe
350
30
  3
Basic
350
32
  3
Brighten
350
36
  3
ColorChange
350
3A
  3
Conceptual
350
34
  3
Dim
350
35
  3
Facepattern
350
39
  3
Flat
350
2B
  3
FlatWithEdges
350
2C
  3
Gouraud
350
2D
  3
GouraudWithEdges
350
2E
  3
Linepattern
350
38
  3
Realistic
350
33
  3
Thicken
350
37
  0
LAYOUT
  5
1E
102
{ACAD_REACTORS
330
1A
102
}
330
1A
100
AcDbPlotSettings
  1

  2
none_device
  4

  6

 40
0.0
 41
0.0
 42
0.0
 43
0.0
 44
0.0
 45
0.0
 46
0.0
 47
0.0
 48
0.0
 49
0.0
140
0.0
141
0.0
142
1.0
143
1.0
 70
   688
 72
     0
 73
     0
 74
     5
  7

 75
    16
 76
     0
 77
     2
 78
   300
147
1.0
148
0.0
149
0.0
100
AcDbLayout
  1
Layout1
 70
     1
 71
     1
 10
0.0
 20
0.0
 11
12.0
 21
9.0
 12
0.0
 22
0.0
 32
0.0
 14
1.000000000000000E+20
 24
1.000000000000000E+20
 34
1.000000000000000E+20
 15
-1.000000000000000E+20
 25
-1.000000000000000E+20
 35
-1.000000000000000E+20
146
0.0
 13
0.0
 23
0.0
 33
0.0
 16
1.0
 26
0.0
 36
0.0
 17
0.0
 27
1.0
 37
0.0
 76
     0
330
1B
  0
LAYOUT
  5
26
102
{ACAD_REACTORS
330
1A
102
}
330
1A
100
AcDbPlotSettings
  1

  2
none_device
  4

  6

 40
0.0
 41
0.0
 42
0.0
 43
0.0
 44
0.0
 45
0.0
 46
0.0
 47
0.0
 48
0.0
 49
0.0
140
0.0
141
0.0
142
1.0
143
1.0
 70
   688
 72
     0
 73
     0
 74
     5
  7

 75
    16
 76
     0
 77
     2
 78
   300
147
1.0
148
0.0
149
0.0
100
AcDbLayout
  1
Layout2
 70
     1
 71
     2
 10
0.0
 20
0.0
 11
0.0
 21
0.0
 12
0.0
 22
0.0
 32
0.0
 14
0.0
 24
0.0
 34
0.0
 15
0.0
 25
0.0
 35
0.0
146
0.0
 13
0.0
 23
0.0
 33
0.0
 16
1.0
 26
0.0
 36
0.0
 17
0.0
 27
1.0
 37
0.0
 76
     0
330
23
  0
LAYOUT
  5
22
102
{ACAD_REACTORS
330
1A
102
}
330
1A
100
AcDbPlotSettings
  1

  2
none_device
  4

  6

 40
0.0
 41
0.0
 42
0.0
 43
0.0
 44
0.0
 45
0.0
 46
0.0
 47
0.0
 48
0.0
 49
0.0
140
0.0
141
0.0
142
1.0
143
1.0
 70
  1712
 72
     0
 73
     0
 74
     0
  7

 75
     0
 76
     0
 77
     2
 78
   300
147
1.0
148
0.0
149
0.0
100
AcDbLayout
  1
Model
 70
     1
 71
     0
 10
0.0
 20
0.0
 11
12.0
 21
9.0
 12
0.0
 22
0.0
 32
0.0
 14
1.000000000000000E+20
 24
1.000000000000000E+20
 34
1.000000000000000E+20
 15
-1.000000000000000E+20
 25
-1.000000000000000E+20
 35
-1.000000000000000E+20
146
0.0
 13
0.0
 23
0.0
 33
0.0
 16
1.0
 26
0.0
 36
0.0
 17
0.0
 27
1.0
 37
0.0
 76
     0
330
1F
331
29
  0
MATERIAL
  5
3D
102
{ACAD_REACTORS
330
3B
102
}
330
3B
100
AcDbMaterial
  1
ByBlock
 72
     1
 94
      127
  0
MATERIAL
  5
3C
102
{ACAD_REACTORS
330
3B
102
}
330
3B
100
AcDbMaterial
  1
ByLayer
 72
     1
 94
      127
  0
MATERIAL
  5
3E
102
{ACAD_REACTORS
330
3B
102
}
330
3B
100
AcDbMaterial
  1
Global
 72
     1
 94
      127
  0
MLINESTYLE
  5
18
102
{ACAD_REACTORS
330
17
102
}
330
17
100
AcDbMlineStyle
  2
Standard
 70
     0
  3

 62
   256
 51
90.0
 52
90.0
 71
     2
 49
0.5
 62
   256
  6
BYLAYER
 49
-0.5
 62
   256
  6
BYLAYER
  0
ACDBPLACEHOLDER
  5
F
102
{ACAD_REACTORS
330
E
102
}
330
E
  0
VISUALSTYLE
  5
2F
102
{ACAD_REACTORS
330
2A
102
}
330
2A
100
AcDbVisualStyle
  2
2dWireframe
 70
     4
177
     2
291
     0
 71
     0
176
     1
 72
     2
176
     1
 73
     0
176
     1
 90
        0
176
     1
 40
-0.6
176
     1
 41
-30.0
176
     1
 62
     5
 63
     7
421
 16777215
176
     1
 74
     1
176
     1
 91
        4
176
     1
 64
     7
176
     1
 65
   257
176
     1
 75
     1
176
     1
175
     1
176
     1
 42
1.0
176
     1
 92
        0
176
     1
 66
   257
176
     1
 43
1.0
176
     1
 76
     1
176
     1
 77
     6
176
     1
 78
     2
176
     1
 67
     7
176
     1
 79
     5
176
     1
170
     0
176
     1
171
     0
176
     1
290
     0
176
     1
 93
        1
176
     1
 44
0.0
176
     1
173
     0
176
     1
  0
VISUALSTYLE
  5
31
102
{ACAD_REACTORS
330
2A
102
}
330
2A
100
AcDbVisualStyle
  2
3D Hidden
 70
     6
177
     2
291
     0
 71
     1
176
     1
 72
     2
176
     1
 73
     2
176
     1
 90
        0
176
     1
 40
-0.6
176
     1
 41
-30.0
176
     1
 62
     5
 63
     7
421
 16777215
176
     1
 74
     2
176
     1
 91
        2
176
     1
 64
     7
176
     1
 65
   257
176
     1
 75
     2
176
     1
175
     1
176
     1
 42
40.0
176
     1
 92
        0
176
     1
 66
   257
176
     1
 43
1.0
176
     1
 76
     1
176
     1
 77
     6
176
     1
 78
     2
176
     1
 67
     7
176
     1
 79
     3
176
     1
170
     0
176
     1
171
     0
176
     1
290
     0
176
     1
 93
        1
176
     1
 44
0.0
176
     1
173
     0
176
     1
  0
VISUALSTYLE
  5
30
102
{ACAD_REACTORS
330
2A
102
}
330
2A
100
AcDbVisualStyle
  2
3dWireframe
 70
     5
177
     2
291
     0
 71
     0
176
     1
 72
     2
176
     1
 73
     0
176
     1
 90
        0
176
     1
 40
-0.6
176
     1
 41
-30.0
176
     1
 62
     5
 63
     7
421
 16777215
176
     1
 74
     1
176
     1
 91
        4
176
     1
 64
     7
176
     1
 65
   257
176
     1
 75
     1
176
     1
175
     1
176
     1
 42
1.0
176
     1
 92
        0
176
     1
 66
   257
176
     1
 43
1.0
176
     1
 76
     1
176
     1
 77
     6
176
     1
 78
     2
176
     1
 67
     7
176
     1
 79
     5
176
     1
170
     0
176
     1
171
     0
176
     1
290
     0
176
     1
 93
        1
176
     1
 44
0.0
176
     1
173
     0
176
     1
  0
VISUALSTYLE
  5
32
102
{ACAD_REACTORS
330
2A
102
}
330
2A
100
AcDbVisualStyle
  2
Basic
 70
     7
177
     2
291
     1
 71
     1
176
     1
 72
     0
176
     1
 73
     1
176
     1
 90
        0
176
     1
 40
-0.6
176
     1
 41
-30.0
176
     1
 62
     5
 63
     7
421
 16777215
176
     1
 74
     0
176
     1
 91
        4
176
     1
 64
     7
176
     1
 65
   257
176
     1
 75
     1
176
     1
175
     1
176
     1
 42
1.0
176
     1
 92
        8
176
     1
 66
     7
176
     1
 43
1.0
176
     1
 76
     1
176
     1
 77
     6
176
     1
 78
     2
176
     1
 67
     7
176
     1
 79
     5
176
     1
170
     0
176
     1
171
     0
176
     1
290
     0
176
     1
 93
        1
176
     1
 44
0.0
176
     1
173
     0
176
     1
  0
VISUALSTYLE
  5
36
102
{ACAD_REACTORS
330
2A
102
}
330
2A
100
AcDbVisualStyle
  2
Brighten
 70
    12
177
     2
291
     1
 71
     2
176
     1
 72
     2
176
     1
 73
     0
176
     1
 90
        0
176
     1
 40
-0.6
176
     1
 41
-30.0
176
     1
 62
     5
 63
     7
421
 16777215
176
     1
 74
     1
176
     1
 91
        4
176
     1
 64
     7
176
     1
 65
   257
176
     1
 75
     1
176
     1
175
     1
176
     1
 42
1.0
176
     1
 92
        8
176
     1
 66
     7
176
     1
 43
1.0
176
     1
 76
     1
176
     1
 77
     6
176
     1
 78
     2
176
     1
 67
     7
176
     1
 79
     5
176
     1
170
     0
176
     1
171
     0
176
     1
290
     0
176
     1
 93
        1
176
     1
 44
50.0
176
     1
173
     0
176
     1
  0
VISUALSTYLE
  5
3A
102
{ACAD_REACTORS
330
2A
102
}
330
2A
100
AcDbVisualStyle
  2
ColorChange
 70
    16
177
     2
291
     1
 71
     2
176
     1
 72
     2
176
     1
 73
     3
176
     1
 90
        0
176
     1
 40
-0.6
176
     1
 41
-30.0
176
     1
 62
     5
 63
     8
421
  8421504
176
     1
 74
     1
176
     1
 91
        4
176
     1
 64
     7
176
     1
 65
   257
176
     1
 75
     1
176
     1
175
     1
176
     1
 42
1.0
176
     1
 92
        8
176
     1
 66
     8
424
  8421504
176
     1
 43
1.0
176
     1
 76
     1
176
     1
 77
     6
176
     1
 78
     2
176
     1
 67
     7
176
     1
 79
     5
176
     1
170
     0
176
     1
171
     0
176
     1
290
     0
176
     1
 93
        1
176
     1
 44
0.0
176
     1
173
     0
176
     1
  0
VISUALSTYLE
  5
34
102
{ACAD_REACTORS
330
2A
102
}
330
2A
100
AcDbVisualStyle
  2
Conceptual
 70
     9
177
     2
291
     0
 71
     3
176
     1
 72
     2
176
     1
 73
     0
176
     1
 90
        0
176
     1
 40
-0.6
176
     1
 41
-30.0
176
     1
 62
     5
 63
     7
421
 16777215
176
     1
 74
     2
176
     1
 91
        2
176
     1
 64
     7
176
     1
 65
   257
176
     1
 75
     1
176
     1
175
     1
176
     1
 42
40.0
176
     1
 92
        8
176
     1
 66
     7
176
     1
 43
1.0
176
     1
 76
     1
176
     1
 77
     6
176
     1
 78
     2
176
     1
 67
     7
176
     1
 79
     3
176
     1
170
     0
176
     1
171
     0
176
     1
290
     0
176
     1
 93
        1
176
     1
 44
0.0
176
     1
173
     0
176
     1
  0
VISUALSTYLE
  5
35
102
{ACAD_REACTORS
330
2A
102
}
330
2A
100
AcDbVisualStyle
  2
Dim
 70
    11
177
     2
291
     1
 71
     2
176
     1
 72
     2
176
     1
 73
     0
176
     1
 90
        0
176
     1
 40
-0.6
176
     1
 41
-30.0
176
     1
 62
     5
 63
     7
421
 16777215
176
     1
 74
     1
176
     1
 91
        4
176
     1
 64
     7
176
     1
 65
   257
176
     1
 75
     1
176
     1
175
     1
176
     1
 42
1.0
176
     1
 92
        8
176
     1
 66
     7
176
     1
 43
1.0
176
     1
 76
     1
176
     1
 77
     6
176
     1
 78
     2
176
     1
 67
     7
176
     1
 79
     5
176
     1
170
     0
176
     1
171
     0
176
     1
290
     0
176
     1
 93
        1
176
     1
 44
-50.0
176
     1
173
     0
176
     1
  0
VISUALSTYLE
  5
39
102
{ACAD_REACTORS
330
2A
102
}
330
2A
100
AcDbVisualStyle
  2
Facepattern
 70
    15
177
     2
291
     1
 71
     2
176
     1
 72
     2
176
     1
 73
     0
176
     1
 90
        0
176
     1
 40
-0.6
176
     1
 41
-30.0
176
     1
 62
     5
 63
     7
421
 16777215
176
     1
 74
     1
176
     1
 91
        4
176
     1
 64
     7
176
     1
 65
   257
176
     1
 75
     1
176
     1
175
     1
176
     1
 42
1.0
176
     1
 92
        8
176
     1
 66
     7
176
     1
 43
1.0
176
     1
 76
     1
176
     1
 77
     6
176
     1
 78
     2
176
     1
 67
     7
176
     1
 79
     5
176
     1
170
     0
176
     1
171
     0
176
     1
290
     0
176
     1
 93
        1
176
     1
 44
0.0
176
     1
173
     0
176
     1
  0
VISUALSTYLE
  5
2B
102
{ACAD_REACTORS
330
2A
102
}
330
2A
100
AcDbVisualStyle
  2
Flat
 70
     0
177
     2
291
     1
 71
     2
176
     1
 72
     1
176
     1
 73
     1
176
     1
 90
        2
176
     1
 40
-0.6
176
     1
 41
30.0
176
     1
 62
     5
 63
     7
421
 16777215
176
     1
 74
     0
176
     1
 91
        4
176
     1
 64
     7
176
     1
 65
   257
176
     1
 75
     1
176
     1
175
     1
176
     1
 42
1.0
176
     1
 92
        8
176
     1
 66
     7
176
     1
 43
1.0
176
     1
 76
     1
176
     1
 77
     6
176
     1
 78
     2
176
     1
 67
     7
176
     1
 79
     5
176
     1
170
     0
176
     1
171
     0
176
     1
290
     0
176
     1
 93
       13
176
     1
 44
0.0
176
     1
173
     0
176
     1
  0
VISUALSTYLE
  5
2C
102
{ACAD_REACTORS
330
2A
102
}
330
2A
100
AcDbVisualStyle
  2
FlatWithEdges
 70
     1
177
     2
291
     1
 71
     2
176
     1
 72
     1
176
     1
 73
     1
176
     1
 90
        2
176
     1
 40
-0.6
176
     1
 41
30.0
176
     1
 62
     5
 63
     7
421
 16777215
176
     1
 74
     1
176
     1
 91
        4
176
     1
 64
     7
176
     1
 65
   257
176
     1
 75
     1
176
     1
175
     1
176
     1
 42
1.0
176
     1
 92
        0
176
     1
 66
   257
176
     1
 43
1.0
176
     1
 76
     1
176
     1
 77
     6
176
     1
 78
     2
176
     1
 67
     7
176
     1
 79
     5
176
     1
170
     0
176
     1
171
     0
176
     1
290
     0
176
     1
 93
       13
176
     1
 44
0.0
176
     1
173
     0
176
     1
  0
VISUALSTYLE
  5
2D
102
{ACAD_REACTORS
330
2A
102
}
330
2A
100
AcDbVisualStyle
  2
Gouraud
 70
     2
177
     2
291
     1
 71
     2
176
     1
 72
     2
176
     1
 73
     1
176
     1
 90
        2
176
     1
 40
-0.6
176
     1
 41
30.0
176
     1
 62
     5
 63
     7
421
 16777215
176
     1
 74
     0
176
     1
 91
        4
176
     1
 64
     7
176
     1
 65
   257
176
     1
 75
     1
176
     1
175
     1
176
     1
 42
1.0
176
     1
 92
        0
176
     1
 66
     7
176
     1
 43
1.0
176
     1
 76
     1
176
     1
 77
     6
176
     1
 78
     2
176
     1
 67
     7
176
     1
 79
     5
176
     1
170
     0
176
     1
171
     0
176
     1
290
     0
176
     1
 93
       13
176
     1
 44
0.0
176
     1
173
     0
176
     1
  0
VISUALSTYLE
  5
2E
102
{ACAD_REACTORS
330
2A
102
}
330
2A
100
AcDbVisualStyle
  2
GouraudWithEdges
 70
     3
177
     2
291
     1
 71
     2
176
     1
 72
     2
176
     1
 73
     1
176
     1
 90
        2
176
     1
 40
-0.6
176
     1
 41
30.0
176
     1
 62
     5
 63
     7
421
 16777215
176
     1
 74
     1
176
     1
 91
        4
176
     1
 64
     7
176
     1
 65
   257
176
     1
 75
     1
176
     1
175
     1
176
     1
 42
1.0
176
     1
 92
        0
176
     1
 66
   257
176
     1
 43
1.0
176
     1
 76
     1
176
     1
 77
     6
176
     1
 78
     2
176
     1
 67
     7
176
     1
 79
     5
176
     1
170
     0
176
     1
171
     0
176
     1
290
     0
176
     1
 93
       13
176
     1
 44
0.0
176
     1
173
     0
176
     1
  0
VISUALSTYLE
  5
38
102
{ACAD_REACTORS
330
2A
102
}
330
2A
100
AcDbVisualStyle
  2
Linepattern
 70
    14
177
     2
291
     1
 71
     2
176
     1
 72
     2
176
     1
 73
     0
176
     1
 90
        0
176
     1
 40
-0.6
176
     1
 41
-30.0
176
     1
 62
     5
 63
     7
421
 16777215
176
     1
 74
     1
176
     1
 91
        4
176
     1
 64
     7
176
     1
 65
   257
176
     1
 75
     7
176
     1
175
     7
176
     1
 42
1.0
176
     1
 92
        8
176
     1
 66
     7
176
     1
 43
1.0
176
     1
 76
     1
176
     1
 77
     6
176
     1
 78
     2
176
     1
 67
     7
176
     1
 79
     5
176
     1
170
     0
176
     1
171
     0
176
     1
290
     0
176
     1
 93
        1
176
     1
 44
0.0
176
     1
173
     0
176
     1
  0
VISUALSTYLE
  5
33
102
{ACAD_REACTORS
330
2A
102
}
330
2A
100
AcDbVisualStyle
  2
Realistic
 70
     8
177
     2
291
     0
 71
     2
176
     1
 72
     2
176
     1
 73
     0
176
     1
 90
        0
176
     1
 40
-0.6
176
     1
 41
-30.0
176
     1
 62
     5
 63
     7
421
 16777215
176
     1
 74
     1
176
     1
 91
        0
176
     1
 64
     7
176
     1
 65
   257
176
     1
 75
     1
176
     1
175
     1
176
     1
 42
1.0
176
     1
 92
        8
176
     1
 66
     8
424
  7895160
176
     1
 43
1.0
176
     1
 76
     1
176
     1
 77
     6
176
     1
 78
     2
176
     1
 67
     7
176
     1
 79
     5
176
     1
170
     0
176
     1
171
     0
176
     1
290
     0
176
     1
 93
       13
176
     1
 44
0.0
176
     1
173
     0
176
     1
  0
VISUALSTYLE
  5
37
102
{ACAD_REACTORS
330
2A
102
}
330
2A
100
AcDbVisualStyle
  2
Thicken
 70
    13
177
     2
291
     1
 71
     2
176
     1
 72
     2
176
     1
 73
     0
176
     1
 90
        0
176
     1
 40
-0.6
176
     1
 41
-30.0
176
     1
 62
     5
 63
     7
421
 16777215
176
     1
 74
     1
176
     1
 91
        4
176
     1
 64
     7
176
     1
 65
   257
176
     1
 75
     1
176
     1
175
     1
176
     1
 42
1.0
176
     1
 92
       12
176
     1
 66
     7
176
     1
 43
1.0
176
     1
 76
     1
176
     1
 77
     6
176
     1
 78
     2
176
     1
 67
     7
176
     1
 79
     5
176
     1
170
     0
176
     1
171
     0
176
     1
290
     0
176
     1
 93
        1
176
     1
 44
0.0
176
     1
173
     0
176
     1
  0
ENDSEC
  0
EOF
