  0
SECTION
  2
HEADER
  9
$ACADVER
  1
AC1024
  9
$ACADMAINTVER
 70
     6
  9
$DWGCODEPAGE
  3
UNDEFINED
  9
$INSBASE
 10
0.0
 20
0.0
 30
0.0
  9
$EXTMIN
 10
1.000000000000000E+20
 20
1.000000000000000E+20
 30
1.000000000000000E+20
  9
$EXTMAX
 10
-1.000000000000000E+20
 20
-1.000000000000000E+20
 30
-1.000000000000000E+20
  9
$LIMMIN
 10
0.0
 20
0.0
  9
$LIMMAX
 10
12.0
 20
9.0
  9
$ORTHOMODE
 70
     0
  9
$REGENMODE
 70
     1
  9
$FILLMODE
 70
     1
  9
$QTEXTMODE
 70
     0
  9
$MIRRTEXT
 70
     1
  9
$LTSCALE
 40
1.0
  9
$ATTMODE
 70
     1
  9
$TEXTSIZE
 40
0.2
  9
$TRACEWID
 40
0.05
  9
$TEXTSTYLE
  7
Standard
  9
$CLAYER
  8
0
  9
$CELTYPE
  6
ByLayer
  9
$CECOLOR
 62
   256
  9
$CELTSCALE
 40
1.0
  9
$DISPSILH
 70
     0
  9
$DIMSCALE
 40
1.0
  9
$DIMASZ
 40
0.18
  9
$DIMEXO
 40
0.0625
  9
$DIMDLI
 40
0.38
  9
$DIMRND
 40
0.0
  9
$DIMDLE
 40
0.0
  9
$DIMEXE
 40
0.18
  9
$DIMTP
 40
0.0
  9
$DIMTM
 40
0.0
  9
$DIMTXT
 40
0.18
  9
$DIMCEN
 40
0.09
  9
$DIMTSZ
 40
0.0
  9
$DIMTOL
 70
     0
  9
$DIMLIM
 70
     0
  9
$DIMTIH
 70
     1
  9
$DIMTOH
 70
     1
  9
$DIMSE1
 70
     0
  9
$DIMSE2
 70
     0
  9
$DIMTAD
 70
     0
  9
$DIMZIN
 70
     0
  9
$DIMBLK
  1

  9
$DIMASO
 70
     1
  9
$DIMSHO
 70
     1
  9
$DIMPOST
  1

  9
$DIMAPOST
  1

  9
$DIMALT
 70
     0
  9
$DIMALTD
 70
     2
  9
$DIMALTF
 40
25.4
  9
$DIMLFAC
 40
1.0
  9
$DIMTOFL
 70
     0
  9
$DIMTVP
 40
0.0
  9
$DIMTIX
 70
     0
  9
$DIMSOXD
 70
     0
  9
$DIMSAH
 70
     0
  9
$DIMBLK1
  1

  9
$DIMBLK2
  1

  9
$DIMSTYLE
  2
Standard
  9
$DIMCLRD
 70
     0
  9
$DIMCLRE
 70
     0
  9
$DIMCLRT
 70
     0
  9
$DIMTFAC
 40
1.0
  9
$DIMGAP
 40
0.09
  9
$DIMJUST
 70
     0
  9
$DIMSD1
 70
     0
  9
$DIMSD2
 70
     0
  9
$DIMTOLJ
 70
     1
  9
$DIMTZIN
 70
     0
  9
$DIMALTZ
 70
     0
  9
$DIMALTTZ
 70
     0
  9
$DIMUPT
 70
     0
  9
$DIMDEC
 70
     4
  9
$DIMTDEC
 70
     4
  9
$DIMALTU
 70
     2
  9
$DIMALTTD
 70
     2
  9
$DIMTXSTY
  7
Standard
  9
$DIMAUNIT
 70
     0
  9
$DIMADEC
 70
     0
  9
$DIMALTRND
 40
0.0
  9
$DIMAZIN
 70
     0
  9
$DIMDSEP
 70
    46
  9
$DIMATFIT
 70
     3
  9
$DIMFRAC
 70
     0
  9
$DIMLDRBLK
  1

  9
$DIMLUNIT
 70
     2
  9
$DIMLWD
 70
    -2
  9
$DIMLWE
 70
    -2
  9
$DIMTMOVE
 70
     0
  9
$DIMFXL
 40
1.0
  9
$DIMFXLON
 70
     0
  9
$DIMJOGANG
 40
0.7853981633974483
  9
$DIMTFILL
 70
     0
  9
$DIMTFILLCLR
 70
     0
  9
$DIMARCSYM
 70
     0
  9
$DIMLTYPE
  6

  9
$DIMLTEX1
  6

  9
$DIMLTEX2
  6

  9
$DIMTXTDIRECTION
 70
     0
  9
$LUNITS
 70
     2
  9
$LUPREC
 70
     4
  9
$SKETCHINC
 40
0.1
  9
$FILLETRAD
 40
0.5
  9
$AUNITS
 70
     0
  9
$AUPREC
 70
     0
  9
$MENU
  1
.
  9
$ELEVATION
 40
0.0
  9
$PELEVATION
 40
0.0
  9
$THICKNESS
 40
0.0
  9
$LIMCHECK
 70
     0
  9
$CHAMFERA
 40
0.5
  9
$CHAMFERB
 40
0.5
  9
$CHAMFERC
 40
1.0
  9
$CHAMFERD
 40
0.0
  9
$SKPOLY
 70
     0
  9
$TDCREATE
 40
2457917.609803241
  9
$TDUCREATE
 40
2457917.234803241
  9
$TDUPDATE
 40
2457917.609803241
  9
$TDUUPDATE
 40
2457917.234803241
  9
$TDINDWG
 40
0.0000000116
  9
$TDUSRTIMER
 40
0.0000000116
  9
$USRTIMER
 70
     1
  9
$ANGBASE
 50
0.0
  9
$ANGDIR
 70
     0
  9
$PDMODE
 70
     0
  9
$PDSIZE
 40
0.0
  9
$PLINEWID
 40
0.0
  9
$SPLFRAME
 70
     0
  9
$SPLINETYPE
 70
     6
  9
$SPLINESEGS
 70
     8
  9
$HANDSEED
  5
ED
  9
$SURFTAB1
 70
     6
  9
$SURFTAB2
 70
     6
  9
$SURFTYPE
 70
     6
  9
$SURFU
 70
     6
  9
$SURFV
 70
     6
  9
$UCSBASE
  2

  9
$UCSNAME
  2

  9
$UCSORG
 10
0.0
 20
0.0
 30
0.0
  9
$UCSXDIR
 10
1.0
 20
0.0
 30
0.0
  9
$UCSYDIR
 10
0.0
 20
1.0
 30
0.0
  9
$UCSORTHOREF
  2

  9
$UCSORTHOVIEW
 70
     0
  9
$UCSORGTOP
 10
0.0
 20
0.0
 30
0.0
  9
$UCSORGBOTTOM
 10
0.0
 20
0.0
 30
0.0
  9
$UCSORGLEFT
 10
0.0
 20
0.0
 30
0.0
  9
$UCSORGRIGHT
 10
0.0
 20
0.0
 30
0.0
  9
$UCSORGFRONT
 10
0.0
 20
0.0
 30
0.0
  9
$UCSORGBACK
 10
0.0
 20
0.0
 30
0.0
  9
$PUCSBASE
  2

  9
$PUCSNAME
  2

  9
$PUCSORG
 10
0.0
 20
0.0
 30
0.0
  9
$PUCSXDIR
 10
1.0
 20
0.0
 30
0.0
  9
$PUCSYDIR
 10
0.0
 20
1.0
 30
0.0
  9
$PUCSORTHOREF
  2

  9
$PUCSORTHOVIEW
 70
     0
  9
$PUCSORGTOP
 10
0.0
 20
0.0
 30
0.0
  9
$PUCSORGBOTTOM
 10
0.0
 20
0.0
 30
0.0
  9
$PUCSORGLEFT
 10
0.0
 20
0.0
 30
0.0
  9
$PUCSORGRIGHT
 10
0.0
 20
0.0
 30
0.0
  9
$PUCSORGFRONT
 10
0.0
 20
0.0
 30
0.0
  9
$PUCSORGBACK
 10
0.0
 20
0.0
 30
0.0
  9
$USERI1
 70
     0
  9
$USERI2
 70
     0
  9
$USERI3
 70
     0
  9
$USERI4
 70
     0
  9
$USERI5
 70
     0
  9
$USERR1
 40
0.0
  9
$USERR2
 40
0.0
  9
$USERR3
 40
0.0
  9
$USERR4
 40
0.0
  9
$USERR5
 40
0.0
  9
$WORLDVIEW
 70
     1
  9
$SHADEDGE
 70
     3
  9
$SHADEDIF
 70
    70
  9
$TILEMODE
 70
     1
  9
$MAXACTVP
 70
    64
  9
$PINSBASE
 10
0.0
 20
0.0
 30
0.0
  9
$PLIMCHECK
 70
     0
  9
$PEXTMIN
 10
1.000000000000000E+20
 20
1.000000000000000E+20
 30
1.000000000000000E+20
  9
$PEXTMAX
 10
-1.000000000000000E+20
 20
-1.000000000000000E+20
 30
-1.000000000000000E+20
  9
$PLIMMIN
 10
0.0
 20
0.0
  9
$PLIMMAX
 10
12.0
 20
9.0
  9
$UNITMODE
 70
     0
  9
$VISRETAIN
 70
     1
  9
$PLINEGEN
 70
     0
  9
$PSLTSCALE
 70
     1
  9
$TREEDEPTH
 70
  3020
  9
$CMLSTYLE
  2
Standard
  9
$CMLJUST
 70
     0
  9
$CMLSCALE
 40
1.0
  9
$PROXYGRAPHICS
 70
     1
  9
$MEASUREMENT
 70
     0
  9
$CELWEIGHT
370
    -1
  9
$ENDCAPS
280
     0
  9
$JOINSTYLE
280
     0
  9
$LWDISPLAY
290
     1
  9
$INSUNITS
 70
     1
  9
$HYPERLINKBASE
  1

  9
$STYLESHEET
  1

  9
$XEDIT
290
     1
  9
$CEPSNTYPE
380
     0
  9
$PSTYLEMODE
290
     1
  9
$FINGERPRINTGUID
  2
{D76E5469-349D-02CA-4C34-DBA421E78F73}
  9
$VERSIONGUID
  2
{FAEB1C32-E019-11D5-929B-00C0DF256EC4}
  9
$EXTNAMES
290
     1
  9
$PSVPSCALE
 40
0.0
  9
$OLESTARTUP
290
     0
  9
$SORTENTS
280
   127
  9
$INDEXCTL
280
     0
  9
$HIDETEXT
280
     1
  9
$XCLIPFRAME
280
     2
  9
$HALOGAP
280
     0
  9
$OBSCOLOR
 70
   257
  9
$OBSLTYPE
280
     0
  9
$INTERSECTIONDISPLAY
280
     0
  9
$INTERSECTIONCOLOR
 70
   257
  9
$DIMASSOC
280
     2
  9
$PROJECTNAME
  1

  9
$CAMERADISPLAY
290
     0
  9
$LENSLENGTH
 40
50.0
  9
$CAMERAHEIGHT
 40
0.0
  9
$STEPSPERSEC
 40
2.0
  9
$STEPSIZE
 40
6.0
  9
$3DDWFPREC
 40
2.0
  9
$PSOLWIDTH
 40
0.25
  9
$PSOLHEIGHT
 40
4.0
  9
$LOFTANG1
 40
1.570796326794897
  9
$LOFTANG2
 40
1.570796326794897
  9
$LOFTMAG1
 40
0.0
  9
$LOFTMAG2
 40
0.0
  9
$LOFTPARAM
 70
     7
  9
$LOFTNORMALS
280
     1
  9
$LATITUDE
 40
37.795
  9
$LONGITUDE
 40
-122.394
  9
$NORTHDIRECTION
 40
0.0
  9
$TIMEZONE
 70
 -8000
  9
$LIGHTGLYPHDISPLAY
280
     1
  9
$TILEMODELIGHTSYNCH
280
     1
  9
$CMATERIAL
347
3C
  9
$SOLIDHIST
280
     1
  9
$SHOWHIST
280
     1
  9
$DWFFRAME
280
     2
  9
$DGNFRAME
280
     2
  9
$REALWORLDSCALE
290
     1
  9
$INTERFERECOLOR
 62
   256
  9
$CSHADOW
280
     0
  9
$SHADOWPLANELOCATION
 40
0.0
  0
ENDSEC
  0
SECTION
  2
CLASSES
  0
CLASS
  1
ACDBDICTIONARYWDFLT
  2
AcDbDictionaryWithDefault
  3
ObjectDBX Classes
 90
        0
 91
        4
280
     0
281
     0
  0
CLASS
  1
VISUALSTYLE
  2
AcDbVisualStyle
  3
ObjectDBX Classes
 90
     4095
 91
        4
280
     0
281
     0
  0
CLASS
  1
MATERIAL
  2
AcDbMaterial
  3
ObjectDBX Classes
 90
     1153
 91
        4
280
     0
281
     0
  0
CLASS
  1
SUN
  2
AcDbSun
  3
SCENEOE
 90
     1024
 91
        4
280
     0
281
     0
  0
ENDSEC
  0
SECTION
  2
TABLES
  0
TABLE
  2
VPORT
  5
8
330
0
100
AcDbSymbolTable
 70
     1
  0
VPORT
  5
29
330
8
100
AcDbSymbolTableRecord
100
AcDbViewportTableRecord
  2
*Active
 70
     0
 10
0.0
 20
0.0
 11
1.0
 21
1.0
 12
0.0
 22
0.0
 13
0.0
 23
0.0
 14
0.5
 24
0.5
 15
0.5
 25
0.5
 16
0.0
 26
0.0
 36
1.0
 17
91.00082462281999
 27
-128.4993055234307
 37
0.0
 40
256.9986110468615
 41
0.7081814508812795
 42
50.0
 43
0.0
 44
0.0
 50
0.0
 51
0.0
 71
     0
 72
   100
 73
     1
 74
     3
 75
     0
 76
     0
 77
     0
 78
     0
281
     0
 65
     1
110
0.0
120
0.0
130
0.0
111
1.0
121
0.0
131
0.0
112
0.0
122
1.0
132
0.0
 79
     0
146
0.0
 60
     3
 61
     5
292
     1
282
     1
141
0.0
142
0.0
 63
   250
361
3F
  0
ENDTAB
  0
TABLE
  2
LTYPE
  5
5
330
0
100
AcDbSymbolTable
 70
     1
  0
LTYPE
  5
14
330
5
100
AcDbSymbolTableRecord
100
AcDbLinetypeTableRecord
  2
ByBlock
 70
     0
  3

 72
    65
 73
     0
 40
0.0
  0
LTYPE
  5
15
330
5
100
AcDbSymbolTableRecord
100
AcDbLinetypeTableRecord
  2
ByLayer
 70
     0
  3

 72
    65
 73
     0
 40
0.0
  0
LTYPE
  5
16
330
5
100
AcDbSymbolTableRecord
100
AcDbLinetypeTableRecord
  2
Continuous
 70
     0
  3
Solid line
 72
    65
 73
     0
 40
0.0
  0
ENDTAB
  0
TABLE
  2
LAYER
  5
2
330
0
100
AcDbSymbolTable
 70
     2
  0
LAYER
  5
10
330
2
100
AcDbSymbolTableRecord
100
AcDbLayerTableRecord
  2
0
 70
     0
 62
     7
  6
Continuous
370
    -3
390
F
347
3E
  0
LAYER
  5
40
330
2
100
AcDbSymbolTableRecord
100
AcDbLayerTableRecord
  2
_U+30EC_U+30A4_U+30E4_U+30FC 1
 70
     0
 62
     7
  6
Continuous
370
    -3
390
F
347
3E
  0
ENDTAB
  0
TABLE
  2
STYLE
  5
3
330
0
100
AcDbSymbolTable
 70
     1
  0
STYLE
  5
11
330
3
100
AcDbSymbolTableRecord
100
AcDbTextStyleTableRecord
  2
Standard
 70
     0
 40
0.0
 41
1.0
 50
0.0
 71
     0
 42
0.2
  3
txt
  4

  0
ENDTAB
  0
TABLE
  2
VIEW
  5
6
330
0
100
AcDbSymbolTable
 70
     0
  0
ENDTAB
  0
TABLE
  2
UCS
  5
7
330
0
100
AcDbSymbolTable
 70
     0
  0
ENDTAB
  0
TABLE
  2
APPID
  5
9
330
0
100
AcDbSymbolTable
 70
     1
  0
APPID
  5
12
330
9
100
AcDbSymbolTableRecord
100
AcDbRegAppTableRecord
  2
ACAD
 70
     0
  0
ENDTAB
  0
TABLE
  2
DIMSTYLE
  5
A
330
0
100
AcDbSymbolTable
 70
     1
100
AcDbDimStyleTable
  0
DIMSTYLE
105
27
330
A
100
AcDbSymbolTableRecord
100
AcDbDimStyleTableRecord
  2
Standard
 70
     0
178
     0
340
11
  0
ENDTAB
  0
TABLE
  2
BLOCK_RECORD
  5
1
330
0
100
AcDbSymbolTable
 70
     6
  0
BLOCK_RECORD
  5
1F
330
1
100
AcDbSymbolTableRecord
100
AcDbBlockTableRecord
  2
*Model_Space
340
22
 70
     0
280
     1
281
     0
  0
BLOCK_RECORD
  5
1B
330
1
100
AcDbSymbolTableRecord
100
AcDbBlockTableRecord
  2
*Paper_Space
340
1E
 70
     0
280
     1
281
     0
  0
BLOCK_RECORD
  5
23
330
1
100
AcDbSymbolTableRecord
100
AcDbBlockTableRecord
  2
*Paper_Space0
340
26
 70
     0
280
     1
281
     0
  0
BLOCK_RECORD
  5
6A
330
1
100
AcDbSymbolTableRecord
100
AcDbBlockTableRecord
  2
block 2
340
0
102
{BLKREFS
331
6B
102
}
 70
     0
280
     1
281
     0
  0
BLOCK_RECORD
  5
73
330
1
100
AcDbSymbolTableRecord
100
AcDbBlockTableRecord
  2
block 3
340
0
102
{BLKREFS
331
74
102
}
 70
     0
280
     1
281
     0
  0
BLOCK_RECORD
  5
88
330
1
100
AcDbSymbolTableRecord
100
AcDbBlockTableRecord
  2
block 4
340
0
102
{BLKREFS
331
89
102
}
 70
     0
280
     1
281
     0
  0
BLOCK_RECORD
  5
C7
330
1
100
AcDbSymbolTableRecord
100
AcDbBlockTableRecord
  2
block 5
340
0
102
{BLKREFS
331
C8
102
}
 70
     0
280
     1
281
     0
  0
BLOCK_RECORD
  5
D9
330
1
100
AcDbSymbolTableRecord
100
AcDbBlockTableRecord
  2
block 6
340
0
102
{BLKREFS
331
DA
102
}
 70
     0
280
     1
281
     0
  0
ENDTAB
  0
ENDSEC
  0
SECTION
  2
BLOCKS
  0
BLOCK
  5
20
330
1F
100
AcDbEntity
  8
0
100
AcDbBlockBegin
  2
*Model_Space
 70
     0
 10
0.0
 20
0.0
 30
0.0
  3
*Model_Space
  1

  0
ENDBLK
  5
21
330
1F
100
AcDbEntity
  8
0
100
AcDbBlockEnd
  0
BLOCK
  5
1C
330
1B
100
AcDbEntity
 67
     1
  8
0
100
AcDbBlockBegin
  2
*Paper_Space
 70
     0
 10
0.0
 20
0.0
 30
0.0
  3
*Paper_Space
  1

  0
ENDBLK
  5
1D
330
1B
100
AcDbEntity
 67
     1
  8
0
100
AcDbBlockEnd
  0
BLOCK
  5
24
330
23
100
AcDbEntity
  8
0
100
AcDbBlockBegin
  2
*Paper_Space0
 70
     0
 10
0.0
 20
0.0
 30
0.0
  3
*Paper_Space0
  1

  0
ENDBLK
  5
25
330
23
100
AcDbEntity
  8
0
100
AcDbBlockEnd
  0
BLOCK
  5
6C
330
6A
100
AcDbEntity
  8
0
100
AcDbBlockBegin
  2
block 2
 70
     0
 10
0.0
 20
0.0
 30
0.0
  3
block 2
  1

  0
SPLINE
  5
6E
330
6A
100
AcDbEntity
  8
_U+30EC_U+30A4_U+30E4_U+30FC 1
370
     0
100
AcDbSpline
210
0.0
220
0.0
230
1.0
 70
    11
 71
     3
 72
    62
 73
    58
 74
     0
 42
0.0000000001
 43
0.0000000001
 12
1.0
 22
0.0
 32
0.0
 13
1.0
 23
0.0
 33
0.0
 40
0.0
 40
0.0
 40
0.0
 40
0.0
 40
1.0
 40
1.0
 40
1.0
 40
2.0
 40
2.0
 40
2.0
 40
3.0
 40
3.0
 40
3.0
 40
4.0
 40
4.0
 40
4.0
 40
5.0
 40
5.0
 40
5.0
 40
6.0
 40
6.0
 40
6.0
 40
7.0
 40
7.0
 40
7.0
 40
8.0
 40
8.0
 40
8.0
 40
9.0
 40
9.0
 40
9.0
 40
10.0
 40
10.0
 40
10.0
 40
11.0
 40
11.0
 40
11.0
 40
12.0
 40
12.0
 40
12.0
 40
13.0
 40
13.0
 40
13.0
 40
14.0
 40
14.0
 40
14.0
 40
15.0
 40
15.0
 40
15.0
 40
16.0
 40
16.0
 40
16.0
 40
17.0
 40
17.0
 40
17.0
 40
18.0
 40
18.0
 40
18.0
 40
19.0
 40
19.0
 40
19.0
 40
19.0
 10
84.57502710559235
 20
-120.1783663979068
 30
0.0
 10
84.4797702154252
 20
-120.1783663979068
 30
0.0
 10
84.26186792598315
 20
-120.1571790606725
 30
0.0
 10
84.13715546941711
 20
-119.9709716496948
 30
0.0
 10
84.06308591648423
 20
-119.8588337916499
 30
0.0
 10
84.05877954712767
 20
-119.7594427869004
 30
0.0
 10
84.05464543254537
 20
-119.6748656927375
 30
0.0
 10
84.05464543254537
 20
-119.6748656927375
 30
0.0
 10
84.27461477927858
 20
-119.6748656927375
 30
0.0
 10
84.27461477927858
 20
-119.6748656927375
 30
0.0
 10
84.27668183656972
 20
-119.7489352456704
 30
0.0
 10
84.28736163257399
 20
-119.9837185029902
 30
0.0
 10
84.5707207362358
 20
-119.9837185029902
 30
0.0
 10
84.70835230087152
 20
-119.9837185029902
 30
0.0
 10
84.86062552131958
 20
-119.9139553194139
 30
0.0
 10
84.86062552131958
 20
-119.6853732339676
 30
0.0
 10
84.86062552131958
 20
-119.5691012613404
 30
0.0
 10
84.82255721620756
 20
-119.5203531602241
 30
0.0
 10
84.79086233774326
 20
-119.4886582817598
 30
0.0
 10
84.7167927848104
 20
-119.4145887288269
 30
0.0
 10
84.60034855740895
 20
-119.4020141303058
 30
0.0
 10
84.5453992844192
 20
-119.4020141303058
 30
0.0
 10
84.52645125925034
 20
-119.4020141303058
 30
0.0
 10
84.49045001142947
 20
-119.4040811875969
 30
0.0
 10
84.46288924754748
 20
-119.4083875569535
 30
0.0
 10
84.46288924754748
 20
-119.4083875569535
 30
0.0
 10
84.46288924754748
 20
-119.2137396620368
 30
0.0
 10
84.46288924754748
 20
-119.2137396620368
 30
0.0
 10
84.50095755265949
 20
-119.2201130886846
 30
0.0
 10
84.54333222712806
 20
-119.2221801459757
 30
0.0
 10
84.54970565377577
 20
-119.2221801459757
 30
0.0
 10
84.61516246799552
 20
-119.2221801459757
 30
0.0
 10
84.8141167322687
 20
-119.2009928087414
 30
0.0
 10
84.8141167322687
 20
-118.9639702393562
 30
0.0
 10
84.8141167322687
 20
-118.7863755670916
 30
0.0
 10
84.68285859428067
 20
-118.7314262941019
 30
0.0
 10
84.57296004830121
 20
-118.7314262941019
 30
0.0
 10
84.30854896980829
 20
-118.7314262941019
 30
0.0
 10
84.29993623109516
 20
-118.9639702393562
 30
0.0
 10
84.29580211651286
 20
-119.035972734998
 30
0.0
 10
84.29580211651286
 20
-119.035972734998
 30
0.0
 10
84.09271373765738
 20
-119.035972734998
 30
0.0
 10
84.09271373765738
 20
-119.035972734998
 30
0.0
 10
84.10115422159625
 20
-118.9110880236577
 30
0.0
 10
84.12871498547824
 20
-118.5345390871198
 30
0.0
 10
84.58553464682237
 20
-118.5345390871198
 30
0.0
 10
84.80981036291213
 20
-118.5345390871198
 30
0.0
 10
85.05096704687962
 20
-118.6614908557513
 30
0.0
 10
85.05096704687962
 20
-118.9577690674828
 30
0.0
 10
85.05096704687962
 20
-119.1438042236863
 30
0.0
 10
84.95588241148673
 20
-119.226314260558
 30
0.0
 10
84.856319151963
 20
-119.2878092149697
 30
0.0
 10
84.91781410637472
 20
-119.3151977240774
 30
0.0
 10
85.09971514799591
 20
-119.395640703658
 30
0.0
 10
85.09971514799591
 20
-119.6727986354464
 30
0.0
 10
85.09971514799591
 20
-120.0112792668722
 30
0.0
 10
84.8521850373807
 20
-120.1783663979068
 30
0.0
 10
84.57502710559235
 20
-120.1783663979068
 30
0.0
  0
HATCH
  5
6F
330
6A
100
AcDbEntity
  8
_U+30EC_U+30A4_U+30E4_U+30FC 1
 62
   179
420
  2234388
100
AcDbHatch
 10
0.0
 20
0.0
 30
0.0
210
0.0
220
0.0
230
1.0
  2
SOLID
 70
     1
 71
     0
 91
        1
 92
        1
 93
        1
 72
     4
 94
        3
 73
     0
 74
     1
 95
       62
 96
       58
 40
0.0
 40
0.0
 40
0.0
 40
0.0
 40
1.0
 40
1.0
 40
1.0
 40
2.0
 40
2.0
 40
2.0
 40
3.0
 40
3.0
 40
3.0
 40
4.0
 40
4.0
 40
4.0
 40
5.0
 40
5.0
 40
5.0
 40
6.0
 40
6.0
 40
6.0
 40
7.0
 40
7.0
 40
7.0
 40
8.0
 40
8.0
 40
8.0
 40
9.0
 40
9.0
 40
9.0
 40
10.0
 40
10.0
 40
10.0
 40
11.0
 40
11.0
 40
11.0
 40
12.0
 40
12.0
 40
12.0
 40
13.0
 40
13.0
 40
13.0
 40
14.0
 40
14.0
 40
14.0
 40
15.0
 40
15.0
 40
15.0
 40
16.0
 40
16.0
 40
16.0
 40
17.0
 40
17.0
 40
17.0
 40
18.0
 40
18.0
 40
18.0
 40
19.0
 40
19.0
 40
19.0
 40
19.0
 10
84.57502710559235
 20
-120.1783663979068
 10
84.4797702154252
 20
-120.1783663979068
 10
84.26186792598315
 20
-120.1571790606725
 10
84.13715546941711
 20
-119.9709716496948
 10
84.06308591648423
 20
-119.8588337916499
 10
84.05877954712767
 20
-119.7594427869004
 10
84.05464543254537
 20
-119.6748656927375
 10
84.05464543254537
 20
-119.6748656927375
 10
84.27461477927858
 20
-119.6748656927375
 10
84.27461477927858
 20
-119.6748656927375
 10
84.27668183656972
 20
-119.7489352456704
 10
84.28736163257399
 20
-119.9837185029902
 10
84.5707207362358
 20
-119.9837185029902
 10
84.70835230087152
 20
-119.9837185029902
 10
84.86062552131958
 20
-119.9139553194139
 10
84.86062552131958
 20
-119.6853732339676
 10
84.86062552131958
 20
-119.5691012613404
 10
84.82255721620756
 20
-119.5203531602241
 10
84.79086233774326
 20
-119.4886582817598
 10
84.7167927848104
 20
-119.4145887288269
 10
84.60034855740895
 20
-119.4020141303058
 10
84.5453992844192
 20
-119.4020141303058
 10
84.52645125925034
 20
-119.4020141303058
 10
84.49045001142947
 20
-119.4040811875969
 10
84.46288924754748
 20
-119.4083875569535
 10
84.46288924754748
 20
-119.4083875569535
 10
84.46288924754748
 20
-119.2137396620368
 10
84.46288924754748
 20
-119.2137396620368
 10
84.50095755265949
 20
-119.2201130886846
 10
84.54333222712806
 20
-119.2221801459757
 10
84.54970565377577
 20
-119.2221801459757
 10
84.61516246799552
 20
-119.2221801459757
 10
84.8141167322687
 20
-119.2009928087414
 10
84.8141167322687
 20
-118.9639702393562
 10
84.8141167322687
 20
-118.7863755670916
 10
84.68285859428067
 20
-118.7314262941019
 10
84.57296004830121
 20
-118.7314262941019
 10
84.30854896980829
 20
-118.7314262941019
 10
84.29993623109516
 20
-118.9639702393562
 10
84.29580211651286
 20
-119.035972734998
 10
84.29580211651286
 20
-119.035972734998
 10
84.09271373765738
 20
-119.035972734998
 10
84.09271373765738
 20
-119.035972734998
 10
84.10115422159625
 20
-118.9110880236577
 10
84.12871498547824
 20
-118.5345390871198
 10
84.58553464682237
 20
-118.5345390871198
 10
84.80981036291213
 20
-118.5345390871198
 10
85.05096704687962
 20
-118.6614908557513
 10
85.05096704687962
 20
-118.9577690674828
 10
85.05096704687962
 20
-119.1438042236863
 10
84.95588241148673
 20
-119.226314260558
 10
84.856319151963
 20
-119.2878092149697
 10
84.91781410637472
 20
-119.3151977240774
 10
85.09971514799591
 20
-119.395640703658
 10
85.09971514799591
 20
-119.6727986354464
 10
85.09971514799591
 20
-120.0112792668722
 10
84.8521850373807
 20
-120.1783663979068
 10
84.57502710559235
 20
-120.1783663979068
 97
        0
 97
        0
 75
     2
 76
     1
 98
        0
  0
ENDBLK
  5
6D
330
6A
100
AcDbEntity
  8
0
100
AcDbBlockEnd
  0
BLOCK
  5
75
330
73
100
AcDbEntity
  8
0
100
AcDbBlockBegin
  2
block 3
 70
     0
 10
0.0
 20
0.0
 30
0.0
  3
block 3
  1

  0
SPLINE
  5
77
330
73
100
AcDbEntity
  8
_U+30EC_U+30A4_U+30E4_U+30FC 1
370
     0
100
AcDbSpline
210
0.0
220
0.0
230
1.0
 70
    11
 71
     3
 72
    26
 73
    22
 74
     0
 42
0.0000000001
 43
0.0000000001
 12
1.0
 22
0.0
 32
0.0
 13
1.0
 23
0.0
 33
0.0
 40
0.0
 40
0.0
 40
0.0
 40
0.0
 40
1.0
 40
1.0
 40
1.0
 40
2.0
 40
2.0
 40
2.0
 40
3.0
 40
3.0
 40
3.0
 40
4.0
 40
4.0
 40
4.0
 40
5.0
 40
5.0
 40
5.0
 40
6.0
 40
6.0
 40
6.0
 40
7.0
 40
7.0
 40
7.0
 40
7.0
 10
92.94695364429799
 20
-120.1275512394994
 30
0.0
 10
92.94695364429799
 20
-120.1275512394994
 30
0.0
 10
92.94695364429799
 20
-119.0232258817025
 30
0.0
 10
92.94695364429799
 20
-119.0232258817025
 30
0.0
 10
92.94695364429799
 20
-119.0232258817025
 30
0.0
 10
92.61691349681105
 20
-119.0232258817025
 30
0.0
 10
92.61691349681105
 20
-119.0232258817025
 30
0.0
 10
92.61691349681105
 20
-119.0232258817025
 30
0.0
 10
92.61691349681105
 20
-118.875259030611
 30
0.0
 10
92.61691349681105
 20
-118.875259030611
 30
0.0
 10
92.94902070158913
 20
-118.8604451200245
 30
0.0
 10
92.99552949064001
 20
-118.6974921035722
 30
0.0
 10
93.02515731181316
 20
-118.5832871882361
 30
0.0
 10
93.02515731181316
 20
-118.5832871882361
 30
0.0
 10
93.17122936038776
 20
-118.5832871882361
 30
0.0
 10
93.17122936038776
 20
-118.5832871882361
 30
0.0
 10
93.17122936038776
 20
-118.5832871882361
 30
0.0
 10
93.17122936038776
 20
-120.1275512394994
 30
0.0
 10
93.17122936038776
 20
-120.1275512394994
 30
0.0
 10
93.17122936038776
 20
-120.1275512394994
 30
0.0
 10
92.94695364429799
 20
-120.1275512394994
 30
0.0
 10
92.94695364429799
 20
-120.1275512394994
 30
0.0
  0
HATCH
  5
78
330
73
100
AcDbEntity
  8
_U+30EC_U+30A4_U+30E4_U+30FC 1
 62
   179
420
  2234388
100
AcDbHatch
 10
0.0
 20
0.0
 30
0.0
210
0.0
220
0.0
230
1.0
  2
SOLID
 70
     1
 71
     0
 91
        1
 92
        1
 93
        1
 72
     4
 94
        3
 73
     0
 74
     1
 95
       26
 96
       22
 40
0.0
 40
0.0
 40
0.0
 40
0.0
 40
1.0
 40
1.0
 40
1.0
 40
2.0
 40
2.0
 40
2.0
 40
3.0
 40
3.0
 40
3.0
 40
4.0
 40
4.0
 40
4.0
 40
5.0
 40
5.0
 40
5.0
 40
6.0
 40
6.0
 40
6.0
 40
7.0
 40
7.0
 40
7.0
 40
7.0
 10
92.94695364429799
 20
-120.1275512394994
 10
92.94695364429799
 20
-120.1275512394994
 10
92.94695364429799
 20
-119.0232258817025
 10
92.94695364429799
 20
-119.0232258817025
 10
92.94695364429799
 20
-119.0232258817025
 10
92.61691349681105
 20
-119.0232258817025
 10
92.61691349681105
 20
-119.0232258817025
 10
92.61691349681105
 20
-119.0232258817025
 10
92.61691349681105
 20
-118.875259030611
 10
92.61691349681105
 20
-118.875259030611
 10
92.94902070158913
 20
-118.8604451200245
 10
92.99552949064001
 20
-118.6974921035722
 10
93.02515731181316
 20
-118.5832871882361
 10
93.02515731181316
 20
-118.5832871882361
 10
93.17122936038776
 20
-118.5832871882361
 10
93.17122936038776
 20
-118.5832871882361
 10
93.17122936038776
 20
-118.5832871882361
 10
93.17122936038776
 20
-120.1275512394994
 10
93.17122936038776
 20
-120.1275512394994
 10
93.17122936038776
 20
-120.1275512394994
 10
92.94695364429799
 20
-120.1275512394994
 10
92.94695364429799
 20
-120.1275512394994
 97
        0
 97
        0
 75
     2
 76
     1
 98
        0
  0
SPLINE
  5
79
330
73
100
AcDbEntity
  8
_U+30EC_U+30A4_U+30E4_U+30FC 1
370
     0
100
AcDbSpline
210
0.0
220
0.0
230
1.0
 70
    11
 71
     3
 72
    53
 73
    49
 74
     0
 42
0.0000000001
 43
0.0000000001
 12
1.0
 22
0.0
 32
0.0
 13
1.0
 23
0.0
 33
0.0
 40
0.0
 40
0.0
 40
0.0
 40
0.0
 40
1.0
 40
1.0
 40
1.0
 40
2.0
 40
2.0
 40
2.0
 40
3.0
 40
3.0
 40
3.0
 40
4.0
 40
4.0
 40
4.0
 40
5.0
 40
5.0
 40
5.0
 40
6.0
 40
6.0
 40
6.0
 40
7.0
 40
7.0
 40
7.0
 40
8.0
 40
8.0
 40
8.0
 40
9.0
 40
9.0
 40
9.0
 40
10.0
 40
10.0
 40
10.0
 40
11.0
 40
11.0
 40
11.0
 40
12.0
 40
12.0
 40
12.0
 40
13.0
 40
13.0
 40
13.0
 40
14.0
 40
14.0
 40
14.0
 40
15.0
 40
15.0
 40
15.0
 40
16.0
 40
16.0
 40
16.0
 40
16.0
 10
94.15342608323247
 20
-120.1783663979068
 30
0.0
 10
94.0752224157173
 20
-120.1783663979068
 30
0.0
 10
93.97359209890244
 20
-120.1614854300291
 30
0.0
 10
93.87196178208757
 20
-120.0979234183262
 30
0.0
 10
93.6986734791795
 20
-119.9880248723468
 30
0.0
 10
93.67731388717095
 20
-119.8567667343587
 30
0.0
 10
93.65836586200209
 20
-119.7489352456704
 30
0.0
 10
93.65836586200209
 20
-119.7489352456704
 30
0.0
 10
93.88057452080069
 20
-119.7489352456704
 30
0.0
 10
93.88057452080069
 20
-119.7489352456704
 30
0.0
 10
93.93535153901617
 20
-119.9477172551693
 30
0.0
 10
94.06247556242188
 20
-119.9773450763425
 30
0.0
 10
94.15549314052363
 20
-119.9773450763425
 30
0.0
 10
94.29501950767624
 20
-119.9773450763425
 30
0.0
 10
94.4472927281243
 20
-119.877954071593
 30
0.0
 10
94.4472927281243
 20
-119.6452378715644
 30
0.0
 10
94.4472927281243
 20
-119.3892672770103
 30
0.0
 10
94.26745874379425
 20
-119.319504093434
 30
0.0
 10
94.1468804018105
 20
-119.319504093434
 30
0.0
 10
94.11518552334621
 20
-119.319504093434
 30
0.0
 10
93.97359209890244
 20
-119.319504093434
 30
0.0
 10
93.88470863538299
 20
-119.4485229193566
 30
0.0
 10
93.88470863538299
 20
-119.4485229193566
 30
0.0
 10
93.70900876563525
 20
-119.4294026394135
 30
0.0
 10
93.70900876563525
 20
-119.4294026394135
 30
0.0
 10
93.70900876563525
 20
-119.4294026394135
 30
0.0
 10
93.82958710761899
 20
-118.5832871882361
 30
0.0
 10
93.82958710761899
 20
-118.5832871882361
 30
0.0
 10
93.82958710761899
 20
-118.5832871882361
 30
0.0
 10
94.60817868728546
 20
-118.5832871882361
 30
0.0
 10
94.60817868728546
 20
-118.5832871882361
 30
0.0
 10
94.60817868728546
 20
-118.5832871882361
 30
0.0
 10
94.60817868728546
 20
-118.7779350831527
 30
0.0
 10
94.60817868728546
 20
-118.7779350831527
 30
0.0
 10
94.60817868728546
 20
-118.7779350831527
 30
0.0
 10
93.99254012407131
 20
-118.7779350831527
 30
0.0
 10
93.99254012407131
 20
-118.7779350831527
 30
0.0
 10
93.99254012407131
 20
-118.7779350831527
 30
0.0
 10
93.92708330985157
 20
-119.2009928087414
 30
0.0
 10
93.92708330985157
 20
-119.2009928087414
 30
0.0
 10
93.98840600948901
 20
-119.167230872986
 30
0.0
 10
94.07074379158648
 20
-119.1269232558085
 30
0.0
 10
94.18925507627908
 20
-119.1269232558085
 30
0.0
 10
94.443158613542
 20
-119.1269232558085
 30
0.0
 10
94.68018118292719
 20
-119.3131306667863
 30
0.0
 10
94.68018118292719
 20
-119.6262898463955
 30
0.0
 10
94.68018118292719
 20
-119.943583140587
 30
0.0
 10
94.45590546683742
 20
-120.1783663979068
 30
0.0
 10
94.15342608323247
 20
-120.1783663979068
 30
0.0
  0
HATCH
  5
7A
330
73
100
AcDbEntity
  8
_U+30EC_U+30A4_U+30E4_U+30FC 1
 62
   179
420
  2234388
100
AcDbHatch
 10
0.0
 20
0.0
 30
0.0
210
0.0
220
0.0
230
1.0
  2
SOLID
 70
     1
 71
     0
 91
        1
 92
        1
 93
        1
 72
     4
 94
        3
 73
     0
 74
     1
 95
       53
 96
       49
 40
0.0
 40
0.0
 40
0.0
 40
0.0
 40
1.0
 40
1.0
 40
1.0
 40
2.0
 40
2.0
 40
2.0
 40
3.0
 40
3.0
 40
3.0
 40
4.0
 40
4.0
 40
4.0
 40
5.0
 40
5.0
 40
5.0
 40
6.0
 40
6.0
 40
6.0
 40
7.0
 40
7.0
 40
7.0
 40
8.0
 40
8.0
 40
8.0
 40
9.0
 40
9.0
 40
9.0
 40
10.0
 40
10.0
 40
10.0
 40
11.0
 40
11.0
 40
11.0
 40
12.0
 40
12.0
 40
12.0
 40
13.0
 40
13.0
 40
13.0
 40
14.0
 40
14.0
 40
14.0
 40
15.0
 40
15.0
 40
15.0
 40
16.0
 40
16.0
 40
16.0
 40
16.0
 10
94.15342608323247
 20
-120.1783663979068
 10
94.0752224157173
 20
-120.1783663979068
 10
93.97359209890244
 20
-120.1614854300291
 10
93.87196178208757
 20
-120.0979234183262
 10
93.6986734791795
 20
-119.9880248723468
 10
93.67731388717095
 20
-119.8567667343587
 10
93.65836586200209
 20
-119.7489352456704
 10
93.65836586200209
 20
-119.7489352456704
 10
93.88057452080069
 20
-119.7489352456704
 10
93.88057452080069
 20
-119.7489352456704
 10
93.93535153901617
 20
-119.9477172551693
 10
94.06247556242188
 20
-119.9773450763425
 10
94.15549314052363
 20
-119.9773450763425
 10
94.29501950767624
 20
-119.9773450763425
 10
94.4472927281243
 20
-119.877954071593
 10
94.4472927281243
 20
-119.6452378715644
 10
94.4472927281243
 20
-119.3892672770103
 10
94.26745874379425
 20
-119.319504093434
 10
94.1468804018105
 20
-119.319504093434
 10
94.11518552334621
 20
-119.319504093434
 10
93.97359209890244
 20
-119.319504093434
 10
93.88470863538299
 20
-119.4485229193566
 10
93.88470863538299
 20
-119.4485229193566
 10
93.70900876563525
 20
-119.4294026394135
 10
93.70900876563525
 20
-119.4294026394135
 10
93.70900876563525
 20
-119.4294026394135
 10
93.82958710761899
 20
-118.5832871882361
 10
93.82958710761899
 20
-118.5832871882361
 10
93.82958710761899
 20
-118.5832871882361
 10
94.60817868728546
 20
-118.5832871882361
 10
94.60817868728546
 20
-118.5832871882361
 10
94.60817868728546
 20
-118.5832871882361
 10
94.60817868728546
 20
-118.7779350831527
 10
94.60817868728546
 20
-118.7779350831527
 10
94.60817868728546
 20
-118.7779350831527
 10
93.99254012407131
 20
-118.7779350831527
 10
93.99254012407131
 20
-118.7779350831527
 10
93.99254012407131
 20
-118.7779350831527
 10
93.92708330985157
 20
-119.2009928087414
 10
93.92708330985157
 20
-119.2009928087414
 10
93.98840600948901
 20
-119.167230872986
 10
94.07074379158648
 20
-119.1269232558085
 10
94.18925507627908
 20
-119.1269232558085
 10
94.443158613542
 20
-119.1269232558085
 10
94.68018118292719
 20
-119.3131306667863
 10
94.68018118292719
 20
-119.6262898463955
 10
94.68018118292719
 20
-119.943583140587
 10
94.45590546683742
 20
-120.1783663979068
 10
94.15342608323247
 20
-120.1783663979068
 97
        0
 97
        0
 75
     2
 76
     1
 98
        0
  0
ENDBLK
  5
76
330
73
100
AcDbEntity
  8
0
100
AcDbBlockEnd
  0
BLOCK
  5
8A
330
88
100
AcDbEntity
  8
0
100
AcDbBlockBegin
  2
block 4
 70
     0
 10
0.0
 20
0.0
 30
0.0
  3
block 4
  1

  0
SPLINE
  5
8C
330
88
100
AcDbEntity
  8
_U+30EC_U+30A4_U+30E4_U+30FC 1
370
     0
100
AcDbSpline
210
0.0
220
0.0
230
1.0
 70
    11
 71
     3
 72
    26
 73
    22
 74
     0
 42
0.0000000001
 43
0.0000000001
 12
1.0
 22
0.0
 32
0.0
 13
1.0
 23
0.0
 33
0.0
 40
0.0
 40
0.0
 40
0.0
 40
0.0
 40
1.0
 40
1.0
 40
1.0
 40
2.0
 40
2.0
 40
2.0
 40
3.0
 40
3.0
 40
3.0
 40
4.0
 40
4.0
 40
4.0
 40
5.0
 40
5.0
 40
5.0
 40
6.0
 40
6.0
 40
6.0
 40
7.0
 40
7.0
 40
7.0
 40
7.0
 10
78.7111300801486
 20
-130.1381374457641
 30
0.0
 10
78.7111300801486
 20
-130.1381374457641
 30
0.0
 10
77.60680472235177
 20
-130.1381374457641
 30
0.0
 10
77.60680472235177
 20
-130.1381374457641
 30
0.0
 10
77.60680472235177
 20
-130.1381374457641
 30
0.0
 10
77.60680472235177
 20
-130.468177593251
 30
0.0
 10
77.60680472235177
 20
-130.468177593251
 30
0.0
 10
77.60680472235177
 20
-130.468177593251
 30
0.0
 10
77.4588378712603
 20
-130.468177593251
 30
0.0
 10
77.4588378712603
 20
-130.468177593251
 30
0.0
 10
77.44402396067372
 20
-130.1360703884729
 30
0.0
 10
77.2810709442214
 20
-130.0895615994221
 30
0.0
 10
77.16686602888537
 20
-130.0599337782489
 30
0.0
 10
77.16686602888537
 20
-130.0599337782489
 30
0.0
 10
77.16686602888537
 20
-129.9138617296743
 30
0.0
 10
77.16686602888537
 20
-129.9138617296743
 30
0.0
 10
77.16686602888537
 20
-129.9138617296743
 30
0.0
 10
78.7111300801486
 20
-129.9138617296743
 30
0.0
 10
78.7111300801486
 20
-129.9138617296743
 30
0.0
 10
78.7111300801486
 20
-129.9138617296743
 30
0.0
 10
78.7111300801486
 20
-130.1381374457641
 30
0.0
 10
78.7111300801486
 20
-130.1381374457641
 30
0.0
  0
HATCH
  5
8D
330
88
100
AcDbEntity
  8
_U+30EC_U+30A4_U+30E4_U+30FC 1
 62
   179
420
  2234388
100
AcDbHatch
 10
0.0
 20
0.0
 30
0.0
210
0.0
220
0.0
230
1.0
  2
SOLID
 70
     1
 71
     0
 91
        1
 92
        1
 93
        1
 72
     4
 94
        3
 73
     0
 74
     1
 95
       26
 96
       22
 40
0.0
 40
0.0
 40
0.0
 40
0.0
 40
1.0
 40
1.0
 40
1.0
 40
2.0
 40
2.0
 40
2.0
 40
3.0
 40
3.0
 40
3.0
 40
4.0
 40
4.0
 40
4.0
 40
5.0
 40
5.0
 40
5.0
 40
6.0
 40
6.0
 40
6.0
 40
7.0
 40
7.0
 40
7.0
 40
7.0
 10
78.7111300801486
 20
-130.1381374457641
 10
78.7111300801486
 20
-130.1381374457641
 10
77.60680472235177
 20
-130.1381374457641
 10
77.60680472235177
 20
-130.1381374457641
 10
77.60680472235177
 20
-130.1381374457641
 10
77.60680472235177
 20
-130.468177593251
 10
77.60680472235177
 20
-130.468177593251
 10
77.60680472235177
 20
-130.468177593251
 10
77.4588378712603
 20
-130.468177593251
 10
77.4588378712603
 20
-130.468177593251
 10
77.44402396067372
 20
-130.1360703884729
 10
77.2810709442214
 20
-130.0895615994221
 10
77.16686602888537
 20
-130.0599337782489
 10
77.16686602888537
 20
-130.0599337782489
 10
77.16686602888537
 20
-129.9138617296743
 10
77.16686602888537
 20
-129.9138617296743
 10
77.16686602888537
 20
-129.9138617296743
 10
78.7111300801486
 20
-129.9138617296743
 10
78.7111300801486
 20
-129.9138617296743
 10
78.7111300801486
 20
-129.9138617296743
 10
78.7111300801486
 20
-130.1381374457641
 10
78.7111300801486
 20
-130.1381374457641
 97
        0
 97
        0
 75
     2
 76
     1
 98
        0
  0
SPLINE
  5
8E
330
88
100
AcDbEntity
  8
_U+30EC_U+30A4_U+30E4_U+30FC 1
370
     0
100
AcDbSpline
210
0.0
220
0.0
230
1.0
 70
    11
 71
     3
 72
    29
 73
    25
 74
     0
 42
0.0000000001
 43
0.0000000001
 12
1.0
 22
0.0
 32
0.0
 13
1.0
 23
0.0
 33
0.0
 40
0.0
 40
0.0
 40
0.0
 40
0.0
 40
1.0
 40
1.0
 40
1.0
 40
2.0
 40
2.0
 40
2.0
 40
3.0
 40
3.0
 40
3.0
 40
4.0
 40
4.0
 40
4.0
 40
5.0
 40
5.0
 40
5.0
 40
6.0
 40
6.0
 40
6.0
 40
7.0
 40
7.0
 40
7.0
 40
8.0
 40
8.0
 40
8.0
 40
8.0
 10
78.53353540788397
 20
-128.5149807078886
 30
0.0
 10
78.74282495861291
 20
-128.6228121965769
 30
0.0
 10
78.76194523855605
 20
-128.7962727542593
 30
0.0
 10
78.76194523855605
 20
-128.9127169816607
 30
0.0
 10
78.76194523855605
 20
-129.0736029408219
 30
0.0
 10
78.71543644950518
 20
-129.2151963652657
 30
0.0
 10
78.53353540788397
 20
-129.3102810006585
 30
0.0
 10
78.33888751296736
 20
-129.4139783747646
 30
0.0
 10
78.10186494358217
 20
-129.4329263999335
 30
0.0
 10
77.93908418190412
 20
-129.4329263999335
 30
0.0
 10
77.79507919062068
 20
-129.4329263999335
 30
0.0
 10
77.54341496542318
 20
-129.4160454320557
 30
0.0
 10
77.34446070115
 20
-129.3102810006585
 30
0.0
 10
77.14154457706879
 20
-129.2024495119702
 30
0.0
 10
77.11811792776909
 20
-129.0415635528091
 30
0.0
 10
77.11811792776909
 20
-128.9127169816607
 30
0.0
 10
77.11811792776909
 20
-128.754070334565
 30
0.0
 10
77.16255965952881
 20
-128.6102375980558
 30
0.0
 10
77.34446070115
 20
-128.5149807078886
 30
0.0
 10
77.53704153877547
 20
-128.4155897031392
 30
0.0
 10
77.76545136944753
 20
-128.3923353086137
 30
0.0
 10
77.93908418190412
 20
-128.3923353086137
 30
0.0
 10
78.11030542752104
 20
-128.3923353086137
 30
0.0
 10
78.34095457025852
 20
-128.4133503910737
 30
0.0
 10
78.53353540788397
 20
-128.5149807078886
 30
0.0
  0
SPLINE
  5
8F
330
88
100
AcDbEntity
  8
_U+30EC_U+30A4_U+30E4_U+30FC 1
370
     0
100
AcDbSpline
210
0.0
220
0.0
230
1.0
 70
    11
 71
     3
 72
    17
 73
    13
 74
     0
 42
0.0000000001
 43
0.0000000001
 12
1.0
 22
0.0
 32
0.0
 13
1.0
 23
0.0
 33
0.0
 40
0.0
 40
0.0
 40
0.0
 40
0.0
 40
1.0
 40
1.0
 40
1.0
 40
2.0
 40
2.0
 40
2.0
 40
3.0
 40
3.0
 40
3.0
 40
4.0
 40
4.0
 40
4.0
 40
4.0
 10
77.31069876539455
 20
-128.9127169816607
 30
0.0
 10
77.31069876539455
 20
-129.1621418947928
 30
0.0
 10
77.59423012383061
 20
-129.2089951933922
 30
0.0
 10
77.93908418190412
 20
-129.2089951933922
 30
0.0
 10
78.25844453338678
 20
-129.2089951933922
 30
0.0
 10
78.56729734363942
 20
-129.1728216907971
 30
0.0
 10
78.56729734363942
 20
-128.9127169816607
 30
0.0
 10
78.56729734363942
 20
-128.6651868710455
 30
0.0
 10
78.28600529726879
 20
-128.6164387699292
 30
0.0
 10
77.93908418190412
 20
-128.6164387699292
 30
0.0
 10
77.6195515756472
 20
-128.6164387699292
 30
0.0
 10
77.31069876539455
 20
-128.6546793298155
 30
0.0
 10
77.31069876539455
 20
-128.9127169816607
 30
0.0
  0
HATCH
  5
90
330
88
100
AcDbEntity
  8
_U+30EC_U+30A4_U+30E4_U+30FC 1
 62
   179
420
  2234388
100
AcDbHatch
 10
0.0
 20
0.0
 30
0.0
210
0.0
220
0.0
230
1.0
  2
SOLID
 70
     1
 71
     0
 91
        2
 92
        1
 93
        1
 72
     4
 94
        3
 73
     0
 74
     1
 95
       29
 96
       25
 40
0.0
 40
0.0
 40
0.0
 40
0.0
 40
1.0
 40
1.0
 40
1.0
 40
2.0
 40
2.0
 40
2.0
 40
3.0
 40
3.0
 40
3.0
 40
4.0
 40
4.0
 40
4.0
 40
5.0
 40
5.0
 40
5.0
 40
6.0
 40
6.0
 40
6.0
 40
7.0
 40
7.0
 40
7.0
 40
8.0
 40
8.0
 40
8.0
 40
8.0
 10
78.53353540788397
 20
-128.5149807078886
 10
78.74282495861291
 20
-128.6228121965769
 10
78.76194523855605
 20
-128.7962727542593
 10
78.76194523855605
 20
-128.9127169816607
 10
78.76194523855605
 20
-129.0736029408219
 10
78.71543644950518
 20
-129.2151963652657
 10
78.53353540788397
 20
-129.3102810006585
 10
78.33888751296736
 20
-129.4139783747646
 10
78.10186494358217
 20
-129.4329263999335
 10
77.93908418190412
 20
-129.4329263999335
 10
77.79507919062068
 20
-129.4329263999335
 10
77.54341496542318
 20
-129.4160454320557
 10
77.34446070115
 20
-129.3102810006585
 10
77.14154457706879
 20
-129.2024495119702
 10
77.11811792776909
 20
-129.0415635528091
 10
77.11811792776909
 20
-128.9127169816607
 10
77.11811792776909
 20
-128.754070334565
 10
77.16255965952881
 20
-128.6102375980558
 10
77.34446070115
 20
-128.5149807078886
 10
77.53704153877547
 20
-128.4155897031392
 10
77.76545136944753
 20
-128.3923353086137
 10
77.93908418190412
 20
-128.3923353086137
 10
78.11030542752104
 20
-128.3923353086137
 10
78.34095457025852
 20
-128.4133503910737
 10
78.53353540788397
 20
-128.5149807078886
 97
        0
 97
        0
 92
        1
 93
        1
 72
     4
 94
        3
 73
     0
 74
     1
 95
       17
 96
       13
 40
0.0
 40
0.0
 40
0.0
 40
0.0
 40
1.0
 40
1.0
 40
1.0
 40
2.0
 40
2.0
 40
2.0
 40
3.0
 40
3.0
 40
3.0
 40
4.0
 40
4.0
 40
4.0
 40
4.0
 10
77.31069876539455
 20
-128.9127169816607
 10
77.31069876539455
 20
-129.1621418947928
 10
77.59423012383061
 20
-129.2089951933922
 10
77.93908418190412
 20
-129.2089951933922
 10
78.25844453338678
 20
-129.2089951933922
 10
78.56729734363942
 20
-129.1728216907971
 10
78.56729734363942
 20
-128.9127169816607
 10
78.56729734363942
 20
-128.6651868710455
 10
78.28600529726879
 20
-128.6164387699292
 10
77.93908418190412
 20
-128.6164387699292
 10
77.6195515756472
 20
-128.6164387699292
 10
77.31069876539455
 20
-128.6546793298155
 10
77.31069876539455
 20
-128.9127169816607
 97
        0
 97
        0
 75
     2
 76
     1
 98
        0
  0
ENDBLK
  5
8B
330
88
100
AcDbEntity
  8
0
100
AcDbBlockEnd
  0
BLOCK
  5
C9
330
C7
100
AcDbEntity
  8
0
100
AcDbBlockBegin
  2
block 5
 70
     0
 10
0.0
 20
0.0
 30
0.0
  3
block 5
  1

  0
SPLINE
  5
CB
330
C7
100
AcDbEntity
  8
_U+30EC_U+30A4_U+30E4_U+30FC 1
370
     0
100
AcDbSpline
210
0.0
220
0.0
230
1.0
 70
    11
 71
     3
 72
    26
 73
    22
 74
     0
 42
0.0000000001
 43
0.0000000001
 12
1.0
 22
0.0
 32
0.0
 13
1.0
 23
0.0
 33
0.0
 40
0.0
 40
0.0
 40
0.0
 40
0.0
 40
1.0
 40
1.0
 40
1.0
 40
2.0
 40
2.0
 40
2.0
 40
3.0
 40
3.0
 40
3.0
 40
4.0
 40
4.0
 40
4.0
 40
5.0
 40
5.0
 40
5.0
 40
6.0
 40
6.0
 40
6.0
 40
7.0
 40
7.0
 40
7.0
 40
7.0
 10
104.7119547264262
 20
-138.3043917840003
 30
0.0
 10
104.7119547264262
 20
-138.3043917840003
 30
0.0
 10
103.6074571138551
 20
-138.3043917840003
 30
0.0
 10
103.6074571138551
 20
-138.3043917840003
 30
0.0
 10
103.6074571138551
 20
-138.3043917840003
 30
0.0
 10
103.6074571138551
 20
-138.6344319314872
 30
0.0
 10
103.6074571138551
 20
-138.6344319314872
 30
0.0
 10
103.6074571138551
 20
-138.6344319314872
 30
0.0
 10
103.4593180079893
 20
-138.6344319314872
 30
0.0
 10
103.4593180079893
 20
-138.6344319314872
 30
0.0
 10
103.4445040974028
 20
-138.3023247267091
 30
0.0
 10
103.281895590499
 20
-138.2558159376583
 30
0.0
 10
103.1675184203887
 20
-138.2261881164851
 30
0.0
 10
103.1675184203887
 20
-138.2261881164851
 30
0.0
 10
103.1675184203887
 20
-138.0801160679105
 30
0.0
 10
103.1675184203887
 20
-138.0801160679105
 30
0.0
 10
103.1675184203887
 20
-138.0801160679105
 30
0.0
 10
104.7119547264262
 20
-138.0801160679105
 30
0.0
 10
104.7119547264262
 20
-138.0801160679105
 30
0.0
 10
104.7119547264262
 20
-138.0801160679105
 30
0.0
 10
104.7119547264262
 20
-138.3043917840003
 30
0.0
 10
104.7119547264262
 20
-138.3043917840003
 30
0.0
  0
HATCH
  5
CC
330
C7
100
AcDbEntity
  8
_U+30EC_U+30A4_U+30E4_U+30FC 1
 62
   179
420
  2234388
100
AcDbHatch
 10
0.0
 20
0.0
 30
0.0
210
0.0
220
0.0
230
1.0
  2
SOLID
 70
     1
 71
     0
 91
        1
 92
        1
 93
        1
 72
     4
 94
        3
 73
     0
 74
     1
 95
       26
 96
       22
 40
0.0
 40
0.0
 40
0.0
 40
0.0
 40
1.0
 40
1.0
 40
1.0
 40
2.0
 40
2.0
 40
2.0
 40
3.0
 40
3.0
 40
3.0
 40
4.0
 40
4.0
 40
4.0
 40
5.0
 40
5.0
 40
5.0
 40
6.0
 40
6.0
 40
6.0
 40
7.0
 40
7.0
 40
7.0
 40
7.0
 10
104.7119547264262
 20
-138.3043917840003
 10
104.7119547264262
 20
-138.3043917840003
 10
103.6074571138551
 20
-138.3043917840003
 10
103.6074571138551
 20
-138.3043917840003
 10
103.6074571138551
 20
-138.3043917840003
 10
103.6074571138551
 20
-138.6344319314872
 10
103.6074571138551
 20
-138.6344319314872
 10
103.6074571138551
 20
-138.6344319314872
 10
103.4593180079893
 20
-138.6344319314872
 10
103.4593180079893
 20
-138.6344319314872
 10
103.4445040974028
 20
-138.3023247267091
 10
103.281895590499
 20
-138.2558159376583
 10
103.1675184203887
 20
-138.2261881164851
 10
103.1675184203887
 20
-138.2261881164851
 10
103.1675184203887
 20
-138.0801160679105
 10
103.1675184203887
 20
-138.0801160679105
 10
103.1675184203887
 20
-138.0801160679105
 10
104.7119547264262
 20
-138.0801160679105
 10
104.7119547264262
 20
-138.0801160679105
 10
104.7119547264262
 20
-138.0801160679105
 10
104.7119547264262
 20
-138.3043917840003
 10
104.7119547264262
 20
-138.3043917840003
 97
        0
 97
        0
 75
     2
 76
     1
 98
        0
  0
POLYLINE
  5
CD
330
C7
100
AcDbEntity
  8
_U+30EC_U+30A4_U+30E4_U+30FC 1
370
     0
100
AcDb2dPolyline
 66
     1
 10
0.0
 20
0.0
 30
0.0
  0
VERTEX
  5
CE
330
CD
100
AcDbEntity
  8
_U+30EC_U+30A4_U+30E4_U+30FC 1
370
     0
100
AcDbVertex
100
AcDb2dVertex
 10
104.7119547264262
 20
-137.5189100133633
 30
0.0
  0
VERTEX
  5
CF
330
CD
100
AcDbEntity
  8
_U+30EC_U+30A4_U+30E4_U+30FC 1
370
     0
100
AcDbVertex
100
AcDb2dVertex
 10
104.4601182464544
 20
-137.5189100133633
 30
0.0
  0
VERTEX
  5
D0
330
CD
100
AcDbEntity
  8
_U+30EC_U+30A4_U+30E4_U+30FC 1
370
     0
100
AcDbVertex
100
AcDb2dVertex
 10
104.4601182464544
 20
-137.2670735333916
 30
0.0
  0
VERTEX
  5
D1
330
CD
100
AcDbEntity
  8
_U+30EC_U+30A4_U+30E4_U+30FC 1
370
     0
100
AcDbVertex
100
AcDb2dVertex
 10
104.7119547264262
 20
-137.2670735333916
 30
0.0
  0
VERTEX
  5
D2
330
CD
100
AcDbEntity
  8
_U+30EC_U+30A4_U+30E4_U+30FC 1
370
     0
100
AcDbVertex
100
AcDb2dVertex
 10
104.7119547264262
 20
-137.5189100133633
 30
0.0
  0
SEQEND
  5
D3
330
CD
100
AcDbEntity
  8
_U+30EC_U+30A4_U+30E4_U+30FC 1
370
     0
  0
HATCH
  5
D4
330
C7
100
AcDbEntity
  8
_U+30EC_U+30A4_U+30E4_U+30FC 1
 62
   179
420
  2234388
100
AcDbHatch
 10
0.0
 20
0.0
 30
0.0
210
0.0
220
0.0
230
1.0
  2
SOLID
 70
     1
 71
     0
 91
        1
 92
        1
 93
        4
 72
     1
 10
104.7119547264262
 20
-137.5189100133633
 11
104.4601182464544
 21
-137.5189100133633
 72
     1
 10
104.4601182464544
 20
-137.5189100133633
 11
104.4601182464544
 21
-137.2670735333916
 72
     1
 10
104.4601182464544
 20
-137.2670735333916
 11
104.7119547264262
 21
-137.2670735333916
 72
     1
 10
104.7119547264262
 20
-137.2670735333916
 11
104.7119547264262
 21
-137.5189100133633
 97
        0
 75
     2
 76
     1
 98
        0
  0
SPLINE
  5
D5
330
C7
100
AcDbEntity
  8
_U+30EC_U+30A4_U+30E4_U+30FC 1
370
     0
100
AcDbSpline
210
0.0
220
0.0
230
1.0
 70
    11
 71
     3
 72
    29
 73
    25
 74
     0
 42
0.0000000001
 43
0.0000000001
 12
1.0
 22
0.0
 32
0.0
 13
1.0
 23
0.0
 33
0.0
 40
0.0
 40
0.0
 40
0.0
 40
0.0
 40
1.0
 40
1.0
 40
1.0
 40
2.0
 40
2.0
 40
2.0
 40
3.0
 40
3.0
 40
3.0
 40
4.0
 40
4.0
 40
4.0
 40
5.0
 40
5.0
 40
5.0
 40
6.0
 40
6.0
 40
6.0
 40
7.0
 40
7.0
 40
7.0
 40
8.0
 40
8.0
 40
8.0
 40
8.0
 10
104.7625976300594
 20
-136.5305121186452
 30
0.0
 10
104.7625976300594
 20
-136.7971625092035
 30
0.0
 10
104.6251383201979
 20
-137.0510660464664
 30
0.0
 10
104.2761501475421
 20
-137.0510660464664
 30
0.0
 10
104.020179552988
 20
-137.0510660464664
 30
0.0
 10
103.9247504080466
 20
-136.9091281124741
 30
0.0
 10
103.8634277084091
 20
-136.8033636810769
 30
0.0
 10
103.8041720660628
 20
-136.9284206471915
 30
0.0
 10
103.6901394055011
 20
-137.0045572574155
 30
0.0
 10
103.5292534463399
 20
-137.0045572574155
 30
0.0
 10
103.254334826617
 20
-137.0045572574155
 30
0.0
 10
103.1189425740467
 20
-136.8057752479166
 30
0.0
 10
103.1189425740467
 20
-136.5305121186452
 30
0.0
 10
103.1189425740467
 20
-136.2469807602091
 30
0.0
 10
103.2626030557816
 20
-136.0568114894233
 30
0.0
 10
103.5292534463399
 20
-136.0568114894233
 30
0.0
 10
103.6901394055011
 20
-136.0568114894233
 30
0.0
 10
103.8041720660628
 20
-136.1350151569385
 30
0.0
 10
103.8634277084091
 20
-136.2597276135045
 30
0.0
 10
103.9144151215908
 20
-136.1708441499851
 30
0.0
 10
104.0094997569837
 20
-136.0123697576636
 30
0.0
 10
104.2716715234113
 20
-136.0123697576636
 30
0.0
 10
104.6461534026579
 20
-136.0123697576636
 30
0.0
 10
104.7625976300594
 20
-136.2914224919688
 30
0.0
 10
104.7625976300594
 20
-136.5305121186452
 30
0.0
  0
SPLINE
  5
D6
330
C7
100
AcDbEntity
  8
_U+30EC_U+30A4_U+30E4_U+30FC 1
370
     0
100
AcDbSpline
210
0.0
220
0.0
230
1.0
 70
    11
 71
     3
 72
    17
 73
    13
 74
     0
 42
0.0000000001
 43
0.0000000001
 12
1.0
 22
0.0
 32
0.0
 13
1.0
 23
0.0
 33
0.0
 40
0.0
 40
0.0
 40
0.0
 40
0.0
 40
1.0
 40
1.0
 40
1.0
 40
2.0
 40
2.0
 40
2.0
 40
3.0
 40
3.0
 40
3.0
 40
4.0
 40
4.0
 40
4.0
 40
4.0
 10
103.3115234116721
 20
-136.5305121186452
 30
0.0
 10
103.3115234116721
 20
-136.6955321923886
 30
0.0
 10
103.406608047065
 20
-136.7802815413258
 30
0.0
 10
103.5420002996353
 20
-136.7802815413258
 30
0.0
 10
103.6646456989102
 20
-136.7802815413258
 30
0.0
 10
103.7831569836028
 20
-136.708279045684
 30
0.0
 10
103.7831569836028
 20
-136.5305121186452
 30
0.0
 10
103.7831569836028
 20
-136.3527451916063
 30
0.0
 10
103.6646456989102
 20
-136.2810872055131
 30
0.0
 10
103.5420002996353
 20
-136.2810872055131
 30
0.0
 10
103.406608047065
 20
-136.2810872055131
 30
0.0
 10
103.3115234116721
 20
-136.3675591021928
 30
0.0
 10
103.3115234116721
 20
-136.5305121186452
 30
0.0
  0
SPLINE
  5
D7
330
C7
100
AcDbEntity
  8
_U+30EC_U+30A4_U+30E4_U+30FC 1
370
     0
100
AcDbSpline
210
0.0
220
0.0
230
1.0
 70
    11
 71
     3
 72
    17
 73
    13
 74
     0
 42
0.0000000001
 43
0.0000000001
 12
1.0
 22
0.0
 32
0.0
 13
1.0
 23
0.0
 33
0.0
 40
0.0
 40
0.0
 40
0.0
 40
0.0
 40
1.0
 40
1.0
 40
1.0
 40
2.0
 40
2.0
 40
2.0
 40
3.0
 40
3.0
 40
3.0
 40
4.0
 40
4.0
 40
4.0
 40
4.0
 10
103.9712591970975
 20
-136.5305121186452
 30
0.0
 10
103.9712591970975
 20
-136.6745171099286
 30
0.0
 10
104.0580756033258
 20
-136.8267903303766
 30
0.0
 10
104.2613362369555
 20
-136.8267903303766
 30
0.0
 10
104.4663194183279
 20
-136.8267903303766
 30
0.0
 10
104.5679497351427
 20
-136.7000108165194
 30
0.0
 10
104.5679497351427
 20
-136.5305121186452
 30
0.0
 10
104.5679497351427
 20
-136.3444769624417
 30
0.0
 10
104.4453043358678
 20
-136.2345784164622
 30
0.0
 10
104.267537408829
 20
-136.2345784164622
 30
0.0
 10
104.0453287500303
 20
-136.2345784164622
 30
0.0
 10
103.9712591970975
 20
-136.397186923366
 30
0.0
 10
103.9712591970975
 20
-136.5305121186452
 30
0.0
  0
HATCH
  5
D8
330
C7
100
AcDbEntity
  8
_U+30EC_U+30A4_U+30E4_U+30FC 1
 62
   179
420
  2234388
100
AcDbHatch
 10
0.0
 20
0.0
 30
0.0
210
0.0
220
0.0
230
1.0
  2
SOLID
 70
     1
 71
     0
 91
        3
 92
        1
 93
        1
 72
     4
 94
        3
 73
     0
 74
     1
 95
       29
 96
       25
 40
0.0
 40
0.0
 40
0.0
 40
0.0
 40
1.0
 40
1.0
 40
1.0
 40
2.0
 40
2.0
 40
2.0
 40
3.0
 40
3.0
 40
3.0
 40
4.0
 40
4.0
 40
4.0
 40
5.0
 40
5.0
 40
5.0
 40
6.0
 40
6.0
 40
6.0
 40
7.0
 40
7.0
 40
7.0
 40
8.0
 40
8.0
 40
8.0
 40
8.0
 10
104.7625976300594
 20
-136.5305121186452
 10
104.7625976300594
 20
-136.7971625092035
 10
104.6251383201979
 20
-137.0510660464664
 10
104.2761501475421
 20
-137.0510660464664
 10
104.020179552988
 20
-137.0510660464664
 10
103.9247504080466
 20
-136.9091281124741
 10
103.8634277084091
 20
-136.8033636810769
 10
103.8041720660628
 20
-136.9284206471915
 10
103.6901394055011
 20
-137.0045572574155
 10
103.5292534463399
 20
-137.0045572574155
 10
103.254334826617
 20
-137.0045572574155
 10
103.1189425740467
 20
-136.8057752479166
 10
103.1189425740467
 20
-136.5305121186452
 10
103.1189425740467
 20
-136.2469807602091
 10
103.2626030557816
 20
-136.0568114894233
 10
103.5292534463399
 20
-136.0568114894233
 10
103.6901394055011
 20
-136.0568114894233
 10
103.8041720660628
 20
-136.1350151569385
 10
103.8634277084091
 20
-136.2597276135045
 10
103.9144151215908
 20
-136.1708441499851
 10
104.0094997569837
 20
-136.0123697576636
 10
104.2716715234113
 20
-136.0123697576636
 10
104.6461534026579
 20
-136.0123697576636
 10
104.7625976300594
 20
-136.2914224919688
 10
104.7625976300594
 20
-136.5305121186452
 97
        0
 97
        0
 92
        1
 93
        1
 72
     4
 94
        3
 73
     0
 74
     1
 95
       17
 96
       13
 40
0.0
 40
0.0
 40
0.0
 40
0.0
 40
1.0
 40
1.0
 40
1.0
 40
2.0
 40
2.0
 40
2.0
 40
3.0
 40
3.0
 40
3.0
 40
4.0
 40
4.0
 40
4.0
 40
4.0
 10
103.3115234116721
 20
-136.5305121186452
 10
103.3115234116721
 20
-136.6955321923886
 10
103.406608047065
 20
-136.7802815413258
 10
103.5420002996353
 20
-136.7802815413258
 10
103.6646456989102
 20
-136.7802815413258
 10
103.7831569836028
 20
-136.708279045684
 10
103.7831569836028
 20
-136.5305121186452
 10
103.7831569836028
 20
-136.3527451916063
 10
103.6646456989102
 20
-136.2810872055131
 10
103.5420002996353
 20
-136.2810872055131
 10
103.406608047065
 20
-136.2810872055131
 10
103.3115234116721
 20
-136.3675591021928
 10
103.3115234116721
 20
-136.5305121186452
 97
        0
 97
        0
 92
        1
 93
        1
 72
     4
 94
        3
 73
     0
 74
     1
 95
       17
 96
       13
 40
0.0
 40
0.0
 40
0.0
 40
0.0
 40
1.0
 40
1.0
 40
1.0
 40
2.0
 40
2.0
 40
2.0
 40
3.0
 40
3.0
 40
3.0
 40
4.0
 40
4.0
 40
4.0
 40
4.0
 10
103.9712591970975
 20
-136.5305121186452
 10
103.9712591970975
 20
-136.6745171099286
 10
104.0580756033258
 20
-136.8267903303766
 10
104.2613362369555
 20
-136.8267903303766
 10
104.4663194183279
 20
-136.8267903303766
 10
104.5679497351427
 20
-136.7000108165194
 10
104.5679497351427
 20
-136.5305121186452
 10
104.5679497351427
 20
-136.3444769624417
 10
104.4453043358678
 20
-136.2345784164622
 10
104.267537408829
 20
-136.2345784164622
 10
104.0453287500303
 20
-136.2345784164622
 10
103.9712591970975
 20
-136.397186923366
 10
103.9712591970975
 20
-136.5305121186452
 97
        0
 97
        0
 75
     2
 76
     1
 98
        0
  0
ENDBLK
  5
CA
330
C7
100
AcDbEntity
  8
0
100
AcDbBlockEnd
  0
BLOCK
  5
DB
330
D9
100
AcDbEntity
  8
0
100
AcDbBlockBegin
  2
block 6
 70
     0
 10
0.0
 20
0.0
 30
0.0
  3
block 6
  1

  0
SPLINE
  5
DD
330
D9
100
AcDbEntity
  8
_U+30EC_U+30A4_U+30E4_U+30FC 1
370
     0
100
AcDbSpline
210
0.0
220
0.0
230
1.0
 70
    11
 71
     3
 72
    29
 73
    25
 74
     0
 42
0.0000000001
 43
0.0000000001
 12
1.0
 22
0.0
 32
0.0
 13
1.0
 23
0.0
 33
0.0
 40
0.0
 40
0.0
 40
0.0
 40
0.0
 40
1.0
 40
1.0
 40
1.0
 40
2.0
 40
2.0
 40
2.0
 40
3.0
 40
3.0
 40
3.0
 40
4.0
 40
4.0
 40
4.0
 40
5.0
 40
5.0
 40
5.0
 40
6.0
 40
6.0
 40
6.0
 40
7.0
 40
7.0
 40
7.0
 40
8.0
 40
8.0
 40
8.0
 40
8.0
 10
104.7625976300594
 20
-129.4653102974948
 30
0.0
 10
104.7625976300594
 20
-129.7316161785046
 30
0.0
 10
104.6251383201979
 20
-129.9855197157675
 30
0.0
 10
104.2761501475421
 20
-129.9855197157675
 30
0.0
 10
104.020179552988
 20
-129.9855197157675
 30
0.0
 10
103.9247504080466
 20
-129.8439262913238
 30
0.0
 10
103.8634277084091
 20
-129.7381618599266
 30
0.0
 10
103.8041720660628
 20
-129.8628743164926
 30
0.0
 10
103.6901394055011
 20
-129.9390109267166
 30
0.0
 10
103.5292534463399
 20
-129.9390109267166
 30
0.0
 10
103.254334826617
 20
-129.9390109267166
 30
0.0
 10
103.1189425740467
 20
-129.7402289172177
 30
0.0
 10
103.1189425740467
 20
-129.4653102974948
 30
0.0
 10
103.1189425740467
 20
-129.1817789390587
 30
0.0
 10
103.2626030557816
 20
-128.9912651587244
 30
0.0
 10
103.5292534463399
 20
-128.9912651587244
 30
0.0
 10
103.6901394055011
 20
-128.9912651587244
 30
0.0
 10
103.8041720660628
 20
-129.0694688262396
 30
0.0
 10
103.8634277084091
 20
-129.1945257923541
 30
0.0
 10
103.9144151215908
 20
-129.1056423288347
 30
0.0
 10
104.0094997569837
 20
-128.9468234269647
 30
0.0
 10
104.2716715234113
 20
-128.9468234269647
 30
0.0
 10
104.6461534026579
 20
-128.9468234269647
 30
0.0
 10
104.7625976300594
 20
-129.2262206708185
 30
0.0
 10
104.7625976300594
 20
-129.4653102974948
 30
0.0
  0
SPLINE
  5
DE
330
D9
100
AcDbEntity
  8
_U+30EC_U+30A4_U+30E4_U+30FC 1
370
     0
100
AcDbSpline
210
0.0
220
0.0
230
1.0
 70
    11
 71
     3
 72
    17
 73
    13
 74
     0
 42
0.0000000001
 43
0.0000000001
 12
1.0
 22
0.0
 32
0.0
 13
1.0
 23
0.0
 33
0.0
 40
0.0
 40
0.0
 40
0.0
 40
0.0
 40
1.0
 40
1.0
 40
1.0
 40
2.0
 40
2.0
 40
2.0
 40
3.0
 40
3.0
 40
3.0
 40
4.0
 40
4.0
 40
4.0
 40
4.0
 10
103.3115234116721
 20
-129.4653102974948
 30
0.0
 10
103.3115234116721
 20
-129.6303303712382
 30
0.0
 10
103.406608047065
 20
-129.7147352106269
 30
0.0
 10
103.5420002996353
 20
-129.7147352106269
 30
0.0
 10
103.6646456989102
 20
-129.7147352106269
 30
0.0
 10
103.7831569836028
 20
-129.6427327149852
 30
0.0
 10
103.7831569836028
 20
-129.4653102974948
 30
0.0
 10
103.7831569836028
 20
-129.2875433704559
 30
0.0
 10
103.6646456989102
 20
-129.2155408748142
 30
0.0
 10
103.5420002996353
 20
-129.2155408748142
 30
0.0
 10
103.406608047065
 20
-129.2155408748142
 30
0.0
 10
103.3115234116721
 20
-129.3023572810425
 30
0.0
 10
103.3115234116721
 20
-129.4653102974948
 30
0.0
  0
SPLINE
  5
DF
330
D9
100
AcDbEntity
  8
_U+30EC_U+30A4_U+30E4_U+30FC 1
370
     0
100
AcDbSpline
210
0.0
220
0.0
230
1.0
 70
    11
 71
     3
 72
    17
 73
    13
 74
     0
 42
0.0000000001
 43
0.0000000001
 12
1.0
 22
0.0
 32
0.0
 13
1.0
 23
0.0
 33
0.0
 40
0.0
 40
0.0
 40
0.0
 40
0.0
 40
1.0
 40
1.0
 40
1.0
 40
2.0
 40
2.0
 40
2.0
 40
3.0
 40
3.0
 40
3.0
 40
4.0
 40
4.0
 40
4.0
 40
4.0
 10
103.9712591970975
 20
-129.4653102974948
 30
0.0
 10
103.9712591970975
 20
-129.6089707792297
 30
0.0
 10
104.0580756033258
 20
-129.7612439996778
 30
0.0
 10
104.2613362369555
 20
-129.7612439996778
 30
0.0
 10
104.4663194183279
 20
-129.7612439996778
 30
0.0
 10
104.5679497351427
 20
-129.6344644858206
 30
0.0
 10
104.5679497351427
 20
-129.4653102974948
 30
0.0
 10
104.5679497351427
 20
-129.2789306317428
 30
0.0
 10
104.4453043358678
 20
-129.1690320857633
 30
0.0
 10
104.267537408829
 20
-129.1690320857633
 30
0.0
 10
104.0453287500303
 20
-129.1690320857633
 30
0.0
 10
103.9712591970975
 20
-129.3319851022156
 30
0.0
 10
103.9712591970975
 20
-129.4653102974948
 30
0.0
  0
HATCH
  5
E0
330
D9
100
AcDbEntity
  8
_U+30EC_U+30A4_U+30E4_U+30FC 1
 62
   179
420
  2234388
100
AcDbHatch
 10
0.0
 20
0.0
 30
0.0
210
0.0
220
0.0
230
1.0
  2
SOLID
 70
     1
 71
     0
 91
        3
 92
        1
 93
        1
 72
     4
 94
        3
 73
     0
 74
     1
 95
       29
 96
       25
 40
0.0
 40
0.0
 40
0.0
 40
0.0
 40
1.0
 40
1.0
 40
1.0
 40
2.0
 40
2.0
 40
2.0
 40
3.0
 40
3.0
 40
3.0
 40
4.0
 40
4.0
 40
4.0
 40
5.0
 40
5.0
 40
5.0
 40
6.0
 40
6.0
 40
6.0
 40
7.0
 40
7.0
 40
7.0
 40
8.0
 40
8.0
 40
8.0
 40
8.0
 10
104.7625976300594
 20
-129.4653102974948
 10
104.7625976300594
 20
-129.7316161785046
 10
104.6251383201979
 20
-129.9855197157675
 10
104.2761501475421
 20
-129.9855197157675
 10
104.020179552988
 20
-129.9855197157675
 10
103.9247504080466
 20
-129.8439262913238
 10
103.8634277084091
 20
-129.7381618599266
 10
103.8041720660628
 20
-129.8628743164926
 10
103.6901394055011
 20
-129.9390109267166
 10
103.5292534463399
 20
-129.9390109267166
 10
103.254334826617
 20
-129.9390109267166
 10
103.1189425740467
 20
-129.7402289172177
 10
103.1189425740467
 20
-129.4653102974948
 10
103.1189425740467
 20
-129.1817789390587
 10
103.2626030557816
 20
-128.9912651587244
 10
103.5292534463399
 20
-128.9912651587244
 10
103.6901394055011
 20
-128.9912651587244
 10
103.8041720660628
 20
-129.0694688262396
 10
103.8634277084091
 20
-129.1945257923541
 10
103.9144151215908
 20
-129.1056423288347
 10
104.0094997569837
 20
-128.9468234269647
 10
104.2716715234113
 20
-128.9468234269647
 10
104.6461534026579
 20
-128.9468234269647
 10
104.7625976300594
 20
-129.2262206708185
 10
104.7625976300594
 20
-129.4653102974948
 97
        0
 97
        0
 92
        1
 93
        1
 72
     4
 94
        3
 73
     0
 74
     1
 95
       17
 96
       13
 40
0.0
 40
0.0
 40
0.0
 40
0.0
 40
1.0
 40
1.0
 40
1.0
 40
2.0
 40
2.0
 40
2.0
 40
3.0
 40
3.0
 40
3.0
 40
4.0
 40
4.0
 40
4.0
 40
4.0
 10
103.3115234116721
 20
-129.4653102974948
 10
103.3115234116721
 20
-129.6303303712382
 10
103.406608047065
 20
-129.7147352106269
 10
103.5420002996353
 20
-129.7147352106269
 10
103.6646456989102
 20
-129.7147352106269
 10
103.7831569836028
 20
-129.6427327149852
 10
103.7831569836028
 20
-129.4653102974948
 10
103.7831569836028
 20
-129.2875433704559
 10
103.6646456989102
 20
-129.2155408748142
 10
103.5420002996353
 20
-129.2155408748142
 10
103.406608047065
 20
-129.2155408748142
 10
103.3115234116721
 20
-129.3023572810425
 10
103.3115234116721
 20
-129.4653102974948
 97
        0
 97
        0
 92
        1
 93
        1
 72
     4
 94
        3
 73
     0
 74
     1
 95
       17
 96
       13
 40
0.0
 40
0.0
 40
0.0
 40
0.0
 40
1.0
 40
1.0
 40
1.0
 40
2.0
 40
2.0
 40
2.0
 40
3.0
 40
3.0
 40
3.0
 40
4.0
 40
4.0
 40
4.0
 40
4.0
 10
103.9712591970975
 20
-129.4653102974948
 10
103.9712591970975
 20
-129.6089707792297
 10
104.0580756033258
 20
-129.7612439996778
 10
104.2613362369555
 20
-129.7612439996778
 10
104.4663194183279
 20
-129.7612439996778
 10
104.5679497351427
 20
-129.6344644858206
 10
104.5679497351427
 20
-129.4653102974948
 10
104.5679497351427
 20
-129.2789306317428
 10
104.4453043358678
 20
-129.1690320857633
 10
104.267537408829
 20
-129.1690320857633
 10
104.0453287500303
 20
-129.1690320857633
 10
103.9712591970975
 20
-129.3319851022156
 10
103.9712591970975
 20
-129.4653102974948
 97
        0
 97
        0
 75
     2
 76
     1
 98
        0
  0
POLYLINE
  5
E1
330
D9
100
AcDbEntity
  8
_U+30EC_U+30A4_U+30E4_U+30FC 1
370
     0
100
AcDb2dPolyline
 66
     1
 10
0.0
 20
0.0
 30
0.0
  0
VERTEX
  5
E2
330
E1
100
AcDbEntity
  8
_U+30EC_U+30A4_U+30E4_U+30FC 1
370
     0
100
AcDbVertex
100
AcDb2dVertex
 10
104.7119547264262
 20
-128.7284043731999
 30
0.0
  0
VERTEX
  5
E3
330
E1
100
AcDbEntity
  8
_U+30EC_U+30A4_U+30E4_U+30FC 1
370
     0
100
AcDbVertex
100
AcDb2dVertex
 10
104.4601182464544
 20
-128.7284043731999
 30
0.0
  0
VERTEX
  5
E4
330
E1
100
AcDbEntity
  8
_U+30EC_U+30A4_U+30E4_U+30FC 1
370
     0
100
AcDbVertex
100
AcDb2dVertex
 10
104.4601182464544
 20
-128.4765678932281
 30
0.0
  0
VERTEX
  5
E5
330
E1
100
AcDbEntity
  8
_U+30EC_U+30A4_U+30E4_U+30FC 1
370
     0
100
AcDbVertex
100
AcDb2dVertex
 10
104.7119547264262
 20
-128.4765678932281
 30
0.0
  0
VERTEX
  5
E6
330
E1
100
AcDbEntity
  8
_U+30EC_U+30A4_U+30E4_U+30FC 1
370
     0
100
AcDbVertex
100
AcDb2dVertex
 10
104.7119547264262
 20
-128.7284043731999
 30
0.0
  0
SEQEND
  5
E7
330
E1
100
AcDbEntity
  8
_U+30EC_U+30A4_U+30E4_U+30FC 1
370
     0
  0
HATCH
  5
E8
330
D9
100
AcDbEntity
  8
_U+30EC_U+30A4_U+30E4_U+30FC 1
 62
   179
420
  2234388
100
AcDbHatch
 10
0.0
 20
0.0
 30
0.0
210
0.0
220
0.0
230
1.0
  2
SOLID
 70
     1
 71
     0
 91
        1
 92
        1
 93
        4
 72
     1
 10
104.7119547264262
 20
-128.7284043731999
 11
104.4601182464544
 21
-128.7284043731999
 72
     1
 10
104.4601182464544
 20
-128.7284043731999
 11
104.4601182464544
 21
-128.4765678932281
 72
     1
 10
104.4601182464544
 20
-128.4765678932281
 11
104.7119547264262
 21
-128.4765678932281
 72
     1
 10
104.7119547264262
 20
-128.4765678932281
 11
104.7119547264262
 21
-128.7284043731999
 97
        0
 75
     2
 76
     1
 98
        0
  0
SPLINE
  5
E9
330
D9
100
AcDbEntity
  8
_U+30EC_U+30A4_U+30E4_U+30FC 1
370
     0
100
AcDbSpline
210
0.0
220
0.0
230
1.0
 70
    11
 71
     3
 72
    44
 73
    40
 74
     0
 42
0.0000000001
 43
0.0000000001
 12
1.0
 22
0.0
 32
0.0
 13
1.0
 23
0.0
 33
0.0
 40
0.0
 40
0.0
 40
0.0
 40
0.0
 40
1.0
 40
1.0
 40
1.0
 40
2.0
 40
2.0
 40
2.0
 40
3.0
 40
3.0
 40
3.0
 40
4.0
 40
4.0
 40
4.0
 40
5.0
 40
5.0
 40
5.0
 40
6.0
 40
6.0
 40
6.0
 40
7.0
 40
7.0
 40
7.0
 40
8.0
 40
8.0
 40
8.0
 40
9.0
 40
9.0
 40
9.0
 40
10.0
 40
10.0
 40
10.0
 40
11.0
 40
11.0
 40
11.0
 40
12.0
 40
12.0
 40
12.0
 40
13.0
 40
13.0
 40
13.0
 40
13.0
 10
104.1300780989675
 20
-127.6469889003799
 30
0.0
 10
104.288552491289
 20
-127.864891189822
 30
0.0
 10
104.3626220442219
 20
-127.958081022698
 30
0.0
 10
104.5066270355053
 20
-128.00665686904
 30
0.0
 10
104.5066270355053
 20
-128.00665686904
 30
0.0
 10
104.5066270355053
 20
-127.2282375441478
 30
0.0
 10
104.5066270355053
 20
-127.2282375441478
 30
0.0
 10
104.5066270355053
 20
-127.2282375441478
 30
0.0
 10
104.7119547264262
 20
-127.2282375441478
 30
0.0
 10
104.7119547264262
 20
-127.2282375441478
 30
0.0
 10
104.7119547264262
 20
-127.2282375441478
 30
0.0
 10
104.7119547264262
 20
-128.2562540369464
 30
0.0
 10
104.7119547264262
 20
-128.2562540369464
 30
0.0
 10
104.3543538150573
 20
-128.2245591584821
 30
0.0
 10
104.2761501475421
 20
-128.1589300894881
 30
0.0
 10
103.9778048785194
 20
-127.7739406690114
 30
0.0
 10
103.7790228690205
 20
-127.5179700744573
 30
0.0
 10
103.7111544879611
 20
-127.4523410054633
 30
0.0
 10
103.5736951780996
 20
-127.4523410054633
 30
0.0
 10
103.455183893407
 20
-127.4523410054633
 30
0.0
 10
103.323925755419
 20
-127.524343501105
 30
0.0
 10
103.323925755419
 20
-127.7210584533128
 30
0.0
 10
103.323925755419
 20
-127.9813354172234
 30
0.0
 10
103.5547471529308
 20
-127.9897759011623
 30
0.0
 10
103.6708468707837
 20
-127.9939100157446
 30
0.0
 10
103.6708468707837
 20
-127.9939100157446
 30
0.0
 10
103.6708468707837
 20
-128.2181857318344
 30
0.0
 10
103.6708468707837
 20
-128.2181857318344
 30
0.0
 10
103.5440673569265
 20
-128.2097452478955
 30
0.0
 10
103.4321017536559
 20
-128.1992377066655
 30
0.0
 10
103.3135904689633
 20
-128.1187947270849
 30
0.0
 10
103.1527045098021
 20
-128.0087239263312
 30
0.0
 10
103.1189425740467
 20
-127.8226887701277
 30
0.0
 10
103.1189425740467
 20
-127.7062445427262
 30
0.0
 10
103.1189425740467
 20
-127.4290866109379
 30
0.0
 10
103.302910672959
 20
-127.2218641175001
 30
0.0
 10
103.5757622353908
 20
-127.2218641175001
 30
0.0
 10
103.8041720660628
 20
-127.2218641175001
 30
0.0
 10
103.9037353255866
 20
-127.3381360901273
 30
0.0
 10
104.1300780989675
 20
-127.6469889003799
 30
0.0
  0
HATCH
  5
EA
330
D9
100
AcDbEntity
  8
_U+30EC_U+30A4_U+30E4_U+30FC 1
 62
   179
420
  2234388
100
AcDbHatch
 10
0.0
 20
0.0
 30
0.0
210
0.0
220
0.0
230
1.0
  2
SOLID
 70
     1
 71
     0
 91
        1
 92
        1
 93
        1
 72
     4
 94
        3
 73
     0
 74
     1
 95
       44
 96
       40
 40
0.0
 40
0.0
 40
0.0
 40
0.0
 40
1.0
 40
1.0
 40
1.0
 40
2.0
 40
2.0
 40
2.0
 40
3.0
 40
3.0
 40
3.0
 40
4.0
 40
4.0
 40
4.0
 40
5.0
 40
5.0
 40
5.0
 40
6.0
 40
6.0
 40
6.0
 40
7.0
 40
7.0
 40
7.0
 40
8.0
 40
8.0
 40
8.0
 40
9.0
 40
9.0
 40
9.0
 40
10.0
 40
10.0
 40
10.0
 40
11.0
 40
11.0
 40
11.0
 40
12.0
 40
12.0
 40
12.0
 40
13.0
 40
13.0
 40
13.0
 40
13.0
 10
104.1300780989675
 20
-127.6469889003799
 10
104.288552491289
 20
-127.864891189822
 10
104.3626220442219
 20
-127.958081022698
 10
104.5066270355053
 20
-128.00665686904
 10
104.5066270355053
 20
-128.00665686904
 10
104.5066270355053
 20
-127.2282375441478
 10
104.5066270355053
 20
-127.2282375441478
 10
104.5066270355053
 20
-127.2282375441478
 10
104.7119547264262
 20
-127.2282375441478
 10
104.7119547264262
 20
-127.2282375441478
 10
104.7119547264262
 20
-127.2282375441478
 10
104.7119547264262
 20
-128.2562540369464
 10
104.7119547264262
 20
-128.2562540369464
 10
104.3543538150573
 20
-128.2245591584821
 10
104.2761501475421
 20
-128.1589300894881
 10
103.9778048785194
 20
-127.7739406690114
 10
103.7790228690205
 20
-127.5179700744573
 10
103.7111544879611
 20
-127.4523410054633
 10
103.5736951780996
 20
-127.4523410054633
 10
103.455183893407
 20
-127.4523410054633
 10
103.323925755419
 20
-127.524343501105
 10
103.323925755419
 20
-127.7210584533128
 10
103.323925755419
 20
-127.9813354172234
 10
103.5547471529308
 20
-127.9897759011623
 10
103.6708468707837
 20
-127.9939100157446
 10
103.6708468707837
 20
-127.9939100157446
 10
103.6708468707837
 20
-128.2181857318344
 10
103.6708468707837
 20
-128.2181857318344
 10
103.5440673569265
 20
-128.2097452478955
 10
103.4321017536559
 20
-128.1992377066655
 10
103.3135904689633
 20
-128.1187947270849
 10
103.1527045098021
 20
-128.0087239263312
 10
103.1189425740467
 20
-127.8226887701277
 10
103.1189425740467
 20
-127.7062445427262
 10
103.1189425740467
 20
-127.4290866109379
 10
103.302910672959
 20
-127.2218641175001
 10
103.5757622353908
 20
-127.2218641175001
 10
103.8041720660628
 20
-127.2218641175001
 10
103.9037353255866
 20
-127.3381360901273
 10
104.1300780989675
 20
-127.6469889003799
 97
        0
 97
        0
 75
     2
 76
     1
 98
        0
  0
ENDBLK
  5
DC
330
D9
100
AcDbEntity
  8
0
100
AcDbBlockEnd
  0
ENDSEC
  0
SECTION
  2
ENTITIES
  0
POLYLINE
  5
41
330
1F
100
AcDbEntity
  8
_U+30EC_U+30A4_U+30E4_U+30FC 1
 62
   179
420
  2234388
370
     9
100
AcDb2dPolyline
 66
     1
 10
0.0
 20
0.0
 30
0.0
  0
VERTEX
  5
42
330
41
100
AcDbEntity
  8
_U+30EC_U+30A4_U+30E4_U+30FC 1
 62
   179
420
  2234388
370
     9
100
AcDbVertex
100
AcDb2dVertex
 10
84.88422255664528
 20
-132.7002538557138
 30
0.0
  0
VERTEX
  5
43
330
41
100
AcDbEntity
  8
_U+30EC_U+30A4_U+30E4_U+30FC 1
 62
   179
420
  2234388
370
     9
100
AcDbVertex
100
AcDb2dVertex
 10
93.18430734489249
 20
-132.7002538557138
 30
0.0
  0
SEQEND
  5
44
330
41
100
AcDbEntity
  8
_U+30EC_U+30A4_U+30E4_U+30FC 1
 62
   179
420
  2234388
370
     9
  0
POLYLINE
  5
45
330
1F
100
AcDbEntity
  8
_U+30EC_U+30A4_U+30E4_U+30FC 1
 62
   179
420
  2234388
370
    25
100
AcDb2dPolyline
 66
     1
 10
0.0
 20
0.0
 30
0.0
  0
VERTEX
  5
46
330
45
100
AcDbEntity
  8
_U+30EC_U+30A4_U+30E4_U+30FC 1
 62
   179
420
  2234388
370
    25
100
AcDbVertex
100
AcDb2dVertex
 10
86.08380808159687
 20
-124.5002519133194
 30
0.0
  0
VERTEX
  5
47
330
45
100
AcDbEntity
  8
_U+30EC_U+30A4_U+30E4_U+30FC 1
 62
   179
420
  2234388
370
    25
100
AcDbVertex
100
AcDb2dVertex
 10
86.08380808159687
 20
-128.5006813567636
 30
0.0
  0
SEQEND
  5
48
330
45
100
AcDbEntity
  8
_U+30EC_U+30A4_U+30E4_U+30FC 1
 62
   179
420
  2234388
370
    25
  0
POLYLINE
  5
49
330
1F
100
AcDbEntity
  8
_U+30EC_U+30A4_U+30E4_U+30FC 1
 62
   179
420
  2234388
370
    25
100
AcDb2dPolyline
 66
     1
 10
0.0
 20
0.0
 30
0.0
  0
VERTEX
  5
4A
330
49
100
AcDbEntity
  8
_U+30EC_U+30A4_U+30E4_U+30FC 1
 62
   179
420
  2234388
370
    25
100
AcDbVertex
100
AcDb2dVertex
 10
83.08382121368847
 20
-124.5002519133194
 30
0.0
  0
VERTEX
  5
4B
330
49
100
AcDbEntity
  8
_U+30EC_U+30A4_U+30E4_U+30FC 1
 62
   179
420
  2234388
370
    25
100
AcDbVertex
100
AcDb2dVertex
 10
83.08382121368847
 20
-134.5006552441523
 30
0.0
  0
SEQEND
  5
4C
330
49
100
AcDbEntity
  8
_U+30EC_U+30A4_U+30E4_U+30FC 1
 62
   179
420
  2234388
370
    25
  0
POLYLINE
  5
4D
330
1F
100
AcDbEntity
  8
_U+30EC_U+30A4_U+30E4_U+30FC 1
 62
   179
420
  2234388
370
     9
100
AcDb2dPolyline
 66
     1
 10
0.0
 20
0.0
 30
0.0
  0
VERTEX
  5
4E
330
4D
100
AcDbEntity
  8
_U+30EC_U+30A4_U+30E4_U+30FC 1
 62
   179
420
  2234388
370
     9
100
AcDbVertex
100
AcDb2dVertex
 10
84.88422255664528
 20
-126.5004666350415
 30
0.0
  0
VERTEX
  5
4F
330
4D
100
AcDbEntity
  8
_U+30EC_U+30A4_U+30E4_U+30FC 1
 62
   179
420
  2234388
370
     9
100
AcDbVertex
100
AcDb2dVertex
 10
84.88422255664528
 20
-132.7002538557138
 30
0.0
  0
SEQEND
  5
50
330
4D
100
AcDbEntity
  8
_U+30EC_U+30A4_U+30E4_U+30FC 1
 62
   179
420
  2234388
370
     9
  0
POLYLINE
  5
51
330
1F
100
AcDbEntity
  8
_U+30EC_U+30A4_U+30E4_U+30FC 1
 62
   179
420
  2234388
370
    25
100
AcDb2dPolyline
 66
     1
 10
0.0
 20
0.0
 30
0.0
  0
VERTEX
  5
52
330
51
100
AcDbEntity
  8
_U+30EC_U+30A4_U+30E4_U+30FC 1
 62
   179
420
  2234388
370
    25
100
AcDbVertex
100
AcDb2dVertex
 10
83.08382121368847
 20
-124.5002519133194
 30
0.0
  0
VERTEX
  5
53
330
51
100
AcDbEntity
  8
_U+30EC_U+30A4_U+30E4_U+30FC 1
 62
   179
420
  2234388
370
    25
100
AcDbVertex
100
AcDb2dVertex
 10
86.08380808159687
 20
-124.5002519133194
 30
0.0
  0
SEQEND
  5
54
330
51
100
AcDbEntity
  8
_U+30EC_U+30A4_U+30E4_U+30FC 1
 62
   179
420
  2234388
370
    25
  0
POLYLINE
  5
55
330
1F
100
AcDbEntity
  8
_U+30EC_U+30A4_U+30E4_U+30FC 1
 62
   179
420
  2234388
370
     9
100
AcDb2dPolyline
 66
     1
 10
0.0
 20
0.0
 30
0.0
  0
VERTEX
  5
56
330
55
100
AcDbEntity
  8
_U+30EC_U+30A4_U+30E4_U+30FC 1
 62
   179
420
  2234388
370
     9
100
AcDbVertex
100
AcDb2dVertex
 10
84.88422255664528
 20
-128.5006813567636
 30
0.0
  0
VERTEX
  5
57
330
55
100
AcDbEntity
  8
_U+30EC_U+30A4_U+30E4_U+30FC 1
 62
   179
420
  2234388
370
     9
100
AcDbVertex
100
AcDb2dVertex
 10
86.08380808159687
 20
-128.5006813567636
 30
0.0
  0
SEQEND
  5
58
330
55
100
AcDbEntity
  8
_U+30EC_U+30A4_U+30E4_U+30FC 1
 62
   179
420
  2234388
370
     9
  0
SPLINE
  5
59
330
1F
100
AcDbEntity
  8
_U+30EC_U+30A4_U+30E4_U+30FC 1
 62
   179
420
  2234388
370
     9
100
AcDbSpline
210
0.0
220
0.0
230
1.0
 70
     8
 71
     3
 72
    11
 73
     7
 74
     0
 42
0.0000000001
 43
0.0000000001
 12
1.0
 22
0.0
 32
0.0
 13
1.0
 23
0.0
 33
0.0
 40
0.0
 40
0.0
 40
0.0
 40
0.0
 40
1.0
 40
1.0
 40
1.0
 40
2.0
 40
2.0
 40
2.0
 40
2.0
 10
93.18430734489249
 20
-132.7002538557138
 30
0.0
 10
93.18430734489249
 20
-132.9214455223253
 30
0.0
 10
93.36344789587778
 20
-133.1005860778359
 30
0.0
 10
93.58393400136383
 20
-133.1005860778359
 30
0.0
 10
93.80512566238743
 20
-133.1005860778359
 30
0.0
 10
93.98426621337272
 20
-132.9214455223253
 30
0.0
 10
93.98426621337272
 20
-132.7002538557138
 30
0.0
  0
SPLINE
  5
5A
330
1F
100
AcDbEntity
  8
_U+30EC_U+30A4_U+30E4_U+30FC 1
 62
   179
420
  2234388
370
     9
100
AcDbSpline
210
0.0
220
0.0
230
1.0
 70
    11
 71
     3
 72
    17
 73
    13
 74
     0
 42
0.0000000001
 43
0.0000000001
 12
1.0
 22
0.0
 32
0.0
 13
1.0
 23
0.0
 33
0.0
 40
0.0
 40
0.0
 40
0.0
 40
0.0
 40
1.0
 40
1.0
 40
1.0
 40
2.0
 40
2.0
 40
2.0
 40
3.0
 40
3.0
 40
3.0
 40
4.0
 40
4.0
 40
4.0
 40
4.0
 10
105.184290094303
 20
-132.7002538557138
 30
0.0
 10
105.184290094303
 20
-132.6451499668389
 30
0.0
 10
105.1394873176682
 20
-132.6003471890722
 30
0.0
 10
105.0843860848402
 20
-132.6003471890722
 30
0.0
 10
105.0292442649252
 20
-132.6003471890722
 30
0.0
 10
104.9844767660673
 20
-132.6451499668389
 30
0.0
 10
104.9844767660673
 20
-132.7002538557138
 30
0.0
 10
104.9844767660673
 20
-132.7560633001442
 30
0.0
 10
105.0292442649252
 20
-132.8008660779109
 30
0.0
 10
105.0843860848402
 20
-132.8008660779109
 30
0.0
 10
105.1394873176682
 20
-132.8008660779109
 30
0.0
 10
105.184290094303
 20
-132.7560633001442
 30
0.0
 10
105.184290094303
 20
-132.7002538557138
 30
0.0
  0
SPLINE
  5
5B
330
1F
100
AcDbEntity
  8
_U+30EC_U+30A4_U+30E4_U+30FC 1
 62
   179
420
  2234388
370
     9
100
AcDbSpline
210
0.0
220
0.0
230
1.0
 70
    11
 71
     3
 72
    17
 73
    13
 74
     0
 42
0.0000000001
 43
0.0000000001
 12
1.0
 22
0.0
 32
0.0
 13
1.0
 23
0.0
 33
0.0
 40
0.0
 40
0.0
 40
0.0
 40
0.0
 40
1.0
 40
1.0
 40
1.0
 40
2.0
 40
2.0
 40
2.0
 40
3.0
 40
3.0
 40
3.0
 40
4.0
 40
4.0
 40
4.0
 40
4.0
 10
83.1837278778063
 20
-120.5004927476528
 30
0.0
 10
83.1837278778063
 20
-120.4453535809997
 30
0.0
 10
83.13892510117154
 20
-120.4005860810109
 30
0.0
 10
83.08382121368847
 20
-120.4005860810109
 30
0.0
 10
83.02868204842852
 20
-120.4005860810109
 30
0.0
 10
82.98391664592053
 20
-120.4453535809997
 30
0.0
 10
82.98391664592053
 20
-120.5004927476528
 30
0.0
 10
82.98391664592053
 20
-120.5555966365277
 30
0.0
 10
83.02868204842852
 20
-120.6003994142944
 30
0.0
 10
83.08382121368847
 20
-120.6003994142944
 30
0.0
 10
83.13892510117154
 20
-120.6003994142944
 30
0.0
 10
83.1837278778063
 20
-120.5555966365277
 30
0.0
 10
83.1837278778063
 20
-120.5004927476528
 30
0.0
  0
SPLINE
  5
5C
330
1F
100
AcDbEntity
  8
_U+30EC_U+30A4_U+30E4_U+30FC 1
 62
   179
420
  2234388
370
     9
100
AcDbSpline
210
0.0
220
0.0
230
1.0
 70
    11
 71
     3
 72
    17
 73
    13
 74
     0
 42
0.0000000001
 43
0.0000000001
 12
1.0
 22
0.0
 32
0.0
 13
1.0
 23
0.0
 33
0.0
 40
0.0
 40
0.0
 40
0.0
 40
0.0
 40
1.0
 40
1.0
 40
1.0
 40
2.0
 40
2.0
 40
2.0
 40
3.0
 40
3.0
 40
3.0
 40
4.0
 40
4.0
 40
4.0
 40
4.0
 10
86.18371474571471
 20
-120.5004927476528
 30
0.0
 10
86.18371474571471
 20
-120.4453535809997
 30
0.0
 10
86.13891196907994
 20
-120.4005860810109
 30
0.0
 10
86.08380808159687
 20
-120.4005860810109
 30
0.0
 10
86.02866891633691
 20
-120.4005860810109
 30
0.0
 10
85.98390141747903
 20
-120.4453535809997
 30
0.0
 10
85.98390141747903
 20
-120.5004927476528
 30
0.0
 10
85.98390141747903
 20
-120.5555966365277
 30
0.0
 10
86.02866891633691
 20
-120.6003994142944
 30
0.0
 10
86.08380808159687
 20
-120.6003994142944
 30
0.0
 10
86.13891196907994
 20
-120.6003994142944
 30
0.0
 10
86.18371474571471
 20
-120.5555966365277
 30
0.0
 10
86.18371474571471
 20
-120.5004927476528
 30
0.0
  0
SPLINE
  5
5D
330
1F
100
AcDbEntity
  8
_U+30EC_U+30A4_U+30E4_U+30FC 1
 62
   179
420
  2234388
370
     9
100
AcDbSpline
210
0.0
220
0.0
230
1.0
 70
    11
 71
     3
 72
    17
 73
    13
 74
     0
 42
0.0000000001
 43
0.0000000001
 12
1.0
 22
0.0
 32
0.0
 13
1.0
 23
0.0
 33
0.0
 40
0.0
 40
0.0
 40
0.0
 40
0.0
 40
1.0
 40
1.0
 40
1.0
 40
2.0
 40
2.0
 40
2.0
 40
3.0
 40
3.0
 40
3.0
 40
4.0
 40
4.0
 40
4.0
 40
4.0
 10
105.184290094303
 20
-134.5006552441523
 30
0.0
 10
105.184290094303
 20
-134.4455513552774
 30
0.0
 10
105.1394873176682
 20
-134.4007485775107
 30
0.0
 10
105.0843860848402
 20
-134.4007485775107
 30
0.0
 10
105.0292442649252
 20
-134.4007485775107
 30
0.0
 10
104.9844767660673
 20
-134.4455513552774
 30
0.0
 10
104.9844767660673
 20
-134.5006552441523
 30
0.0
 10
104.9844767660673
 20
-134.5557944108054
 30
0.0
 10
105.0292442649252
 20
-134.6005619107946
 30
0.0
 10
105.0843860848402
 20
-134.6005619107946
 30
0.0
 10
105.1394873176682
 20
-134.6005619107946
 30
0.0
 10
105.184290094303
 20
-134.5557944108054
 30
0.0
 10
105.184290094303
 20
-134.5006552441523
 30
0.0
  0
POLYLINE
  5
5E
330
1F
100
AcDbEntity
  8
_U+30EC_U+30A4_U+30E4_U+30FC 1
 62
   179
420
  2234388
370
     9
100
AcDb2dPolyline
 66
     1
 10
0.0
 20
0.0
 30
0.0
  0
VERTEX
  5
5F
330
5E
100
AcDbEntity
  8
_U+30EC_U+30A4_U+30E4_U+30FC 1
 62
   179
420
  2234388
370
     9
100
AcDbVertex
100
AcDb2dVertex
 10
83.08382121368847
 20
-120.5004927476528
 30
0.0
  0
VERTEX
  5
60
330
5E
100
AcDbEntity
  8
_U+30EC_U+30A4_U+30E4_U+30FC 1
 62
   179
420
  2234388
370
     9
100
AcDbVertex
100
AcDb2dVertex
 10
86.08380808159687
 20
-120.5004927476528
 30
0.0
  0
SEQEND
  5
61
330
5E
100
AcDbEntity
  8
_U+30EC_U+30A4_U+30E4_U+30FC 1
 62
   179
420
  2234388
370
     9
  0
POLYLINE
  5
62
330
1F
100
AcDbEntity
  8
_U+30EC_U+30A4_U+30E4_U+30FC 1
 62
   179
420
  2234388
370
     9
100
AcDb2dPolyline
 66
     1
 10
0.0
 20
0.0
 30
0.0
  0
VERTEX
  5
63
330
62
100
AcDbEntity
  8
_U+30EC_U+30A4_U+30E4_U+30FC 1
 62
   179
420
  2234388
370
     9
100
AcDbVertex
100
AcDb2dVertex
 10
83.08382121368847
 20
-121.9604988583987
 30
0.0
  0
VERTEX
  5
64
330
62
100
AcDbEntity
  8
_U+30EC_U+30A4_U+30E4_U+30FC 1
 62
   179
420
  2234388
370
     9
100
AcDbVertex
100
AcDb2dVertex
 10
83.08382121368847
 20
-119.5007205256803
 30
0.0
  0
SEQEND
  5
65
330
62
100
AcDbEntity
  8
_U+30EC_U+30A4_U+30E4_U+30FC 1
 62
   179
420
  2234388
370
     9
  0
POLYLINE
  5
66
330
1F
100
AcDbEntity
  8
_U+30EC_U+30A4_U+30E4_U+30FC 1
 62
   179
420
  2234388
370
     9
100
AcDb2dPolyline
 66
     1
 10
0.0
 20
0.0
 30
0.0
  0
VERTEX
  5
67
330
66
100
AcDbEntity
  8
_U+30EC_U+30A4_U+30E4_U+30FC 1
 62
   179
420
  2234388
370
     9
100
AcDbVertex
100
AcDb2dVertex
 10
86.08380808159687
 20
-121.9604988583987
 30
0.0
  0
VERTEX
  5
68
330
66
100
AcDbEntity
  8
_U+30EC_U+30A4_U+30E4_U+30FC 1
 62
   179
420
  2234388
370
     9
100
AcDbVertex
100
AcDb2dVertex
 10
86.08380808159687
 20
-119.5007205256803
 30
0.0
  0
SEQEND
  5
69
330
66
100
AcDbEntity
  8
_U+30EC_U+30A4_U+30E4_U+30FC 1
 62
   179
420
  2234388
370
     9
  0
INSERT
  5
6B
330
1F
100
AcDbEntity
  8
_U+30EC_U+30A4_U+30E4_U+30FC 1
100
AcDbBlockReference
  2
block 2
 10
0.0
 20
0.0
 30
0.0
  0
SPLINE
  5
70
330
1F
100
AcDbEntity
  8
_U+30EC_U+30A4_U+30E4_U+30FC 1
 62
   179
420
  2234388
370
    25
100
AcDbSpline
210
0.0
220
0.0
230
1.0
 70
    11
 71
     3
 72
    17
 73
    13
 74
     0
 42
0.0000000001
 43
0.0000000001
 12
1.0
 22
0.0
 32
0.0
 13
1.0
 23
0.0
 33
0.0
 40
0.0
 40
0.0
 40
0.0
 40
0.0
 40
1.0
 40
1.0
 40
1.0
 40
2.0
 40
2.0
 40
2.0
 40
3.0
 40
3.0
 40
3.0
 40
4.0
 40
4.0
 40
4.0
 40
4.0
 10
83.11895787945872
 20
-124.5002519133194
 30
0.0
 10
83.11895787945872
 20
-124.5202191355366
 30
0.0
 10
83.10311815764061
 20
-124.5360588577548
 30
0.0
 10
83.08382121368847
 20
-124.5360588577548
 30
0.0
 10
83.06452426973632
 20
-124.5360588577548
 30
0.0
 10
83.04868454791821
 20
-124.5202191355366
 30
0.0
 10
83.04868454791821
 20
-124.5002519133194
 30
0.0
 10
83.04868454791821
 20
-124.4809549688799
 30
0.0
 10
83.06452426973632
 20
-124.4651152466617
 30
0.0
 10
83.08382121368847
 20
-124.4651152466617
 30
0.0
 10
83.10311815764061
 20
-124.4651152466617
 30
0.0
 10
83.11895787945872
 20
-124.4809549688799
 30
0.0
 10
83.11895787945872
 20
-124.5002519133194
 30
0.0
  0
SPLINE
  5
71
330
1F
100
AcDbEntity
  8
_U+30EC_U+30A4_U+30E4_U+30FC 1
 62
   179
420
  2234388
370
    25
100
AcDbSpline
210
0.0
220
0.0
230
1.0
 70
    11
 71
     3
 72
    17
 73
    13
 74
     0
 42
0.0000000001
 43
0.0000000001
 12
1.0
 22
0.0
 32
0.0
 13
1.0
 23
0.0
 33
0.0
 40
0.0
 40
0.0
 40
0.0
 40
0.0
 40
1.0
 40
1.0
 40
1.0
 40
2.0
 40
2.0
 40
2.0
 40
3.0
 40
3.0
 40
3.0
 40
4.0
 40
4.0
 40
4.0
 40
4.0
 10
86.11894474736712
 20
-124.5002519133194
 30
0.0
 10
86.11894474736712
 20
-124.5202191355366
 30
0.0
 10
86.10377530330969
 20
-124.5360588577548
 30
0.0
 10
86.08380808159687
 20
-124.5360588577548
 30
0.0
 10
86.06451113764473
 20
-124.5360588577548
 30
0.0
 10
86.04867141582662
 20
-124.5202191355366
 30
0.0
 10
86.04867141582662
 20
-124.5002519133194
 30
0.0
 10
86.04867141582662
 20
-124.4809549688799
 30
0.0
 10
86.06451113764473
 20
-124.4651152466617
 30
0.0
 10
86.08380808159687
 20
-124.4651152466617
 30
0.0
 10
86.10377530330969
 20
-124.4651152466617
 30
0.0
 10
86.11894474736712
 20
-124.4809549688799
 30
0.0
 10
86.11894474736712
 20
-124.5002519133194
 30
0.0
  0
SPLINE
  5
72
330
1F
100
AcDbEntity
  8
_U+30EC_U+30A4_U+30E4_U+30FC 1
 62
   179
420
  2234388
370
     9
100
AcDbSpline
210
0.0
220
0.0
230
1.0
 70
    11
 71
     3
 72
    17
 73
    13
 74
     0
 42
0.0000000001
 43
0.0000000001
 12
1.0
 22
0.0
 32
0.0
 13
1.0
 23
0.0
 33
0.0
 40
0.0
 40
0.0
 40
0.0
 40
0.0
 40
1.0
 40
1.0
 40
1.0
 40
2.0
 40
2.0
 40
2.0
 40
3.0
 40
3.0
 40
3.0
 40
4.0
 40
4.0
 40
4.0
 40
4.0
 10
86.11894474736712
 20
-120.5004927476528
 30
0.0
 10
86.11894474736712
 20
-120.5197896920923
 30
0.0
 10
86.10377530330969
 20
-120.5356294143105
 30
0.0
 10
86.08380808159687
 20
-120.5356294143105
 30
0.0
 10
86.06451113764473
 20
-120.5356294143105
 30
0.0
 10
86.04867141582662
 20
-120.5197896920923
 30
0.0
 10
86.04867141582662
 20
-120.5004927476528
 30
0.0
 10
86.04867141582662
 20
-120.481195803213
 30
0.0
 10
86.06451113764473
 20
-120.4653560809948
 30
0.0
 10
86.08380808159687
 20
-120.4653560809948
 30
0.0
 10
86.10377530330969
 20
-120.4653560809948
 30
0.0
 10
86.11894474736712
 20
-120.481195803213
 30
0.0
 10
86.11894474736712
 20
-120.5004927476528
 30
0.0
  0
INSERT
  5
74
330
1F
100
AcDbEntity
  8
_U+30EC_U+30A4_U+30E4_U+30FC 1
100
AcDbBlockReference
  2
block 3
 10
0.0
 20
0.0
 30
0.0
  0
SPLINE
  5
7B
330
1F
100
AcDbEntity
  8
_U+30EC_U+30A4_U+30E4_U+30FC 1
 62
   179
420
  2234388
370
    25
100
AcDbSpline
210
0.0
220
0.0
230
1.0
 70
    11
 71
     3
 72
    17
 73
    13
 74
     0
 42
0.0000000001
 43
0.0000000001
 12
1.0
 22
0.0
 32
0.0
 13
1.0
 23
0.0
 33
0.0
 40
0.0
 40
0.0
 40
0.0
 40
0.0
 40
1.0
 40
1.0
 40
1.0
 40
2.0
 40
2.0
 40
2.0
 40
3.0
 40
3.0
 40
3.0
 40
4.0
 40
4.0
 40
4.0
 40
4.0
 10
86.11894474736712
 20
-124.5002519133194
 30
0.0
 10
86.11894474736712
 20
-124.5202191355366
 30
0.0
 10
86.10377530330969
 20
-124.5360588577548
 30
0.0
 10
86.08380808159687
 20
-124.5360588577548
 30
0.0
 10
86.06451113764473
 20
-124.5360588577548
 30
0.0
 10
86.04867141582662
 20
-124.5202191355366
 30
0.0
 10
86.04867141582662
 20
-124.5002519133194
 30
0.0
 10
86.04867141582662
 20
-124.4809549688799
 30
0.0
 10
86.06451113764473
 20
-124.4651152466617
 30
0.0
 10
86.08380808159687
 20
-124.4651152466617
 30
0.0
 10
86.10377530330969
 20
-124.4651152466617
 30
0.0
 10
86.11894474736712
 20
-124.4809549688799
 30
0.0
 10
86.11894474736712
 20
-124.5002519133194
 30
0.0
  0
POLYLINE
  5
7C
330
1F
100
AcDbEntity
  8
_U+30EC_U+30A4_U+30E4_U+30FC 1
 62
   179
420
  2234388
370
     9
100
AcDb2dPolyline
 66
     1
 10
0.0
 20
0.0
 30
0.0
  0
VERTEX
  5
7D
330
7C
100
AcDbEntity
  8
_U+30EC_U+30A4_U+30E4_U+30FC 1
 62
   179
420
  2234388
370
     9
100
AcDbVertex
100
AcDb2dVertex
 10
79.08406214906415
 20
-124.5002519133194
 30
0.0
  0
VERTEX
  5
7E
330
7C
100
AcDbEntity
  8
_U+30EC_U+30A4_U+30E4_U+30FC 1
 62
   179
420
  2234388
370
     9
100
AcDbVertex
100
AcDb2dVertex
 10
79.08406214906415
 20
-134.5006552441523
 30
0.0
  0
SEQEND
  5
7F
330
7C
100
AcDbEntity
  8
_U+30EC_U+30A4_U+30E4_U+30FC 1
 62
   179
420
  2234388
370
     9
  0
POLYLINE
  5
80
330
1F
100
AcDbEntity
  8
_U+30EC_U+30A4_U+30E4_U+30FC 1
 62
   179
420
  2234388
370
     9
100
AcDb2dPolyline
 66
     1
 10
0.0
 20
0.0
 30
0.0
  0
VERTEX
  5
81
330
80
100
AcDbEntity
  8
_U+30EC_U+30A4_U+30E4_U+30FC 1
 62
   179
420
  2234388
370
     9
100
AcDbVertex
100
AcDb2dVertex
 10
80.54410553541965
 20
-124.5002519133194
 30
0.0
  0
VERTEX
  5
82
330
80
100
AcDbEntity
  8
_U+30EC_U+30A4_U+30E4_U+30FC 1
 62
   179
420
  2234388
370
     9
100
AcDbVertex
100
AcDb2dVertex
 10
78.08428995234824
 20
-124.5002519133194
 30
0.0
  0
SEQEND
  5
83
330
80
100
AcDbEntity
  8
_U+30EC_U+30A4_U+30E4_U+30FC 1
 62
   179
420
  2234388
370
     9
  0
POLYLINE
  5
84
330
1F
100
AcDbEntity
  8
_U+30EC_U+30A4_U+30E4_U+30FC 1
 62
   179
420
  2234388
370
     9
100
AcDb2dPolyline
 66
     1
 10
0.0
 20
0.0
 30
0.0
  0
VERTEX
  5
85
330
84
100
AcDbEntity
  8
_U+30EC_U+30A4_U+30E4_U+30FC 1
 62
   179
420
  2234388
370
     9
100
AcDbVertex
100
AcDb2dVertex
 10
80.54410553541965
 20
-134.5006552441523
 30
0.0
  0
VERTEX
  5
86
330
84
100
AcDbEntity
  8
_U+30EC_U+30A4_U+30E4_U+30FC 1
 62
   179
420
  2234388
370
     9
100
AcDbVertex
100
AcDb2dVertex
 10
78.08428995234824
 20
-134.5006552441523
 30
0.0
  0
SEQEND
  5
87
330
84
100
AcDbEntity
  8
_U+30EC_U+30A4_U+30E4_U+30FC 1
 62
   179
420
  2234388
370
     9
  0
INSERT
  5
89
330
1F
100
AcDbEntity
  8
_U+30EC_U+30A4_U+30E4_U+30FC 1
100
AcDbBlockReference
  2
block 4
 10
0.0
 20
0.0
 30
0.0
  0
SPLINE
  5
91
330
1F
100
AcDbEntity
  8
_U+30EC_U+30A4_U+30E4_U+30FC 1
 62
   179
420
  2234388
370
    25
100
AcDbSpline
210
0.0
220
0.0
230
1.0
 70
    11
 71
     3
 72
    17
 73
    13
 74
     0
 42
0.0000000001
 43
0.0000000001
 12
1.0
 22
0.0
 32
0.0
 13
1.0
 23
0.0
 33
0.0
 40
0.0
 40
0.0
 40
0.0
 40
0.0
 40
1.0
 40
1.0
 40
1.0
 40
2.0
 40
2.0
 40
2.0
 40
3.0
 40
3.0
 40
3.0
 40
4.0
 40
4.0
 40
4.0
 40
4.0
 10
83.11895787945872
 20
-124.5002519133194
 30
0.0
 10
83.11895787945872
 20
-124.5202191355366
 30
0.0
 10
83.10311815764061
 20
-124.5360588577548
 30
0.0
 10
83.08382121368847
 20
-124.5360588577548
 30
0.0
 10
83.06452426973632
 20
-124.5360588577548
 30
0.0
 10
83.04868454791821
 20
-124.5202191355366
 30
0.0
 10
83.04868454791821
 20
-124.5002519133194
 30
0.0
 10
83.04868454791821
 20
-124.4809549688799
 30
0.0
 10
83.06452426973632
 20
-124.4651152466617
 30
0.0
 10
83.08382121368847
 20
-124.4651152466617
 30
0.0
 10
83.10311815764061
 20
-124.4651152466617
 30
0.0
 10
83.11895787945872
 20
-124.4809549688799
 30
0.0
 10
83.11895787945872
 20
-124.5002519133194
 30
0.0
  0
SPLINE
  5
92
330
1F
100
AcDbEntity
  8
_U+30EC_U+30A4_U+30E4_U+30FC 1
 62
   179
420
  2234388
370
    25
100
AcDbSpline
210
0.0
220
0.0
230
1.0
 70
    11
 71
     3
 72
    17
 73
    13
 74
     0
 42
0.0000000001
 43
0.0000000001
 12
1.0
 22
0.0
 32
0.0
 13
1.0
 23
0.0
 33
0.0
 40
0.0
 40
0.0
 40
0.0
 40
0.0
 40
1.0
 40
1.0
 40
1.0
 40
2.0
 40
2.0
 40
2.0
 40
3.0
 40
3.0
 40
3.0
 40
4.0
 40
4.0
 40
4.0
 40
4.0
 10
83.11895787945872
 20
-134.5006552441523
 30
0.0
 10
83.11895787945872
 20
-134.5199521885921
 30
0.0
 10
83.10311815764061
 20
-134.5357919108107
 30
0.0
 10
83.08382121368847
 20
-134.5357919108107
 30
0.0
 10
83.06452426973632
 20
-134.5357919108107
 30
0.0
 10
83.04868454791821
 20
-134.5199521885921
 30
0.0
 10
83.04868454791821
 20
-134.5006552441523
 30
0.0
 10
83.04868454791821
 20
-134.4813582997131
 30
0.0
 10
83.06452426973632
 20
-134.4655185774946
 30
0.0
 10
83.08382121368847
 20
-134.4655185774946
 30
0.0
 10
83.10311815764061
 20
-134.4655185774946
 30
0.0
 10
83.11895787945872
 20
-134.4813582997131
 30
0.0
 10
83.11895787945872
 20
-134.5006552441523
 30
0.0
  0
SPLINE
  5
93
330
1F
100
AcDbEntity
  8
_U+30EC_U+30A4_U+30E4_U+30FC 1
 62
   179
420
  2234388
370
     9
100
AcDbSpline
210
0.0
220
0.0
230
1.0
 70
    11
 71
     3
 72
    17
 73
    13
 74
     0
 42
0.0000000001
 43
0.0000000001
 12
1.0
 22
0.0
 32
0.0
 13
1.0
 23
0.0
 33
0.0
 40
0.0
 40
0.0
 40
0.0
 40
0.0
 40
1.0
 40
1.0
 40
1.0
 40
2.0
 40
2.0
 40
2.0
 40
3.0
 40
3.0
 40
3.0
 40
4.0
 40
4.0
 40
4.0
 40
4.0
 10
79.1191988148344
 20
-134.5006552441523
 30
0.0
 10
79.1191988148344
 20
-134.5199521885921
 30
0.0
 10
79.10336109133512
 20
-134.5357919108107
 30
0.0
 10
79.08406214906415
 20
-134.5357919108107
 30
0.0
 10
79.06476520511201
 20
-134.5357919108107
 30
0.0
 10
79.0489254832939
 20
-134.5199521885921
 30
0.0
 10
79.0489254832939
 20
-134.5006552441523
 30
0.0
 10
79.0489254832939
 20
-134.4813582997131
 30
0.0
 10
79.06476520511201
 20
-134.4655185774946
 30
0.0
 10
79.08406214906415
 20
-134.4655185774946
 30
0.0
 10
79.10336109133512
 20
-134.4655185774946
 30
0.0
 10
79.1191988148344
 20
-134.4813582997131
 30
0.0
 10
79.1191988148344
 20
-134.5006552441523
 30
0.0
  0
POLYLINE
  5
94
330
1F
100
AcDbEntity
  8
_U+30EC_U+30A4_U+30E4_U+30FC 1
 62
   179
420
  2234388
370
     9
100
AcDb2dPolyline
 66
     1
 10
0.0
 20
0.0
 30
0.0
  0
VERTEX
  5
95
330
94
100
AcDbEntity
  8
_U+30EC_U+30A4_U+30E4_U+30FC 1
 62
   179
420
  2234388
370
     9
100
AcDbVertex
100
AcDb2dVertex
 10
105.0843860848402
 20
-132.7002538557138
 30
0.0
  0
VERTEX
  5
96
330
94
100
AcDbEntity
  8
_U+30EC_U+30A4_U+30E4_U+30FC 1
 62
   179
420
  2234388
370
     9
100
AcDbVertex
100
AcDb2dVertex
 10
105.0843860848402
 20
-124.4960891355426
 30
0.0
  0
SEQEND
  5
97
330
94
100
AcDbEntity
  8
_U+30EC_U+30A4_U+30E4_U+30FC 1
 62
   179
420
  2234388
370
     9
  0
POLYLINE
  5
98
330
1F
100
AcDbEntity
  8
_U+30EC_U+30A4_U+30E4_U+30FC 1
 62
   179
420
  2234388
370
     9
100
AcDb2dPolyline
 66
     1
 10
0.0
 20
0.0
 30
0.0
  0
VERTEX
  5
99
330
98
100
AcDbEntity
  8
_U+30EC_U+30A4_U+30E4_U+30FC 1
 62
   179
420
  2234388
370
     9
100
AcDbVertex
100
AcDb2dVertex
 10
105.0843860848402
 20
-132.7002538557138
 30
0.0
  0
VERTEX
  5
9A
330
98
100
AcDbEntity
  8
_U+30EC_U+30A4_U+30E4_U+30FC 1
 62
   179
420
  2234388
370
     9
100
AcDbVertex
100
AcDb2dVertex
 10
105.0843860848402
 20
-139.1167524652208
 30
0.0
  0
SEQEND
  5
9B
330
98
100
AcDbEntity
  8
_U+30EC_U+30A4_U+30E4_U+30FC 1
 62
   179
420
  2234388
370
     9
  0
SPLINE
  5
9C
330
1F
100
AcDbEntity
  8
_U+30EC_U+30A4_U+30E4_U+30FC 1
 62
   179
420
  2234388
370
     9
100
AcDbSpline
210
0.0
220
0.0
230
1.0
 70
    11
 71
     3
 72
    17
 73
    13
 74
     0
 42
0.0000000001
 43
0.0000000001
 12
1.0
 22
0.0
 32
0.0
 13
1.0
 23
0.0
 33
0.0
 40
0.0
 40
0.0
 40
0.0
 40
0.0
 40
1.0
 40
1.0
 40
1.0
 40
2.0
 40
2.0
 40
2.0
 40
3.0
 40
3.0
 40
3.0
 40
4.0
 40
4.0
 40
4.0
 40
4.0
 10
105.184290094303
 20
-124.5047321910961
 30
0.0
 10
105.184290094303
 20
-124.449593024443
 30
0.0
 10
105.1394873176682
 20
-124.4048255244545
 30
0.0
 10
105.0843860848402
 20
-124.4048255244545
 30
0.0
 10
105.0292442649252
 20
-124.4048255244545
 30
0.0
 10
104.9844767660673
 20
-124.449593024443
 30
0.0
 10
104.9844767660673
 20
-124.5047321910961
 30
0.0
 10
104.9844767660673
 20
-124.5605416355265
 30
0.0
 10
105.0292442649252
 20
-124.6053091355154
 30
0.0
 10
105.0843860848402
 20
-124.6053091355154
 30
0.0
 10
105.1394873176682
 20
-124.6053091355154
 30
0.0
 10
105.184290094303
 20
-124.5605416355265
 30
0.0
 10
105.184290094303
 20
-124.5047321910961
 30
0.0
  0
SPLINE
  5
9D
330
1F
100
AcDbEntity
  8
_U+30EC_U+30A4_U+30E4_U+30FC 1
 62
   179
420
  2234388
370
     9
100
AcDbSpline
210
0.0
220
0.0
230
1.0
 70
    11
 71
     3
 72
    17
 73
    13
 74
     0
 42
0.0000000001
 43
0.0000000001
 12
1.0
 22
0.0
 32
0.0
 13
1.0
 23
0.0
 33
0.0
 40
0.0
 40
0.0
 40
0.0
 40
0.0
 40
1.0
 40
1.0
 40
1.0
 40
2.0
 40
2.0
 40
2.0
 40
3.0
 40
3.0
 40
3.0
 40
4.0
 40
4.0
 40
4.0
 40
4.0
 10
105.1195200959554
 20
-139.1167524652208
 30
0.0
 10
105.1195200959554
 20
-139.1360494096607
 30
0.0
 10
105.1036450963604
 20
-139.1167524652208
 30
0.0
 10
105.0843860848402
 20
-139.1167524652208
 30
0.0
 10
105.0643809306954
 20
-139.1167524652208
 30
0.0
 10
105.0485412088773
 20
-139.1360494096607
 30
0.0
 10
105.0485412088773
 20
-139.1167524652208
 30
0.0
 10
105.0485412088773
 20
-139.097455520781
 30
0.0
 10
105.0643809306954
 20
-139.1167524652208
 30
0.0
 10
105.0843860848402
 20
-139.1167524652208
 30
0.0
 10
105.1036450963604
 20
-139.1167524652208
 30
0.0
 10
105.1195200959554
 20
-139.097455520781
 30
0.0
 10
105.1195200959554
 20
-139.1167524652208
 30
0.0
  0
POLYLINE
  5
9E
330
1F
100
AcDbEntity
  8
_U+30EC_U+30A4_U+30E4_U+30FC 1
 62
   179
420
  2234388
370
     9
100
AcDb2dPolyline
 66
     1
 10
0.0
 20
0.0
 30
0.0
  0
VERTEX
  5
9F
330
9E
100
AcDbEntity
  8
_U+30EC_U+30A4_U+30E4_U+30FC 1
 62
   179
420
  2234388
370
     9
100
AcDbVertex
100
AcDb2dVertex
 10
101.0839188100233
 20
-132.7002538557138
 30
0.0
  0
VERTEX
  5
A0
330
9E
100
AcDbEntity
  8
_U+30EC_U+30A4_U+30E4_U+30FC 1
 62
   179
420
  2234388
370
     9
100
AcDbVertex
100
AcDb2dVertex
 10
101.0839188100233
 20
-134.5006552441523
 30
0.0
  0
SEQEND
  5
A1
330
9E
100
AcDbEntity
  8
_U+30EC_U+30A4_U+30E4_U+30FC 1
 62
   179
420
  2234388
370
     9
  0
POLYLINE
  5
A2
330
1F
100
AcDbEntity
  8
_U+30EC_U+30A4_U+30E4_U+30FC 1
 62
   179
420
  2234388
370
     9
100
AcDb2dPolyline
 66
     1
 10
0.0
 20
0.0
 30
0.0
  0
VERTEX
  5
A3
330
A2
100
AcDbEntity
  8
_U+30EC_U+30A4_U+30E4_U+30FC 1
 62
   179
420
  2234388
370
     9
100
AcDbVertex
100
AcDb2dVertex
 10
93.98426621337272
 20
-132.7002538557138
 30
0.0
  0
VERTEX
  5
A4
330
A2
100
AcDbEntity
  8
_U+30EC_U+30A4_U+30E4_U+30FC 1
 62
   179
420
  2234388
370
     9
100
AcDbVertex
100
AcDb2dVertex
 10
101.0839188100233
 20
-132.7002538557138
 30
0.0
  0
SEQEND
  5
A5
330
A2
100
AcDbEntity
  8
_U+30EC_U+30A4_U+30E4_U+30FC 1
 62
   179
420
  2234388
370
     9
  0
POLYLINE
  5
A6
330
1F
100
AcDbEntity
  8
_U+30EC_U+30A4_U+30E4_U+30FC 1
 62
   179
420
  2234388
370
     9
100
AcDb2dPolyline
 66
     1
 10
0.0
 20
0.0
 30
0.0
  0
VERTEX
  5
A7
330
A6
100
AcDbEntity
  8
_U+30EC_U+30A4_U+30E4_U+30FC 1
 62
   179
420
  2234388
370
     9
100
AcDbVertex
100
AcDb2dVertex
 10
83.08382121368847
 20
-134.5006552441523
 30
0.0
  0
VERTEX
  5
A8
330
A6
100
AcDbEntity
  8
_U+30EC_U+30A4_U+30E4_U+30FC 1
 62
   179
420
  2234388
370
     9
100
AcDbVertex
100
AcDb2dVertex
 10
101.0839188100233
 20
-134.5006552441523
 30
0.0
  0
SEQEND
  5
A9
330
A6
100
AcDbEntity
  8
_U+30EC_U+30A4_U+30E4_U+30FC 1
 62
   179
420
  2234388
370
     9
  0
POLYLINE
  5
AA
330
1F
100
AcDbEntity
  8
_U+30EC_U+30A4_U+30E4_U+30FC 1
 62
   179
420
  2234388
370
    25
100
AcDb2dPolyline
 66
     1
 10
0.0
 20
0.0
 30
0.0
  0
VERTEX
  5
AB
330
AA
100
AcDbEntity
  8
_U+30EC_U+30A4_U+30E4_U+30FC 1
 62
   179
420
  2234388
370
    25
100
AcDbVertex
100
AcDb2dVertex
 10
85.38375587723446
 20
-133.600789688822
 30
0.0
  0
VERTEX
  5
AC
330
AA
100
AcDbEntity
  8
_U+30EC_U+30A4_U+30E4_U+30FC 1
 62
   179
420
  2234388
370
    25
100
AcDbVertex
100
AcDb2dVertex
 10
99.88433328507169
 20
-133.600789688822
 30
0.0
  0
SEQEND
  5
AD
330
AA
100
AcDbEntity
  8
_U+30EC_U+30A4_U+30E4_U+30FC 1
 62
   179
420
  2234388
370
    25
  0
SPLINE
  5
AE
330
1F
100
AcDbEntity
  8
_U+30EC_U+30A4_U+30E4_U+30FC 1
 62
   179
420
  2234388
370
     9
100
AcDbSpline
210
0.0
220
0.0
230
1.0
 70
    11
 71
     3
 72
    17
 73
    13
 74
     0
 42
0.0000000001
 43
0.0000000001
 12
1.0
 22
0.0
 32
0.0
 13
1.0
 23
0.0
 33
0.0
 40
0.0
 40
0.0
 40
0.0
 40
0.0
 40
1.0
 40
1.0
 40
1.0
 40
2.0
 40
2.0
 40
2.0
 40
3.0
 40
3.0
 40
3.0
 40
4.0
 40
4.0
 40
4.0
 40
4.0
 10
101.1838254741411
 20
-120.5004927476528
 30
0.0
 10
101.1838254741411
 20
-120.4453535809997
 30
0.0
 10
101.1390579752832
 20
-120.4005860810109
 30
0.0
 10
101.0839188100233
 20
-120.4005860810109
 30
0.0
 10
101.0288149225402
 20
-120.4005860810109
 30
0.0
 10
100.9840121459054
 20
-120.4453535809997
 30
0.0
 10
100.9840121459054
 20
-120.5004927476528
 30
0.0
 10
100.9840121459054
 20
-120.5555966365277
 30
0.0
 10
101.0288149225402
 20
-120.6003994142944
 30
0.0
 10
101.0839188100233
 20
-120.6003994142944
 30
0.0
 10
101.1390579752832
 20
-120.6003994142944
 30
0.0
 10
101.1838254741411
 20
-120.5555966365277
 30
0.0
 10
101.1838254741411
 20
-120.5004927476528
 30
0.0
  0
POLYLINE
  5
AF
330
1F
100
AcDbEntity
  8
_U+30EC_U+30A4_U+30E4_U+30FC 1
 62
   179
420
  2234388
370
     9
100
AcDb2dPolyline
 66
     1
 10
0.0
 20
0.0
 30
0.0
  0
VERTEX
  5
B0
330
AF
100
AcDbEntity
  8
_U+30EC_U+30A4_U+30E4_U+30FC 1
 62
   179
420
  2234388
370
     9
100
AcDbVertex
100
AcDb2dVertex
 10
86.08380808159687
 20
-120.5004927476528
 30
0.0
  0
VERTEX
  5
B1
330
AF
100
AcDbEntity
  8
_U+30EC_U+30A4_U+30E4_U+30FC 1
 62
   179
420
  2234388
370
     9
100
AcDbVertex
100
AcDb2dVertex
 10
101.0839188100233
 20
-120.5004927476528
 30
0.0
  0
SEQEND
  5
B2
330
AF
100
AcDbEntity
  8
_U+30EC_U+30A4_U+30E4_U+30FC 1
 62
   179
420
  2234388
370
     9
  0
POLYLINE
  5
B3
330
1F
100
AcDbEntity
  8
_U+30EC_U+30A4_U+30E4_U+30FC 1
 62
   179
420
  2234388
370
     9
100
AcDb2dPolyline
 66
     1
 10
0.0
 20
0.0
 30
0.0
  0
VERTEX
  5
B4
330
B3
100
AcDbEntity
  8
_U+30EC_U+30A4_U+30E4_U+30FC 1
 62
   179
420
  2234388
370
     9
100
AcDbVertex
100
AcDb2dVertex
 10
101.0839188100233
 20
-130.1605360785713
 30
0.0
  0
VERTEX
  5
B5
330
B3
100
AcDbEntity
  8
_U+30EC_U+30A4_U+30E4_U+30FC 1
 62
   179
420
  2234388
370
     9
100
AcDbVertex
100
AcDb2dVertex
 10
101.0839188100233
 20
-119.5007205256803
 30
0.0
  0
SEQEND
  5
B6
330
B3
100
AcDbEntity
  8
_U+30EC_U+30A4_U+30E4_U+30FC 1
 62
   179
420
  2234388
370
     9
  0
SPLINE
  5
B7
330
1F
100
AcDbEntity
  8
_U+30EC_U+30A4_U+30E4_U+30FC 1
 62
   179
420
  2234388
370
     9
100
AcDbSpline
210
0.0
220
0.0
230
1.0
 70
    11
 71
     3
 72
    17
 73
    13
 74
     0
 42
0.0000000001
 43
0.0000000001
 12
1.0
 22
0.0
 32
0.0
 13
1.0
 23
0.0
 33
0.0
 40
0.0
 40
0.0
 40
0.0
 40
0.0
 40
1.0
 40
1.0
 40
1.0
 40
2.0
 40
2.0
 40
2.0
 40
3.0
 40
3.0
 40
3.0
 40
4.0
 40
4.0
 40
4.0
 40
4.0
 10
101.1197610313311
 20
-132.7002538557138
 30
0.0
 10
101.1197610313311
 20
-132.720221077931
 30
0.0
 10
101.103921309513
 20
-132.736096077927
 30
0.0
 10
101.0839188100233
 20
-132.736096077927
 30
0.0
 10
101.0646218660711
 20
-132.736096077927
 30
0.0
 10
101.048782144253
 20
-132.720221077931
 30
0.0
 10
101.048782144253
 20
-132.7002538557138
 30
0.0
 10
101.048782144253
 20
-132.6809569112739
 30
0.0
 10
101.0646218660711
 20
-132.665117189056
 30
0.0
 10
101.0839188100233
 20
-132.665117189056
 30
0.0
 10
101.103921309513
 20
-132.665117189056
 30
0.0
 10
101.1197610313311
 20
-132.6809569112739
 30
0.0
 10
101.1197610313311
 20
-132.7002538557138
 30
0.0
  0
SPLINE
  5
B8
330
1F
100
AcDbEntity
  8
_U+30EC_U+30A4_U+30E4_U+30FC 1
 62
   179
420
  2234388
370
     9
100
AcDbSpline
210
0.0
220
0.0
230
1.0
 70
    11
 71
     3
 72
    17
 73
    13
 74
     0
 42
0.0000000001
 43
0.0000000001
 12
1.0
 22
0.0
 32
0.0
 13
1.0
 23
0.0
 33
0.0
 40
0.0
 40
0.0
 40
0.0
 40
0.0
 40
1.0
 40
1.0
 40
1.0
 40
2.0
 40
2.0
 40
2.0
 40
3.0
 40
3.0
 40
3.0
 40
4.0
 40
4.0
 40
4.0
 40
4.0
 10
101.1197610313311
 20
-120.5004927476528
 30
0.0
 10
101.1197610313311
 20
-120.5197896920923
 30
0.0
 10
101.103921309513
 20
-120.5356294143105
 30
0.0
 10
101.0839188100233
 20
-120.5356294143105
 30
0.0
 10
101.0646218660711
 20
-120.5356294143105
 30
0.0
 10
101.048782144253
 20
-120.5197896920923
 30
0.0
 10
101.048782144253
 20
-120.5004927476528
 30
0.0
 10
101.048782144253
 20
-120.481195803213
 30
0.0
 10
101.0646218660711
 20
-120.4653560809948
 30
0.0
 10
101.0839188100233
 20
-120.4653560809948
 30
0.0
 10
101.103921309513
 20
-120.4653560809948
 30
0.0
 10
101.1197610313311
 20
-120.481195803213
 30
0.0
 10
101.1197610313311
 20
-120.5004927476528
 30
0.0
  0
POLYLINE
  5
B9
330
1F
100
AcDbEntity
  8
_U+30EC_U+30A4_U+30E4_U+30FC 1
 62
   179
420
  2234388
370
     9
100
AcDb2dPolyline
 66
     1
 10
0.0
 20
0.0
 30
0.0
  0
VERTEX
  5
BA
330
B9
100
AcDbEntity
  8
_U+30EC_U+30A4_U+30E4_U+30FC 1
 62
   179
420
  2234388
370
     9
100
AcDbVertex
100
AcDb2dVertex
 10
103.624342078545
 20
-132.7002538557138
 30
0.0
  0
VERTEX
  5
BB
330
B9
100
AcDbEntity
  8
_U+30EC_U+30A4_U+30E4_U+30FC 1
 62
   179
420
  2234388
370
     9
100
AcDbVertex
100
AcDb2dVertex
 10
106.0841203491242
 20
-132.7002538557138
 30
0.0
  0
SEQEND
  5
BC
330
B9
100
AcDbEntity
  8
_U+30EC_U+30A4_U+30E4_U+30FC 1
 62
   179
420
  2234388
370
     9
  0
POLYLINE
  5
BD
330
1F
100
AcDbEntity
  8
_U+30EC_U+30A4_U+30E4_U+30FC 1
 62
   179
420
  2234388
370
     9
100
AcDb2dPolyline
 66
     1
 10
0.0
 20
0.0
 30
0.0
  0
VERTEX
  5
BE
330
BD
100
AcDbEntity
  8
_U+30EC_U+30A4_U+30E4_U+30FC 1
 62
   179
420
  2234388
370
     9
100
AcDbVertex
100
AcDb2dVertex
 10
103.624342078545
 20
-124.5047321910961
 30
0.0
  0
VERTEX
  5
BF
330
BD
100
AcDbEntity
  8
_U+30EC_U+30A4_U+30E4_U+30FC 1
 62
   179
420
  2234388
370
     9
100
AcDbVertex
100
AcDb2dVertex
 10
106.0841203491242
 20
-124.5047321910961
 30
0.0
  0
SEQEND
  5
C0
330
BD
100
AcDbEntity
  8
_U+30EC_U+30A4_U+30E4_U+30FC 1
 62
   179
420
  2234388
370
     9
  0
POLYLINE
  5
C1
330
1F
100
AcDbEntity
  8
_U+30EC_U+30A4_U+30E4_U+30FC 1
 62
   179
420
  2234388
370
     9
100
AcDb2dPolyline
 66
     1
 10
0.0
 20
0.0
 30
0.0
  0
VERTEX
  5
C2
330
C1
100
AcDbEntity
  8
_U+30EC_U+30A4_U+30E4_U+30FC 1
 62
   179
420
  2234388
370
     9
100
AcDbVertex
100
AcDb2dVertex
 10
103.624342078545
 20
-134.5006552441523
 30
0.0
  0
VERTEX
  5
C3
330
C1
100
AcDbEntity
  8
_U+30EC_U+30A4_U+30E4_U+30FC 1
 62
   179
420
  2234388
370
     9
100
AcDbVertex
100
AcDb2dVertex
 10
106.0841203491242
 20
-134.5006552441523
 30
0.0
  0
SEQEND
  5
C4
330
C1
100
AcDbEntity
  8
_U+30EC_U+30A4_U+30E4_U+30FC 1
 62
   179
420
  2234388
370
     9
  0
SPLINE
  5
C5
330
1F
100
AcDbEntity
  8
_U+30EC_U+30A4_U+30E4_U+30FC 1
 62
   179
420
  2234388
370
     9
100
AcDbSpline
210
0.0
220
0.0
230
1.0
 70
    11
 71
     3
 72
    17
 73
    13
 74
     0
 42
0.0000000001
 43
0.0000000001
 12
1.0
 22
0.0
 32
0.0
 13
1.0
 23
0.0
 33
0.0
 40
0.0
 40
0.0
 40
0.0
 40
0.0
 40
1.0
 40
1.0
 40
1.0
 40
2.0
 40
2.0
 40
2.0
 40
3.0
 40
3.0
 40
3.0
 40
4.0
 40
4.0
 40
4.0
 40
4.0
 10
101.1197610313311
 20
-132.7002538557138
 30
0.0
 10
101.1197610313311
 20
-132.720221077931
 30
0.0
 10
101.103921309513
 20
-132.736096077927
 30
0.0
 10
101.0839188100233
 20
-132.736096077927
 30
0.0
 10
101.0646218660711
 20
-132.736096077927
 30
0.0
 10
101.048782144253
 20
-132.720221077931
 30
0.0
 10
101.048782144253
 20
-132.7002538557138
 30
0.0
 10
101.048782144253
 20
-132.6809569112739
 30
0.0
 10
101.0646218660711
 20
-132.665117189056
 30
0.0
 10
101.0839188100233
 20
-132.665117189056
 30
0.0
 10
101.103921309513
 20
-132.665117189056
 30
0.0
 10
101.1197610313311
 20
-132.6809569112739
 30
0.0
 10
101.1197610313311
 20
-132.7002538557138
 30
0.0
  0
SPLINE
  5
C6
330
1F
100
AcDbEntity
  8
_U+30EC_U+30A4_U+30E4_U+30FC 1
 62
   179
420
  2234388
370
     9
100
AcDbSpline
210
0.0
220
0.0
230
1.0
 70
    11
 71
     3
 72
    17
 73
    13
 74
     0
 42
0.0000000001
 43
0.0000000001
 12
1.0
 22
0.0
 32
0.0
 13
1.0
 23
0.0
 33
0.0
 40
0.0
 40
0.0
 40
0.0
 40
0.0
 40
1.0
 40
1.0
 40
1.0
 40
2.0
 40
2.0
 40
2.0
 40
3.0
 40
3.0
 40
3.0
 40
4.0
 40
4.0
 40
4.0
 40
4.0
 10
101.1197610313311
 20
-134.5006552441523
 30
0.0
 10
101.1197610313311
 20
-134.5199521885921
 30
0.0
 10
101.103921309513
 20
-134.5357919108107
 30
0.0
 10
101.0839188100233
 20
-134.5357919108107
 30
0.0
 10
101.0646218660711
 20
-134.5357919108107
 30
0.0
 10
101.048782144253
 20
-134.5199521885921
 30
0.0
 10
101.048782144253
 20
-134.5006552441523
 30
0.0
 10
101.048782144253
 20
-134.4813582997131
 30
0.0
 10
101.0646218660711
 20
-134.4655185774946
 30
0.0
 10
101.0839188100233
 20
-134.4655185774946
 30
0.0
 10
101.103921309513
 20
-134.4655185774946
 30
0.0
 10
101.1197610313311
 20
-134.4813582997131
 30
0.0
 10
101.1197610313311
 20
-134.5006552441523
 30
0.0
  0
INSERT
  5
C8
330
1F
100
AcDbEntity
  8
_U+30EC_U+30A4_U+30E4_U+30FC 1
100
AcDbBlockReference
  2
block 5
 10
0.0
 20
0.0
 30
0.0
  0
INSERT
  5
DA
330
1F
100
AcDbEntity
  8
_U+30EC_U+30A4_U+30E4_U+30FC 1
100
AcDbBlockReference
  2
block 6
 10
0.0
 20
0.0
 30
0.0
  0
ENDSEC
  0
SECTION
  2
OBJECTS
  0
DICTIONARY
  5
C
330
0
100
AcDbDictionary
281
     1
  3
ACAD_GROUP
350
D
  3
ACAD_LAYOUT
350
1A
  3
ACAD_MATERIAL
350
3B
  3
ACAD_MLEADERSTYLE
350
EC
  3
ACAD_MLINESTYLE
350
17
  3
ACAD_PLOTSETTINGS
350
19
  3
ACAD_PLOTSTYLENAME
350
E
  3
ACAD_TABLESTYLE
350
EB
  3
ACAD_VISUALSTYLE
350
2A
  0
SUN
  5
3F
330
29
100
AcDbSun
 90
        1
290
     0
 63
     7
421
 16777215
 40
1.0
291
     1
 91
  2455826
 92
 54000000
292
     0
 70
     2
 71
   256
280
     1
  0
DICTIONARY
  5
D
102
{ACAD_REACTORS
330
C
102
}
330
C
100
AcDbDictionary
281
     1
  0
DICTIONARY
  5
1A
102
{ACAD_REACTORS
330
C
102
}
330
C
100
AcDbDictionary
281
     1
  3
Layout1
350
1E
  3
Layout2
350
26
  3
Model
350
22
  0
DICTIONARY
  5
3B
102
{ACAD_REACTORS
330
C
102
}
330
C
100
AcDbDictionary
281
     1
  3
ByBlock
350
3D
  3
ByLayer
350
3C
  3
Global
350
3E
  0
DICTIONARY
  5
EC
102
{ACAD_REACTORS
330
C
102
}
330
C
100
AcDbDictionary
281
     1
  0
DICTIONARY
  5
17
102
{ACAD_REACTORS
330
C
102
}
330
C
100
AcDbDictionary
281
     1
  3
Standard
350
18
  0
DICTIONARY
  5
19
102
{ACAD_REACTORS
330
C
102
}
330
C
100
AcDbDictionary
281
     1
  0
ACDBDICTIONARYWDFLT
  5
E
102
{ACAD_REACTORS
330
C
102
}
330
C
100
AcDbDictionary
281
     1
  3
Normal
350
F
100
AcDbDictionaryWithDefault
340
F
  0
DICTIONARY
  5
EB
102
{ACAD_REACTORS
330
C
102
}
330
C
100
AcDbDictionary
281
     1
  0
DICTIONARY
  5
2A
102
{ACAD_REACTORS
330
C
102
}
330
C
100
AcDbDictionary
281
     1
  3
2dWireframe
350
2F
  3
3D Hidden
350
31
  3
3dWireframe
350
30
  3
Basic
350
32
  3
Brighten
350
36
  3
ColorChange
350
3A
  3
Conceptual
350
34
  3
Dim
350
35
  3
Facepattern
350
39
  3
Flat
350
2B
  3
FlatWithEdges
350
2C
  3
Gouraud
350
2D
  3
GouraudWithEdges
350
2E
  3
Linepattern
350
38
  3
Realistic
350
33
  3
Thicken
350
37
  0
LAYOUT
  5
1E
102
{ACAD_REACTORS
330
1A
102
}
330
1A
100
AcDbPlotSettings
  1

  2
none_device
  4

  6

 40
0.0
 41
0.0
 42
0.0
 43
0.0
 44
0.0
 45
0.0
 46
0.0
 47
0.0
 48
0.0
 49
0.0
140
0.0
141
0.0
142
1.0
143
1.0
 70
   688
 72
     0
 73
     0
 74
     5
  7

 75
    16
 76
     0
 77
     2
 78
   300
147
1.0
148
0.0
149
0.0
100
AcDbLayout
  1
Layout1
 70
     1
 71
     1
 10
0.0
 20
0.0
 11
12.0
 21
9.0
 12
0.0
 22
0.0
 32
0.0
 14
1.000000000000000E+20
 24
1.000000000000000E+20
 34
1.000000000000000E+20
 15
-1.000000000000000E+20
 25
-1.000000000000000E+20
 35
-1.000000000000000E+20
146
0.0
 13
0.0
 23
0.0
 33
0.0
 16
1.0
 26
0.0
 36
0.0
 17
0.0
 27
1.0
 37
0.0
 76
     0
330
1B
  0
LAYOUT
  5
26
102
{ACAD_REACTORS
330
1A
102
}
330
1A
100
AcDbPlotSettings
  1

  2
none_device
  4

  6

 40
0.0
 41
0.0
 42
0.0
 43
0.0
 44
0.0
 45
0.0
 46
0.0
 47
0.0
 48
0.0
 49
0.0
140
0.0
141
0.0
142
1.0
143
1.0
 70
   688
 72
     0
 73
     0
 74
     5
  7

 75
    16
 76
     0
 77
     2
 78
   300
147
1.0
148
0.0
149
0.0
100
AcDbLayout
  1
Layout2
 70
     1
 71
     2
 10
0.0
 20
0.0
 11
0.0
 21
0.0
 12
0.0
 22
0.0
 32
0.0
 14
0.0
 24
0.0
 34
0.0
 15
0.0
 25
0.0
 35
0.0
146
0.0
 13
0.0
 23
0.0
 33
0.0
 16
1.0
 26
0.0
 36
0.0
 17
0.0
 27
1.0
 37
0.0
 76
     0
330
23
  0
LAYOUT
  5
22
102
{ACAD_REACTORS
330
1A
102
}
330
1A
100
AcDbPlotSettings
  1

  2
none_device
  4

  6

 40
0.0
 41
0.0
 42
0.0
 43
0.0
 44
0.0
 45
0.0
 46
0.0
 47
0.0
 48
0.0
 49
0.0
140
0.0
141
0.0
142
1.0
143
1.0
 70
  1712
 72
     0
 73
     0
 74
     0
  7

 75
     0
 76
     0
 77
     2
 78
   300
147
1.0
148
0.0
149
0.0
100
AcDbLayout
  1
Model
 70
     1
 71
     0
 10
0.0
 20
0.0
 11
12.0
 21
9.0
 12
0.0
 22
0.0
 32
0.0
 14
1.000000000000000E+20
 24
1.000000000000000E+20
 34
1.000000000000000E+20
 15
-1.000000000000000E+20
 25
-1.000000000000000E+20
 35
-1.000000000000000E+20
146
0.0
 13
0.0
 23
0.0
 33
0.0
 16
1.0
 26
0.0
 36
0.0
 17
0.0
 27
1.0
 37
0.0
 76
     0
330
1F
331
29
  0
MATERIAL
  5
3D
102
{ACAD_REACTORS
330
3B
102
}
330
3B
100
AcDbMaterial
  1
ByBlock
 72
     1
 94
      127
  0
MATERIAL
  5
3C
102
{ACAD_REACTORS
330
3B
102
}
330
3B
100
AcDbMaterial
  1
ByLayer
 72
     1
 94
      127
  0
MATERIAL
  5
3E
102
{ACAD_REACTORS
330
3B
102
}
330
3B
100
AcDbMaterial
  1
Global
 72
     1
 94
      127
  0
MLINESTYLE
  5
18
102
{ACAD_REACTORS
330
17
102
}
330
17
100
AcDbMlineStyle
  2
Standard
 70
     0
  3

 62
   256
 51
90.0
 52
90.0
 71
     2
 49
0.5
 62
   256
  6
BYLAYER
 49
-0.5
 62
   256
  6
BYLAYER
  0
ACDBPLACEHOLDER
  5
F
102
{ACAD_REACTORS
330
E
102
}
330
E
  0
VISUALSTYLE
  5
2F
102
{ACAD_REACTORS
330
2A
102
}
330
2A
100
AcDbVisualStyle
  2
2dWireframe
 70
     4
177
     2
291
     0
 71
     0
176
     1
 72
     2
176
     1
 73
     0
176
     1
 90
        0
176
     1
 40
-0.6
176
     1
 41
-30.0
176
     1
 62
     5
 63
     7
421
 16777215
176
     1
 74
     1
176
     1
 91
        4
176
     1
 64
     7
176
     1
 65
   257
176
     1
 75
     1
176
     1
175
     1
176
     1
 42
1.0
176
     1
 92
        0
176
     1
 66
   257
176
     1
 43
1.0
176
     1
 76
     1
176
     1
 77
     6
176
     1
 78
     2
176
     1
 67
     7
176
     1
 79
     5
176
     1
170
     0
176
     1
171
     0
176
     1
290
     0
176
     1
 93
        1
176
     1
 44
0.0
176
     1
173
     0
176
     1
  0
VISUALSTYLE
  5
31
102
{ACAD_REACTORS
330
2A
102
}
330
2A
100
AcDbVisualStyle
  2
3D Hidden
 70
     6
177
     2
291
     0
 71
     1
176
     1
 72
     2
176
     1
 73
     2
176
     1
 90
        0
176
     1
 40
-0.6
176
     1
 41
-30.0
176
     1
 62
     5
 63
     7
421
 16777215
176
     1
 74
     2
176
     1
 91
        2
176
     1
 64
     7
176
     1
 65
   257
176
     1
 75
     2
176
     1
175
     1
176
     1
 42
40.0
176
     1
 92
        0
176
     1
 66
   257
176
     1
 43
1.0
176
     1
 76
     1
176
     1
 77
     6
176
     1
 78
     2
176
     1
 67
     7
176
     1
 79
     3
176
     1
170
     0
176
     1
171
     0
176
     1
290
     0
176
     1
 93
        1
176
     1
 44
0.0
176
     1
173
     0
176
     1
  0
VISUALSTYLE
  5
30
102
{ACAD_REACTORS
330
2A
102
}
330
2A
100
AcDbVisualStyle
  2
3dWireframe
 70
     5
177
     2
291
     0
 71
     0
176
     1
 72
     2
176
     1
 73
     0
176
     1
 90
        0
176
     1
 40
-0.6
176
     1
 41
-30.0
176
     1
 62
     5
 63
     7
421
 16777215
176
     1
 74
     1
176
     1
 91
        4
176
     1
 64
     7
176
     1
 65
   257
176
     1
 75
     1
176
     1
175
     1
176
     1
 42
1.0
176
     1
 92
        0
176
     1
 66
   257
176
     1
 43
1.0
176
     1
 76
     1
176
     1
 77
     6
176
     1
 78
     2
176
     1
 67
     7
176
     1
 79
     5
176
     1
170
     0
176
     1
171
     0
176
     1
290
     0
176
     1
 93
        1
176
     1
 44
0.0
176
     1
173
     0
176
     1
  0
VISUALSTYLE
  5
32
102
{ACAD_REACTORS
330
2A
102
}
330
2A
100
AcDbVisualStyle
  2
Basic
 70
     7
177
     2
291
     1
 71
     1
176
     1
 72
     0
176
     1
 73
     1
176
     1
 90
        0
176
     1
 40
-0.6
176
     1
 41
-30.0
176
     1
 62
     5
 63
     7
421
 16777215
176
     1
 74
     0
176
     1
 91
        4
176
     1
 64
     7
176
     1
 65
   257
176
     1
 75
     1
176
     1
175
     1
176
     1
 42
1.0
176
     1
 92
        8
176
     1
 66
     7
176
     1
 43
1.0
176
     1
 76
     1
176
     1
 77
     6
176
     1
 78
     2
176
     1
 67
     7
176
     1
 79
     5
176
     1
170
     0
176
     1
171
     0
176
     1
290
     0
176
     1
 93
        1
176
     1
 44
0.0
176
     1
173
     0
176
     1
  0
VISUALSTYLE
  5
36
102
{ACAD_REACTORS
330
2A
102
}
330
2A
100
AcDbVisualStyle
  2
Brighten
 70
    12
177
     2
291
     1
 71
     2
176
     1
 72
     2
176
     1
 73
     0
176
     1
 90
        0
176
     1
 40
-0.6
176
     1
 41
-30.0
176
     1
 62
     5
 63
     7
421
 16777215
176
     1
 74
     1
176
     1
 91
        4
176
     1
 64
     7
176
     1
 65
   257
176
     1
 75
     1
176
     1
175
     1
176
     1
 42
1.0
176
     1
 92
        8
176
     1
 66
     7
176
     1
 43
1.0
176
     1
 76
     1
176
     1
 77
     6
176
     1
 78
     2
176
     1
 67
     7
176
     1
 79
     5
176
     1
170
     0
176
     1
171
     0
176
     1
290
     0
176
     1
 93
        1
176
     1
 44
50.0
176
     1
173
     0
176
     1
  0
VISUALSTYLE
  5
3A
102
{ACAD_REACTORS
330
2A
102
}
330
2A
100
AcDbVisualStyle
  2
ColorChange
 70
    16
177
     2
291
     1
 71
     2
176
     1
 72
     2
176
     1
 73
     3
176
     1
 90
        0
176
     1
 40
-0.6
176
     1
 41
-30.0
176
     1
 62
     5
 63
     8
421
  8421504
176
     1
 74
     1
176
     1
 91
        4
176
     1
 64
     7
176
     1
 65
   257
176
     1
 75
     1
176
     1
175
     1
176
     1
 42
1.0
176
     1
 92
        8
176
     1
 66
     8
424
  8421504
176
     1
 43
1.0
176
     1
 76
     1
176
     1
 77
     6
176
     1
 78
     2
176
     1
 67
     7
176
     1
 79
     5
176
     1
170
     0
176
     1
171
     0
176
     1
290
     0
176
     1
 93
        1
176
     1
 44
0.0
176
     1
173
     0
176
     1
  0
VISUALSTYLE
  5
34
102
{ACAD_REACTORS
330
2A
102
}
330
2A
100
AcDbVisualStyle
  2
Conceptual
 70
     9
177
     2
291
     0
 71
     3
176
     1
 72
     2
176
     1
 73
     0
176
     1
 90
        0
176
     1
 40
-0.6
176
     1
 41
-30.0
176
     1
 62
     5
 63
     7
421
 16777215
176
     1
 74
     2
176
     1
 91
        2
176
     1
 64
     7
176
     1
 65
   257
176
     1
 75
     1
176
     1
175
     1
176
     1
 42
40.0
176
     1
 92
        8
176
     1
 66
     7
176
     1
 43
1.0
176
     1
 76
     1
176
     1
 77
     6
176
     1
 78
     2
176
     1
 67
     7
176
     1
 79
     3
176
     1
170
     0
176
     1
171
     0
176
     1
290
     0
176
     1
 93
        1
176
     1
 44
0.0
176
     1
173
     0
176
     1
  0
VISUALSTYLE
  5
35
102
{ACAD_REACTORS
330
2A
102
}
330
2A
100
AcDbVisualStyle
  2
Dim
 70
    11
177
     2
291
     1
 71
     2
176
     1
 72
     2
176
     1
 73
     0
176
     1
 90
        0
176
     1
 40
-0.6
176
     1
 41
-30.0
176
     1
 62
     5
 63
     7
421
 16777215
176
     1
 74
     1
176
     1
 91
        4
176
     1
 64
     7
176
     1
 65
   257
176
     1
 75
     1
176
     1
175
     1
176
     1
 42
1.0
176
     1
 92
        8
176
     1
 66
     7
176
     1
 43
1.0
176
     1
 76
     1
176
     1
 77
     6
176
     1
 78
     2
176
     1
 67
     7
176
     1
 79
     5
176
     1
170
     0
176
     1
171
     0
176
     1
290
     0
176
     1
 93
        1
176
     1
 44
-50.0
176
     1
173
     0
176
     1
  0
VISUALSTYLE
  5
39
102
{ACAD_REACTORS
330
2A
102
}
330
2A
100
AcDbVisualStyle
  2
Facepattern
 70
    15
177
     2
291
     1
 71
     2
176
     1
 72
     2
176
     1
 73
     0
176
     1
 90
        0
176
     1
 40
-0.6
176
     1
 41
-30.0
176
     1
 62
     5
 63
     7
421
 16777215
176
     1
 74
     1
176
     1
 91
        4
176
     1
 64
     7
176
     1
 65
   257
176
     1
 75
     1
176
     1
175
     1
176
     1
 42
1.0
176
     1
 92
        8
176
     1
 66
     7
176
     1
 43
1.0
176
     1
 76
     1
176
     1
 77
     6
176
     1
 78
     2
176
     1
 67
     7
176
     1
 79
     5
176
     1
170
     0
176
     1
171
     0
176
     1
290
     0
176
     1
 93
        1
176
     1
 44
0.0
176
     1
173
     0
176
     1
  0
VISUALSTYLE
  5
2B
102
{ACAD_REACTORS
330
2A
102
}
330
2A
100
AcDbVisualStyle
  2
Flat
 70
     0
177
     2
291
     1
 71
     2
176
     1
 72
     1
176
     1
 73
     1
176
     1
 90
        2
176
     1
 40
-0.6
176
     1
 41
30.0
176
     1
 62
     5
 63
     7
421
 16777215
176
     1
 74
     0
176
     1
 91
        4
176
     1
 64
     7
176
     1
 65
   257
176
     1
 75
     1
176
     1
175
     1
176
     1
 42
1.0
176
     1
 92
        8
176
     1
 66
     7
176
     1
 43
1.0
176
     1
 76
     1
176
     1
 77
     6
176
     1
 78
     2
176
     1
 67
     7
176
     1
 79
     5
176
     1
170
     0
176
     1
171
     0
176
     1
290
     0
176
     1
 93
       13
176
     1
 44
0.0
176
     1
173
     0
176
     1
  0
VISUALSTYLE
  5
2C
102
{ACAD_REACTORS
330
2A
102
}
330
2A
100
AcDbVisualStyle
  2
FlatWithEdges
 70
     1
177
     2
291
     1
 71
     2
176
     1
 72
     1
176
     1
 73
     1
176
     1
 90
        2
176
     1
 40
-0.6
176
     1
 41
30.0
176
     1
 62
     5
 63
     7
421
 16777215
176
     1
 74
     1
176
     1
 91
        4
176
     1
 64
     7
176
     1
 65
   257
176
     1
 75
     1
176
     1
175
     1
176
     1
 42
1.0
176
     1
 92
        0
176
     1
 66
   257
176
     1
 43
1.0
176
     1
 76
     1
176
     1
 77
     6
176
     1
 78
     2
176
     1
 67
     7
176
     1
 79
     5
176
     1
170
     0
176
     1
171
     0
176
     1
290
     0
176
     1
 93
       13
176
     1
 44
0.0
176
     1
173
     0
176
     1
  0
VISUALSTYLE
  5
2D
102
{ACAD_REACTORS
330
2A
102
}
330
2A
100
AcDbVisualStyle
  2
Gouraud
 70
     2
177
     2
291
     1
 71
     2
176
     1
 72
     2
176
     1
 73
     1
176
     1
 90
        2
176
     1
 40
-0.6
176
     1
 41
30.0
176
     1
 62
     5
 63
     7
421
 16777215
176
     1
 74
     0
176
     1
 91
        4
176
     1
 64
     7
176
     1
 65
   257
176
     1
 75
     1
176
     1
175
     1
176
     1
 42
1.0
176
     1
 92
        0
176
     1
 66
     7
176
     1
 43
1.0
176
     1
 76
     1
176
     1
 77
     6
176
     1
 78
     2
176
     1
 67
     7
176
     1
 79
     5
176
     1
170
     0
176
     1
171
     0
176
     1
290
     0
176
     1
 93
       13
176
     1
 44
0.0
176
     1
173
     0
176
     1
  0
VISUALSTYLE
  5
2E
102
{ACAD_REACTORS
330
2A
102
}
330
2A
100
AcDbVisualStyle
  2
GouraudWithEdges
 70
     3
177
     2
291
     1
 71
     2
176
     1
 72
     2
176
     1
 73
     1
176
     1
 90
        2
176
     1
 40
-0.6
176
     1
 41
30.0
176
     1
 62
     5
 63
     7
421
 16777215
176
     1
 74
     1
176
     1
 91
        4
176
     1
 64
     7
176
     1
 65
   257
176
     1
 75
     1
176
     1
175
     1
176
     1
 42
1.0
176
     1
 92
        0
176
     1
 66
   257
176
     1
 43
1.0
176
     1
 76
     1
176
     1
 77
     6
176
     1
 78
     2
176
     1
 67
     7
176
     1
 79
     5
176
     1
170
     0
176
     1
171
     0
176
     1
290
     0
176
     1
 93
       13
176
     1
 44
0.0
176
     1
173
     0
176
     1
  0
VISUALSTYLE
  5
38
102
{ACAD_REACTORS
330
2A
102
}
330
2A
100
AcDbVisualStyle
  2
Linepattern
 70
    14
177
     2
291
     1
 71
     2
176
     1
 72
     2
176
     1
 73
     0
176
     1
 90
        0
176
     1
 40
-0.6
176
     1
 41
-30.0
176
     1
 62
     5
 63
     7
421
 16777215
176
     1
 74
     1
176
     1
 91
        4
176
     1
 64
     7
176
     1
 65
   257
176
     1
 75
     7
176
     1
175
     7
176
     1
 42
1.0
176
     1
 92
        8
176
     1
 66
     7
176
     1
 43
1.0
176
     1
 76
     1
176
     1
 77
     6
176
     1
 78
     2
176
     1
 67
     7
176
     1
 79
     5
176
     1
170
     0
176
     1
171
     0
176
     1
290
     0
176
     1
 93
        1
176
     1
 44
0.0
176
     1
173
     0
176
     1
  0
VISUALSTYLE
  5
33
102
{ACAD_REACTORS
330
2A
102
}
330
2A
100
AcDbVisualStyle
  2
Realistic
 70
     8
177
     2
291
     0
 71
     2
176
     1
 72
     2
176
     1
 73
     0
176
     1
 90
        0
176
     1
 40
-0.6
176
     1
 41
-30.0
176
     1
 62
     5
 63
     7
421
 16777215
176
     1
 74
     1
176
     1
 91
        0
176
     1
 64
     7
176
     1
 65
   257
176
     1
 75
     1
176
     1
175
     1
176
     1
 42
1.0
176
     1
 92
        8
176
     1
 66
     8
424
  7895160
176
     1
 43
1.0
176
     1
 76
     1
176
     1
 77
     6
176
     1
 78
     2
176
     1
 67
     7
176
     1
 79
     5
176
     1
170
     0
176
     1
171
     0
176
     1
290
     0
176
     1
 93
       13
176
     1
 44
0.0
176
     1
173
     0
176
     1
  0
VISUALSTYLE
  5
37
102
{ACAD_REACTORS
330
2A
102
}
330
2A
100
AcDbVisualStyle
  2
Thicken
 70
    13
177
     2
291
     1
 71
     2
176
     1
 72
     2
176
     1
 73
     0
176
     1
 90
        0
176
     1
 40
-0.6
176
     1
 41
-30.0
176
     1
 62
     5
 63
     7
421
 16777215
176
     1
 74
     1
176
     1
 91
        4
176
     1
 64
     7
176
     1
 65
   257
176
     1
 75
     1
176
     1
175
     1
176
     1
 42
1.0
176
     1
 92
       12
176
     1
 66
     7
176
     1
 43
1.0
176
     1
 76
     1
176
     1
 77
     6
176
     1
 78
     2
176
     1
 67
     7
176
     1
 79
     5
176
     1
170
     0
176
     1
171
     0
176
     1
290
     0
176
     1
 93
        1
176
     1
 44
0.0
176
     1
173
     0
176
     1
  0
ENDSEC
  0
EOF
