  0
SECTION
  2
HEADER
  9
$ACADVER
  1
AC1024
  9
$ACADMAINTVER
 70
     6
  9
$DWGCODEPAGE
  3
UNDEFINED
  9
$INSBASE
 10
0.0
 20
0.0
 30
0.0
  9
$EXTMIN
 10
1.000000000000000E+20
 20
1.000000000000000E+20
 30
1.000000000000000E+20
  9
$EXTMAX
 10
-1.000000000000000E+20
 20
-1.000000000000000E+20
 30
-1.000000000000000E+20
  9
$LIMMIN
 10
0.0
 20
0.0
  9
$LIMMAX
 10
12.0
 20
9.0
  9
$ORTHOMODE
 70
     0
  9
$REGENMODE
 70
     1
  9
$FILLMODE
 70
     1
  9
$QTEXTMODE
 70
     0
  9
$MIRRTEXT
 70
     1
  9
$LTSCALE
 40
1.0
  9
$ATTMODE
 70
     1
  9
$TEXTSIZE
 40
0.2
  9
$TRACEWID
 40
0.05
  9
$TEXTSTYLE
  7
Standard
  9
$CLAYER
  8
0
  9
$CELTYPE
  6
ByLayer
  9
$CECOLOR
 62
   256
  9
$CELTSCALE
 40
1.0
  9
$DISPSILH
 70
     0
  9
$DIMSCALE
 40
1.0
  9
$DIMASZ
 40
0.18
  9
$DIMEXO
 40
0.0625
  9
$DIMDLI
 40
0.38
  9
$DIMRND
 40
0.0
  9
$DIMDLE
 40
0.0
  9
$DIMEXE
 40
0.18
  9
$DIMTP
 40
0.0
  9
$DIMTM
 40
0.0
  9
$DIMTXT
 40
0.18
  9
$DIMCEN
 40
0.09
  9
$DIMTSZ
 40
0.0
  9
$DIMTOL
 70
     0
  9
$DIMLIM
 70
     0
  9
$DIMTIH
 70
     1
  9
$DIMTOH
 70
     1
  9
$DIMSE1
 70
     0
  9
$DIMSE2
 70
     0
  9
$DIMTAD
 70
     0
  9
$DIMZIN
 70
     0
  9
$DIMBLK
  1

  9
$DIMASO
 70
     1
  9
$DIMSHO
 70
     1
  9
$DIMPOST
  1

  9
$DIMAPOST
  1

  9
$DIMALT
 70
     0
  9
$DIMALTD
 70
     2
  9
$DIMALTF
 40
25.4
  9
$DIMLFAC
 40
1.0
  9
$DIMTOFL
 70
     0
  9
$DIMTVP
 40
0.0
  9
$DIMTIX
 70
     0
  9
$DIMSOXD
 70
     0
  9
$DIMSAH
 70
     0
  9
$DIMBLK1
  1

  9
$DIMBLK2
  1

  9
$DIMSTYLE
  2
Standard
  9
$DIMCLRD
 70
     0
  9
$DIMCLRE
 70
     0
  9
$DIMCLRT
 70
     0
  9
$DIMTFAC
 40
1.0
  9
$DIMGAP
 40
0.09
  9
$DIMJUST
 70
     0
  9
$DIMSD1
 70
     0
  9
$DIMSD2
 70
     0
  9
$DIMTOLJ
 70
     1
  9
$DIMTZIN
 70
     0
  9
$DIMALTZ
 70
     0
  9
$DIMALTTZ
 70
     0
  9
$DIMUPT
 70
     0
  9
$DIMDEC
 70
     4
  9
$DIMTDEC
 70
     4
  9
$DIMALTU
 70
     2
  9
$DIMALTTD
 70
     2
  9
$DIMTXSTY
  7
Standard
  9
$DIMAUNIT
 70
     0
  9
$DIMADEC
 70
     0
  9
$DIMALTRND
 40
0.0
  9
$DIMAZIN
 70
     0
  9
$DIMDSEP
 70
    46
  9
$DIMATFIT
 70
     3
  9
$DIMFRAC
 70
     0
  9
$DIMLDRBLK
  1

  9
$DIMLUNIT
 70
     2
  9
$DIMLWD
 70
    -2
  9
$DIMLWE
 70
    -2
  9
$DIMTMOVE
 70
     0
  9
$DIMFXL
 40
1.0
  9
$DIMFXLON
 70
     0
  9
$DIMJOGANG
 40
0.7853981633974483
  9
$DIMTFILL
 70
     0
  9
$DIMTFILLCLR
 70
     0
  9
$DIMARCSYM
 70
     0
  9
$DIMLTYPE
  6

  9
$DIMLTEX1
  6

  9
$DIMLTEX2
  6

  9
$DIMTXTDIRECTION
 70
     0
  9
$LUNITS
 70
     2
  9
$LUPREC
 70
     4
  9
$SKETCHINC
 40
0.1
  9
$FILLETRAD
 40
0.5
  9
$AUNITS
 70
     0
  9
$AUPREC
 70
     0
  9
$MENU
  1
.
  9
$ELEVATION
 40
0.0
  9
$PELEVATION
 40
0.0
  9
$THICKNESS
 40
0.0
  9
$LIMCHECK
 70
     0
  9
$CHAMFERA
 40
0.5
  9
$CHAMFERB
 40
0.5
  9
$CHAMFERC
 40
1.0
  9
$CHAMFERD
 40
0.0
  9
$SKPOLY
 70
     0
  9
$TDCREATE
 40
2457917.609733785
  9
$TDUCREATE
 40
2457917.234733796
  9
$TDUPDATE
 40
2457917.609733785
  9
$TDUUPDATE
 40
2457917.234733796
  9
$TDINDWG
 40
0.0000000116
  9
$TDUSRTIMER
 40
0.0000000116
  9
$USRTIMER
 70
     1
  9
$ANGBASE
 50
0.0
  9
$ANGDIR
 70
     0
  9
$PDMODE
 70
     0
  9
$PDSIZE
 40
0.0
  9
$PLINEWID
 40
0.0
  9
$SPLFRAME
 70
     0
  9
$SPLINETYPE
 70
     6
  9
$SPLINESEGS
 70
     8
  9
$HANDSEED
  5
133
  9
$SURFTAB1
 70
     6
  9
$SURFTAB2
 70
     6
  9
$SURFTYPE
 70
     6
  9
$SURFU
 70
     6
  9
$SURFV
 70
     6
  9
$UCSBASE
  2

  9
$UCSNAME
  2

  9
$UCSORG
 10
0.0
 20
0.0
 30
0.0
  9
$UCSXDIR
 10
1.0
 20
0.0
 30
0.0
  9
$UCSYDIR
 10
0.0
 20
1.0
 30
0.0
  9
$UCSORTHOREF
  2

  9
$UCSORTHOVIEW
 70
     0
  9
$UCSORGTOP
 10
0.0
 20
0.0
 30
0.0
  9
$UCSORGBOTTOM
 10
0.0
 20
0.0
 30
0.0
  9
$UCSORGLEFT
 10
0.0
 20
0.0
 30
0.0
  9
$UCSORGRIGHT
 10
0.0
 20
0.0
 30
0.0
  9
$UCSORGFRONT
 10
0.0
 20
0.0
 30
0.0
  9
$UCSORGBACK
 10
0.0
 20
0.0
 30
0.0
  9
$PUCSBASE
  2

  9
$PUCSNAME
  2

  9
$PUCSORG
 10
0.0
 20
0.0
 30
0.0
  9
$PUCSXDIR
 10
1.0
 20
0.0
 30
0.0
  9
$PUCSYDIR
 10
0.0
 20
1.0
 30
0.0
  9
$PUCSORTHOREF
  2

  9
$PUCSORTHOVIEW
 70
     0
  9
$PUCSORGTOP
 10
0.0
 20
0.0
 30
0.0
  9
$PUCSORGBOTTOM
 10
0.0
 20
0.0
 30
0.0
  9
$PUCSORGLEFT
 10
0.0
 20
0.0
 30
0.0
  9
$PUCSORGRIGHT
 10
0.0
 20
0.0
 30
0.0
  9
$PUCSORGFRONT
 10
0.0
 20
0.0
 30
0.0
  9
$PUCSORGBACK
 10
0.0
 20
0.0
 30
0.0
  9
$USERI1
 70
     0
  9
$USERI2
 70
     0
  9
$USERI3
 70
     0
  9
$USERI4
 70
     0
  9
$USERI5
 70
     0
  9
$USERR1
 40
0.0
  9
$USERR2
 40
0.0
  9
$USERR3
 40
0.0
  9
$USERR4
 40
0.0
  9
$USERR5
 40
0.0
  9
$WORLDVIEW
 70
     1
  9
$SHADEDGE
 70
     3
  9
$SHADEDIF
 70
    70
  9
$TILEMODE
 70
     1
  9
$MAXACTVP
 70
    64
  9
$PINSBASE
 10
0.0
 20
0.0
 30
0.0
  9
$PLIMCHECK
 70
     0
  9
$PEXTMIN
 10
1.000000000000000E+20
 20
1.000000000000000E+20
 30
1.000000000000000E+20
  9
$PEXTMAX
 10
-1.000000000000000E+20
 20
-1.000000000000000E+20
 30
-1.000000000000000E+20
  9
$PLIMMIN
 10
0.0
 20
0.0
  9
$PLIMMAX
 10
12.0
 20
9.0
  9
$UNITMODE
 70
     0
  9
$VISRETAIN
 70
     1
  9
$PLINEGEN
 70
     0
  9
$PSLTSCALE
 70
     1
  9
$TREEDEPTH
 70
  3020
  9
$CMLSTYLE
  2
Standard
  9
$CMLJUST
 70
     0
  9
$CMLSCALE
 40
1.0
  9
$PROXYGRAPHICS
 70
     1
  9
$MEASUREMENT
 70
     0
  9
$CELWEIGHT
370
    -1
  9
$ENDCAPS
280
     0
  9
$JOINSTYLE
280
     0
  9
$LWDISPLAY
290
     1
  9
$INSUNITS
 70
     1
  9
$HYPERLINKBASE
  1

  9
$STYLESHEET
  1

  9
$XEDIT
290
     1
  9
$CEPSNTYPE
380
     0
  9
$PSTYLEMODE
290
     1
  9
$FINGERPRINTGUID
  2
{C4C803E9-1E3C-A68E-FA99-D6D333D8E1D3}
  9
$VERSIONGUID
  2
{FAEB1C32-E019-11D5-929B-00C0DF256EC4}
  9
$EXTNAMES
290
     1
  9
$PSVPSCALE
 40
0.0
  9
$OLESTARTUP
290
     0
  9
$SORTENTS
280
   127
  9
$INDEXCTL
280
     0
  9
$HIDETEXT
280
     1
  9
$XCLIPFRAME
280
     2
  9
$HALOGAP
280
     0
  9
$OBSCOLOR
 70
   257
  9
$OBSLTYPE
280
     0
  9
$INTERSECTIONDISPLAY
280
     0
  9
$INTERSECTIONCOLOR
 70
   257
  9
$DIMASSOC
280
     2
  9
$PROJECTNAME
  1

  9
$CAMERADISPLAY
290
     0
  9
$LENSLENGTH
 40
50.0
  9
$CAMERAHEIGHT
 40
0.0
  9
$STEPSPERSEC
 40
2.0
  9
$STEPSIZE
 40
6.0
  9
$3DDWFPREC
 40
2.0
  9
$PSOLWIDTH
 40
0.25
  9
$PSOLHEIGHT
 40
4.0
  9
$LOFTANG1
 40
1.570796326794897
  9
$LOFTANG2
 40
1.570796326794897
  9
$LOFTMAG1
 40
0.0
  9
$LOFTMAG2
 40
0.0
  9
$LOFTPARAM
 70
     7
  9
$LOFTNORMALS
280
     1
  9
$LATITUDE
 40
37.795
  9
$LONGITUDE
 40
-122.394
  9
$NORTHDIRECTION
 40
0.0
  9
$TIMEZONE
 70
 -8000
  9
$LIGHTGLYPHDISPLAY
280
     1
  9
$TILEMODELIGHTSYNCH
280
     1
  9
$CMATERIAL
347
3C
  9
$SOLIDHIST
280
     1
  9
$SHOWHIST
280
     1
  9
$DWFFRAME
280
     2
  9
$DGNFRAME
280
     2
  9
$REALWORLDSCALE
290
     1
  9
$INTERFERECOLOR
 62
   256
  9
$CSHADOW
280
     0
  9
$SHADOWPLANELOCATION
 40
0.0
  0
ENDSEC
  0
SECTION
  2
CLASSES
  0
CLASS
  1
ACDBDICTIONARYWDFLT
  2
AcDbDictionaryWithDefault
  3
ObjectDBX Classes
 90
        0
 91
        4
280
     0
281
     0
  0
CLASS
  1
VISUALSTYLE
  2
AcDbVisualStyle
  3
ObjectDBX Classes
 90
     4095
 91
        4
280
     0
281
     0
  0
CLASS
  1
MATERIAL
  2
AcDbMaterial
  3
ObjectDBX Classes
 90
     1153
 91
        4
280
     0
281
     0
  0
CLASS
  1
SUN
  2
AcDbSun
  3
SCENEOE
 90
     1024
 91
        4
280
     0
281
     0
  0
ENDSEC
  0
SECTION
  2
TABLES
  0
TABLE
  2
VPORT
  5
8
330
0
100
AcDbSymbolTable
 70
     1
  0
VPORT
  5
29
330
8
100
AcDbSymbolTableRecord
100
AcDbViewportTableRecord
  2
*Active
 70
     0
 10
0.0
 20
0.0
 11
1.0
 21
1.0
 12
0.0
 22
0.0
 13
0.0
 23
0.0
 14
0.5
 24
0.5
 15
0.5
 25
0.5
 16
0.0
 26
0.0
 36
1.0
 17
91.00082462281999
 27
-128.4993055234307
 37
0.0
 40
256.9986110468615
 41
0.7081814508812795
 42
50.0
 43
0.0
 44
0.0
 50
0.0
 51
0.0
 71
     0
 72
   100
 73
     1
 74
     3
 75
     0
 76
     0
 77
     0
 78
     0
281
     0
 65
     1
110
0.0
120
0.0
130
0.0
111
1.0
121
0.0
131
0.0
112
0.0
122
1.0
132
0.0
 79
     0
146
0.0
 60
     3
 61
     5
292
     1
282
     1
141
0.0
142
0.0
 63
   250
361
3F
  0
ENDTAB
  0
TABLE
  2
LTYPE
  5
5
330
0
100
AcDbSymbolTable
 70
     1
  0
LTYPE
  5
14
330
5
100
AcDbSymbolTableRecord
100
AcDbLinetypeTableRecord
  2
ByBlock
 70
     0
  3

 72
    65
 73
     0
 40
0.0
  0
LTYPE
  5
15
330
5
100
AcDbSymbolTableRecord
100
AcDbLinetypeTableRecord
  2
ByLayer
 70
     0
  3

 72
    65
 73
     0
 40
0.0
  0
LTYPE
  5
16
330
5
100
AcDbSymbolTableRecord
100
AcDbLinetypeTableRecord
  2
Continuous
 70
     0
  3
Solid line
 72
    65
 73
     0
 40
0.0
  0
ENDTAB
  0
TABLE
  2
LAYER
  5
2
330
0
100
AcDbSymbolTable
 70
     2
  0
LAYER
  5
10
330
2
100
AcDbSymbolTableRecord
100
AcDbLayerTableRecord
  2
0
 70
     0
 62
     7
  6
Continuous
370
    -3
390
F
347
3E
  0
LAYER
  5
40
330
2
100
AcDbSymbolTableRecord
100
AcDbLayerTableRecord
  2
_U+30EC_U+30A4_U+30E4_U+30FC 1
 70
     0
 62
     7
  6
Continuous
370
    -3
390
F
347
3E
  0
ENDTAB
  0
TABLE
  2
STYLE
  5
3
330
0
100
AcDbSymbolTable
 70
     1
  0
STYLE
  5
11
330
3
100
AcDbSymbolTableRecord
100
AcDbTextStyleTableRecord
  2
Standard
 70
     0
 40
0.0
 41
1.0
 50
0.0
 71
     0
 42
0.2
  3
txt
  4

  0
ENDTAB
  0
TABLE
  2
VIEW
  5
6
330
0
100
AcDbSymbolTable
 70
     0
  0
ENDTAB
  0
TABLE
  2
UCS
  5
7
330
0
100
AcDbSymbolTable
 70
     0
  0
ENDTAB
  0
TABLE
  2
APPID
  5
9
330
0
100
AcDbSymbolTable
 70
     1
  0
APPID
  5
12
330
9
100
AcDbSymbolTableRecord
100
AcDbRegAppTableRecord
  2
ACAD
 70
     0
  0
ENDTAB
  0
TABLE
  2
DIMSTYLE
  5
A
330
0
100
AcDbSymbolTable
 70
     1
100
AcDbDimStyleTable
  0
DIMSTYLE
105
27
330
A
100
AcDbSymbolTableRecord
100
AcDbDimStyleTableRecord
  2
Standard
 70
     0
178
     0
340
11
  0
ENDTAB
  0
TABLE
  2
BLOCK_RECORD
  5
1
330
0
100
AcDbSymbolTable
 70
     7
  0
BLOCK_RECORD
  5
1F
330
1
100
AcDbSymbolTableRecord
100
AcDbBlockTableRecord
  2
*Model_Space
340
22
 70
     0
280
     1
281
     0
  0
BLOCK_RECORD
  5
1B
330
1
100
AcDbSymbolTableRecord
100
AcDbBlockTableRecord
  2
*Paper_Space
340
1E
 70
     0
280
     1
281
     0
  0
BLOCK_RECORD
  5
23
330
1
100
AcDbSymbolTableRecord
100
AcDbBlockTableRecord
  2
*Paper_Space0
340
26
 70
     0
280
     1
281
     0
  0
BLOCK_RECORD
  5
8F
330
1
100
AcDbSymbolTableRecord
100
AcDbBlockTableRecord
  2
block 2
340
0
102
{BLKREFS
331
90
102
}
 70
     0
280
     1
281
     0
  0
BLOCK_RECORD
  5
A3
330
1
100
AcDbSymbolTableRecord
100
AcDbBlockTableRecord
  2
block 3
340
0
102
{BLKREFS
331
A4
102
}
 70
     0
280
     1
281
     0
  0
BLOCK_RECORD
  5
D4
330
1
100
AcDbSymbolTableRecord
100
AcDbBlockTableRecord
  2
block 4
340
0
102
{BLKREFS
331
D5
102
}
 70
     0
280
     1
281
     0
  0
BLOCK_RECORD
  5
F2
330
1
100
AcDbSymbolTableRecord
100
AcDbBlockTableRecord
  2
block 5
340
0
102
{BLKREFS
331
F3
102
}
 70
     0
280
     1
281
     0
  0
BLOCK_RECORD
  5
102
330
1
100
AcDbSymbolTableRecord
100
AcDbBlockTableRecord
  2
block 6
340
0
102
{BLKREFS
331
103
102
}
 70
     0
280
     1
281
     0
  0
BLOCK_RECORD
  5
129
330
1
100
AcDbSymbolTableRecord
100
AcDbBlockTableRecord
  2
block 7
340
0
102
{BLKREFS
331
12A
102
}
 70
     0
280
     1
281
     0
  0
ENDTAB
  0
ENDSEC
  0
SECTION
  2
BLOCKS
  0
BLOCK
  5
20
330
1F
100
AcDbEntity
  8
0
100
AcDbBlockBegin
  2
*Model_Space
 70
     0
 10
0.0
 20
0.0
 30
0.0
  3
*Model_Space
  1

  0
ENDBLK
  5
21
330
1F
100
AcDbEntity
  8
0
100
AcDbBlockEnd
  0
BLOCK
  5
1C
330
1B
100
AcDbEntity
 67
     1
  8
0
100
AcDbBlockBegin
  2
*Paper_Space
 70
     0
 10
0.0
 20
0.0
 30
0.0
  3
*Paper_Space
  1

  0
ENDBLK
  5
1D
330
1B
100
AcDbEntity
 67
     1
  8
0
100
AcDbBlockEnd
  0
BLOCK
  5
24
330
23
100
AcDbEntity
  8
0
100
AcDbBlockBegin
  2
*Paper_Space0
 70
     0
 10
0.0
 20
0.0
 30
0.0
  3
*Paper_Space0
  1

  0
ENDBLK
  5
25
330
23
100
AcDbEntity
  8
0
100
AcDbBlockEnd
  0
BLOCK
  5
91
330
8F
100
AcDbEntity
  8
0
100
AcDbBlockBegin
  2
block 2
 70
     0
 10
0.0
 20
0.0
 30
0.0
  3
block 2
  1

  0
SPLINE
  5
93
330
8F
100
AcDbEntity
  8
_U+30EC_U+30A4_U+30E4_U+30FC 1
370
     0
100
AcDbSpline
210
0.0
220
0.0
230
1.0
 70
    11
 71
     3
 72
    62
 73
    58
 74
     0
 42
0.0000000001
 43
0.0000000001
 12
1.0
 22
0.0
 32
0.0
 13
1.0
 23
0.0
 33
0.0
 40
0.0
 40
0.0
 40
0.0
 40
0.0
 40
1.0
 40
1.0
 40
1.0
 40
2.0
 40
2.0
 40
2.0
 40
3.0
 40
3.0
 40
3.0
 40
4.0
 40
4.0
 40
4.0
 40
5.0
 40
5.0
 40
5.0
 40
6.0
 40
6.0
 40
6.0
 40
7.0
 40
7.0
 40
7.0
 40
8.0
 40
8.0
 40
8.0
 40
9.0
 40
9.0
 40
9.0
 40
10.0
 40
10.0
 40
10.0
 40
11.0
 40
11.0
 40
11.0
 40
12.0
 40
12.0
 40
12.0
 40
13.0
 40
13.0
 40
13.0
 40
14.0
 40
14.0
 40
14.0
 40
15.0
 40
15.0
 40
15.0
 40
16.0
 40
16.0
 40
16.0
 40
17.0
 40
17.0
 40
17.0
 40
18.0
 40
18.0
 40
18.0
 40
19.0
 40
19.0
 40
19.0
 40
19.0
 10
78.2243380880828
 20
-139.9428791967851
 30
0.0
 10
78.12908119791565
 20
-139.9428791967851
 30
0.0
 10
77.9111789084736
 20
-139.9218641143251
 30
0.0
 10
77.78646645190756
 20
-139.7354844485731
 30
0.0
 10
77.71239689897469
 20
-139.6235188453025
 30
0.0
 10
77.70809052961812
 20
-139.5239555857787
 30
0.0
 10
77.70395641503582
 20
-139.4395507463901
 30
0.0
 10
77.70395641503582
 20
-139.4395507463901
 30
0.0
 10
77.92392576176903
 20
-139.4395507463901
 30
0.0
 10
77.92392576176903
 20
-139.4395507463901
 30
0.0
 10
77.92599281906017
 20
-139.5132757897745
 30
0.0
 10
77.93667261506445
 20
-139.7482313018685
 30
0.0
 10
78.22003171872625
 20
-139.7482313018685
 30
0.0
 10
78.35766328336197
 20
-139.7482313018685
 30
0.0
 10
78.50993650381002
 20
-139.6782958635179
 30
0.0
 10
78.50993650381002
 20
-139.4498860328459
 30
0.0
 10
78.50993650381002
 20
-139.3334418054444
 30
0.0
 10
78.471868198698
 20
-139.2848659591024
 30
0.0
 10
78.44017332023371
 20
-139.2531710806381
 30
0.0
 10
78.36610376730084
 20
-139.1791015277052
 30
0.0
 10
78.2496595398994
 20
-139.1663546744098
 30
0.0
 10
78.19471026690965
 20
-139.1663546744098
 30
0.0
 10
78.17576224174078
 20
-139.1663546744098
 30
0.0
 10
78.13976099391992
 20
-139.1687662412495
 30
0.0
 10
78.11220023003793
 20
-139.1729003558318
 30
0.0
 10
78.11220023003793
 20
-139.1729003558318
 30
0.0
 10
78.11220023003793
 20
-138.9782524609152
 30
0.0
 10
78.11220023003793
 20
-138.9782524609152
 30
0.0
 10
78.15026853514993
 20
-138.9844536327886
 30
0.0
 10
78.19264320961851
 20
-138.9865206900798
 30
0.0
 10
78.19901663626622
 20
-138.9865206900798
 30
0.0
 10
78.26447345048597
 20
-138.9865206900798
 30
0.0
 10
78.46342771475915
 20
-138.9655056076197
 30
0.0
 10
78.46342771475915
 20
-138.7284830382345
 30
0.0
 10
78.46342771475915
 20
-138.5507161111957
 30
0.0
 10
78.33216957677112
 20
-138.4959390929802
 30
0.0
 10
78.22227103079166
 20
-138.4959390929802
 30
0.0
 10
77.95785995229873
 20
-138.4959390929802
 30
0.0
 10
77.94924721358561
 20
-138.7284830382345
 30
0.0
 10
77.94511309900331
 20
-138.8004855338763
 30
0.0
 10
77.94511309900331
 20
-138.8004855338763
 30
0.0
 10
77.74202472014782
 20
-138.8004855338763
 30
0.0
 10
77.74202472014782
 20
-138.8004855338763
 30
0.0
 10
77.7504652040867
 20
-138.6757730773102
 30
0.0
 10
77.77802596796869
 20
-138.2992241407724
 30
0.0
 10
78.23484562931282
 20
-138.2992241407724
 30
0.0
 10
78.45912134540258
 20
-138.2992241407724
 30
0.0
 10
78.70027802937007
 20
-138.4260036546296
 30
0.0
 10
78.70027802937007
 20
-138.7222818663611
 30
0.0
 10
78.70027802937007
 20
-138.9083170225646
 30
0.0
 10
78.60519339397717
 20
-138.9909993142106
 30
0.0
 10
78.50563013445345
 20
-139.052322013848
 30
0.0
 10
78.56712508886517
 20
-139.07988277773
 30
0.0
 10
78.74902613048636
 20
-139.1601535025364
 30
0.0
 10
78.74902613048636
 20
-139.4371391795505
 30
0.0
 10
78.74902613048636
 20
-139.7757920657505
 30
0.0
 10
78.50149601987115
 20
-139.9428791967851
 30
0.0
 10
78.2243380880828
 20
-139.9428791967851
 30
0.0
  0
HATCH
  5
94
330
8F
100
AcDbEntity
  8
_U+30EC_U+30A4_U+30E4_U+30FC 1
 62
   179
420
  2234388
100
AcDbHatch
 10
0.0
 20
0.0
 30
0.0
210
0.0
220
0.0
230
1.0
  2
SOLID
 70
     1
 71
     0
 91
        1
 92
        1
 93
        1
 72
     4
 94
        3
 73
     0
 74
     1
 95
       62
 96
       58
 40
0.0
 40
0.0
 40
0.0
 40
0.0
 40
1.0
 40
1.0
 40
1.0
 40
2.0
 40
2.0
 40
2.0
 40
3.0
 40
3.0
 40
3.0
 40
4.0
 40
4.0
 40
4.0
 40
5.0
 40
5.0
 40
5.0
 40
6.0
 40
6.0
 40
6.0
 40
7.0
 40
7.0
 40
7.0
 40
8.0
 40
8.0
 40
8.0
 40
9.0
 40
9.0
 40
9.0
 40
10.0
 40
10.0
 40
10.0
 40
11.0
 40
11.0
 40
11.0
 40
12.0
 40
12.0
 40
12.0
 40
13.0
 40
13.0
 40
13.0
 40
14.0
 40
14.0
 40
14.0
 40
15.0
 40
15.0
 40
15.0
 40
16.0
 40
16.0
 40
16.0
 40
17.0
 40
17.0
 40
17.0
 40
18.0
 40
18.0
 40
18.0
 40
19.0
 40
19.0
 40
19.0
 40
19.0
 10
78.2243380880828
 20
-139.9428791967851
 10
78.12908119791565
 20
-139.9428791967851
 10
77.9111789084736
 20
-139.9218641143251
 10
77.78646645190756
 20
-139.7354844485731
 10
77.71239689897469
 20
-139.6235188453025
 10
77.70809052961812
 20
-139.5239555857787
 10
77.70395641503582
 20
-139.4395507463901
 10
77.70395641503582
 20
-139.4395507463901
 10
77.92392576176903
 20
-139.4395507463901
 10
77.92392576176903
 20
-139.4395507463901
 10
77.92599281906017
 20
-139.5132757897745
 10
77.93667261506445
 20
-139.7482313018685
 10
78.22003171872625
 20
-139.7482313018685
 10
78.35766328336197
 20
-139.7482313018685
 10
78.50993650381002
 20
-139.6782958635179
 10
78.50993650381002
 20
-139.4498860328459
 10
78.50993650381002
 20
-139.3334418054444
 10
78.471868198698
 20
-139.2848659591024
 10
78.44017332023371
 20
-139.2531710806381
 10
78.36610376730084
 20
-139.1791015277052
 10
78.2496595398994
 20
-139.1663546744098
 10
78.19471026690965
 20
-139.1663546744098
 10
78.17576224174078
 20
-139.1663546744098
 10
78.13976099391992
 20
-139.1687662412495
 10
78.11220023003793
 20
-139.1729003558318
 10
78.11220023003793
 20
-139.1729003558318
 10
78.11220023003793
 20
-138.9782524609152
 10
78.11220023003793
 20
-138.9782524609152
 10
78.15026853514993
 20
-138.9844536327886
 10
78.19264320961851
 20
-138.9865206900798
 10
78.19901663626622
 20
-138.9865206900798
 10
78.26447345048597
 20
-138.9865206900798
 10
78.46342771475915
 20
-138.9655056076197
 10
78.46342771475915
 20
-138.7284830382345
 10
78.46342771475915
 20
-138.5507161111957
 10
78.33216957677112
 20
-138.4959390929802
 10
78.22227103079166
 20
-138.4959390929802
 10
77.95785995229873
 20
-138.4959390929802
 10
77.94924721358561
 20
-138.7284830382345
 10
77.94511309900331
 20
-138.8004855338763
 10
77.94511309900331
 20
-138.8004855338763
 10
77.74202472014782
 20
-138.8004855338763
 10
77.74202472014782
 20
-138.8004855338763
 10
77.7504652040867
 20
-138.6757730773102
 10
77.77802596796869
 20
-138.2992241407724
 10
78.23484562931282
 20
-138.2992241407724
 10
78.45912134540258
 20
-138.2992241407724
 10
78.70027802937007
 20
-138.4260036546296
 10
78.70027802937007
 20
-138.7222818663611
 10
78.70027802937007
 20
-138.9083170225646
 10
78.60519339397717
 20
-138.9909993142106
 10
78.50563013445345
 20
-139.052322013848
 10
78.56712508886517
 20
-139.07988277773
 10
78.74902613048636
 20
-139.1601535025364
 10
78.74902613048636
 20
-139.4371391795505
 10
78.74902613048636
 20
-139.7757920657505
 10
78.50149601987115
 20
-139.9428791967851
 10
78.2243380880828
 20
-139.9428791967851
 97
        0
 97
        0
 75
     2
 76
     1
 98
        0
  0
ENDBLK
  5
92
330
8F
100
AcDbEntity
  8
0
100
AcDbBlockEnd
  0
BLOCK
  5
A5
330
A3
100
AcDbEntity
  8
0
100
AcDbBlockBegin
  2
block 3
 70
     0
 10
0.0
 20
0.0
 30
0.0
  3
block 3
  1

  0
SPLINE
  5
A7
330
A3
100
AcDbEntity
  8
_U+30EC_U+30A4_U+30E4_U+30FC 1
370
     0
100
AcDbSpline
210
0.0
220
0.0
230
1.0
 70
    11
 71
     3
 72
    26
 73
    22
 74
     0
 42
0.0000000001
 43
0.0000000001
 12
1.0
 22
0.0
 32
0.0
 13
1.0
 23
0.0
 33
0.0
 40
0.0
 40
0.0
 40
0.0
 40
0.0
 40
1.0
 40
1.0
 40
1.0
 40
2.0
 40
2.0
 40
2.0
 40
3.0
 40
3.0
 40
3.0
 40
4.0
 40
4.0
 40
4.0
 40
5.0
 40
5.0
 40
5.0
 40
6.0
 40
6.0
 40
6.0
 40
7.0
 40
7.0
 40
7.0
 40
7.0
 10
83.09570310422608
 20
-117.8923732886693
 30
0.0
 10
83.09570310422608
 20
-117.8923732886693
 30
0.0
 10
83.09570310422608
 20
-116.7880479308724
 30
0.0
 10
83.09570310422608
 20
-116.7880479308724
 30
0.0
 10
83.09570310422608
 20
-116.7880479308724
 30
0.0
 10
82.76566295673915
 20
-116.7880479308724
 30
0.0
 10
82.76566295673915
 20
-116.7880479308724
 30
0.0
 10
82.76566295673915
 20
-116.7880479308724
 30
0.0
 10
82.76566295673915
 20
-116.640081079781
 30
0.0
 10
82.76566295673915
 20
-116.640081079781
 30
0.0
 10
83.09777016151723
 20
-116.6252671691944
 30
0.0
 10
83.14427895056811
 20
-116.4623141527421
 30
0.0
 10
83.17390677174124
 20
-116.348109237406
 30
0.0
 10
83.17390677174124
 20
-116.348109237406
 30
0.0
 10
83.31980656554158
 20
-116.348109237406
 30
0.0
 10
83.31980656554158
 20
-116.348109237406
 30
0.0
 10
83.31980656554158
 20
-116.348109237406
 30
0.0
 10
83.31980656554158
 20
-117.8923732886693
 30
0.0
 10
83.31980656554158
 20
-117.8923732886693
 30
0.0
 10
83.31980656554158
 20
-117.8923732886693
 30
0.0
 10
83.09570310422608
 20
-117.8923732886693
 30
0.0
 10
83.09570310422608
 20
-117.8923732886693
 30
0.0
  0
HATCH
  5
A8
330
A3
100
AcDbEntity
  8
_U+30EC_U+30A4_U+30E4_U+30FC 1
 62
   179
420
  2234388
100
AcDbHatch
 10
0.0
 20
0.0
 30
0.0
210
0.0
220
0.0
230
1.0
  2
SOLID
 70
     1
 71
     0
 91
        1
 92
        1
 93
        1
 72
     4
 94
        3
 73
     0
 74
     1
 95
       26
 96
       22
 40
0.0
 40
0.0
 40
0.0
 40
0.0
 40
1.0
 40
1.0
 40
1.0
 40
2.0
 40
2.0
 40
2.0
 40
3.0
 40
3.0
 40
3.0
 40
4.0
 40
4.0
 40
4.0
 40
5.0
 40
5.0
 40
5.0
 40
6.0
 40
6.0
 40
6.0
 40
7.0
 40
7.0
 40
7.0
 40
7.0
 10
83.09570310422608
 20
-117.8923732886693
 10
83.09570310422608
 20
-117.8923732886693
 10
83.09570310422608
 20
-116.7880479308724
 10
83.09570310422608
 20
-116.7880479308724
 10
83.09570310422608
 20
-116.7880479308724
 10
82.76566295673915
 20
-116.7880479308724
 10
82.76566295673915
 20
-116.7880479308724
 10
82.76566295673915
 20
-116.7880479308724
 10
82.76566295673915
 20
-116.640081079781
 10
82.76566295673915
 20
-116.640081079781
 10
83.09777016151723
 20
-116.6252671691944
 10
83.14427895056811
 20
-116.4623141527421
 10
83.17390677174124
 20
-116.348109237406
 10
83.17390677174124
 20
-116.348109237406
 10
83.31980656554158
 20
-116.348109237406
 10
83.31980656554158
 20
-116.348109237406
 10
83.31980656554158
 20
-116.348109237406
 10
83.31980656554158
 20
-117.8923732886693
 10
83.31980656554158
 20
-117.8923732886693
 10
83.31980656554158
 20
-117.8923732886693
 10
83.09570310422608
 20
-117.8923732886693
 10
83.09570310422608
 20
-117.8923732886693
 97
        0
 97
        0
 75
     2
 76
     1
 98
        0
  0
POLYLINE
  5
A9
330
A3
100
AcDbEntity
  8
_U+30EC_U+30A4_U+30E4_U+30FC 1
370
     0
100
AcDb2dPolyline
 66
     1
 10
0.0
 20
0.0
 30
0.0
  0
VERTEX
  5
AA
330
A9
100
AcDbEntity
  8
_U+30EC_U+30A4_U+30E4_U+30FC 1
370
     0
100
AcDbVertex
100
AcDb2dVertex
 10
84.65323077310752
 20
-117.5454521733046
 30
0.0
  0
VERTEX
  5
AB
330
A9
100
AcDbEntity
  8
_U+30EC_U+30A4_U+30E4_U+30FC 1
370
     0
100
AcDbVertex
100
AcDb2dVertex
 10
84.65323077310752
 20
-117.8923732886693
 30
0.0
  0
VERTEX
  5
AC
330
A9
100
AcDbEntity
  8
_U+30EC_U+30A4_U+30E4_U+30FC 1
370
     0
100
AcDbVertex
100
AcDb2dVertex
 10
84.43532848366547
 20
-117.8923732886693
 30
0.0
  0
VERTEX
  5
AD
330
A9
100
AcDbEntity
  8
_U+30EC_U+30A4_U+30E4_U+30FC 1
370
     0
100
AcDbVertex
100
AcDb2dVertex
 10
84.43532848366547
 20
-117.5454521733046
 30
0.0
  0
VERTEX
  5
AE
330
A9
100
AcDbEntity
  8
_U+30EC_U+30A4_U+30E4_U+30FC 1
370
     0
100
AcDbVertex
100
AcDb2dVertex
 10
83.77955455804818
 20
-117.5454521733046
 30
0.0
  0
VERTEX
  5
AF
330
A9
100
AcDbEntity
  8
_U+30EC_U+30A4_U+30E4_U+30FC 1
370
     0
100
AcDbVertex
100
AcDb2dVertex
 10
83.77955455804818
 20
-117.3211764572148
 30
0.0
  0
VERTEX
  5
B0
330
A9
100
AcDbEntity
  8
_U+30EC_U+30A4_U+30E4_U+30FC 1
370
     0
100
AcDbVertex
100
AcDb2dVertex
 10
84.45858287819091
 20
-116.348109237406
 30
0.0
  0
VERTEX
  5
B1
330
A9
100
AcDbEntity
  8
_U+30EC_U+30A4_U+30E4_U+30FC 1
370
     0
100
AcDbVertex
100
AcDb2dVertex
 10
84.65323077310752
 20
-116.348109237406
 30
0.0
  0
VERTEX
  5
B2
330
A9
100
AcDbEntity
  8
_U+30EC_U+30A4_U+30E4_U+30FC 1
370
     0
100
AcDbVertex
100
AcDb2dVertex
 10
84.65323077310752
 20
-117.3466701638057
 30
0.0
  0
VERTEX
  5
B3
330
A9
100
AcDbEntity
  8
_U+30EC_U+30A4_U+30E4_U+30FC 1
370
     0
100
AcDbVertex
100
AcDb2dVertex
 10
84.86062552131958
 20
-117.3466701638057
 30
0.0
  0
VERTEX
  5
B4
330
A9
100
AcDbEntity
  8
_U+30EC_U+30A4_U+30E4_U+30FC 1
370
     0
100
AcDbVertex
100
AcDb2dVertex
 10
84.86062552131958
 20
-117.5454521733046
 30
0.0
  0
VERTEX
  5
B5
330
A9
100
AcDbEntity
  8
_U+30EC_U+30A4_U+30E4_U+30FC 1
370
     0
100
AcDbVertex
100
AcDb2dVertex
 10
84.65323077310752
 20
-117.5454521733046
 30
0.0
  0
SEQEND
  5
B6
330
A9
100
AcDbEntity
  8
_U+30EC_U+30A4_U+30E4_U+30FC 1
370
     0
  0
POLYLINE
  5
B7
330
A3
100
AcDbEntity
  8
_U+30EC_U+30A4_U+30E4_U+30FC 1
370
     0
100
AcDb2dPolyline
 66
     1
 10
0.0
 20
0.0
 30
0.0
  0
VERTEX
  5
B8
330
B7
100
AcDbEntity
  8
_U+30EC_U+30A4_U+30E4_U+30FC 1
370
     0
100
AcDbVertex
100
AcDb2dVertex
 10
84.43532848366547
 20
-116.6907239834141
 30
0.0
  0
VERTEX
  5
B9
330
B7
100
AcDbEntity
  8
_U+30EC_U+30A4_U+30E4_U+30FC 1
370
     0
100
AcDbVertex
100
AcDb2dVertex
 10
83.97850882232134
 20
-117.3466701638057
 30
0.0
  0
VERTEX
  5
BA
330
B7
100
AcDbEntity
  8
_U+30EC_U+30A4_U+30E4_U+30FC 1
370
     0
100
AcDbVertex
100
AcDb2dVertex
 10
84.43532848366547
 20
-117.3466701638057
 30
0.0
  0
VERTEX
  5
BB
330
B7
100
AcDbEntity
  8
_U+30EC_U+30A4_U+30E4_U+30FC 1
370
     0
100
AcDbVertex
100
AcDb2dVertex
 10
84.43532848366547
 20
-116.6907239834141
 30
0.0
  0
SEQEND
  5
BC
330
B7
100
AcDbEntity
  8
_U+30EC_U+30A4_U+30E4_U+30FC 1
370
     0
  0
HATCH
  5
BD
330
A3
100
AcDbEntity
  8
_U+30EC_U+30A4_U+30E4_U+30FC 1
 62
   179
420
  2234388
100
AcDbHatch
 10
0.0
 20
0.0
 30
0.0
210
0.0
220
0.0
230
1.0
  2
SOLID
 70
     1
 71
     0
 91
        2
 92
        1
 93
       11
 72
     1
 10
84.65323077310752
 20
-117.5454521733046
 11
84.65323077310752
 21
-117.8923732886693
 72
     1
 10
84.65323077310752
 20
-117.8923732886693
 11
84.43532848366547
 21
-117.8923732886693
 72
     1
 10
84.43532848366547
 20
-117.8923732886693
 11
84.43532848366547
 21
-117.5454521733046
 72
     1
 10
84.43532848366547
 20
-117.5454521733046
 11
83.77955455804818
 21
-117.5454521733046
 72
     1
 10
83.77955455804818
 20
-117.5454521733046
 11
83.77955455804818
 21
-117.3211764572148
 72
     1
 10
83.77955455804818
 20
-117.3211764572148
 11
84.45858287819091
 21
-116.348109237406
 72
     1
 10
84.45858287819091
 20
-116.348109237406
 11
84.65323077310752
 21
-116.348109237406
 72
     1
 10
84.65323077310752
 20
-116.348109237406
 11
84.65323077310752
 21
-117.3466701638057
 72
     1
 10
84.65323077310752
 20
-117.3466701638057
 11
84.86062552131958
 21
-117.3466701638057
 72
     1
 10
84.86062552131958
 20
-117.3466701638057
 11
84.86062552131958
 21
-117.5454521733046
 72
     1
 10
84.86062552131958
 20
-117.5454521733046
 11
84.65323077310752
 21
-117.5454521733046
 97
        0
 92
        1
 93
        3
 72
     1
 10
84.43532848366547
 20
-116.6907239834141
 11
83.97850882232134
 21
-117.3466701638057
 72
     1
 10
83.97850882232134
 20
-117.3466701638057
 11
84.43532848366547
 21
-117.3466701638057
 72
     1
 10
84.43532848366547
 20
-117.3466701638057
 11
84.43532848366547
 21
-116.6907239834141
 97
        0
 75
     2
 76
     1
 98
        0
  0
ENDBLK
  5
A6
330
A3
100
AcDbEntity
  8
0
100
AcDbBlockEnd
  0
BLOCK
  5
D6
330
D4
100
AcDbEntity
  8
0
100
AcDbBlockBegin
  2
block 4
 70
     0
 10
0.0
 20
0.0
 30
0.0
  3
block 4
  1

  0
SPLINE
  5
D8
330
D4
100
AcDbEntity
  8
_U+30EC_U+30A4_U+30E4_U+30FC 1
370
     0
100
AcDbSpline
210
0.0
220
0.0
230
1.0
 70
    11
 71
     3
 72
    26
 73
    22
 74
     0
 42
0.0000000001
 43
0.0000000001
 12
1.0
 22
0.0
 32
0.0
 13
1.0
 23
0.0
 33
0.0
 40
0.0
 40
0.0
 40
0.0
 40
0.0
 40
1.0
 40
1.0
 40
1.0
 40
2.0
 40
2.0
 40
2.0
 40
3.0
 40
3.0
 40
3.0
 40
4.0
 40
4.0
 40
4.0
 40
5.0
 40
5.0
 40
5.0
 40
6.0
 40
6.0
 40
6.0
 40
7.0
 40
7.0
 40
7.0
 40
7.0
 10
74.241807707134
 20
-129.902492914573
 30
0.0
 10
74.241807707134
 20
-129.902492914573
 30
0.0
 10
73.13748234933716
 20
-129.902492914573
 30
0.0
 10
73.13748234933716
 20
-129.902492914573
 30
0.0
 10
73.13748234933716
 20
-129.902492914573
 30
0.0
 10
73.13748234933716
 20
-130.2325330620599
 30
0.0
 10
73.13748234933716
 20
-130.2325330620599
 30
0.0
 10
73.13748234933716
 20
-130.2325330620599
 30
0.0
 10
72.98951549824568
 20
-130.2325330620599
 30
0.0
 10
72.98951549824568
 20
-130.2325330620599
 30
0.0
 10
72.97470158765911
 20
-129.9004258572818
 30
0.0
 10
72.81174857120679
 20
-129.853917068231
 30
0.0
 10
72.69754365587076
 20
-129.8242892470578
 30
0.0
 10
72.69754365587076
 20
-129.8242892470578
 30
0.0
 10
72.69754365587076
 20
-129.6782171984832
 30
0.0
 10
72.69754365587076
 20
-129.6782171984832
 30
0.0
 10
72.69754365587076
 20
-129.6782171984832
 30
0.0
 10
74.241807707134
 20
-129.6782171984832
 30
0.0
 10
74.241807707134
 20
-129.6782171984832
 30
0.0
 10
74.241807707134
 20
-129.6782171984832
 30
0.0
 10
74.241807707134
 20
-129.902492914573
 30
0.0
 10
74.241807707134
 20
-129.902492914573
 30
0.0
  0
HATCH
  5
D9
330
D4
100
AcDbEntity
  8
_U+30EC_U+30A4_U+30E4_U+30FC 1
 62
   179
420
  2234388
100
AcDbHatch
 10
0.0
 20
0.0
 30
0.0
210
0.0
220
0.0
230
1.0
  2
SOLID
 70
     1
 71
     0
 91
        1
 92
        1
 93
        1
 72
     4
 94
        3
 73
     0
 74
     1
 95
       26
 96
       22
 40
0.0
 40
0.0
 40
0.0
 40
0.0
 40
1.0
 40
1.0
 40
1.0
 40
2.0
 40
2.0
 40
2.0
 40
3.0
 40
3.0
 40
3.0
 40
4.0
 40
4.0
 40
4.0
 40
5.0
 40
5.0
 40
5.0
 40
6.0
 40
6.0
 40
6.0
 40
7.0
 40
7.0
 40
7.0
 40
7.0
 10
74.241807707134
 20
-129.902492914573
 10
74.241807707134
 20
-129.902492914573
 10
73.13748234933716
 20
-129.902492914573
 10
73.13748234933716
 20
-129.902492914573
 10
73.13748234933716
 20
-129.902492914573
 10
73.13748234933716
 20
-130.2325330620599
 10
73.13748234933716
 20
-130.2325330620599
 10
73.13748234933716
 20
-130.2325330620599
 10
72.98951549824568
 20
-130.2325330620599
 10
72.98951549824568
 20
-130.2325330620599
 10
72.97470158765911
 20
-129.9004258572818
 10
72.81174857120679
 20
-129.853917068231
 10
72.69754365587076
 20
-129.8242892470578
 10
72.69754365587076
 20
-129.8242892470578
 10
72.69754365587076
 20
-129.6782171984832
 10
72.69754365587076
 20
-129.6782171984832
 10
72.69754365587076
 20
-129.6782171984832
 10
74.241807707134
 20
-129.6782171984832
 10
74.241807707134
 20
-129.6782171984832
 10
74.241807707134
 20
-129.6782171984832
 10
74.241807707134
 20
-129.902492914573
 10
74.241807707134
 20
-129.902492914573
 97
        0
 97
        0
 75
     2
 76
     1
 98
        0
  0
POLYLINE
  5
DA
330
D4
100
AcDbEntity
  8
_U+30EC_U+30A4_U+30E4_U+30FC 1
370
     0
100
AcDb2dPolyline
 66
     1
 10
0.0
 20
0.0
 30
0.0
  0
VERTEX
  5
DB
330
DA
100
AcDbEntity
  8
_U+30EC_U+30A4_U+30E4_U+30FC 1
370
     0
100
AcDbVertex
100
AcDb2dVertex
 10
73.89488659176934
 20
-128.3447929909173
 30
0.0
  0
VERTEX
  5
DC
330
DA
100
AcDbEntity
  8
_U+30EC_U+30A4_U+30E4_U+30FC 1
370
     0
100
AcDbVertex
100
AcDb2dVertex
 10
74.241807707134
 20
-128.3447929909173
 30
0.0
  0
VERTEX
  5
DD
330
DA
100
AcDbEntity
  8
_U+30EC_U+30A4_U+30E4_U+30FC 1
370
     0
100
AcDbVertex
100
AcDb2dVertex
 10
74.241807707134
 20
-128.5626952803593
 30
0.0
  0
VERTEX
  5
DE
330
DA
100
AcDbEntity
  8
_U+30EC_U+30A4_U+30E4_U+30FC 1
370
     0
100
AcDbVertex
100
AcDb2dVertex
 10
73.89488659176934
 20
-128.5626952803593
 30
0.0
  0
VERTEX
  5
DF
330
DA
100
AcDbEntity
  8
_U+30EC_U+30A4_U+30E4_U+30FC 1
370
     0
100
AcDbVertex
100
AcDb2dVertex
 10
73.89488659176934
 20
-129.2186414607509
 30
0.0
  0
VERTEX
  5
E0
330
DA
100
AcDbEntity
  8
_U+30EC_U+30A4_U+30E4_U+30FC 1
370
     0
100
AcDbVertex
100
AcDb2dVertex
 10
73.67061087567957
 20
-129.2186414607509
 30
0.0
  0
VERTEX
  5
E1
330
DA
100
AcDbEntity
  8
_U+30EC_U+30A4_U+30E4_U+30FC 1
370
     0
100
AcDbVertex
100
AcDb2dVertex
 10
72.69754365587076
 20
-128.5394408858339
 30
0.0
  0
VERTEX
  5
E2
330
DA
100
AcDbEntity
  8
_U+30EC_U+30A4_U+30E4_U+30FC 1
370
     0
100
AcDbVertex
100
AcDb2dVertex
 10
72.69754365587076
 20
-128.3447929909173
 30
0.0
  0
VERTEX
  5
E3
330
DA
100
AcDbEntity
  8
_U+30EC_U+30A4_U+30E4_U+30FC 1
370
     0
100
AcDbVertex
100
AcDb2dVertex
 10
73.69610458227042
 20
-128.3447929909173
 30
0.0
  0
VERTEX
  5
E4
330
DA
100
AcDbEntity
  8
_U+30EC_U+30A4_U+30E4_U+30FC 1
370
     0
100
AcDbVertex
100
AcDb2dVertex
 10
73.69610458227042
 20
-128.1375704974795
 30
0.0
  0
VERTEX
  5
E5
330
DA
100
AcDbEntity
  8
_U+30EC_U+30A4_U+30E4_U+30FC 1
370
     0
100
AcDbVertex
100
AcDb2dVertex
 10
73.89488659176934
 20
-128.1375704974795
 30
0.0
  0
VERTEX
  5
E6
330
DA
100
AcDbEntity
  8
_U+30EC_U+30A4_U+30E4_U+30FC 1
370
     0
100
AcDbVertex
100
AcDb2dVertex
 10
73.89488659176934
 20
-128.3447929909173
 30
0.0
  0
SEQEND
  5
E7
330
DA
100
AcDbEntity
  8
_U+30EC_U+30A4_U+30E4_U+30FC 1
370
     0
  0
POLYLINE
  5
E8
330
D4
100
AcDbEntity
  8
_U+30EC_U+30A4_U+30E4_U+30FC 1
370
     0
100
AcDb2dPolyline
 66
     1
 10
0.0
 20
0.0
 30
0.0
  0
VERTEX
  5
E9
330
E8
100
AcDbEntity
  8
_U+30EC_U+30A4_U+30E4_U+30FC 1
370
     0
100
AcDbVertex
100
AcDb2dVertex
 10
73.04015840187886
 20
-128.5626952803593
 30
0.0
  0
VERTEX
  5
EA
330
E8
100
AcDbEntity
  8
_U+30EC_U+30A4_U+30E4_U+30FC 1
370
     0
100
AcDbVertex
100
AcDb2dVertex
 10
73.69610458227042
 20
-129.0195149417034
 30
0.0
  0
VERTEX
  5
EB
330
E8
100
AcDbEntity
  8
_U+30EC_U+30A4_U+30E4_U+30FC 1
370
     0
100
AcDbVertex
100
AcDb2dVertex
 10
73.69610458227042
 20
-128.5626952803593
 30
0.0
  0
VERTEX
  5
EC
330
E8
100
AcDbEntity
  8
_U+30EC_U+30A4_U+30E4_U+30FC 1
370
     0
100
AcDbVertex
100
AcDb2dVertex
 10
73.04015840187886
 20
-128.5626952803593
 30
0.0
  0
SEQEND
  5
ED
330
E8
100
AcDbEntity
  8
_U+30EC_U+30A4_U+30E4_U+30FC 1
370
     0
  0
HATCH
  5
EE
330
D4
100
AcDbEntity
  8
_U+30EC_U+30A4_U+30E4_U+30FC 1
 62
   179
420
  2234388
100
AcDbHatch
 10
0.0
 20
0.0
 30
0.0
210
0.0
220
0.0
230
1.0
  2
SOLID
 70
     1
 71
     0
 91
        2
 92
        1
 93
       11
 72
     1
 10
73.89488659176934
 20
-128.3447929909173
 11
74.241807707134
 21
-128.3447929909173
 72
     1
 10
74.241807707134
 20
-128.3447929909173
 11
74.241807707134
 21
-128.5626952803593
 72
     1
 10
74.241807707134
 20
-128.5626952803593
 11
73.89488659176934
 21
-128.5626952803593
 72
     1
 10
73.89488659176934
 20
-128.5626952803593
 11
73.89488659176934
 21
-129.2186414607509
 72
     1
 10
73.89488659176934
 20
-129.2186414607509
 11
73.67061087567957
 21
-129.2186414607509
 72
     1
 10
73.67061087567957
 20
-129.2186414607509
 11
72.69754365587076
 21
-128.5394408858339
 72
     1
 10
72.69754365587076
 20
-128.5394408858339
 11
72.69754365587076
 21
-128.3447929909173
 72
     1
 10
72.69754365587076
 20
-128.3447929909173
 11
73.69610458227042
 21
-128.3447929909173
 72
     1
 10
73.69610458227042
 20
-128.3447929909173
 11
73.69610458227042
 21
-128.1375704974795
 72
     1
 10
73.69610458227042
 20
-128.1375704974795
 11
73.89488659176934
 21
-128.1375704974795
 72
     1
 10
73.89488659176934
 20
-128.1375704974795
 11
73.89488659176934
 21
-128.3447929909173
 97
        0
 92
        1
 93
        3
 72
     1
 10
73.04015840187886
 20
-128.5626952803593
 11
73.69610458227042
 21
-129.0195149417034
 72
     1
 10
73.69610458227042
 20
-129.0195149417034
 11
73.69610458227042
 21
-128.5626952803593
 72
     1
 10
73.69610458227042
 20
-128.5626952803593
 11
73.04015840187886
 21
-128.5626952803593
 97
        0
 75
     2
 76
     1
 98
        0
  0
ENDBLK
  5
D7
330
D4
100
AcDbEntity
  8
0
100
AcDbBlockEnd
  0
BLOCK
  5
F4
330
F2
100
AcDbEntity
  8
0
100
AcDbBlockBegin
  2
block 5
 70
     0
 10
0.0
 20
0.0
 30
0.0
  3
block 5
  1

  0
SPLINE
  5
F6
330
F2
100
AcDbEntity
  8
_U+30EC_U+30A4_U+30E4_U+30FC 1
370
     0
100
AcDbSpline
210
0.0
220
0.0
230
1.0
 70
    11
 71
     3
 72
    26
 73
    22
 74
     0
 42
0.0000000001
 43
0.0000000001
 12
1.0
 22
0.0
 32
0.0
 13
1.0
 23
0.0
 33
0.0
 40
0.0
 40
0.0
 40
0.0
 40
0.0
 40
1.0
 40
1.0
 40
1.0
 40
2.0
 40
2.0
 40
2.0
 40
3.0
 40
3.0
 40
3.0
 40
4.0
 40
4.0
 40
4.0
 40
5.0
 40
5.0
 40
5.0
 40
6.0
 40
6.0
 40
6.0
 40
7.0
 40
7.0
 40
7.0
 40
7.0
 10
109.3607665742223
 20
-140.0682806724482
 30
0.0
 10
109.3607665742223
 20
-140.0682806724482
 30
0.0
 10
108.2562689616512
 20
-140.0682806724482
 30
0.0
 10
108.2562689616512
 20
-140.0682806724482
 30
0.0
 10
108.2562689616512
 20
-140.0682806724482
 30
0.0
 10
108.2562689616512
 20
-140.3983208199352
 30
0.0
 10
108.2562689616512
 20
-140.3983208199352
 30
0.0
 10
108.2562689616512
 20
-140.3983208199352
 30
0.0
 10
108.1081298557855
 20
-140.3983208199352
 30
0.0
 10
108.1081298557855
 20
-140.3983208199352
 30
0.0
 10
108.0933159451989
 20
-140.0662136151571
 30
0.0
 10
107.9307074382951
 20
-140.0197048261062
 30
0.0
 10
107.8163302681848
 20
-139.9900770049331
 30
0.0
 10
107.8163302681848
 20
-139.9900770049331
 30
0.0
 10
107.8163302681848
 20
-139.8440049563584
 30
0.0
 10
107.8163302681848
 20
-139.8440049563584
 30
0.0
 10
107.8163302681848
 20
-139.8440049563584
 30
0.0
 10
109.3607665742223
 20
-139.8440049563584
 30
0.0
 10
109.3607665742223
 20
-139.8440049563584
 30
0.0
 10
109.3607665742223
 20
-139.8440049563584
 30
0.0
 10
109.3607665742223
 20
-140.0682806724482
 30
0.0
 10
109.3607665742223
 20
-140.0682806724482
 30
0.0
  0
HATCH
  5
F7
330
F2
100
AcDbEntity
  8
_U+30EC_U+30A4_U+30E4_U+30FC 1
 62
   179
420
  2234388
100
AcDbHatch
 10
0.0
 20
0.0
 30
0.0
210
0.0
220
0.0
230
1.0
  2
SOLID
 70
     1
 71
     0
 91
        1
 92
        1
 93
        1
 72
     4
 94
        3
 73
     0
 74
     1
 95
       26
 96
       22
 40
0.0
 40
0.0
 40
0.0
 40
0.0
 40
1.0
 40
1.0
 40
1.0
 40
2.0
 40
2.0
 40
2.0
 40
3.0
 40
3.0
 40
3.0
 40
4.0
 40
4.0
 40
4.0
 40
5.0
 40
5.0
 40
5.0
 40
6.0
 40
6.0
 40
6.0
 40
7.0
 40
7.0
 40
7.0
 40
7.0
 10
109.3607665742223
 20
-140.0682806724482
 10
109.3607665742223
 20
-140.0682806724482
 10
108.2562689616512
 20
-140.0682806724482
 10
108.2562689616512
 20
-140.0682806724482
 10
108.2562689616512
 20
-140.0682806724482
 10
108.2562689616512
 20
-140.3983208199352
 10
108.2562689616512
 20
-140.3983208199352
 10
108.2562689616512
 20
-140.3983208199352
 10
108.1081298557855
 20
-140.3983208199352
 10
108.1081298557855
 20
-140.3983208199352
 10
108.0933159451989
 20
-140.0662136151571
 10
107.9307074382951
 20
-140.0197048261062
 10
107.8163302681848
 20
-139.9900770049331
 10
107.8163302681848
 20
-139.9900770049331
 10
107.8163302681848
 20
-139.8440049563584
 10
107.8163302681848
 20
-139.8440049563584
 10
107.8163302681848
 20
-139.8440049563584
 10
109.3607665742223
 20
-139.8440049563584
 10
109.3607665742223
 20
-139.8440049563584
 10
109.3607665742223
 20
-139.8440049563584
 10
109.3607665742223
 20
-140.0682806724482
 10
109.3607665742223
 20
-140.0682806724482
 97
        0
 97
        0
 75
     2
 76
     1
 98
        0
  0
POLYLINE
  5
F8
330
F2
100
AcDbEntity
  8
_U+30EC_U+30A4_U+30E4_U+30FC 1
370
     0
100
AcDb2dPolyline
 66
     1
 10
0.0
 20
0.0
 30
0.0
  0
VERTEX
  5
F9
330
F8
100
AcDbEntity
  8
_U+30EC_U+30A4_U+30E4_U+30FC 1
370
     0
100
AcDbVertex
100
AcDb2dVertex
 10
109.3607665742223
 20
-139.2827989018112
 30
0.0
  0
VERTEX
  5
FA
330
F8
100
AcDbEntity
  8
_U+30EC_U+30A4_U+30E4_U+30FC 1
370
     0
100
AcDbVertex
100
AcDb2dVertex
 10
109.1089300942506
 20
-139.2827989018112
 30
0.0
  0
VERTEX
  5
FB
330
F8
100
AcDbEntity
  8
_U+30EC_U+30A4_U+30E4_U+30FC 1
370
     0
100
AcDbVertex
100
AcDb2dVertex
 10
109.1089300942506
 20
-139.0309624218395
 30
0.0
  0
VERTEX
  5
FC
330
F8
100
AcDbEntity
  8
_U+30EC_U+30A4_U+30E4_U+30FC 1
370
     0
100
AcDbVertex
100
AcDb2dVertex
 10
109.3607665742223
 20
-139.0309624218395
 30
0.0
  0
VERTEX
  5
FD
330
F8
100
AcDbEntity
  8
_U+30EC_U+30A4_U+30E4_U+30FC 1
370
     0
100
AcDbVertex
100
AcDb2dVertex
 10
109.3607665742223
 20
-139.2827989018112
 30
0.0
  0
SEQEND
  5
FE
330
F8
100
AcDbEntity
  8
_U+30EC_U+30A4_U+30E4_U+30FC 1
370
     0
  0
HATCH
  5
FF
330
F2
100
AcDbEntity
  8
_U+30EC_U+30A4_U+30E4_U+30FC 1
 62
   179
420
  2234388
100
AcDbHatch
 10
0.0
 20
0.0
 30
0.0
210
0.0
220
0.0
230
1.0
  2
SOLID
 70
     1
 71
     0
 91
        1
 92
        1
 93
        4
 72
     1
 10
109.3607665742223
 20
-139.2827989018112
 11
109.1089300942506
 21
-139.2827989018112
 72
     1
 10
109.1089300942506
 20
-139.2827989018112
 11
109.1089300942506
 21
-139.0309624218395
 72
     1
 10
109.1089300942506
 20
-139.0309624218395
 11
109.3607665742223
 21
-139.0309624218395
 72
     1
 10
109.3607665742223
 20
-139.0309624218395
 11
109.3607665742223
 21
-139.2827989018112
 97
        0
 75
     2
 76
     1
 98
        0
  0
SPLINE
  5
100
330
F2
100
AcDbEntity
  8
_U+30EC_U+30A4_U+30E4_U+30FC 1
370
     0
100
AcDbSpline
210
0.0
220
0.0
230
1.0
 70
    11
 71
     3
 72
    53
 73
    49
 74
     0
 42
0.0000000001
 43
0.0000000001
 12
1.0
 22
0.0
 32
0.0
 13
1.0
 23
0.0
 33
0.0
 40
0.0
 40
0.0
 40
0.0
 40
0.0
 40
1.0
 40
1.0
 40
1.0
 40
2.0
 40
2.0
 40
2.0
 40
3.0
 40
3.0
 40
3.0
 40
4.0
 40
4.0
 40
4.0
 40
5.0
 40
5.0
 40
5.0
 40
6.0
 40
6.0
 40
6.0
 40
7.0
 40
7.0
 40
7.0
 40
8.0
 40
8.0
 40
8.0
 40
9.0
 40
9.0
 40
9.0
 40
10.0
 40
10.0
 40
10.0
 40
11.0
 40
11.0
 40
11.0
 40
12.0
 40
12.0
 40
12.0
 40
13.0
 40
13.0
 40
13.0
 40
14.0
 40
14.0
 40
14.0
 40
15.0
 40
15.0
 40
15.0
 40
16.0
 40
16.0
 40
16.0
 40
16.0
 10
109.4114094778555
 20
-138.3136935418105
 30
0.0
 10
109.4114094778555
 20
-138.3918972093256
 30
0.0
 10
109.3945285099778
 20
-138.4935275261405
 30
0.0
 10
109.3311387530492
 20
-138.5948133334068
 30
0.0
 10
109.2208956975212
 20
-138.7684461458635
 30
0.0
 10
109.0899820690817
 20
-138.7894612283235
 30
0.0
 10
108.9818060708448
 20
-138.8084092534924
 30
0.0
 10
108.9818060708448
 20
-138.8084092534924
 30
0.0
 10
108.9818060708448
 20
-138.5865451042422
 30
0.0
 10
108.9818060708448
 20
-138.5865451042422
 30
0.0
 10
109.1809325898923
 20
-138.5314235764783
 30
0.0
 10
109.2105604110654
 20
-138.4046440626211
 30
0.0
 10
109.2105604110654
 20
-138.3112819749708
 30
0.0
 10
109.2105604110654
 20
-138.1717556078182
 30
0.0
 10
109.1109971515417
 20
-138.0194823873701
 30
0.0
 10
108.8784532062873
 20
-138.0194823873701
 30
0.0
 10
108.6224826117333
 20
-138.0194823873701
 30
0.0
 10
108.5525471733827
 20
-138.1993163717002
 30
0.0
 10
108.5525471733827
 20
-138.3198947136839
 30
0.0
 10
108.5525471733827
 20
-138.3515895921482
 30
0.0
 10
108.5525471733827
 20
-138.4935275261405
 30
0.0
 10
108.6813937445311
 20
-138.5820664801114
 30
0.0
 10
108.6813937445311
 20
-138.5820664801114
 30
0.0
 10
108.6624457193622
 20
-138.7577663498592
 30
0.0
 10
108.6624457193622
 20
-138.7577663498592
 30
0.0
 10
108.6624457193622
 20
-138.7577663498592
 30
0.0
 10
107.8163302681848
 20
-138.6371880078754
 30
0.0
 10
107.8163302681848
 20
-138.6371880078754
 30
0.0
 10
107.8163302681848
 20
-138.6371880078754
 30
0.0
 10
107.8163302681848
 20
-137.858596428209
 30
0.0
 10
107.8163302681848
 20
-137.858596428209
 30
0.0
 10
107.8163302681848
 20
-137.858596428209
 30
0.0
 10
108.0109781631014
 20
-137.858596428209
 30
0.0
 10
108.0109781631014
 20
-137.858596428209
 30
0.0
 10
108.0109781631014
 20
-137.858596428209
 30
0.0
 10
108.0109781631014
 20
-138.4742349914231
 30
0.0
 10
108.0109781631014
 20
-138.4742349914231
 30
0.0
 10
108.0109781631014
 20
-138.4742349914231
 30
0.0
 10
108.4340358886901
 20
-138.5400363151914
 30
0.0
 10
108.4340358886901
 20
-138.5400363151914
 30
0.0
 10
108.4002739529347
 20
-138.4787136155539
 30
0.0
 10
108.3599663357572
 20
-138.3960313239079
 30
0.0
 10
108.3599663357572
 20
-138.2775200392153
 30
0.0
 10
108.3599663357572
 20
-138.0236165019524
 30
0.0
 10
108.5460014919607
 20
-137.7869384421158
 30
0.0
 10
108.8591606715699
 20
-137.7869384421158
 30
0.0
 10
109.1764539657615
 20
-137.7869384421158
 30
0.0
 10
109.4114094778555
 20
-138.010869648657
 30
0.0
 10
109.4114094778555
 20
-138.3136935418105
 30
0.0
  0
HATCH
  5
101
330
F2
100
AcDbEntity
  8
_U+30EC_U+30A4_U+30E4_U+30FC 1
 62
   179
420
  2234388
100
AcDbHatch
 10
0.0
 20
0.0
 30
0.0
210
0.0
220
0.0
230
1.0
  2
SOLID
 70
     1
 71
     0
 91
        1
 92
        1
 93
        1
 72
     4
 94
        3
 73
     0
 74
     1
 95
       53
 96
       49
 40
0.0
 40
0.0
 40
0.0
 40
0.0
 40
1.0
 40
1.0
 40
1.0
 40
2.0
 40
2.0
 40
2.0
 40
3.0
 40
3.0
 40
3.0
 40
4.0
 40
4.0
 40
4.0
 40
5.0
 40
5.0
 40
5.0
 40
6.0
 40
6.0
 40
6.0
 40
7.0
 40
7.0
 40
7.0
 40
8.0
 40
8.0
 40
8.0
 40
9.0
 40
9.0
 40
9.0
 40
10.0
 40
10.0
 40
10.0
 40
11.0
 40
11.0
 40
11.0
 40
12.0
 40
12.0
 40
12.0
 40
13.0
 40
13.0
 40
13.0
 40
14.0
 40
14.0
 40
14.0
 40
15.0
 40
15.0
 40
15.0
 40
16.0
 40
16.0
 40
16.0
 40
16.0
 10
109.4114094778555
 20
-138.3136935418105
 10
109.4114094778555
 20
-138.3918972093256
 10
109.3945285099778
 20
-138.4935275261405
 10
109.3311387530492
 20
-138.5948133334068
 10
109.2208956975212
 20
-138.7684461458635
 10
109.0899820690817
 20
-138.7894612283235
 10
108.9818060708448
 20
-138.8084092534924
 10
108.9818060708448
 20
-138.8084092534924
 10
108.9818060708448
 20
-138.5865451042422
 10
108.9818060708448
 20
-138.5865451042422
 10
109.1809325898923
 20
-138.5314235764783
 10
109.2105604110654
 20
-138.4046440626211
 10
109.2105604110654
 20
-138.3112819749708
 10
109.2105604110654
 20
-138.1717556078182
 10
109.1109971515417
 20
-138.0194823873701
 10
108.8784532062873
 20
-138.0194823873701
 10
108.6224826117333
 20
-138.0194823873701
 10
108.5525471733827
 20
-138.1993163717002
 10
108.5525471733827
 20
-138.3198947136839
 10
108.5525471733827
 20
-138.3515895921482
 10
108.5525471733827
 20
-138.4935275261405
 10
108.6813937445311
 20
-138.5820664801114
 10
108.6813937445311
 20
-138.5820664801114
 10
108.6624457193622
 20
-138.7577663498592
 10
108.6624457193622
 20
-138.7577663498592
 10
108.6624457193622
 20
-138.7577663498592
 10
107.8163302681848
 20
-138.6371880078754
 10
107.8163302681848
 20
-138.6371880078754
 10
107.8163302681848
 20
-138.6371880078754
 10
107.8163302681848
 20
-137.858596428209
 10
107.8163302681848
 20
-137.858596428209
 10
107.8163302681848
 20
-137.858596428209
 10
108.0109781631014
 20
-137.858596428209
 10
108.0109781631014
 20
-137.858596428209
 10
108.0109781631014
 20
-137.858596428209
 10
108.0109781631014
 20
-138.4742349914231
 10
108.0109781631014
 20
-138.4742349914231
 10
108.0109781631014
 20
-138.4742349914231
 10
108.4340358886901
 20
-138.5400363151914
 10
108.4340358886901
 20
-138.5400363151914
 10
108.4002739529347
 20
-138.4787136155539
 10
108.3599663357572
 20
-138.3960313239079
 10
108.3599663357572
 20
-138.2775200392153
 10
108.3599663357572
 20
-138.0236165019524
 10
108.5460014919607
 20
-137.7869384421158
 10
108.8591606715699
 20
-137.7869384421158
 10
109.1764539657615
 20
-137.7869384421158
 10
109.4114094778555
 20
-138.010869648657
 10
109.4114094778555
 20
-138.3136935418105
 97
        0
 97
        0
 75
     2
 76
     1
 98
        0
  0
ENDBLK
  5
F5
330
F2
100
AcDbEntity
  8
0
100
AcDbBlockEnd
  0
BLOCK
  5
104
330
102
100
AcDbEntity
  8
0
100
AcDbBlockBegin
  2
block 6
 70
     0
 10
0.0
 20
0.0
 30
0.0
  3
block 6
  1

  0
SPLINE
  5
106
330
102
100
AcDbEntity
  8
_U+30EC_U+30A4_U+30E4_U+30FC 1
370
     0
100
AcDbSpline
210
0.0
220
0.0
230
1.0
 70
    11
 71
     3
 72
    26
 73
    22
 74
     0
 42
0.0000000001
 43
0.0000000001
 12
1.0
 22
0.0
 32
0.0
 13
1.0
 23
0.0
 33
0.0
 40
0.0
 40
0.0
 40
0.0
 40
0.0
 40
1.0
 40
1.0
 40
1.0
 40
2.0
 40
2.0
 40
2.0
 40
3.0
 40
3.0
 40
3.0
 40
4.0
 40
4.0
 40
4.0
 40
5.0
 40
5.0
 40
5.0
 40
6.0
 40
6.0
 40
6.0
 40
7.0
 40
7.0
 40
7.0
 40
7.0
 10
109.3607665742223
 20
-129.985175206219
 30
0.0
 10
109.3607665742223
 20
-129.985175206219
 30
0.0
 10
108.2562689616512
 20
-129.985175206219
 30
0.0
 10
108.2562689616512
 20
-129.985175206219
 30
0.0
 10
108.2562689616512
 20
-129.985175206219
 30
0.0
 10
108.2562689616512
 20
-130.3152153537059
 30
0.0
 10
108.2562689616512
 20
-130.3152153537059
 30
0.0
 10
108.2562689616512
 20
-130.3152153537059
 30
0.0
 10
108.1081298557855
 20
-130.3152153537059
 30
0.0
 10
108.1081298557855
 20
-130.3152153537059
 30
0.0
 10
108.0933159451989
 20
-129.9831081489278
 30
0.0
 10
107.9307074382951
 20
-129.936599359877
 30
0.0
 10
107.8163302681848
 20
-129.9069715387038
 30
0.0
 10
107.8163302681848
 20
-129.9069715387038
 30
0.0
 10
107.8163302681848
 20
-129.7608994901292
 30
0.0
 10
107.8163302681848
 20
-129.7608994901292
 30
0.0
 10
107.8163302681848
 20
-129.7608994901292
 30
0.0
 10
109.3607665742223
 20
-129.7608994901292
 30
0.0
 10
109.3607665742223
 20
-129.7608994901292
 30
0.0
 10
109.3607665742223
 20
-129.7608994901292
 30
0.0
 10
109.3607665742223
 20
-129.985175206219
 30
0.0
 10
109.3607665742223
 20
-129.985175206219
 30
0.0
  0
HATCH
  5
107
330
102
100
AcDbEntity
  8
_U+30EC_U+30A4_U+30E4_U+30FC 1
 62
   179
420
  2234388
100
AcDbHatch
 10
0.0
 20
0.0
 30
0.0
210
0.0
220
0.0
230
1.0
  2
SOLID
 70
     1
 71
     0
 91
        1
 92
        1
 93
        1
 72
     4
 94
        3
 73
     0
 74
     1
 95
       26
 96
       22
 40
0.0
 40
0.0
 40
0.0
 40
0.0
 40
1.0
 40
1.0
 40
1.0
 40
2.0
 40
2.0
 40
2.0
 40
3.0
 40
3.0
 40
3.0
 40
4.0
 40
4.0
 40
4.0
 40
5.0
 40
5.0
 40
5.0
 40
6.0
 40
6.0
 40
6.0
 40
7.0
 40
7.0
 40
7.0
 40
7.0
 10
109.3607665742223
 20
-129.985175206219
 10
109.3607665742223
 20
-129.985175206219
 10
108.2562689616512
 20
-129.985175206219
 10
108.2562689616512
 20
-129.985175206219
 10
108.2562689616512
 20
-129.985175206219
 10
108.2562689616512
 20
-130.3152153537059
 10
108.2562689616512
 20
-130.3152153537059
 10
108.2562689616512
 20
-130.3152153537059
 10
108.1081298557855
 20
-130.3152153537059
 10
108.1081298557855
 20
-130.3152153537059
 10
108.0933159451989
 20
-129.9831081489278
 10
107.9307074382951
 20
-129.936599359877
 10
107.8163302681848
 20
-129.9069715387038
 10
107.8163302681848
 20
-129.9069715387038
 10
107.8163302681848
 20
-129.7608994901292
 10
107.8163302681848
 20
-129.7608994901292
 10
107.8163302681848
 20
-129.7608994901292
 10
109.3607665742223
 20
-129.7608994901292
 10
109.3607665742223
 20
-129.7608994901292
 10
109.3607665742223
 20
-129.7608994901292
 10
109.3607665742223
 20
-129.985175206219
 10
109.3607665742223
 20
-129.985175206219
 97
        0
 97
        0
 75
     2
 76
     1
 98
        0
  0
SPLINE
  5
108
330
102
100
AcDbEntity
  8
_U+30EC_U+30A4_U+30E4_U+30FC 1
370
     0
100
AcDbSpline
210
0.0
220
0.0
230
1.0
 70
    11
 71
     3
 72
    44
 73
    40
 74
     0
 42
0.0000000001
 43
0.0000000001
 12
1.0
 22
0.0
 32
0.0
 13
1.0
 23
0.0
 33
0.0
 40
0.0
 40
0.0
 40
0.0
 40
0.0
 40
1.0
 40
1.0
 40
1.0
 40
2.0
 40
2.0
 40
2.0
 40
3.0
 40
3.0
 40
3.0
 40
4.0
 40
4.0
 40
4.0
 40
5.0
 40
5.0
 40
5.0
 40
6.0
 40
6.0
 40
6.0
 40
7.0
 40
7.0
 40
7.0
 40
8.0
 40
8.0
 40
8.0
 40
9.0
 40
9.0
 40
9.0
 40
10.0
 40
10.0
 40
10.0
 40
11.0
 40
11.0
 40
11.0
 40
12.0
 40
12.0
 40
12.0
 40
13.0
 40
13.0
 40
13.0
 40
13.0
 10
108.7788899467636
 20
-128.6665649092396
 30
0.0
 10
108.9373643390851
 20
-128.8844671986817
 30
0.0
 10
109.011433892018
 20
-128.9774847767834
 30
0.0
 10
109.1554388833014
 20
-129.0260606231254
 30
0.0
 10
109.1554388833014
 20
-129.0260606231254
 30
0.0
 10
109.1554388833014
 20
-128.2476412982332
 30
0.0
 10
109.1554388833014
 20
-128.2476412982332
 30
0.0
 10
109.1554388833014
 20
-128.2476412982332
 30
0.0
 10
109.3607665742223
 20
-128.2476412982332
 30
0.0
 10
109.3607665742223
 20
-128.2476412982332
 30
0.0
 10
109.3607665742223
 20
-128.2476412982332
 30
0.0
 10
109.3607665742223
 20
-129.2758300458061
 30
0.0
 10
109.3607665742223
 20
-129.2758300458061
 30
0.0
 10
109.0031656628534
 20
-129.2441351673417
 30
0.0
 10
108.9249619953382
 20
-129.1783338435735
 30
0.0
 10
108.6266167263156
 20
-128.7935166778711
 30
0.0
 10
108.4278347168167
 20
-128.537546083317
 30
0.0
 10
108.3599663357572
 20
-128.471917014323
 30
0.0
 10
108.2225070258958
 20
-128.471917014323
 30
0.0
 10
108.1039957412032
 20
-128.471917014323
 30
0.0
 10
107.9727376032152
 20
-128.5437472551905
 30
0.0
 10
107.9727376032152
 20
-128.7406344621725
 30
0.0
 10
107.9727376032152
 20
-129.0009114260831
 30
0.0
 10
108.2035590007269
 20
-129.0091796552477
 30
0.0
 10
108.3196587185798
 20
-129.01331376983
 30
0.0
 10
108.3196587185798
 20
-129.01331376983
 30
0.0
 10
108.3196587185798
 20
-129.2375894859198
 30
0.0
 10
108.3196587185798
 20
-129.2375894859198
 30
0.0
 10
108.1928792047226
 20
-129.2293212567552
 30
0.0
 10
108.080913601452
 20
-129.2186414607509
 30
0.0
 10
107.9624023167594
 20
-129.1383707359446
 30
0.0
 10
107.8015163575982
 20
-129.0281276804166
 30
0.0
 10
107.7677544218428
 20
-128.8420925242131
 30
0.0
 10
107.7677544218428
 20
-128.7258205515859
 30
0.0
 10
107.7677544218428
 20
-128.4486626197976
 30
0.0
 10
107.9517225207551
 20
-128.2412678715855
 30
0.0
 10
108.2245740831869
 20
-128.2412678715855
 30
0.0
 10
108.452983913859
 20
-128.2412678715855
 30
0.0
 10
108.5525471733827
 20
-128.357712098987
 30
0.0
 10
108.7788899467636
 20
-128.6665649092396
 30
0.0
  0
HATCH
  5
109
330
102
100
AcDbEntity
  8
_U+30EC_U+30A4_U+30E4_U+30FC 1
 62
   179
420
  2234388
100
AcDbHatch
 10
0.0
 20
0.0
 30
0.0
210
0.0
220
0.0
230
1.0
  2
SOLID
 70
     1
 71
     0
 91
        1
 92
        1
 93
        1
 72
     4
 94
        3
 73
     0
 74
     1
 95
       44
 96
       40
 40
0.0
 40
0.0
 40
0.0
 40
0.0
 40
1.0
 40
1.0
 40
1.0
 40
2.0
 40
2.0
 40
2.0
 40
3.0
 40
3.0
 40
3.0
 40
4.0
 40
4.0
 40
4.0
 40
5.0
 40
5.0
 40
5.0
 40
6.0
 40
6.0
 40
6.0
 40
7.0
 40
7.0
 40
7.0
 40
8.0
 40
8.0
 40
8.0
 40
9.0
 40
9.0
 40
9.0
 40
10.0
 40
10.0
 40
10.0
 40
11.0
 40
11.0
 40
11.0
 40
12.0
 40
12.0
 40
12.0
 40
13.0
 40
13.0
 40
13.0
 40
13.0
 10
108.7788899467636
 20
-128.6665649092396
 10
108.9373643390851
 20
-128.8844671986817
 10
109.011433892018
 20
-128.9774847767834
 10
109.1554388833014
 20
-129.0260606231254
 10
109.1554388833014
 20
-129.0260606231254
 10
109.1554388833014
 20
-128.2476412982332
 10
109.1554388833014
 20
-128.2476412982332
 10
109.1554388833014
 20
-128.2476412982332
 10
109.3607665742223
 20
-128.2476412982332
 10
109.3607665742223
 20
-128.2476412982332
 10
109.3607665742223
 20
-128.2476412982332
 10
109.3607665742223
 20
-129.2758300458061
 10
109.3607665742223
 20
-129.2758300458061
 10
109.0031656628534
 20
-129.2441351673417
 10
108.9249619953382
 20
-129.1783338435735
 10
108.6266167263156
 20
-128.7935166778711
 10
108.4278347168167
 20
-128.537546083317
 10
108.3599663357572
 20
-128.471917014323
 10
108.2225070258958
 20
-128.471917014323
 10
108.1039957412032
 20
-128.471917014323
 10
107.9727376032152
 20
-128.5437472551905
 10
107.9727376032152
 20
-128.7406344621725
 10
107.9727376032152
 20
-129.0009114260831
 10
108.2035590007269
 20
-129.0091796552477
 10
108.3196587185798
 20
-129.01331376983
 10
108.3196587185798
 20
-129.01331376983
 10
108.3196587185798
 20
-129.2375894859198
 10
108.3196587185798
 20
-129.2375894859198
 10
108.1928792047226
 20
-129.2293212567552
 10
108.080913601452
 20
-129.2186414607509
 10
107.9624023167594
 20
-129.1383707359446
 10
107.8015163575982
 20
-129.0281276804166
 10
107.7677544218428
 20
-128.8420925242131
 10
107.7677544218428
 20
-128.7258205515859
 10
107.7677544218428
 20
-128.4486626197976
 10
107.9517225207551
 20
-128.2412678715855
 10
108.2245740831869
 20
-128.2412678715855
 10
108.452983913859
 20
-128.2412678715855
 10
108.5525471733827
 20
-128.357712098987
 10
108.7788899467636
 20
-128.6665649092396
 97
        0
 97
        0
 75
     2
 76
     1
 98
        0
  0
POLYLINE
  5
10A
330
102
100
AcDbEntity
  8
_U+30EC_U+30A4_U+30E4_U+30FC 1
370
     0
100
AcDb2dPolyline
 66
     1
 10
0.0
 20
0.0
 30
0.0
  0
VERTEX
  5
10B
330
10A
100
AcDbEntity
  8
_U+30EC_U+30A4_U+30E4_U+30FC 1
370
     0
100
AcDbVertex
100
AcDb2dVertex
 10
109.3607665742223
 20
-128.0226765630464
 30
0.0
  0
VERTEX
  5
10C
330
10A
100
AcDbEntity
  8
_U+30EC_U+30A4_U+30E4_U+30FC 1
370
     0
100
AcDbVertex
100
AcDb2dVertex
 10
109.1089300942506
 20
-128.0226765630464
 30
0.0
  0
VERTEX
  5
10D
330
10A
100
AcDbEntity
  8
_U+30EC_U+30A4_U+30E4_U+30FC 1
370
     0
100
AcDbVertex
100
AcDb2dVertex
 10
109.1089300942506
 20
-127.7710123378489
 30
0.0
  0
VERTEX
  5
10E
330
10A
100
AcDbEntity
  8
_U+30EC_U+30A4_U+30E4_U+30FC 1
370
     0
100
AcDbVertex
100
AcDb2dVertex
 10
109.3607665742223
 20
-127.7710123378489
 30
0.0
  0
VERTEX
  5
10F
330
10A
100
AcDbEntity
  8
_U+30EC_U+30A4_U+30E4_U+30FC 1
370
     0
100
AcDbVertex
100
AcDb2dVertex
 10
109.3607665742223
 20
-128.0226765630464
 30
0.0
  0
SEQEND
  5
110
330
10A
100
AcDbEntity
  8
_U+30EC_U+30A4_U+30E4_U+30FC 1
370
     0
  0
HATCH
  5
111
330
102
100
AcDbEntity
  8
_U+30EC_U+30A4_U+30E4_U+30FC 1
 62
   179
420
  2234388
100
AcDbHatch
 10
0.0
 20
0.0
 30
0.0
210
0.0
220
0.0
230
1.0
  2
SOLID
 70
     1
 71
     0
 91
        1
 92
        1
 93
        4
 72
     1
 10
109.3607665742223
 20
-128.0226765630464
 11
109.1089300942506
 21
-128.0226765630464
 72
     1
 10
109.1089300942506
 20
-128.0226765630464
 11
109.1089300942506
 21
-127.7710123378489
 72
     1
 10
109.1089300942506
 20
-127.7710123378489
 11
109.3607665742223
 21
-127.7710123378489
 72
     1
 10
109.3607665742223
 20
-127.7710123378489
 11
109.3607665742223
 21
-128.0226765630464
 97
        0
 75
     2
 76
     1
 98
        0
  0
SPLINE
  5
112
330
102
100
AcDbEntity
  8
_U+30EC_U+30A4_U+30E4_U+30FC 1
370
     0
100
AcDbSpline
210
0.0
220
0.0
230
1.0
 70
    11
 71
     3
 72
    53
 73
    49
 74
     0
 42
0.0000000001
 43
0.0000000001
 12
1.0
 22
0.0
 32
0.0
 13
1.0
 23
0.0
 33
0.0
 40
0.0
 40
0.0
 40
0.0
 40
0.0
 40
1.0
 40
1.0
 40
1.0
 40
2.0
 40
2.0
 40
2.0
 40
3.0
 40
3.0
 40
3.0
 40
4.0
 40
4.0
 40
4.0
 40
5.0
 40
5.0
 40
5.0
 40
6.0
 40
6.0
 40
6.0
 40
7.0
 40
7.0
 40
7.0
 40
8.0
 40
8.0
 40
8.0
 40
9.0
 40
9.0
 40
9.0
 40
10.0
 40
10.0
 40
10.0
 40
11.0
 40
11.0
 40
11.0
 40
12.0
 40
12.0
 40
12.0
 40
13.0
 40
13.0
 40
13.0
 40
14.0
 40
14.0
 40
14.0
 40
15.0
 40
15.0
 40
15.0
 40
16.0
 40
16.0
 40
16.0
 40
16.0
 10
109.4114094778555
 20
-127.0535712030456
 30
0.0
 10
109.4114094778555
 20
-127.1317748705608
 30
0.0
 10
109.3945285099778
 20
-127.2334051873757
 30
0.0
 10
109.3311387530492
 20
-127.3348632494163
 30
0.0
 10
109.2208956975212
 20
-127.5084960618729
 30
0.0
 10
109.0899820690817
 20
-127.5295111443329
 30
0.0
 10
108.9818060708448
 20
-127.548631424276
 30
0.0
 10
108.9818060708448
 20
-127.548631424276
 30
0.0
 10
108.9818060708448
 20
-127.3264227654774
 30
0.0
 10
108.9818060708448
 20
-127.3264227654774
 30
0.0
 10
109.1809325898923
 20
-127.2714734924877
 30
0.0
 10
109.2105604110654
 20
-127.1445217238562
 30
0.0
 10
109.2105604110654
 20
-127.0515041457545
 30
0.0
 10
109.2105604110654
 20
-126.9118055238276
 30
0.0
 10
109.1109971515417
 20
-126.7595323033796
 30
0.0
 10
108.8784532062873
 20
-126.7595323033796
 30
0.0
 10
108.6224826117333
 20
-126.7595323033796
 30
0.0
 10
108.5525471733827
 20
-126.9393662877096
 30
0.0
 10
108.5525471733827
 20
-127.0599446296933
 30
0.0
 10
108.5525471733827
 20
-127.0916395081577
 30
0.0
 10
108.5525471733827
 20
-127.2334051873757
 30
0.0
 10
108.6813937445311
 20
-127.3222886508951
 30
0.0
 10
108.6813937445311
 20
-127.3222886508951
 30
0.0
 10
108.6624457193622
 20
-127.4978162658686
 30
0.0
 10
108.6624457193622
 20
-127.4978162658686
 30
0.0
 10
108.6624457193622
 20
-127.4978162658686
 30
0.0
 10
107.8163302681848
 20
-127.3772379238849
 30
0.0
 10
107.8163302681848
 20
-127.3772379238849
 30
0.0
 10
107.8163302681848
 20
-127.3772379238849
 30
0.0
 10
107.8163302681848
 20
-126.5988185989927
 30
0.0
 10
107.8163302681848
 20
-126.5988185989927
 30
0.0
 10
107.8163302681848
 20
-126.5988185989927
 30
0.0
 10
108.0109781631014
 20
-126.5988185989927
 30
0.0
 10
108.0109781631014
 20
-126.5988185989927
 30
0.0
 10
108.0109781631014
 20
-126.5988185989927
 30
0.0
 10
108.0109781631014
 20
-127.2142849074325
 30
0.0
 10
108.0109781631014
 20
-127.2142849074325
 30
0.0
 10
108.0109781631014
 20
-127.2142849074325
 30
0.0
 10
108.4340358886901
 20
-127.2799139764266
 30
0.0
 10
108.4340358886901
 20
-127.2799139764266
 30
0.0
 10
108.4002739529347
 20
-127.2185912767891
 30
0.0
 10
108.3599663357572
 20
-127.1360812399174
 30
0.0
 10
108.3599663357572
 20
-127.0175699552248
 30
0.0
 10
108.3599663357572
 20
-126.7638386727361
 30
0.0
 10
108.5460014919607
 20
-126.5268161033509
 30
0.0
 10
108.8591606715699
 20
-126.5268161033509
 30
0.0
 10
109.1764539657615
 20
-126.5268161033509
 30
0.0
 10
109.4114094778555
 20
-126.7510918194407
 30
0.0
 10
109.4114094778555
 20
-127.0535712030456
 30
0.0
  0
HATCH
  5
113
330
102
100
AcDbEntity
  8
_U+30EC_U+30A4_U+30E4_U+30FC 1
 62
   179
420
  2234388
100
AcDbHatch
 10
0.0
 20
0.0
 30
0.0
210
0.0
220
0.0
230
1.0
  2
SOLID
 70
     1
 71
     0
 91
        1
 92
        1
 93
        1
 72
     4
 94
        3
 73
     0
 74
     1
 95
       53
 96
       49
 40
0.0
 40
0.0
 40
0.0
 40
0.0
 40
1.0
 40
1.0
 40
1.0
 40
2.0
 40
2.0
 40
2.0
 40
3.0
 40
3.0
 40
3.0
 40
4.0
 40
4.0
 40
4.0
 40
5.0
 40
5.0
 40
5.0
 40
6.0
 40
6.0
 40
6.0
 40
7.0
 40
7.0
 40
7.0
 40
8.0
 40
8.0
 40
8.0
 40
9.0
 40
9.0
 40
9.0
 40
10.0
 40
10.0
 40
10.0
 40
11.0
 40
11.0
 40
11.0
 40
12.0
 40
12.0
 40
12.0
 40
13.0
 40
13.0
 40
13.0
 40
14.0
 40
14.0
 40
14.0
 40
15.0
 40
15.0
 40
15.0
 40
16.0
 40
16.0
 40
16.0
 40
16.0
 10
109.4114094778555
 20
-127.0535712030456
 10
109.4114094778555
 20
-127.1317748705608
 10
109.3945285099778
 20
-127.2334051873757
 10
109.3311387530492
 20
-127.3348632494163
 10
109.2208956975212
 20
-127.5084960618729
 10
109.0899820690817
 20
-127.5295111443329
 10
108.9818060708448
 20
-127.548631424276
 10
108.9818060708448
 20
-127.548631424276
 10
108.9818060708448
 20
-127.3264227654774
 10
108.9818060708448
 20
-127.3264227654774
 10
109.1809325898923
 20
-127.2714734924877
 10
109.2105604110654
 20
-127.1445217238562
 10
109.2105604110654
 20
-127.0515041457545
 10
109.2105604110654
 20
-126.9118055238276
 10
109.1109971515417
 20
-126.7595323033796
 10
108.8784532062873
 20
-126.7595323033796
 10
108.6224826117333
 20
-126.7595323033796
 10
108.5525471733827
 20
-126.9393662877096
 10
108.5525471733827
 20
-127.0599446296933
 10
108.5525471733827
 20
-127.0916395081577
 10
108.5525471733827
 20
-127.2334051873757
 10
108.6813937445311
 20
-127.3222886508951
 10
108.6813937445311
 20
-127.3222886508951
 10
108.6624457193622
 20
-127.4978162658686
 10
108.6624457193622
 20
-127.4978162658686
 10
108.6624457193622
 20
-127.4978162658686
 10
107.8163302681848
 20
-127.3772379238849
 10
107.8163302681848
 20
-127.3772379238849
 10
107.8163302681848
 20
-127.3772379238849
 10
107.8163302681848
 20
-126.5988185989927
 10
107.8163302681848
 20
-126.5988185989927
 10
107.8163302681848
 20
-126.5988185989927
 10
108.0109781631014
 20
-126.5988185989927
 10
108.0109781631014
 20
-126.5988185989927
 10
108.0109781631014
 20
-126.5988185989927
 10
108.0109781631014
 20
-127.2142849074325
 10
108.0109781631014
 20
-127.2142849074325
 10
108.0109781631014
 20
-127.2142849074325
 10
108.4340358886901
 20
-127.2799139764266
 10
108.4340358886901
 20
-127.2799139764266
 10
108.4002739529347
 20
-127.2185912767891
 10
108.3599663357572
 20
-127.1360812399174
 10
108.3599663357572
 20
-127.0175699552248
 10
108.3599663357572
 20
-126.7638386727361
 10
108.5460014919607
 20
-126.5268161033509
 10
108.8591606715699
 20
-126.5268161033509
 10
109.1764539657615
 20
-126.5268161033509
 10
109.4114094778555
 20
-126.7510918194407
 10
109.4114094778555
 20
-127.0535712030456
 97
        0
 97
        0
 75
     2
 76
     1
 98
        0
  0
ENDBLK
  5
105
330
102
100
AcDbEntity
  8
0
100
AcDbBlockEnd
  0
BLOCK
  5
12B
330
129
100
AcDbEntity
  8
0
100
AcDbBlockBegin
  2
block 7
 70
     0
 10
0.0
 20
0.0
 30
0.0
  3
block 7
  1

  0
SPLINE
  5
12D
330
129
100
AcDbEntity
  8
_U+30EC_U+30A4_U+30E4_U+30FC 1
370
     0
100
AcDbSpline
210
0.0
220
0.0
230
1.0
 70
    11
 71
     3
 72
    26
 73
    22
 74
     0
 42
0.0000000001
 43
0.0000000001
 12
1.0
 22
0.0
 32
0.0
 13
1.0
 23
0.0
 33
0.0
 40
0.0
 40
0.0
 40
0.0
 40
0.0
 40
1.0
 40
1.0
 40
1.0
 40
2.0
 40
2.0
 40
2.0
 40
3.0
 40
3.0
 40
3.0
 40
4.0
 40
4.0
 40
4.0
 40
5.0
 40
5.0
 40
5.0
 40
6.0
 40
6.0
 40
6.0
 40
7.0
 40
7.0
 40
7.0
 40
7.0
 10
97.59576549209412
 20
-117.8923732886693
 30
0.0
 10
97.59576549209412
 20
-117.8923732886693
 30
0.0
 10
97.59576549209412
 20
-116.7880479308724
 30
0.0
 10
97.59576549209412
 20
-116.7880479308724
 30
0.0
 10
97.59576549209412
 20
-116.7880479308724
 30
0.0
 10
97.26572534460719
 20
-116.7880479308724
 30
0.0
 10
97.26572534460719
 20
-116.7880479308724
 30
0.0
 10
97.26572534460719
 20
-116.7880479308724
 30
0.0
 10
97.26572534460719
 20
-116.640081079781
 30
0.0
 10
97.26572534460719
 20
-116.640081079781
 30
0.0
 10
97.59783254938527
 20
-116.6252671691944
 30
0.0
 10
97.64434133843613
 20
-116.4623141527421
 30
0.0
 10
97.67396915960929
 20
-116.348109237406
 30
0.0
 10
97.67396915960929
 20
-116.348109237406
 30
0.0
 10
97.82004120818388
 20
-116.348109237406
 30
0.0
 10
97.82004120818388
 20
-116.348109237406
 30
0.0
 10
97.82004120818388
 20
-116.348109237406
 30
0.0
 10
97.82004120818388
 20
-117.8923732886693
 30
0.0
 10
97.82004120818388
 20
-117.8923732886693
 30
0.0
 10
97.82004120818388
 20
-117.8923732886693
 30
0.0
 10
97.59576549209412
 20
-117.8923732886693
 30
0.0
 10
97.59576549209412
 20
-117.8923732886693
 30
0.0
  0
HATCH
  5
12E
330
129
100
AcDbEntity
  8
_U+30EC_U+30A4_U+30E4_U+30FC 1
 62
   179
420
  2234388
100
AcDbHatch
 10
0.0
 20
0.0
 30
0.0
210
0.0
220
0.0
230
1.0
  2
SOLID
 70
     1
 71
     0
 91
        1
 92
        1
 93
        1
 72
     4
 94
        3
 73
     0
 74
     1
 95
       26
 96
       22
 40
0.0
 40
0.0
 40
0.0
 40
0.0
 40
1.0
 40
1.0
 40
1.0
 40
2.0
 40
2.0
 40
2.0
 40
3.0
 40
3.0
 40
3.0
 40
4.0
 40
4.0
 40
4.0
 40
5.0
 40
5.0
 40
5.0
 40
6.0
 40
6.0
 40
6.0
 40
7.0
 40
7.0
 40
7.0
 40
7.0
 10
97.59576549209412
 20
-117.8923732886693
 10
97.59576549209412
 20
-117.8923732886693
 10
97.59576549209412
 20
-116.7880479308724
 10
97.59576549209412
 20
-116.7880479308724
 10
97.59576549209412
 20
-116.7880479308724
 10
97.26572534460719
 20
-116.7880479308724
 10
97.26572534460719
 20
-116.7880479308724
 10
97.26572534460719
 20
-116.7880479308724
 10
97.26572534460719
 20
-116.640081079781
 10
97.26572534460719
 20
-116.640081079781
 10
97.59783254938527
 20
-116.6252671691944
 10
97.64434133843613
 20
-116.4623141527421
 10
97.67396915960929
 20
-116.348109237406
 10
97.67396915960929
 20
-116.348109237406
 10
97.82004120818388
 20
-116.348109237406
 10
97.82004120818388
 20
-116.348109237406
 10
97.82004120818388
 20
-116.348109237406
 10
97.82004120818388
 20
-117.8923732886693
 10
97.82004120818388
 20
-117.8923732886693
 10
97.82004120818388
 20
-117.8923732886693
 10
97.59576549209412
 20
-117.8923732886693
 10
97.59576549209412
 20
-117.8923732886693
 97
        0
 97
        0
 75
     2
 76
     1
 98
        0
  0
SPLINE
  5
12F
330
129
100
AcDbEntity
  8
_U+30EC_U+30A4_U+30E4_U+30FC 1
370
     0
100
AcDbSpline
210
0.0
220
0.0
230
1.0
 70
    11
 71
     3
 72
    53
 73
    49
 74
     0
 42
0.0000000001
 43
0.0000000001
 12
1.0
 22
0.0
 32
0.0
 13
1.0
 23
0.0
 33
0.0
 40
0.0
 40
0.0
 40
0.0
 40
0.0
 40
1.0
 40
1.0
 40
1.0
 40
2.0
 40
2.0
 40
2.0
 40
3.0
 40
3.0
 40
3.0
 40
4.0
 40
4.0
 40
4.0
 40
5.0
 40
5.0
 40
5.0
 40
6.0
 40
6.0
 40
6.0
 40
7.0
 40
7.0
 40
7.0
 40
8.0
 40
8.0
 40
8.0
 40
9.0
 40
9.0
 40
9.0
 40
10.0
 40
10.0
 40
10.0
 40
11.0
 40
11.0
 40
11.0
 40
12.0
 40
12.0
 40
12.0
 40
13.0
 40
13.0
 40
13.0
 40
14.0
 40
14.0
 40
14.0
 40
15.0
 40
15.0
 40
15.0
 40
16.0
 40
16.0
 40
16.0
 40
16.0
 10
98.80223793102861
 20
-117.9431884470767
 30
0.0
 10
98.72403426351345
 20
-117.9431884470767
 30
0.0
 10
98.62240394669857
 20
-117.926307479199
 30
0.0
 10
98.5207736298837
 20
-117.8627454674961
 30
0.0
 10
98.34748532697563
 20
-117.7528469215166
 30
0.0
 10
98.32612573496708
 20
-117.6215887835286
 30
0.0
 10
98.30717770979821
 20
-117.5137572948403
 30
0.0
 10
98.30717770979821
 20
-117.5137572948403
 30
0.0
 10
98.52938636859682
 20
-117.5137572948403
 30
0.0
 10
98.52938636859682
 20
-117.5137572948403
 30
0.0
 10
98.58416338681229
 20
-117.7125393043392
 30
0.0
 10
98.71128741021802
 20
-117.7421671255124
 30
0.0
 10
98.80430498831976
 20
-117.7421671255124
 30
0.0
 10
98.94383135547238
 20
-117.7421671255124
 30
0.0
 10
99.09610457592042
 20
-117.6427761207629
 30
0.0
 10
99.09610457592042
 20
-117.4100599207343
 30
0.0
 10
99.09610457592042
 20
-117.1540893261802
 30
0.0
 10
98.91627059159038
 20
-117.0843261426039
 30
0.0
 10
98.79569224960663
 20
-117.0843261426039
 30
0.0
 10
98.76399737114234
 20
-117.0843261426039
 30
0.0
 10
98.62240394669857
 20
-117.0843261426039
 30
0.0
 10
98.53352048317912
 20
-117.2133449685265
 30
0.0
 10
98.53352048317912
 20
-117.2133449685265
 30
0.0
 10
98.35782061343139
 20
-117.1942246885834
 30
0.0
 10
98.35782061343139
 20
-117.1942246885834
 30
0.0
 10
98.35782061343139
 20
-117.1942246885834
 30
0.0
 10
98.47839895541513
 20
-116.348109237406
 30
0.0
 10
98.47839895541513
 20
-116.348109237406
 30
0.0
 10
98.47839895541513
 20
-116.348109237406
 30
0.0
 10
99.25699053508158
 20
-116.348109237406
 30
0.0
 10
99.25699053508158
 20
-116.348109237406
 30
0.0
 10
99.25699053508158
 20
-116.348109237406
 30
0.0
 10
99.25699053508158
 20
-116.5427571323226
 30
0.0
 10
99.25699053508158
 20
-116.5427571323226
 30
0.0
 10
99.25699053508158
 20
-116.5427571323226
 30
0.0
 10
98.64135197186745
 20
-116.5427571323226
 30
0.0
 10
98.64135197186745
 20
-116.5427571323226
 30
0.0
 10
98.64135197186745
 20
-116.5427571323226
 30
0.0
 10
98.5758951576477
 20
-116.9658148579113
 30
0.0
 10
98.5758951576477
 20
-116.9658148579113
 30
0.0
 10
98.63721785728515
 20
-116.9320529221559
 30
0.0
 10
98.71955563938262
 20
-116.8917453049785
 30
0.0
 10
98.8380669240752
 20
-116.8917453049785
 30
0.0
 10
99.09197046133812
 20
-116.8917453049785
 30
0.0
 10
99.32899303072331
 20
-117.0779527159562
 30
0.0
 10
99.32899303072331
 20
-117.3911118955654
 30
0.0
 10
99.32899303072331
 20
-117.7084051897569
 30
0.0
 10
99.10471731463355
 20
-117.9431884470767
 30
0.0
 10
98.80223793102861
 20
-117.9431884470767
 30
0.0
  0
HATCH
  5
130
330
129
100
AcDbEntity
  8
_U+30EC_U+30A4_U+30E4_U+30FC 1
 62
   179
420
  2234388
100
AcDbHatch
 10
0.0
 20
0.0
 30
0.0
210
0.0
220
0.0
230
1.0
  2
SOLID
 70
     1
 71
     0
 91
        1
 92
        1
 93
        1
 72
     4
 94
        3
 73
     0
 74
     1
 95
       53
 96
       49
 40
0.0
 40
0.0
 40
0.0
 40
0.0
 40
1.0
 40
1.0
 40
1.0
 40
2.0
 40
2.0
 40
2.0
 40
3.0
 40
3.0
 40
3.0
 40
4.0
 40
4.0
 40
4.0
 40
5.0
 40
5.0
 40
5.0
 40
6.0
 40
6.0
 40
6.0
 40
7.0
 40
7.0
 40
7.0
 40
8.0
 40
8.0
 40
8.0
 40
9.0
 40
9.0
 40
9.0
 40
10.0
 40
10.0
 40
10.0
 40
11.0
 40
11.0
 40
11.0
 40
12.0
 40
12.0
 40
12.0
 40
13.0
 40
13.0
 40
13.0
 40
14.0
 40
14.0
 40
14.0
 40
15.0
 40
15.0
 40
15.0
 40
16.0
 40
16.0
 40
16.0
 40
16.0
 10
98.80223793102861
 20
-117.9431884470767
 10
98.72403426351345
 20
-117.9431884470767
 10
98.62240394669857
 20
-117.926307479199
 10
98.5207736298837
 20
-117.8627454674961
 10
98.34748532697563
 20
-117.7528469215166
 10
98.32612573496708
 20
-117.6215887835286
 10
98.30717770979821
 20
-117.5137572948403
 10
98.30717770979821
 20
-117.5137572948403
 10
98.52938636859682
 20
-117.5137572948403
 10
98.52938636859682
 20
-117.5137572948403
 10
98.58416338681229
 20
-117.7125393043392
 10
98.71128741021802
 20
-117.7421671255124
 10
98.80430498831976
 20
-117.7421671255124
 10
98.94383135547238
 20
-117.7421671255124
 10
99.09610457592042
 20
-117.6427761207629
 10
99.09610457592042
 20
-117.4100599207343
 10
99.09610457592042
 20
-117.1540893261802
 10
98.91627059159038
 20
-117.0843261426039
 10
98.79569224960663
 20
-117.0843261426039
 10
98.76399737114234
 20
-117.0843261426039
 10
98.62240394669857
 20
-117.0843261426039
 10
98.53352048317912
 20
-117.2133449685265
 10
98.53352048317912
 20
-117.2133449685265
 10
98.35782061343139
 20
-117.1942246885834
 10
98.35782061343139
 20
-117.1942246885834
 10
98.35782061343139
 20
-117.1942246885834
 10
98.47839895541513
 20
-116.348109237406
 10
98.47839895541513
 20
-116.348109237406
 10
98.47839895541513
 20
-116.348109237406
 10
99.25699053508158
 20
-116.348109237406
 10
99.25699053508158
 20
-116.348109237406
 10
99.25699053508158
 20
-116.348109237406
 10
99.25699053508158
 20
-116.5427571323226
 10
99.25699053508158
 20
-116.5427571323226
 10
99.25699053508158
 20
-116.5427571323226
 10
98.64135197186745
 20
-116.5427571323226
 10
98.64135197186745
 20
-116.5427571323226
 10
98.64135197186745
 20
-116.5427571323226
 10
98.5758951576477
 20
-116.9658148579113
 10
98.5758951576477
 20
-116.9658148579113
 10
98.63721785728515
 20
-116.9320529221559
 10
98.71955563938262
 20
-116.8917453049785
 10
98.8380669240752
 20
-116.8917453049785
 10
99.09197046133812
 20
-116.8917453049785
 10
99.32899303072331
 20
-117.0779527159562
 10
99.32899303072331
 20
-117.3911118955654
 10
99.32899303072331
 20
-117.7084051897569
 10
99.10471731463355
 20
-117.9431884470767
 10
98.80223793102861
 20
-117.9431884470767
 97
        0
 97
        0
 75
     2
 76
     1
 98
        0
  0
ENDBLK
  5
12C
330
129
100
AcDbEntity
  8
0
100
AcDbBlockEnd
  0
ENDSEC
  0
SECTION
  2
ENTITIES
  0
POLYLINE
  5
41
330
1F
100
AcDbEntity
  8
_U+30EC_U+30A4_U+30E4_U+30FC 1
 62
   179
420
  2234388
370
    25
100
AcDb2dPolyline
 66
     1
 10
0.0
 20
0.0
 30
0.0
  0
VERTEX
  5
42
330
41
100
AcDbEntity
  8
_U+30EC_U+30A4_U+30E4_U+30FC 1
 62
   179
420
  2234388
370
    25
100
AcDbVertex
100
AcDb2dVertex
 10
76.73293943126852
 20
-136.2645441326002
 30
0.0
  0
VERTEX
  5
43
330
41
100
AcDbEntity
  8
_U+30EC_U+30A4_U+30E4_U+30FC 1
 62
   179
420
  2234388
370
    25
100
AcDbVertex
100
AcDb2dVertex
 10
79.73327907694569
 20
-136.2645441326002
 30
0.0
  0
SEQEND
  5
44
330
41
100
AcDbEntity
  8
_U+30EC_U+30A4_U+30E4_U+30FC 1
 62
   179
420
  2234388
370
    25
  0
POLYLINE
  5
45
330
1F
100
AcDbEntity
  8
_U+30EC_U+30A4_U+30E4_U+30FC 1
 62
   179
420
  2234388
370
     9
100
AcDb2dPolyline
 66
     1
 10
0.0
 20
0.0
 30
0.0
  0
VERTEX
  5
46
330
45
100
AcDbEntity
  8
_U+30EC_U+30A4_U+30E4_U+30FC 1
 62
   179
420
  2234388
370
     9
100
AcDbVertex
100
AcDb2dVertex
 10
105.7330711914135
 20
-134.7645682996421
 30
0.0
  0
VERTEX
  5
47
330
45
100
AcDbEntity
  8
_U+30EC_U+30A4_U+30E4_U+30FC 1
 62
   179
420
  2234388
370
     9
100
AcDbVertex
100
AcDb2dVertex
 10
105.7330711914135
 20
-136.2645441326002
 30
0.0
  0
SEQEND
  5
48
330
45
100
AcDbEntity
  8
_U+30EC_U+30A4_U+30E4_U+30FC 1
 62
   179
420
  2234388
370
     9
  0
POLYLINE
  5
49
330
1F
100
AcDbEntity
  8
_U+30EC_U+30A4_U+30E4_U+30FC 1
 62
   179
420
  2234388
370
     9
100
AcDb2dPolyline
 66
     1
 10
0.0
 20
0.0
 30
0.0
  0
VERTEX
  5
4A
330
49
100
AcDbEntity
  8
_U+30EC_U+30A4_U+30E4_U+30FC 1
 62
   179
420
  2234388
370
     9
100
AcDbVertex
100
AcDb2dVertex
 10
89.23312577902885
 20
-123.7650630246143
 30
0.0
  0
VERTEX
  5
4B
330
49
100
AcDbEntity
  8
_U+30EC_U+30A4_U+30E4_U+30FC 1
 62
   179
420
  2234388
370
     9
100
AcDbVertex
100
AcDb2dVertex
 10
89.23312577902885
 20
-136.2645441326002
 30
0.0
  0
SEQEND
  5
4C
330
49
100
AcDbEntity
  8
_U+30EC_U+30A4_U+30E4_U+30FC 1
 62
   179
420
  2234388
370
     9
  0
POLYLINE
  5
4D
330
1F
100
AcDbEntity
  8
_U+30EC_U+30A4_U+30E4_U+30FC 1
 62
   179
420
  2234388
370
    25
100
AcDb2dPolyline
 66
     1
 10
0.0
 20
0.0
 30
0.0
  0
VERTEX
  5
4E
330
4D
100
AcDbEntity
  8
_U+30EC_U+30A4_U+30E4_U+30FC 1
 62
   179
420
  2234388
370
    25
100
AcDbVertex
100
AcDb2dVertex
 10
90.73313685187149
 20
-122.2650519138781
 30
0.0
  0
VERTEX
  5
4F
330
4D
100
AcDbEntity
  8
_U+30EC_U+30A4_U+30E4_U+30FC 1
 62
   179
420
  2234388
370
    25
100
AcDbVertex
100
AcDb2dVertex
 10
90.73313685187149
 20
-134.7645682996421
 30
0.0
  0
SEQEND
  5
50
330
4D
100
AcDbEntity
  8
_U+30EC_U+30A4_U+30E4_U+30FC 1
 62
   179
420
  2234388
370
    25
  0
POLYLINE
  5
51
330
1F
100
AcDbEntity
  8
_U+30EC_U+30A4_U+30E4_U+30FC 1
 62
   179
420
  2234388
370
    25
100
AcDb2dPolyline
 66
     1
 10
0.0
 20
0.0
 30
0.0
  0
VERTEX
  5
52
330
51
100
AcDbEntity
  8
_U+30EC_U+30A4_U+30E4_U+30FC 1
 62
   179
420
  2234388
370
    25
100
AcDbVertex
100
AcDb2dVertex
 10
76.73293943126852
 20
-122.2650519138781
 30
0.0
  0
VERTEX
  5
53
330
51
100
AcDbEntity
  8
_U+30EC_U+30A4_U+30E4_U+30FC 1
 62
   179
420
  2234388
370
    25
100
AcDbVertex
100
AcDb2dVertex
 10
90.73313685187149
 20
-122.2650519138781
 30
0.0
  0
SEQEND
  5
54
330
51
100
AcDbEntity
  8
_U+30EC_U+30A4_U+30E4_U+30FC 1
 62
   179
420
  2234388
370
    25
  0
POLYLINE
  5
55
330
1F
100
AcDbEntity
  8
_U+30EC_U+30A4_U+30E4_U+30FC 1
 62
   179
420
  2234388
370
    25
100
AcDb2dPolyline
 66
     1
 10
0.0
 20
0.0
 30
0.0
  0
VERTEX
  5
56
330
55
100
AcDbEntity
  8
_U+30EC_U+30A4_U+30E4_U+30FC 1
 62
   179
420
  2234388
370
    25
100
AcDbVertex
100
AcDb2dVertex
 10
76.73293943126852
 20
-122.2650519138781
 30
0.0
  0
VERTEX
  5
57
330
55
100
AcDbEntity
  8
_U+30EC_U+30A4_U+30E4_U+30FC 1
 62
   179
420
  2234388
370
    25
100
AcDbVertex
100
AcDb2dVertex
 10
76.73293943126852
 20
-136.2645441326002
 30
0.0
  0
SEQEND
  5
58
330
55
100
AcDbEntity
  8
_U+30EC_U+30A4_U+30E4_U+30FC 1
 62
   179
420
  2234388
370
    25
  0
POLYLINE
  5
59
330
1F
100
AcDbEntity
  8
_U+30EC_U+30A4_U+30E4_U+30FC 1
 62
   179
420
  2234388
370
     9
100
AcDb2dPolyline
 66
     1
 10
0.0
 20
0.0
 30
0.0
  0
VERTEX
  5
5A
330
59
100
AcDbEntity
  8
_U+30EC_U+30A4_U+30E4_U+30FC 1
 62
   179
420
  2234388
370
     9
100
AcDbVertex
100
AcDb2dVertex
 10
78.23330328187993
 20
-123.7650630246143
 30
0.0
  0
VERTEX
  5
5B
330
59
100
AcDbEntity
  8
_U+30EC_U+30A4_U+30E4_U+30FC 1
 62
   179
420
  2234388
370
     9
100
AcDbVertex
100
AcDb2dVertex
 10
78.23330328187993
 20
-134.7645682996421
 30
0.0
  0
SEQEND
  5
5C
330
59
100
AcDbEntity
  8
_U+30EC_U+30A4_U+30E4_U+30FC 1
 62
   179
420
  2234388
370
     9
  0
POLYLINE
  5
5D
330
1F
100
AcDbEntity
  8
_U+30EC_U+30A4_U+30E4_U+30FC 1
 62
   179
420
  2234388
370
     9
100
AcDb2dPolyline
 66
     1
 10
0.0
 20
0.0
 30
0.0
  0
VERTEX
  5
5E
330
5D
100
AcDbEntity
  8
_U+30EC_U+30A4_U+30E4_U+30FC 1
 62
   179
420
  2234388
370
     9
100
AcDbVertex
100
AcDb2dVertex
 10
78.23330328187993
 20
-123.7650630246143
 30
0.0
  0
VERTEX
  5
5F
330
5D
100
AcDbEntity
  8
_U+30EC_U+30A4_U+30E4_U+30FC 1
 62
   179
420
  2234388
370
     9
100
AcDbVertex
100
AcDb2dVertex
 10
89.23312577902885
 20
-123.7650630246143
 30
0.0
  0
SEQEND
  5
60
330
5D
100
AcDbEntity
  8
_U+30EC_U+30A4_U+30E4_U+30FC 1
 62
   179
420
  2234388
370
     9
  0
POLYLINE
  5
61
330
1F
100
AcDbEntity
  8
_U+30EC_U+30A4_U+30E4_U+30FC 1
 62
   179
420
  2234388
370
     9
100
AcDb2dPolyline
 66
     1
 10
0.0
 20
0.0
 30
0.0
  0
VERTEX
  5
62
330
61
100
AcDbEntity
  8
_U+30EC_U+30A4_U+30E4_U+30FC 1
 62
   179
420
  2234388
370
     9
100
AcDbVertex
100
AcDb2dVertex
 10
79.73327907694569
 20
-134.7645682996421
 30
0.0
  0
VERTEX
  5
63
330
61
100
AcDbEntity
  8
_U+30EC_U+30A4_U+30E4_U+30FC 1
 62
   179
420
  2234388
370
     9
100
AcDbVertex
100
AcDb2dVertex
 10
79.73327907694569
 20
-136.2645441326002
 30
0.0
  0
SEQEND
  5
64
330
61
100
AcDbEntity
  8
_U+30EC_U+30A4_U+30E4_U+30FC 1
 62
   179
420
  2234388
370
     9
  0
POLYLINE
  5
65
330
1F
100
AcDbEntity
  8
_U+30EC_U+30A4_U+30E4_U+30FC 1
 62
   179
420
  2234388
370
     9
100
AcDb2dPolyline
 66
     1
 10
0.0
 20
0.0
 30
0.0
  0
VERTEX
  5
66
330
65
100
AcDbEntity
  8
_U+30EC_U+30A4_U+30E4_U+30FC 1
 62
   179
420
  2234388
370
     9
100
AcDbVertex
100
AcDb2dVertex
 10
78.23330328187993
 20
-134.7645682996421
 30
0.0
  0
VERTEX
  5
67
330
65
100
AcDbEntity
  8
_U+30EC_U+30A4_U+30E4_U+30FC 1
 62
   179
420
  2234388
370
     9
100
AcDbVertex
100
AcDb2dVertex
 10
79.73327907694569
 20
-134.7645682996421
 30
0.0
  0
SEQEND
  5
68
330
65
100
AcDbEntity
  8
_U+30EC_U+30A4_U+30E4_U+30FC 1
 62
   179
420
  2234388
370
     9
  0
SPLINE
  5
69
330
1F
100
AcDbEntity
  8
_U+30EC_U+30A4_U+30E4_U+30FC 1
 62
   179
420
  2234388
370
     9
100
AcDbSpline
210
0.0
220
0.0
230
1.0
 70
    11
 71
     3
 72
    17
 73
    13
 74
     0
 42
0.0000000001
 43
0.0000000001
 12
1.0
 22
0.0
 32
0.0
 13
1.0
 23
0.0
 33
0.0
 40
0.0
 40
0.0
 40
0.0
 40
0.0
 40
1.0
 40
1.0
 40
1.0
 40
2.0
 40
2.0
 40
2.0
 40
3.0
 40
3.0
 40
3.0
 40
4.0
 40
4.0
 40
4.0
 40
4.0
 10
109.8330896979244
 20
-134.7645682996421
 30
0.0
 10
109.8330896979244
 20
-134.709429132989
 30
0.0
 10
109.7882869212897
 20
-134.6646616330005
 30
0.0
 10
109.7331830338066
 20
-134.6646616330005
 30
0.0
 10
109.6780438685467
 20
-134.6646616330005
 30
0.0
 10
109.6332763696888
 20
-134.709429132989
 30
0.0
 10
109.6332763696888
 20
-134.7645682996421
 30
0.0
 10
109.6332763696888
 20
-134.8203777440726
 30
0.0
 10
109.6780438685467
 20
-134.8651452440618
 30
0.0
 10
109.7331830338066
 20
-134.8651452440618
 30
0.0
 10
109.7882869212897
 20
-134.8651452440618
 30
0.0
 10
109.8330896979244
 20
-134.8203777440726
 30
0.0
 10
109.8330896979244
 20
-134.7645682996421
 30
0.0
  0
SPLINE
  5
6A
330
1F
100
AcDbEntity
  8
_U+30EC_U+30A4_U+30E4_U+30FC 1
 62
   179
420
  2234388
370
     9
100
AcDbSpline
210
0.0
220
0.0
230
1.0
 70
    11
 71
     3
 72
    17
 73
    13
 74
     0
 42
0.0000000001
 43
0.0000000001
 12
1.0
 22
0.0
 32
0.0
 13
1.0
 23
0.0
 33
0.0
 40
0.0
 40
0.0
 40
0.0
 40
0.0
 40
1.0
 40
1.0
 40
1.0
 40
2.0
 40
2.0
 40
2.0
 40
3.0
 40
3.0
 40
3.0
 40
4.0
 40
4.0
 40
4.0
 40
4.0
 10
109.8330896979244
 20
-136.2645441326002
 30
0.0
 10
109.8330896979244
 20
-136.2094402437253
 30
0.0
 10
109.7882869212897
 20
-136.1646374659586
 30
0.0
 10
109.7331830338066
 20
-136.1646374659586
 30
0.0
 10
109.6780438685467
 20
-136.1646374659586
 30
0.0
 10
109.6332763696888
 20
-136.2094402437253
 30
0.0
 10
109.6332763696888
 20
-136.2645441326002
 30
0.0
 10
109.6332763696888
 20
-136.3203535770313
 30
0.0
 10
109.6780438685467
 20
-136.3651563547974
 30
0.0
 10
109.7331830338066
 20
-136.3651563547974
 30
0.0
 10
109.7882869212897
 20
-136.3651563547974
 30
0.0
 10
109.8330896979244
 20
-136.3203535770313
 30
0.0
 10
109.8330896979244
 20
-136.2645441326002
 30
0.0
  0
SPLINE
  5
6B
330
1F
100
AcDbEntity
  8
_U+30EC_U+30A4_U+30E4_U+30FC 1
 62
   179
420
  2234388
370
     9
100
AcDbSpline
210
0.0
220
0.0
230
1.0
 70
    11
 71
     3
 72
    17
 73
    13
 74
     0
 42
0.0000000001
 43
0.0000000001
 12
1.0
 22
0.0
 32
0.0
 13
1.0
 23
0.0
 33
0.0
 40
0.0
 40
0.0
 40
0.0
 40
0.0
 40
1.0
 40
1.0
 40
1.0
 40
2.0
 40
2.0
 40
2.0
 40
3.0
 40
3.0
 40
3.0
 40
4.0
 40
4.0
 40
4.0
 40
4.0
 10
74.7146625383146
 20
-122.2650519138781
 30
0.0
 10
74.7146625383146
 20
-122.2099480250032
 30
0.0
 10
74.66985976167985
 20
-122.1651452472365
 30
0.0
 10
74.61472059641989
 20
-122.1651452472365
 30
0.0
 10
74.55926393116803
 20
-122.1651452472365
 30
0.0
 10
74.51481393230205
 20
-122.2099480250032
 30
0.0
 10
74.51481393230205
 20
-122.2650519138781
 30
0.0
 10
74.51481393230205
 20
-122.3201910805312
 30
0.0
 10
74.55926393116803
 20
-122.3649585805201
 30
0.0
 10
74.61472059641989
 20
-122.3649585805201
 30
0.0
 10
74.66985976167985
 20
-122.3649585805201
 30
0.0
 10
74.7146625383146
 20
-122.3201910805312
 30
0.0
 10
74.7146625383146
 20
-122.2650519138781
 30
0.0
  0
SPLINE
  5
6C
330
1F
100
AcDbEntity
  8
_U+30EC_U+30A4_U+30E4_U+30FC 1
 62
   179
420
  2234388
370
     9
100
AcDbSpline
210
0.0
220
0.0
230
1.0
 70
    11
 71
     3
 72
    17
 73
    13
 74
     0
 42
0.0000000001
 43
0.0000000001
 12
1.0
 22
0.0
 32
0.0
 13
1.0
 23
0.0
 33
0.0
 40
0.0
 40
0.0
 40
0.0
 40
0.0
 40
1.0
 40
1.0
 40
1.0
 40
2.0
 40
2.0
 40
2.0
 40
3.0
 40
3.0
 40
3.0
 40
4.0
 40
4.0
 40
4.0
 40
4.0
 10
74.7146625383146
 20
-136.2645441326002
 30
0.0
 10
74.7146625383146
 20
-136.2094402437253
 30
0.0
 10
74.66985976167985
 20
-136.1646374659586
 30
0.0
 10
74.61472059641989
 20
-136.1646374659586
 30
0.0
 10
74.55926393116803
 20
-136.1646374659586
 30
0.0
 10
74.51481393230205
 20
-136.2094402437253
 30
0.0
 10
74.51481393230205
 20
-136.2645441326002
 30
0.0
 10
74.51481393230205
 20
-136.3203535770313
 30
0.0
 10
74.55926393116803
 20
-136.3651563547974
 30
0.0
 10
74.61472059641989
 20
-136.3651563547974
 30
0.0
 10
74.66985976167985
 20
-136.3651563547974
 30
0.0
 10
74.7146625383146
 20
-136.3203535770313
 30
0.0
 10
74.7146625383146
 20
-136.2645441326002
 30
0.0
  0
SPLINE
  5
6D
330
1F
100
AcDbEntity
  8
_U+30EC_U+30A4_U+30E4_U+30FC 1
 62
   179
420
  2234388
370
     9
100
AcDbSpline
210
0.0
220
0.0
230
1.0
 70
    11
 71
     3
 72
    17
 73
    13
 74
     0
 42
0.0000000001
 43
0.0000000001
 12
1.0
 22
0.0
 32
0.0
 13
1.0
 23
0.0
 33
0.0
 40
0.0
 40
0.0
 40
0.0
 40
0.0
 40
1.0
 40
1.0
 40
1.0
 40
2.0
 40
2.0
 40
2.0
 40
3.0
 40
3.0
 40
3.0
 40
4.0
 40
4.0
 40
4.0
 40
4.0
 10
76.83319887315513
 20
-118.2646224704338
 30
0.0
 10
76.83319887315513
 20
-118.2094833037811
 30
0.0
 10
76.78843331413611
 20
-118.1647158037922
 30
0.0
 10
76.73293943126852
 20
-118.1647158037922
 30
0.0
 10
76.67783554378543
 20
-118.1647158037922
 30
0.0
 10
76.63303276715068
 20
-118.2094833037811
 30
0.0
 10
76.63303276715068
 20
-118.2646224704338
 30
0.0
 10
76.63303276715068
 20
-118.3197263593091
 30
0.0
 10
76.67783554378543
 20
-118.3645291370755
 30
0.0
 10
76.73293943126852
 20
-118.3645291370755
 30
0.0
 10
76.78843331413611
 20
-118.3645291370755
 30
0.0
 10
76.83319887315513
 20
-118.3197263593091
 30
0.0
 10
76.83319887315513
 20
-118.2646224704338
 30
0.0
  0
SPLINE
  5
6E
330
1F
100
AcDbEntity
  8
_U+30EC_U+30A4_U+30E4_U+30FC 1
 62
   179
420
  2234388
370
     9
100
AcDbSpline
210
0.0
220
0.0
230
1.0
 70
    11
 71
     3
 72
    17
 73
    13
 74
     0
 42
0.0000000001
 43
0.0000000001
 12
1.0
 22
0.0
 32
0.0
 13
1.0
 23
0.0
 33
0.0
 40
0.0
 40
0.0
 40
0.0
 40
0.0
 40
1.0
 40
1.0
 40
1.0
 40
2.0
 40
2.0
 40
2.0
 40
3.0
 40
3.0
 40
3.0
 40
4.0
 40
4.0
 40
4.0
 40
4.0
 10
90.83304351598933
 20
-118.2646224704338
 30
0.0
 10
90.83304351598933
 20
-118.2094833037811
 30
0.0
 10
90.78824073935456
 20
-118.1647158037922
 30
0.0
 10
90.73313685187149
 20
-118.1647158037922
 30
0.0
 10
90.67799997733049
 20
-118.1647158037922
 30
0.0
 10
90.63323018775367
 20
-118.2094833037811
 30
0.0
 10
90.63323018775367
 20
-118.2646224704338
 30
0.0
 10
90.63323018775367
 20
-118.3197263593091
 30
0.0
 10
90.67799997733049
 20
-118.3645291370755
 30
0.0
 10
90.73313685187149
 20
-118.3645291370755
 30
0.0
 10
90.78824073935456
 20
-118.3645291370755
 30
0.0
 10
90.83304351598933
 20
-118.3197263593091
 30
0.0
 10
90.83304351598933
 20
-118.2646224704338
 30
0.0
  0
SPLINE
  5
6F
330
1F
100
AcDbEntity
  8
_U+30EC_U+30A4_U+30E4_U+30FC 1
 62
   179
420
  2234388
370
     9
100
AcDbSpline
210
0.0
220
0.0
230
1.0
 70
    11
 71
     3
 72
    17
 73
    13
 74
     0
 42
0.0000000001
 43
0.0000000001
 12
1.0
 22
0.0
 32
0.0
 13
1.0
 23
0.0
 33
0.0
 40
0.0
 40
0.0
 40
0.0
 40
0.0
 40
1.0
 40
1.0
 40
1.0
 40
2.0
 40
2.0
 40
2.0
 40
3.0
 40
3.0
 40
3.0
 40
4.0
 40
4.0
 40
4.0
 40
4.0
 10
105.8329805290972
 20
-118.2646224704338
 30
0.0
 10
105.8329805290972
 20
-118.2094833037811
 30
0.0
 10
105.7882103566735
 20
-118.1647158037922
 30
0.0
 10
105.7330711914135
 20
-118.1647158037922
 30
0.0
 10
105.6779673039304
 20
-118.1647158037922
 30
0.0
 10
105.6331645272957
 20
-118.2094833037811
 30
0.0
 10
105.6331645272957
 20
-118.2646224704338
 30
0.0
 10
105.6331645272957
 20
-118.3197263593091
 30
0.0
 10
105.6779673039304
 20
-118.3645291370755
 30
0.0
 10
105.7330711914135
 20
-118.3645291370755
 30
0.0
 10
105.7882103566735
 20
-118.3645291370755
 30
0.0
 10
105.8329805290972
 20
-118.3197263593091
 30
0.0
 10
105.8329805290972
 20
-118.2646224704338
 30
0.0
  0
POLYLINE
  5
70
330
1F
100
AcDbEntity
  8
_U+30EC_U+30A4_U+30E4_U+30FC 1
 62
   179
420
  2234388
370
     9
100
AcDb2dPolyline
 66
     1
 10
0.0
 20
0.0
 30
0.0
  0
VERTEX
  5
71
330
70
100
AcDbEntity
  8
_U+30EC_U+30A4_U+30E4_U+30FC 1
 62
   179
420
  2234388
370
     9
100
AcDbVertex
100
AcDb2dVertex
 10
109.7331830338066
 20
-134.7645682996421
 30
0.0
  0
VERTEX
  5
72
330
70
100
AcDbEntity
  8
_U+30EC_U+30A4_U+30E4_U+30FC 1
 62
   179
420
  2234388
370
     9
100
AcDbVertex
100
AcDb2dVertex
 10
109.7331830338066
 20
-122.2392285805513
 30
0.0
  0
SEQEND
  5
73
330
70
100
AcDbEntity
  8
_U+30EC_U+30A4_U+30E4_U+30FC 1
 62
   179
420
  2234388
370
     9
  0
POLYLINE
  5
74
330
1F
100
AcDbEntity
  8
_U+30EC_U+30A4_U+30E4_U+30FC 1
 62
   179
420
  2234388
370
     9
100
AcDb2dPolyline
 66
     1
 10
0.0
 20
0.0
 30
0.0
  0
VERTEX
  5
75
330
74
100
AcDbEntity
  8
_U+30EC_U+30A4_U+30E4_U+30FC 1
 62
   179
420
  2234388
370
     9
100
AcDbVertex
100
AcDb2dVertex
 10
109.7331830338066
 20
-134.7645682996421
 30
0.0
  0
VERTEX
  5
76
330
74
100
AcDbEntity
  8
_U+30EC_U+30A4_U+30E4_U+30FC 1
 62
   179
420
  2234388
370
     9
100
AcDbVertex
100
AcDb2dVertex
 10
109.7331830338066
 20
-140.8806413536688
 30
0.0
  0
SEQEND
  5
77
330
74
100
AcDbEntity
  8
_U+30EC_U+30A4_U+30E4_U+30FC 1
 62
   179
420
  2234388
370
     9
  0
POLYLINE
  5
78
330
1F
100
AcDbEntity
  8
_U+30EC_U+30A4_U+30E4_U+30FC 1
 62
   179
420
  2234388
370
     9
100
AcDb2dPolyline
 66
     1
 10
0.0
 20
0.0
 30
0.0
  0
VERTEX
  5
79
330
78
100
AcDbEntity
  8
_U+30EC_U+30A4_U+30E4_U+30FC 1
 62
   179
420
  2234388
370
     9
100
AcDbVertex
100
AcDb2dVertex
 10
108.2731444173759
 20
-134.7645682996421
 30
0.0
  0
VERTEX
  5
7A
330
78
100
AcDbEntity
  8
_U+30EC_U+30A4_U+30E4_U+30FC 1
 62
   179
420
  2234388
370
     9
100
AcDbVertex
100
AcDb2dVertex
 10
110.7332727305144
 20
-134.7645682996421
 30
0.0
  0
SEQEND
  5
7B
330
78
100
AcDbEntity
  8
_U+30EC_U+30A4_U+30E4_U+30FC 1
 62
   179
420
  2234388
370
     9
  0
SPLINE
  5
7C
330
1F
100
AcDbEntity
  8
_U+30EC_U+30A4_U+30E4_U+30FC 1
 62
   179
420
  2234388
370
     9
100
AcDbSpline
210
0.0
220
0.0
230
1.0
 70
    11
 71
     3
 72
    17
 73
    13
 74
     0
 42
0.0000000001
 43
0.0000000001
 12
1.0
 22
0.0
 32
0.0
 13
1.0
 23
0.0
 33
0.0
 40
0.0
 40
0.0
 40
0.0
 40
0.0
 40
1.0
 40
1.0
 40
1.0
 40
2.0
 40
2.0
 40
2.0
 40
3.0
 40
3.0
 40
3.0
 40
4.0
 40
4.0
 40
4.0
 40
4.0
 10
109.8330896979244
 20
-122.2054677472264
 30
0.0
 10
109.8330896979244
 20
-122.1503285805737
 30
0.0
 10
109.7882869212897
 20
-122.1055610805848
 30
0.0
 10
109.7331830338066
 20
-122.1055610805848
 30
0.0
 10
109.6780438685467
 20
-122.1055610805848
 30
0.0
 10
109.6332763696888
 20
-122.1503285805737
 30
0.0
 10
109.6332763696888
 20
-122.2054677472264
 30
0.0
 10
109.6332763696888
 20
-122.2612771916569
 30
0.0
 10
109.6780438685467
 20
-122.3060446916458
 30
0.0
 10
109.7331830338066
 20
-122.3060446916458
 30
0.0
 10
109.7882869212897
 20
-122.3060446916458
 30
0.0
 10
109.8330896979244
 20
-122.2612771916569
 30
0.0
 10
109.8330896979244
 20
-122.2054677472264
 30
0.0
  0
POLYLINE
  5
7D
330
1F
100
AcDbEntity
  8
_U+30EC_U+30A4_U+30E4_U+30FC 1
 62
   179
420
  2234388
370
     9
100
AcDb2dPolyline
 66
     1
 10
0.0
 20
0.0
 30
0.0
  0
VERTEX
  5
7E
330
7D
100
AcDbEntity
  8
_U+30EC_U+30A4_U+30E4_U+30FC 1
 62
   179
420
  2234388
370
     9
100
AcDbVertex
100
AcDb2dVertex
 10
108.2731444173759
 20
-122.2054677472264
 30
0.0
  0
VERTEX
  5
7F
330
7D
100
AcDbEntity
  8
_U+30EC_U+30A4_U+30E4_U+30FC 1
 62
   179
420
  2234388
370
     9
100
AcDbVertex
100
AcDb2dVertex
 10
110.7332727305144
 20
-122.2054677472264
 30
0.0
  0
SEQEND
  5
80
330
7D
100
AcDbEntity
  8
_U+30EC_U+30A4_U+30E4_U+30FC 1
 62
   179
420
  2234388
370
     9
  0
POLYLINE
  5
81
330
1F
100
AcDbEntity
  8
_U+30EC_U+30A4_U+30E4_U+30FC 1
 62
   179
420
  2234388
370
     9
100
AcDb2dPolyline
 66
     1
 10
0.0
 20
0.0
 30
0.0
  0
VERTEX
  5
82
330
81
100
AcDbEntity
  8
_U+30EC_U+30A4_U+30E4_U+30FC 1
 62
   179
420
  2234388
370
     9
100
AcDbVertex
100
AcDb2dVertex
 10
108.2731444173759
 20
-136.2645441326002
 30
0.0
  0
VERTEX
  5
83
330
81
100
AcDbEntity
  8
_U+30EC_U+30A4_U+30E4_U+30FC 1
 62
   179
420
  2234388
370
     9
100
AcDbVertex
100
AcDb2dVertex
 10
110.7332727305144
 20
-136.2645441326002
 30
0.0
  0
SEQEND
  5
84
330
81
100
AcDbEntity
  8
_U+30EC_U+30A4_U+30E4_U+30FC 1
 62
   179
420
  2234388
370
     9
  0
SPLINE
  5
85
330
1F
100
AcDbEntity
  8
_U+30EC_U+30A4_U+30E4_U+30FC 1
 62
   179
420
  2234388
370
     9
100
AcDbSpline
210
0.0
220
0.0
230
1.0
 70
    11
 71
     3
 72
    17
 73
    13
 74
     0
 42
0.0000000001
 43
0.0000000001
 12
1.0
 22
0.0
 32
0.0
 13
1.0
 23
0.0
 33
0.0
 40
0.0
 40
0.0
 40
0.0
 40
0.0
 40
1.0
 40
1.0
 40
1.0
 40
2.0
 40
2.0
 40
2.0
 40
3.0
 40
3.0
 40
3.0
 40
4.0
 40
4.0
 40
4.0
 40
4.0
 10
105.7685606349526
 20
-134.7645682996421
 30
0.0
 10
105.7685606349526
 20
-134.7845355218593
 30
0.0
 10
105.7527209131344
 20
-134.8003752440779
 30
0.0
 10
105.7330711914135
 20
-134.8003752440779
 30
0.0
 10
105.7137742474614
 20
-134.8003752440779
 30
0.0
 10
105.6979345256433
 20
-134.7845355218593
 30
0.0
 10
105.6979345256433
 20
-134.7645682996421
 30
0.0
 10
105.6979345256433
 20
-134.7452713552023
 30
0.0
 10
105.7137742474614
 20
-134.7294316329844
 30
0.0
 10
105.7330711914135
 20
-134.7294316329844
 30
0.0
 10
105.7527209131344
 20
-134.7294316329844
 30
0.0
 10
105.7685606349526
 20
-134.7452713552023
 30
0.0
 10
105.7685606349526
 20
-134.7645682996421
 30
0.0
  0
SPLINE
  5
86
330
1F
100
AcDbEntity
  8
_U+30EC_U+30A4_U+30E4_U+30FC 1
 62
   179
420
  2234388
370
    25
100
AcDbSpline
210
0.0
220
0.0
230
1.0
 70
    11
 71
     3
 72
    17
 73
    13
 74
     0
 42
0.0000000001
 43
0.0000000001
 12
1.0
 22
0.0
 32
0.0
 13
1.0
 23
0.0
 33
0.0
 40
0.0
 40
0.0
 40
0.0
 40
0.0
 40
1.0
 40
1.0
 40
1.0
 40
2.0
 40
2.0
 40
2.0
 40
3.0
 40
3.0
 40
3.0
 40
4.0
 40
4.0
 40
4.0
 40
4.0
 10
105.7685606349526
 20
-136.2645441326002
 30
0.0
 10
105.7685606349526
 20
-136.2845466325956
 30
0.0
 10
105.7527209131344
 20
-136.3003863548141
 30
0.0
 10
105.7330711914135
 20
-136.3003863548141
 30
0.0
 10
105.7137742474614
 20
-136.3003863548141
 30
0.0
 10
105.6979345256433
 20
-136.2845466325956
 30
0.0
 10
105.6979345256433
 20
-136.2645441326002
 30
0.0
 10
105.6979345256433
 20
-136.245247188161
 30
0.0
 10
105.7137742474614
 20
-136.2294074659425
 30
0.0
 10
105.7330711914135
 20
-136.2294074659425
 30
0.0
 10
105.7527209131344
 20
-136.2294074659425
 30
0.0
 10
105.7685606349526
 20
-136.245247188161
 30
0.0
 10
105.7685606349526
 20
-136.2645441326002
 30
0.0
  0
POLYLINE
  5
87
330
1F
100
AcDbEntity
  8
_U+30EC_U+30A4_U+30E4_U+30FC 1
 62
   179
420
  2234388
370
     9
100
AcDb2dPolyline
 66
     1
 10
0.0
 20
0.0
 30
0.0
  0
VERTEX
  5
88
330
87
100
AcDbEntity
  8
_U+30EC_U+30A4_U+30E4_U+30FC 1
 62
   179
420
  2234388
370
     9
100
AcDbVertex
100
AcDb2dVertex
 10
76.73293943126852
 20
-138.8049674652989
 30
0.0
  0
VERTEX
  5
89
330
87
100
AcDbEntity
  8
_U+30EC_U+30A4_U+30E4_U+30FC 1
 62
   179
420
  2234388
370
     9
100
AcDbVertex
100
AcDb2dVertex
 10
76.73293943126852
 20
-141.264745798017
 30
0.0
  0
SEQEND
  5
8A
330
87
100
AcDbEntity
  8
_U+30EC_U+30A4_U+30E4_U+30FC 1
 62
   179
420
  2234388
370
     9
  0
POLYLINE
  5
8B
330
1F
100
AcDbEntity
  8
_U+30EC_U+30A4_U+30E4_U+30FC 1
 62
   179
420
  2234388
370
     9
100
AcDb2dPolyline
 66
     1
 10
0.0
 20
0.0
 30
0.0
  0
VERTEX
  5
8C
330
8B
100
AcDbEntity
  8
_U+30EC_U+30A4_U+30E4_U+30FC 1
 62
   179
420
  2234388
370
     9
100
AcDbVertex
100
AcDb2dVertex
 10
79.73327907694569
 20
-138.8049674652989
 30
0.0
  0
VERTEX
  5
8D
330
8B
100
AcDbEntity
  8
_U+30EC_U+30A4_U+30E4_U+30FC 1
 62
   179
420
  2234388
370
     9
100
AcDbVertex
100
AcDb2dVertex
 10
79.73327907694569
 20
-141.264745798017
 30
0.0
  0
SEQEND
  5
8E
330
8B
100
AcDbEntity
  8
_U+30EC_U+30A4_U+30E4_U+30FC 1
 62
   179
420
  2234388
370
     9
  0
INSERT
  5
90
330
1F
100
AcDbEntity
  8
_U+30EC_U+30A4_U+30E4_U+30FC 1
100
AcDbBlockReference
  2
block 2
 10
0.0
 20
0.0
 30
0.0
  0
SPLINE
  5
95
330
1F
100
AcDbEntity
  8
_U+30EC_U+30A4_U+30E4_U+30FC 1
 62
   179
420
  2234388
370
    25
100
AcDbSpline
210
0.0
220
0.0
230
1.0
 70
    11
 71
     3
 72
    17
 73
    13
 74
     0
 42
0.0000000001
 43
0.0000000001
 12
1.0
 22
0.0
 32
0.0
 13
1.0
 23
0.0
 33
0.0
 40
0.0
 40
0.0
 40
0.0
 40
0.0
 40
1.0
 40
1.0
 40
1.0
 40
2.0
 40
2.0
 40
2.0
 40
3.0
 40
3.0
 40
3.0
 40
4.0
 40
4.0
 40
4.0
 40
4.0
 10
76.76842887480754
 20
-136.2645441326002
 30
0.0
 10
76.76842887480754
 20
-136.2845466325956
 30
0.0
 10
76.75258915298943
 20
-136.3003863548141
 30
0.0
 10
76.73293943126852
 20
-136.3003863548141
 30
0.0
 10
76.71367776509325
 20
-136.3003863548141
 30
0.0
 10
76.69780276549825
 20
-136.2845466325956
 30
0.0
 10
76.69780276549825
 20
-136.2645441326002
 30
0.0
 10
76.69780276549825
 20
-136.245247188161
 30
0.0
 10
76.71367776509325
 20
-136.2294074659425
 30
0.0
 10
76.73293943126852
 20
-136.2294074659425
 30
0.0
 10
76.75258915298943
 20
-136.2294074659425
 30
0.0
 10
76.76842887480754
 20
-136.245247188161
 30
0.0
 10
76.76842887480754
 20
-136.2645441326002
 30
0.0
  0
SPLINE
  5
96
330
1F
100
AcDbEntity
  8
_U+30EC_U+30A4_U+30E4_U+30FC 1
 62
   179
420
  2234388
370
    25
100
AcDbSpline
210
0.0
220
0.0
230
1.0
 70
    11
 71
     3
 72
    17
 73
    13
 74
     0
 42
0.0000000001
 43
0.0000000001
 12
1.0
 22
0.0
 32
0.0
 13
1.0
 23
0.0
 33
0.0
 40
0.0
 40
0.0
 40
0.0
 40
0.0
 40
1.0
 40
1.0
 40
1.0
 40
2.0
 40
2.0
 40
2.0
 40
3.0
 40
3.0
 40
3.0
 40
4.0
 40
4.0
 40
4.0
 40
4.0
 10
79.76841574271594
 20
-136.2645441326002
 30
0.0
 10
79.76841574271594
 20
-136.2845466325956
 30
0.0
 10
79.75257602089783
 20
-136.3003863548141
 30
0.0
 10
79.73327907694569
 20
-136.3003863548141
 30
0.0
 10
79.71366664673826
 20
-136.3003863548141
 30
0.0
 10
79.6977916467422
 20
-136.2845466325956
 30
0.0
 10
79.6977916467422
 20
-136.2645441326002
 30
0.0
 10
79.6977916467422
 20
-136.245247188161
 30
0.0
 10
79.71366664673826
 20
-136.2294074659425
 30
0.0
 10
79.73327907694569
 20
-136.2294074659425
 30
0.0
 10
79.75257602089783
 20
-136.2294074659425
 30
0.0
 10
79.76841574271594
 20
-136.245247188161
 30
0.0
 10
79.76841574271594
 20
-136.2645441326002
 30
0.0
  0
POLYLINE
  5
97
330
1F
100
AcDbEntity
  8
_U+30EC_U+30A4_U+30E4_U+30FC 1
 62
   179
420
  2234388
370
     9
100
AcDb2dPolyline
 66
     1
 10
0.0
 20
0.0
 30
0.0
  0
VERTEX
  5
98
330
97
100
AcDbEntity
  8
_U+30EC_U+30A4_U+30E4_U+30FC 1
 62
   179
420
  2234388
370
     9
100
AcDbVertex
100
AcDb2dVertex
 10
76.73293943126852
 20
-118.2646224704338
 30
0.0
  0
VERTEX
  5
99
330
97
100
AcDbEntity
  8
_U+30EC_U+30A4_U+30E4_U+30FC 1
 62
   179
420
  2234388
370
     9
100
AcDbVertex
100
AcDb2dVertex
 10
90.73313685187149
 20
-118.2646224704338
 30
0.0
  0
SEQEND
  5
9A
330
97
100
AcDbEntity
  8
_U+30EC_U+30A4_U+30E4_U+30FC 1
 62
   179
420
  2234388
370
     9
  0
POLYLINE
  5
9B
330
1F
100
AcDbEntity
  8
_U+30EC_U+30A4_U+30E4_U+30FC 1
 62
   179
420
  2234388
370
     9
100
AcDb2dPolyline
 66
     1
 10
0.0
 20
0.0
 30
0.0
  0
VERTEX
  5
9C
330
9B
100
AcDbEntity
  8
_U+30EC_U+30A4_U+30E4_U+30FC 1
 62
   179
420
  2234388
370
     9
100
AcDbVertex
100
AcDb2dVertex
 10
76.73293943126852
 20
-119.7246638589579
 30
0.0
  0
VERTEX
  5
9D
330
9B
100
AcDbEntity
  8
_U+30EC_U+30A4_U+30E4_U+30FC 1
 62
   179
420
  2234388
370
     9
100
AcDbVertex
100
AcDb2dVertex
 10
76.73293943126852
 20
-117.2648502484616
 30
0.0
  0
SEQEND
  5
9E
330
9B
100
AcDbEntity
  8
_U+30EC_U+30A4_U+30E4_U+30FC 1
 62
   179
420
  2234388
370
     9
  0
POLYLINE
  5
9F
330
1F
100
AcDbEntity
  8
_U+30EC_U+30A4_U+30E4_U+30FC 1
 62
   179
420
  2234388
370
     9
100
AcDb2dPolyline
 66
     1
 10
0.0
 20
0.0
 30
0.0
  0
VERTEX
  5
A0
330
9F
100
AcDbEntity
  8
_U+30EC_U+30A4_U+30E4_U+30FC 1
 62
   179
420
  2234388
370
     9
100
AcDbVertex
100
AcDb2dVertex
 10
90.73313685187149
 20
-119.7246638589579
 30
0.0
  0
VERTEX
  5
A1
330
9F
100
AcDbEntity
  8
_U+30EC_U+30A4_U+30E4_U+30FC 1
 62
   179
420
  2234388
370
     9
100
AcDbVertex
100
AcDb2dVertex
 10
90.73313685187149
 20
-117.2648502484616
 30
0.0
  0
SEQEND
  5
A2
330
9F
100
AcDbEntity
  8
_U+30EC_U+30A4_U+30E4_U+30FC 1
 62
   179
420
  2234388
370
     9
  0
INSERT
  5
A4
330
1F
100
AcDbEntity
  8
_U+30EC_U+30A4_U+30E4_U+30FC 1
100
AcDbBlockReference
  2
block 3
 10
0.0
 20
0.0
 30
0.0
  0
SPLINE
  5
BE
330
1F
100
AcDbEntity
  8
_U+30EC_U+30A4_U+30E4_U+30FC 1
 62
   179
420
  2234388
370
    25
100
AcDbSpline
210
0.0
220
0.0
230
1.0
 70
    11
 71
     3
 72
    17
 73
    13
 74
     0
 42
0.0000000001
 43
0.0000000001
 12
1.0
 22
0.0
 32
0.0
 13
1.0
 23
0.0
 33
0.0
 40
0.0
 40
0.0
 40
0.0
 40
0.0
 40
1.0
 40
1.0
 40
1.0
 40
2.0
 40
2.0
 40
2.0
 40
3.0
 40
3.0
 40
3.0
 40
4.0
 40
4.0
 40
4.0
 40
4.0
 10
76.76842887480754
 20
-122.2650519138781
 30
0.0
 10
76.76842887480754
 20
-122.2843488583179
 30
0.0
 10
76.75258915298943
 20
-122.3001885805361
 30
0.0
 10
76.73293943126852
 20
-122.3001885805361
 30
0.0
 10
76.71367776509325
 20
-122.3001885805361
 30
0.0
 10
76.69780276549825
 20
-122.2843488583179
 30
0.0
 10
76.69780276549825
 20
-122.2650519138781
 30
0.0
 10
76.69780276549825
 20
-122.2450846916609
 30
0.0
 10
76.71367776509325
 20
-122.2292449694427
 30
0.0
 10
76.73293943126852
 20
-122.2292449694427
 30
0.0
 10
76.75258915298943
 20
-122.2292449694427
 30
0.0
 10
76.76842887480754
 20
-122.2450846916609
 30
0.0
 10
76.76842887480754
 20
-122.2650519138781
 30
0.0
  0
SPLINE
  5
BF
330
1F
100
AcDbEntity
  8
_U+30EC_U+30A4_U+30E4_U+30FC 1
 62
   179
420
  2234388
370
    25
100
AcDbSpline
210
0.0
220
0.0
230
1.0
 70
    11
 71
     3
 72
    17
 73
    13
 74
     0
 42
0.0000000001
 43
0.0000000001
 12
1.0
 22
0.0
 32
0.0
 13
1.0
 23
0.0
 33
0.0
 40
0.0
 40
0.0
 40
0.0
 40
0.0
 40
1.0
 40
1.0
 40
1.0
 40
2.0
 40
2.0
 40
2.0
 40
3.0
 40
3.0
 40
3.0
 40
4.0
 40
4.0
 40
4.0
 40
4.0
 10
90.76827351764176
 20
-122.2650519138781
 30
0.0
 10
90.76827351764176
 20
-122.2843488583179
 30
0.0
 10
90.75278886620085
 20
-122.3001885805361
 30
0.0
 10
90.73313685187149
 20
-122.3001885805361
 30
0.0
 10
90.71348713015058
 20
-122.3001885805361
 30
0.0
 10
90.69800018610124
 20
-122.2843488583179
 30
0.0
 10
90.69800018610124
 20
-122.2650519138781
 30
0.0
 10
90.69800018610124
 20
-122.2450846916609
 30
0.0
 10
90.71348713015058
 20
-122.2292449694427
 30
0.0
 10
90.73313685187149
 20
-122.2292449694427
 30
0.0
 10
90.75278886620085
 20
-122.2292449694427
 30
0.0
 10
90.76827351764176
 20
-122.2450846916609
 30
0.0
 10
90.76827351764176
 20
-122.2650519138781
 30
0.0
  0
SPLINE
  5
C0
330
1F
100
AcDbEntity
  8
_U+30EC_U+30A4_U+30E4_U+30FC 1
 62
   179
420
  2234388
370
     9
100
AcDbSpline
210
0.0
220
0.0
230
1.0
 70
    11
 71
     3
 72
    17
 73
    13
 74
     0
 42
0.0000000001
 43
0.0000000001
 12
1.0
 22
0.0
 32
0.0
 13
1.0
 23
0.0
 33
0.0
 40
0.0
 40
0.0
 40
0.0
 40
0.0
 40
1.0
 40
1.0
 40
1.0
 40
2.0
 40
2.0
 40
2.0
 40
3.0
 40
3.0
 40
3.0
 40
4.0
 40
4.0
 40
4.0
 40
4.0
 10
90.76827351764176
 20
-118.2646224704338
 30
0.0
 10
90.76827351764176
 20
-118.284589692651
 30
0.0
 10
90.75278886620085
 20
-118.3004294148693
 30
0.0
 10
90.73313685187149
 20
-118.3004294148693
 30
0.0
 10
90.71348713015058
 20
-118.3004294148693
 30
0.0
 10
90.69800018610124
 20
-118.284589692651
 30
0.0
 10
90.69800018610124
 20
-118.2646224704338
 30
0.0
 10
90.69800018610124
 20
-118.2453255259943
 30
0.0
 10
90.71348713015058
 20
-118.2294858037761
 30
0.0
 10
90.73313685187149
 20
-118.2294858037761
 30
0.0
 10
90.75278886620085
 20
-118.2294858037761
 30
0.0
 10
90.76827351764176
 20
-118.2453255259943
 30
0.0
 10
90.76827351764176
 20
-118.2646224704338
 30
0.0
  0
POLYLINE
  5
C1
330
1F
100
AcDbEntity
  8
_U+30EC_U+30A4_U+30E4_U+30FC 1
 62
   179
420
  2234388
370
     9
100
AcDb2dPolyline
 66
     1
 10
0.0
 20
0.0
 30
0.0
  0
VERTEX
  5
C2
330
C1
100
AcDbEntity
  8
_U+30EC_U+30A4_U+30E4_U+30FC 1
 62
   179
420
  2234388
370
     9
100
AcDbVertex
100
AcDb2dVertex
 10
105.7330711914135
 20
-132.2248152447214
 30
0.0
  0
VERTEX
  5
C3
330
C1
100
AcDbEntity
  8
_U+30EC_U+30A4_U+30E4_U+30FC 1
 62
   179
420
  2234388
370
     9
100
AcDbVertex
100
AcDb2dVertex
 10
105.7330711914135
 20
-117.2648502484616
 30
0.0
  0
SEQEND
  5
C4
330
C1
100
AcDbEntity
  8
_U+30EC_U+30A4_U+30E4_U+30FC 1
 62
   179
420
  2234388
370
     9
  0
SPLINE
  5
C5
330
1F
100
AcDbEntity
  8
_U+30EC_U+30A4_U+30E4_U+30FC 1
 62
   179
420
  2234388
370
    25
100
AcDbSpline
210
0.0
220
0.0
230
1.0
 70
    11
 71
     3
 72
    17
 73
    13
 74
     0
 42
0.0000000001
 43
0.0000000001
 12
1.0
 22
0.0
 32
0.0
 13
1.0
 23
0.0
 33
0.0
 40
0.0
 40
0.0
 40
0.0
 40
0.0
 40
1.0
 40
1.0
 40
1.0
 40
2.0
 40
2.0
 40
2.0
 40
3.0
 40
3.0
 40
3.0
 40
4.0
 40
4.0
 40
4.0
 40
4.0
 10
90.76827351764176
 20
-122.2650519138781
 30
0.0
 10
90.76827351764176
 20
-122.2843488583179
 30
0.0
 10
90.75278886620085
 20
-122.3001885805361
 30
0.0
 10
90.73313685187149
 20
-122.3001885805361
 30
0.0
 10
90.71348713015058
 20
-122.3001885805361
 30
0.0
 10
90.69800018610124
 20
-122.2843488583179
 30
0.0
 10
90.69800018610124
 20
-122.2650519138781
 30
0.0
 10
90.69800018610124
 20
-122.2450846916609
 30
0.0
 10
90.71348713015058
 20
-122.2292449694427
 30
0.0
 10
90.73313685187149
 20
-122.2292449694427
 30
0.0
 10
90.75278886620085
 20
-122.2292449694427
 30
0.0
 10
90.76827351764176
 20
-122.2450846916609
 30
0.0
 10
90.76827351764176
 20
-122.2650519138781
 30
0.0
  0
SPLINE
  5
C6
330
1F
100
AcDbEntity
  8
_U+30EC_U+30A4_U+30E4_U+30FC 1
 62
   179
420
  2234388
370
     9
100
AcDbSpline
210
0.0
220
0.0
230
1.0
 70
    11
 71
     3
 72
    17
 73
    13
 74
     0
 42
0.0000000001
 43
0.0000000001
 12
1.0
 22
0.0
 32
0.0
 13
1.0
 23
0.0
 33
0.0
 40
0.0
 40
0.0
 40
0.0
 40
0.0
 40
1.0
 40
1.0
 40
1.0
 40
2.0
 40
2.0
 40
2.0
 40
3.0
 40
3.0
 40
3.0
 40
4.0
 40
4.0
 40
4.0
 40
4.0
 10
105.7685606349526
 20
-134.7645682996421
 30
0.0
 10
105.7685606349526
 20
-134.7845355218593
 30
0.0
 10
105.7527209131344
 20
-134.8003752440779
 30
0.0
 10
105.7330711914135
 20
-134.8003752440779
 30
0.0
 10
105.7137742474614
 20
-134.8003752440779
 30
0.0
 10
105.6979345256433
 20
-134.7845355218593
 30
0.0
 10
105.6979345256433
 20
-134.7645682996421
 30
0.0
 10
105.6979345256433
 20
-134.7452713552023
 30
0.0
 10
105.7137742474614
 20
-134.7294316329844
 30
0.0
 10
105.7330711914135
 20
-134.7294316329844
 30
0.0
 10
105.7527209131344
 20
-134.7294316329844
 30
0.0
 10
105.7685606349526
 20
-134.7452713552023
 30
0.0
 10
105.7685606349526
 20
-134.7645682996421
 30
0.0
  0
SPLINE
  5
C7
330
1F
100
AcDbEntity
  8
_U+30EC_U+30A4_U+30E4_U+30FC 1
 62
   179
420
  2234388
370
     9
100
AcDbSpline
210
0.0
220
0.0
230
1.0
 70
    11
 71
     3
 72
    17
 73
    13
 74
     0
 42
0.0000000001
 43
0.0000000001
 12
1.0
 22
0.0
 32
0.0
 13
1.0
 23
0.0
 33
0.0
 40
0.0
 40
0.0
 40
0.0
 40
0.0
 40
1.0
 40
1.0
 40
1.0
 40
2.0
 40
2.0
 40
2.0
 40
3.0
 40
3.0
 40
3.0
 40
4.0
 40
4.0
 40
4.0
 40
4.0
 10
105.7685606349526
 20
-118.2646224704338
 30
0.0
 10
105.7685606349526
 20
-118.284589692651
 30
0.0
 10
105.7527209131344
 20
-118.3004294148693
 30
0.0
 10
105.7330711914135
 20
-118.3004294148693
 30
0.0
 10
105.7137742474614
 20
-118.3004294148693
 30
0.0
 10
105.6979345256433
 20
-118.284589692651
 30
0.0
 10
105.6979345256433
 20
-118.2646224704338
 30
0.0
 10
105.6979345256433
 20
-118.2453255259943
 30
0.0
 10
105.7137742474614
 20
-118.2294858037761
 30
0.0
 10
105.7330711914135
 20
-118.2294858037761
 30
0.0
 10
105.7527209131344
 20
-118.2294858037761
 30
0.0
 10
105.7685606349526
 20
-118.2453255259943
 30
0.0
 10
105.7685606349526
 20
-118.2646224704338
 30
0.0
  0
POLYLINE
  5
C8
330
1F
100
AcDbEntity
  8
_U+30EC_U+30A4_U+30E4_U+30FC 1
 62
   179
420
  2234388
370
     9
100
AcDb2dPolyline
 66
     1
 10
0.0
 20
0.0
 30
0.0
  0
VERTEX
  5
C9
330
C8
100
AcDbEntity
  8
_U+30EC_U+30A4_U+30E4_U+30FC 1
 62
   179
420
  2234388
370
     9
100
AcDbVertex
100
AcDb2dVertex
 10
74.61472059641989
 20
-122.2650519138781
 30
0.0
  0
VERTEX
  5
CA
330
C8
100
AcDbEntity
  8
_U+30EC_U+30A4_U+30E4_U+30FC 1
 62
   179
420
  2234388
370
     9
100
AcDbVertex
100
AcDb2dVertex
 10
74.61472059641989
 20
-136.2645441326002
 30
0.0
  0
SEQEND
  5
CB
330
C8
100
AcDbEntity
  8
_U+30EC_U+30A4_U+30E4_U+30FC 1
 62
   179
420
  2234388
370
     9
  0
POLYLINE
  5
CC
330
1F
100
AcDbEntity
  8
_U+30EC_U+30A4_U+30E4_U+30FC 1
 62
   179
420
  2234388
370
     9
100
AcDb2dPolyline
 66
     1
 10
0.0
 20
0.0
 30
0.0
  0
VERTEX
  5
CD
330
CC
100
AcDbEntity
  8
_U+30EC_U+30A4_U+30E4_U+30FC 1
 62
   179
420
  2234388
370
     9
100
AcDbVertex
100
AcDb2dVertex
 10
76.07476386987035
 20
-122.2650519138781
 30
0.0
  0
VERTEX
  5
CE
330
CC
100
AcDbEntity
  8
_U+30EC_U+30A4_U+30E4_U+30FC 1
 62
   179
420
  2234388
370
     9
100
AcDbVertex
100
AcDb2dVertex
 10
73.61463089971208
 20
-122.2650519138781
 30
0.0
  0
SEQEND
  5
CF
330
CC
100
AcDbEntity
  8
_U+30EC_U+30A4_U+30E4_U+30FC 1
 62
   179
420
  2234388
370
     9
  0
POLYLINE
  5
D0
330
1F
100
AcDbEntity
  8
_U+30EC_U+30A4_U+30E4_U+30FC 1
 62
   179
420
  2234388
370
     9
100
AcDb2dPolyline
 66
     1
 10
0.0
 20
0.0
 30
0.0
  0
VERTEX
  5
D1
330
D0
100
AcDbEntity
  8
_U+30EC_U+30A4_U+30E4_U+30FC 1
 62
   179
420
  2234388
370
     9
100
AcDbVertex
100
AcDb2dVertex
 10
76.07476386987035
 20
-136.2645441326002
 30
0.0
  0
VERTEX
  5
D2
330
D0
100
AcDbEntity
  8
_U+30EC_U+30A4_U+30E4_U+30FC 1
 62
   179
420
  2234388
370
     9
100
AcDbVertex
100
AcDb2dVertex
 10
73.61463089971208
 20
-136.2645441326002
 30
0.0
  0
SEQEND
  5
D3
330
D0
100
AcDbEntity
  8
_U+30EC_U+30A4_U+30E4_U+30FC 1
 62
   179
420
  2234388
370
     9
  0
INSERT
  5
D5
330
1F
100
AcDbEntity
  8
_U+30EC_U+30A4_U+30E4_U+30FC 1
100
AcDbBlockReference
  2
block 4
 10
0.0
 20
0.0
 30
0.0
  0
SPLINE
  5
EF
330
1F
100
AcDbEntity
  8
_U+30EC_U+30A4_U+30E4_U+30FC 1
 62
   179
420
  2234388
370
    25
100
AcDbSpline
210
0.0
220
0.0
230
1.0
 70
    11
 71
     3
 72
    17
 73
    13
 74
     0
 42
0.0000000001
 43
0.0000000001
 12
1.0
 22
0.0
 32
0.0
 13
1.0
 23
0.0
 33
0.0
 40
0.0
 40
0.0
 40
0.0
 40
0.0
 40
1.0
 40
1.0
 40
1.0
 40
2.0
 40
2.0
 40
2.0
 40
3.0
 40
3.0
 40
3.0
 40
4.0
 40
4.0
 40
4.0
 40
4.0
 10
76.76842887480754
 20
-122.2650519138781
 30
0.0
 10
76.76842887480754
 20
-122.2843488583179
 30
0.0
 10
76.75258915298943
 20
-122.3001885805361
 30
0.0
 10
76.73293943126852
 20
-122.3001885805361
 30
0.0
 10
76.71367776509325
 20
-122.3001885805361
 30
0.0
 10
76.69780276549825
 20
-122.2843488583179
 30
0.0
 10
76.69780276549825
 20
-122.2650519138781
 30
0.0
 10
76.69780276549825
 20
-122.2450846916609
 30
0.0
 10
76.71367776509325
 20
-122.2292449694427
 30
0.0
 10
76.73293943126852
 20
-122.2292449694427
 30
0.0
 10
76.75258915298943
 20
-122.2292449694427
 30
0.0
 10
76.76842887480754
 20
-122.2450846916609
 30
0.0
 10
76.76842887480754
 20
-122.2650519138781
 30
0.0
  0
SPLINE
  5
F0
330
1F
100
AcDbEntity
  8
_U+30EC_U+30A4_U+30E4_U+30FC 1
 62
   179
420
  2234388
370
    25
100
AcDbSpline
210
0.0
220
0.0
230
1.0
 70
    11
 71
     3
 72
    17
 73
    13
 74
     0
 42
0.0000000001
 43
0.0000000001
 12
1.0
 22
0.0
 32
0.0
 13
1.0
 23
0.0
 33
0.0
 40
0.0
 40
0.0
 40
0.0
 40
0.0
 40
1.0
 40
1.0
 40
1.0
 40
2.0
 40
2.0
 40
2.0
 40
3.0
 40
3.0
 40
3.0
 40
4.0
 40
4.0
 40
4.0
 40
4.0
 10
76.76842887480754
 20
-136.2645441326002
 30
0.0
 10
76.76842887480754
 20
-136.2845466325956
 30
0.0
 10
76.75258915298943
 20
-136.3003863548141
 30
0.0
 10
76.73293943126852
 20
-136.3003863548141
 30
0.0
 10
76.71367776509325
 20
-136.3003863548141
 30
0.0
 10
76.69780276549825
 20
-136.2845466325956
 30
0.0
 10
76.69780276549825
 20
-136.2645441326002
 30
0.0
 10
76.69780276549825
 20
-136.245247188161
 30
0.0
 10
76.71367776509325
 20
-136.2294074659425
 30
0.0
 10
76.73293943126852
 20
-136.2294074659425
 30
0.0
 10
76.75258915298943
 20
-136.2294074659425
 30
0.0
 10
76.76842887480754
 20
-136.245247188161
 30
0.0
 10
76.76842887480754
 20
-136.2645441326002
 30
0.0
  0
SPLINE
  5
F1
330
1F
100
AcDbEntity
  8
_U+30EC_U+30A4_U+30E4_U+30FC 1
 62
   179
420
  2234388
370
     9
100
AcDbSpline
210
0.0
220
0.0
230
1.0
 70
    11
 71
     3
 72
    17
 73
    13
 74
     0
 42
0.0000000001
 43
0.0000000001
 12
1.0
 22
0.0
 32
0.0
 13
1.0
 23
0.0
 33
0.0
 40
0.0
 40
0.0
 40
0.0
 40
0.0
 40
1.0
 40
1.0
 40
1.0
 40
2.0
 40
2.0
 40
2.0
 40
3.0
 40
3.0
 40
3.0
 40
4.0
 40
4.0
 40
4.0
 40
4.0
 10
74.6498944257819
 20
-136.2645441326002
 30
0.0
 10
74.6498944257819
 20
-136.2845466325956
 30
0.0
 10
74.63401942578584
 20
-136.3003863548141
 30
0.0
 10
74.61472059641989
 20
-136.3003863548141
 30
0.0
 10
74.59510615247585
 20
-136.3003863548141
 30
0.0
 10
74.57926643065774
 20
-136.2845466325956
 30
0.0
 10
74.57926643065774
 20
-136.2645441326002
 30
0.0
 10
74.57926643065774
 20
-136.245247188161
 30
0.0
 10
74.59510615247585
 20
-136.2294074659425
 30
0.0
 10
74.61472059641989
 20
-136.2294074659425
 30
0.0
 10
74.63401942578584
 20
-136.2294074659425
 30
0.0
 10
74.6498944257819
 20
-136.245247188161
 30
0.0
 10
74.6498944257819
 20
-136.2645441326002
 30
0.0
  0
INSERT
  5
F3
330
1F
100
AcDbEntity
  8
_U+30EC_U+30A4_U+30E4_U+30FC 1
100
AcDbBlockReference
  2
block 5
 10
0.0
 20
0.0
 30
0.0
  0
INSERT
  5
103
330
1F
100
AcDbEntity
  8
_U+30EC_U+30A4_U+30E4_U+30FC 1
100
AcDbBlockReference
  2
block 6
 10
0.0
 20
0.0
 30
0.0
  0
POLYLINE
  5
114
330
1F
100
AcDbEntity
  8
_U+30EC_U+30A4_U+30E4_U+30FC 1
 62
   179
420
  2234388
370
     9
100
AcDb2dPolyline
 66
     1
 10
0.0
 20
0.0
 30
0.0
  0
VERTEX
  5
115
330
114
100
AcDbEntity
  8
_U+30EC_U+30A4_U+30E4_U+30FC 1
 62
   179
420
  2234388
370
     9
100
AcDbVertex
100
AcDb2dVertex
 10
90.73313685187149
 20
-134.7645682996421
 30
0.0
  0
VERTEX
  5
116
330
114
100
AcDbEntity
  8
_U+30EC_U+30A4_U+30E4_U+30FC 1
 62
   179
420
  2234388
370
     9
100
AcDbVertex
100
AcDb2dVertex
 10
97.83314222629083
 20
-134.7645682996421
 30
0.0
  0
SEQEND
  5
117
330
114
100
AcDbEntity
  8
_U+30EC_U+30A4_U+30E4_U+30FC 1
 62
   179
420
  2234388
370
     9
  0
POLYLINE
  5
118
330
1F
100
AcDbEntity
  8
_U+30EC_U+30A4_U+30E4_U+30FC 1
 62
   179
420
  2234388
370
     9
100
AcDb2dPolyline
 66
     1
 10
0.0
 20
0.0
 30
0.0
  0
VERTEX
  5
119
330
118
100
AcDbEntity
  8
_U+30EC_U+30A4_U+30E4_U+30FC 1
 62
   179
420
  2234388
370
     9
100
AcDbVertex
100
AcDb2dVertex
 10
89.23312577902885
 20
-136.2645441326002
 30
0.0
  0
VERTEX
  5
11A
330
118
100
AcDbEntity
  8
_U+30EC_U+30A4_U+30E4_U+30FC 1
 62
   179
420
  2234388
370
     9
100
AcDbVertex
100
AcDb2dVertex
 10
105.7330711914135
 20
-136.2645441326002
 30
0.0
  0
SEQEND
  5
11B
330
118
100
AcDbEntity
  8
_U+30EC_U+30A4_U+30E4_U+30FC 1
 62
   179
420
  2234388
370
     9
  0
POLYLINE
  5
11C
330
1F
100
AcDbEntity
  8
_U+30EC_U+30A4_U+30E4_U+30FC 1
 62
   179
420
  2234388
370
    25
100
AcDb2dPolyline
 66
     1
 10
0.0
 20
0.0
 30
0.0
  0
VERTEX
  5
11D
330
11C
100
AcDbEntity
  8
_U+30EC_U+30A4_U+30E4_U+30FC 1
 62
   179
420
  2234388
370
    25
100
AcDbVertex
100
AcDb2dVertex
 10
91.23302295022945
 20
-135.5148913550099
 30
0.0
  0
VERTEX
  5
11E
330
11C
100
AcDbEntity
  8
_U+30EC_U+30A4_U+30E4_U+30FC 1
 62
   179
420
  2234388
370
    25
100
AcDbVertex
100
AcDb2dVertex
 10
105.2331850930556
 20
-135.5148913550099
 30
0.0
  0
SEQEND
  5
11F
330
11C
100
AcDbEntity
  8
_U+30EC_U+30A4_U+30E4_U+30FC 1
 62
   179
420
  2234388
370
    25
  0
POLYLINE
  5
120
330
1F
100
AcDbEntity
  8
_U+30EC_U+30A4_U+30E4_U+30FC 1
 62
   179
420
  2234388
370
     9
100
AcDb2dPolyline
 66
     1
 10
0.0
 20
0.0
 30
0.0
  0
VERTEX
  5
121
330
120
100
AcDbEntity
  8
_U+30EC_U+30A4_U+30E4_U+30FC 1
 62
   179
420
  2234388
370
     9
100
AcDbVertex
100
AcDb2dVertex
 10
98.63306581699419
 20
-134.7645682996421
 30
0.0
  0
VERTEX
  5
122
330
120
100
AcDbEntity
  8
_U+30EC_U+30A4_U+30E4_U+30FC 1
 62
   179
420
  2234388
370
     9
100
AcDbVertex
100
AcDb2dVertex
 10
105.7330711914135
 20
-134.7645682996421
 30
0.0
  0
SEQEND
  5
123
330
120
100
AcDbEntity
  8
_U+30EC_U+30A4_U+30E4_U+30FC 1
 62
   179
420
  2234388
370
     9
  0
SPLINE
  5
124
330
1F
100
AcDbEntity
  8
_U+30EC_U+30A4_U+30E4_U+30FC 1
 62
   179
420
  2234388
370
     9
100
AcDbSpline
210
0.0
220
0.0
230
1.0
 70
     8
 71
     3
 72
    11
 73
     7
 74
     0
 42
0.0000000001
 43
0.0000000001
 12
1.0
 22
0.0
 32
0.0
 13
1.0
 23
0.0
 33
0.0
 40
0.0
 40
0.0
 40
0.0
 40
0.0
 40
1.0
 40
1.0
 40
1.0
 40
2.0
 40
2.0
 40
2.0
 40
2.0
 10
97.83314222629083
 20
-134.7645682996421
 30
0.0
 10
97.83314222629083
 20
-134.9857246884755
 30
0.0
 10
98.01228277727613
 20
-135.1648652439867
 30
0.0
 10
98.23312166053094
 20
-135.1648652439867
 30
0.0
 10
98.45392775316442
 20
-135.1648652439867
 30
0.0
 10
98.63306581699419
 20
-134.9857246884755
 30
0.0
 10
98.63306581699419
 20
-134.7645682996421
 30
0.0
  0
POLYLINE
  5
125
330
1F
100
AcDbEntity
  8
_U+30EC_U+30A4_U+30E4_U+30FC 1
 62
   179
420
  2234388
370
     9
100
AcDb2dPolyline
 66
     1
 10
0.0
 20
0.0
 30
0.0
  0
VERTEX
  5
126
330
125
100
AcDbEntity
  8
_U+30EC_U+30A4_U+30E4_U+30FC 1
 62
   179
420
  2234388
370
     9
100
AcDbVertex
100
AcDb2dVertex
 10
90.73313685187149
 20
-118.2646224704338
 30
0.0
  0
VERTEX
  5
127
330
125
100
AcDbEntity
  8
_U+30EC_U+30A4_U+30E4_U+30FC 1
 62
   179
420
  2234388
370
     9
100
AcDbVertex
100
AcDb2dVertex
 10
105.7330711914135
 20
-118.2646224704338
 30
0.0
  0
SEQEND
  5
128
330
125
100
AcDbEntity
  8
_U+30EC_U+30A4_U+30E4_U+30FC 1
 62
   179
420
  2234388
370
     9
  0
INSERT
  5
12A
330
1F
100
AcDbEntity
  8
_U+30EC_U+30A4_U+30E4_U+30FC 1
100
AcDbBlockReference
  2
block 7
 10
0.0
 20
0.0
 30
0.0
  0
ENDSEC
  0
SECTION
  2
OBJECTS
  0
DICTIONARY
  5
C
330
0
100
AcDbDictionary
281
     1
  3
ACAD_GROUP
350
D
  3
ACAD_LAYOUT
350
1A
  3
ACAD_MATERIAL
350
3B
  3
ACAD_MLEADERSTYLE
350
132
  3
ACAD_MLINESTYLE
350
17
  3
ACAD_PLOTSETTINGS
350
19
  3
ACAD_PLOTSTYLENAME
350
E
  3
ACAD_TABLESTYLE
350
131
  3
ACAD_VISUALSTYLE
350
2A
  0
SUN
  5
3F
330
29
100
AcDbSun
 90
        1
290
     0
 63
     7
421
 16777215
 40
1.0
291
     1
 91
  2455826
 92
 54000000
292
     0
 70
     2
 71
   256
280
     1
  0
DICTIONARY
  5
D
102
{ACAD_REACTORS
330
C
102
}
330
C
100
AcDbDictionary
281
     1
  0
DICTIONARY
  5
1A
102
{ACAD_REACTORS
330
C
102
}
330
C
100
AcDbDictionary
281
     1
  3
Layout1
350
1E
  3
Layout2
350
26
  3
Model
350
22
  0
DICTIONARY
  5
3B
102
{ACAD_REACTORS
330
C
102
}
330
C
100
AcDbDictionary
281
     1
  3
ByBlock
350
3D
  3
ByLayer
350
3C
  3
Global
350
3E
  0
DICTIONARY
  5
132
102
{ACAD_REACTORS
330
C
102
}
330
C
100
AcDbDictionary
281
     1
  0
DICTIONARY
  5
17
102
{ACAD_REACTORS
330
C
102
}
330
C
100
AcDbDictionary
281
     1
  3
Standard
350
18
  0
DICTIONARY
  5
19
102
{ACAD_REACTORS
330
C
102
}
330
C
100
AcDbDictionary
281
     1
  0
ACDBDICTIONARYWDFLT
  5
E
102
{ACAD_REACTORS
330
C
102
}
330
C
100
AcDbDictionary
281
     1
  3
Normal
350
F
100
AcDbDictionaryWithDefault
340
F
  0
DICTIONARY
  5
131
102
{ACAD_REACTORS
330
C
102
}
330
C
100
AcDbDictionary
281
     1
  0
DICTIONARY
  5
2A
102
{ACAD_REACTORS
330
C
102
}
330
C
100
AcDbDictionary
281
     1
  3
2dWireframe
350
2F
  3
3D Hidden
350
31
  3
3dWireframe
350
30
  3
Basic
350
32
  3
Brighten
350
36
  3
ColorChange
350
3A
  3
Conceptual
350
34
  3
Dim
350
35
  3
Facepattern
350
39
  3
Flat
350
2B
  3
FlatWithEdges
350
2C
  3
Gouraud
350
2D
  3
GouraudWithEdges
350
2E
  3
Linepattern
350
38
  3
Realistic
350
33
  3
Thicken
350
37
  0
LAYOUT
  5
1E
102
{ACAD_REACTORS
330
1A
102
}
330
1A
100
AcDbPlotSettings
  1

  2
none_device
  4

  6

 40
0.0
 41
0.0
 42
0.0
 43
0.0
 44
0.0
 45
0.0
 46
0.0
 47
0.0
 48
0.0
 49
0.0
140
0.0
141
0.0
142
1.0
143
1.0
 70
   688
 72
     0
 73
     0
 74
     5
  7

 75
    16
 76
     0
 77
     2
 78
   300
147
1.0
148
0.0
149
0.0
100
AcDbLayout
  1
Layout1
 70
     1
 71
     1
 10
0.0
 20
0.0
 11
12.0
 21
9.0
 12
0.0
 22
0.0
 32
0.0
 14
1.000000000000000E+20
 24
1.000000000000000E+20
 34
1.000000000000000E+20
 15
-1.000000000000000E+20
 25
-1.000000000000000E+20
 35
-1.000000000000000E+20
146
0.0
 13
0.0
 23
0.0
 33
0.0
 16
1.0
 26
0.0
 36
0.0
 17
0.0
 27
1.0
 37
0.0
 76
     0
330
1B
  0
LAYOUT
  5
26
102
{ACAD_REACTORS
330
1A
102
}
330
1A
100
AcDbPlotSettings
  1

  2
none_device
  4

  6

 40
0.0
 41
0.0
 42
0.0
 43
0.0
 44
0.0
 45
0.0
 46
0.0
 47
0.0
 48
0.0
 49
0.0
140
0.0
141
0.0
142
1.0
143
1.0
 70
   688
 72
     0
 73
     0
 74
     5
  7

 75
    16
 76
     0
 77
     2
 78
   300
147
1.0
148
0.0
149
0.0
100
AcDbLayout
  1
Layout2
 70
     1
 71
     2
 10
0.0
 20
0.0
 11
0.0
 21
0.0
 12
0.0
 22
0.0
 32
0.0
 14
0.0
 24
0.0
 34
0.0
 15
0.0
 25
0.0
 35
0.0
146
0.0
 13
0.0
 23
0.0
 33
0.0
 16
1.0
 26
0.0
 36
0.0
 17
0.0
 27
1.0
 37
0.0
 76
     0
330
23
  0
LAYOUT
  5
22
102
{ACAD_REACTORS
330
1A
102
}
330
1A
100
AcDbPlotSettings
  1

  2
none_device
  4

  6

 40
0.0
 41
0.0
 42
0.0
 43
0.0
 44
0.0
 45
0.0
 46
0.0
 47
0.0
 48
0.0
 49
0.0
140
0.0
141
0.0
142
1.0
143
1.0
 70
  1712
 72
     0
 73
     0
 74
     0
  7

 75
     0
 76
     0
 77
     2
 78
   300
147
1.0
148
0.0
149
0.0
100
AcDbLayout
  1
Model
 70
     1
 71
     0
 10
0.0
 20
0.0
 11
12.0
 21
9.0
 12
0.0
 22
0.0
 32
0.0
 14
1.000000000000000E+20
 24
1.000000000000000E+20
 34
1.000000000000000E+20
 15
-1.000000000000000E+20
 25
-1.000000000000000E+20
 35
-1.000000000000000E+20
146
0.0
 13
0.0
 23
0.0
 33
0.0
 16
1.0
 26
0.0
 36
0.0
 17
0.0
 27
1.0
 37
0.0
 76
     0
330
1F
331
29
  0
MATERIAL
  5
3D
102
{ACAD_REACTORS
330
3B
102
}
330
3B
100
AcDbMaterial
  1
ByBlock
 72
     1
 94
      127
  0
MATERIAL
  5
3C
102
{ACAD_REACTORS
330
3B
102
}
330
3B
100
AcDbMaterial
  1
ByLayer
 72
     1
 94
      127
  0
MATERIAL
  5
3E
102
{ACAD_REACTORS
330
3B
102
}
330
3B
100
AcDbMaterial
  1
Global
 72
     1
 94
      127
  0
MLINESTYLE
  5
18
102
{ACAD_REACTORS
330
17
102
}
330
17
100
AcDbMlineStyle
  2
Standard
 70
     0
  3

 62
   256
 51
90.0
 52
90.0
 71
     2
 49
0.5
 62
   256
  6
BYLAYER
 49
-0.5
 62
   256
  6
BYLAYER
  0
ACDBPLACEHOLDER
  5
F
102
{ACAD_REACTORS
330
E
102
}
330
E
  0
VISUALSTYLE
  5
2F
102
{ACAD_REACTORS
330
2A
102
}
330
2A
100
AcDbVisualStyle
  2
2dWireframe
 70
     4
177
     2
291
     0
 71
     0
176
     1
 72
     2
176
     1
 73
     0
176
     1
 90
        0
176
     1
 40
-0.6
176
     1
 41
-30.0
176
     1
 62
     5
 63
     7
421
 16777215
176
     1
 74
     1
176
     1
 91
        4
176
     1
 64
     7
176
     1
 65
   257
176
     1
 75
     1
176
     1
175
     1
176
     1
 42
1.0
176
     1
 92
        0
176
     1
 66
   257
176
     1
 43
1.0
176
     1
 76
     1
176
     1
 77
     6
176
     1
 78
     2
176
     1
 67
     7
176
     1
 79
     5
176
     1
170
     0
176
     1
171
     0
176
     1
290
     0
176
     1
 93
        1
176
     1
 44
0.0
176
     1
173
     0
176
     1
  0
VISUALSTYLE
  5
31
102
{ACAD_REACTORS
330
2A
102
}
330
2A
100
AcDbVisualStyle
  2
3D Hidden
 70
     6
177
     2
291
     0
 71
     1
176
     1
 72
     2
176
     1
 73
     2
176
     1
 90
        0
176
     1
 40
-0.6
176
     1
 41
-30.0
176
     1
 62
     5
 63
     7
421
 16777215
176
     1
 74
     2
176
     1
 91
        2
176
     1
 64
     7
176
     1
 65
   257
176
     1
 75
     2
176
     1
175
     1
176
     1
 42
40.0
176
     1
 92
        0
176
     1
 66
   257
176
     1
 43
1.0
176
     1
 76
     1
176
     1
 77
     6
176
     1
 78
     2
176
     1
 67
     7
176
     1
 79
     3
176
     1
170
     0
176
     1
171
     0
176
     1
290
     0
176
     1
 93
        1
176
     1
 44
0.0
176
     1
173
     0
176
     1
  0
VISUALSTYLE
  5
30
102
{ACAD_REACTORS
330
2A
102
}
330
2A
100
AcDbVisualStyle
  2
3dWireframe
 70
     5
177
     2
291
     0
 71
     0
176
     1
 72
     2
176
     1
 73
     0
176
     1
 90
        0
176
     1
 40
-0.6
176
     1
 41
-30.0
176
     1
 62
     5
 63
     7
421
 16777215
176
     1
 74
     1
176
     1
 91
        4
176
     1
 64
     7
176
     1
 65
   257
176
     1
 75
     1
176
     1
175
     1
176
     1
 42
1.0
176
     1
 92
        0
176
     1
 66
   257
176
     1
 43
1.0
176
     1
 76
     1
176
     1
 77
     6
176
     1
 78
     2
176
     1
 67
     7
176
     1
 79
     5
176
     1
170
     0
176
     1
171
     0
176
     1
290
     0
176
     1
 93
        1
176
     1
 44
0.0
176
     1
173
     0
176
     1
  0
VISUALSTYLE
  5
32
102
{ACAD_REACTORS
330
2A
102
}
330
2A
100
AcDbVisualStyle
  2
Basic
 70
     7
177
     2
291
     1
 71
     1
176
     1
 72
     0
176
     1
 73
     1
176
     1
 90
        0
176
     1
 40
-0.6
176
     1
 41
-30.0
176
     1
 62
     5
 63
     7
421
 16777215
176
     1
 74
     0
176
     1
 91
        4
176
     1
 64
     7
176
     1
 65
   257
176
     1
 75
     1
176
     1
175
     1
176
     1
 42
1.0
176
     1
 92
        8
176
     1
 66
     7
176
     1
 43
1.0
176
     1
 76
     1
176
     1
 77
     6
176
     1
 78
     2
176
     1
 67
     7
176
     1
 79
     5
176
     1
170
     0
176
     1
171
     0
176
     1
290
     0
176
     1
 93
        1
176
     1
 44
0.0
176
     1
173
     0
176
     1
  0
VISUALSTYLE
  5
36
102
{ACAD_REACTORS
330
2A
102
}
330
2A
100
AcDbVisualStyle
  2
Brighten
 70
    12
177
     2
291
     1
 71
     2
176
     1
 72
     2
176
     1
 73
     0
176
     1
 90
        0
176
     1
 40
-0.6
176
     1
 41
-30.0
176
     1
 62
     5
 63
     7
421
 16777215
176
     1
 74
     1
176
     1
 91
        4
176
     1
 64
     7
176
     1
 65
   257
176
     1
 75
     1
176
     1
175
     1
176
     1
 42
1.0
176
     1
 92
        8
176
     1
 66
     7
176
     1
 43
1.0
176
     1
 76
     1
176
     1
 77
     6
176
     1
 78
     2
176
     1
 67
     7
176
     1
 79
     5
176
     1
170
     0
176
     1
171
     0
176
     1
290
     0
176
     1
 93
        1
176
     1
 44
50.0
176
     1
173
     0
176
     1
  0
VISUALSTYLE
  5
3A
102
{ACAD_REACTORS
330
2A
102
}
330
2A
100
AcDbVisualStyle
  2
ColorChange
 70
    16
177
     2
291
     1
 71
     2
176
     1
 72
     2
176
     1
 73
     3
176
     1
 90
        0
176
     1
 40
-0.6
176
     1
 41
-30.0
176
     1
 62
     5
 63
     8
421
  8421504
176
     1
 74
     1
176
     1
 91
        4
176
     1
 64
     7
176
     1
 65
   257
176
     1
 75
     1
176
     1
175
     1
176
     1
 42
1.0
176
     1
 92
        8
176
     1
 66
     8
424
  8421504
176
     1
 43
1.0
176
     1
 76
     1
176
     1
 77
     6
176
     1
 78
     2
176
     1
 67
     7
176
     1
 79
     5
176
     1
170
     0
176
     1
171
     0
176
     1
290
     0
176
     1
 93
        1
176
     1
 44
0.0
176
     1
173
     0
176
     1
  0
VISUALSTYLE
  5
34
102
{ACAD_REACTORS
330
2A
102
}
330
2A
100
AcDbVisualStyle
  2
Conceptual
 70
     9
177
     2
291
     0
 71
     3
176
     1
 72
     2
176
     1
 73
     0
176
     1
 90
        0
176
     1
 40
-0.6
176
     1
 41
-30.0
176
     1
 62
     5
 63
     7
421
 16777215
176
     1
 74
     2
176
     1
 91
        2
176
     1
 64
     7
176
     1
 65
   257
176
     1
 75
     1
176
     1
175
     1
176
     1
 42
40.0
176
     1
 92
        8
176
     1
 66
     7
176
     1
 43
1.0
176
     1
 76
     1
176
     1
 77
     6
176
     1
 78
     2
176
     1
 67
     7
176
     1
 79
     3
176
     1
170
     0
176
     1
171
     0
176
     1
290
     0
176
     1
 93
        1
176
     1
 44
0.0
176
     1
173
     0
176
     1
  0
VISUALSTYLE
  5
35
102
{ACAD_REACTORS
330
2A
102
}
330
2A
100
AcDbVisualStyle
  2
Dim
 70
    11
177
     2
291
     1
 71
     2
176
     1
 72
     2
176
     1
 73
     0
176
     1
 90
        0
176
     1
 40
-0.6
176
     1
 41
-30.0
176
     1
 62
     5
 63
     7
421
 16777215
176
     1
 74
     1
176
     1
 91
        4
176
     1
 64
     7
176
     1
 65
   257
176
     1
 75
     1
176
     1
175
     1
176
     1
 42
1.0
176
     1
 92
        8
176
     1
 66
     7
176
     1
 43
1.0
176
     1
 76
     1
176
     1
 77
     6
176
     1
 78
     2
176
     1
 67
     7
176
     1
 79
     5
176
     1
170
     0
176
     1
171
     0
176
     1
290
     0
176
     1
 93
        1
176
     1
 44
-50.0
176
     1
173
     0
176
     1
  0
VISUALSTYLE
  5
39
102
{ACAD_REACTORS
330
2A
102
}
330
2A
100
AcDbVisualStyle
  2
Facepattern
 70
    15
177
     2
291
     1
 71
     2
176
     1
 72
     2
176
     1
 73
     0
176
     1
 90
        0
176
     1
 40
-0.6
176
     1
 41
-30.0
176
     1
 62
     5
 63
     7
421
 16777215
176
     1
 74
     1
176
     1
 91
        4
176
     1
 64
     7
176
     1
 65
   257
176
     1
 75
     1
176
     1
175
     1
176
     1
 42
1.0
176
     1
 92
        8
176
     1
 66
     7
176
     1
 43
1.0
176
     1
 76
     1
176
     1
 77
     6
176
     1
 78
     2
176
     1
 67
     7
176
     1
 79
     5
176
     1
170
     0
176
     1
171
     0
176
     1
290
     0
176
     1
 93
        1
176
     1
 44
0.0
176
     1
173
     0
176
     1
  0
VISUALSTYLE
  5
2B
102
{ACAD_REACTORS
330
2A
102
}
330
2A
100
AcDbVisualStyle
  2
Flat
 70
     0
177
     2
291
     1
 71
     2
176
     1
 72
     1
176
     1
 73
     1
176
     1
 90
        2
176
     1
 40
-0.6
176
     1
 41
30.0
176
     1
 62
     5
 63
     7
421
 16777215
176
     1
 74
     0
176
     1
 91
        4
176
     1
 64
     7
176
     1
 65
   257
176
     1
 75
     1
176
     1
175
     1
176
     1
 42
1.0
176
     1
 92
        8
176
     1
 66
     7
176
     1
 43
1.0
176
     1
 76
     1
176
     1
 77
     6
176
     1
 78
     2
176
     1
 67
     7
176
     1
 79
     5
176
     1
170
     0
176
     1
171
     0
176
     1
290
     0
176
     1
 93
       13
176
     1
 44
0.0
176
     1
173
     0
176
     1
  0
VISUALSTYLE
  5
2C
102
{ACAD_REACTORS
330
2A
102
}
330
2A
100
AcDbVisualStyle
  2
FlatWithEdges
 70
     1
177
     2
291
     1
 71
     2
176
     1
 72
     1
176
     1
 73
     1
176
     1
 90
        2
176
     1
 40
-0.6
176
     1
 41
30.0
176
     1
 62
     5
 63
     7
421
 16777215
176
     1
 74
     1
176
     1
 91
        4
176
     1
 64
     7
176
     1
 65
   257
176
     1
 75
     1
176
     1
175
     1
176
     1
 42
1.0
176
     1
 92
        0
176
     1
 66
   257
176
     1
 43
1.0
176
     1
 76
     1
176
     1
 77
     6
176
     1
 78
     2
176
     1
 67
     7
176
     1
 79
     5
176
     1
170
     0
176
     1
171
     0
176
     1
290
     0
176
     1
 93
       13
176
     1
 44
0.0
176
     1
173
     0
176
     1
  0
VISUALSTYLE
  5
2D
102
{ACAD_REACTORS
330
2A
102
}
330
2A
100
AcDbVisualStyle
  2
Gouraud
 70
     2
177
     2
291
     1
 71
     2
176
     1
 72
     2
176
     1
 73
     1
176
     1
 90
        2
176
     1
 40
-0.6
176
     1
 41
30.0
176
     1
 62
     5
 63
     7
421
 16777215
176
     1
 74
     0
176
     1
 91
        4
176
     1
 64
     7
176
     1
 65
   257
176
     1
 75
     1
176
     1
175
     1
176
     1
 42
1.0
176
     1
 92
        0
176
     1
 66
     7
176
     1
 43
1.0
176
     1
 76
     1
176
     1
 77
     6
176
     1
 78
     2
176
     1
 67
     7
176
     1
 79
     5
176
     1
170
     0
176
     1
171
     0
176
     1
290
     0
176
     1
 93
       13
176
     1
 44
0.0
176
     1
173
     0
176
     1
  0
VISUALSTYLE
  5
2E
102
{ACAD_REACTORS
330
2A
102
}
330
2A
100
AcDbVisualStyle
  2
GouraudWithEdges
 70
     3
177
     2
291
     1
 71
     2
176
     1
 72
     2
176
     1
 73
     1
176
     1
 90
        2
176
     1
 40
-0.6
176
     1
 41
30.0
176
     1
 62
     5
 63
     7
421
 16777215
176
     1
 74
     1
176
     1
 91
        4
176
     1
 64
     7
176
     1
 65
   257
176
     1
 75
     1
176
     1
175
     1
176
     1
 42
1.0
176
     1
 92
        0
176
     1
 66
   257
176
     1
 43
1.0
176
     1
 76
     1
176
     1
 77
     6
176
     1
 78
     2
176
     1
 67
     7
176
     1
 79
     5
176
     1
170
     0
176
     1
171
     0
176
     1
290
     0
176
     1
 93
       13
176
     1
 44
0.0
176
     1
173
     0
176
     1
  0
VISUALSTYLE
  5
38
102
{ACAD_REACTORS
330
2A
102
}
330
2A
100
AcDbVisualStyle
  2
Linepattern
 70
    14
177
     2
291
     1
 71
     2
176
     1
 72
     2
176
     1
 73
     0
176
     1
 90
        0
176
     1
 40
-0.6
176
     1
 41
-30.0
176
     1
 62
     5
 63
     7
421
 16777215
176
     1
 74
     1
176
     1
 91
        4
176
     1
 64
     7
176
     1
 65
   257
176
     1
 75
     7
176
     1
175
     7
176
     1
 42
1.0
176
     1
 92
        8
176
     1
 66
     7
176
     1
 43
1.0
176
     1
 76
     1
176
     1
 77
     6
176
     1
 78
     2
176
     1
 67
     7
176
     1
 79
     5
176
     1
170
     0
176
     1
171
     0
176
     1
290
     0
176
     1
 93
        1
176
     1
 44
0.0
176
     1
173
     0
176
     1
  0
VISUALSTYLE
  5
33
102
{ACAD_REACTORS
330
2A
102
}
330
2A
100
AcDbVisualStyle
  2
Realistic
 70
     8
177
     2
291
     0
 71
     2
176
     1
 72
     2
176
     1
 73
     0
176
     1
 90
        0
176
     1
 40
-0.6
176
     1
 41
-30.0
176
     1
 62
     5
 63
     7
421
 16777215
176
     1
 74
     1
176
     1
 91
        0
176
     1
 64
     7
176
     1
 65
   257
176
     1
 75
     1
176
     1
175
     1
176
     1
 42
1.0
176
     1
 92
        8
176
     1
 66
     8
424
  7895160
176
     1
 43
1.0
176
     1
 76
     1
176
     1
 77
     6
176
     1
 78
     2
176
     1
 67
     7
176
     1
 79
     5
176
     1
170
     0
176
     1
171
     0
176
     1
290
     0
176
     1
 93
       13
176
     1
 44
0.0
176
     1
173
     0
176
     1
  0
VISUALSTYLE
  5
37
102
{ACAD_REACTORS
330
2A
102
}
330
2A
100
AcDbVisualStyle
  2
Thicken
 70
    13
177
     2
291
     1
 71
     2
176
     1
 72
     2
176
     1
 73
     0
176
     1
 90
        0
176
     1
 40
-0.6
176
     1
 41
-30.0
176
     1
 62
     5
 63
     7
421
 16777215
176
     1
 74
     1
176
     1
 91
        4
176
     1
 64
     7
176
     1
 65
   257
176
     1
 75
     1
176
     1
175
     1
176
     1
 42
1.0
176
     1
 92
       12
176
     1
 66
     7
176
     1
 43
1.0
176
     1
 76
     1
176
     1
 77
     6
176
     1
 78
     2
176
     1
 67
     7
176
     1
 79
     5
176
     1
170
     0
176
     1
171
     0
176
     1
290
     0
176
     1
 93
        1
176
     1
 44
0.0
176
     1
173
     0
176
     1
  0
ENDSEC
  0
EOF
