  0
SECTION
  2
HEADER
  9
$ACADVER
  1
AC1024
  9
$ACADMAINTVER
 70
     6
  9
$DWGCODEPAGE
  3
UNDEFINED
  9
$INSBASE
 10
0.0
 20
0.0
 30
0.0
  9
$EXTMIN
 10
1.000000000000000E+20
 20
1.000000000000000E+20
 30
1.000000000000000E+20
  9
$EXTMAX
 10
-1.000000000000000E+20
 20
-1.000000000000000E+20
 30
-1.000000000000000E+20
  9
$LIMMIN
 10
0.0
 20
0.0
  9
$LIMMAX
 10
12.0
 20
9.0
  9
$ORTHOMODE
 70
     0
  9
$REGENMODE
 70
     1
  9
$FILLMODE
 70
     1
  9
$QTEXTMODE
 70
     0
  9
$MIRRTEXT
 70
     1
  9
$LTSCALE
 40
1.0
  9
$ATTMODE
 70
     1
  9
$TEXTSIZE
 40
0.2
  9
$TRACEWID
 40
0.05
  9
$TEXTSTYLE
  7
Standard
  9
$CLAYER
  8
0
  9
$CELTYPE
  6
ByLayer
  9
$CECOLOR
 62
   256
  9
$CELTSCALE
 40
1.0
  9
$DISPSILH
 70
     0
  9
$DIMSCALE
 40
1.0
  9
$DIMASZ
 40
0.18
  9
$DIMEXO
 40
0.0625
  9
$DIMDLI
 40
0.38
  9
$DIMRND
 40
0.0
  9
$DIMDLE
 40
0.0
  9
$DIMEXE
 40
0.18
  9
$DIMTP
 40
0.0
  9
$DIMTM
 40
0.0
  9
$DIMTXT
 40
0.18
  9
$DIMCEN
 40
0.09
  9
$DIMTSZ
 40
0.0
  9
$DIMTOL
 70
     0
  9
$DIMLIM
 70
     0
  9
$DIMTIH
 70
     1
  9
$DIMTOH
 70
     1
  9
$DIMSE1
 70
     0
  9
$DIMSE2
 70
     0
  9
$DIMTAD
 70
     0
  9
$DIMZIN
 70
     0
  9
$DIMBLK
  1

  9
$DIMASO
 70
     1
  9
$DIMSHO
 70
     1
  9
$DIMPOST
  1

  9
$DIMAPOST
  1

  9
$DIMALT
 70
     0
  9
$DIMALTD
 70
     2
  9
$DIMALTF
 40
25.4
  9
$DIMLFAC
 40
1.0
  9
$DIMTOFL
 70
     0
  9
$DIMTVP
 40
0.0
  9
$DIMTIX
 70
     0
  9
$DIMSOXD
 70
     0
  9
$DIMSAH
 70
     0
  9
$DIMBLK1
  1

  9
$DIMBLK2
  1

  9
$DIMSTYLE
  2
Standard
  9
$DIMCLRD
 70
     0
  9
$DIMCLRE
 70
     0
  9
$DIMCLRT
 70
     0
  9
$DIMTFAC
 40
1.0
  9
$DIMGAP
 40
0.09
  9
$DIMJUST
 70
     0
  9
$DIMSD1
 70
     0
  9
$DIMSD2
 70
     0
  9
$DIMTOLJ
 70
     1
  9
$DIMTZIN
 70
     0
  9
$DIMALTZ
 70
     0
  9
$DIMALTTZ
 70
     0
  9
$DIMUPT
 70
     0
  9
$DIMDEC
 70
     4
  9
$DIMTDEC
 70
     4
  9
$DIMALTU
 70
     2
  9
$DIMALTTD
 70
     2
  9
$DIMTXSTY
  7
Standard
  9
$DIMAUNIT
 70
     0
  9
$DIMADEC
 70
     0
  9
$DIMALTRND
 40
0.0
  9
$DIMAZIN
 70
     0
  9
$DIMDSEP
 70
    46
  9
$DIMATFIT
 70
     3
  9
$DIMFRAC
 70
     0
  9
$DIMLDRBLK
  1

  9
$DIMLUNIT
 70
     2
  9
$DIMLWD
 70
    -2
  9
$DIMLWE
 70
    -2
  9
$DIMTMOVE
 70
     0
  9
$DIMFXL
 40
1.0
  9
$DIMFXLON
 70
     0
  9
$DIMJOGANG
 40
0.7853981633974483
  9
$DIMTFILL
 70
     0
  9
$DIMTFILLCLR
 70
     0
  9
$DIMARCSYM
 70
     0
  9
$DIMLTYPE
  6

  9
$DIMLTEX1
  6

  9
$DIMLTEX2
  6

  9
$DIMTXTDIRECTION
 70
     0
  9
$LUNITS
 70
     2
  9
$LUPREC
 70
     4
  9
$SKETCHINC
 40
0.1
  9
$FILLETRAD
 40
0.5
  9
$AUNITS
 70
     0
  9
$AUPREC
 70
     0
  9
$MENU
  1
.
  9
$ELEVATION
 40
0.0
  9
$PELEVATION
 40
0.0
  9
$THICKNESS
 40
0.0
  9
$LIMCHECK
 70
     0
  9
$CHAMFERA
 40
0.5
  9
$CHAMFERB
 40
0.5
  9
$CHAMFERC
 40
1.0
  9
$CHAMFERD
 40
0.0
  9
$SKPOLY
 70
     0
  9
$TDCREATE
 40
2457917.609675926
  9
$TDUCREATE
 40
2457917.234675926
  9
$TDUPDATE
 40
2457917.609675926
  9
$TDUUPDATE
 40
2457917.234675926
  9
$TDINDWG
 40
0.0000000116
  9
$TDUSRTIMER
 40
0.0000000116
  9
$USRTIMER
 70
     1
  9
$ANGBASE
 50
0.0
  9
$ANGDIR
 70
     0
  9
$PDMODE
 70
     0
  9
$PDSIZE
 40
0.0
  9
$PLINEWID
 40
0.0
  9
$SPLFRAME
 70
     0
  9
$SPLINETYPE
 70
     6
  9
$SPLINESEGS
 70
     8
  9
$HANDSEED
  5
120
  9
$SURFTAB1
 70
     6
  9
$SURFTAB2
 70
     6
  9
$SURFTYPE
 70
     6
  9
$SURFU
 70
     6
  9
$SURFV
 70
     6
  9
$UCSBASE
  2

  9
$UCSNAME
  2

  9
$UCSORG
 10
0.0
 20
0.0
 30
0.0
  9
$UCSXDIR
 10
1.0
 20
0.0
 30
0.0
  9
$UCSYDIR
 10
0.0
 20
1.0
 30
0.0
  9
$UCSORTHOREF
  2

  9
$UCSORTHOVIEW
 70
     0
  9
$UCSORGTOP
 10
0.0
 20
0.0
 30
0.0
  9
$UCSORGBOTTOM
 10
0.0
 20
0.0
 30
0.0
  9
$UCSORGLEFT
 10
0.0
 20
0.0
 30
0.0
  9
$UCSORGRIGHT
 10
0.0
 20
0.0
 30
0.0
  9
$UCSORGFRONT
 10
0.0
 20
0.0
 30
0.0
  9
$UCSORGBACK
 10
0.0
 20
0.0
 30
0.0
  9
$PUCSBASE
  2

  9
$PUCSNAME
  2

  9
$PUCSORG
 10
0.0
 20
0.0
 30
0.0
  9
$PUCSXDIR
 10
1.0
 20
0.0
 30
0.0
  9
$PUCSYDIR
 10
0.0
 20
1.0
 30
0.0
  9
$PUCSORTHOREF
  2

  9
$PUCSORTHOVIEW
 70
     0
  9
$PUCSORGTOP
 10
0.0
 20
0.0
 30
0.0
  9
$PUCSORGBOTTOM
 10
0.0
 20
0.0
 30
0.0
  9
$PUCSORGLEFT
 10
0.0
 20
0.0
 30
0.0
  9
$PUCSORGRIGHT
 10
0.0
 20
0.0
 30
0.0
  9
$PUCSORGFRONT
 10
0.0
 20
0.0
 30
0.0
  9
$PUCSORGBACK
 10
0.0
 20
0.0
 30
0.0
  9
$USERI1
 70
     0
  9
$USERI2
 70
     0
  9
$USERI3
 70
     0
  9
$USERI4
 70
     0
  9
$USERI5
 70
     0
  9
$USERR1
 40
0.0
  9
$USERR2
 40
0.0
  9
$USERR3
 40
0.0
  9
$USERR4
 40
0.0
  9
$USERR5
 40
0.0
  9
$WORLDVIEW
 70
     1
  9
$SHADEDGE
 70
     3
  9
$SHADEDIF
 70
    70
  9
$TILEMODE
 70
     1
  9
$MAXACTVP
 70
    64
  9
$PINSBASE
 10
0.0
 20
0.0
 30
0.0
  9
$PLIMCHECK
 70
     0
  9
$PEXTMIN
 10
1.000000000000000E+20
 20
1.000000000000000E+20
 30
1.000000000000000E+20
  9
$PEXTMAX
 10
-1.000000000000000E+20
 20
-1.000000000000000E+20
 30
-1.000000000000000E+20
  9
$PLIMMIN
 10
0.0
 20
0.0
  9
$PLIMMAX
 10
12.0
 20
9.0
  9
$UNITMODE
 70
     0
  9
$VISRETAIN
 70
     1
  9
$PLINEGEN
 70
     0
  9
$PSLTSCALE
 70
     1
  9
$TREEDEPTH
 70
  3020
  9
$CMLSTYLE
  2
Standard
  9
$CMLJUST
 70
     0
  9
$CMLSCALE
 40
1.0
  9
$PROXYGRAPHICS
 70
     1
  9
$MEASUREMENT
 70
     0
  9
$CELWEIGHT
370
    -1
  9
$ENDCAPS
280
     0
  9
$JOINSTYLE
280
     0
  9
$LWDISPLAY
290
     1
  9
$INSUNITS
 70
     1
  9
$HYPERLINKBASE
  1

  9
$STYLESHEET
  1

  9
$XEDIT
290
     1
  9
$CEPSNTYPE
380
     0
  9
$PSTYLEMODE
290
     1
  9
$FINGERPRINTGUID
  2
{A1D4CD16-2BAE-A21C-8EC6-A4D8012A1C1A}
  9
$VERSIONGUID
  2
{FAEB1C32-E019-11D5-929B-00C0DF256EC4}
  9
$EXTNAMES
290
     1
  9
$PSVPSCALE
 40
0.0
  9
$OLESTARTUP
290
     0
  9
$SORTENTS
280
   127
  9
$INDEXCTL
280
     0
  9
$HIDETEXT
280
     1
  9
$XCLIPFRAME
280
     2
  9
$HALOGAP
280
     0
  9
$OBSCOLOR
 70
   257
  9
$OBSLTYPE
280
     0
  9
$INTERSECTIONDISPLAY
280
     0
  9
$INTERSECTIONCOLOR
 70
   257
  9
$DIMASSOC
280
     2
  9
$PROJECTNAME
  1

  9
$CAMERADISPLAY
290
     0
  9
$LENSLENGTH
 40
50.0
  9
$CAMERAHEIGHT
 40
0.0
  9
$STEPSPERSEC
 40
2.0
  9
$STEPSIZE
 40
6.0
  9
$3DDWFPREC
 40
2.0
  9
$PSOLWIDTH
 40
0.25
  9
$PSOLHEIGHT
 40
4.0
  9
$LOFTANG1
 40
1.570796326794897
  9
$LOFTANG2
 40
1.570796326794897
  9
$LOFTMAG1
 40
0.0
  9
$LOFTMAG2
 40
0.0
  9
$LOFTPARAM
 70
     7
  9
$LOFTNORMALS
280
     1
  9
$LATITUDE
 40
37.795
  9
$LONGITUDE
 40
-122.394
  9
$NORTHDIRECTION
 40
0.0
  9
$TIMEZONE
 70
 -8000
  9
$LIGHTGLYPHDISPLAY
280
     1
  9
$TILEMODELIGHTSYNCH
280
     1
  9
$CMATERIAL
347
3C
  9
$SOLIDHIST
280
     1
  9
$SHOWHIST
280
     1
  9
$DWFFRAME
280
     2
  9
$DGNFRAME
280
     2
  9
$REALWORLDSCALE
290
     1
  9
$INTERFERECOLOR
 62
   256
  9
$CSHADOW
280
     0
  9
$SHADOWPLANELOCATION
 40
0.0
  0
ENDSEC
  0
SECTION
  2
CLASSES
  0
CLASS
  1
ACDBDICTIONARYWDFLT
  2
AcDbDictionaryWithDefault
  3
ObjectDBX Classes
 90
        0
 91
        4
280
     0
281
     0
  0
CLASS
  1
VISUALSTYLE
  2
AcDbVisualStyle
  3
ObjectDBX Classes
 90
     4095
 91
        4
280
     0
281
     0
  0
CLASS
  1
MATERIAL
  2
AcDbMaterial
  3
ObjectDBX Classes
 90
     1153
 91
        4
280
     0
281
     0
  0
CLASS
  1
SUN
  2
AcDbSun
  3
SCENEOE
 90
     1024
 91
        4
280
     0
281
     0
  0
ENDSEC
  0
SECTION
  2
TABLES
  0
TABLE
  2
VPORT
  5
8
330
0
100
AcDbSymbolTable
 70
     1
  0
VPORT
  5
29
330
8
100
AcDbSymbolTableRecord
100
AcDbViewportTableRecord
  2
*Active
 70
     0
 10
0.0
 20
0.0
 11
1.0
 21
1.0
 12
0.0
 22
0.0
 13
0.0
 23
0.0
 14
0.5
 24
0.5
 15
0.5
 25
0.5
 16
0.0
 26
0.0
 36
1.0
 17
91.00082462281999
 27
-128.4993055234307
 37
0.0
 40
256.9986110468615
 41
0.7081814508812795
 42
50.0
 43
0.0
 44
0.0
 50
0.0
 51
0.0
 71
     0
 72
   100
 73
     1
 74
     3
 75
     0
 76
     0
 77
     0
 78
     0
281
     0
 65
     1
110
0.0
120
0.0
130
0.0
111
1.0
121
0.0
131
0.0
112
0.0
122
1.0
132
0.0
 79
     0
146
0.0
 60
     3
 61
     5
292
     1
282
     1
141
0.0
142
0.0
 63
   250
361
3F
  0
ENDTAB
  0
TABLE
  2
LTYPE
  5
5
330
0
100
AcDbSymbolTable
 70
     1
  0
LTYPE
  5
14
330
5
100
AcDbSymbolTableRecord
100
AcDbLinetypeTableRecord
  2
ByBlock
 70
     0
  3

 72
    65
 73
     0
 40
0.0
  0
LTYPE
  5
15
330
5
100
AcDbSymbolTableRecord
100
AcDbLinetypeTableRecord
  2
ByLayer
 70
     0
  3

 72
    65
 73
     0
 40
0.0
  0
LTYPE
  5
16
330
5
100
AcDbSymbolTableRecord
100
AcDbLinetypeTableRecord
  2
Continuous
 70
     0
  3
Solid line
 72
    65
 73
     0
 40
0.0
  0
ENDTAB
  0
TABLE
  2
LAYER
  5
2
330
0
100
AcDbSymbolTable
 70
     2
  0
LAYER
  5
10
330
2
100
AcDbSymbolTableRecord
100
AcDbLayerTableRecord
  2
0
 70
     0
 62
     7
  6
Continuous
370
    -3
390
F
347
3E
  0
LAYER
  5
40
330
2
100
AcDbSymbolTableRecord
100
AcDbLayerTableRecord
  2
_U+30EC_U+30A4_U+30E4_U+30FC 1
 70
     0
 62
     7
  6
Continuous
370
    -3
390
F
347
3E
  0
ENDTAB
  0
TABLE
  2
STYLE
  5
3
330
0
100
AcDbSymbolTable
 70
     1
  0
STYLE
  5
11
330
3
100
AcDbSymbolTableRecord
100
AcDbTextStyleTableRecord
  2
Standard
 70
     0
 40
0.0
 41
1.0
 50
0.0
 71
     0
 42
0.2
  3
txt
  4

  0
ENDTAB
  0
TABLE
  2
VIEW
  5
6
330
0
100
AcDbSymbolTable
 70
     0
  0
ENDTAB
  0
TABLE
  2
UCS
  5
7
330
0
100
AcDbSymbolTable
 70
     0
  0
ENDTAB
  0
TABLE
  2
APPID
  5
9
330
0
100
AcDbSymbolTable
 70
     1
  0
APPID
  5
12
330
9
100
AcDbSymbolTableRecord
100
AcDbRegAppTableRecord
  2
ACAD
 70
     0
  0
ENDTAB
  0
TABLE
  2
DIMSTYLE
  5
A
330
0
100
AcDbSymbolTable
 70
     1
100
AcDbDimStyleTable
  0
DIMSTYLE
105
27
330
A
100
AcDbSymbolTableRecord
100
AcDbDimStyleTableRecord
  2
Standard
 70
     0
178
     0
340
11
  0
ENDTAB
  0
TABLE
  2
BLOCK_RECORD
  5
1
330
0
100
AcDbSymbolTable
 70
     7
  0
BLOCK_RECORD
  5
1F
330
1
100
AcDbSymbolTableRecord
100
AcDbBlockTableRecord
  2
*Model_Space
340
22
 70
     0
280
     1
281
     0
  0
BLOCK_RECORD
  5
1B
330
1
100
AcDbSymbolTableRecord
100
AcDbBlockTableRecord
  2
*Paper_Space
340
1E
 70
     0
280
     1
281
     0
  0
BLOCK_RECORD
  5
23
330
1
100
AcDbSymbolTableRecord
100
AcDbBlockTableRecord
  2
*Paper_Space0
340
26
 70
     0
280
     1
281
     0
  0
BLOCK_RECORD
  5
4F
330
1
100
AcDbSymbolTableRecord
100
AcDbBlockTableRecord
  2
block 2
340
0
102
{BLKREFS
331
50
102
}
 70
     0
280
     1
281
     0
  0
BLOCK_RECORD
  5
A2
330
1
100
AcDbSymbolTableRecord
100
AcDbBlockTableRecord
  2
block 3
340
0
102
{BLKREFS
331
A3
102
}
 70
     0
280
     1
281
     0
  0
BLOCK_RECORD
  5
BF
330
1
100
AcDbSymbolTableRecord
100
AcDbBlockTableRecord
  2
block 4
340
0
102
{BLKREFS
331
C0
102
}
 70
     0
280
     1
281
     0
  0
BLOCK_RECORD
  5
E6
330
1
100
AcDbSymbolTableRecord
100
AcDbBlockTableRecord
  2
block 5
340
0
102
{BLKREFS
331
E7
102
}
 70
     0
280
     1
281
     0
  0
BLOCK_RECORD
  5
F6
330
1
100
AcDbSymbolTableRecord
100
AcDbBlockTableRecord
  2
block 6
340
0
102
{BLKREFS
331
F7
102
}
 70
     0
280
     1
281
     0
  0
BLOCK_RECORD
  5
112
330
1
100
AcDbSymbolTableRecord
100
AcDbBlockTableRecord
  2
block 7
340
0
102
{BLKREFS
331
113
102
}
 70
     0
280
     1
281
     0
  0
ENDTAB
  0
ENDSEC
  0
SECTION
  2
BLOCKS
  0
BLOCK
  5
20
330
1F
100
AcDbEntity
  8
0
100
AcDbBlockBegin
  2
*Model_Space
 70
     0
 10
0.0
 20
0.0
 30
0.0
  3
*Model_Space
  1

  0
ENDBLK
  5
21
330
1F
100
AcDbEntity
  8
0
100
AcDbBlockEnd
  0
BLOCK
  5
1C
330
1B
100
AcDbEntity
 67
     1
  8
0
100
AcDbBlockBegin
  2
*Paper_Space
 70
     0
 10
0.0
 20
0.0
 30
0.0
  3
*Paper_Space
  1

  0
ENDBLK
  5
1D
330
1B
100
AcDbEntity
 67
     1
  8
0
100
AcDbBlockEnd
  0
BLOCK
  5
24
330
23
100
AcDbEntity
  8
0
100
AcDbBlockBegin
  2
*Paper_Space0
 70
     0
 10
0.0
 20
0.0
 30
0.0
  3
*Paper_Space0
  1

  0
ENDBLK
  5
25
330
23
100
AcDbEntity
  8
0
100
AcDbBlockEnd
  0
BLOCK
  5
51
330
4F
100
AcDbEntity
  8
0
100
AcDbBlockBegin
  2
block 2
 70
     0
 10
0.0
 20
0.0
 30
0.0
  3
block 2
  1

  0
SPLINE
  5
53
330
4F
100
AcDbEntity
  8
_U+30EC_U+30A4_U+30E4_U+30FC 1
370
     0
100
AcDbSpline
210
0.0
220
0.0
230
1.0
 70
    11
 71
     3
 72
    53
 73
    49
 74
     0
 42
0.0000000001
 43
0.0000000001
 12
1.0
 22
0.0
 32
0.0
 13
1.0
 23
0.0
 33
0.0
 40
0.0
 40
0.0
 40
0.0
 40
0.0
 40
1.0
 40
1.0
 40
1.0
 40
2.0
 40
2.0
 40
2.0
 40
3.0
 40
3.0
 40
3.0
 40
4.0
 40
4.0
 40
4.0
 40
5.0
 40
5.0
 40
5.0
 40
6.0
 40
6.0
 40
6.0
 40
7.0
 40
7.0
 40
7.0
 40
8.0
 40
8.0
 40
8.0
 40
9.0
 40
9.0
 40
9.0
 40
10.0
 40
10.0
 40
10.0
 40
11.0
 40
11.0
 40
11.0
 40
12.0
 40
12.0
 40
12.0
 40
13.0
 40
13.0
 40
13.0
 40
14.0
 40
14.0
 40
14.0
 40
15.0
 40
15.0
 40
15.0
 40
16.0
 40
16.0
 40
16.0
 40
16.0
 10
83.0174994367109
 20
-138.1789903083372
 30
0.0
 10
82.93912351442147
 20
-138.1789903083372
 30
0.0
 10
82.83766545238086
 20
-138.1621093404595
 30
0.0
 10
82.736035135566
 20
-138.0987195835309
 30
0.0
 10
82.56257457788367
 20
-137.9884765280029
 30
0.0
 10
82.54138724064939
 20
-137.8575628995634
 30
0.0
 10
82.5224392154805
 20
-137.7493869013265
 30
0.0
 10
82.5224392154805
 20
-137.7493869013265
 30
0.0
 10
82.74447561950485
 20
-137.7493869013265
 30
0.0
 10
82.74447561950485
 20
-137.7493869013265
 30
0.0
 10
82.79959714726886
 20
-137.948513420374
 30
0.0
 10
82.92637666112604
 20
-137.9781412415471
 30
0.0
 10
83.01956649400206
 20
-137.9781412415471
 30
0.0
 10
83.15909286115468
 20
-137.9781412415471
 30
0.0
 10
83.31153833637698
 20
-137.8785779820234
 30
0.0
 10
83.31153833637698
 20
-137.6460340367691
 30
0.0
 10
83.31153833637698
 20
-137.390063442215
 30
0.0
 10
83.13170435204694
 20
-137.3201280038644
 30
0.0
 10
83.0111260100632
 20
-137.3201280038644
 30
0.0
 10
82.9794311315989
 20
-137.3201280038644
 30
0.0
 10
82.83766545238086
 20
-137.3201280038644
 30
0.0
 10
82.74878198886142
 20
-137.4489745750128
 30
0.0
 10
82.74878198886142
 20
-137.4489745750128
 30
0.0
 10
82.57325437388793
 20
-137.4300265498439
 30
0.0
 10
82.57325437388793
 20
-137.4300265498439
 30
0.0
 10
82.57325437388793
 20
-137.4300265498439
 30
0.0
 10
82.69383271587168
 20
-136.5839110986665
 30
0.0
 10
82.69383271587168
 20
-136.5839110986665
 30
0.0
 10
82.69383271587168
 20
-136.5839110986665
 30
0.0
 10
83.47225204076389
 20
-136.5839110986665
 30
0.0
 10
83.47225204076389
 20
-136.5839110986665
 30
0.0
 10
83.47225204076389
 20
-136.5839110986665
 30
0.0
 10
83.47225204076389
 20
-136.7785589935831
 30
0.0
 10
83.47225204076389
 20
-136.7785589935831
 30
0.0
 10
83.47225204076389
 20
-136.7785589935831
 30
0.0
 10
82.85661347754974
 20
-136.7785589935831
 30
0.0
 10
82.85661347754974
 20
-136.7785589935831
 30
0.0
 10
82.85661347754974
 20
-136.7785589935831
 30
0.0
 10
82.79098440855573
 20
-137.2016167191718
 30
0.0
 10
82.79098440855573
 20
-137.2016167191718
 30
0.0
 10
82.85247936296744
 20
-137.1678547834164
 30
0.0
 10
82.93498939983917
 20
-137.1275471662389
 30
0.0
 10
83.0533284297575
 20
-137.1275471662389
 30
0.0
 10
83.30723196702041
 20
-137.1275471662389
 30
0.0
 10
83.5442545364056
 20
-137.3135823224424
 30
0.0
 10
83.5442545364056
 20
-137.6267415020517
 30
0.0
 10
83.5442545364056
 20
-137.9440347962432
 30
0.0
 10
83.31997882031584
 20
-138.1789903083372
 30
0.0
 10
83.0174994367109
 20
-138.1789903083372
 30
0.0
  0
HATCH
  5
54
330
4F
100
AcDbEntity
  8
_U+30EC_U+30A4_U+30E4_U+30FC 1
 62
   179
420
  2234388
100
AcDbHatch
 10
0.0
 20
0.0
 30
0.0
210
0.0
220
0.0
230
1.0
  2
SOLID
 70
     1
 71
     0
 91
        1
 92
        1
 93
        1
 72
     4
 94
        3
 73
     0
 74
     1
 95
       53
 96
       49
 40
0.0
 40
0.0
 40
0.0
 40
0.0
 40
1.0
 40
1.0
 40
1.0
 40
2.0
 40
2.0
 40
2.0
 40
3.0
 40
3.0
 40
3.0
 40
4.0
 40
4.0
 40
4.0
 40
5.0
 40
5.0
 40
5.0
 40
6.0
 40
6.0
 40
6.0
 40
7.0
 40
7.0
 40
7.0
 40
8.0
 40
8.0
 40
8.0
 40
9.0
 40
9.0
 40
9.0
 40
10.0
 40
10.0
 40
10.0
 40
11.0
 40
11.0
 40
11.0
 40
12.0
 40
12.0
 40
12.0
 40
13.0
 40
13.0
 40
13.0
 40
14.0
 40
14.0
 40
14.0
 40
15.0
 40
15.0
 40
15.0
 40
16.0
 40
16.0
 40
16.0
 40
16.0
 10
83.0174994367109
 20
-138.1789903083372
 10
82.93912351442147
 20
-138.1789903083372
 10
82.83766545238086
 20
-138.1621093404595
 10
82.736035135566
 20
-138.0987195835309
 10
82.56257457788367
 20
-137.9884765280029
 10
82.54138724064939
 20
-137.8575628995634
 10
82.5224392154805
 20
-137.7493869013265
 10
82.5224392154805
 20
-137.7493869013265
 10
82.74447561950485
 20
-137.7493869013265
 10
82.74447561950485
 20
-137.7493869013265
 10
82.79959714726886
 20
-137.948513420374
 10
82.92637666112604
 20
-137.9781412415471
 10
83.01956649400206
 20
-137.9781412415471
 10
83.15909286115468
 20
-137.9781412415471
 10
83.31153833637698
 20
-137.8785779820234
 10
83.31153833637698
 20
-137.6460340367691
 10
83.31153833637698
 20
-137.390063442215
 10
83.13170435204694
 20
-137.3201280038644
 10
83.0111260100632
 20
-137.3201280038644
 10
82.9794311315989
 20
-137.3201280038644
 10
82.83766545238086
 20
-137.3201280038644
 10
82.74878198886142
 20
-137.4489745750128
 10
82.74878198886142
 20
-137.4489745750128
 10
82.57325437388793
 20
-137.4300265498439
 10
82.57325437388793
 20
-137.4300265498439
 10
82.57325437388793
 20
-137.4300265498439
 10
82.69383271587168
 20
-136.5839110986665
 10
82.69383271587168
 20
-136.5839110986665
 10
82.69383271587168
 20
-136.5839110986665
 10
83.47225204076389
 20
-136.5839110986665
 10
83.47225204076389
 20
-136.5839110986665
 10
83.47225204076389
 20
-136.5839110986665
 10
83.47225204076389
 20
-136.7785589935831
 10
83.47225204076389
 20
-136.7785589935831
 10
83.47225204076389
 20
-136.7785589935831
 10
82.85661347754974
 20
-136.7785589935831
 10
82.85661347754974
 20
-136.7785589935831
 10
82.85661347754974
 20
-136.7785589935831
 10
82.79098440855573
 20
-137.2016167191718
 10
82.79098440855573
 20
-137.2016167191718
 10
82.85247936296744
 20
-137.1678547834164
 10
82.93498939983917
 20
-137.1275471662389
 10
83.0533284297575
 20
-137.1275471662389
 10
83.30723196702041
 20
-137.1275471662389
 10
83.5442545364056
 20
-137.3135823224424
 10
83.5442545364056
 20
-137.6267415020517
 10
83.5442545364056
 20
-137.9440347962432
 10
83.31997882031584
 20
-138.1789903083372
 10
83.0174994367109
 20
-138.1789903083372
 97
        0
 97
        0
 75
     2
 76
     1
 98
        0
  0
ENDBLK
  5
52
330
4F
100
AcDbEntity
  8
0
100
AcDbBlockEnd
  0
BLOCK
  5
A4
330
A2
100
AcDbEntity
  8
0
100
AcDbBlockBegin
  2
block 3
 70
     0
 10
0.0
 20
0.0
 30
0.0
  3
block 3
  1

  0
SPLINE
  5
A6
330
A2
100
AcDbEntity
  8
_U+30EC_U+30A4_U+30E4_U+30FC 1
370
     0
100
AcDbSpline
210
0.0
220
0.0
230
1.0
 70
    11
 71
     3
 72
    26
 73
    22
 74
     0
 42
0.0000000001
 43
0.0000000001
 12
1.0
 22
0.0
 32
0.0
 13
1.0
 23
0.0
 33
0.0
 40
0.0
 40
0.0
 40
0.0
 40
0.0
 40
1.0
 40
1.0
 40
1.0
 40
2.0
 40
2.0
 40
2.0
 40
3.0
 40
3.0
 40
3.0
 40
4.0
 40
4.0
 40
4.0
 40
5.0
 40
5.0
 40
5.0
 40
6.0
 40
6.0
 40
6.0
 40
7.0
 40
7.0
 40
7.0
 40
7.0
 10
84.92005341844013
 20
-120.1282402585964
 30
0.0
 10
84.92005341844013
 20
-120.1282402585964
 30
0.0
 10
84.92005341844013
 20
-119.0239149007996
 30
0.0
 10
84.92005341844013
 20
-119.0239149007996
 30
0.0
 10
84.92005341844013
 20
-119.0239149007996
 30
0.0
 10
84.5900132709532
 20
-119.0239149007996
 30
0.0
 10
84.5900132709532
 20
-119.0239149007996
 30
0.0
 10
84.5900132709532
 20
-119.0239149007996
 30
0.0
 10
84.5900132709532
 20
-118.8759480497081
 30
0.0
 10
84.5900132709532
 20
-118.8759480497081
 30
0.0
 10
84.92212047573128
 20
-118.8611341391215
 30
0.0
 10
84.96862926478215
 20
-118.6981811226692
 30
0.0
 10
84.9982570859553
 20
-118.5839762073332
 30
0.0
 10
84.9982570859553
 20
-118.5839762073332
 30
0.0
 10
85.14415687975563
 20
-118.5839762073332
 30
0.0
 10
85.14415687975563
 20
-118.5839762073332
 30
0.0
 10
85.14415687975563
 20
-118.5839762073332
 30
0.0
 10
85.14415687975563
 20
-120.1282402585964
 30
0.0
 10
85.14415687975563
 20
-120.1282402585964
 30
0.0
 10
85.14415687975563
 20
-120.1282402585964
 30
0.0
 10
84.92005341844013
 20
-120.1282402585964
 30
0.0
 10
84.92005341844013
 20
-120.1282402585964
 30
0.0
  0
HATCH
  5
A7
330
A2
100
AcDbEntity
  8
_U+30EC_U+30A4_U+30E4_U+30FC 1
 62
   179
420
  2234388
100
AcDbHatch
 10
0.0
 20
0.0
 30
0.0
210
0.0
220
0.0
230
1.0
  2
SOLID
 70
     1
 71
     0
 91
        1
 92
        1
 93
        1
 72
     4
 94
        3
 73
     0
 74
     1
 95
       26
 96
       22
 40
0.0
 40
0.0
 40
0.0
 40
0.0
 40
1.0
 40
1.0
 40
1.0
 40
2.0
 40
2.0
 40
2.0
 40
3.0
 40
3.0
 40
3.0
 40
4.0
 40
4.0
 40
4.0
 40
5.0
 40
5.0
 40
5.0
 40
6.0
 40
6.0
 40
6.0
 40
7.0
 40
7.0
 40
7.0
 40
7.0
 10
84.92005341844013
 20
-120.1282402585964
 10
84.92005341844013
 20
-120.1282402585964
 10
84.92005341844013
 20
-119.0239149007996
 10
84.92005341844013
 20
-119.0239149007996
 10
84.92005341844013
 20
-119.0239149007996
 10
84.5900132709532
 20
-119.0239149007996
 10
84.5900132709532
 20
-119.0239149007996
 10
84.5900132709532
 20
-119.0239149007996
 10
84.5900132709532
 20
-118.8759480497081
 10
84.5900132709532
 20
-118.8759480497081
 10
84.92212047573128
 20
-118.8611341391215
 10
84.96862926478215
 20
-118.6981811226692
 10
84.9982570859553
 20
-118.5839762073332
 10
84.9982570859553
 20
-118.5839762073332
 10
85.14415687975563
 20
-118.5839762073332
 10
85.14415687975563
 20
-118.5839762073332
 10
85.14415687975563
 20
-118.5839762073332
 10
85.14415687975563
 20
-120.1282402585964
 10
85.14415687975563
 20
-120.1282402585964
 10
85.14415687975563
 20
-120.1282402585964
 10
84.92005341844013
 20
-120.1282402585964
 10
84.92005341844013
 20
-120.1282402585964
 97
        0
 97
        0
 75
     2
 76
     1
 98
        0
  0
SPLINE
  5
A8
330
A2
100
AcDbEntity
  8
_U+30EC_U+30A4_U+30E4_U+30FC 1
370
     0
100
AcDbSpline
210
0.0
220
0.0
230
1.0
 70
    11
 71
     3
 72
    29
 73
    25
 74
     0
 42
0.0000000001
 43
0.0000000001
 12
1.0
 22
0.0
 32
0.0
 13
1.0
 23
0.0
 33
0.0
 40
0.0
 40
0.0
 40
0.0
 40
0.0
 40
1.0
 40
1.0
 40
1.0
 40
2.0
 40
2.0
 40
2.0
 40
3.0
 40
3.0
 40
3.0
 40
4.0
 40
4.0
 40
4.0
 40
5.0
 40
5.0
 40
5.0
 40
6.0
 40
6.0
 40
6.0
 40
7.0
 40
7.0
 40
7.0
 40
8.0
 40
8.0
 40
8.0
 40
8.0
 10
86.5432101563156
 20
-119.9506455863318
 30
0.0
 10
86.43537866762728
 20
-120.1599351370607
 30
0.0
 10
86.26191810994494
 20
-120.1790554170039
 30
0.0
 10
86.1454738825435
 20
-120.1790554170039
 30
0.0
 10
85.98476017815659
 20
-120.1790554170039
 30
0.0
 10
85.84299449893857
 20
-120.132546627953
 30
0.0
 10
85.7477376087714
 20
-119.9506455863318
 30
0.0
 10
85.64421248943964
 20
-119.7559976914152
 30
0.0
 10
85.62509220949651
 20
-119.51897512203
 30
0.0
 10
85.62509220949651
 20
-119.3561943603519
 30
0.0
 10
85.62509220949651
 20
-119.2121893690685
 30
0.0
 10
85.64197317737424
 20
-118.960525143871
 30
0.0
 10
85.7477376087714
 20
-118.7617431343721
 30
0.0
 10
85.85574135223399
 20
-118.5584825007423
 30
0.0
 10
86.01645505662088
 20
-118.5352281062169
 30
0.0
 10
86.1454738825435
 20
-118.5352281062169
 30
0.0
 10
86.30412052963925
 20
-118.5352281062169
 30
0.0
 10
86.44795326614843
 20
-118.5796698379766
 30
0.0
 10
86.5432101563156
 20
-118.7617431343721
 30
0.0
 10
86.64260116106504
 20
-118.9541517172233
 30
0.0
 10
86.66585555559048
 20
-119.1825615478953
 30
0.0
 10
86.66585555559048
 20
-119.3561943603519
 30
0.0
 10
86.66585555559048
 20
-119.5274156059688
 30
0.0
 10
86.64484047313046
 20
-119.7580647487063
 30
0.0
 10
86.5432101563156
 20
-119.9506455863318
 30
0.0
  0
SPLINE
  5
A9
330
A2
100
AcDbEntity
  8
_U+30EC_U+30A4_U+30E4_U+30FC 1
370
     0
100
AcDbSpline
210
0.0
220
0.0
230
1.0
 70
    11
 71
     3
 72
    17
 73
    13
 74
     0
 42
0.0000000001
 43
0.0000000001
 12
1.0
 22
0.0
 32
0.0
 13
1.0
 23
0.0
 33
0.0
 40
0.0
 40
0.0
 40
0.0
 40
0.0
 40
1.0
 40
1.0
 40
1.0
 40
2.0
 40
2.0
 40
2.0
 40
3.0
 40
3.0
 40
3.0
 40
4.0
 40
4.0
 40
4.0
 40
4.0
 10
86.1454738825435
 20
-118.7278089438424
 30
0.0
 10
85.89587671463714
 20
-118.7278089438424
 30
0.0
 10
85.84936792558628
 20
-119.0113403022784
 30
0.0
 10
85.84936792558628
 20
-119.3561943603519
 30
0.0
 10
85.84936792558628
 20
-119.6755547118346
 30
0.0
 10
85.88536917340713
 20
-119.9844075220872
 30
0.0
 10
86.1454738825435
 20
-119.9844075220872
 30
0.0
 10
86.3930039931587
 20
-119.9844075220872
 30
0.0
 10
86.44175209427499
 20
-119.7031154757166
 30
0.0
 10
86.44175209427499
 20
-119.3561943603519
 30
0.0
 10
86.44175209427499
 20
-119.036661754095
 30
0.0
 10
86.40368378916297
 20
-118.7278089438424
 30
0.0
 10
86.1454738825435
 20
-118.7278089438424
 30
0.0
  0
HATCH
  5
AA
330
A2
100
AcDbEntity
  8
_U+30EC_U+30A4_U+30E4_U+30FC 1
 62
   179
420
  2234388
100
AcDbHatch
 10
0.0
 20
0.0
 30
0.0
210
0.0
220
0.0
230
1.0
  2
SOLID
 70
     1
 71
     0
 91
        2
 92
        1
 93
        1
 72
     4
 94
        3
 73
     0
 74
     1
 95
       29
 96
       25
 40
0.0
 40
0.0
 40
0.0
 40
0.0
 40
1.0
 40
1.0
 40
1.0
 40
2.0
 40
2.0
 40
2.0
 40
3.0
 40
3.0
 40
3.0
 40
4.0
 40
4.0
 40
4.0
 40
5.0
 40
5.0
 40
5.0
 40
6.0
 40
6.0
 40
6.0
 40
7.0
 40
7.0
 40
7.0
 40
8.0
 40
8.0
 40
8.0
 40
8.0
 10
86.5432101563156
 20
-119.9506455863318
 10
86.43537866762728
 20
-120.1599351370607
 10
86.26191810994494
 20
-120.1790554170039
 10
86.1454738825435
 20
-120.1790554170039
 10
85.98476017815659
 20
-120.1790554170039
 10
85.84299449893857
 20
-120.132546627953
 10
85.7477376087714
 20
-119.9506455863318
 10
85.64421248943964
 20
-119.7559976914152
 10
85.62509220949651
 20
-119.51897512203
 10
85.62509220949651
 20
-119.3561943603519
 10
85.62509220949651
 20
-119.2121893690685
 10
85.64197317737424
 20
-118.960525143871
 10
85.7477376087714
 20
-118.7617431343721
 10
85.85574135223399
 20
-118.5584825007423
 10
86.01645505662088
 20
-118.5352281062169
 10
86.1454738825435
 20
-118.5352281062169
 10
86.30412052963925
 20
-118.5352281062169
 10
86.44795326614843
 20
-118.5796698379766
 10
86.5432101563156
 20
-118.7617431343721
 10
86.64260116106504
 20
-118.9541517172233
 10
86.66585555559048
 20
-119.1825615478953
 10
86.66585555559048
 20
-119.3561943603519
 10
86.66585555559048
 20
-119.5274156059688
 10
86.64484047313046
 20
-119.7580647487063
 10
86.5432101563156
 20
-119.9506455863318
 97
        0
 97
        0
 92
        1
 93
        1
 72
     4
 94
        3
 73
     0
 74
     1
 95
       17
 96
       13
 40
0.0
 40
0.0
 40
0.0
 40
0.0
 40
1.0
 40
1.0
 40
1.0
 40
2.0
 40
2.0
 40
2.0
 40
3.0
 40
3.0
 40
3.0
 40
4.0
 40
4.0
 40
4.0
 40
4.0
 10
86.1454738825435
 20
-118.7278089438424
 10
85.89587671463714
 20
-118.7278089438424
 10
85.84936792558628
 20
-119.0113403022784
 10
85.84936792558628
 20
-119.3561943603519
 10
85.84936792558628
 20
-119.6755547118346
 10
85.88536917340713
 20
-119.9844075220872
 10
86.1454738825435
 20
-119.9844075220872
 10
86.3930039931587
 20
-119.9844075220872
 10
86.44175209427499
 20
-119.7031154757166
 10
86.44175209427499
 20
-119.3561943603519
 10
86.44175209427499
 20
-119.036661754095
 10
86.40368378916297
 20
-118.7278089438424
 10
86.1454738825435
 20
-118.7278089438424
 97
        0
 97
        0
 75
     2
 76
     1
 98
        0
  0
ENDBLK
  5
A5
330
A2
100
AcDbEntity
  8
0
100
AcDbBlockEnd
  0
BLOCK
  5
C1
330
BF
100
AcDbEntity
  8
0
100
AcDbBlockBegin
  2
block 4
 70
     0
 10
0.0
 20
0.0
 30
0.0
  3
block 4
  1

  0
SPLINE
  5
C3
330
BF
100
AcDbEntity
  8
_U+30EC_U+30A4_U+30E4_U+30FC 1
370
     0
100
AcDbSpline
210
0.0
220
0.0
230
1.0
 70
    11
 71
     3
 72
    26
 73
    22
 74
     0
 42
0.0000000001
 43
0.0000000001
 12
1.0
 22
0.0
 32
0.0
 13
1.0
 23
0.0
 33
0.0
 40
0.0
 40
0.0
 40
0.0
 40
0.0
 40
1.0
 40
1.0
 40
1.0
 40
2.0
 40
2.0
 40
2.0
 40
3.0
 40
3.0
 40
3.0
 40
4.0
 40
4.0
 40
4.0
 40
5.0
 40
5.0
 40
5.0
 40
6.0
 40
6.0
 40
6.0
 40
7.0
 40
7.0
 40
7.0
 40
7.0
 10
77.64797361340051
 20
-130.1384819553126
 30
0.0
 10
77.64797361340051
 20
-130.1384819553126
 30
0.0
 10
76.54364825560367
 20
-130.1384819553126
 30
0.0
 10
76.54364825560367
 20
-130.1384819553126
 30
0.0
 10
76.54364825560367
 20
-130.1384819553126
 30
0.0
 10
76.54364825560367
 20
-130.4685221027995
 30
0.0
 10
76.54364825560367
 20
-130.4685221027995
 30
0.0
 10
76.54364825560367
 20
-130.4685221027995
 30
0.0
 10
76.39568140451219
 20
-130.4685221027995
 30
0.0
 10
76.39568140451219
 20
-130.4685221027995
 30
0.0
 10
76.38086749392562
 20
-130.1364148980215
 30
0.0
 10
76.2179144774733
 20
-130.0899061089706
 30
0.0
 10
76.10370956213727
 20
-130.0602782877974
 30
0.0
 10
76.10370956213727
 20
-130.0602782877974
 30
0.0
 10
76.10370956213727
 20
-129.9142062392228
 30
0.0
 10
76.10370956213727
 20
-129.9142062392228
 30
0.0
 10
76.10370956213727
 20
-129.9142062392228
 30
0.0
 10
77.64797361340051
 20
-129.9142062392228
 30
0.0
 10
77.64797361340051
 20
-129.9142062392228
 30
0.0
 10
77.64797361340051
 20
-129.9142062392228
 30
0.0
 10
77.64797361340051
 20
-130.1384819553126
 30
0.0
 10
77.64797361340051
 20
-130.1384819553126
 30
0.0
  0
HATCH
  5
C4
330
BF
100
AcDbEntity
  8
_U+30EC_U+30A4_U+30E4_U+30FC 1
 62
   179
420
  2234388
100
AcDbHatch
 10
0.0
 20
0.0
 30
0.0
210
0.0
220
0.0
230
1.0
  2
SOLID
 70
     1
 71
     0
 91
        1
 92
        1
 93
        1
 72
     4
 94
        3
 73
     0
 74
     1
 95
       26
 96
       22
 40
0.0
 40
0.0
 40
0.0
 40
0.0
 40
1.0
 40
1.0
 40
1.0
 40
2.0
 40
2.0
 40
2.0
 40
3.0
 40
3.0
 40
3.0
 40
4.0
 40
4.0
 40
4.0
 40
5.0
 40
5.0
 40
5.0
 40
6.0
 40
6.0
 40
6.0
 40
7.0
 40
7.0
 40
7.0
 40
7.0
 10
77.64797361340051
 20
-130.1384819553126
 10
77.64797361340051
 20
-130.1384819553126
 10
76.54364825560367
 20
-130.1384819553126
 10
76.54364825560367
 20
-130.1384819553126
 10
76.54364825560367
 20
-130.1384819553126
 10
76.54364825560367
 20
-130.4685221027995
 10
76.54364825560367
 20
-130.4685221027995
 10
76.54364825560367
 20
-130.4685221027995
 10
76.39568140451219
 20
-130.4685221027995
 10
76.39568140451219
 20
-130.4685221027995
 10
76.38086749392562
 20
-130.1364148980215
 10
76.2179144774733
 20
-130.0899061089706
 10
76.10370956213727
 20
-130.0602782877974
 10
76.10370956213727
 20
-130.0602782877974
 10
76.10370956213727
 20
-129.9142062392228
 10
76.10370956213727
 20
-129.9142062392228
 10
76.10370956213727
 20
-129.9142062392228
 10
77.64797361340051
 20
-129.9142062392228
 10
77.64797361340051
 20
-129.9142062392228
 10
77.64797361340051
 20
-129.9142062392228
 10
77.64797361340051
 20
-130.1384819553126
 10
77.64797361340051
 20
-130.1384819553126
 97
        0
 97
        0
 75
     2
 76
     1
 98
        0
  0
SPLINE
  5
C5
330
BF
100
AcDbEntity
  8
_U+30EC_U+30A4_U+30E4_U+30FC 1
370
     0
100
AcDbSpline
210
0.0
220
0.0
230
1.0
 70
    11
 71
     3
 72
    29
 73
    25
 74
     0
 42
0.0000000001
 43
0.0000000001
 12
1.0
 22
0.0
 32
0.0
 13
1.0
 23
0.0
 33
0.0
 40
0.0
 40
0.0
 40
0.0
 40
0.0
 40
1.0
 40
1.0
 40
1.0
 40
2.0
 40
2.0
 40
2.0
 40
3.0
 40
3.0
 40
3.0
 40
4.0
 40
4.0
 40
4.0
 40
5.0
 40
5.0
 40
5.0
 40
6.0
 40
6.0
 40
6.0
 40
7.0
 40
7.0
 40
7.0
 40
8.0
 40
8.0
 40
8.0
 40
8.0
 10
77.47037894113588
 20
-128.5153252174372
 30
0.0
 10
77.6796684918648
 20
-128.6231567061255
 30
0.0
 10
77.69878877180794
 20
-128.7966172638078
 30
0.0
 10
77.69878877180794
 20
-128.9130614912092
 30
0.0
 10
77.69878877180794
 20
-129.0739474503704
 30
0.0
 10
77.65227998275708
 20
-129.2155408748142
 30
0.0
 10
77.47037894113588
 20
-129.3106255102071
 30
0.0
 10
77.27573104621926
 20
-129.4143228843131
 30
0.0
 10
77.03870847683407
 20
-129.4336154190305
 30
0.0
 10
76.87592771515602
 20
-129.4336154190305
 30
0.0
 10
76.73192272387257
 20
-129.4336154190305
 30
0.0
 10
76.48025849867508
 20
-129.4163899416043
 30
0.0
 10
76.2813042344019
 20
-129.3106255102071
 30
0.0
 10
76.07838811032069
 20
-129.2027940215187
 30
0.0
 10
76.05496146102098
 20
-129.0419080623576
 30
0.0
 10
76.05496146102098
 20
-128.9130614912092
 30
0.0
 10
76.05496146102098
 20
-128.7544148441135
 30
0.0
 10
76.09940319278071
 20
-128.6105821076043
 30
0.0
 10
76.2813042344019
 20
-128.5153252174372
 30
0.0
 10
76.47388507202737
 20
-128.4159342126877
 30
0.0
 10
76.70229490269944
 20
-128.3926798181623
 30
0.0
 10
76.87592771515602
 20
-128.3926798181623
 30
0.0
 10
77.04714896077294
 20
-128.3926798181623
 30
0.0
 10
77.27779810351042
 20
-128.4136949006223
 30
0.0
 10
77.47037894113588
 20
-128.5153252174372
 30
0.0
  0
SPLINE
  5
C6
330
BF
100
AcDbEntity
  8
_U+30EC_U+30A4_U+30E4_U+30FC 1
370
     0
100
AcDbSpline
210
0.0
220
0.0
230
1.0
 70
    11
 71
     3
 72
    17
 73
    13
 74
     0
 42
0.0000000001
 43
0.0000000001
 12
1.0
 22
0.0
 32
0.0
 13
1.0
 23
0.0
 33
0.0
 40
0.0
 40
0.0
 40
0.0
 40
0.0
 40
1.0
 40
1.0
 40
1.0
 40
2.0
 40
2.0
 40
2.0
 40
3.0
 40
3.0
 40
3.0
 40
4.0
 40
4.0
 40
4.0
 40
4.0
 10
76.24754229864645
 20
-128.9130614912092
 30
0.0
 10
76.24754229864645
 20
-129.1628309138898
 30
0.0
 10
76.53107365708252
 20
-129.2093397029407
 30
0.0
 10
76.87592771515602
 20
-129.2093397029407
 30
0.0
 10
77.19528806663868
 20
-129.2093397029407
 30
0.0
 10
77.50414087689133
 20
-129.1731662003456
 30
0.0
 10
77.50414087689133
 20
-128.9130614912092
 30
0.0
 10
77.50414087689133
 20
-128.665531380594
 30
0.0
 10
77.22284883052068
 20
-128.6167832794777
 30
0.0
 10
76.87592771515602
 20
-128.6167832794777
 30
0.0
 10
76.5563951088991
 20
-128.6167832794777
 30
0.0
 10
76.24754229864645
 20
-128.655023839364
 30
0.0
 10
76.24754229864645
 20
-128.9130614912092
 30
0.0
  0
HATCH
  5
C7
330
BF
100
AcDbEntity
  8
_U+30EC_U+30A4_U+30E4_U+30FC 1
 62
   179
420
  2234388
100
AcDbHatch
 10
0.0
 20
0.0
 30
0.0
210
0.0
220
0.0
230
1.0
  2
SOLID
 70
     1
 71
     0
 91
        2
 92
        1
 93
        1
 72
     4
 94
        3
 73
     0
 74
     1
 95
       29
 96
       25
 40
0.0
 40
0.0
 40
0.0
 40
0.0
 40
1.0
 40
1.0
 40
1.0
 40
2.0
 40
2.0
 40
2.0
 40
3.0
 40
3.0
 40
3.0
 40
4.0
 40
4.0
 40
4.0
 40
5.0
 40
5.0
 40
5.0
 40
6.0
 40
6.0
 40
6.0
 40
7.0
 40
7.0
 40
7.0
 40
8.0
 40
8.0
 40
8.0
 40
8.0
 10
77.47037894113588
 20
-128.5153252174372
 10
77.6796684918648
 20
-128.6231567061255
 10
77.69878877180794
 20
-128.7966172638078
 10
77.69878877180794
 20
-128.9130614912092
 10
77.69878877180794
 20
-129.0739474503704
 10
77.65227998275708
 20
-129.2155408748142
 10
77.47037894113588
 20
-129.3106255102071
 10
77.27573104621926
 20
-129.4143228843131
 10
77.03870847683407
 20
-129.4336154190305
 10
76.87592771515602
 20
-129.4336154190305
 10
76.73192272387257
 20
-129.4336154190305
 10
76.48025849867508
 20
-129.4163899416043
 10
76.2813042344019
 20
-129.3106255102071
 10
76.07838811032069
 20
-129.2027940215187
 10
76.05496146102098
 20
-129.0419080623576
 10
76.05496146102098
 20
-128.9130614912092
 10
76.05496146102098
 20
-128.7544148441135
 10
76.09940319278071
 20
-128.6105821076043
 10
76.2813042344019
 20
-128.5153252174372
 10
76.47388507202737
 20
-128.4159342126877
 10
76.70229490269944
 20
-128.3926798181623
 10
76.87592771515602
 20
-128.3926798181623
 10
77.04714896077294
 20
-128.3926798181623
 10
77.27779810351042
 20
-128.4136949006223
 10
77.47037894113588
 20
-128.5153252174372
 97
        0
 97
        0
 92
        1
 93
        1
 72
     4
 94
        3
 73
     0
 74
     1
 95
       17
 96
       13
 40
0.0
 40
0.0
 40
0.0
 40
0.0
 40
1.0
 40
1.0
 40
1.0
 40
2.0
 40
2.0
 40
2.0
 40
3.0
 40
3.0
 40
3.0
 40
4.0
 40
4.0
 40
4.0
 40
4.0
 10
76.24754229864645
 20
-128.9130614912092
 10
76.24754229864645
 20
-129.1628309138898
 10
76.53107365708252
 20
-129.2093397029407
 10
76.87592771515602
 20
-129.2093397029407
 10
77.19528806663868
 20
-129.2093397029407
 10
77.50414087689133
 20
-129.1731662003456
 10
77.50414087689133
 20
-128.9130614912092
 10
77.50414087689133
 20
-128.665531380594
 10
77.22284883052068
 20
-128.6167832794777
 10
76.87592771515602
 20
-128.6167832794777
 10
76.5563951088991
 20
-128.6167832794777
 10
76.24754229864645
 20
-128.655023839364
 10
76.24754229864645
 20
-128.9130614912092
 97
        0
 97
        0
 75
     2
 76
     1
 98
        0
  0
ENDBLK
  5
C2
330
BF
100
AcDbEntity
  8
0
100
AcDbBlockEnd
  0
BLOCK
  5
E8
330
E6
100
AcDbEntity
  8
0
100
AcDbBlockBegin
  2
block 5
 70
     0
 10
0.0
 20
0.0
 30
0.0
  3
block 5
  1

  0
SPLINE
  5
EA
330
E6
100
AcDbEntity
  8
_U+30EC_U+30A4_U+30E4_U+30FC 1
370
     0
100
AcDbSpline
210
0.0
220
0.0
230
1.0
 70
    11
 71
     3
 72
    26
 73
    22
 74
     0
 42
0.0000000001
 43
0.0000000001
 12
1.0
 22
0.0
 32
0.0
 13
1.0
 23
0.0
 33
0.0
 40
0.0
 40
0.0
 40
0.0
 40
0.0
 40
1.0
 40
1.0
 40
1.0
 40
2.0
 40
2.0
 40
2.0
 40
3.0
 40
3.0
 40
3.0
 40
4.0
 40
4.0
 40
4.0
 40
5.0
 40
5.0
 40
5.0
 40
6.0
 40
6.0
 40
6.0
 40
7.0
 40
7.0
 40
7.0
 40
7.0
 10
105.8912109110272
 20
-138.3043917840003
 30
0.0
 10
105.8912109110272
 20
-138.3043917840003
 30
0.0
 10
104.7867132984561
 20
-138.3043917840003
 30
0.0
 10
104.7867132984561
 20
-138.3043917840003
 30
0.0
 10
104.7867132984561
 20
-138.3043917840003
 30
0.0
 10
104.7867132984561
 20
-138.6344319314872
 30
0.0
 10
104.7867132984561
 20
-138.6344319314872
 30
0.0
 10
104.7867132984561
 20
-138.6344319314872
 30
0.0
 10
104.6385741925904
 20
-138.6344319314872
 30
0.0
 10
104.6385741925904
 20
-138.6344319314872
 30
0.0
 10
104.6237602820038
 20
-138.3023247267091
 30
0.0
 10
104.4611517751
 20
-138.2558159376583
 30
0.0
 10
104.3467746049897
 20
-138.2261881164851
 30
0.0
 10
104.3467746049897
 20
-138.2261881164851
 30
0.0
 10
104.3467746049897
 20
-138.0801160679105
 30
0.0
 10
104.3467746049897
 20
-138.0801160679105
 30
0.0
 10
104.3467746049897
 20
-138.0801160679105
 30
0.0
 10
105.8912109110272
 20
-138.0801160679105
 30
0.0
 10
105.8912109110272
 20
-138.0801160679105
 30
0.0
 10
105.8912109110272
 20
-138.0801160679105
 30
0.0
 10
105.8912109110272
 20
-138.3043917840003
 30
0.0
 10
105.8912109110272
 20
-138.3043917840003
 30
0.0
  0
HATCH
  5
EB
330
E6
100
AcDbEntity
  8
_U+30EC_U+30A4_U+30E4_U+30FC 1
 62
   179
420
  2234388
100
AcDbHatch
 10
0.0
 20
0.0
 30
0.0
210
0.0
220
0.0
230
1.0
  2
SOLID
 70
     1
 71
     0
 91
        1
 92
        1
 93
        1
 72
     4
 94
        3
 73
     0
 74
     1
 95
       26
 96
       22
 40
0.0
 40
0.0
 40
0.0
 40
0.0
 40
1.0
 40
1.0
 40
1.0
 40
2.0
 40
2.0
 40
2.0
 40
3.0
 40
3.0
 40
3.0
 40
4.0
 40
4.0
 40
4.0
 40
5.0
 40
5.0
 40
5.0
 40
6.0
 40
6.0
 40
6.0
 40
7.0
 40
7.0
 40
7.0
 40
7.0
 10
105.8912109110272
 20
-138.3043917840003
 10
105.8912109110272
 20
-138.3043917840003
 10
104.7867132984561
 20
-138.3043917840003
 10
104.7867132984561
 20
-138.3043917840003
 10
104.7867132984561
 20
-138.3043917840003
 10
104.7867132984561
 20
-138.6344319314872
 10
104.7867132984561
 20
-138.6344319314872
 10
104.7867132984561
 20
-138.6344319314872
 10
104.6385741925904
 20
-138.6344319314872
 10
104.6385741925904
 20
-138.6344319314872
 10
104.6237602820038
 20
-138.3023247267091
 10
104.4611517751
 20
-138.2558159376583
 10
104.3467746049897
 20
-138.2261881164851
 10
104.3467746049897
 20
-138.2261881164851
 10
104.3467746049897
 20
-138.0801160679105
 10
104.3467746049897
 20
-138.0801160679105
 10
104.3467746049897
 20
-138.0801160679105
 10
105.8912109110272
 20
-138.0801160679105
 10
105.8912109110272
 20
-138.0801160679105
 10
105.8912109110272
 20
-138.0801160679105
 10
105.8912109110272
 20
-138.3043917840003
 10
105.8912109110272
 20
-138.3043917840003
 97
        0
 97
        0
 75
     2
 76
     1
 98
        0
  0
POLYLINE
  5
EC
330
E6
100
AcDbEntity
  8
_U+30EC_U+30A4_U+30E4_U+30FC 1
370
     0
100
AcDb2dPolyline
 66
     1
 10
0.0
 20
0.0
 30
0.0
  0
VERTEX
  5
ED
330
EC
100
AcDbEntity
  8
_U+30EC_U+30A4_U+30E4_U+30FC 1
370
     0
100
AcDbVertex
100
AcDb2dVertex
 10
105.8912109110272
 20
-137.5189100133633
 30
0.0
  0
VERTEX
  5
EE
330
EC
100
AcDbEntity
  8
_U+30EC_U+30A4_U+30E4_U+30FC 1
370
     0
100
AcDbVertex
100
AcDb2dVertex
 10
105.6393744310554
 20
-137.5189100133633
 30
0.0
  0
VERTEX
  5
EF
330
EC
100
AcDbEntity
  8
_U+30EC_U+30A4_U+30E4_U+30FC 1
370
     0
100
AcDbVertex
100
AcDb2dVertex
 10
105.6393744310554
 20
-137.2670735333916
 30
0.0
  0
VERTEX
  5
F0
330
EC
100
AcDbEntity
  8
_U+30EC_U+30A4_U+30E4_U+30FC 1
370
     0
100
AcDbVertex
100
AcDb2dVertex
 10
105.8912109110272
 20
-137.2670735333916
 30
0.0
  0
VERTEX
  5
F1
330
EC
100
AcDbEntity
  8
_U+30EC_U+30A4_U+30E4_U+30FC 1
370
     0
100
AcDbVertex
100
AcDb2dVertex
 10
105.8912109110272
 20
-137.5189100133633
 30
0.0
  0
SEQEND
  5
F2
330
EC
100
AcDbEntity
  8
_U+30EC_U+30A4_U+30E4_U+30FC 1
370
     0
  0
HATCH
  5
F3
330
E6
100
AcDbEntity
  8
_U+30EC_U+30A4_U+30E4_U+30FC 1
 62
   179
420
  2234388
100
AcDbHatch
 10
0.0
 20
0.0
 30
0.0
210
0.0
220
0.0
230
1.0
  2
SOLID
 70
     1
 71
     0
 91
        1
 92
        1
 93
        4
 72
     1
 10
105.8912109110272
 20
-137.5189100133633
 11
105.6393744310554
 21
-137.5189100133633
 72
     1
 10
105.6393744310554
 20
-137.5189100133633
 11
105.6393744310554
 21
-137.2670735333916
 72
     1
 10
105.6393744310554
 20
-137.2670735333916
 11
105.8912109110272
 21
-137.2670735333916
 72
     1
 10
105.8912109110272
 20
-137.2670735333916
 11
105.8912109110272
 21
-137.5189100133633
 97
        0
 75
     2
 76
     1
 98
        0
  0
SPLINE
  5
F4
330
E6
100
AcDbEntity
  8
_U+30EC_U+30A4_U+30E4_U+30FC 1
370
     0
100
AcDbSpline
210
0.0
220
0.0
230
1.0
 70
    11
 71
     3
 72
    53
 73
    49
 74
     0
 42
0.0000000001
 43
0.0000000001
 12
1.0
 22
0.0
 32
0.0
 13
1.0
 23
0.0
 33
0.0
 40
0.0
 40
0.0
 40
0.0
 40
0.0
 40
1.0
 40
1.0
 40
1.0
 40
2.0
 40
2.0
 40
2.0
 40
3.0
 40
3.0
 40
3.0
 40
4.0
 40
4.0
 40
4.0
 40
5.0
 40
5.0
 40
5.0
 40
6.0
 40
6.0
 40
6.0
 40
7.0
 40
7.0
 40
7.0
 40
8.0
 40
8.0
 40
8.0
 40
9.0
 40
9.0
 40
9.0
 40
10.0
 40
10.0
 40
10.0
 40
11.0
 40
11.0
 40
11.0
 40
12.0
 40
12.0
 40
12.0
 40
13.0
 40
13.0
 40
13.0
 40
14.0
 40
14.0
 40
14.0
 40
15.0
 40
15.0
 40
15.0
 40
16.0
 40
16.0
 40
16.0
 40
16.0
 10
105.9418538146604
 20
-136.5498046533625
 30
0.0
 10
105.9418538146604
 20
-136.6280083208777
 30
0.0
 10
105.9249728467827
 20
-136.7296386376926
 30
0.0
 10
105.8615830898541
 20
-136.830924444959
 30
0.0
 10
105.7513400343261
 20
-137.0045572574155
 30
0.0
 10
105.6204264058866
 20
-137.0255723398756
 30
0.0
 10
105.5122504076497
 20
-137.0445203650444
 30
0.0
 10
105.5122504076497
 20
-137.0445203650444
 30
0.0
 10
105.5122504076497
 20
-136.8226562157944
 30
0.0
 10
105.5122504076497
 20
-136.8226562157944
 30
0.0
 10
105.7113769266972
 20
-136.7675346880303
 30
0.0
 10
105.7410047478703
 20
-136.6407551741731
 30
0.0
 10
105.7410047478703
 20
-136.5473930865229
 30
0.0
 10
105.7410047478703
 20
-136.4078667193703
 30
0.0
 10
105.6414414883466
 20
-136.2555934989222
 30
0.0
 10
105.4088975430922
 20
-136.2555934989222
 30
0.0
 10
105.1529269485382
 20
-136.2555934989222
 30
0.0
 10
105.0829915101876
 20
-136.4354274832523
 30
0.0
 10
105.0829915101876
 20
-136.556005825236
 30
0.0
 10
105.0829915101876
 20
-136.5877007037003
 30
0.0
 10
105.0829915101876
 20
-136.7296386376926
 30
0.0
 10
105.2118380813359
 20
-136.8181775916635
 30
0.0
 10
105.2118380813359
 20
-136.8181775916635
 30
0.0
 10
105.1928900561671
 20
-136.9938774614113
 30
0.0
 10
105.1928900561671
 20
-136.9938774614113
 30
0.0
 10
105.1928900561671
 20
-136.9938774614113
 30
0.0
 10
104.3467746049897
 20
-136.8732991194275
 30
0.0
 10
104.3467746049897
 20
-136.8732991194275
 30
0.0
 10
104.3467746049897
 20
-136.8732991194275
 30
0.0
 10
104.3467746049897
 20
-136.0947075397611
 30
0.0
 10
104.3467746049897
 20
-136.0947075397611
 30
0.0
 10
104.3467746049897
 20
-136.0947075397611
 30
0.0
 10
104.5414224999063
 20
-136.0947075397611
 30
0.0
 10
104.5414224999063
 20
-136.0947075397611
 30
0.0
 10
104.5414224999063
 20
-136.0947075397611
 30
0.0
 10
104.5414224999063
 20
-136.7103461029752
 30
0.0
 10
104.5414224999063
 20
-136.7103461029752
 30
0.0
 10
104.5414224999063
 20
-136.7103461029752
 30
0.0
 10
104.964480225495
 20
-136.7761474267435
 30
0.0
 10
104.964480225495
 20
-136.7761474267435
 30
0.0
 10
104.9307182897395
 20
-136.714824727106
 30
0.0
 10
104.8904106725621
 20
-136.63214243546
 30
0.0
 10
104.8904106725621
 20
-136.5136311507674
 30
0.0
 10
104.8904106725621
 20
-136.2597276135045
 30
0.0
 10
105.0764458287656
 20
-136.0230495536678
 30
0.0
 10
105.3896050083748
 20
-136.0230495536678
 30
0.0
 10
105.7068983025663
 20
-136.0230495536678
 30
0.0
 10
105.9418538146604
 20
-136.2469807602091
 30
0.0
 10
105.9418538146604
 20
-136.5498046533625
 30
0.0
  0
HATCH
  5
F5
330
E6
100
AcDbEntity
  8
_U+30EC_U+30A4_U+30E4_U+30FC 1
 62
   179
420
  2234388
100
AcDbHatch
 10
0.0
 20
0.0
 30
0.0
210
0.0
220
0.0
230
1.0
  2
SOLID
 70
     1
 71
     0
 91
        1
 92
        1
 93
        1
 72
     4
 94
        3
 73
     0
 74
     1
 95
       53
 96
       49
 40
0.0
 40
0.0
 40
0.0
 40
0.0
 40
1.0
 40
1.0
 40
1.0
 40
2.0
 40
2.0
 40
2.0
 40
3.0
 40
3.0
 40
3.0
 40
4.0
 40
4.0
 40
4.0
 40
5.0
 40
5.0
 40
5.0
 40
6.0
 40
6.0
 40
6.0
 40
7.0
 40
7.0
 40
7.0
 40
8.0
 40
8.0
 40
8.0
 40
9.0
 40
9.0
 40
9.0
 40
10.0
 40
10.0
 40
10.0
 40
11.0
 40
11.0
 40
11.0
 40
12.0
 40
12.0
 40
12.0
 40
13.0
 40
13.0
 40
13.0
 40
14.0
 40
14.0
 40
14.0
 40
15.0
 40
15.0
 40
15.0
 40
16.0
 40
16.0
 40
16.0
 40
16.0
 10
105.9418538146604
 20
-136.5498046533625
 10
105.9418538146604
 20
-136.6280083208777
 10
105.9249728467827
 20
-136.7296386376926
 10
105.8615830898541
 20
-136.830924444959
 10
105.7513400343261
 20
-137.0045572574155
 10
105.6204264058866
 20
-137.0255723398756
 10
105.5122504076497
 20
-137.0445203650444
 10
105.5122504076497
 20
-137.0445203650444
 10
105.5122504076497
 20
-136.8226562157944
 10
105.5122504076497
 20
-136.8226562157944
 10
105.7113769266972
 20
-136.7675346880303
 10
105.7410047478703
 20
-136.6407551741731
 10
105.7410047478703
 20
-136.5473930865229
 10
105.7410047478703
 20
-136.4078667193703
 10
105.6414414883466
 20
-136.2555934989222
 10
105.4088975430922
 20
-136.2555934989222
 10
105.1529269485382
 20
-136.2555934989222
 10
105.0829915101876
 20
-136.4354274832523
 10
105.0829915101876
 20
-136.556005825236
 10
105.0829915101876
 20
-136.5877007037003
 10
105.0829915101876
 20
-136.7296386376926
 10
105.2118380813359
 20
-136.8181775916635
 10
105.2118380813359
 20
-136.8181775916635
 10
105.1928900561671
 20
-136.9938774614113
 10
105.1928900561671
 20
-136.9938774614113
 10
105.1928900561671
 20
-136.9938774614113
 10
104.3467746049897
 20
-136.8732991194275
 10
104.3467746049897
 20
-136.8732991194275
 10
104.3467746049897
 20
-136.8732991194275
 10
104.3467746049897
 20
-136.0947075397611
 10
104.3467746049897
 20
-136.0947075397611
 10
104.3467746049897
 20
-136.0947075397611
 10
104.5414224999063
 20
-136.0947075397611
 10
104.5414224999063
 20
-136.0947075397611
 10
104.5414224999063
 20
-136.0947075397611
 10
104.5414224999063
 20
-136.7103461029752
 10
104.5414224999063
 20
-136.7103461029752
 10
104.5414224999063
 20
-136.7103461029752
 10
104.964480225495
 20
-136.7761474267435
 10
104.964480225495
 20
-136.7761474267435
 10
104.9307182897395
 20
-136.714824727106
 10
104.8904106725621
 20
-136.63214243546
 10
104.8904106725621
 20
-136.5136311507674
 10
104.8904106725621
 20
-136.2597276135045
 10
105.0764458287656
 20
-136.0230495536678
 10
105.3896050083748
 20
-136.0230495536678
 10
105.7068983025663
 20
-136.0230495536678
 10
105.9418538146604
 20
-136.2469807602091
 10
105.9418538146604
 20
-136.5498046533625
 97
        0
 97
        0
 75
     2
 76
     1
 98
        0
  0
ENDBLK
  5
E9
330
E6
100
AcDbEntity
  8
0
100
AcDbBlockEnd
  0
BLOCK
  5
F8
330
F6
100
AcDbEntity
  8
0
100
AcDbBlockBegin
  2
block 6
 70
     0
 10
0.0
 20
0.0
 30
0.0
  3
block 6
  1

  0
SPLINE
  5
FA
330
F6
100
AcDbEntity
  8
_U+30EC_U+30A4_U+30E4_U+30FC 1
370
     0
100
AcDbSpline
210
0.0
220
0.0
230
1.0
 70
    11
 71
     3
 72
    29
 73
    25
 74
     0
 42
0.0000000001
 43
0.0000000001
 12
1.0
 22
0.0
 32
0.0
 13
1.0
 23
0.0
 33
0.0
 40
0.0
 40
0.0
 40
0.0
 40
0.0
 40
1.0
 40
1.0
 40
1.0
 40
2.0
 40
2.0
 40
2.0
 40
3.0
 40
3.0
 40
3.0
 40
4.0
 40
4.0
 40
4.0
 40
5.0
 40
5.0
 40
5.0
 40
6.0
 40
6.0
 40
6.0
 40
7.0
 40
7.0
 40
7.0
 40
8.0
 40
8.0
 40
8.0
 40
8.0
 10
105.9418538146604
 20
-129.5996690214195
 30
0.0
 10
105.9418538146604
 20
-129.8659749024293
 30
0.0
 10
105.8043945047989
 20
-130.1198784396923
 30
0.0
 10
105.4554063321431
 20
-130.1198784396923
 30
0.0
 10
105.199435737589
 20
-130.1198784396923
 30
0.0
 10
105.1040065926476
 20
-129.9782850152485
 30
0.0
 10
105.0426838930102
 20
-129.8725205838513
 30
0.0
 10
104.9834282506639
 20
-129.9972330404174
 30
0.0
 10
104.8693955901021
 20
-130.0733696506414
 30
0.0
 10
104.7085096309409
 20
-130.0733696506414
 30
0.0
 10
104.433591011218
 20
-130.0733696506414
 30
0.0
 10
104.2981987586477
 20
-129.8745876411425
 30
0.0
 10
104.2981987586477
 20
-129.5996690214195
 30
0.0
 10
104.2981987586477
 20
-129.3161376629835
 30
0.0
 10
104.4418592403826
 20
-129.1256238826492
 30
0.0
 10
104.7085096309409
 20
-129.1256238826492
 30
0.0
 10
104.8693955901021
 20
-129.1256238826492
 30
0.0
 10
104.9834282506639
 20
-129.2038275501643
 30
0.0
 10
105.0426838930102
 20
-129.3288845162789
 30
0.0
 10
105.0936713061919
 20
-129.2400010527595
 30
0.0
 10
105.1887559415848
 20
-129.0811821508894
 30
0.0
 10
105.4509277080123
 20
-129.0811821508894
 30
0.0
 10
105.8254095872589
 20
-129.0811821508894
 30
0.0
 10
105.9418538146604
 20
-129.3605793947432
 30
0.0
 10
105.9418538146604
 20
-129.5996690214195
 30
0.0
  0
SPLINE
  5
FB
330
F6
100
AcDbEntity
  8
_U+30EC_U+30A4_U+30E4_U+30FC 1
370
     0
100
AcDbSpline
210
0.0
220
0.0
230
1.0
 70
    11
 71
     3
 72
    17
 73
    13
 74
     0
 42
0.0000000001
 43
0.0000000001
 12
1.0
 22
0.0
 32
0.0
 13
1.0
 23
0.0
 33
0.0
 40
0.0
 40
0.0
 40
0.0
 40
0.0
 40
1.0
 40
1.0
 40
1.0
 40
2.0
 40
2.0
 40
2.0
 40
3.0
 40
3.0
 40
3.0
 40
4.0
 40
4.0
 40
4.0
 40
4.0
 10
104.4904350867246
 20
-129.5996690214195
 30
0.0
 10
104.4904350867246
 20
-129.764689095163
 30
0.0
 10
104.585864231666
 20
-129.8490939345516
 30
0.0
 10
104.7212564842364
 20
-129.8490939345516
 30
0.0
 10
104.8439018835113
 20
-129.8490939345516
 30
0.0
 10
104.9624131682039
 20
-129.7770914389099
 30
0.0
 10
104.9624131682039
 20
-129.5996690214195
 30
0.0
 10
104.9624131682039
 20
-129.4219020943806
 30
0.0
 10
104.8439018835113
 20
-129.3498995987389
 30
0.0
 10
104.7212564842364
 20
-129.3498995987389
 30
0.0
 10
104.585864231666
 20
-129.3498995987389
 30
0.0
 10
104.4904350867246
 20
-129.4367160049672
 30
0.0
 10
104.4904350867246
 20
-129.5996690214195
 30
0.0
  0
SPLINE
  5
FC
330
F6
100
AcDbEntity
  8
_U+30EC_U+30A4_U+30E4_U+30FC 1
370
     0
100
AcDbSpline
210
0.0
220
0.0
230
1.0
 70
    11
 71
     3
 72
    17
 73
    13
 74
     0
 42
0.0000000001
 43
0.0000000001
 12
1.0
 22
0.0
 32
0.0
 13
1.0
 23
0.0
 33
0.0
 40
0.0
 40
0.0
 40
0.0
 40
0.0
 40
1.0
 40
1.0
 40
1.0
 40
2.0
 40
2.0
 40
2.0
 40
3.0
 40
3.0
 40
3.0
 40
4.0
 40
4.0
 40
4.0
 40
4.0
 10
105.1505153816985
 20
-129.5996690214195
 30
0.0
 10
105.1505153816985
 20
-129.7433295031545
 30
0.0
 10
105.2373317879268
 20
-129.8956027236025
 30
0.0
 10
105.4405924215565
 20
-129.8956027236025
 30
0.0
 10
105.6455756029289
 20
-129.8956027236025
 30
0.0
 10
105.7472059197438
 20
-129.7688232097453
 30
0.0
 10
105.7472059197438
 20
-129.5996690214195
 30
0.0
 10
105.7472059197438
 20
-129.4132893556675
 30
0.0
 10
105.6245605204689
 20
-129.303390809688
 30
0.0
 10
105.44679359343
 20
-129.303390809688
 30
0.0
 10
105.2245849346314
 20
-129.303390809688
 30
0.0
 10
105.1505153816985
 20
-129.4663438261404
 30
0.0
 10
105.1505153816985
 20
-129.5996690214195
 30
0.0
  0
HATCH
  5
FD
330
F6
100
AcDbEntity
  8
_U+30EC_U+30A4_U+30E4_U+30FC 1
 62
   179
420
  2234388
100
AcDbHatch
 10
0.0
 20
0.0
 30
0.0
210
0.0
220
0.0
230
1.0
  2
SOLID
 70
     1
 71
     0
 91
        3
 92
        1
 93
        1
 72
     4
 94
        3
 73
     0
 74
     1
 95
       29
 96
       25
 40
0.0
 40
0.0
 40
0.0
 40
0.0
 40
1.0
 40
1.0
 40
1.0
 40
2.0
 40
2.0
 40
2.0
 40
3.0
 40
3.0
 40
3.0
 40
4.0
 40
4.0
 40
4.0
 40
5.0
 40
5.0
 40
5.0
 40
6.0
 40
6.0
 40
6.0
 40
7.0
 40
7.0
 40
7.0
 40
8.0
 40
8.0
 40
8.0
 40
8.0
 10
105.9418538146604
 20
-129.5996690214195
 10
105.9418538146604
 20
-129.8659749024293
 10
105.8043945047989
 20
-130.1198784396923
 10
105.4554063321431
 20
-130.1198784396923
 10
105.199435737589
 20
-130.1198784396923
 10
105.1040065926476
 20
-129.9782850152485
 10
105.0426838930102
 20
-129.8725205838513
 10
104.9834282506639
 20
-129.9972330404174
 10
104.8693955901021
 20
-130.0733696506414
 10
104.7085096309409
 20
-130.0733696506414
 10
104.433591011218
 20
-130.0733696506414
 10
104.2981987586477
 20
-129.8745876411425
 10
104.2981987586477
 20
-129.5996690214195
 10
104.2981987586477
 20
-129.3161376629835
 10
104.4418592403826
 20
-129.1256238826492
 10
104.7085096309409
 20
-129.1256238826492
 10
104.8693955901021
 20
-129.1256238826492
 10
104.9834282506639
 20
-129.2038275501643
 10
105.0426838930102
 20
-129.3288845162789
 10
105.0936713061919
 20
-129.2400010527595
 10
105.1887559415848
 20
-129.0811821508894
 10
105.4509277080123
 20
-129.0811821508894
 10
105.8254095872589
 20
-129.0811821508894
 10
105.9418538146604
 20
-129.3605793947432
 10
105.9418538146604
 20
-129.5996690214195
 97
        0
 97
        0
 92
        1
 93
        1
 72
     4
 94
        3
 73
     0
 74
     1
 95
       17
 96
       13
 40
0.0
 40
0.0
 40
0.0
 40
0.0
 40
1.0
 40
1.0
 40
1.0
 40
2.0
 40
2.0
 40
2.0
 40
3.0
 40
3.0
 40
3.0
 40
4.0
 40
4.0
 40
4.0
 40
4.0
 10
104.4904350867246
 20
-129.5996690214195
 10
104.4904350867246
 20
-129.764689095163
 10
104.585864231666
 20
-129.8490939345516
 10
104.7212564842364
 20
-129.8490939345516
 10
104.8439018835113
 20
-129.8490939345516
 10
104.9624131682039
 20
-129.7770914389099
 10
104.9624131682039
 20
-129.5996690214195
 10
104.9624131682039
 20
-129.4219020943806
 10
104.8439018835113
 20
-129.3498995987389
 10
104.7212564842364
 20
-129.3498995987389
 10
104.585864231666
 20
-129.3498995987389
 10
104.4904350867246
 20
-129.4367160049672
 10
104.4904350867246
 20
-129.5996690214195
 97
        0
 97
        0
 92
        1
 93
        1
 72
     4
 94
        3
 73
     0
 74
     1
 95
       17
 96
       13
 40
0.0
 40
0.0
 40
0.0
 40
0.0
 40
1.0
 40
1.0
 40
1.0
 40
2.0
 40
2.0
 40
2.0
 40
3.0
 40
3.0
 40
3.0
 40
4.0
 40
4.0
 40
4.0
 40
4.0
 10
105.1505153816985
 20
-129.5996690214195
 10
105.1505153816985
 20
-129.7433295031545
 10
105.2373317879268
 20
-129.8956027236025
 10
105.4405924215565
 20
-129.8956027236025
 10
105.6455756029289
 20
-129.8956027236025
 10
105.7472059197438
 20
-129.7688232097453
 10
105.7472059197438
 20
-129.5996690214195
 10
105.7472059197438
 20
-129.4132893556675
 10
105.6245605204689
 20
-129.303390809688
 10
105.44679359343
 20
-129.303390809688
 10
105.2245849346314
 20
-129.303390809688
 10
105.1505153816985
 20
-129.4663438261404
 10
105.1505153816985
 20
-129.5996690214195
 97
        0
 97
        0
 75
     2
 76
     1
 98
        0
  0
POLYLINE
  5
FE
330
F6
100
AcDbEntity
  8
_U+30EC_U+30A4_U+30E4_U+30FC 1
370
     0
100
AcDb2dPolyline
 66
     1
 10
0.0
 20
0.0
 30
0.0
  0
VERTEX
  5
FF
330
FE
100
AcDbEntity
  8
_U+30EC_U+30A4_U+30E4_U+30FC 1
370
     0
100
AcDbVertex
100
AcDb2dVertex
 10
105.8912109110272
 20
-128.8627630971246
 30
0.0
  0
VERTEX
  5
100
330
FE
100
AcDbEntity
  8
_U+30EC_U+30A4_U+30E4_U+30FC 1
370
     0
100
AcDbVertex
100
AcDb2dVertex
 10
105.6393744310554
 20
-128.8627630971246
 30
0.0
  0
VERTEX
  5
101
330
FE
100
AcDbEntity
  8
_U+30EC_U+30A4_U+30E4_U+30FC 1
370
     0
100
AcDbVertex
100
AcDb2dVertex
 10
105.6393744310554
 20
-128.6109266171528
 30
0.0
  0
VERTEX
  5
102
330
FE
100
AcDbEntity
  8
_U+30EC_U+30A4_U+30E4_U+30FC 1
370
     0
100
AcDbVertex
100
AcDb2dVertex
 10
105.8912109110272
 20
-128.6109266171528
 30
0.0
  0
VERTEX
  5
103
330
FE
100
AcDbEntity
  8
_U+30EC_U+30A4_U+30E4_U+30FC 1
370
     0
100
AcDbVertex
100
AcDb2dVertex
 10
105.8912109110272
 20
-128.8627630971246
 30
0.0
  0
SEQEND
  5
104
330
FE
100
AcDbEntity
  8
_U+30EC_U+30A4_U+30E4_U+30FC 1
370
     0
  0
HATCH
  5
105
330
F6
100
AcDbEntity
  8
_U+30EC_U+30A4_U+30E4_U+30FC 1
 62
   179
420
  2234388
100
AcDbHatch
 10
0.0
 20
0.0
 30
0.0
210
0.0
220
0.0
230
1.0
  2
SOLID
 70
     1
 71
     0
 91
        1
 92
        1
 93
        4
 72
     1
 10
105.8912109110272
 20
-128.8627630971246
 11
105.6393744310554
 21
-128.8627630971246
 72
     1
 10
105.6393744310554
 20
-128.8627630971246
 11
105.6393744310554
 21
-128.6109266171528
 72
     1
 10
105.6393744310554
 20
-128.6109266171528
 11
105.8912109110272
 21
-128.6109266171528
 72
     1
 10
105.8912109110272
 20
-128.6109266171528
 11
105.8912109110272
 21
-128.8627630971246
 97
        0
 75
     2
 76
     1
 98
        0
  0
SPLINE
  5
106
330
F6
100
AcDbEntity
  8
_U+30EC_U+30A4_U+30E4_U+30FC 1
370
     0
100
AcDbSpline
210
0.0
220
0.0
230
1.0
 70
    11
 71
     3
 72
    53
 73
    49
 74
     0
 42
0.0000000001
 43
0.0000000001
 12
1.0
 22
0.0
 32
0.0
 13
1.0
 23
0.0
 33
0.0
 40
0.0
 40
0.0
 40
0.0
 40
0.0
 40
1.0
 40
1.0
 40
1.0
 40
2.0
 40
2.0
 40
2.0
 40
3.0
 40
3.0
 40
3.0
 40
4.0
 40
4.0
 40
4.0
 40
5.0
 40
5.0
 40
5.0
 40
6.0
 40
6.0
 40
6.0
 40
7.0
 40
7.0
 40
7.0
 40
8.0
 40
8.0
 40
8.0
 40
9.0
 40
9.0
 40
9.0
 40
10.0
 40
10.0
 40
10.0
 40
11.0
 40
11.0
 40
11.0
 40
12.0
 40
12.0
 40
12.0
 40
13.0
 40
13.0
 40
13.0
 40
14.0
 40
14.0
 40
14.0
 40
15.0
 40
15.0
 40
15.0
 40
16.0
 40
16.0
 40
16.0
 40
16.0
 10
105.9418538146604
 20
-127.8934854823495
 30
0.0
 10
105.9418538146604
 20
-127.971861404639
 30
0.0
 10
105.9249728467827
 20
-128.0733194666796
 30
0.0
 10
105.8615830898541
 20
-128.1749497834945
 30
0.0
 10
105.7513400343261
 20
-128.3484103411768
 30
0.0
 10
105.6204264058866
 20
-128.3694254236368
 30
0.0
 10
105.5122504076497
 20
-128.38854570358
 30
0.0
 10
105.5122504076497
 20
-128.38854570358
 30
0.0
 10
105.5122504076497
 20
-128.1663370447813
 30
0.0
 10
105.5122504076497
 20
-128.1663370447813
 30
0.0
 10
105.7113769266972
 20
-128.1113877717916
 30
0.0
 10
105.7410047478703
 20
-127.9844360031601
 30
0.0
 10
105.7410047478703
 20
-127.8914184250584
 30
0.0
 10
105.7410047478703
 20
-127.7517198031315
 30
0.0
 10
105.6414414883466
 20
-127.5994465826835
 30
0.0
 10
105.4088975430922
 20
-127.5994465826835
 30
0.0
 10
105.1529269485382
 20
-127.5994465826835
 30
0.0
 10
105.0829915101876
 20
-127.7792805670135
 30
0.0
 10
105.0829915101876
 20
-127.8998589089973
 30
0.0
 10
105.0829915101876
 20
-127.9315537874616
 30
0.0
 10
105.0829915101876
 20
-128.0733194666796
 30
0.0
 10
105.2118380813359
 20
-128.162202930199
 30
0.0
 10
105.2118380813359
 20
-128.162202930199
 30
0.0
 10
105.1928900561671
 20
-128.3377305451725
 30
0.0
 10
105.1928900561671
 20
-128.3377305451725
 30
0.0
 10
105.1928900561671
 20
-128.3377305451725
 30
0.0
 10
104.3467746049897
 20
-128.2171522031888
 30
0.0
 10
104.3467746049897
 20
-128.2171522031888
 30
0.0
 10
104.3467746049897
 20
-128.2171522031888
 30
0.0
 10
104.3467746049897
 20
-127.4387328782966
 30
0.0
 10
104.3467746049897
 20
-127.4387328782966
 30
0.0
 10
104.3467746049897
 20
-127.4387328782966
 30
0.0
 10
104.5414224999063
 20
-127.4387328782966
 30
0.0
 10
104.5414224999063
 20
-127.4387328782966
 30
0.0
 10
104.5414224999063
 20
-127.4387328782966
 30
0.0
 10
104.5414224999063
 20
-128.0543714415107
 30
0.0
 10
104.5414224999063
 20
-128.0543714415107
 30
0.0
 10
104.5414224999063
 20
-128.0543714415107
 30
0.0
 10
104.964480225495
 20
-128.1198282557305
 30
0.0
 10
104.964480225495
 20
-128.1198282557305
 30
0.0
 10
104.9307182897395
 20
-128.058505556093
 30
0.0
 10
104.8904106725621
 20
-127.9759955192213
 30
0.0
 10
104.8904106725621
 20
-127.8574842345287
 30
0.0
 10
104.8904106725621
 20
-127.60375295204
 30
0.0
 10
105.0764458287656
 20
-127.3667303826549
 30
0.0
 10
105.3896050083748
 20
-127.3667303826549
 30
0.0
 10
105.7068983025663
 20
-127.3667303826549
 30
0.0
 10
105.9418538146604
 20
-127.5910060987446
 30
0.0
 10
105.9418538146604
 20
-127.8934854823495
 30
0.0
  0
HATCH
  5
107
330
F6
100
AcDbEntity
  8
_U+30EC_U+30A4_U+30E4_U+30FC 1
 62
   179
420
  2234388
100
AcDbHatch
 10
0.0
 20
0.0
 30
0.0
210
0.0
220
0.0
230
1.0
  2
SOLID
 70
     1
 71
     0
 91
        1
 92
        1
 93
        1
 72
     4
 94
        3
 73
     0
 74
     1
 95
       53
 96
       49
 40
0.0
 40
0.0
 40
0.0
 40
0.0
 40
1.0
 40
1.0
 40
1.0
 40
2.0
 40
2.0
 40
2.0
 40
3.0
 40
3.0
 40
3.0
 40
4.0
 40
4.0
 40
4.0
 40
5.0
 40
5.0
 40
5.0
 40
6.0
 40
6.0
 40
6.0
 40
7.0
 40
7.0
 40
7.0
 40
8.0
 40
8.0
 40
8.0
 40
9.0
 40
9.0
 40
9.0
 40
10.0
 40
10.0
 40
10.0
 40
11.0
 40
11.0
 40
11.0
 40
12.0
 40
12.0
 40
12.0
 40
13.0
 40
13.0
 40
13.0
 40
14.0
 40
14.0
 40
14.0
 40
15.0
 40
15.0
 40
15.0
 40
16.0
 40
16.0
 40
16.0
 40
16.0
 10
105.9418538146604
 20
-127.8934854823495
 10
105.9418538146604
 20
-127.971861404639
 10
105.9249728467827
 20
-128.0733194666796
 10
105.8615830898541
 20
-128.1749497834945
 10
105.7513400343261
 20
-128.3484103411768
 10
105.6204264058866
 20
-128.3694254236368
 10
105.5122504076497
 20
-128.38854570358
 10
105.5122504076497
 20
-128.38854570358
 10
105.5122504076497
 20
-128.1663370447813
 10
105.5122504076497
 20
-128.1663370447813
 10
105.7113769266972
 20
-128.1113877717916
 10
105.7410047478703
 20
-127.9844360031601
 10
105.7410047478703
 20
-127.8914184250584
 10
105.7410047478703
 20
-127.7517198031315
 10
105.6414414883466
 20
-127.5994465826835
 10
105.4088975430922
 20
-127.5994465826835
 10
105.1529269485382
 20
-127.5994465826835
 10
105.0829915101876
 20
-127.7792805670135
 10
105.0829915101876
 20
-127.8998589089973
 10
105.0829915101876
 20
-127.9315537874616
 10
105.0829915101876
 20
-128.0733194666796
 10
105.2118380813359
 20
-128.162202930199
 10
105.2118380813359
 20
-128.162202930199
 10
105.1928900561671
 20
-128.3377305451725
 10
105.1928900561671
 20
-128.3377305451725
 10
105.1928900561671
 20
-128.3377305451725
 10
104.3467746049897
 20
-128.2171522031888
 10
104.3467746049897
 20
-128.2171522031888
 10
104.3467746049897
 20
-128.2171522031888
 10
104.3467746049897
 20
-127.4387328782966
 10
104.3467746049897
 20
-127.4387328782966
 10
104.3467746049897
 20
-127.4387328782966
 10
104.5414224999063
 20
-127.4387328782966
 10
104.5414224999063
 20
-127.4387328782966
 10
104.5414224999063
 20
-127.4387328782966
 10
104.5414224999063
 20
-128.0543714415107
 10
104.5414224999063
 20
-128.0543714415107
 10
104.5414224999063
 20
-128.0543714415107
 10
104.964480225495
 20
-128.1198282557305
 10
104.964480225495
 20
-128.1198282557305
 10
104.9307182897395
 20
-128.058505556093
 10
104.8904106725621
 20
-127.9759955192213
 10
104.8904106725621
 20
-127.8574842345287
 10
104.8904106725621
 20
-127.60375295204
 10
105.0764458287656
 20
-127.3667303826549
 10
105.3896050083748
 20
-127.3667303826549
 10
105.7068983025663
 20
-127.3667303826549
 10
105.9418538146604
 20
-127.5910060987446
 10
105.9418538146604
 20
-127.8934854823495
 97
        0
 97
        0
 75
     2
 76
     1
 98
        0
  0
ENDBLK
  5
F9
330
F6
100
AcDbEntity
  8
0
100
AcDbBlockEnd
  0
BLOCK
  5
114
330
112
100
AcDbEntity
  8
0
100
AcDbBlockBegin
  2
block 7
 70
     0
 10
0.0
 20
0.0
 30
0.0
  3
block 7
  1

  0
SPLINE
  5
116
330
112
100
AcDbEntity
  8
_U+30EC_U+30A4_U+30E4_U+30FC 1
370
     0
100
AcDbSpline
210
0.0
220
0.0
230
1.0
 70
    11
 71
     3
 72
    26
 73
    22
 74
     0
 42
0.0000000001
 43
0.0000000001
 12
1.0
 22
0.0
 32
0.0
 13
1.0
 23
0.0
 33
0.0
 40
0.0
 40
0.0
 40
0.0
 40
0.0
 40
1.0
 40
1.0
 40
1.0
 40
2.0
 40
2.0
 40
2.0
 40
3.0
 40
3.0
 40
3.0
 40
4.0
 40
4.0
 40
4.0
 40
5.0
 40
5.0
 40
5.0
 40
6.0
 40
6.0
 40
6.0
 40
7.0
 40
7.0
 40
7.0
 40
7.0
 10
96.42029891252687
 20
-120.1282402585964
 30
0.0
 10
96.42029891252687
 20
-120.1282402585964
 30
0.0
 10
96.42029891252687
 20
-119.0239149007996
 30
0.0
 10
96.42029891252687
 20
-119.0239149007996
 30
0.0
 10
96.42029891252687
 20
-119.0239149007996
 30
0.0
 10
96.09025876503993
 20
-119.0239149007996
 30
0.0
 10
96.09025876503993
 20
-119.0239149007996
 30
0.0
 10
96.09025876503993
 20
-119.0239149007996
 30
0.0
 10
96.09025876503993
 20
-118.8759480497081
 30
0.0
 10
96.09025876503993
 20
-118.8759480497081
 30
0.0
 10
96.42236596981802
 20
-118.8611341391215
 30
0.0
 10
96.46887475886889
 20
-118.6981811226692
 30
0.0
 10
96.49850258004204
 20
-118.5839762073332
 30
0.0
 10
96.49850258004204
 20
-118.5839762073332
 30
0.0
 10
96.64457462861664
 20
-118.5839762073332
 30
0.0
 10
96.64457462861664
 20
-118.5839762073332
 30
0.0
 10
96.64457462861664
 20
-118.5839762073332
 30
0.0
 10
96.64457462861664
 20
-120.1282402585964
 30
0.0
 10
96.64457462861664
 20
-120.1282402585964
 30
0.0
 10
96.64457462861664
 20
-120.1282402585964
 30
0.0
 10
96.42029891252687
 20
-120.1282402585964
 30
0.0
 10
96.42029891252687
 20
-120.1282402585964
 30
0.0
  0
HATCH
  5
117
330
112
100
AcDbEntity
  8
_U+30EC_U+30A4_U+30E4_U+30FC 1
 62
   179
420
  2234388
100
AcDbHatch
 10
0.0
 20
0.0
 30
0.0
210
0.0
220
0.0
230
1.0
  2
SOLID
 70
     1
 71
     0
 91
        1
 92
        1
 93
        1
 72
     4
 94
        3
 73
     0
 74
     1
 95
       26
 96
       22
 40
0.0
 40
0.0
 40
0.0
 40
0.0
 40
1.0
 40
1.0
 40
1.0
 40
2.0
 40
2.0
 40
2.0
 40
3.0
 40
3.0
 40
3.0
 40
4.0
 40
4.0
 40
4.0
 40
5.0
 40
5.0
 40
5.0
 40
6.0
 40
6.0
 40
6.0
 40
7.0
 40
7.0
 40
7.0
 40
7.0
 10
96.42029891252687
 20
-120.1282402585964
 10
96.42029891252687
 20
-120.1282402585964
 10
96.42029891252687
 20
-119.0239149007996
 10
96.42029891252687
 20
-119.0239149007996
 10
96.42029891252687
 20
-119.0239149007996
 10
96.09025876503993
 20
-119.0239149007996
 10
96.09025876503993
 20
-119.0239149007996
 10
96.09025876503993
 20
-119.0239149007996
 10
96.09025876503993
 20
-118.8759480497081
 10
96.09025876503993
 20
-118.8759480497081
 10
96.42236596981802
 20
-118.8611341391215
 10
96.46887475886889
 20
-118.6981811226692
 10
96.49850258004204
 20
-118.5839762073332
 10
96.49850258004204
 20
-118.5839762073332
 10
96.64457462861664
 20
-118.5839762073332
 10
96.64457462861664
 20
-118.5839762073332
 10
96.64457462861664
 20
-118.5839762073332
 10
96.64457462861664
 20
-120.1282402585964
 10
96.64457462861664
 20
-120.1282402585964
 10
96.64457462861664
 20
-120.1282402585964
 10
96.42029891252687
 20
-120.1282402585964
 10
96.42029891252687
 20
-120.1282402585964
 97
        0
 97
        0
 75
     2
 76
     1
 98
        0
  0
SPLINE
  5
118
330
112
100
AcDbEntity
  8
_U+30EC_U+30A4_U+30E4_U+30FC 1
370
     0
100
AcDbSpline
210
0.0
220
0.0
230
1.0
 70
    11
 71
     3
 72
    62
 73
    58
 74
     0
 42
0.0000000001
 43
0.0000000001
 12
1.0
 22
0.0
 32
0.0
 13
1.0
 23
0.0
 33
0.0
 40
0.0
 40
0.0
 40
0.0
 40
0.0
 40
1.0
 40
1.0
 40
1.0
 40
2.0
 40
2.0
 40
2.0
 40
3.0
 40
3.0
 40
3.0
 40
4.0
 40
4.0
 40
4.0
 40
5.0
 40
5.0
 40
5.0
 40
6.0
 40
6.0
 40
6.0
 40
7.0
 40
7.0
 40
7.0
 40
8.0
 40
8.0
 40
8.0
 40
9.0
 40
9.0
 40
9.0
 40
10.0
 40
10.0
 40
10.0
 40
11.0
 40
11.0
 40
11.0
 40
12.0
 40
12.0
 40
12.0
 40
13.0
 40
13.0
 40
13.0
 40
14.0
 40
14.0
 40
14.0
 40
15.0
 40
15.0
 40
15.0
 40
16.0
 40
16.0
 40
16.0
 40
17.0
 40
17.0
 40
17.0
 40
18.0
 40
18.0
 40
18.0
 40
19.0
 40
19.0
 40
19.0
 40
19.0
 10
97.63745114746564
 20
-120.1790554170039
 30
0.0
 10
97.54202200252422
 20
-120.1790554170039
 30
0.0
 10
97.32429196785642
 20
-120.1578680797696
 30
0.0
 10
97.19923500174187
 20
-119.9716606687918
 30
0.0
 10
97.12550995835751
 20
-119.8595228107469
 30
0.0
 10
97.12103133422669
 20
-119.7601318059975
 30
0.0
 10
97.11689721964439
 20
-119.6755547118346
 30
0.0
 10
97.11689721964439
 20
-119.6755547118346
 30
0.0
 10
97.33703882115185
 20
-119.6755547118346
 30
0.0
 10
97.33703882115185
 20
-119.6755547118346
 30
0.0
 10
97.33910587844301
 20
-119.7496242647675
 30
0.0
 10
97.34944116489875
 20
-119.9844075220872
 30
0.0
 10
97.63297252333481
 20
-119.9844075220872
 30
0.0
 10
97.77043183319628
 20
-119.9844075220872
 30
0.0
 10
97.92304956319285
 20
-119.9146443385109
 30
0.0
 10
97.92304956319285
 20
-119.6860622530646
 30
0.0
 10
97.92304956319285
 20
-119.5697902804374
 30
0.0
 10
97.88480900330659
 20
-119.5210421793211
 30
0.0
 10
97.85311412484228
 20
-119.4893473008568
 30
0.0
 10
97.77904457190941
 20
-119.415277747924
 30
0.0
 10
97.66260034450796
 20
-119.4027031494028
 30
0.0
 10
97.60782332629249
 20
-119.4027031494028
 30
0.0
 10
97.5885307915751
 20
-119.4027031494028
 30
0.0
 10
97.5527017985285
 20
-119.404770206694
 30
0.0
 10
97.5251410346465
 20
-119.4090765760505
 30
0.0
 10
97.5251410346465
 20
-119.4090765760505
 30
0.0
 10
97.5251410346465
 20
-119.2144286811339
 30
0.0
 10
97.5251410346465
 20
-119.2144286811339
 30
0.0
 10
97.56338159453277
 20
-119.2208021077816
 30
0.0
 10
97.60541175945282
 20
-119.2228691650728
 30
0.0
 10
97.61195744087479
 20
-119.2228691650728
 30
0.0
 10
97.67741425509453
 20
-119.2228691650728
 30
0.0
 10
97.87619626459346
 20
-119.2016818278385
 30
0.0
 10
97.87619626459346
 20
-118.9646592584533
 30
0.0
 10
97.87619626459346
 20
-118.7870645861887
 30
0.0
 10
97.74528263615396
 20
-118.7321153131989
 30
0.0
 10
97.63503958062597
 20
-118.7321153131989
 30
0.0
 10
97.3708007569073
 20
-118.7321153131989
 30
0.0
 10
97.36218801819417
 20
-118.9646592584533
 30
0.0
 10
97.35805390361188
 20
-119.036661754095
 30
0.0
 10
97.35805390361188
 20
-119.036661754095
 30
0.0
 10
97.15479326998214
 20
-119.036661754095
 30
0.0
 10
97.15479326998214
 20
-119.036661754095
 30
0.0
 10
97.16340600869526
 20
-118.9117770427547
 30
0.0
 10
97.19096677257727
 20
-118.5352281062169
 30
0.0
 10
97.6477864339214
 20
-118.5352281062169
 30
0.0
 10
97.87206215001116
 20
-118.5352281062169
 30
0.0
 10
98.11321883397865
 20
-118.6621798748483
 30
0.0
 10
98.11321883397865
 20
-118.9584580865798
 30
0.0
 10
98.11321883397865
 20
-119.1444932427833
 30
0.0
 10
98.01813419858576
 20
-119.2270032796551
 30
0.0
 10
97.91857093906202
 20
-119.2884982340668
 30
0.0
 10
97.97989363869948
 20
-119.3158867431745
 30
0.0
 10
98.16179468032067
 20
-119.3963297227551
 30
0.0
 10
98.16179468032067
 20
-119.6734876545434
 30
0.0
 10
98.16179468032067
 20
-120.0119682859692
 30
0.0
 10
97.91443682447972
 20
-120.1790554170039
 30
0.0
 10
97.63745114746564
 20
-120.1790554170039
 30
0.0
  0
HATCH
  5
119
330
112
100
AcDbEntity
  8
_U+30EC_U+30A4_U+30E4_U+30FC 1
 62
   179
420
  2234388
100
AcDbHatch
 10
0.0
 20
0.0
 30
0.0
210
0.0
220
0.0
230
1.0
  2
SOLID
 70
     1
 71
     0
 91
        1
 92
        1
 93
        1
 72
     4
 94
        3
 73
     0
 74
     1
 95
       62
 96
       58
 40
0.0
 40
0.0
 40
0.0
 40
0.0
 40
1.0
 40
1.0
 40
1.0
 40
2.0
 40
2.0
 40
2.0
 40
3.0
 40
3.0
 40
3.0
 40
4.0
 40
4.0
 40
4.0
 40
5.0
 40
5.0
 40
5.0
 40
6.0
 40
6.0
 40
6.0
 40
7.0
 40
7.0
 40
7.0
 40
8.0
 40
8.0
 40
8.0
 40
9.0
 40
9.0
 40
9.0
 40
10.0
 40
10.0
 40
10.0
 40
11.0
 40
11.0
 40
11.0
 40
12.0
 40
12.0
 40
12.0
 40
13.0
 40
13.0
 40
13.0
 40
14.0
 40
14.0
 40
14.0
 40
15.0
 40
15.0
 40
15.0
 40
16.0
 40
16.0
 40
16.0
 40
17.0
 40
17.0
 40
17.0
 40
18.0
 40
18.0
 40
18.0
 40
19.0
 40
19.0
 40
19.0
 40
19.0
 10
97.63745114746564
 20
-120.1790554170039
 10
97.54202200252422
 20
-120.1790554170039
 10
97.32429196785642
 20
-120.1578680797696
 10
97.19923500174187
 20
-119.9716606687918
 10
97.12550995835751
 20
-119.8595228107469
 10
97.12103133422669
 20
-119.7601318059975
 10
97.11689721964439
 20
-119.6755547118346
 10
97.11689721964439
 20
-119.6755547118346
 10
97.33703882115185
 20
-119.6755547118346
 10
97.33703882115185
 20
-119.6755547118346
 10
97.33910587844301
 20
-119.7496242647675
 10
97.34944116489875
 20
-119.9844075220872
 10
97.63297252333481
 20
-119.9844075220872
 10
97.77043183319628
 20
-119.9844075220872
 10
97.92304956319285
 20
-119.9146443385109
 10
97.92304956319285
 20
-119.6860622530646
 10
97.92304956319285
 20
-119.5697902804374
 10
97.88480900330659
 20
-119.5210421793211
 10
97.85311412484228
 20
-119.4893473008568
 10
97.77904457190941
 20
-119.415277747924
 10
97.66260034450796
 20
-119.4027031494028
 10
97.60782332629249
 20
-119.4027031494028
 10
97.5885307915751
 20
-119.4027031494028
 10
97.5527017985285
 20
-119.404770206694
 10
97.5251410346465
 20
-119.4090765760505
 10
97.5251410346465
 20
-119.4090765760505
 10
97.5251410346465
 20
-119.2144286811339
 10
97.5251410346465
 20
-119.2144286811339
 10
97.56338159453277
 20
-119.2208021077816
 10
97.60541175945282
 20
-119.2228691650728
 10
97.61195744087479
 20
-119.2228691650728
 10
97.67741425509453
 20
-119.2228691650728
 10
97.87619626459346
 20
-119.2016818278385
 10
97.87619626459346
 20
-118.9646592584533
 10
97.87619626459346
 20
-118.7870645861887
 10
97.74528263615396
 20
-118.7321153131989
 10
97.63503958062597
 20
-118.7321153131989
 10
97.3708007569073
 20
-118.7321153131989
 10
97.36218801819417
 20
-118.9646592584533
 10
97.35805390361188
 20
-119.036661754095
 10
97.35805390361188
 20
-119.036661754095
 10
97.15479326998214
 20
-119.036661754095
 10
97.15479326998214
 20
-119.036661754095
 10
97.16340600869526
 20
-118.9117770427547
 10
97.19096677257727
 20
-118.5352281062169
 10
97.6477864339214
 20
-118.5352281062169
 10
97.87206215001116
 20
-118.5352281062169
 10
98.11321883397865
 20
-118.6621798748483
 10
98.11321883397865
 20
-118.9584580865798
 10
98.11321883397865
 20
-119.1444932427833
 10
98.01813419858576
 20
-119.2270032796551
 10
97.91857093906202
 20
-119.2884982340668
 10
97.97989363869948
 20
-119.3158867431745
 10
98.16179468032067
 20
-119.3963297227551
 10
98.16179468032067
 20
-119.6734876545434
 10
98.16179468032067
 20
-120.0119682859692
 10
97.91443682447972
 20
-120.1790554170039
 10
97.63745114746564
 20
-120.1790554170039
 97
        0
 97
        0
 75
     2
 76
     1
 98
        0
  0
ENDBLK
  5
115
330
112
100
AcDbEntity
  8
0
100
AcDbBlockEnd
  0
ENDSEC
  0
SECTION
  2
ENTITIES
  0
SPLINE
  5
41
330
1F
100
AcDbEntity
  8
_U+30EC_U+30A4_U+30E4_U+30FC 1
 62
   179
420
  2234388
370
     9
100
AcDbSpline
210
0.0
220
0.0
230
1.0
 70
    11
 71
     3
 72
    17
 73
    13
 74
     0
 42
0.0000000001
 43
0.0000000001
 12
1.0
 22
0.0
 32
0.0
 13
1.0
 23
0.0
 33
0.0
 40
0.0
 40
0.0
 40
0.0
 40
0.0
 40
1.0
 40
1.0
 40
1.0
 40
2.0
 40
2.0
 40
2.0
 40
3.0
 40
3.0
 40
3.0
 40
4.0
 40
4.0
 40
4.0
 40
4.0
 10
80.65124210908206
 20
-138.5011199653747
 30
0.0
 10
80.65124210908206
 20
-138.4459807987216
 30
0.0
 10
80.6064393324473
 20
-138.4012132987331
 30
0.0
 10
80.55098266719544
 20
-138.4012132987331
 30
0.0
 10
80.4958435019355
 20
-138.4012132987331
 30
0.0
 10
80.45107600307762
 20
-138.4459807987216
 30
0.0
 10
80.45107600307762
 20
-138.5011199653747
 30
0.0
 10
80.45107600307762
 20
-138.5562238542496
 30
0.0
 10
80.4958435019355
 20
-138.6010266320164
 30
0.0
 10
80.55098266719544
 20
-138.6010266320164
 30
0.0
 10
80.6064393324473
 20
-138.6010266320164
 30
0.0
 10
80.65124210908206
 20
-138.5562238542496
 30
0.0
 10
80.65124210908206
 20
-138.5011199653747
 30
0.0
  0
SPLINE
  5
42
330
1F
100
AcDbEntity
  8
_U+30EC_U+30A4_U+30E4_U+30FC 1
 62
   179
420
  2234388
370
     9
100
AcDbSpline
210
0.0
220
0.0
230
1.0
 70
    11
 71
     3
 72
    17
 73
    13
 74
     0
 42
0.0000000001
 43
0.0000000001
 12
1.0
 22
0.0
 32
0.0
 13
1.0
 23
0.0
 33
0.0
 40
0.0
 40
0.0
 40
0.0
 40
0.0
 40
1.0
 40
1.0
 40
1.0
 40
2.0
 40
2.0
 40
2.0
 40
3.0
 40
3.0
 40
3.0
 40
4.0
 40
4.0
 40
4.0
 40
4.0
 10
85.61129753809607
 20
-138.5011199653747
 30
0.0
 10
85.61129753809607
 20
-138.4459807987216
 30
0.0
 10
85.56653003923817
 20
-138.4012132987331
 30
0.0
 10
85.51139087397823
 20
-138.4012132987331
 30
0.0
 10
85.45593420872638
 20
-138.4012132987331
 30
0.0
 10
85.4111667098685
 20
-138.4459807987216
 30
0.0
 10
85.4111667098685
 20
-138.5011199653747
 30
0.0
 10
85.4111667098685
 20
-138.5562238542496
 30
0.0
 10
85.45593420872638
 20
-138.6010266320164
 30
0.0
 10
85.51139087397823
 20
-138.6010266320164
 30
0.0
 10
85.56653003923817
 20
-138.6010266320164
 30
0.0
 10
85.61129753809607
 20
-138.5562238542496
 30
0.0
 10
85.61129753809607
 20
-138.5011199653747
 30
0.0
  0
POLYLINE
  5
43
330
1F
100
AcDbEntity
  8
_U+30EC_U+30A4_U+30E4_U+30FC 1
 62
   179
420
  2234388
370
     9
100
AcDb2dPolyline
 66
     1
 10
0.0
 20
0.0
 30
0.0
  0
VERTEX
  5
44
330
43
100
AcDbEntity
  8
_U+30EC_U+30A4_U+30E4_U+30FC 1
 62
   179
420
  2234388
370
     9
100
AcDbVertex
100
AcDb2dVertex
 10
80.55098266719544
 20
-138.5011199653747
 30
0.0
  0
VERTEX
  5
45
330
43
100
AcDbEntity
  8
_U+30EC_U+30A4_U+30E4_U+30FC 1
 62
   179
420
  2234388
370
     9
100
AcDbVertex
100
AcDb2dVertex
 10
85.55100781741196
 20
-138.5011199653747
 30
0.0
  0
SEQEND
  5
46
330
43
100
AcDbEntity
  8
_U+30EC_U+30A4_U+30E4_U+30FC 1
 62
   179
420
  2234388
370
     9
  0
POLYLINE
  5
47
330
1F
100
AcDbEntity
  8
_U+30EC_U+30A4_U+30E4_U+30FC 1
 62
   179
420
  2234388
370
     9
100
AcDb2dPolyline
 66
     1
 10
0.0
 20
0.0
 30
0.0
  0
VERTEX
  5
48
330
47
100
AcDbEntity
  8
_U+30EC_U+30A4_U+30E4_U+30FC 1
 62
   179
420
  2234388
370
     9
100
AcDbVertex
100
AcDb2dVertex
 10
80.55098266719544
 20
-137.041078576851
 30
0.0
  0
VERTEX
  5
49
330
47
100
AcDbEntity
  8
_U+30EC_U+30A4_U+30E4_U+30FC 1
 62
   179
420
  2234388
370
     9
100
AcDbVertex
100
AcDb2dVertex
 10
80.55098266719544
 20
-139.5008569095691
 30
0.0
  0
SEQEND
  5
4A
330
47
100
AcDbEntity
  8
_U+30EC_U+30A4_U+30E4_U+30FC 1
 62
   179
420
  2234388
370
     9
  0
POLYLINE
  5
4B
330
1F
100
AcDbEntity
  8
_U+30EC_U+30A4_U+30E4_U+30FC 1
 62
   179
420
  2234388
370
     9
100
AcDb2dPolyline
 66
     1
 10
0.0
 20
0.0
 30
0.0
  0
VERTEX
  5
4C
330
4B
100
AcDbEntity
  8
_U+30EC_U+30A4_U+30E4_U+30FC 1
 62
   179
420
  2234388
370
     9
100
AcDbVertex
100
AcDb2dVertex
 10
85.51139087397823
 20
-137.041078576851
 30
0.0
  0
VERTEX
  5
4D
330
4B
100
AcDbEntity
  8
_U+30EC_U+30A4_U+30E4_U+30FC 1
 62
   179
420
  2234388
370
     9
100
AcDbVertex
100
AcDb2dVertex
 10
85.51139087397823
 20
-139.5008569095691
 30
0.0
  0
SEQEND
  5
4E
330
4B
100
AcDbEntity
  8
_U+30EC_U+30A4_U+30E4_U+30FC 1
 62
   179
420
  2234388
370
     9
  0
INSERT
  5
50
330
1F
100
AcDbEntity
  8
_U+30EC_U+30A4_U+30E4_U+30FC 1
100
AcDbBlockReference
  2
block 2
 10
0.0
 20
0.0
 30
0.0
  0
SPLINE
  5
55
330
1F
100
AcDbEntity
  8
_U+30EC_U+30A4_U+30E4_U+30FC 1
 62
   179
420
  2234388
370
    25
100
AcDbSpline
210
0.0
220
0.0
230
1.0
 70
    11
 71
     3
 72
    17
 73
    13
 74
     0
 42
0.0000000001
 43
0.0000000001
 12
1.0
 22
0.0
 32
0.0
 13
1.0
 23
0.0
 33
0.0
 40
0.0
 40
0.0
 40
0.0
 40
0.0
 40
1.0
 40
1.0
 40
1.0
 40
2.0
 40
2.0
 40
2.0
 40
3.0
 40
3.0
 40
3.0
 40
4.0
 40
4.0
 40
4.0
 40
4.0
 10
80.58647211073448
 20
-134.5006552441523
 30
0.0
 10
80.58647211073448
 20
-134.5206577441477
 30
0.0
 10
80.57063238891637
 20
-134.5364974663662
 30
0.0
 10
80.55098266719544
 20
-134.5364974663662
 30
0.0
 10
80.53168572324331
 20
-134.5364974663662
 30
0.0
 10
80.51584600142519
 20
-134.5206577441477
 30
0.0
 10
80.51584600142519
 20
-134.5006552441523
 30
0.0
 10
80.51584600142519
 20
-134.4813582997131
 30
0.0
 10
80.53168572324331
 20
-134.4655185774946
 30
0.0
 10
80.55098266719544
 20
-134.4655185774946
 30
0.0
 10
80.57063238891637
 20
-134.4655185774946
 30
0.0
 10
80.58647211073448
 20
-134.4813582997131
 30
0.0
 10
80.58647211073448
 20
-134.5006552441523
 30
0.0
  0
SPLINE
  5
56
330
1F
100
AcDbEntity
  8
_U+30EC_U+30A4_U+30E4_U+30FC 1
 62
   179
420
  2234388
370
     9
100
AcDbSpline
210
0.0
220
0.0
230
1.0
 70
    11
 71
     3
 72
    17
 73
    13
 74
     0
 42
0.0000000001
 43
0.0000000001
 12
1.0
 22
0.0
 32
0.0
 13
1.0
 23
0.0
 33
0.0
 40
0.0
 40
0.0
 40
0.0
 40
0.0
 40
1.0
 40
1.0
 40
1.0
 40
2.0
 40
2.0
 40
2.0
 40
3.0
 40
3.0
 40
3.0
 40
4.0
 40
4.0
 40
4.0
 40
4.0
 10
85.54652753974848
 20
-138.5011199653747
 30
0.0
 10
85.54652753974848
 20
-138.5204169098145
 30
0.0
 10
85.53068781793037
 20
-138.5362566320324
 30
0.0
 10
85.51139087397823
 20
-138.5362566320324
 30
0.0
 10
85.4917764300342
 20
-138.5362566320324
 30
0.0
 10
85.4759014304392
 20
-138.5204169098145
 30
0.0
 10
85.4759014304392
 20
-138.5011199653747
 30
0.0
 10
85.4759014304392
 20
-138.48111746538
 30
0.0
 10
85.4917764300342
 20
-138.465983298717
 30
0.0
 10
85.51139087397823
 20
-138.465983298717
 30
0.0
 10
85.53068781793037
 20
-138.465983298717
 30
0.0
 10
85.54652753974848
 20
-138.48111746538
 30
0.0
 10
85.54652753974848
 20
-138.5011199653747
 30
0.0
  0
POLYLINE
  5
57
330
1F
100
AcDbEntity
  8
_U+30EC_U+30A4_U+30E4_U+30FC 1
 62
   179
420
  2234388
370
    25
100
AcDb2dPolyline
 66
     1
 10
0.0
 20
0.0
 30
0.0
  0
VERTEX
  5
58
330
57
100
AcDbEntity
  8
_U+30EC_U+30A4_U+30E4_U+30FC 1
 62
   179
420
  2234388
370
    25
100
AcDbVertex
100
AcDb2dVertex
 10
90.55759463412772
 20
-124.5009221910971
 30
0.0
  0
VERTEX
  5
59
330
57
100
AcDbEntity
  8
_U+30EC_U+30A4_U+30E4_U+30FC 1
 62
   179
420
  2234388
370
    25
100
AcDbVertex
100
AcDb2dVertex
 10
90.55759463412772
 20
-133.0006794111942
 30
0.0
  0
SEQEND
  5
5A
330
57
100
AcDbEntity
  8
_U+30EC_U+30A4_U+30E4_U+30FC 1
 62
   179
420
  2234388
370
    25
  0
POLYLINE
  5
5B
330
1F
100
AcDbEntity
  8
_U+30EC_U+30A4_U+30E4_U+30FC 1
 62
   179
420
  2234388
370
    25
100
AcDb2dPolyline
 66
     1
 10
0.0
 20
0.0
 30
0.0
  0
VERTEX
  5
5C
330
5B
100
AcDbEntity
  8
_U+30EC_U+30A4_U+30E4_U+30FC 1
 62
   179
420
  2234388
370
    25
100
AcDbVertex
100
AcDb2dVertex
 10
80.55754433369471
 20
-124.5009221910971
 30
0.0
  0
VERTEX
  5
5D
330
5B
100
AcDbEntity
  8
_U+30EC_U+30A4_U+30E4_U+30FC 1
 62
   179
420
  2234388
370
    25
100
AcDbVertex
100
AcDb2dVertex
 10
90.55759463412772
 20
-124.5009221910971
 30
0.0
  0
SEQEND
  5
5E
330
5B
100
AcDbEntity
  8
_U+30EC_U+30A4_U+30E4_U+30FC 1
 62
   179
420
  2234388
370
    25
  0
POLYLINE
  5
5F
330
1F
100
AcDbEntity
  8
_U+30EC_U+30A4_U+30E4_U+30FC 1
 62
   179
420
  2234388
370
    25
100
AcDb2dPolyline
 66
     1
 10
0.0
 20
0.0
 30
0.0
  0
VERTEX
  5
60
330
5F
100
AcDbEntity
  8
_U+30EC_U+30A4_U+30E4_U+30FC 1
 62
   179
420
  2234388
370
    25
100
AcDbVertex
100
AcDb2dVertex
 10
80.55754433369471
 20
-124.5009221910971
 30
0.0
  0
VERTEX
  5
61
330
5F
100
AcDbEntity
  8
_U+30EC_U+30A4_U+30E4_U+30FC 1
 62
   179
420
  2234388
370
    25
100
AcDbVertex
100
AcDb2dVertex
 10
80.55754433369471
 20
-134.5006552441523
 30
0.0
  0
SEQEND
  5
62
330
5F
100
AcDbEntity
  8
_U+30EC_U+30A4_U+30E4_U+30FC 1
 62
   179
420
  2234388
370
    25
  0
POLYLINE
  5
63
330
1F
100
AcDbEntity
  8
_U+30EC_U+30A4_U+30E4_U+30FC 1
 62
   179
420
  2234388
370
    25
100
AcDb2dPolyline
 66
     1
 10
0.0
 20
0.0
 30
0.0
  0
VERTEX
  5
64
330
63
100
AcDbEntity
  8
_U+30EC_U+30A4_U+30E4_U+30FC 1
 62
   179
420
  2234388
370
    25
100
AcDbVertex
100
AcDb2dVertex
 10
80.55754433369471
 20
-134.5006552441523
 30
0.0
  0
VERTEX
  5
65
330
63
100
AcDbEntity
  8
_U+30EC_U+30A4_U+30E4_U+30FC 1
 62
   179
420
  2234388
370
    25
100
AcDbVertex
100
AcDb2dVertex
 10
85.55756948391122
 20
-134.5006552441523
 30
0.0
  0
SEQEND
  5
66
330
63
100
AcDbEntity
  8
_U+30EC_U+30A4_U+30E4_U+30FC 1
 62
   179
420
  2234388
370
    25
  0
POLYLINE
  5
67
330
1F
100
AcDbEntity
  8
_U+30EC_U+30A4_U+30E4_U+30FC 1
 62
   179
420
  2234388
370
     9
100
AcDb2dPolyline
 66
     1
 10
0.0
 20
0.0
 30
0.0
  0
VERTEX
  5
68
330
67
100
AcDbEntity
  8
_U+30EC_U+30A4_U+30E4_U+30FC 1
 62
   179
420
  2234388
370
     9
100
AcDbVertex
100
AcDb2dVertex
 10
90.55759463412772
 20
-133.0006794111942
 30
0.0
  0
VERTEX
  5
69
330
67
100
AcDbEntity
  8
_U+30EC_U+30A4_U+30E4_U+30FC 1
 62
   179
420
  2234388
370
     9
100
AcDbVertex
100
AcDb2dVertex
 10
97.457610291427
 20
-133.0006794111942
 30
0.0
  0
SEQEND
  5
6A
330
67
100
AcDbEntity
  8
_U+30EC_U+30A4_U+30E4_U+30FC 1
 62
   179
420
  2234388
370
     9
  0
POLYLINE
  5
6B
330
1F
100
AcDbEntity
  8
_U+30EC_U+30A4_U+30E4_U+30FC 1
 62
   179
420
  2234388
370
     9
100
AcDb2dPolyline
 66
     1
 10
0.0
 20
0.0
 30
0.0
  0
VERTEX
  5
6C
330
6B
100
AcDbEntity
  8
_U+30EC_U+30A4_U+30E4_U+30FC 1
 62
   179
420
  2234388
370
     9
100
AcDbVertex
100
AcDb2dVertex
 10
89.05761883906197
 20
-126.000933301833
 30
0.0
  0
VERTEX
  5
6D
330
6B
100
AcDbEntity
  8
_U+30EC_U+30A4_U+30E4_U+30FC 1
 62
   179
420
  2234388
370
     9
100
AcDbVertex
100
AcDb2dVertex
 10
89.05761883906197
 20
-134.5006552441523
 30
0.0
  0
SEQEND
  5
6E
330
6B
100
AcDbEntity
  8
_U+30EC_U+30A4_U+30E4_U+30FC 1
 62
   179
420
  2234388
370
     9
  0
POLYLINE
  5
6F
330
1F
100
AcDbEntity
  8
_U+30EC_U+30A4_U+30E4_U+30FC 1
 62
   179
420
  2234388
370
     9
100
AcDb2dPolyline
 66
     1
 10
0.0
 20
0.0
 30
0.0
  0
VERTEX
  5
70
330
6F
100
AcDbEntity
  8
_U+30EC_U+30A4_U+30E4_U+30FC 1
 62
   179
420
  2234388
370
     9
100
AcDbVertex
100
AcDb2dVertex
 10
85.61803559347972
 20
-133.0506327445154
 30
0.0
  0
VERTEX
  5
71
330
6F
100
AcDbEntity
  8
_U+30EC_U+30A4_U+30E4_U+30FC 1
 62
   179
420
  2234388
370
     9
100
AcDbVertex
100
AcDb2dVertex
 10
85.61803559347972
 20
-134.5006552441523
 30
0.0
  0
SEQEND
  5
72
330
6F
100
AcDbEntity
  8
_U+30EC_U+30A4_U+30E4_U+30FC 1
 62
   179
420
  2234388
370
     9
  0
POLYLINE
  5
73
330
1F
100
AcDbEntity
  8
_U+30EC_U+30A4_U+30E4_U+30FC 1
 62
   179
420
  2234388
370
     9
100
AcDb2dPolyline
 66
     1
 10
0.0
 20
0.0
 30
0.0
  0
VERTEX
  5
74
330
73
100
AcDbEntity
  8
_U+30EC_U+30A4_U+30E4_U+30FC 1
 62
   179
420
  2234388
370
     9
100
AcDbVertex
100
AcDb2dVertex
 10
82.05752220170794
 20
-126.000933301833
 30
0.0
  0
VERTEX
  5
75
330
73
100
AcDbEntity
  8
_U+30EC_U+30A4_U+30E4_U+30FC 1
 62
   179
420
  2234388
370
     9
100
AcDbVertex
100
AcDb2dVertex
 10
89.05761883906197
 20
-126.000933301833
 30
0.0
  0
SEQEND
  5
76
330
73
100
AcDbEntity
  8
_U+30EC_U+30A4_U+30E4_U+30FC 1
 62
   179
420
  2234388
370
     9
  0
POLYLINE
  5
77
330
1F
100
AcDbEntity
  8
_U+30EC_U+30A4_U+30E4_U+30FC 1
 62
   179
420
  2234388
370
     9
100
AcDb2dPolyline
 66
     1
 10
0.0
 20
0.0
 30
0.0
  0
VERTEX
  5
78
330
77
100
AcDbEntity
  8
_U+30EC_U+30A4_U+30E4_U+30FC 1
 62
   179
420
  2234388
370
     9
100
AcDbVertex
100
AcDb2dVertex
 10
82.05752220170794
 20
-126.000933301833
 30
0.0
  0
VERTEX
  5
79
330
77
100
AcDbEntity
  8
_U+30EC_U+30A4_U+30E4_U+30FC 1
 62
   179
420
  2234388
370
     9
100
AcDbVertex
100
AcDb2dVertex
 10
82.05752220170794
 20
-133.0009969111944
 30
0.0
  0
SEQEND
  5
7A
330
77
100
AcDbEntity
  8
_U+30EC_U+30A4_U+30E4_U+30FC 1
 62
   179
420
  2234388
370
     9
  0
SPLINE
  5
7B
330
1F
100
AcDbEntity
  8
_U+30EC_U+30A4_U+30E4_U+30FC 1
 62
   179
420
  2234388
370
     9
100
AcDbSpline
210
0.0
220
0.0
230
1.0
 70
    11
 71
     3
 72
    17
 73
    13
 74
     0
 42
0.0000000001
 43
0.0000000001
 12
1.0
 22
0.0
 32
0.0
 13
1.0
 23
0.0
 33
0.0
 40
0.0
 40
0.0
 40
0.0
 40
0.0
 40
1.0
 40
1.0
 40
1.0
 40
2.0
 40
2.0
 40
2.0
 40
3.0
 40
3.0
 40
3.0
 40
4.0
 40
4.0
 40
4.0
 40
4.0
 10
78.12044967364795
 20
-124.5009221910971
 30
0.0
 10
78.12044967364795
 20
-124.4458183022218
 30
0.0
 10
78.07568217479007
 20
-124.4010155244554
 30
0.0
 10
78.02054300953012
 20
-124.4010155244554
 30
0.0
 10
77.96543912204704
 20
-124.4010155244554
 30
0.0
 10
77.92063634541229
 20
-124.4458183022218
 30
0.0
 10
77.92063634541229
 20
-124.5009221910971
 30
0.0
 10
77.92063634541229
 20
-124.5560613577498
 30
0.0
 10
77.96543912204704
 20
-124.6008288577387
 30
0.0
 10
78.02054300953012
 20
-124.6008288577387
 30
0.0
 10
78.07568217479007
 20
-124.6008288577387
 30
0.0
 10
78.12044967364795
 20
-124.5560613577498
 30
0.0
 10
78.12044967364795
 20
-124.5009221910971
 30
0.0
  0
SPLINE
  5
7C
330
1F
100
AcDbEntity
  8
_U+30EC_U+30A4_U+30E4_U+30FC 1
 62
   179
420
  2234388
370
     9
100
AcDbSpline
210
0.0
220
0.0
230
1.0
 70
    11
 71
     3
 72
    17
 73
    13
 74
     0
 42
0.0000000001
 43
0.0000000001
 12
1.0
 22
0.0
 32
0.0
 13
1.0
 23
0.0
 33
0.0
 40
0.0
 40
0.0
 40
0.0
 40
0.0
 40
1.0
 40
1.0
 40
1.0
 40
2.0
 40
2.0
 40
2.0
 40
3.0
 40
3.0
 40
3.0
 40
4.0
 40
4.0
 40
4.0
 40
4.0
 10
78.12044967364795
 20
-134.5006552441523
 30
0.0
 10
78.12044967364795
 20
-134.4455513552774
 30
0.0
 10
78.07568217479007
 20
-134.4007485775107
 30
0.0
 10
78.02054300953012
 20
-134.4007485775107
 30
0.0
 10
77.96543912204704
 20
-134.4007485775107
 30
0.0
 10
77.92063634541229
 20
-134.4455513552774
 30
0.0
 10
77.92063634541229
 20
-134.5006552441523
 30
0.0
 10
77.92063634541229
 20
-134.5564646885834
 30
0.0
 10
77.96543912204704
 20
-134.6012674663495
 30
0.0
 10
78.02054300953012
 20
-134.6012674663495
 30
0.0
 10
78.07568217479007
 20
-134.6012674663495
 30
0.0
 10
78.12044967364795
 20
-134.5564646885834
 30
0.0
 10
78.12044967364795
 20
-134.5006552441523
 30
0.0
  0
SPLINE
  5
7D
330
1F
100
AcDbEntity
  8
_U+30EC_U+30A4_U+30E4_U+30FC 1
 62
   179
420
  2234388
370
     9
100
AcDbSpline
210
0.0
220
0.0
230
1.0
 70
    11
 71
     3
 72
    17
 73
    13
 74
     0
 42
0.0000000001
 43
0.0000000001
 12
1.0
 22
0.0
 32
0.0
 13
1.0
 23
0.0
 33
0.0
 40
0.0
 40
0.0
 40
0.0
 40
0.0
 40
1.0
 40
1.0
 40
1.0
 40
2.0
 40
2.0
 40
2.0
 40
3.0
 40
3.0
 40
3.0
 40
4.0
 40
4.0
 40
4.0
 40
4.0
 10
80.65745099781255
 20
-120.5011630254302
 30
0.0
 10
80.65745099781255
 20
-120.4460591365552
 30
0.0
 10
80.61264822117778
 20
-120.4012563587885
 30
0.0
 10
80.55754433369471
 20
-120.4012563587885
 30
0.0
 10
80.50240516843476
 20
-120.4012563587885
 30
0.0
 10
80.4576023918
 20
-120.4460591365552
 30
0.0
 10
80.4576023918
 20
-120.5011630254302
 30
0.0
 10
80.4576023918
 20
-120.5563021920833
 30
0.0
 10
80.50240516843476
 20
-120.6010696920721
 30
0.0
 10
80.55754433369471
 20
-120.6010696920721
 30
0.0
 10
80.61264822117778
 20
-120.6010696920721
 30
0.0
 10
80.65745099781255
 20
-120.5563021920833
 30
0.0
 10
80.65745099781255
 20
-120.5011630254302
 30
0.0
  0
SPLINE
  5
7E
330
1F
100
AcDbEntity
  8
_U+30EC_U+30A4_U+30E4_U+30FC 1
 62
   179
420
  2234388
370
     9
100
AcDbSpline
210
0.0
220
0.0
230
1.0
 70
    11
 71
     3
 72
    17
 73
    13
 74
     0
 42
0.0000000001
 43
0.0000000001
 12
1.0
 22
0.0
 32
0.0
 13
1.0
 23
0.0
 33
0.0
 40
0.0
 40
0.0
 40
0.0
 40
0.0
 40
1.0
 40
1.0
 40
1.0
 40
2.0
 40
2.0
 40
2.0
 40
3.0
 40
3.0
 40
3.0
 40
4.0
 40
4.0
 40
4.0
 40
4.0
 10
90.65750129824556
 20
-120.5011630254302
 30
0.0
 10
90.65750129824556
 20
-120.4460591365552
 30
0.0
 10
90.61273608845778
 20
-120.4012563587885
 30
0.0
 10
90.55759463412772
 20
-120.4012563587885
 30
0.0
 10
90.50213796887589
 20
-120.4012563587885
 30
0.0
 10
90.45737047001799
 20
-120.4460591365552
 30
0.0
 10
90.45737047001799
 20
-120.5011630254302
 30
0.0
 10
90.45737047001799
 20
-120.5563021920833
 30
0.0
 10
90.50213796887589
 20
-120.6010696920721
 30
0.0
 10
90.55759463412772
 20
-120.6010696920721
 30
0.0
 10
90.61273608845778
 20
-120.6010696920721
 30
0.0
 10
90.65750129824556
 20
-120.5563021920833
 30
0.0
 10
90.65750129824556
 20
-120.5011630254302
 30
0.0
  0
SPLINE
  5
7F
330
1F
100
AcDbEntity
  8
_U+30EC_U+30A4_U+30E4_U+30FC 1
 62
   179
420
  2234388
370
     9
100
AcDbSpline
210
0.0
220
0.0
230
1.0
 70
    11
 71
     3
 72
    17
 73
    13
 74
     0
 42
0.0000000001
 43
0.0000000001
 12
1.0
 22
0.0
 32
0.0
 13
1.0
 23
0.0
 33
0.0
 40
0.0
 40
0.0
 40
0.0
 40
0.0
 40
1.0
 40
1.0
 40
1.0
 40
2.0
 40
2.0
 40
2.0
 40
3.0
 40
3.0
 40
3.0
 40
4.0
 40
4.0
 40
4.0
 40
4.0
 10
106.3638731197649
 20
-133.0006794111942
 30
0.0
 10
106.3638731197649
 20
-132.9455402445411
 30
0.0
 10
106.3191083067537
 20
-132.9007727445526
 30
0.0
 10
106.263966455647
 20
-132.9007727445526
 30
0.0
 10
106.208862568164
 20
-132.9007727445526
 30
0.0
 10
106.1640597915292
 20
-132.9455402445411
 30
0.0
 10
106.1640597915292
 20
-133.0006794111942
 30
0.0
 10
106.1640597915292
 20
-133.0564888556247
 30
0.0
 10
106.208862568164
 20
-133.1012563556139
 30
0.0
 10
106.263966455647
 20
-133.1012563556139
 30
0.0
 10
106.3191083067537
 20
-133.1012563556139
 30
0.0
 10
106.3638731197649
 20
-133.0564888556247
 30
0.0
 10
106.3638731197649
 20
-133.0006794111942
 30
0.0
  0
SPLINE
  5
80
330
1F
100
AcDbEntity
  8
_U+30EC_U+30A4_U+30E4_U+30FC 1
 62
   179
420
  2234388
370
     9
100
AcDbSpline
210
0.0
220
0.0
230
1.0
 70
    11
 71
     3
 72
    17
 73
    13
 74
     0
 42
0.0000000001
 43
0.0000000001
 12
1.0
 22
0.0
 32
0.0
 13
1.0
 23
0.0
 33
0.0
 40
0.0
 40
0.0
 40
0.0
 40
0.0
 40
1.0
 40
1.0
 40
1.0
 40
2.0
 40
2.0
 40
2.0
 40
3.0
 40
3.0
 40
3.0
 40
4.0
 40
4.0
 40
4.0
 40
4.0
 10
106.3638731197649
 20
-134.5006552441523
 30
0.0
 10
106.3638731197649
 20
-134.4455513552774
 30
0.0
 10
106.3191083067537
 20
-134.4007485775107
 30
0.0
 10
106.263966455647
 20
-134.4007485775107
 30
0.0
 10
106.208862568164
 20
-134.4007485775107
 30
0.0
 10
106.1640597915292
 20
-134.4455513552774
 30
0.0
 10
106.1640597915292
 20
-134.5006552441523
 30
0.0
 10
106.1640597915292
 20
-134.5564646885834
 30
0.0
 10
106.208862568164
 20
-134.6012674663495
 30
0.0
 10
106.263966455647
 20
-134.6012674663495
 30
0.0
 10
106.3191083067537
 20
-134.6012674663495
 30
0.0
 10
106.3638731197649
 20
-134.5564646885834
 30
0.0
 10
106.3638731197649
 20
-134.5006552441523
 30
0.0
  0
POLYLINE
  5
81
330
1F
100
AcDbEntity
  8
_U+30EC_U+30A4_U+30E4_U+30FC 1
 62
   179
420
  2234388
370
     9
100
AcDb2dPolyline
 66
     1
 10
0.0
 20
0.0
 30
0.0
  0
VERTEX
  5
82
330
81
100
AcDbEntity
  8
_U+30EC_U+30A4_U+30E4_U+30FC 1
 62
   179
420
  2234388
370
     9
100
AcDbVertex
100
AcDb2dVertex
 10
106.263966455647
 20
-133.0006794111942
 30
0.0
  0
VERTEX
  5
83
330
81
100
AcDbEntity
  8
_U+30EC_U+30A4_U+30E4_U+30FC 1
 62
   179
420
  2234388
370
     9
100
AcDbVertex
100
AcDb2dVertex
 10
106.263966455647
 20
-124.4960891355426
 30
0.0
  0
SEQEND
  5
84
330
81
100
AcDbEntity
  8
_U+30EC_U+30A4_U+30E4_U+30FC 1
 62
   179
420
  2234388
370
     9
  0
POLYLINE
  5
85
330
1F
100
AcDbEntity
  8
_U+30EC_U+30A4_U+30E4_U+30FC 1
 62
   179
420
  2234388
370
     9
100
AcDb2dPolyline
 66
     1
 10
0.0
 20
0.0
 30
0.0
  0
VERTEX
  5
86
330
85
100
AcDbEntity
  8
_U+30EC_U+30A4_U+30E4_U+30FC 1
 62
   179
420
  2234388
370
     9
100
AcDbVertex
100
AcDb2dVertex
 10
106.263966455647
 20
-133.0006794111942
 30
0.0
  0
VERTEX
  5
87
330
85
100
AcDbEntity
  8
_U+30EC_U+30A4_U+30E4_U+30FC 1
 62
   179
420
  2234388
370
     9
100
AcDbVertex
100
AcDb2dVertex
 10
106.263966455647
 20
-139.1167524652208
 30
0.0
  0
SEQEND
  5
88
330
85
100
AcDbEntity
  8
_U+30EC_U+30A4_U+30E4_U+30FC 1
 62
   179
420
  2234388
370
     9
  0
POLYLINE
  5
89
330
1F
100
AcDbEntity
  8
_U+30EC_U+30A4_U+30E4_U+30FC 1
 62
   179
420
  2234388
370
     9
100
AcDb2dPolyline
 66
     1
 10
0.0
 20
0.0
 30
0.0
  0
VERTEX
  5
8A
330
89
100
AcDbEntity
  8
_U+30EC_U+30A4_U+30E4_U+30FC 1
 62
   179
420
  2234388
370
     9
100
AcDbVertex
100
AcDb2dVertex
 10
104.8039277515769
 20
-133.0006794111942
 30
0.0
  0
VERTEX
  5
8B
330
89
100
AcDbEntity
  8
_U+30EC_U+30A4_U+30E4_U+30FC 1
 62
   179
420
  2234388
370
     9
100
AcDbVertex
100
AcDb2dVertex
 10
107.2637386523629
 20
-133.0006794111942
 30
0.0
  0
SEQEND
  5
8C
330
89
100
AcDbEntity
  8
_U+30EC_U+30A4_U+30E4_U+30FC 1
 62
   179
420
  2234388
370
     9
  0
SPLINE
  5
8D
330
1F
100
AcDbEntity
  8
_U+30EC_U+30A4_U+30E4_U+30FC 1
 62
   179
420
  2234388
370
     9
100
AcDbSpline
210
0.0
220
0.0
230
1.0
 70
    11
 71
     3
 72
    17
 73
    13
 74
     0
 42
0.0000000001
 43
0.0000000001
 12
1.0
 22
0.0
 32
0.0
 13
1.0
 23
0.0
 33
0.0
 40
0.0
 40
0.0
 40
0.0
 40
0.0
 40
1.0
 40
1.0
 40
1.0
 40
2.0
 40
2.0
 40
2.0
 40
3.0
 40
3.0
 40
3.0
 40
4.0
 40
4.0
 40
4.0
 40
4.0
 10
106.3638731197649
 20
-124.4726646911041
 30
0.0
 10
106.3638731197649
 20
-124.4175608022288
 30
0.0
 10
106.3191083067537
 20
-124.3727580244624
 30
0.0
 10
106.263966455647
 20
-124.3727580244624
 30
0.0
 10
106.208862568164
 20
-124.3727580244624
 30
0.0
 10
106.1640597915292
 20
-124.4175608022288
 30
0.0
 10
106.1640597915292
 20
-124.4726646911041
 30
0.0
 10
106.1640597915292
 20
-124.5284741355345
 30
0.0
 10
106.208862568164
 20
-124.5732769133012
 30
0.0
 10
106.263966455647
 20
-124.5732769133012
 30
0.0
 10
106.3191083067537
 20
-124.5732769133012
 30
0.0
 10
106.3638731197649
 20
-124.5284741355345
 30
0.0
 10
106.3638731197649
 20
-124.4726646911041
 30
0.0
  0
POLYLINE
  5
8E
330
1F
100
AcDbEntity
  8
_U+30EC_U+30A4_U+30E4_U+30FC 1
 62
   179
420
  2234388
370
     9
100
AcDb2dPolyline
 66
     1
 10
0.0
 20
0.0
 30
0.0
  0
VERTEX
  5
8F
330
8E
100
AcDbEntity
  8
_U+30EC_U+30A4_U+30E4_U+30FC 1
 62
   179
420
  2234388
370
     9
100
AcDbVertex
100
AcDb2dVertex
 10
104.8039277515769
 20
-124.4726646911041
 30
0.0
  0
VERTEX
  5
90
330
8E
100
AcDbEntity
  8
_U+30EC_U+30A4_U+30E4_U+30FC 1
 62
   179
420
  2234388
370
     9
100
AcDbVertex
100
AcDb2dVertex
 10
107.2637386523629
 20
-124.4726646911041
 30
0.0
  0
SEQEND
  5
91
330
8E
100
AcDbEntity
  8
_U+30EC_U+30A4_U+30E4_U+30FC 1
 62
   179
420
  2234388
370
     9
  0
POLYLINE
  5
92
330
1F
100
AcDbEntity
  8
_U+30EC_U+30A4_U+30E4_U+30FC 1
 62
   179
420
  2234388
370
     9
100
AcDb2dPolyline
 66
     1
 10
0.0
 20
0.0
 30
0.0
  0
VERTEX
  5
93
330
92
100
AcDbEntity
  8
_U+30EC_U+30A4_U+30E4_U+30FC 1
 62
   179
420
  2234388
370
     9
100
AcDbVertex
100
AcDb2dVertex
 10
104.8039277515769
 20
-134.5006552441523
 30
0.0
  0
VERTEX
  5
94
330
92
100
AcDbEntity
  8
_U+30EC_U+30A4_U+30E4_U+30FC 1
 62
   179
420
  2234388
370
     9
100
AcDbVertex
100
AcDb2dVertex
 10
107.2637386523629
 20
-134.5006552441523
 30
0.0
  0
SEQEND
  5
95
330
92
100
AcDbEntity
  8
_U+30EC_U+30A4_U+30E4_U+30FC 1
 62
   179
420
  2234388
370
     9
  0
POLYLINE
  5
96
330
1F
100
AcDbEntity
  8
_U+30EC_U+30A4_U+30E4_U+30FC 1
 62
   179
420
  2234388
370
     9
100
AcDb2dPolyline
 66
     1
 10
0.0
 20
0.0
 30
0.0
  0
VERTEX
  5
97
330
96
100
AcDbEntity
  8
_U+30EC_U+30A4_U+30E4_U+30FC 1
 62
   179
420
  2234388
370
     9
100
AcDbVertex
100
AcDb2dVertex
 10
80.55754433369471
 20
-120.5011630254302
 30
0.0
  0
VERTEX
  5
98
330
96
100
AcDbEntity
  8
_U+30EC_U+30A4_U+30E4_U+30FC 1
 62
   179
420
  2234388
370
     9
100
AcDbVertex
100
AcDb2dVertex
 10
90.55759463412772
 20
-120.5011630254302
 30
0.0
  0
SEQEND
  5
99
330
96
100
AcDbEntity
  8
_U+30EC_U+30A4_U+30E4_U+30FC 1
 62
   179
420
  2234388
370
     9
  0
POLYLINE
  5
9A
330
1F
100
AcDbEntity
  8
_U+30EC_U+30A4_U+30E4_U+30FC 1
 62
   179
420
  2234388
370
     9
100
AcDb2dPolyline
 66
     1
 10
0.0
 20
0.0
 30
0.0
  0
VERTEX
  5
9B
330
9A
100
AcDbEntity
  8
_U+30EC_U+30A4_U+30E4_U+30FC 1
 62
   179
420
  2234388
370
     9
100
AcDbVertex
100
AcDb2dVertex
 10
80.55754433369471
 20
-121.9612044139542
 30
0.0
  0
VERTEX
  5
9C
330
9A
100
AcDbEntity
  8
_U+30EC_U+30A4_U+30E4_U+30FC 1
 62
   179
420
  2234388
370
     9
100
AcDbVertex
100
AcDb2dVertex
 10
80.55754433369471
 20
-119.5007205256803
 30
0.0
  0
SEQEND
  5
9D
330
9A
100
AcDbEntity
  8
_U+30EC_U+30A4_U+30E4_U+30FC 1
 62
   179
420
  2234388
370
     9
  0
POLYLINE
  5
9E
330
1F
100
AcDbEntity
  8
_U+30EC_U+30A4_U+30E4_U+30FC 1
 62
   179
420
  2234388
370
     9
100
AcDb2dPolyline
 66
     1
 10
0.0
 20
0.0
 30
0.0
  0
VERTEX
  5
9F
330
9E
100
AcDbEntity
  8
_U+30EC_U+30A4_U+30E4_U+30FC 1
 62
   179
420
  2234388
370
     9
100
AcDbVertex
100
AcDb2dVertex
 10
90.55759463412772
 20
-121.9612044139542
 30
0.0
  0
VERTEX
  5
A0
330
9E
100
AcDbEntity
  8
_U+30EC_U+30A4_U+30E4_U+30FC 1
 62
   179
420
  2234388
370
     9
100
AcDbVertex
100
AcDb2dVertex
 10
90.55759463412772
 20
-119.5007205256803
 30
0.0
  0
SEQEND
  5
A1
330
9E
100
AcDbEntity
  8
_U+30EC_U+30A4_U+30E4_U+30FC 1
 62
   179
420
  2234388
370
     9
  0
INSERT
  5
A3
330
1F
100
AcDbEntity
  8
_U+30EC_U+30A4_U+30E4_U+30FC 1
100
AcDbBlockReference
  2
block 3
 10
0.0
 20
0.0
 30
0.0
  0
SPLINE
  5
AB
330
1F
100
AcDbEntity
  8
_U+30EC_U+30A4_U+30E4_U+30FC 1
 62
   179
420
  2234388
370
    25
100
AcDbSpline
210
0.0
220
0.0
230
1.0
 70
    11
 71
     3
 72
    17
 73
    13
 74
     0
 42
0.0000000001
 43
0.0000000001
 12
1.0
 22
0.0
 32
0.0
 13
1.0
 23
0.0
 33
0.0
 40
0.0
 40
0.0
 40
0.0
 40
0.0
 40
1.0
 40
1.0
 40
1.0
 40
2.0
 40
2.0
 40
2.0
 40
3.0
 40
3.0
 40
3.0
 40
4.0
 40
4.0
 40
4.0
 40
4.0
 10
80.59268099946497
 20
-124.5009221910971
 30
0.0
 10
80.59268099946497
 20
-124.5202191355366
 30
0.0
 10
80.57680599986998
 20
-124.5360588577548
 30
0.0
 10
80.55754433369471
 20
-124.5360588577548
 30
0.0
 10
80.5378946119738
 20
-124.5360588577548
 30
0.0
 10
80.52205489015569
 20
-124.5202191355366
 30
0.0
 10
80.52205489015569
 20
-124.5009221910971
 30
0.0
 10
80.52205489015569
 20
-124.4816252466575
 30
0.0
 10
80.5378946119738
 20
-124.465785524439
 30
0.0
 10
80.55754433369471
 20
-124.465785524439
 30
0.0
 10
80.57680599986998
 20
-124.465785524439
 30
0.0
 10
80.59268099946497
 20
-124.4816252466575
 30
0.0
 10
80.59268099946497
 20
-124.5009221910971
 30
0.0
  0
SPLINE
  5
AC
330
1F
100
AcDbEntity
  8
_U+30EC_U+30A4_U+30E4_U+30FC 1
 62
   179
420
  2234388
370
    25
100
AcDbSpline
210
0.0
220
0.0
230
1.0
 70
    11
 71
     3
 72
    17
 73
    13
 74
     0
 42
0.0000000001
 43
0.0000000001
 12
1.0
 22
0.0
 32
0.0
 13
1.0
 23
0.0
 33
0.0
 40
0.0
 40
0.0
 40
0.0
 40
0.0
 40
1.0
 40
1.0
 40
1.0
 40
2.0
 40
2.0
 40
2.0
 40
3.0
 40
3.0
 40
3.0
 40
4.0
 40
4.0
 40
4.0
 40
4.0
 10
90.59273129989799
 20
-124.5009221910971
 30
0.0
 10
90.59273129989799
 20
-124.5202191355366
 30
0.0
 10
90.57689157807987
 20
-124.5360588577548
 30
0.0
 10
90.55759463412772
 20
-124.5360588577548
 30
0.0
 10
90.53798019018369
 20
-124.5360588577548
 30
0.0
 10
90.5221051905887
 20
-124.5202191355366
 30
0.0
 10
90.5221051905887
 20
-124.5009221910971
 30
0.0
 10
90.5221051905887
 20
-124.4816252466575
 30
0.0
 10
90.53798019018369
 20
-124.465785524439
 30
0.0
 10
90.55759463412772
 20
-124.465785524439
 30
0.0
 10
90.57689157807987
 20
-124.465785524439
 30
0.0
 10
90.59273129989799
 20
-124.4816252466575
 30
0.0
 10
90.59273129989799
 20
-124.5009221910971
 30
0.0
  0
SPLINE
  5
AD
330
1F
100
AcDbEntity
  8
_U+30EC_U+30A4_U+30E4_U+30FC 1
 62
   179
420
  2234388
370
     9
100
AcDbSpline
210
0.0
220
0.0
230
1.0
 70
    11
 71
     3
 72
    17
 73
    13
 74
     0
 42
0.0000000001
 43
0.0000000001
 12
1.0
 22
0.0
 32
0.0
 13
1.0
 23
0.0
 33
0.0
 40
0.0
 40
0.0
 40
0.0
 40
0.0
 40
1.0
 40
1.0
 40
1.0
 40
2.0
 40
2.0
 40
2.0
 40
3.0
 40
3.0
 40
3.0
 40
4.0
 40
4.0
 40
4.0
 40
4.0
 10
90.59273129989799
 20
-120.5011630254302
 30
0.0
 10
90.59273129989799
 20
-120.52045996987
 30
0.0
 10
90.57689157807987
 20
-120.5362996920882
 30
0.0
 10
90.55759463412772
 20
-120.5362996920882
 30
0.0
 10
90.53798019018369
 20
-120.5362996920882
 30
0.0
 10
90.5221051905887
 20
-120.52045996987
 30
0.0
 10
90.5221051905887
 20
-120.5011630254302
 30
0.0
 10
90.5221051905887
 20
-120.481195803213
 30
0.0
 10
90.53798019018369
 20
-120.4653560809948
 30
0.0
 10
90.55759463412772
 20
-120.4653560809948
 30
0.0
 10
90.57689157807987
 20
-120.4653560809948
 30
0.0
 10
90.59273129989799
 20
-120.481195803213
 30
0.0
 10
90.59273129989799
 20
-120.5011630254302
 30
0.0
  0
POLYLINE
  5
AE
330
1F
100
AcDbEntity
  8
_U+30EC_U+30A4_U+30E4_U+30FC 1
 62
   179
420
  2234388
370
     9
100
AcDb2dPolyline
 66
     1
 10
0.0
 20
0.0
 30
0.0
  0
VERTEX
  5
AF
330
AE
100
AcDbEntity
  8
_U+30EC_U+30A4_U+30E4_U+30FC 1
 62
   179
420
  2234388
370
     9
100
AcDbVertex
100
AcDb2dVertex
 10
90.55759463412772
 20
-121.9612044139542
 30
0.0
  0
VERTEX
  5
B0
330
AE
100
AcDbEntity
  8
_U+30EC_U+30A4_U+30E4_U+30FC 1
 62
   179
420
  2234388
370
     9
100
AcDbVertex
100
AcDb2dVertex
 10
90.55759463412772
 20
-119.5007205256803
 30
0.0
  0
SEQEND
  5
B1
330
AE
100
AcDbEntity
  8
_U+30EC_U+30A4_U+30E4_U+30FC 1
 62
   179
420
  2234388
370
     9
  0
SPLINE
  5
B2
330
1F
100
AcDbEntity
  8
_U+30EC_U+30A4_U+30E4_U+30FC 1
 62
   179
420
  2234388
370
    25
100
AcDbSpline
210
0.0
220
0.0
230
1.0
 70
    11
 71
     3
 72
    17
 73
    13
 74
     0
 42
0.0000000001
 43
0.0000000001
 12
1.0
 22
0.0
 32
0.0
 13
1.0
 23
0.0
 33
0.0
 40
0.0
 40
0.0
 40
0.0
 40
0.0
 40
1.0
 40
1.0
 40
1.0
 40
2.0
 40
2.0
 40
2.0
 40
3.0
 40
3.0
 40
3.0
 40
4.0
 40
4.0
 40
4.0
 40
4.0
 10
90.59273129989799
 20
-124.5009221910971
 30
0.0
 10
90.59273129989799
 20
-124.5202191355366
 30
0.0
 10
90.57689157807987
 20
-124.5360588577548
 30
0.0
 10
90.55759463412772
 20
-124.5360588577548
 30
0.0
 10
90.53798019018369
 20
-124.5360588577548
 30
0.0
 10
90.5221051905887
 20
-124.5202191355366
 30
0.0
 10
90.5221051905887
 20
-124.5009221910971
 30
0.0
 10
90.5221051905887
 20
-124.4816252466575
 30
0.0
 10
90.53798019018369
 20
-124.465785524439
 30
0.0
 10
90.55759463412772
 20
-124.465785524439
 30
0.0
 10
90.57689157807987
 20
-124.465785524439
 30
0.0
 10
90.59273129989799
 20
-124.4816252466575
 30
0.0
 10
90.59273129989799
 20
-124.5009221910971
 30
0.0
  0
POLYLINE
  5
B3
330
1F
100
AcDbEntity
  8
_U+30EC_U+30A4_U+30E4_U+30FC 1
 62
   179
420
  2234388
370
     9
100
AcDb2dPolyline
 66
     1
 10
0.0
 20
0.0
 30
0.0
  0
VERTEX
  5
B4
330
B3
100
AcDbEntity
  8
_U+30EC_U+30A4_U+30E4_U+30FC 1
 62
   179
420
  2234388
370
     9
100
AcDbVertex
100
AcDb2dVertex
 10
78.02054300953012
 20
-124.5009221910971
 30
0.0
  0
VERTEX
  5
B5
330
B3
100
AcDbEntity
  8
_U+30EC_U+30A4_U+30E4_U+30FC 1
 62
   179
420
  2234388
370
     9
100
AcDbVertex
100
AcDb2dVertex
 10
78.02054300953012
 20
-134.5006552441523
 30
0.0
  0
SEQEND
  5
B6
330
B3
100
AcDbEntity
  8
_U+30EC_U+30A4_U+30E4_U+30FC 1
 62
   179
420
  2234388
370
     9
  0
POLYLINE
  5
B7
330
1F
100
AcDbEntity
  8
_U+30EC_U+30A4_U+30E4_U+30FC 1
 62
   179
420
  2234388
370
     9
100
AcDb2dPolyline
 66
     1
 10
0.0
 20
0.0
 30
0.0
  0
VERTEX
  5
B8
330
B7
100
AcDbEntity
  8
_U+30EC_U+30A4_U+30E4_U+30FC 1
 62
   179
420
  2234388
370
     9
100
AcDbVertex
100
AcDb2dVertex
 10
79.48058436117024
 20
-124.5009221910971
 30
0.0
  0
VERTEX
  5
B9
330
B7
100
AcDbEntity
  8
_U+30EC_U+30A4_U+30E4_U+30FC 1
 62
   179
420
  2234388
370
     9
100
AcDbVertex
100
AcDb2dVertex
 10
77.02045331282231
 20
-124.5009221910971
 30
0.0
  0
SEQEND
  5
BA
330
B7
100
AcDbEntity
  8
_U+30EC_U+30A4_U+30E4_U+30FC 1
 62
   179
420
  2234388
370
     9
  0
POLYLINE
  5
BB
330
1F
100
AcDbEntity
  8
_U+30EC_U+30A4_U+30E4_U+30FC 1
 62
   179
420
  2234388
370
     9
100
AcDb2dPolyline
 66
     1
 10
0.0
 20
0.0
 30
0.0
  0
VERTEX
  5
BC
330
BB
100
AcDbEntity
  8
_U+30EC_U+30A4_U+30E4_U+30FC 1
 62
   179
420
  2234388
370
     9
100
AcDbVertex
100
AcDb2dVertex
 10
79.48058436117024
 20
-134.5006552441523
 30
0.0
  0
VERTEX
  5
BD
330
BB
100
AcDbEntity
  8
_U+30EC_U+30A4_U+30E4_U+30FC 1
 62
   179
420
  2234388
370
     9
100
AcDbVertex
100
AcDb2dVertex
 10
77.02045331282231
 20
-134.5006552441523
 30
0.0
  0
SEQEND
  5
BE
330
BB
100
AcDbEntity
  8
_U+30EC_U+30A4_U+30E4_U+30FC 1
 62
   179
420
  2234388
370
     9
  0
INSERT
  5
C0
330
1F
100
AcDbEntity
  8
_U+30EC_U+30A4_U+30E4_U+30FC 1
100
AcDbBlockReference
  2
block 4
 10
0.0
 20
0.0
 30
0.0
  0
SPLINE
  5
C8
330
1F
100
AcDbEntity
  8
_U+30EC_U+30A4_U+30E4_U+30FC 1
 62
   179
420
  2234388
370
    25
100
AcDbSpline
210
0.0
220
0.0
230
1.0
 70
    11
 71
     3
 72
    17
 73
    13
 74
     0
 42
0.0000000001
 43
0.0000000001
 12
1.0
 22
0.0
 32
0.0
 13
1.0
 23
0.0
 33
0.0
 40
0.0
 40
0.0
 40
0.0
 40
0.0
 40
1.0
 40
1.0
 40
1.0
 40
2.0
 40
2.0
 40
2.0
 40
3.0
 40
3.0
 40
3.0
 40
4.0
 40
4.0
 40
4.0
 40
4.0
 10
80.59268099946497
 20
-124.5009221910971
 30
0.0
 10
80.59268099946497
 20
-124.5202191355366
 30
0.0
 10
80.57680599986998
 20
-124.5360588577548
 30
0.0
 10
80.55754433369471
 20
-124.5360588577548
 30
0.0
 10
80.5378946119738
 20
-124.5360588577548
 30
0.0
 10
80.52205489015569
 20
-124.5202191355366
 30
0.0
 10
80.52205489015569
 20
-124.5009221910971
 30
0.0
 10
80.52205489015569
 20
-124.4816252466575
 30
0.0
 10
80.5378946119738
 20
-124.465785524439
 30
0.0
 10
80.55754433369471
 20
-124.465785524439
 30
0.0
 10
80.57680599986998
 20
-124.465785524439
 30
0.0
 10
80.59268099946497
 20
-124.4816252466575
 30
0.0
 10
80.59268099946497
 20
-124.5009221910971
 30
0.0
  0
SPLINE
  5
C9
330
1F
100
AcDbEntity
  8
_U+30EC_U+30A4_U+30E4_U+30FC 1
 62
   179
420
  2234388
370
    25
100
AcDbSpline
210
0.0
220
0.0
230
1.0
 70
    11
 71
     3
 72
    17
 73
    13
 74
     0
 42
0.0000000001
 43
0.0000000001
 12
1.0
 22
0.0
 32
0.0
 13
1.0
 23
0.0
 33
0.0
 40
0.0
 40
0.0
 40
0.0
 40
0.0
 40
1.0
 40
1.0
 40
1.0
 40
2.0
 40
2.0
 40
2.0
 40
3.0
 40
3.0
 40
3.0
 40
4.0
 40
4.0
 40
4.0
 40
4.0
 10
80.59268099946497
 20
-134.5006552441523
 30
0.0
 10
80.59268099946497
 20
-134.5206577441477
 30
0.0
 10
80.57680599986998
 20
-134.5364974663662
 30
0.0
 10
80.55754433369471
 20
-134.5364974663662
 30
0.0
 10
80.5378946119738
 20
-134.5364974663662
 30
0.0
 10
80.52205489015569
 20
-134.5206577441477
 30
0.0
 10
80.52205489015569
 20
-134.5006552441523
 30
0.0
 10
80.52205489015569
 20
-134.4813582997131
 30
0.0
 10
80.5378946119738
 20
-134.4655185774946
 30
0.0
 10
80.55754433369471
 20
-134.4655185774946
 30
0.0
 10
80.57680599986998
 20
-134.4655185774946
 30
0.0
 10
80.59268099946497
 20
-134.4813582997131
 30
0.0
 10
80.59268099946497
 20
-134.5006552441523
 30
0.0
  0
SPLINE
  5
CA
330
1F
100
AcDbEntity
  8
_U+30EC_U+30A4_U+30E4_U+30FC 1
 62
   179
420
  2234388
370
     9
100
AcDbSpline
210
0.0
220
0.0
230
1.0
 70
    11
 71
     3
 72
    17
 73
    13
 74
     0
 42
0.0000000001
 43
0.0000000001
 12
1.0
 22
0.0
 32
0.0
 13
1.0
 23
0.0
 33
0.0
 40
0.0
 40
0.0
 40
0.0
 40
0.0
 40
1.0
 40
1.0
 40
1.0
 40
2.0
 40
2.0
 40
2.0
 40
3.0
 40
3.0
 40
3.0
 40
4.0
 40
4.0
 40
4.0
 40
4.0
 10
78.05603245306915
 20
-134.5006552441523
 30
0.0
 10
78.05603245306915
 20
-134.5206577441477
 30
0.0
 10
78.04019273125104
 20
-134.5364974663662
 30
0.0
 10
78.02054300953012
 20
-134.5364974663662
 30
0.0
 10
78.00128331383293
 20
-134.5364974663662
 30
0.0
 10
77.98540831383687
 20
-134.5206577441477
 30
0.0
 10
77.98540831383687
 20
-134.5006552441523
 30
0.0
 10
77.98540831383687
 20
-134.4813582997131
 30
0.0
 10
78.00128331383293
 20
-134.4655185774946
 30
0.0
 10
78.02054300953012
 20
-134.4655185774946
 30
0.0
 10
78.04019273125104
 20
-134.4655185774946
 30
0.0
 10
78.05603245306915
 20
-134.4813582997131
 30
0.0
 10
78.05603245306915
 20
-134.5006552441523
 30
0.0
  0
POLYLINE
  5
CB
330
1F
100
AcDbEntity
  8
_U+30EC_U+30A4_U+30E4_U+30FC 1
 62
   179
420
  2234388
370
     9
100
AcDb2dPolyline
 66
     1
 10
0.0
 20
0.0
 30
0.0
  0
VERTEX
  5
CC
330
CB
100
AcDbEntity
  8
_U+30EC_U+30A4_U+30E4_U+30FC 1
 62
   179
420
  2234388
370
     9
100
AcDbVertex
100
AcDb2dVertex
 10
82.05752220170794
 20
-133.0413194111841
 30
0.0
  0
VERTEX
  5
CD
330
CB
100
AcDbEntity
  8
_U+30EC_U+30A4_U+30E4_U+30FC 1
 62
   179
420
  2234388
370
     9
100
AcDbVertex
100
AcDb2dVertex
 10
85.60667614932507
 20
-133.0413194111841
 30
0.0
  0
SEQEND
  5
CE
330
CB
100
AcDbEntity
  8
_U+30EC_U+30A4_U+30E4_U+30FC 1
 62
   179
420
  2234388
370
     9
  0
POLYLINE
  5
CF
330
1F
100
AcDbEntity
  8
_U+30EC_U+30A4_U+30E4_U+30FC 1
 62
   179
420
  2234388
370
     9
100
AcDb2dPolyline
 66
     1
 10
0.0
 20
0.0
 30
0.0
  0
VERTEX
  5
D0
330
CF
100
AcDbEntity
  8
_U+30EC_U+30A4_U+30E4_U+30FC 1
 62
   179
420
  2234388
370
     9
100
AcDbVertex
100
AcDb2dVertex
 10
85.55756948391122
 20
-133.0609691334017
 30
0.0
  0
VERTEX
  5
11C
330
CF
100
AcDbEntity
  8
0
100
AcDbVertex
100
AcDb2dVertex
 10
85.55756948391122
 20
-133.0609691334017
 30
0.0
  0
SEQEND
  5
D1
330
CF
100
AcDbEntity
  8
_U+30EC_U+30A4_U+30E4_U+30FC 1
 62
   179
420
  2234388
370
     9
  0
POLYLINE
  5
D2
330
1F
100
AcDbEntity
  8
_U+30EC_U+30A4_U+30E4_U+30FC 1
 62
   179
420
  2234388
370
     9
100
AcDb2dPolyline
 66
     1
 10
0.0
 20
0.0
 30
0.0
  0
VERTEX
  5
D3
330
D2
100
AcDbEntity
  8
_U+30EC_U+30A4_U+30E4_U+30FC 1
 62
   179
420
  2234388
370
     9
100
AcDbVertex
100
AcDb2dVertex
 10
80.55754433369471
 20
-133.0609691334017
 30
0.0
  0
VERTEX
  5
11D
330
D2
100
AcDbEntity
  8
0
100
AcDbVertex
100
AcDb2dVertex
 10
80.55754433369471
 20
-133.0609691334017
 30
0.0
  0
SEQEND
  5
D4
330
D2
100
AcDbEntity
  8
_U+30EC_U+30A4_U+30E4_U+30FC 1
 62
   179
420
  2234388
370
     9
  0
POLYLINE
  5
D5
330
1F
100
AcDbEntity
  8
_U+30EC_U+30A4_U+30E4_U+30FC 1
 62
   179
420
  2234388
370
     9
100
AcDb2dPolyline
 66
     1
 10
0.0
 20
0.0
 30
0.0
  0
VERTEX
  5
D6
330
D5
100
AcDbEntity
  8
_U+30EC_U+30A4_U+30E4_U+30FC 1
 62
   179
420
  2234388
370
     9
100
AcDbVertex
100
AcDb2dVertex
 10
103.5574906913616
 20
-133.0006794111942
 30
0.0
  0
VERTEX
  5
D7
330
D5
100
AcDbEntity
  8
_U+30EC_U+30A4_U+30E4_U+30FC 1
 62
   179
420
  2234388
370
     9
100
AcDbVertex
100
AcDb2dVertex
 10
103.5574906913616
 20
-134.5006552441523
 30
0.0
  0
SEQEND
  5
D8
330
D5
100
AcDbEntity
  8
_U+30EC_U+30A4_U+30E4_U+30FC 1
 62
   179
420
  2234388
370
     9
  0
POLYLINE
  5
D9
330
1F
100
AcDbEntity
  8
_U+30EC_U+30A4_U+30E4_U+30FC 1
 62
   179
420
  2234388
370
     9
100
AcDb2dPolyline
 66
     1
 10
0.0
 20
0.0
 30
0.0
  0
VERTEX
  5
DA
330
D9
100
AcDbEntity
  8
_U+30EC_U+30A4_U+30E4_U+30FC 1
 62
   179
420
  2234388
370
     9
100
AcDbVertex
100
AcDb2dVertex
 10
89.05761883906197
 20
-134.5006552441523
 30
0.0
  0
VERTEX
  5
DB
330
D9
100
AcDbEntity
  8
_U+30EC_U+30A4_U+30E4_U+30FC 1
 62
   179
420
  2234388
370
     9
100
AcDbVertex
100
AcDb2dVertex
 10
103.5574906913616
 20
-134.5006552441523
 30
0.0
  0
SEQEND
  5
DC
330
D9
100
AcDbEntity
  8
_U+30EC_U+30A4_U+30E4_U+30FC 1
 62
   179
420
  2234388
370
     9
  0
POLYLINE
  5
DD
330
1F
100
AcDbEntity
  8
_U+30EC_U+30A4_U+30E4_U+30FC 1
 62
   179
420
  2234388
370
    25
100
AcDb2dPolyline
 66
     1
 10
0.0
 20
0.0
 30
0.0
  0
VERTEX
  5
DE
330
DD
100
AcDbEntity
  8
_U+30EC_U+30A4_U+30E4_U+30FC 1
 62
   179
420
  2234388
370
    25
100
AcDbVertex
100
AcDb2dVertex
 10
91.05748073248569
 20
-133.7510024665619
 30
0.0
  0
VERTEX
  5
DF
330
DD
100
AcDbEntity
  8
_U+30EC_U+30A4_U+30E4_U+30FC 1
 62
   179
420
  2234388
370
    25
100
AcDbVertex
100
AcDb2dVertex
 10
103.0572870930118
 20
-133.7510024665619
 30
0.0
  0
SEQEND
  5
E0
330
DD
100
AcDbEntity
  8
_U+30EC_U+30A4_U+30E4_U+30FC 1
 62
   179
420
  2234388
370
    25
  0
POLYLINE
  5
E1
330
1F
100
AcDbEntity
  8
_U+30EC_U+30A4_U+30E4_U+30FC 1
 62
   179
420
  2234388
370
     9
100
AcDb2dPolyline
 66
     1
 10
0.0
 20
0.0
 30
0.0
  0
VERTEX
  5
E2
330
E1
100
AcDbEntity
  8
_U+30EC_U+30A4_U+30E4_U+30FC 1
 62
   179
420
  2234388
370
     9
100
AcDbVertex
100
AcDb2dVertex
 10
97.457610291427
 20
-133.0006794111942
 30
0.0
  0
VERTEX
  5
E3
330
E1
100
AcDbEntity
  8
_U+30EC_U+30A4_U+30E4_U+30FC 1
 62
   179
420
  2234388
370
     9
100
AcDbVertex
100
AcDb2dVertex
 10
103.5574906913616
 20
-133.0006794111942
 30
0.0
  0
SEQEND
  5
E4
330
E1
100
AcDbEntity
  8
_U+30EC_U+30A4_U+30E4_U+30FC 1
 62
   179
420
  2234388
370
     9
  0
SPLINE
  5
E5
330
1F
100
AcDbEntity
  8
_U+30EC_U+30A4_U+30E4_U+30FC 1
 62
   179
420
  2234388
370
     9
100
AcDbSpline
210
0.0
220
0.0
230
1.0
 70
    11
 71
     3
 72
    17
 73
    13
 74
     0
 42
0.0000000001
 43
0.0000000001
 12
1.0
 22
0.0
 32
0.0
 13
1.0
 23
0.0
 33
0.0
 40
0.0
 40
0.0
 40
0.0
 40
0.0
 40
1.0
 40
1.0
 40
1.0
 40
2.0
 40
2.0
 40
2.0
 40
3.0
 40
3.0
 40
3.0
 40
4.0
 40
4.0
 40
4.0
 40
4.0
 10
103.6573999740858
 20
-120.5011630254302
 30
0.0
 10
103.6573999740858
 20
-120.4460591365552
 30
0.0
 10
103.6126298566216
 20
-120.4012563587885
 30
0.0
 10
103.5574906913616
 20
-120.4012563587885
 30
0.0
 10
103.5023868038786
 20
-120.4012563587885
 30
0.0
 10
103.4575840272438
 20
-120.4460591365552
 30
0.0
 10
103.4575840272438
 20
-120.5011630254302
 30
0.0
 10
103.4575840272438
 20
-120.5563021920833
 30
0.0
 10
103.5023868038786
 20
-120.6010696920721
 30
0.0
 10
103.5574906913616
 20
-120.6010696920721
 30
0.0
 10
103.6126298566216
 20
-120.6010696920721
 30
0.0
 10
103.6573999740858
 20
-120.5563021920833
 30
0.0
 10
103.6573999740858
 20
-120.5011630254302
 30
0.0
  0
INSERT
  5
E7
330
1F
100
AcDbEntity
  8
_U+30EC_U+30A4_U+30E4_U+30FC 1
100
AcDbBlockReference
  2
block 5
 10
0.0
 20
0.0
 30
0.0
  0
INSERT
  5
F7
330
1F
100
AcDbEntity
  8
_U+30EC_U+30A4_U+30E4_U+30FC 1
100
AcDbBlockReference
  2
block 6
 10
0.0
 20
0.0
 30
0.0
  0
SPLINE
  5
108
330
1F
100
AcDbEntity
  8
_U+30EC_U+30A4_U+30E4_U+30FC 1
 62
   179
420
  2234388
370
     9
100
AcDbSpline
210
0.0
220
0.0
230
1.0
 70
    11
 71
     3
 72
    17
 73
    13
 74
     0
 42
0.0000000001
 43
0.0000000001
 12
1.0
 22
0.0
 32
0.0
 13
1.0
 23
0.0
 33
0.0
 40
0.0
 40
0.0
 40
0.0
 40
0.0
 40
1.0
 40
1.0
 40
1.0
 40
2.0
 40
2.0
 40
2.0
 40
3.0
 40
3.0
 40
3.0
 40
4.0
 40
4.0
 40
4.0
 40
4.0
 10
103.5926273571319
 20
-133.0006794111942
 30
0.0
 10
103.5926273571319
 20
-133.0206466334114
 30
0.0
 10
103.5767876353138
 20
-133.0364863556299
 30
0.0
 10
103.5574906913616
 20
-133.0364863556299
 30
0.0
 10
103.5381937474095
 20
-133.0364863556299
 30
0.0
 10
103.5223540255914
 20
-133.0206466334114
 30
0.0
 10
103.5223540255914
 20
-133.0006794111942
 30
0.0
 10
103.5223540255914
 20
-132.9813824667544
 30
0.0
 10
103.5381937474095
 20
-132.9655427445365
 30
0.0
 10
103.5574906913616
 20
-132.9655427445365
 30
0.0
 10
103.5767876353138
 20
-132.9655427445365
 30
0.0
 10
103.5926273571319
 20
-132.9813824667544
 30
0.0
 10
103.5926273571319
 20
-133.0006794111942
 30
0.0
  0
SPLINE
  5
109
330
1F
100
AcDbEntity
  8
_U+30EC_U+30A4_U+30E4_U+30FC 1
 62
   179
420
  2234388
370
     9
100
AcDbSpline
210
0.0
220
0.0
230
1.0
 70
    11
 71
     3
 72
    17
 73
    13
 74
     0
 42
0.0000000001
 43
0.0000000001
 12
1.0
 22
0.0
 32
0.0
 13
1.0
 23
0.0
 33
0.0
 40
0.0
 40
0.0
 40
0.0
 40
0.0
 40
1.0
 40
1.0
 40
1.0
 40
2.0
 40
2.0
 40
2.0
 40
3.0
 40
3.0
 40
3.0
 40
4.0
 40
4.0
 40
4.0
 40
4.0
 10
103.5926273571319
 20
-134.5006552441523
 30
0.0
 10
103.5926273571319
 20
-134.5206577441477
 30
0.0
 10
103.5767876353138
 20
-134.5364974663662
 30
0.0
 10
103.5574906913616
 20
-134.5364974663662
 30
0.0
 10
103.5381937474095
 20
-134.5364974663662
 30
0.0
 10
103.5223540255914
 20
-134.5206577441477
 30
0.0
 10
103.5223540255914
 20
-134.5006552441523
 30
0.0
 10
103.5223540255914
 20
-134.4813582997131
 30
0.0
 10
103.5381937474095
 20
-134.4655185774946
 30
0.0
 10
103.5574906913616
 20
-134.4655185774946
 30
0.0
 10
103.5767876353138
 20
-134.4655185774946
 30
0.0
 10
103.5926273571319
 20
-134.4813582997131
 30
0.0
 10
103.5926273571319
 20
-134.5006552441523
 30
0.0
  0
POLYLINE
  5
10A
330
1F
100
AcDbEntity
  8
_U+30EC_U+30A4_U+30E4_U+30FC 1
 62
   179
420
  2234388
370
     9
100
AcDb2dPolyline
 66
     1
 10
0.0
 20
0.0
 30
0.0
  0
VERTEX
  5
10B
330
10A
100
AcDbEntity
  8
_U+30EC_U+30A4_U+30E4_U+30FC 1
 62
   179
420
  2234388
370
     9
100
AcDbVertex
100
AcDb2dVertex
 10
90.55759463412772
 20
-120.5011630254302
 30
0.0
  0
VERTEX
  5
10C
330
10A
100
AcDbEntity
  8
_U+30EC_U+30A4_U+30E4_U+30FC 1
 62
   179
420
  2234388
370
     9
100
AcDbVertex
100
AcDb2dVertex
 10
103.5574906913616
 20
-120.5011630254302
 30
0.0
  0
SEQEND
  5
10D
330
10A
100
AcDbEntity
  8
_U+30EC_U+30A4_U+30E4_U+30FC 1
 62
   179
420
  2234388
370
     9
  0
POLYLINE
  5
10E
330
1F
100
AcDbEntity
  8
_U+30EC_U+30A4_U+30E4_U+30FC 1
 62
   179
420
  2234388
370
     9
100
AcDb2dPolyline
 66
     1
 10
0.0
 20
0.0
 30
0.0
  0
VERTEX
  5
10F
330
10E
100
AcDbEntity
  8
_U+30EC_U+30A4_U+30E4_U+30FC 1
 62
   179
420
  2234388
370
     9
100
AcDbVertex
100
AcDb2dVertex
 10
103.5574906913616
 20
-130.4609263562735
 30
0.0
  0
VERTEX
  5
110
330
10E
100
AcDbEntity
  8
_U+30EC_U+30A4_U+30E4_U+30FC 1
 62
   179
420
  2234388
370
     9
100
AcDbVertex
100
AcDb2dVertex
 10
103.5574906913616
 20
-119.5007205256803
 30
0.0
  0
SEQEND
  5
111
330
10E
100
AcDbEntity
  8
_U+30EC_U+30A4_U+30E4_U+30FC 1
 62
   179
420
  2234388
370
     9
  0
INSERT
  5
113
330
1F
100
AcDbEntity
  8
_U+30EC_U+30A4_U+30E4_U+30FC 1
100
AcDbBlockReference
  2
block 7
 10
0.0
 20
0.0
 30
0.0
  0
SPLINE
  5
11A
330
1F
100
AcDbEntity
  8
_U+30EC_U+30A4_U+30E4_U+30FC 1
 62
   179
420
  2234388
370
     9
100
AcDbSpline
210
0.0
220
0.0
230
1.0
 70
    11
 71
     3
 72
    17
 73
    13
 74
     0
 42
0.0000000001
 43
0.0000000001
 12
1.0
 22
0.0
 32
0.0
 13
1.0
 23
0.0
 33
0.0
 40
0.0
 40
0.0
 40
0.0
 40
0.0
 40
1.0
 40
1.0
 40
1.0
 40
2.0
 40
2.0
 40
2.0
 40
3.0
 40
3.0
 40
3.0
 40
4.0
 40
4.0
 40
4.0
 40
4.0
 10
103.5926273571319
 20
-133.0006794111942
 30
0.0
 10
103.5926273571319
 20
-133.0206466334114
 30
0.0
 10
103.5767876353138
 20
-133.0364863556299
 30
0.0
 10
103.5574906913616
 20
-133.0364863556299
 30
0.0
 10
103.5381937474095
 20
-133.0364863556299
 30
0.0
 10
103.5223540255914
 20
-133.0206466334114
 30
0.0
 10
103.5223540255914
 20
-133.0006794111942
 30
0.0
 10
103.5223540255914
 20
-132.9813824667544
 30
0.0
 10
103.5381937474095
 20
-132.9655427445365
 30
0.0
 10
103.5574906913616
 20
-132.9655427445365
 30
0.0
 10
103.5767876353138
 20
-132.9655427445365
 30
0.0
 10
103.5926273571319
 20
-132.9813824667544
 30
0.0
 10
103.5926273571319
 20
-133.0006794111942
 30
0.0
  0
SPLINE
  5
11B
330
1F
100
AcDbEntity
  8
_U+30EC_U+30A4_U+30E4_U+30FC 1
 62
   179
420
  2234388
370
     9
100
AcDbSpline
210
0.0
220
0.0
230
1.0
 70
    11
 71
     3
 72
    17
 73
    13
 74
     0
 42
0.0000000001
 43
0.0000000001
 12
1.0
 22
0.0
 32
0.0
 13
1.0
 23
0.0
 33
0.0
 40
0.0
 40
0.0
 40
0.0
 40
0.0
 40
1.0
 40
1.0
 40
1.0
 40
2.0
 40
2.0
 40
2.0
 40
3.0
 40
3.0
 40
3.0
 40
4.0
 40
4.0
 40
4.0
 40
4.0
 10
103.5926273571319
 20
-120.5011630254302
 30
0.0
 10
103.5926273571319
 20
-120.52045996987
 30
0.0
 10
103.5767876353138
 20
-120.5362996920882
 30
0.0
 10
103.5574906913616
 20
-120.5362996920882
 30
0.0
 10
103.5381937474095
 20
-120.5362996920882
 30
0.0
 10
103.5223540255914
 20
-120.52045996987
 30
0.0
 10
103.5223540255914
 20
-120.5011630254302
 30
0.0
 10
103.5223540255914
 20
-120.481195803213
 30
0.0
 10
103.5381937474095
 20
-120.4653560809948
 30
0.0
 10
103.5574906913616
 20
-120.4653560809948
 30
0.0
 10
103.5767876353138
 20
-120.4653560809948
 30
0.0
 10
103.5926273571319
 20
-120.481195803213
 30
0.0
 10
103.5926273571319
 20
-120.5011630254302
 30
0.0
  0
ENDSEC
  0
SECTION
  2
OBJECTS
  0
DICTIONARY
  5
C
330
0
100
AcDbDictionary
281
     1
  3
ACAD_GROUP
350
D
  3
ACAD_LAYOUT
350
1A
  3
ACAD_MATERIAL
350
3B
  3
ACAD_MLEADERSTYLE
350
11F
  3
ACAD_MLINESTYLE
350
17
  3
ACAD_PLOTSETTINGS
350
19
  3
ACAD_PLOTSTYLENAME
350
E
  3
ACAD_TABLESTYLE
350
11E
  3
ACAD_VISUALSTYLE
350
2A
  0
SUN
  5
3F
330
29
100
AcDbSun
 90
        1
290
     0
 63
     7
421
 16777215
 40
1.0
291
     1
 91
  2455826
 92
 54000000
292
     0
 70
     2
 71
   256
280
     1
  0
DICTIONARY
  5
D
102
{ACAD_REACTORS
330
C
102
}
330
C
100
AcDbDictionary
281
     1
  0
DICTIONARY
  5
1A
102
{ACAD_REACTORS
330
C
102
}
330
C
100
AcDbDictionary
281
     1
  3
Layout1
350
1E
  3
Layout2
350
26
  3
Model
350
22
  0
DICTIONARY
  5
3B
102
{ACAD_REACTORS
330
C
102
}
330
C
100
AcDbDictionary
281
     1
  3
ByBlock
350
3D
  3
ByLayer
350
3C
  3
Global
350
3E
  0
DICTIONARY
  5
11F
102
{ACAD_REACTORS
330
C
102
}
330
C
100
AcDbDictionary
281
     1
  0
DICTIONARY
  5
17
102
{ACAD_REACTORS
330
C
102
}
330
C
100
AcDbDictionary
281
     1
  3
Standard
350
18
  0
DICTIONARY
  5
19
102
{ACAD_REACTORS
330
C
102
}
330
C
100
AcDbDictionary
281
     1
  0
ACDBDICTIONARYWDFLT
  5
E
102
{ACAD_REACTORS
330
C
102
}
330
C
100
AcDbDictionary
281
     1
  3
Normal
350
F
100
AcDbDictionaryWithDefault
340
F
  0
DICTIONARY
  5
11E
102
{ACAD_REACTORS
330
C
102
}
330
C
100
AcDbDictionary
281
     1
  0
DICTIONARY
  5
2A
102
{ACAD_REACTORS
330
C
102
}
330
C
100
AcDbDictionary
281
     1
  3
2dWireframe
350
2F
  3
3D Hidden
350
31
  3
3dWireframe
350
30
  3
Basic
350
32
  3
Brighten
350
36
  3
ColorChange
350
3A
  3
Conceptual
350
34
  3
Dim
350
35
  3
Facepattern
350
39
  3
Flat
350
2B
  3
FlatWithEdges
350
2C
  3
Gouraud
350
2D
  3
GouraudWithEdges
350
2E
  3
Linepattern
350
38
  3
Realistic
350
33
  3
Thicken
350
37
  0
LAYOUT
  5
1E
102
{ACAD_REACTORS
330
1A
102
}
330
1A
100
AcDbPlotSettings
  1

  2
none_device
  4

  6

 40
0.0
 41
0.0
 42
0.0
 43
0.0
 44
0.0
 45
0.0
 46
0.0
 47
0.0
 48
0.0
 49
0.0
140
0.0
141
0.0
142
1.0
143
1.0
 70
   688
 72
     0
 73
     0
 74
     5
  7

 75
    16
 76
     0
 77
     2
 78
   300
147
1.0
148
0.0
149
0.0
100
AcDbLayout
  1
Layout1
 70
     1
 71
     1
 10
0.0
 20
0.0
 11
12.0
 21
9.0
 12
0.0
 22
0.0
 32
0.0
 14
1.000000000000000E+20
 24
1.000000000000000E+20
 34
1.000000000000000E+20
 15
-1.000000000000000E+20
 25
-1.000000000000000E+20
 35
-1.000000000000000E+20
146
0.0
 13
0.0
 23
0.0
 33
0.0
 16
1.0
 26
0.0
 36
0.0
 17
0.0
 27
1.0
 37
0.0
 76
     0
330
1B
  0
LAYOUT
  5
26
102
{ACAD_REACTORS
330
1A
102
}
330
1A
100
AcDbPlotSettings
  1

  2
none_device
  4

  6

 40
0.0
 41
0.0
 42
0.0
 43
0.0
 44
0.0
 45
0.0
 46
0.0
 47
0.0
 48
0.0
 49
0.0
140
0.0
141
0.0
142
1.0
143
1.0
 70
   688
 72
     0
 73
     0
 74
     5
  7

 75
    16
 76
     0
 77
     2
 78
   300
147
1.0
148
0.0
149
0.0
100
AcDbLayout
  1
Layout2
 70
     1
 71
     2
 10
0.0
 20
0.0
 11
0.0
 21
0.0
 12
0.0
 22
0.0
 32
0.0
 14
0.0
 24
0.0
 34
0.0
 15
0.0
 25
0.0
 35
0.0
146
0.0
 13
0.0
 23
0.0
 33
0.0
 16
1.0
 26
0.0
 36
0.0
 17
0.0
 27
1.0
 37
0.0
 76
     0
330
23
  0
LAYOUT
  5
22
102
{ACAD_REACTORS
330
1A
102
}
330
1A
100
AcDbPlotSettings
  1

  2
none_device
  4

  6

 40
0.0
 41
0.0
 42
0.0
 43
0.0
 44
0.0
 45
0.0
 46
0.0
 47
0.0
 48
0.0
 49
0.0
140
0.0
141
0.0
142
1.0
143
1.0
 70
  1712
 72
     0
 73
     0
 74
     0
  7

 75
     0
 76
     0
 77
     2
 78
   300
147
1.0
148
0.0
149
0.0
100
AcDbLayout
  1
Model
 70
     1
 71
     0
 10
0.0
 20
0.0
 11
12.0
 21
9.0
 12
0.0
 22
0.0
 32
0.0
 14
1.000000000000000E+20
 24
1.000000000000000E+20
 34
1.000000000000000E+20
 15
-1.000000000000000E+20
 25
-1.000000000000000E+20
 35
-1.000000000000000E+20
146
0.0
 13
0.0
 23
0.0
 33
0.0
 16
1.0
 26
0.0
 36
0.0
 17
0.0
 27
1.0
 37
0.0
 76
     0
330
1F
331
29
  0
MATERIAL
  5
3D
102
{ACAD_REACTORS
330
3B
102
}
330
3B
100
AcDbMaterial
  1
ByBlock
 72
     1
 94
      127
  0
MATERIAL
  5
3C
102
{ACAD_REACTORS
330
3B
102
}
330
3B
100
AcDbMaterial
  1
ByLayer
 72
     1
 94
      127
  0
MATERIAL
  5
3E
102
{ACAD_REACTORS
330
3B
102
}
330
3B
100
AcDbMaterial
  1
Global
 72
     1
 94
      127
  0
MLINESTYLE
  5
18
102
{ACAD_REACTORS
330
17
102
}
330
17
100
AcDbMlineStyle
  2
Standard
 70
     0
  3

 62
   256
 51
90.0
 52
90.0
 71
     2
 49
0.5
 62
   256
  6
BYLAYER
 49
-0.5
 62
   256
  6
BYLAYER
  0
ACDBPLACEHOLDER
  5
F
102
{ACAD_REACTORS
330
E
102
}
330
E
  0
VISUALSTYLE
  5
2F
102
{ACAD_REACTORS
330
2A
102
}
330
2A
100
AcDbVisualStyle
  2
2dWireframe
 70
     4
177
     2
291
     0
 71
     0
176
     1
 72
     2
176
     1
 73
     0
176
     1
 90
        0
176
     1
 40
-0.6
176
     1
 41
-30.0
176
     1
 62
     5
 63
     7
421
 16777215
176
     1
 74
     1
176
     1
 91
        4
176
     1
 64
     7
176
     1
 65
   257
176
     1
 75
     1
176
     1
175
     1
176
     1
 42
1.0
176
     1
 92
        0
176
     1
 66
   257
176
     1
 43
1.0
176
     1
 76
     1
176
     1
 77
     6
176
     1
 78
     2
176
     1
 67
     7
176
     1
 79
     5
176
     1
170
     0
176
     1
171
     0
176
     1
290
     0
176
     1
 93
        1
176
     1
 44
0.0
176
     1
173
     0
176
     1
  0
VISUALSTYLE
  5
31
102
{ACAD_REACTORS
330
2A
102
}
330
2A
100
AcDbVisualStyle
  2
3D Hidden
 70
     6
177
     2
291
     0
 71
     1
176
     1
 72
     2
176
     1
 73
     2
176
     1
 90
        0
176
     1
 40
-0.6
176
     1
 41
-30.0
176
     1
 62
     5
 63
     7
421
 16777215
176
     1
 74
     2
176
     1
 91
        2
176
     1
 64
     7
176
     1
 65
   257
176
     1
 75
     2
176
     1
175
     1
176
     1
 42
40.0
176
     1
 92
        0
176
     1
 66
   257
176
     1
 43
1.0
176
     1
 76
     1
176
     1
 77
     6
176
     1
 78
     2
176
     1
 67
     7
176
     1
 79
     3
176
     1
170
     0
176
     1
171
     0
176
     1
290
     0
176
     1
 93
        1
176
     1
 44
0.0
176
     1
173
     0
176
     1
  0
VISUALSTYLE
  5
30
102
{ACAD_REACTORS
330
2A
102
}
330
2A
100
AcDbVisualStyle
  2
3dWireframe
 70
     5
177
     2
291
     0
 71
     0
176
     1
 72
     2
176
     1
 73
     0
176
     1
 90
        0
176
     1
 40
-0.6
176
     1
 41
-30.0
176
     1
 62
     5
 63
     7
421
 16777215
176
     1
 74
     1
176
     1
 91
        4
176
     1
 64
     7
176
     1
 65
   257
176
     1
 75
     1
176
     1
175
     1
176
     1
 42
1.0
176
     1
 92
        0
176
     1
 66
   257
176
     1
 43
1.0
176
     1
 76
     1
176
     1
 77
     6
176
     1
 78
     2
176
     1
 67
     7
176
     1
 79
     5
176
     1
170
     0
176
     1
171
     0
176
     1
290
     0
176
     1
 93
        1
176
     1
 44
0.0
176
     1
173
     0
176
     1
  0
VISUALSTYLE
  5
32
102
{ACAD_REACTORS
330
2A
102
}
330
2A
100
AcDbVisualStyle
  2
Basic
 70
     7
177
     2
291
     1
 71
     1
176
     1
 72
     0
176
     1
 73
     1
176
     1
 90
        0
176
     1
 40
-0.6
176
     1
 41
-30.0
176
     1
 62
     5
 63
     7
421
 16777215
176
     1
 74
     0
176
     1
 91
        4
176
     1
 64
     7
176
     1
 65
   257
176
     1
 75
     1
176
     1
175
     1
176
     1
 42
1.0
176
     1
 92
        8
176
     1
 66
     7
176
     1
 43
1.0
176
     1
 76
     1
176
     1
 77
     6
176
     1
 78
     2
176
     1
 67
     7
176
     1
 79
     5
176
     1
170
     0
176
     1
171
     0
176
     1
290
     0
176
     1
 93
        1
176
     1
 44
0.0
176
     1
173
     0
176
     1
  0
VISUALSTYLE
  5
36
102
{ACAD_REACTORS
330
2A
102
}
330
2A
100
AcDbVisualStyle
  2
Brighten
 70
    12
177
     2
291
     1
 71
     2
176
     1
 72
     2
176
     1
 73
     0
176
     1
 90
        0
176
     1
 40
-0.6
176
     1
 41
-30.0
176
     1
 62
     5
 63
     7
421
 16777215
176
     1
 74
     1
176
     1
 91
        4
176
     1
 64
     7
176
     1
 65
   257
176
     1
 75
     1
176
     1
175
     1
176
     1
 42
1.0
176
     1
 92
        8
176
     1
 66
     7
176
     1
 43
1.0
176
     1
 76
     1
176
     1
 77
     6
176
     1
 78
     2
176
     1
 67
     7
176
     1
 79
     5
176
     1
170
     0
176
     1
171
     0
176
     1
290
     0
176
     1
 93
        1
176
     1
 44
50.0
176
     1
173
     0
176
     1
  0
VISUALSTYLE
  5
3A
102
{ACAD_REACTORS
330
2A
102
}
330
2A
100
AcDbVisualStyle
  2
ColorChange
 70
    16
177
     2
291
     1
 71
     2
176
     1
 72
     2
176
     1
 73
     3
176
     1
 90
        0
176
     1
 40
-0.6
176
     1
 41
-30.0
176
     1
 62
     5
 63
     8
421
  8421504
176
     1
 74
     1
176
     1
 91
        4
176
     1
 64
     7
176
     1
 65
   257
176
     1
 75
     1
176
     1
175
     1
176
     1
 42
1.0
176
     1
 92
        8
176
     1
 66
     8
424
  8421504
176
     1
 43
1.0
176
     1
 76
     1
176
     1
 77
     6
176
     1
 78
     2
176
     1
 67
     7
176
     1
 79
     5
176
     1
170
     0
176
     1
171
     0
176
     1
290
     0
176
     1
 93
        1
176
     1
 44
0.0
176
     1
173
     0
176
     1
  0
VISUALSTYLE
  5
34
102
{ACAD_REACTORS
330
2A
102
}
330
2A
100
AcDbVisualStyle
  2
Conceptual
 70
     9
177
     2
291
     0
 71
     3
176
     1
 72
     2
176
     1
 73
     0
176
     1
 90
        0
176
     1
 40
-0.6
176
     1
 41
-30.0
176
     1
 62
     5
 63
     7
421
 16777215
176
     1
 74
     2
176
     1
 91
        2
176
     1
 64
     7
176
     1
 65
   257
176
     1
 75
     1
176
     1
175
     1
176
     1
 42
40.0
176
     1
 92
        8
176
     1
 66
     7
176
     1
 43
1.0
176
     1
 76
     1
176
     1
 77
     6
176
     1
 78
     2
176
     1
 67
     7
176
     1
 79
     3
176
     1
170
     0
176
     1
171
     0
176
     1
290
     0
176
     1
 93
        1
176
     1
 44
0.0
176
     1
173
     0
176
     1
  0
VISUALSTYLE
  5
35
102
{ACAD_REACTORS
330
2A
102
}
330
2A
100
AcDbVisualStyle
  2
Dim
 70
    11
177
     2
291
     1
 71
     2
176
     1
 72
     2
176
     1
 73
     0
176
     1
 90
        0
176
     1
 40
-0.6
176
     1
 41
-30.0
176
     1
 62
     5
 63
     7
421
 16777215
176
     1
 74
     1
176
     1
 91
        4
176
     1
 64
     7
176
     1
 65
   257
176
     1
 75
     1
176
     1
175
     1
176
     1
 42
1.0
176
     1
 92
        8
176
     1
 66
     7
176
     1
 43
1.0
176
     1
 76
     1
176
     1
 77
     6
176
     1
 78
     2
176
     1
 67
     7
176
     1
 79
     5
176
     1
170
     0
176
     1
171
     0
176
     1
290
     0
176
     1
 93
        1
176
     1
 44
-50.0
176
     1
173
     0
176
     1
  0
VISUALSTYLE
  5
39
102
{ACAD_REACTORS
330
2A
102
}
330
2A
100
AcDbVisualStyle
  2
Facepattern
 70
    15
177
     2
291
     1
 71
     2
176
     1
 72
     2
176
     1
 73
     0
176
     1
 90
        0
176
     1
 40
-0.6
176
     1
 41
-30.0
176
     1
 62
     5
 63
     7
421
 16777215
176
     1
 74
     1
176
     1
 91
        4
176
     1
 64
     7
176
     1
 65
   257
176
     1
 75
     1
176
     1
175
     1
176
     1
 42
1.0
176
     1
 92
        8
176
     1
 66
     7
176
     1
 43
1.0
176
     1
 76
     1
176
     1
 77
     6
176
     1
 78
     2
176
     1
 67
     7
176
     1
 79
     5
176
     1
170
     0
176
     1
171
     0
176
     1
290
     0
176
     1
 93
        1
176
     1
 44
0.0
176
     1
173
     0
176
     1
  0
VISUALSTYLE
  5
2B
102
{ACAD_REACTORS
330
2A
102
}
330
2A
100
AcDbVisualStyle
  2
Flat
 70
     0
177
     2
291
     1
 71
     2
176
     1
 72
     1
176
     1
 73
     1
176
     1
 90
        2
176
     1
 40
-0.6
176
     1
 41
30.0
176
     1
 62
     5
 63
     7
421
 16777215
176
     1
 74
     0
176
     1
 91
        4
176
     1
 64
     7
176
     1
 65
   257
176
     1
 75
     1
176
     1
175
     1
176
     1
 42
1.0
176
     1
 92
        8
176
     1
 66
     7
176
     1
 43
1.0
176
     1
 76
     1
176
     1
 77
     6
176
     1
 78
     2
176
     1
 67
     7
176
     1
 79
     5
176
     1
170
     0
176
     1
171
     0
176
     1
290
     0
176
     1
 93
       13
176
     1
 44
0.0
176
     1
173
     0
176
     1
  0
VISUALSTYLE
  5
2C
102
{ACAD_REACTORS
330
2A
102
}
330
2A
100
AcDbVisualStyle
  2
FlatWithEdges
 70
     1
177
     2
291
     1
 71
     2
176
     1
 72
     1
176
     1
 73
     1
176
     1
 90
        2
176
     1
 40
-0.6
176
     1
 41
30.0
176
     1
 62
     5
 63
     7
421
 16777215
176
     1
 74
     1
176
     1
 91
        4
176
     1
 64
     7
176
     1
 65
   257
176
     1
 75
     1
176
     1
175
     1
176
     1
 42
1.0
176
     1
 92
        0
176
     1
 66
   257
176
     1
 43
1.0
176
     1
 76
     1
176
     1
 77
     6
176
     1
 78
     2
176
     1
 67
     7
176
     1
 79
     5
176
     1
170
     0
176
     1
171
     0
176
     1
290
     0
176
     1
 93
       13
176
     1
 44
0.0
176
     1
173
     0
176
     1
  0
VISUALSTYLE
  5
2D
102
{ACAD_REACTORS
330
2A
102
}
330
2A
100
AcDbVisualStyle
  2
Gouraud
 70
     2
177
     2
291
     1
 71
     2
176
     1
 72
     2
176
     1
 73
     1
176
     1
 90
        2
176
     1
 40
-0.6
176
     1
 41
30.0
176
     1
 62
     5
 63
     7
421
 16777215
176
     1
 74
     0
176
     1
 91
        4
176
     1
 64
     7
176
     1
 65
   257
176
     1
 75
     1
176
     1
175
     1
176
     1
 42
1.0
176
     1
 92
        0
176
     1
 66
     7
176
     1
 43
1.0
176
     1
 76
     1
176
     1
 77
     6
176
     1
 78
     2
176
     1
 67
     7
176
     1
 79
     5
176
     1
170
     0
176
     1
171
     0
176
     1
290
     0
176
     1
 93
       13
176
     1
 44
0.0
176
     1
173
     0
176
     1
  0
VISUALSTYLE
  5
2E
102
{ACAD_REACTORS
330
2A
102
}
330
2A
100
AcDbVisualStyle
  2
GouraudWithEdges
 70
     3
177
     2
291
     1
 71
     2
176
     1
 72
     2
176
     1
 73
     1
176
     1
 90
        2
176
     1
 40
-0.6
176
     1
 41
30.0
176
     1
 62
     5
 63
     7
421
 16777215
176
     1
 74
     1
176
     1
 91
        4
176
     1
 64
     7
176
     1
 65
   257
176
     1
 75
     1
176
     1
175
     1
176
     1
 42
1.0
176
     1
 92
        0
176
     1
 66
   257
176
     1
 43
1.0
176
     1
 76
     1
176
     1
 77
     6
176
     1
 78
     2
176
     1
 67
     7
176
     1
 79
     5
176
     1
170
     0
176
     1
171
     0
176
     1
290
     0
176
     1
 93
       13
176
     1
 44
0.0
176
     1
173
     0
176
     1
  0
VISUALSTYLE
  5
38
102
{ACAD_REACTORS
330
2A
102
}
330
2A
100
AcDbVisualStyle
  2
Linepattern
 70
    14
177
     2
291
     1
 71
     2
176
     1
 72
     2
176
     1
 73
     0
176
     1
 90
        0
176
     1
 40
-0.6
176
     1
 41
-30.0
176
     1
 62
     5
 63
     7
421
 16777215
176
     1
 74
     1
176
     1
 91
        4
176
     1
 64
     7
176
     1
 65
   257
176
     1
 75
     7
176
     1
175
     7
176
     1
 42
1.0
176
     1
 92
        8
176
     1
 66
     7
176
     1
 43
1.0
176
     1
 76
     1
176
     1
 77
     6
176
     1
 78
     2
176
     1
 67
     7
176
     1
 79
     5
176
     1
170
     0
176
     1
171
     0
176
     1
290
     0
176
     1
 93
        1
176
     1
 44
0.0
176
     1
173
     0
176
     1
  0
VISUALSTYLE
  5
33
102
{ACAD_REACTORS
330
2A
102
}
330
2A
100
AcDbVisualStyle
  2
Realistic
 70
     8
177
     2
291
     0
 71
     2
176
     1
 72
     2
176
     1
 73
     0
176
     1
 90
        0
176
     1
 40
-0.6
176
     1
 41
-30.0
176
     1
 62
     5
 63
     7
421
 16777215
176
     1
 74
     1
176
     1
 91
        0
176
     1
 64
     7
176
     1
 65
   257
176
     1
 75
     1
176
     1
175
     1
176
     1
 42
1.0
176
     1
 92
        8
176
     1
 66
     8
424
  7895160
176
     1
 43
1.0
176
     1
 76
     1
176
     1
 77
     6
176
     1
 78
     2
176
     1
 67
     7
176
     1
 79
     5
176
     1
170
     0
176
     1
171
     0
176
     1
290
     0
176
     1
 93
       13
176
     1
 44
0.0
176
     1
173
     0
176
     1
  0
VISUALSTYLE
  5
37
102
{ACAD_REACTORS
330
2A
102
}
330
2A
100
AcDbVisualStyle
  2
Thicken
 70
    13
177
     2
291
     1
 71
     2
176
     1
 72
     2
176
     1
 73
     0
176
     1
 90
        0
176
     1
 40
-0.6
176
     1
 41
-30.0
176
     1
 62
     5
 63
     7
421
 16777215
176
     1
 74
     1
176
     1
 91
        4
176
     1
 64
     7
176
     1
 65
   257
176
     1
 75
     1
176
     1
175
     1
176
     1
 42
1.0
176
     1
 92
       12
176
     1
 66
     7
176
     1
 43
1.0
176
     1
 76
     1
176
     1
 77
     6
176
     1
 78
     2
176
     1
 67
     7
176
     1
 79
     5
176
     1
170
     0
176
     1
171
     0
176
     1
290
     0
176
     1
 93
        1
176
     1
 44
0.0
176
     1
173
     0
176
     1
  0
ENDSEC
  0
EOF
