  0
SECTION
  2
HEADER
  9
$ACADVER
  1
AC1024
  9
$ACADMAINTVER
 70
     6
  9
$DWGCODEPAGE
  3
UNDEFINED
  9
$INSBASE
 10
0.0
 20
0.0
 30
0.0
  9
$EXTMIN
 10
1.000000000000000E+20
 20
1.000000000000000E+20
 30
1.000000000000000E+20
  9
$EXTMAX
 10
-1.000000000000000E+20
 20
-1.000000000000000E+20
 30
-1.000000000000000E+20
  9
$LIMMIN
 10
0.0
 20
0.0
  9
$LIMMAX
 10
12.0
 20
9.0
  9
$ORTHOMODE
 70
     0
  9
$REGENMODE
 70
     1
  9
$FILLMODE
 70
     1
  9
$QTEXTMODE
 70
     0
  9
$MIRRTEXT
 70
     1
  9
$LTSCALE
 40
1.0
  9
$ATTMODE
 70
     1
  9
$TEXTSIZE
 40
0.2
  9
$TRACEWID
 40
0.05
  9
$TEXTSTYLE
  7
Standard
  9
$CLAYER
  8
0
  9
$CELTYPE
  6
ByLayer
  9
$CECOLOR
 62
   256
  9
$CELTSCALE
 40
1.0
  9
$DISPSILH
 70
     0
  9
$DIMSCALE
 40
1.0
  9
$DIMASZ
 40
0.18
  9
$DIMEXO
 40
0.0625
  9
$DIMDLI
 40
0.38
  9
$DIMRND
 40
0.0
  9
$DIMDLE
 40
0.0
  9
$DIMEXE
 40
0.18
  9
$DIMTP
 40
0.0
  9
$DIMTM
 40
0.0
  9
$DIMTXT
 40
0.18
  9
$DIMCEN
 40
0.09
  9
$DIMTSZ
 40
0.0
  9
$DIMTOL
 70
     0
  9
$DIMLIM
 70
     0
  9
$DIMTIH
 70
     1
  9
$DIMTOH
 70
     1
  9
$DIMSE1
 70
     0
  9
$DIMSE2
 70
     0
  9
$DIMTAD
 70
     0
  9
$DIMZIN
 70
     0
  9
$DIMBLK
  1

  9
$DIMASO
 70
     1
  9
$DIMSHO
 70
     1
  9
$DIMPOST
  1

  9
$DIMAPOST
  1

  9
$DIMALT
 70
     0
  9
$DIMALTD
 70
     2
  9
$DIMALTF
 40
25.4
  9
$DIMLFAC
 40
1.0
  9
$DIMTOFL
 70
     0
  9
$DIMTVP
 40
0.0
  9
$DIMTIX
 70
     0
  9
$DIMSOXD
 70
     0
  9
$DIMSAH
 70
     0
  9
$DIMBLK1
  1

  9
$DIMBLK2
  1

  9
$DIMSTYLE
  2
Standard
  9
$DIMCLRD
 70
     0
  9
$DIMCLRE
 70
     0
  9
$DIMCLRT
 70
     0
  9
$DIMTFAC
 40
1.0
  9
$DIMGAP
 40
0.09
  9
$DIMJUST
 70
     0
  9
$DIMSD1
 70
     0
  9
$DIMSD2
 70
     0
  9
$DIMTOLJ
 70
     1
  9
$DIMTZIN
 70
     0
  9
$DIMALTZ
 70
     0
  9
$DIMALTTZ
 70
     0
  9
$DIMUPT
 70
     0
  9
$DIMDEC
 70
     4
  9
$DIMTDEC
 70
     4
  9
$DIMALTU
 70
     2
  9
$DIMALTTD
 70
     2
  9
$DIMTXSTY
  7
Standard
  9
$DIMAUNIT
 70
     0
  9
$DIMADEC
 70
     0
  9
$DIMALTRND
 40
0.0
  9
$DIMAZIN
 70
     0
  9
$DIMDSEP
 70
    46
  9
$DIMATFIT
 70
     3
  9
$DIMFRAC
 70
     0
  9
$DIMLDRBLK
  1

  9
$DIMLUNIT
 70
     2
  9
$DIMLWD
 70
    -2
  9
$DIMLWE
 70
    -2
  9
$DIMTMOVE
 70
     0
  9
$DIMFXL
 40
1.0
  9
$DIMFXLON
 70
     0
  9
$DIMJOGANG
 40
0.7853981633974483
  9
$DIMTFILL
 70
     0
  9
$DIMTFILLCLR
 70
     0
  9
$DIMARCSYM
 70
     0
  9
$DIMLTYPE
  6

  9
$DIMLTEX1
  6

  9
$DIMLTEX2
  6

  9
$DIMTXTDIRECTION
 70
     0
  9
$LUNITS
 70
     2
  9
$LUPREC
 70
     4
  9
$SKETCHINC
 40
0.1
  9
$FILLETRAD
 40
0.5
  9
$AUNITS
 70
     0
  9
$AUPREC
 70
     0
  9
$MENU
  1
.
  9
$ELEVATION
 40
0.0
  9
$PELEVATION
 40
0.0
  9
$THICKNESS
 40
0.0
  9
$LIMCHECK
 70
     0
  9
$CHAMFERA
 40
0.5
  9
$CHAMFERB
 40
0.5
  9
$CHAMFERC
 40
1.0
  9
$CHAMFERD
 40
0.0
  9
$SKPOLY
 70
     0
  9
$TDCREATE
 40
2457917.609652766
  9
$TDUCREATE
 40
2457917.234652778
  9
$TDUPDATE
 40
2457917.609652766
  9
$TDUUPDATE
 40
2457917.234652778
  9
$TDINDWG
 40
0.0000000116
  9
$TDUSRTIMER
 40
0.0000000116
  9
$USRTIMER
 70
     1
  9
$ANGBASE
 50
0.0
  9
$ANGDIR
 70
     0
  9
$PDMODE
 70
     0
  9
$PDSIZE
 40
0.0
  9
$PLINEWID
 40
0.0
  9
$SPLFRAME
 70
     0
  9
$SPLINETYPE
 70
     6
  9
$SPLINESEGS
 70
     8
  9
$HANDSEED
  5
D1
  9
$SURFTAB1
 70
     6
  9
$SURFTAB2
 70
     6
  9
$SURFTYPE
 70
     6
  9
$SURFU
 70
     6
  9
$SURFV
 70
     6
  9
$UCSBASE
  2

  9
$UCSNAME
  2

  9
$UCSORG
 10
0.0
 20
0.0
 30
0.0
  9
$UCSXDIR
 10
1.0
 20
0.0
 30
0.0
  9
$UCSYDIR
 10
0.0
 20
1.0
 30
0.0
  9
$UCSORTHOREF
  2

  9
$UCSORTHOVIEW
 70
     0
  9
$UCSORGTOP
 10
0.0
 20
0.0
 30
0.0
  9
$UCSORGBOTTOM
 10
0.0
 20
0.0
 30
0.0
  9
$UCSORGLEFT
 10
0.0
 20
0.0
 30
0.0
  9
$UCSORGRIGHT
 10
0.0
 20
0.0
 30
0.0
  9
$UCSORGFRONT
 10
0.0
 20
0.0
 30
0.0
  9
$UCSORGBACK
 10
0.0
 20
0.0
 30
0.0
  9
$PUCSBASE
  2

  9
$PUCSNAME
  2

  9
$PUCSORG
 10
0.0
 20
0.0
 30
0.0
  9
$PUCSXDIR
 10
1.0
 20
0.0
 30
0.0
  9
$PUCSYDIR
 10
0.0
 20
1.0
 30
0.0
  9
$PUCSORTHOREF
  2

  9
$PUCSORTHOVIEW
 70
     0
  9
$PUCSORGTOP
 10
0.0
 20
0.0
 30
0.0
  9
$PUCSORGBOTTOM
 10
0.0
 20
0.0
 30
0.0
  9
$PUCSORGLEFT
 10
0.0
 20
0.0
 30
0.0
  9
$PUCSORGRIGHT
 10
0.0
 20
0.0
 30
0.0
  9
$PUCSORGFRONT
 10
0.0
 20
0.0
 30
0.0
  9
$PUCSORGBACK
 10
0.0
 20
0.0
 30
0.0
  9
$USERI1
 70
     0
  9
$USERI2
 70
     0
  9
$USERI3
 70
     0
  9
$USERI4
 70
     0
  9
$USERI5
 70
     0
  9
$USERR1
 40
0.0
  9
$USERR2
 40
0.0
  9
$USERR3
 40
0.0
  9
$USERR4
 40
0.0
  9
$USERR5
 40
0.0
  9
$WORLDVIEW
 70
     1
  9
$SHADEDGE
 70
     3
  9
$SHADEDIF
 70
    70
  9
$TILEMODE
 70
     1
  9
$MAXACTVP
 70
    64
  9
$PINSBASE
 10
0.0
 20
0.0
 30
0.0
  9
$PLIMCHECK
 70
     0
  9
$PEXTMIN
 10
1.000000000000000E+20
 20
1.000000000000000E+20
 30
1.000000000000000E+20
  9
$PEXTMAX
 10
-1.000000000000000E+20
 20
-1.000000000000000E+20
 30
-1.000000000000000E+20
  9
$PLIMMIN
 10
0.0
 20
0.0
  9
$PLIMMAX
 10
12.0
 20
9.0
  9
$UNITMODE
 70
     0
  9
$VISRETAIN
 70
     1
  9
$PLINEGEN
 70
     0
  9
$PSLTSCALE
 70
     1
  9
$TREEDEPTH
 70
  3020
  9
$CMLSTYLE
  2
Standard
  9
$CMLJUST
 70
     0
  9
$CMLSCALE
 40
1.0
  9
$PROXYGRAPHICS
 70
     1
  9
$MEASUREMENT
 70
     0
  9
$CELWEIGHT
370
    -1
  9
$ENDCAPS
280
     0
  9
$JOINSTYLE
280
     0
  9
$LWDISPLAY
290
     1
  9
$INSUNITS
 70
     1
  9
$HYPERLINKBASE
  1

  9
$STYLESHEET
  1

  9
$XEDIT
290
     1
  9
$CEPSNTYPE
380
     0
  9
$PSTYLEMODE
290
     1
  9
$FINGERPRINTGUID
  2
{922B6B16-4A4A-6E67-C98C-8725B46CD506}
  9
$VERSIONGUID
  2
{FAEB1C32-E019-11D5-929B-00C0DF256EC4}
  9
$EXTNAMES
290
     1
  9
$PSVPSCALE
 40
0.0
  9
$OLESTARTUP
290
     0
  9
$SORTENTS
280
   127
  9
$INDEXCTL
280
     0
  9
$HIDETEXT
280
     1
  9
$XCLIPFRAME
280
     2
  9
$HALOGAP
280
     0
  9
$OBSCOLOR
 70
   257
  9
$OBSLTYPE
280
     0
  9
$INTERSECTIONDISPLAY
280
     0
  9
$INTERSECTIONCOLOR
 70
   257
  9
$DIMASSOC
280
     2
  9
$PROJECTNAME
  1

  9
$CAMERADISPLAY
290
     0
  9
$LENSLENGTH
 40
50.0
  9
$CAMERAHEIGHT
 40
0.0
  9
$STEPSPERSEC
 40
2.0
  9
$STEPSIZE
 40
6.0
  9
$3DDWFPREC
 40
2.0
  9
$PSOLWIDTH
 40
0.25
  9
$PSOLHEIGHT
 40
4.0
  9
$LOFTANG1
 40
1.570796326794897
  9
$LOFTANG2
 40
1.570796326794897
  9
$LOFTMAG1
 40
0.0
  9
$LOFTMAG2
 40
0.0
  9
$LOFTPARAM
 70
     7
  9
$LOFTNORMALS
280
     1
  9
$LATITUDE
 40
37.795
  9
$LONGITUDE
 40
-122.394
  9
$NORTHDIRECTION
 40
0.0
  9
$TIMEZONE
 70
 -8000
  9
$LIGHTGLYPHDISPLAY
280
     1
  9
$TILEMODELIGHTSYNCH
280
     1
  9
$CMATERIAL
347
3C
  9
$SOLIDHIST
280
     1
  9
$SHOWHIST
280
     1
  9
$DWFFRAME
280
     2
  9
$DGNFRAME
280
     2
  9
$REALWORLDSCALE
290
     1
  9
$INTERFERECOLOR
 62
   256
  9
$CSHADOW
280
     0
  9
$SHADOWPLANELOCATION
 40
0.0
  0
ENDSEC
  0
SECTION
  2
CLASSES
  0
CLASS
  1
ACDBDICTIONARYWDFLT
  2
AcDbDictionaryWithDefault
  3
ObjectDBX Classes
 90
        0
 91
        4
280
     0
281
     0
  0
CLASS
  1
VISUALSTYLE
  2
AcDbVisualStyle
  3
ObjectDBX Classes
 90
     4095
 91
        4
280
     0
281
     0
  0
CLASS
  1
MATERIAL
  2
AcDbMaterial
  3
ObjectDBX Classes
 90
     1153
 91
        4
280
     0
281
     0
  0
CLASS
  1
SUN
  2
AcDbSun
  3
SCENEOE
 90
     1024
 91
        4
280
     0
281
     0
  0
ENDSEC
  0
SECTION
  2
TABLES
  0
TABLE
  2
VPORT
  5
8
330
0
100
AcDbSymbolTable
 70
     1
  0
VPORT
  5
29
330
8
100
AcDbSymbolTableRecord
100
AcDbViewportTableRecord
  2
*Active
 70
     0
 10
0.0
 20
0.0
 11
1.0
 21
1.0
 12
0.0
 22
0.0
 13
0.0
 23
0.0
 14
0.5
 24
0.5
 15
0.5
 25
0.5
 16
0.0
 26
0.0
 36
1.0
 17
91.00082462281999
 27
-128.4993055234307
 37
0.0
 40
256.9986110468615
 41
0.7081814508812795
 42
50.0
 43
0.0
 44
0.0
 50
0.0
 51
0.0
 71
     0
 72
   100
 73
     1
 74
     3
 75
     0
 76
     0
 77
     0
 78
     0
281
     0
 65
     1
110
0.0
120
0.0
130
0.0
111
1.0
121
0.0
131
0.0
112
0.0
122
1.0
132
0.0
 79
     0
146
0.0
 60
     3
 61
     5
292
     1
282
     1
141
0.0
142
0.0
 63
   250
361
3F
  0
ENDTAB
  0
TABLE
  2
LTYPE
  5
5
330
0
100
AcDbSymbolTable
 70
     1
  0
LTYPE
  5
14
330
5
100
AcDbSymbolTableRecord
100
AcDbLinetypeTableRecord
  2
ByBlock
 70
     0
  3

 72
    65
 73
     0
 40
0.0
  0
LTYPE
  5
15
330
5
100
AcDbSymbolTableRecord
100
AcDbLinetypeTableRecord
  2
ByLayer
 70
     0
  3

 72
    65
 73
     0
 40
0.0
  0
LTYPE
  5
16
330
5
100
AcDbSymbolTableRecord
100
AcDbLinetypeTableRecord
  2
Continuous
 70
     0
  3
Solid line
 72
    65
 73
     0
 40
0.0
  0
ENDTAB
  0
TABLE
  2
LAYER
  5
2
330
0
100
AcDbSymbolTable
 70
     2
  0
LAYER
  5
10
330
2
100
AcDbSymbolTableRecord
100
AcDbLayerTableRecord
  2
0
 70
     0
 62
     7
  6
Continuous
370
    -3
390
F
347
3E
  0
LAYER
  5
40
330
2
100
AcDbSymbolTableRecord
100
AcDbLayerTableRecord
  2
_U+30EC_U+30A4_U+30E4_U+30FC 1
 70
     0
 62
     7
  6
Continuous
370
    -3
390
F
347
3E
  0
ENDTAB
  0
TABLE
  2
STYLE
  5
3
330
0
100
AcDbSymbolTable
 70
     1
  0
STYLE
  5
11
330
3
100
AcDbSymbolTableRecord
100
AcDbTextStyleTableRecord
  2
Standard
 70
     0
 40
0.0
 41
1.0
 50
0.0
 71
     0
 42
0.2
  3
txt
  4

  0
ENDTAB
  0
TABLE
  2
VIEW
  5
6
330
0
100
AcDbSymbolTable
 70
     0
  0
ENDTAB
  0
TABLE
  2
UCS
  5
7
330
0
100
AcDbSymbolTable
 70
     0
  0
ENDTAB
  0
TABLE
  2
APPID
  5
9
330
0
100
AcDbSymbolTable
 70
     1
  0
APPID
  5
12
330
9
100
AcDbSymbolTableRecord
100
AcDbRegAppTableRecord
  2
ACAD
 70
     0
  0
ENDTAB
  0
TABLE
  2
DIMSTYLE
  5
A
330
0
100
AcDbSymbolTable
 70
     1
100
AcDbDimStyleTable
  0
DIMSTYLE
105
27
330
A
100
AcDbSymbolTableRecord
100
AcDbDimStyleTableRecord
  2
Standard
 70
     0
178
     0
340
11
  0
ENDTAB
  0
TABLE
  2
BLOCK_RECORD
  5
1
330
0
100
AcDbSymbolTable
 70
     4
  0
BLOCK_RECORD
  5
1F
330
1
100
AcDbSymbolTableRecord
100
AcDbBlockTableRecord
  2
*Model_Space
340
22
 70
     0
280
     1
281
     0
  0
BLOCK_RECORD
  5
1B
330
1
100
AcDbSymbolTableRecord
100
AcDbBlockTableRecord
  2
*Paper_Space
340
1E
 70
     0
280
     1
281
     0
  0
BLOCK_RECORD
  5
23
330
1
100
AcDbSymbolTableRecord
100
AcDbBlockTableRecord
  2
*Paper_Space0
340
26
 70
     0
280
     1
281
     0
  0
BLOCK_RECORD
  5
67
330
1
100
AcDbSymbolTableRecord
100
AcDbBlockTableRecord
  2
block 2
340
0
102
{BLKREFS
331
68
102
}
 70
     0
280
     1
281
     0
  0
BLOCK_RECORD
  5
88
330
1
100
AcDbSymbolTableRecord
100
AcDbBlockTableRecord
  2
block 3
340
0
102
{BLKREFS
331
89
102
}
 70
     0
280
     1
281
     0
  0
BLOCK_RECORD
  5
AA
330
1
100
AcDbSymbolTableRecord
100
AcDbBlockTableRecord
  2
block 4
340
0
102
{BLKREFS
331
AB
102
}
 70
     0
280
     1
281
     0
  0
ENDTAB
  0
ENDSEC
  0
SECTION
  2
BLOCKS
  0
BLOCK
  5
20
330
1F
100
AcDbEntity
  8
0
100
AcDbBlockBegin
  2
*Model_Space
 70
     0
 10
0.0
 20
0.0
 30
0.0
  3
*Model_Space
  1

  0
ENDBLK
  5
21
330
1F
100
AcDbEntity
  8
0
100
AcDbBlockEnd
  0
BLOCK
  5
1C
330
1B
100
AcDbEntity
 67
     1
  8
0
100
AcDbBlockBegin
  2
*Paper_Space
 70
     0
 10
0.0
 20
0.0
 30
0.0
  3
*Paper_Space
  1

  0
ENDBLK
  5
1D
330
1B
100
AcDbEntity
 67
     1
  8
0
100
AcDbBlockEnd
  0
BLOCK
  5
24
330
23
100
AcDbEntity
  8
0
100
AcDbBlockBegin
  2
*Paper_Space0
 70
     0
 10
0.0
 20
0.0
 30
0.0
  3
*Paper_Space0
  1

  0
ENDBLK
  5
25
330
23
100
AcDbEntity
  8
0
100
AcDbBlockEnd
  0
BLOCK
  5
69
330
67
100
AcDbEntity
  8
0
100
AcDbBlockBegin
  2
block 2
 70
     0
 10
0.0
 20
0.0
 30
0.0
  3
block 2
  1

  0
SPLINE
  5
6B
330
67
100
AcDbEntity
  8
_U+30EC_U+30A4_U+30E4_U+30FC 1
370
     0
100
AcDbSpline
210
0.0
220
0.0
230
1.0
 70
    11
 71
     3
 72
    26
 73
    22
 74
     0
 42
0.0000000001
 43
0.0000000001
 12
1.0
 22
0.0
 32
0.0
 13
1.0
 23
0.0
 33
0.0
 40
0.0
 40
0.0
 40
0.0
 40
0.0
 40
1.0
 40
1.0
 40
1.0
 40
2.0
 40
2.0
 40
2.0
 40
3.0
 40
3.0
 40
3.0
 40
4.0
 40
4.0
 40
4.0
 40
5.0
 40
5.0
 40
5.0
 40
6.0
 40
6.0
 40
6.0
 40
7.0
 40
7.0
 40
7.0
 40
7.0
 10
108.4767550727072
 20
-127.4354600375856
 30
0.0
 10
108.4767550727072
 20
-127.4354600375856
 30
0.0
 10
107.3722574601361
 20
-127.4354600375856
 30
0.0
 10
107.3722574601361
 20
-127.4354600375856
 30
0.0
 10
107.3722574601361
 20
-127.4354600375856
 30
0.0
 10
107.3722574601361
 20
-127.7655001850725
 30
0.0
 10
107.3722574601361
 20
-127.7655001850725
 30
0.0
 10
107.3722574601361
 20
-127.7655001850725
 30
0.0
 10
107.2241183542704
 20
-127.7655001850725
 30
0.0
 10
107.2241183542704
 20
-127.7655001850725
 30
0.0
 10
107.2093044436838
 20
-127.4332207255202
 30
0.0
 10
107.04669593678
 20
-127.3867119364693
 30
0.0
 10
106.9323187666697
 20
-127.3570841152961
 30
0.0
 10
106.9323187666697
 20
-127.3570841152961
 30
0.0
 10
106.9323187666697
 20
-127.2111843214958
 30
0.0
 10
106.9323187666697
 20
-127.2111843214958
 30
0.0
 10
106.9323187666697
 20
-127.2111843214958
 30
0.0
 10
108.4767550727072
 20
-127.2111843214958
 30
0.0
 10
108.4767550727072
 20
-127.2111843214958
 30
0.0
 10
108.4767550727072
 20
-127.2111843214958
 30
0.0
 10
108.4767550727072
 20
-127.4354600375856
 30
0.0
 10
108.4767550727072
 20
-127.4354600375856
 30
0.0
  0
HATCH
  5
6C
330
67
100
AcDbEntity
  8
_U+30EC_U+30A4_U+30E4_U+30FC 1
 62
   179
420
  2234388
100
AcDbHatch
 10
0.0
 20
0.0
 30
0.0
210
0.0
220
0.0
230
1.0
  2
SOLID
 70
     1
 71
     0
 91
        1
 92
        1
 93
        1
 72
     4
 94
        3
 73
     0
 74
     1
 95
       26
 96
       22
 40
0.0
 40
0.0
 40
0.0
 40
0.0
 40
1.0
 40
1.0
 40
1.0
 40
2.0
 40
2.0
 40
2.0
 40
3.0
 40
3.0
 40
3.0
 40
4.0
 40
4.0
 40
4.0
 40
5.0
 40
5.0
 40
5.0
 40
6.0
 40
6.0
 40
6.0
 40
7.0
 40
7.0
 40
7.0
 40
7.0
 10
108.4767550727072
 20
-127.4354600375856
 10
108.4767550727072
 20
-127.4354600375856
 10
107.3722574601361
 20
-127.4354600375856
 10
107.3722574601361
 20
-127.4354600375856
 10
107.3722574601361
 20
-127.4354600375856
 10
107.3722574601361
 20
-127.7655001850725
 10
107.3722574601361
 20
-127.7655001850725
 10
107.3722574601361
 20
-127.7655001850725
 10
107.2241183542704
 20
-127.7655001850725
 10
107.2241183542704
 20
-127.7655001850725
 10
107.2093044436838
 20
-127.4332207255202
 10
107.04669593678
 20
-127.3867119364693
 10
106.9323187666697
 20
-127.3570841152961
 10
106.9323187666697
 20
-127.3570841152961
 10
106.9323187666697
 20
-127.2111843214958
 10
106.9323187666697
 20
-127.2111843214958
 10
106.9323187666697
 20
-127.2111843214958
 10
108.4767550727072
 20
-127.2111843214958
 10
108.4767550727072
 20
-127.2111843214958
 10
108.4767550727072
 20
-127.2111843214958
 10
108.4767550727072
 20
-127.4354600375856
 10
108.4767550727072
 20
-127.4354600375856
 97
        0
 97
        0
 75
     2
 76
     1
 98
        0
  0
POLYLINE
  5
6D
330
67
100
AcDbEntity
  8
_U+30EC_U+30A4_U+30E4_U+30FC 1
370
     0
100
AcDb2dPolyline
 66
     1
 10
0.0
 20
0.0
 30
0.0
  0
VERTEX
  5
6E
330
6D
100
AcDbEntity
  8
_U+30EC_U+30A4_U+30E4_U+30FC 1
370
     0
100
AcDbVertex
100
AcDb2dVertex
 10
108.4767550727072
 20
-126.6499782669486
 30
0.0
  0
VERTEX
  5
6F
330
6D
100
AcDbEntity
  8
_U+30EC_U+30A4_U+30E4_U+30FC 1
370
     0
100
AcDbVertex
100
AcDb2dVertex
 10
108.2249185927354
 20
-126.6499782669486
 30
0.0
  0
VERTEX
  5
70
330
6D
100
AcDbEntity
  8
_U+30EC_U+30A4_U+30E4_U+30FC 1
370
     0
100
AcDbVertex
100
AcDb2dVertex
 10
108.2249185927354
 20
-126.3981417869769
 30
0.0
  0
VERTEX
  5
71
330
6D
100
AcDbEntity
  8
_U+30EC_U+30A4_U+30E4_U+30FC 1
370
     0
100
AcDbVertex
100
AcDb2dVertex
 10
108.4767550727072
 20
-126.3981417869769
 30
0.0
  0
VERTEX
  5
72
330
6D
100
AcDbEntity
  8
_U+30EC_U+30A4_U+30E4_U+30FC 1
370
     0
100
AcDbVertex
100
AcDb2dVertex
 10
108.4767550727072
 20
-126.6499782669486
 30
0.0
  0
SEQEND
  5
73
330
6D
100
AcDbEntity
  8
_U+30EC_U+30A4_U+30E4_U+30FC 1
370
     0
  0
HATCH
  5
74
330
67
100
AcDbEntity
  8
_U+30EC_U+30A4_U+30E4_U+30FC 1
 62
   179
420
  2234388
100
AcDbHatch
 10
0.0
 20
0.0
 30
0.0
210
0.0
220
0.0
230
1.0
  2
SOLID
 70
     1
 71
     0
 91
        1
 92
        1
 93
        4
 72
     1
 10
108.4767550727072
 20
-126.6499782669486
 11
108.2249185927354
 21
-126.6499782669486
 72
     1
 10
108.2249185927354
 20
-126.6499782669486
 11
108.2249185927354
 21
-126.3981417869769
 72
     1
 10
108.2249185927354
 20
-126.3981417869769
 11
108.4767550727072
 21
-126.3981417869769
 72
     1
 10
108.4767550727072
 20
-126.3981417869769
 11
108.4767550727072
 21
-126.6499782669486
 97
        0
 75
     2
 76
     1
 98
        0
  0
SPLINE
  5
75
330
67
100
AcDbEntity
  8
_U+30EC_U+30A4_U+30E4_U+30FC 1
370
     0
100
AcDbSpline
210
0.0
220
0.0
230
1.0
 70
    11
 71
     3
 72
    29
 73
    25
 74
     0
 42
0.0000000001
 43
0.0000000001
 12
1.0
 22
0.0
 32
0.0
 13
1.0
 23
0.0
 33
0.0
 40
0.0
 40
0.0
 40
0.0
 40
0.0
 40
1.0
 40
1.0
 40
1.0
 40
2.0
 40
2.0
 40
2.0
 40
3.0
 40
3.0
 40
3.0
 40
4.0
 40
4.0
 40
4.0
 40
5.0
 40
5.0
 40
5.0
 40
6.0
 40
6.0
 40
6.0
 40
7.0
 40
7.0
 40
7.0
 40
8.0
 40
8.0
 40
8.0
 40
8.0
 10
108.5273979763404
 20
-125.6617526270047
 30
0.0
 10
108.5273979763404
 20
-125.9282307627888
 30
0.0
 10
108.3899386664789
 20
-126.1821343000517
 30
0.0
 10
108.0409504938231
 20
-126.1821343000517
 30
0.0
 10
107.784979899269
 20
-126.1821343000517
 30
0.0
 10
107.6895507543276
 20
-126.0403686208337
 30
0.0
 10
107.6282280546902
 20
-125.9346041894365
 30
0.0
 10
107.5689724123439
 20
-126.0593166460025
 30
0.0
 10
107.4549397517821
 20
-126.1356255110008
 30
0.0
 10
107.2940537926209
 20
-126.1356255110008
 30
0.0
 10
107.019135172898
 20
-126.1356255110008
 30
0.0
 10
106.8837429203277
 20
-125.9366712467276
 30
0.0
 10
106.8837429203277
 20
-125.6617526270047
 30
0.0
 10
106.8837429203277
 20
-125.3782212685687
 30
0.0
 10
107.0274034020626
 20
-125.1878797430086
 30
0.0
 10
107.2940537926209
 20
-125.1878797430086
 30
0.0
 10
107.4549397517821
 20
-125.1878797430086
 30
0.0
 10
107.5689724123439
 20
-125.2660834105238
 30
0.0
 10
107.6282280546902
 20
-125.3909681218641
 30
0.0
 10
107.6792154678719
 20
-125.3020846583446
 30
0.0
 10
107.7743001032648
 20
-125.1434380112489
 30
0.0
 10
108.0364718696923
 20
-125.1434380112489
 30
0.0
 10
108.4109537489389
 20
-125.1434380112489
 30
0.0
 10
108.5273979763404
 20
-125.4226630003284
 30
0.0
 10
108.5273979763404
 20
-125.6617526270047
 30
0.0
  0
SPLINE
  5
76
330
67
100
AcDbEntity
  8
_U+30EC_U+30A4_U+30E4_U+30FC 1
370
     0
100
AcDbSpline
210
0.0
220
0.0
230
1.0
 70
    11
 71
     3
 72
    17
 73
    13
 74
     0
 42
0.0000000001
 43
0.0000000001
 12
1.0
 22
0.0
 32
0.0
 13
1.0
 23
0.0
 33
0.0
 40
0.0
 40
0.0
 40
0.0
 40
0.0
 40
1.0
 40
1.0
 40
1.0
 40
2.0
 40
2.0
 40
2.0
 40
3.0
 40
3.0
 40
3.0
 40
4.0
 40
4.0
 40
4.0
 40
4.0
 10
107.0763237579531
 20
-125.6617526270047
 30
0.0
 10
107.0763237579531
 20
-125.8267727007482
 30
0.0
 10
107.171408393346
 20
-125.9113497949111
 30
0.0
 10
107.3068006459164
 20
-125.9113497949111
 30
0.0
 10
107.4294460451913
 20
-125.9113497949111
 30
0.0
 10
107.5479573298838
 20
-125.8393472992693
 30
0.0
 10
107.5479573298838
 20
-125.6617526270047
 30
0.0
 10
107.5479573298838
 20
-125.4839856999658
 30
0.0
 10
107.4294460451913
 20
-125.4119832043241
 30
0.0
 10
107.3068006459164
 20
-125.4119832043241
 30
0.0
 10
107.171408393346
 20
-125.4119832043241
 30
0.0
 10
107.0763237579531
 20
-125.4987996105524
 30
0.0
 10
107.0763237579531
 20
-125.6617526270047
 30
0.0
  0
SPLINE
  5
77
330
67
100
AcDbEntity
  8
_U+30EC_U+30A4_U+30E4_U+30FC 1
370
     0
100
AcDbSpline
210
0.0
220
0.0
230
1.0
 70
    11
 71
     3
 72
    17
 73
    13
 74
     0
 42
0.0000000001
 43
0.0000000001
 12
1.0
 22
0.0
 32
0.0
 13
1.0
 23
0.0
 33
0.0
 40
0.0
 40
0.0
 40
0.0
 40
0.0
 40
1.0
 40
1.0
 40
1.0
 40
2.0
 40
2.0
 40
2.0
 40
3.0
 40
3.0
 40
3.0
 40
4.0
 40
4.0
 40
4.0
 40
4.0
 10
107.7360595433785
 20
-125.6617526270047
 30
0.0
 10
107.7360595433785
 20
-125.8055853635139
 30
0.0
 10
107.8228759496068
 20
-125.9578585839619
 30
0.0
 10
108.0261365832365
 20
-125.9578585839619
 30
0.0
 10
108.2311197646089
 20
-125.9578585839619
 30
0.0
 10
108.3327500814238
 20
-125.8309068153305
 30
0.0
 10
108.3327500814238
 20
-125.6617526270047
 30
0.0
 10
108.3327500814238
 20
-125.475545216027
 30
0.0
 10
108.2101046821489
 20
-125.3654744152732
 30
0.0
 10
108.03233775511
 20
-125.3654744152732
 30
0.0
 10
107.8101290963114
 20
-125.3654744152732
 30
0.0
 10
107.7360595433785
 20
-125.5284274317255
 30
0.0
 10
107.7360595433785
 20
-125.6617526270047
 30
0.0
  0
HATCH
  5
78
330
67
100
AcDbEntity
  8
_U+30EC_U+30A4_U+30E4_U+30FC 1
 62
   179
420
  2234388
100
AcDbHatch
 10
0.0
 20
0.0
 30
0.0
210
0.0
220
0.0
230
1.0
  2
SOLID
 70
     1
 71
     0
 91
        3
 92
        1
 93
        1
 72
     4
 94
        3
 73
     0
 74
     1
 95
       29
 96
       25
 40
0.0
 40
0.0
 40
0.0
 40
0.0
 40
1.0
 40
1.0
 40
1.0
 40
2.0
 40
2.0
 40
2.0
 40
3.0
 40
3.0
 40
3.0
 40
4.0
 40
4.0
 40
4.0
 40
5.0
 40
5.0
 40
5.0
 40
6.0
 40
6.0
 40
6.0
 40
7.0
 40
7.0
 40
7.0
 40
8.0
 40
8.0
 40
8.0
 40
8.0
 10
108.5273979763404
 20
-125.6617526270047
 10
108.5273979763404
 20
-125.9282307627888
 10
108.3899386664789
 20
-126.1821343000517
 10
108.0409504938231
 20
-126.1821343000517
 10
107.784979899269
 20
-126.1821343000517
 10
107.6895507543276
 20
-126.0403686208337
 10
107.6282280546902
 20
-125.9346041894365
 10
107.5689724123439
 20
-126.0593166460025
 10
107.4549397517821
 20
-126.1356255110008
 10
107.2940537926209
 20
-126.1356255110008
 10
107.019135172898
 20
-126.1356255110008
 10
106.8837429203277
 20
-125.9366712467276
 10
106.8837429203277
 20
-125.6617526270047
 10
106.8837429203277
 20
-125.3782212685687
 10
107.0274034020626
 20
-125.1878797430086
 10
107.2940537926209
 20
-125.1878797430086
 10
107.4549397517821
 20
-125.1878797430086
 10
107.5689724123439
 20
-125.2660834105238
 10
107.6282280546902
 20
-125.3909681218641
 10
107.6792154678719
 20
-125.3020846583446
 10
107.7743001032648
 20
-125.1434380112489
 10
108.0364718696923
 20
-125.1434380112489
 10
108.4109537489389
 20
-125.1434380112489
 10
108.5273979763404
 20
-125.4226630003284
 10
108.5273979763404
 20
-125.6617526270047
 97
        0
 97
        0
 92
        1
 93
        1
 72
     4
 94
        3
 73
     0
 74
     1
 95
       17
 96
       13
 40
0.0
 40
0.0
 40
0.0
 40
0.0
 40
1.0
 40
1.0
 40
1.0
 40
2.0
 40
2.0
 40
2.0
 40
3.0
 40
3.0
 40
3.0
 40
4.0
 40
4.0
 40
4.0
 40
4.0
 10
107.0763237579531
 20
-125.6617526270047
 10
107.0763237579531
 20
-125.8267727007482
 10
107.171408393346
 20
-125.9113497949111
 10
107.3068006459164
 20
-125.9113497949111
 10
107.4294460451913
 20
-125.9113497949111
 10
107.5479573298838
 20
-125.8393472992693
 10
107.5479573298838
 20
-125.6617526270047
 10
107.5479573298838
 20
-125.4839856999658
 10
107.4294460451913
 20
-125.4119832043241
 10
107.3068006459164
 20
-125.4119832043241
 10
107.171408393346
 20
-125.4119832043241
 10
107.0763237579531
 20
-125.4987996105524
 10
107.0763237579531
 20
-125.6617526270047
 97
        0
 97
        0
 92
        1
 93
        1
 72
     4
 94
        3
 73
     0
 74
     1
 95
       17
 96
       13
 40
0.0
 40
0.0
 40
0.0
 40
0.0
 40
1.0
 40
1.0
 40
1.0
 40
2.0
 40
2.0
 40
2.0
 40
3.0
 40
3.0
 40
3.0
 40
4.0
 40
4.0
 40
4.0
 40
4.0
 10
107.7360595433785
 20
-125.6617526270047
 10
107.7360595433785
 20
-125.8055853635139
 10
107.8228759496068
 20
-125.9578585839619
 10
108.0261365832365
 20
-125.9578585839619
 10
108.2311197646089
 20
-125.9578585839619
 10
108.3327500814238
 20
-125.8309068153305
 10
108.3327500814238
 20
-125.6617526270047
 10
108.3327500814238
 20
-125.475545216027
 10
108.2101046821489
 20
-125.3654744152732
 10
108.03233775511
 20
-125.3654744152732
 10
107.8101290963114
 20
-125.3654744152732
 10
107.7360595433785
 20
-125.5284274317255
 10
107.7360595433785
 20
-125.6617526270047
 97
        0
 97
        0
 75
     2
 76
     1
 98
        0
  0
ENDBLK
  5
6A
330
67
100
AcDbEntity
  8
0
100
AcDbBlockEnd
  0
BLOCK
  5
8A
330
88
100
AcDbEntity
  8
0
100
AcDbBlockBegin
  2
block 3
 70
     0
 10
0.0
 20
0.0
 30
0.0
  3
block 3
  1

  0
SPLINE
  5
8C
330
88
100
AcDbEntity
  8
_U+30EC_U+30A4_U+30E4_U+30FC 1
370
     0
100
AcDbSpline
210
0.0
220
0.0
230
1.0
 70
    11
 71
     3
 72
    26
 73
    22
 74
     0
 42
0.0000000001
 43
0.0000000001
 12
1.0
 22
0.0
 32
0.0
 13
1.0
 23
0.0
 33
0.0
 40
0.0
 40
0.0
 40
0.0
 40
0.0
 40
1.0
 40
1.0
 40
1.0
 40
2.0
 40
2.0
 40
2.0
 40
3.0
 40
3.0
 40
3.0
 40
4.0
 40
4.0
 40
4.0
 40
5.0
 40
5.0
 40
5.0
 40
6.0
 40
6.0
 40
6.0
 40
7.0
 40
7.0
 40
7.0
 40
7.0
 10
75.07707110753282
 20
-125.9606146603501
 30
0.0
 10
75.07707110753282
 20
-125.9606146603501
 30
0.0
 10
73.97274574973598
 20
-125.9606146603501
 30
0.0
 10
73.97274574973598
 20
-125.9606146603501
 30
0.0
 10
73.97274574973598
 20
-125.9606146603501
 30
0.0
 10
73.97274574973598
 20
-126.2906548078371
 30
0.0
 10
73.97274574973598
 20
-126.2906548078371
 30
0.0
 10
73.97274574973598
 20
-126.2906548078371
 30
0.0
 10
73.82477889864451
 20
-126.2906548078371
 30
0.0
 10
73.82477889864451
 20
-126.2906548078371
 30
0.0
 10
73.80996498805793
 20
-125.958547603059
 30
0.0
 10
73.64701197160561
 20
-125.9120388140081
 30
0.0
 10
73.53280705626958
 20
-125.882410992835
 30
0.0
 10
73.53280705626958
 20
-125.882410992835
 30
0.0
 10
73.53280705626958
 20
-125.7363389442604
 30
0.0
 10
73.53280705626958
 20
-125.7363389442604
 30
0.0
 10
73.53280705626958
 20
-125.7363389442604
 30
0.0
 10
75.07707110753282
 20
-125.7363389442604
 30
0.0
 10
75.07707110753282
 20
-125.7363389442604
 30
0.0
 10
75.07707110753282
 20
-125.7363389442604
 30
0.0
 10
75.07707110753282
 20
-125.9606146603501
 30
0.0
 10
75.07707110753282
 20
-125.9606146603501
 30
0.0
  0
HATCH
  5
8D
330
88
100
AcDbEntity
  8
_U+30EC_U+30A4_U+30E4_U+30FC 1
 62
   179
420
  2234388
100
AcDbHatch
 10
0.0
 20
0.0
 30
0.0
210
0.0
220
0.0
230
1.0
  2
SOLID
 70
     1
 71
     0
 91
        1
 92
        1
 93
        1
 72
     4
 94
        3
 73
     0
 74
     1
 95
       26
 96
       22
 40
0.0
 40
0.0
 40
0.0
 40
0.0
 40
1.0
 40
1.0
 40
1.0
 40
2.0
 40
2.0
 40
2.0
 40
3.0
 40
3.0
 40
3.0
 40
4.0
 40
4.0
 40
4.0
 40
5.0
 40
5.0
 40
5.0
 40
6.0
 40
6.0
 40
6.0
 40
7.0
 40
7.0
 40
7.0
 40
7.0
 10
75.07707110753282
 20
-125.9606146603501
 10
75.07707110753282
 20
-125.9606146603501
 10
73.97274574973598
 20
-125.9606146603501
 10
73.97274574973598
 20
-125.9606146603501
 10
73.97274574973598
 20
-125.9606146603501
 10
73.97274574973598
 20
-126.2906548078371
 10
73.97274574973598
 20
-126.2906548078371
 10
73.97274574973598
 20
-126.2906548078371
 10
73.82477889864451
 20
-126.2906548078371
 10
73.82477889864451
 20
-126.2906548078371
 10
73.80996498805793
 20
-125.958547603059
 10
73.64701197160561
 20
-125.9120388140081
 10
73.53280705626958
 20
-125.882410992835
 10
73.53280705626958
 20
-125.882410992835
 10
73.53280705626958
 20
-125.7363389442604
 10
73.53280705626958
 20
-125.7363389442604
 10
73.53280705626958
 20
-125.7363389442604
 10
75.07707110753282
 20
-125.7363389442604
 10
75.07707110753282
 20
-125.7363389442604
 10
75.07707110753282
 20
-125.7363389442604
 10
75.07707110753282
 20
-125.9606146603501
 10
75.07707110753282
 20
-125.9606146603501
 97
        0
 97
        0
 75
     2
 76
     1
 98
        0
  0
SPLINE
  5
8E
330
88
100
AcDbEntity
  8
_U+30EC_U+30A4_U+30E4_U+30FC 1
370
     0
100
AcDbSpline
210
0.0
220
0.0
230
1.0
 70
    11
 71
     3
 72
    44
 73
    40
 74
     0
 42
0.0000000001
 43
0.0000000001
 12
1.0
 22
0.0
 32
0.0
 13
1.0
 23
0.0
 33
0.0
 40
0.0
 40
0.0
 40
0.0
 40
0.0
 40
1.0
 40
1.0
 40
1.0
 40
2.0
 40
2.0
 40
2.0
 40
3.0
 40
3.0
 40
3.0
 40
4.0
 40
4.0
 40
4.0
 40
5.0
 40
5.0
 40
5.0
 40
6.0
 40
6.0
 40
6.0
 40
7.0
 40
7.0
 40
7.0
 40
8.0
 40
8.0
 40
8.0
 40
9.0
 40
9.0
 40
9.0
 40
10.0
 40
10.0
 40
10.0
 40
11.0
 40
11.0
 40
11.0
 40
12.0
 40
12.0
 40
12.0
 40
13.0
 40
13.0
 40
13.0
 40
13.0
 10
74.49536673484839
 20
-124.6420043633708
 30
0.0
 10
74.65401338194414
 20
-124.8599066528128
 30
0.0
 10
74.72808293487701
 20
-124.9529242309145
 30
0.0
 10
74.87191567138619
 20
-125.0016723320308
 30
0.0
 10
74.87191567138619
 20
-125.0016723320308
 30
0.0
 10
74.87191567138619
 20
-124.2230807523644
 30
0.0
 10
74.87191567138619
 20
-124.2230807523644
 30
0.0
 10
74.87191567138619
 20
-124.2230807523644
 30
0.0
 10
75.07707110753282
 20
-124.2230807523644
 30
0.0
 10
75.07707110753282
 20
-124.2230807523644
 30
0.0
 10
75.07707110753282
 20
-124.2230807523644
 30
0.0
 10
75.07707110753282
 20
-125.2512694999372
 30
0.0
 10
75.07707110753282
 20
-125.2512694999372
 30
0.0
 10
74.71964245093815
 20
-125.2195746214729
 30
0.0
 10
74.64126652864871
 20
-125.1539455524789
 30
0.0
 10
74.34309351440034
 20
-124.7689561320022
 30
0.0
 10
74.14413925012717
 20
-124.5129855374481
 30
0.0
 10
74.076443123842
 20
-124.4473564684541
 30
0.0
 10
73.93898381398054
 20
-124.4473564684541
 30
0.0
 10
73.82047252928794
 20
-124.4473564684541
 30
0.0
 10
73.68938664607418
 20
-124.5193589640959
 30
0.0
 10
73.68938664607418
 20
-124.7160739163036
 30
0.0
 10
73.68938664607418
 20
-124.97617862544
 30
0.0
 10
73.9198635340374
 20
-124.9847913641531
 30
0.0
 10
74.03630776143885
 20
-124.9889254787354
 30
0.0
 10
74.03630776143885
 20
-124.9889254787354
 30
0.0
 10
74.03630776143885
 20
-125.2132011948252
 30
0.0
 10
74.03630776143885
 20
-125.2132011948252
 30
0.0
 10
73.90935599280739
 20
-125.2047607108863
 30
0.0
 10
73.7972181347625
 20
-125.194080914882
 30
0.0
 10
73.67870685006991
 20
-125.1138101900757
 30
0.0
 10
73.51799314568301
 20
-125.003739389322
 30
0.0
 10
73.48405895515329
 20
-124.8175319783442
 30
0.0
 10
73.48405895515329
 20
-124.701260005717
 30
0.0
 10
73.48405895515329
 20
-124.4241020739287
 30
0.0
 10
73.6681993088399
 20
-124.2167073257167
 30
0.0
 10
73.94105087127168
 20
-124.2167073257167
 30
0.0
 10
74.16963295671802
 20
-124.2167073257167
 30
0.0
 10
74.26902396146747
 20
-124.3331515531181
 30
0.0
 10
74.49536673484839
 20
-124.6420043633708
 30
0.0
  0
HATCH
  5
8F
330
88
100
AcDbEntity
  8
_U+30EC_U+30A4_U+30E4_U+30FC 1
 62
   179
420
  2234388
100
AcDbHatch
 10
0.0
 20
0.0
 30
0.0
210
0.0
220
0.0
230
1.0
  2
SOLID
 70
     1
 71
     0
 91
        1
 92
        1
 93
        1
 72
     4
 94
        3
 73
     0
 74
     1
 95
       44
 96
       40
 40
0.0
 40
0.0
 40
0.0
 40
0.0
 40
1.0
 40
1.0
 40
1.0
 40
2.0
 40
2.0
 40
2.0
 40
3.0
 40
3.0
 40
3.0
 40
4.0
 40
4.0
 40
4.0
 40
5.0
 40
5.0
 40
5.0
 40
6.0
 40
6.0
 40
6.0
 40
7.0
 40
7.0
 40
7.0
 40
8.0
 40
8.0
 40
8.0
 40
9.0
 40
9.0
 40
9.0
 40
10.0
 40
10.0
 40
10.0
 40
11.0
 40
11.0
 40
11.0
 40
12.0
 40
12.0
 40
12.0
 40
13.0
 40
13.0
 40
13.0
 40
13.0
 10
74.49536673484839
 20
-124.6420043633708
 10
74.65401338194414
 20
-124.8599066528128
 10
74.72808293487701
 20
-124.9529242309145
 10
74.87191567138619
 20
-125.0016723320308
 10
74.87191567138619
 20
-125.0016723320308
 10
74.87191567138619
 20
-124.2230807523644
 10
74.87191567138619
 20
-124.2230807523644
 10
74.87191567138619
 20
-124.2230807523644
 10
75.07707110753282
 20
-124.2230807523644
 10
75.07707110753282
 20
-124.2230807523644
 10
75.07707110753282
 20
-124.2230807523644
 10
75.07707110753282
 20
-125.2512694999372
 10
75.07707110753282
 20
-125.2512694999372
 10
74.71964245093815
 20
-125.2195746214729
 10
74.64126652864871
 20
-125.1539455524789
 10
74.34309351440034
 20
-124.7689561320022
 10
74.14413925012717
 20
-124.5129855374481
 10
74.076443123842
 20
-124.4473564684541
 10
73.93898381398054
 20
-124.4473564684541
 10
73.82047252928794
 20
-124.4473564684541
 10
73.68938664607418
 20
-124.5193589640959
 10
73.68938664607418
 20
-124.7160739163036
 10
73.68938664607418
 20
-124.97617862544
 10
73.9198635340374
 20
-124.9847913641531
 10
74.03630776143885
 20
-124.9889254787354
 10
74.03630776143885
 20
-124.9889254787354
 10
74.03630776143885
 20
-125.2132011948252
 10
74.03630776143885
 20
-125.2132011948252
 10
73.90935599280739
 20
-125.2047607108863
 10
73.7972181347625
 20
-125.194080914882
 10
73.67870685006991
 20
-125.1138101900757
 10
73.51799314568301
 20
-125.003739389322
 10
73.48405895515329
 20
-124.8175319783442
 10
73.48405895515329
 20
-124.701260005717
 10
73.48405895515329
 20
-124.4241020739287
 10
73.6681993088399
 20
-124.2167073257167
 10
73.94105087127168
 20
-124.2167073257167
 10
74.16963295671802
 20
-124.2167073257167
 10
74.26902396146747
 20
-124.3331515531181
 10
74.49536673484839
 20
-124.6420043633708
 97
        0
 97
        0
 75
     2
 76
     1
 98
        0
  0
ENDBLK
  5
8B
330
88
100
AcDbEntity
  8
0
100
AcDbBlockEnd
  0
BLOCK
  5
AC
330
AA
100
AcDbEntity
  8
0
100
AcDbBlockBegin
  2
block 4
 70
     0
 10
0.0
 20
0.0
 30
0.0
  3
block 4
  1

  0
SPLINE
  5
AE
330
AA
100
AcDbEntity
  8
_U+30EC_U+30A4_U+30E4_U+30FC 1
370
     0
100
AcDbSpline
210
0.0
220
0.0
230
1.0
 70
    11
 71
     3
 72
    44
 73
    40
 74
     0
 42
0.0000000001
 43
0.0000000001
 12
1.0
 22
0.0
 32
0.0
 13
1.0
 23
0.0
 33
0.0
 40
0.0
 40
0.0
 40
0.0
 40
0.0
 40
1.0
 40
1.0
 40
1.0
 40
2.0
 40
2.0
 40
2.0
 40
3.0
 40
3.0
 40
3.0
 40
4.0
 40
4.0
 40
4.0
 40
5.0
 40
5.0
 40
5.0
 40
6.0
 40
6.0
 40
6.0
 40
7.0
 40
7.0
 40
7.0
 40
8.0
 40
8.0
 40
8.0
 40
9.0
 40
9.0
 40
9.0
 40
10.0
 40
10.0
 40
10.0
 40
11.0
 40
11.0
 40
11.0
 40
12.0
 40
12.0
 40
12.0
 40
13.0
 40
13.0
 40
13.0
 40
13.0
 10
90.79135739917716
 20
-134.3694037207479
 30
0.0
 10
90.57345510973511
 20
-134.5278781130694
 30
0.0
 10
90.48043753163337
 20
-134.6019476660023
 30
0.0
 10
90.43168943051708
 20
-134.7459526572857
 30
0.0
 10
90.43168943051708
 20
-134.7459526572857
 30
0.0
 10
91.21028101018355
 20
-134.7459526572857
 30
0.0
 10
91.21028101018355
 20
-134.7459526572857
 30
0.0
 10
91.21028101018355
 20
-134.7459526572857
 30
0.0
 10
91.21028101018355
 20
-134.9512803482066
 30
0.0
 10
91.21028101018355
 20
-134.9512803482066
 30
0.0
 10
91.21028101018355
 20
-134.9512803482066
 30
0.0
 10
90.18209226261074
 20
-134.9512803482066
 30
0.0
 10
90.18209226261074
 20
-134.9512803482066
 30
0.0
 10
90.21378714107503
 20
-134.5936794368377
 30
0.0
 10
90.27941621006904
 20
-134.5154757693225
 30
0.0
 10
90.6644056305457
 20
-134.2171305002999
 30
0.0
 10
90.92037622509977
 20
-134.018348490801
 30
0.0
 10
90.98600529409379
 20
-133.9504801097416
 30
0.0
 10
90.98600529409379
 20
-133.8130207998801
 30
0.0
 10
90.98600529409379
 20
-133.6945095151875
 30
0.0
 10
90.91400279845206
 20
-133.5632513771995
 30
0.0
 10
90.71728784624429
 20
-133.5632513771995
 30
0.0
 10
90.45718313710793
 20
-133.5632513771995
 30
0.0
 10
90.44874265316906
 20
-133.7940727747112
 30
0.0
 10
90.44443628381251
 20
-133.9101724925641
 30
0.0
 10
90.44443628381251
 20
-133.9101724925641
 30
0.0
 10
90.22016056772274
 20
-133.9101724925641
 30
0.0
 10
90.22016056772274
 20
-133.9101724925641
 30
0.0
 10
90.2286010516616
 20
-133.7833929787069
 30
0.0
 10
90.23928084766588
 20
-133.6714273754363
 30
0.0
 10
90.3195515724722
 20
-133.5529160907437
 30
0.0
 10
90.42962237322593
 20
-133.3920301315825
 30
0.0
 10
90.61582978420368
 20
-133.3582681958271
 30
0.0
 10
90.73210175683087
 20
-133.3582681958271
 30
0.0
 10
91.00925968861922
 20
-133.3582681958271
 30
0.0
 10
91.21665443683126
 20
-133.5422362947394
 30
0.0
 10
91.21665443683126
 20
-133.8150878571712
 30
0.0
 10
91.21665443683126
 20
-134.0434976878433
 30
0.0
 10
91.10021020942982
 20
-134.143060947367
 30
0.0
 10
90.79135739917716
 20
-134.3694037207479
 30
0.0
  0
HATCH
  5
AF
330
AA
100
AcDbEntity
  8
_U+30EC_U+30A4_U+30E4_U+30FC 1
 62
   179
420
  2234388
100
AcDbHatch
 10
0.0
 20
0.0
 30
0.0
210
0.0
220
0.0
230
1.0
  2
SOLID
 70
     1
 71
     0
 91
        1
 92
        1
 93
        1
 72
     4
 94
        3
 73
     0
 74
     1
 95
       44
 96
       40
 40
0.0
 40
0.0
 40
0.0
 40
0.0
 40
1.0
 40
1.0
 40
1.0
 40
2.0
 40
2.0
 40
2.0
 40
3.0
 40
3.0
 40
3.0
 40
4.0
 40
4.0
 40
4.0
 40
5.0
 40
5.0
 40
5.0
 40
6.0
 40
6.0
 40
6.0
 40
7.0
 40
7.0
 40
7.0
 40
8.0
 40
8.0
 40
8.0
 40
9.0
 40
9.0
 40
9.0
 40
10.0
 40
10.0
 40
10.0
 40
11.0
 40
11.0
 40
11.0
 40
12.0
 40
12.0
 40
12.0
 40
13.0
 40
13.0
 40
13.0
 40
13.0
 10
90.79135739917716
 20
-134.3694037207479
 10
90.57345510973511
 20
-134.5278781130694
 10
90.48043753163337
 20
-134.6019476660023
 10
90.43168943051708
 20
-134.7459526572857
 10
90.43168943051708
 20
-134.7459526572857
 10
91.21028101018355
 20
-134.7459526572857
 10
91.21028101018355
 20
-134.7459526572857
 10
91.21028101018355
 20
-134.7459526572857
 10
91.21028101018355
 20
-134.9512803482066
 10
91.21028101018355
 20
-134.9512803482066
 10
91.21028101018355
 20
-134.9512803482066
 10
90.18209226261074
 20
-134.9512803482066
 10
90.18209226261074
 20
-134.9512803482066
 10
90.21378714107503
 20
-134.5936794368377
 10
90.27941621006904
 20
-134.5154757693225
 10
90.6644056305457
 20
-134.2171305002999
 10
90.92037622509977
 20
-134.018348490801
 10
90.98600529409379
 20
-133.9504801097416
 10
90.98600529409379
 20
-133.8130207998801
 10
90.98600529409379
 20
-133.6945095151875
 10
90.91400279845206
 20
-133.5632513771995
 10
90.71728784624429
 20
-133.5632513771995
 10
90.45718313710793
 20
-133.5632513771995
 10
90.44874265316906
 20
-133.7940727747112
 10
90.44443628381251
 20
-133.9101724925641
 10
90.44443628381251
 20
-133.9101724925641
 10
90.22016056772274
 20
-133.9101724925641
 10
90.22016056772274
 20
-133.9101724925641
 10
90.2286010516616
 20
-133.7833929787069
 10
90.23928084766588
 20
-133.6714273754363
 10
90.3195515724722
 20
-133.5529160907437
 10
90.42962237322593
 20
-133.3920301315825
 10
90.61582978420368
 20
-133.3582681958271
 10
90.73210175683087
 20
-133.3582681958271
 10
91.00925968861922
 20
-133.3582681958271
 10
91.21665443683126
 20
-133.5422362947394
 10
91.21665443683126
 20
-133.8150878571712
 10
91.21665443683126
 20
-134.0434976878433
 10
91.10021020942982
 20
-134.143060947367
 10
90.79135739917716
 20
-134.3694037207479
 97
        0
 97
        0
 75
     2
 76
     1
 98
        0
  0
SPLINE
  5
B0
330
AA
100
AcDbEntity
  8
_U+30EC_U+30A4_U+30E4_U+30FC 1
370
     0
100
AcDbSpline
210
0.0
220
0.0
230
1.0
 70
    11
 71
     3
 72
    53
 73
    49
 74
     0
 42
0.0000000001
 43
0.0000000001
 12
1.0
 22
0.0
 32
0.0
 13
1.0
 23
0.0
 33
0.0
 40
0.0
 40
0.0
 40
0.0
 40
0.0
 40
1.0
 40
1.0
 40
1.0
 40
2.0
 40
2.0
 40
2.0
 40
3.0
 40
3.0
 40
3.0
 40
4.0
 40
4.0
 40
4.0
 40
5.0
 40
5.0
 40
5.0
 40
6.0
 40
6.0
 40
6.0
 40
7.0
 40
7.0
 40
7.0
 40
8.0
 40
8.0
 40
8.0
 40
9.0
 40
9.0
 40
9.0
 40
10.0
 40
10.0
 40
10.0
 40
11.0
 40
11.0
 40
11.0
 40
12.0
 40
12.0
 40
12.0
 40
13.0
 40
13.0
 40
13.0
 40
14.0
 40
14.0
 40
14.0
 40
15.0
 40
15.0
 40
15.0
 40
16.0
 40
16.0
 40
16.0
 40
16.0
 10
91.85623641366789
 20
-135.0019232518398
 30
0.0
 10
91.77768823660419
 20
-135.0019232518398
 30
0.0
 10
91.67640242933784
 20
-134.9850422839621
 30
0.0
 10
91.57477211252298
 20
-134.9216525270335
 30
0.0
 10
91.40113930006639
 20
-134.8114094715055
 30
0.0
 10
91.38012421760637
 20
-134.680495843066
 30
0.0
 10
91.36117619243748
 20
-134.5723198448291
 30
0.0
 10
91.36117619243748
 20
-134.5723198448291
 30
0.0
 10
91.5833848512361
 20
-134.5723198448291
 30
0.0
 10
91.5833848512361
 20
-134.5723198448291
 30
0.0
 10
91.63816186945158
 20
-134.7714463638766
 30
0.0
 10
91.76528589285729
 20
-134.8010741850497
 30
0.0
 10
91.85830347095904
 20
-134.8010741850497
 30
0.0
 10
91.99782983811166
 20
-134.8010741850497
 30
0.0
 10
92.1501030585597
 20
-134.701510925526
 30
0.0
 10
92.1501030585597
 20
-134.4689669802717
 30
0.0
 10
92.1501030585597
 20
-134.2129963857176
 30
0.0
 10
91.97026907422966
 20
-134.143060947367
 30
0.0
 10
91.84969073224592
 20
-134.143060947367
 30
0.0
 10
91.81799585378161
 20
-134.143060947367
 30
0.0
 10
91.67640242933784
 20
-134.143060947367
 30
0.0
 10
91.5875189658184
 20
-134.2719075185153
 30
0.0
 10
91.5875189658184
 20
-134.2719075185153
 30
0.0
 10
91.41181909607066
 20
-134.2529594933465
 30
0.0
 10
91.41181909607066
 20
-134.2529594933465
 30
0.0
 10
91.41181909607066
 20
-134.2529594933465
 30
0.0
 10
91.5323974380544
 20
-133.4068440421691
 30
0.0
 10
91.5323974380544
 20
-133.4068440421691
 30
0.0
 10
91.5323974380544
 20
-133.4068440421691
 30
0.0
 10
92.31098901772087
 20
-133.4068440421691
 30
0.0
 10
92.31098901772087
 20
-133.4068440421691
 30
0.0
 10
92.31098901772087
 20
-133.4068440421691
 30
0.0
 10
92.31098901772087
 20
-133.6014919370857
 30
0.0
 10
92.31098901772087
 20
-133.6014919370857
 30
0.0
 10
92.31098901772087
 20
-133.6014919370857
 30
0.0
 10
91.69535045450672
 20
-133.6014919370857
 30
0.0
 10
91.69535045450672
 20
-133.6014919370857
 30
0.0
 10
91.69535045450672
 20
-133.6014919370857
 30
0.0
 10
91.62989364028698
 20
-134.0245496626744
 30
0.0
 10
91.62989364028698
 20
-134.0245496626744
 30
0.0
 10
91.69121633992442
 20
-133.990787726919
 30
0.0
 10
91.77355412202189
 20
-133.9504801097416
 30
0.0
 10
91.8920654067145
 20
-133.9504801097416
 30
0.0
 10
92.1459689439774
 20
-133.9504801097416
 30
0.0
 10
92.38299151336258
 20
-134.136515265945
 30
0.0
 10
92.38299151336258
 20
-134.4496744455543
 30
0.0
 10
92.38299151336258
 20
-134.7669677397458
 30
0.0
 10
92.15871579727282
 20
-135.0019232518398
 30
0.0
 10
91.85623641366789
 20
-135.0019232518398
 30
0.0
  0
HATCH
  5
B1
330
AA
100
AcDbEntity
  8
_U+30EC_U+30A4_U+30E4_U+30FC 1
 62
   179
420
  2234388
100
AcDbHatch
 10
0.0
 20
0.0
 30
0.0
210
0.0
220
0.0
230
1.0
  2
SOLID
 70
     1
 71
     0
 91
        1
 92
        1
 93
        1
 72
     4
 94
        3
 73
     0
 74
     1
 95
       53
 96
       49
 40
0.0
 40
0.0
 40
0.0
 40
0.0
 40
1.0
 40
1.0
 40
1.0
 40
2.0
 40
2.0
 40
2.0
 40
3.0
 40
3.0
 40
3.0
 40
4.0
 40
4.0
 40
4.0
 40
5.0
 40
5.0
 40
5.0
 40
6.0
 40
6.0
 40
6.0
 40
7.0
 40
7.0
 40
7.0
 40
8.0
 40
8.0
 40
8.0
 40
9.0
 40
9.0
 40
9.0
 40
10.0
 40
10.0
 40
10.0
 40
11.0
 40
11.0
 40
11.0
 40
12.0
 40
12.0
 40
12.0
 40
13.0
 40
13.0
 40
13.0
 40
14.0
 40
14.0
 40
14.0
 40
15.0
 40
15.0
 40
15.0
 40
16.0
 40
16.0
 40
16.0
 40
16.0
 10
91.85623641366789
 20
-135.0019232518398
 10
91.77768823660419
 20
-135.0019232518398
 10
91.67640242933784
 20
-134.9850422839621
 10
91.57477211252298
 20
-134.9216525270335
 10
91.40113930006639
 20
-134.8114094715055
 10
91.38012421760637
 20
-134.680495843066
 10
91.36117619243748
 20
-134.5723198448291
 10
91.36117619243748
 20
-134.5723198448291
 10
91.5833848512361
 20
-134.5723198448291
 10
91.5833848512361
 20
-134.5723198448291
 10
91.63816186945158
 20
-134.7714463638766
 10
91.76528589285729
 20
-134.8010741850497
 10
91.85830347095904
 20
-134.8010741850497
 10
91.99782983811166
 20
-134.8010741850497
 10
92.1501030585597
 20
-134.701510925526
 10
92.1501030585597
 20
-134.4689669802717
 10
92.1501030585597
 20
-134.2129963857176
 10
91.97026907422966
 20
-134.143060947367
 10
91.84969073224592
 20
-134.143060947367
 10
91.81799585378161
 20
-134.143060947367
 10
91.67640242933784
 20
-134.143060947367
 10
91.5875189658184
 20
-134.2719075185153
 10
91.5875189658184
 20
-134.2719075185153
 10
91.41181909607066
 20
-134.2529594933465
 10
91.41181909607066
 20
-134.2529594933465
 10
91.41181909607066
 20
-134.2529594933465
 10
91.5323974380544
 20
-133.4068440421691
 10
91.5323974380544
 20
-133.4068440421691
 10
91.5323974380544
 20
-133.4068440421691
 10
92.31098901772087
 20
-133.4068440421691
 10
92.31098901772087
 20
-133.4068440421691
 10
92.31098901772087
 20
-133.4068440421691
 10
92.31098901772087
 20
-133.6014919370857
 10
92.31098901772087
 20
-133.6014919370857
 10
92.31098901772087
 20
-133.6014919370857
 10
91.69535045450672
 20
-133.6014919370857
 10
91.69535045450672
 20
-133.6014919370857
 10
91.69535045450672
 20
-133.6014919370857
 10
91.62989364028698
 20
-134.0245496626744
 10
91.62989364028698
 20
-134.0245496626744
 10
91.69121633992442
 20
-133.990787726919
 10
91.77355412202189
 20
-133.9504801097416
 10
91.8920654067145
 20
-133.9504801097416
 10
92.1459689439774
 20
-133.9504801097416
 10
92.38299151336258
 20
-134.136515265945
 10
92.38299151336258
 20
-134.4496744455543
 10
92.38299151336258
 20
-134.7669677397458
 10
92.15871579727282
 20
-135.0019232518398
 10
91.85623641366789
 20
-135.0019232518398
 97
        0
 97
        0
 75
     2
 76
     1
 98
        0
  0
POLYLINE
  5
B2
330
AA
100
AcDbEntity
  8
_U+30EC_U+30A4_U+30E4_U+30FC 1
370
     0
100
AcDb2dPolyline
 66
     1
 10
0.0
 20
0.0
 30
0.0
  0
VERTEX
  5
B3
330
B2
100
AcDbEntity
  8
_U+30EC_U+30A4_U+30E4_U+30FC 1
370
     0
100
AcDbVertex
100
AcDb2dVertex
 10
92.6120903631317
 20
-134.9512803482066
 30
0.0
  0
VERTEX
  5
B4
330
B2
100
AcDbEntity
  8
_U+30EC_U+30A4_U+30E4_U+30FC 1
370
     0
100
AcDbVertex
100
AcDb2dVertex
 10
92.6120903631317
 20
-134.6994438682349
 30
0.0
  0
VERTEX
  5
B5
330
B2
100
AcDbEntity
  8
_U+30EC_U+30A4_U+30E4_U+30FC 1
370
     0
100
AcDbVertex
100
AcDb2dVertex
 10
92.86392684310347
 20
-134.6994438682349
 30
0.0
  0
VERTEX
  5
B6
330
B2
100
AcDbEntity
  8
_U+30EC_U+30A4_U+30E4_U+30FC 1
370
     0
100
AcDbVertex
100
AcDb2dVertex
 10
92.86392684310347
 20
-134.9512803482066
 30
0.0
  0
VERTEX
  5
B7
330
B2
100
AcDbEntity
  8
_U+30EC_U+30A4_U+30E4_U+30FC 1
370
     0
100
AcDbVertex
100
AcDb2dVertex
 10
92.6120903631317
 20
-134.9512803482066
 30
0.0
  0
SEQEND
  5
B8
330
B2
100
AcDbEntity
  8
_U+30EC_U+30A4_U+30E4_U+30FC 1
370
     0
  0
HATCH
  5
B9
330
AA
100
AcDbEntity
  8
_U+30EC_U+30A4_U+30E4_U+30FC 1
 62
   179
420
  2234388
100
AcDbHatch
 10
0.0
 20
0.0
 30
0.0
210
0.0
220
0.0
230
1.0
  2
SOLID
 70
     1
 71
     0
 91
        1
 92
        1
 93
        4
 72
     1
 10
92.6120903631317
 20
-134.9512803482066
 11
92.6120903631317
 21
-134.6994438682349
 72
     1
 10
92.6120903631317
 20
-134.6994438682349
 11
92.86392684310347
 21
-134.6994438682349
 72
     1
 10
92.86392684310347
 20
-134.6994438682349
 11
92.86392684310347
 21
-134.9512803482066
 72
     1
 10
92.86392684310347
 20
-134.9512803482066
 11
92.6120903631317
 21
-134.9512803482066
 97
        0
 75
     2
 76
     1
 98
        0
  0
POLYLINE
  5
BA
330
AA
100
AcDbEntity
  8
_U+30EC_U+30A4_U+30E4_U+30FC 1
370
     0
100
AcDb2dPolyline
 66
     1
 10
0.0
 20
0.0
 30
0.0
  0
VERTEX
  5
BB
330
BA
100
AcDbEntity
  8
_U+30EC_U+30A4_U+30E4_U+30FC 1
370
     0
100
AcDbVertex
100
AcDb2dVertex
 10
93.93225095307945
 20
-134.604359232842
 30
0.0
  0
VERTEX
  5
BC
330
BA
100
AcDbEntity
  8
_U+30EC_U+30A4_U+30E4_U+30FC 1
370
     0
100
AcDbVertex
100
AcDb2dVertex
 10
93.93225095307945
 20
-134.9512803482066
 30
0.0
  0
VERTEX
  5
BD
330
BA
100
AcDbEntity
  8
_U+30EC_U+30A4_U+30E4_U+30FC 1
370
     0
100
AcDbVertex
100
AcDb2dVertex
 10
93.71452091841165
 20
-134.9512803482066
 30
0.0
  0
VERTEX
  5
BE
330
BA
100
AcDbEntity
  8
_U+30EC_U+30A4_U+30E4_U+30FC 1
370
     0
100
AcDbVertex
100
AcDb2dVertex
 10
93.71452091841165
 20
-134.604359232842
 30
0.0
  0
VERTEX
  5
BF
330
BA
100
AcDbEntity
  8
_U+30EC_U+30A4_U+30E4_U+30FC 1
370
     0
100
AcDbVertex
100
AcDb2dVertex
 10
93.05857473802008
 20
-134.604359232842
 30
0.0
  0
VERTEX
  5
C0
330
BA
100
AcDbEntity
  8
_U+30EC_U+30A4_U+30E4_U+30FC 1
370
     0
100
AcDbVertex
100
AcDb2dVertex
 10
93.05857473802008
 20
-134.3800835167522
 30
0.0
  0
VERTEX
  5
C1
330
BA
100
AcDbEntity
  8
_U+30EC_U+30A4_U+30E4_U+30FC 1
370
     0
100
AcDbVertex
100
AcDb2dVertex
 10
93.73760305816283
 20
-133.4068440421691
 30
0.0
  0
VERTEX
  5
C2
330
BA
100
AcDbEntity
  8
_U+30EC_U+30A4_U+30E4_U+30FC 1
370
     0
100
AcDbVertex
100
AcDb2dVertex
 10
93.93225095307945
 20
-133.4068440421691
 30
0.0
  0
VERTEX
  5
C3
330
BA
100
AcDbEntity
  8
_U+30EC_U+30A4_U+30E4_U+30FC 1
370
     0
100
AcDbVertex
100
AcDb2dVertex
 10
93.93225095307945
 20
-134.4052327137945
 30
0.0
  0
VERTEX
  5
C4
330
BA
100
AcDbEntity
  8
_U+30EC_U+30A4_U+30E4_U+30FC 1
370
     0
100
AcDbVertex
100
AcDb2dVertex
 10
94.13964570129149
 20
-134.4052327137945
 30
0.0
  0
VERTEX
  5
C5
330
BA
100
AcDbEntity
  8
_U+30EC_U+30A4_U+30E4_U+30FC 1
370
     0
100
AcDbVertex
100
AcDb2dVertex
 10
94.13964570129149
 20
-134.604359232842
 30
0.0
  0
VERTEX
  5
C6
330
BA
100
AcDbEntity
  8
_U+30EC_U+30A4_U+30E4_U+30FC 1
370
     0
100
AcDbVertex
100
AcDb2dVertex
 10
93.93225095307945
 20
-134.604359232842
 30
0.0
  0
SEQEND
  5
C7
330
BA
100
AcDbEntity
  8
_U+30EC_U+30A4_U+30E4_U+30FC 1
370
     0
  0
POLYLINE
  5
C8
330
AA
100
AcDbEntity
  8
_U+30EC_U+30A4_U+30E4_U+30FC 1
370
     0
100
AcDb2dPolyline
 66
     1
 10
0.0
 20
0.0
 30
0.0
  0
VERTEX
  5
C9
330
C8
100
AcDbEntity
  8
_U+30EC_U+30A4_U+30E4_U+30FC 1
370
     0
100
AcDbVertex
100
AcDb2dVertex
 10
93.71452091841165
 20
-133.7496310429515
 30
0.0
  0
VERTEX
  5
CA
330
C8
100
AcDbEntity
  8
_U+30EC_U+30A4_U+30E4_U+30FC 1
370
     0
100
AcDbVertex
100
AcDb2dVertex
 10
93.257356747519
 20
-134.4052327137945
 30
0.0
  0
VERTEX
  5
CB
330
C8
100
AcDbEntity
  8
_U+30EC_U+30A4_U+30E4_U+30FC 1
370
     0
100
AcDbVertex
100
AcDb2dVertex
 10
93.71452091841165
 20
-134.4052327137945
 30
0.0
  0
VERTEX
  5
CC
330
C8
100
AcDbEntity
  8
_U+30EC_U+30A4_U+30E4_U+30FC 1
370
     0
100
AcDbVertex
100
AcDb2dVertex
 10
93.71452091841165
 20
-133.7496310429515
 30
0.0
  0
SEQEND
  5
CD
330
C8
100
AcDbEntity
  8
_U+30EC_U+30A4_U+30E4_U+30FC 1
370
     0
  0
HATCH
  5
CE
330
AA
100
AcDbEntity
  8
_U+30EC_U+30A4_U+30E4_U+30FC 1
 62
   179
420
  2234388
100
AcDbHatch
 10
0.0
 20
0.0
 30
0.0
210
0.0
220
0.0
230
1.0
  2
SOLID
 70
     1
 71
     0
 91
        2
 92
        1
 93
       11
 72
     1
 10
93.93225095307945
 20
-134.604359232842
 11
93.93225095307945
 21
-134.9512803482066
 72
     1
 10
93.93225095307945
 20
-134.9512803482066
 11
93.71452091841165
 21
-134.9512803482066
 72
     1
 10
93.71452091841165
 20
-134.9512803482066
 11
93.71452091841165
 21
-134.604359232842
 72
     1
 10
93.71452091841165
 20
-134.604359232842
 11
93.05857473802008
 21
-134.604359232842
 72
     1
 10
93.05857473802008
 20
-134.604359232842
 11
93.05857473802008
 21
-134.3800835167522
 72
     1
 10
93.05857473802008
 20
-134.3800835167522
 11
93.73760305816283
 21
-133.4068440421691
 72
     1
 10
93.73760305816283
 20
-133.4068440421691
 11
93.93225095307945
 21
-133.4068440421691
 72
     1
 10
93.93225095307945
 20
-133.4068440421691
 11
93.93225095307945
 21
-134.4052327137945
 72
     1
 10
93.93225095307945
 20
-134.4052327137945
 11
94.13964570129149
 21
-134.4052327137945
 72
     1
 10
94.13964570129149
 20
-134.4052327137945
 11
94.13964570129149
 21
-134.604359232842
 72
     1
 10
94.13964570129149
 20
-134.604359232842
 11
93.93225095307945
 21
-134.604359232842
 97
        0
 92
        1
 93
        3
 72
     1
 10
93.71452091841165
 20
-133.7496310429515
 11
93.257356747519
 21
-134.4052327137945
 72
     1
 10
93.257356747519
 20
-134.4052327137945
 11
93.71452091841165
 21
-134.4052327137945
 72
     1
 10
93.71452091841165
 20
-134.4052327137945
 11
93.71452091841165
 21
-133.7496310429515
 97
        0
 75
     2
 76
     1
 98
        0
  0
ENDBLK
  5
AD
330
AA
100
AcDbEntity
  8
0
100
AcDbBlockEnd
  0
ENDSEC
  0
SECTION
  2
ENTITIES
  0
POLYLINE
  5
41
330
1F
100
AcDbEntity
  8
_U+30EC_U+30A4_U+30E4_U+30FC 1
 62
   179
420
  2234388
370
    25
100
AcDb2dPolyline
 66
     1
 10
0.0
 20
0.0
 30
0.0
  0
VERTEX
  5
42
330
41
100
AcDbEntity
  8
_U+30EC_U+30A4_U+30E4_U+30FC 1
 62
   179
420
  2234388
370
    25
100
AcDbVertex
100
AcDb2dVertex
 10
79.44975158417908
 20
-119.3233085812804
 30
0.0
  0
VERTEX
  5
43
330
41
100
AcDbEntity
  8
_U+30EC_U+30A4_U+30E4_U+30FC 1
 62
   179
420
  2234388
370
    25
100
AcDbVertex
100
AcDb2dVertex
 10
79.44975158417908
 20
-131.3236091338358
 30
0.0
  0
SEQEND
  5
44
330
41
100
AcDbEntity
  8
_U+30EC_U+30A4_U+30E4_U+30FC 1
 62
   179
420
  2234388
370
    25
  0
POLYLINE
  5
45
330
1F
100
AcDbEntity
  8
_U+30EC_U+30A4_U+30E4_U+30FC 1
 62
   179
420
  2234388
370
     9
100
AcDb2dPolyline
 66
     1
 10
0.0
 20
0.0
 30
0.0
  0
VERTEX
  5
46
330
45
100
AcDbEntity
  8
_U+30EC_U+30A4_U+30E4_U+30FC 1
 62
   179
420
  2234388
370
     9
100
AcDbVertex
100
AcDb2dVertex
 10
81.24948264937522
 20
-119.3233085812804
 30
0.0
  0
VERTEX
  5
47
330
45
100
AcDbEntity
  8
_U+30EC_U+30A4_U+30E4_U+30FC 1
 62
   179
420
  2234388
370
     9
100
AcDbVertex
100
AcDb2dVertex
 10
81.24948264937522
 20
-129.5238780231746
 30
0.0
  0
SEQEND
  5
48
330
45
100
AcDbEntity
  8
_U+30EC_U+30A4_U+30E4_U+30FC 1
 62
   179
420
  2234388
370
     9
  0
POLYLINE
  5
49
330
1F
100
AcDbEntity
  8
_U+30EC_U+30A4_U+30E4_U+30FC 1
 62
   179
420
  2234388
370
    25
100
AcDb2dPolyline
 66
     1
 10
0.0
 20
0.0
 30
0.0
  0
VERTEX
  5
4A
330
49
100
AcDbEntity
  8
_U+30EC_U+30A4_U+30E4_U+30FC 1
 62
   179
420
  2234388
370
    25
100
AcDbVertex
100
AcDb2dVertex
 10
104.8497509361711
 20
-129.5238780231746
 30
0.0
  0
VERTEX
  5
4B
330
49
100
AcDbEntity
  8
_U+30EC_U+30A4_U+30E4_U+30FC 1
 62
   179
420
  2234388
370
    25
100
AcDbVertex
100
AcDb2dVertex
 10
104.8497509361711
 20
-131.3236091338358
 30
0.0
  0
SEQEND
  5
4C
330
49
100
AcDbEntity
  8
_U+30EC_U+30A4_U+30E4_U+30FC 1
 62
   179
420
  2234388
370
    25
  0
POLYLINE
  5
4D
330
1F
100
AcDbEntity
  8
_U+30EC_U+30A4_U+30E4_U+30FC 1
 62
   179
420
  2234388
370
    25
100
AcDb2dPolyline
 66
     1
 10
0.0
 20
0.0
 30
0.0
  0
VERTEX
  5
4E
330
4D
100
AcDbEntity
  8
_U+30EC_U+30A4_U+30E4_U+30FC 1
 62
   179
420
  2234388
370
    25
100
AcDbVertex
100
AcDb2dVertex
 10
79.44975158417908
 20
-119.3233085812804
 30
0.0
  0
VERTEX
  5
4F
330
4D
100
AcDbEntity
  8
_U+30EC_U+30A4_U+30E4_U+30FC 1
 62
   179
420
  2234388
370
    25
100
AcDbVertex
100
AcDb2dVertex
 10
81.24948264937522
 20
-119.3233085812804
 30
0.0
  0
SEQEND
  5
50
330
4D
100
AcDbEntity
  8
_U+30EC_U+30A4_U+30E4_U+30FC 1
 62
   179
420
  2234388
370
    25
  0
SPLINE
  5
51
330
1F
100
AcDbEntity
  8
_U+30EC_U+30A4_U+30E4_U+30FC 1
 62
   179
420
  2234388
370
     9
100
AcDbSpline
210
0.0
220
0.0
230
1.0
 70
    11
 71
     3
 72
    17
 73
    13
 74
     0
 42
0.0000000001
 43
0.0000000001
 12
1.0
 22
0.0
 32
0.0
 13
1.0
 23
0.0
 33
0.0
 40
0.0
 40
0.0
 40
0.0
 40
0.0
 40
1.0
 40
1.0
 40
1.0
 40
2.0
 40
2.0
 40
2.0
 40
3.0
 40
3.0
 40
3.0
 40
4.0
 40
4.0
 40
4.0
 40
4.0
 10
79.54965824829692
 20
-135.3233682995027
 30
0.0
 10
79.54965824829692
 20
-135.2682291328496
 30
0.0
 10
79.50489074943903
 20
-135.2234263550829
 30
0.0
 10
79.44975158417908
 20
-135.2234263550829
 30
0.0
 10
79.39429491892723
 20
-135.2234263550829
 30
0.0
 10
79.34949214229248
 20
-135.2682291328496
 30
0.0
 10
79.34949214229248
 20
-135.3233682995027
 30
0.0
 10
79.34949214229248
 20
-135.3791777439331
 30
0.0
 10
79.39429491892723
 20
-135.4239452439217
 30
0.0
 10
79.44975158417908
 20
-135.4239452439217
 30
0.0
 10
79.50489074943903
 20
-135.4239452439217
 30
0.0
 10
79.54965824829692
 20
-135.3791777439331
 30
0.0
 10
79.54965824829692
 20
-135.3233682995027
 30
0.0
  0
SPLINE
  5
52
330
1F
100
AcDbEntity
  8
_U+30EC_U+30A4_U+30E4_U+30FC 1
 62
   179
420
  2234388
370
     9
100
AcDbSpline
210
0.0
220
0.0
230
1.0
 70
    11
 71
     3
 72
    17
 73
    13
 74
     0
 42
0.0000000001
 43
0.0000000001
 12
1.0
 22
0.0
 32
0.0
 13
1.0
 23
0.0
 33
0.0
 40
0.0
 40
0.0
 40
0.0
 40
0.0
 40
1.0
 40
1.0
 40
1.0
 40
2.0
 40
2.0
 40
2.0
 40
3.0
 40
3.0
 40
3.0
 40
4.0
 40
4.0
 40
4.0
 40
4.0
 10
75.54958168368071
 20
-131.3236091338358
 30
0.0
 10
75.54958168368071
 20
-131.2684699671827
 30
0.0
 10
75.50477890704595
 20
-131.2237024671942
 30
0.0
 10
75.44964164780411
 20
-131.2237024671942
 30
0.0
 10
75.39453585430292
 20
-131.2237024671942
 30
0.0
 10
75.34973307766816
 20
-131.2684699671827
 30
0.0
 10
75.34973307766816
 20
-131.3236091338358
 30
0.0
 10
75.34973307766816
 20
-131.3787130227107
 30
0.0
 10
75.39453585430292
 20
-131.4235158004774
 30
0.0
 10
75.44964164780411
 20
-131.4235158004774
 30
0.0
 10
75.50477890704595
 20
-131.4235158004774
 30
0.0
 10
75.54958168368071
 20
-131.3787130227107
 30
0.0
 10
75.54958168368071
 20
-131.3236091338358
 30
0.0
  0
SPLINE
  5
53
330
1F
100
AcDbEntity
  8
_U+30EC_U+30A4_U+30E4_U+30FC 1
 62
   179
420
  2234388
370
     9
100
AcDbSpline
210
0.0
220
0.0
230
1.0
 70
    11
 71
     3
 72
    17
 73
    13
 74
     0
 42
0.0000000001
 43
0.0000000001
 12
1.0
 22
0.0
 32
0.0
 13
1.0
 23
0.0
 33
0.0
 40
0.0
 40
0.0
 40
0.0
 40
0.0
 40
1.0
 40
1.0
 40
1.0
 40
2.0
 40
2.0
 40
2.0
 40
3.0
 40
3.0
 40
3.0
 40
4.0
 40
4.0
 40
4.0
 40
4.0
 10
108.949772194985
 20
-131.3236091338358
 30
0.0
 10
108.949772194985
 20
-131.2684699671827
 30
0.0
 10
108.9049694172183
 20
-131.2237024671942
 30
0.0
 10
108.8495100007954
 20
-131.2237024671942
 30
0.0
 10
108.7944061133123
 20
-131.2237024671942
 30
0.0
 10
108.7496033366776
 20
-131.2684699671827
 30
0.0
 10
108.7496033366776
 20
-131.3236091338358
 30
0.0
 10
108.7496033366776
 20
-131.3787130227107
 30
0.0
 10
108.7944061133123
 20
-131.4235158004774
 30
0.0
 10
108.8495100007954
 20
-131.4235158004774
 30
0.0
 10
108.9049694172183
 20
-131.4235158004774
 30
0.0
 10
108.949772194985
 20
-131.3787130227107
 30
0.0
 10
108.949772194985
 20
-131.3236091338358
 30
0.0
  0
SPLINE
  5
54
330
1F
100
AcDbEntity
  8
_U+30EC_U+30A4_U+30E4_U+30FC 1
 62
   179
420
  2234388
370
     9
100
AcDbSpline
210
0.0
220
0.0
230
1.0
 70
    11
 71
     3
 72
    17
 73
    13
 74
     0
 42
0.0000000001
 43
0.0000000001
 12
1.0
 22
0.0
 32
0.0
 13
1.0
 23
0.0
 33
0.0
 40
0.0
 40
0.0
 40
0.0
 40
0.0
 40
1.0
 40
1.0
 40
1.0
 40
2.0
 40
2.0
 40
2.0
 40
3.0
 40
3.0
 40
3.0
 40
4.0
 40
4.0
 40
4.0
 40
4.0
 10
108.949772194985
 20
-129.5238780231746
 30
0.0
 10
108.949772194985
 20
-129.4680685787442
 30
0.0
 10
108.9049694172183
 20
-129.4232658009775
 30
0.0
 10
108.8495100007954
 20
-129.4232658009775
 30
0.0
 10
108.7944061133123
 20
-129.4232658009775
 30
0.0
 10
108.7496033366776
 20
-129.4680685787442
 30
0.0
 10
108.7496033366776
 20
-129.5238780231746
 30
0.0
 10
108.7496033366776
 20
-129.5789819120496
 30
0.0
 10
108.7944061133123
 20
-129.6237846898163
 30
0.0
 10
108.8495100007954
 20
-129.6237846898163
 30
0.0
 10
108.9049694172183
 20
-129.6237846898163
 30
0.0
 10
108.949772194985
 20
-129.5789819120496
 30
0.0
 10
108.949772194985
 20
-129.5238780231746
 30
0.0
  0
SPLINE
  5
55
330
1F
100
AcDbEntity
  8
_U+30EC_U+30A4_U+30E4_U+30FC 1
 62
   179
420
  2234388
370
     9
100
AcDbSpline
210
0.0
220
0.0
230
1.0
 70
    11
 71
     3
 72
    17
 73
    13
 74
     0
 42
0.0000000001
 43
0.0000000001
 12
1.0
 22
0.0
 32
0.0
 13
1.0
 23
0.0
 33
0.0
 40
0.0
 40
0.0
 40
0.0
 40
0.0
 40
1.0
 40
1.0
 40
1.0
 40
2.0
 40
2.0
 40
2.0
 40
3.0
 40
3.0
 40
3.0
 40
4.0
 40
4.0
 40
4.0
 40
4.0
 10
104.9496576002889
 20
-135.3233682995027
 30
0.0
 10
104.9496576002889
 20
-135.2682291328496
 30
0.0
 10
104.9048901014311
 20
-135.2234263550829
 30
0.0
 10
104.8497509361711
 20
-135.2234263550829
 30
0.0
 10
104.7942942709193
 20
-135.2234263550829
 30
0.0
 10
104.7494914942845
 20
-135.2682291328496
 30
0.0
 10
104.7494914942845
 20
-135.3233682995027
 30
0.0
 10
104.7494914942845
 20
-135.3791777439331
 30
0.0
 10
104.7942942709193
 20
-135.4239452439217
 30
0.0
 10
104.8497509361711
 20
-135.4239452439217
 30
0.0
 10
104.9048901014311
 20
-135.4239452439217
 30
0.0
 10
104.9496576002889
 20
-135.3791777439331
 30
0.0
 10
104.9496576002889
 20
-135.3233682995027
 30
0.0
  0
SPLINE
  5
56
330
1F
100
AcDbEntity
  8
_U+30EC_U+30A4_U+30E4_U+30FC 1
 62
   179
420
  2234388
370
     9
100
AcDbSpline
210
0.0
220
0.0
230
1.0
 70
    11
 71
     3
 72
    17
 73
    13
 74
     0
 42
0.0000000001
 43
0.0000000001
 12
1.0
 22
0.0
 32
0.0
 13
1.0
 23
0.0
 33
0.0
 40
0.0
 40
0.0
 40
0.0
 40
0.0
 40
1.0
 40
1.0
 40
1.0
 40
2.0
 40
2.0
 40
2.0
 40
3.0
 40
3.0
 40
3.0
 40
4.0
 40
4.0
 40
4.0
 40
4.0
 10
75.54958168368071
 20
-119.3233085812804
 30
0.0
 10
75.54958168368071
 20
-119.2681694146273
 30
0.0
 10
75.50477890704595
 20
-119.2234019146387
 30
0.0
 10
75.44964164780411
 20
-119.2234019146387
 30
0.0
 10
75.39453585430292
 20
-119.2234019146387
 30
0.0
 10
75.34973307766816
 20
-119.2681694146273
 30
0.0
 10
75.34973307766816
 20
-119.3233085812804
 30
0.0
 10
75.34973307766816
 20
-119.378765247933
 30
0.0
 10
75.39453585430292
 20
-119.4235327479219
 30
0.0
 10
75.44964164780411
 20
-119.4235327479219
 30
0.0
 10
75.50477890704595
 20
-119.4235327479219
 30
0.0
 10
75.54958168368071
 20
-119.378765247933
 30
0.0
 10
75.54958168368071
 20
-119.3233085812804
 30
0.0
  0
POLYLINE
  5
57
330
1F
100
AcDbEntity
  8
_U+30EC_U+30A4_U+30E4_U+30FC 1
 62
   179
420
  2234388
370
     9
100
AcDb2dPolyline
 66
     1
 10
0.0
 20
0.0
 30
0.0
  0
VERTEX
  5
58
330
57
100
AcDbEntity
  8
_U+30EC_U+30A4_U+30E4_U+30FC 1
 62
   179
420
  2234388
370
     9
100
AcDbVertex
100
AcDb2dVertex
 10
108.8495100007954
 20
-129.5238780231746
 30
0.0
  0
VERTEX
  5
59
330
57
100
AcDbEntity
  8
_U+30EC_U+30A4_U+30E4_U+30FC 1
 62
   179
420
  2234388
370
     9
100
AcDbVertex
100
AcDb2dVertex
 10
108.8495100007954
 20
-124.265619413378
 30
0.0
  0
SEQEND
  5
5A
330
57
100
AcDbEntity
  8
_U+30EC_U+30A4_U+30E4_U+30FC 1
 62
   179
420
  2234388
370
     9
  0
POLYLINE
  5
5B
330
1F
100
AcDbEntity
  8
_U+30EC_U+30A4_U+30E4_U+30FC 1
 62
   179
420
  2234388
370
     9
100
AcDb2dPolyline
 66
     1
 10
0.0
 20
0.0
 30
0.0
  0
VERTEX
  5
5C
330
5B
100
AcDbEntity
  8
_U+30EC_U+30A4_U+30E4_U+30FC 1
 62
   179
420
  2234388
370
     9
100
AcDbVertex
100
AcDb2dVertex
 10
108.8495100007954
 20
-129.5238780231746
 30
0.0
  0
VERTEX
  5
5D
330
5B
100
AcDbEntity
  8
_U+30EC_U+30A4_U+30E4_U+30FC 1
 62
   179
420
  2234388
370
     9
100
AcDbVertex
100
AcDb2dVertex
 10
108.8495100007954
 20
-131.3236091338358
 30
0.0
  0
SEQEND
  5
5E
330
5B
100
AcDbEntity
  8
_U+30EC_U+30A4_U+30E4_U+30FC 1
 62
   179
420
  2234388
370
     9
  0
POLYLINE
  5
5F
330
1F
100
AcDbEntity
  8
_U+30EC_U+30A4_U+30E4_U+30FC 1
 62
   179
420
  2234388
370
     9
100
AcDb2dPolyline
 66
     1
 10
0.0
 20
0.0
 30
0.0
  0
VERTEX
  5
60
330
5F
100
AcDbEntity
  8
_U+30EC_U+30A4_U+30E4_U+30FC 1
 62
   179
420
  2234388
370
     9
100
AcDbVertex
100
AcDb2dVertex
 10
107.3894686491553
 20
-129.5238780231746
 30
0.0
  0
VERTEX
  5
61
330
5F
100
AcDbEntity
  8
_U+30EC_U+30A4_U+30E4_U+30FC 1
 62
   179
420
  2234388
370
     9
100
AcDbVertex
100
AcDb2dVertex
 10
109.8496349752801
 20
-129.5238780231746
 30
0.0
  0
SEQEND
  5
62
330
5F
100
AcDbEntity
  8
_U+30EC_U+30A4_U+30E4_U+30FC 1
 62
   179
420
  2234388
370
     9
  0
POLYLINE
  5
63
330
1F
100
AcDbEntity
  8
_U+30EC_U+30A4_U+30E4_U+30FC 1
 62
   179
420
  2234388
370
     9
100
AcDb2dPolyline
 66
     1
 10
0.0
 20
0.0
 30
0.0
  0
VERTEX
  5
64
330
63
100
AcDbEntity
  8
_U+30EC_U+30A4_U+30E4_U+30FC 1
 62
   179
420
  2234388
370
     9
100
AcDbVertex
100
AcDb2dVertex
 10
107.3894686491553
 20
-131.3236091338358
 30
0.0
  0
VERTEX
  5
65
330
63
100
AcDbEntity
  8
_U+30EC_U+30A4_U+30E4_U+30FC 1
 62
   179
420
  2234388
370
     9
100
AcDbVertex
100
AcDb2dVertex
 10
109.8496349752801
 20
-131.3236091338358
 30
0.0
  0
SEQEND
  5
66
330
63
100
AcDbEntity
  8
_U+30EC_U+30A4_U+30E4_U+30FC 1
 62
   179
420
  2234388
370
     9
  0
INSERT
  5
68
330
1F
100
AcDbEntity
  8
_U+30EC_U+30A4_U+30E4_U+30FC 1
100
AcDbBlockReference
  2
block 2
 10
0.0
 20
0.0
 30
0.0
  0
SPLINE
  5
79
330
1F
100
AcDbEntity
  8
_U+30EC_U+30A4_U+30E4_U+30FC 1
 62
   179
420
  2234388
370
     9
100
AcDbSpline
210
0.0
220
0.0
230
1.0
 70
    11
 71
     3
 72
    17
 73
    13
 74
     0
 42
0.0000000001
 43
0.0000000001
 12
1.0
 22
0.0
 32
0.0
 13
1.0
 23
0.0
 33
0.0
 40
0.0
 40
0.0
 40
0.0
 40
0.0
 40
1.0
 40
1.0
 40
1.0
 40
2.0
 40
2.0
 40
2.0
 40
3.0
 40
3.0
 40
3.0
 40
4.0
 40
4.0
 40
4.0
 40
4.0
 10
104.8848876019414
 20
-129.5238780231746
 30
0.0
 10
104.8848876019414
 20
-129.5431749676145
 30
0.0
 10
104.8690478801232
 20
-129.5590146898324
 30
0.0
 10
104.8497509361711
 20
-129.5590146898324
 30
0.0
 10
104.8301364922271
 20
-129.5590146898324
 30
0.0
 10
104.8142614926321
 20
-129.5431749676145
 30
0.0
 10
104.8142614926321
 20
-129.5238780231746
 30
0.0
 10
104.8142614926321
 20
-129.5039108009574
 30
0.0
 10
104.8301364922271
 20
-129.4880358009614
 30
0.0
 10
104.8497509361711
 20
-129.4880358009614
 30
0.0
 10
104.8690478801232
 20
-129.4880358009614
 30
0.0
 10
104.8848876019414
 20
-129.5039108009574
 30
0.0
 10
104.8848876019414
 20
-129.5238780231746
 30
0.0
  0
SPLINE
  5
7A
330
1F
100
AcDbEntity
  8
_U+30EC_U+30A4_U+30E4_U+30FC 1
 62
   179
420
  2234388
370
    25
100
AcDbSpline
210
0.0
220
0.0
230
1.0
 70
    11
 71
     3
 72
    17
 73
    13
 74
     0
 42
0.0000000001
 43
0.0000000001
 12
1.0
 22
0.0
 32
0.0
 13
1.0
 23
0.0
 33
0.0
 40
0.0
 40
0.0
 40
0.0
 40
0.0
 40
1.0
 40
1.0
 40
1.0
 40
2.0
 40
2.0
 40
2.0
 40
3.0
 40
3.0
 40
3.0
 40
4.0
 40
4.0
 40
4.0
 40
4.0
 10
104.8848876019414
 20
-131.3236091338358
 30
0.0
 10
104.8848876019414
 20
-131.3428708004975
 30
0.0
 10
104.8690478801232
 20
-131.3587458004935
 30
0.0
 10
104.8497509361711
 20
-131.3587458004935
 30
0.0
 10
104.8301364922271
 20
-131.3587458004935
 30
0.0
 10
104.8142614926321
 20
-131.3428708004975
 30
0.0
 10
104.8142614926321
 20
-131.3236091338358
 30
0.0
 10
104.8142614926321
 20
-131.304312189396
 30
0.0
 10
104.8301364922271
 20
-131.2884724671781
 30
0.0
 10
104.8497509361711
 20
-131.2884724671781
 30
0.0
 10
104.8690478801232
 20
-131.2884724671781
 30
0.0
 10
104.8848876019414
 20
-131.304312189396
 30
0.0
 10
104.8848876019414
 20
-131.3236091338358
 30
0.0
  0
SPLINE
  5
7B
330
1F
100
AcDbEntity
  8
_U+30EC_U+30A4_U+30E4_U+30FC 1
 62
   179
420
  2234388
370
     9
100
AcDbSpline
210
0.0
220
0.0
230
1.0
 70
    11
 71
     3
 72
    17
 73
    13
 74
     0
 42
0.0000000001
 43
0.0000000001
 12
1.0
 22
0.0
 32
0.0
 13
1.0
 23
0.0
 33
0.0
 40
0.0
 40
0.0
 40
0.0
 40
0.0
 40
1.0
 40
1.0
 40
1.0
 40
2.0
 40
2.0
 40
2.0
 40
3.0
 40
3.0
 40
3.0
 40
4.0
 40
4.0
 40
4.0
 40
4.0
 10
108.8849994443345
 20
-131.3236091338358
 30
0.0
 10
108.8849994443345
 20
-131.3428708004975
 30
0.0
 10
108.8691597225163
 20
-131.3587458004935
 30
0.0
 10
108.8495100007954
 20
-131.3587458004935
 30
0.0
 10
108.8302130568433
 20
-131.3587458004935
 30
0.0
 10
108.8143733350252
 20
-131.3428708004975
 30
0.0
 10
108.8143733350252
 20
-131.3236091338358
 30
0.0
 10
108.8143733350252
 20
-131.304312189396
 30
0.0
 10
108.8302130568433
 20
-131.2884724671781
 30
0.0
 10
108.8495100007954
 20
-131.2884724671781
 30
0.0
 10
108.8691597225163
 20
-131.2884724671781
 30
0.0
 10
108.8849994443345
 20
-131.304312189396
 30
0.0
 10
108.8849994443345
 20
-131.3236091338358
 30
0.0
  0
POLYLINE
  5
7C
330
1F
100
AcDbEntity
  8
_U+30EC_U+30A4_U+30E4_U+30FC 1
 62
   179
420
  2234388
370
     9
100
AcDb2dPolyline
 66
     1
 10
0.0
 20
0.0
 30
0.0
  0
VERTEX
  5
7D
330
7C
100
AcDbEntity
  8
_U+30EC_U+30A4_U+30E4_U+30FC 1
 62
   179
420
  2234388
370
     9
100
AcDbVertex
100
AcDb2dVertex
 10
75.44964164780411
 20
-119.3233085812804
 30
0.0
  0
VERTEX
  5
7E
330
7C
100
AcDbEntity
  8
_U+30EC_U+30A4_U+30E4_U+30FC 1
 62
   179
420
  2234388
370
     9
100
AcDbVertex
100
AcDb2dVertex
 10
75.44964164780411
 20
-131.3236091338358
 30
0.0
  0
SEQEND
  5
7F
330
7C
100
AcDbEntity
  8
_U+30EC_U+30A4_U+30E4_U+30FC 1
 62
   179
420
  2234388
370
     9
  0
POLYLINE
  5
80
330
1F
100
AcDbEntity
  8
_U+30EC_U+30A4_U+30E4_U+30FC 1
 62
   179
420
  2234388
370
     9
100
AcDb2dPolyline
 66
     1
 10
0.0
 20
0.0
 30
0.0
  0
VERTEX
  5
81
330
80
100
AcDbEntity
  8
_U+30EC_U+30A4_U+30E4_U+30FC 1
 62
   179
420
  2234388
370
     9
100
AcDbVertex
100
AcDb2dVertex
 10
76.90968109342613
 20
-119.3233085812804
 30
0.0
  0
VERTEX
  5
82
330
80
100
AcDbEntity
  8
_U+30EC_U+30A4_U+30E4_U+30FC 1
 62
   179
420
  2234388
370
     9
100
AcDbVertex
100
AcDb2dVertex
 10
74.44955004507818
 20
-119.3233085812804
 30
0.0
  0
SEQEND
  5
83
330
80
100
AcDbEntity
  8
_U+30EC_U+30A4_U+30E4_U+30FC 1
 62
   179
420
  2234388
370
     9
  0
POLYLINE
  5
84
330
1F
100
AcDbEntity
  8
_U+30EC_U+30A4_U+30E4_U+30FC 1
 62
   179
420
  2234388
370
     9
100
AcDb2dPolyline
 66
     1
 10
0.0
 20
0.0
 30
0.0
  0
VERTEX
  5
85
330
84
100
AcDbEntity
  8
_U+30EC_U+30A4_U+30E4_U+30FC 1
 62
   179
420
  2234388
370
     9
100
AcDbVertex
100
AcDb2dVertex
 10
76.90968109342613
 20
-131.3236091338358
 30
0.0
  0
VERTEX
  5
86
330
84
100
AcDbEntity
  8
_U+30EC_U+30A4_U+30E4_U+30FC 1
 62
   179
420
  2234388
370
     9
100
AcDbVertex
100
AcDb2dVertex
 10
74.44955004507818
 20
-131.3236091338358
 30
0.0
  0
SEQEND
  5
87
330
84
100
AcDbEntity
  8
_U+30EC_U+30A4_U+30E4_U+30FC 1
 62
   179
420
  2234388
370
     9
  0
INSERT
  5
89
330
1F
100
AcDbEntity
  8
_U+30EC_U+30A4_U+30E4_U+30FC 1
100
AcDbBlockReference
  2
block 3
 10
0.0
 20
0.0
 30
0.0
  0
SPLINE
  5
90
330
1F
100
AcDbEntity
  8
_U+30EC_U+30A4_U+30E4_U+30FC 1
 62
   179
420
  2234388
370
    25
100
AcDbSpline
210
0.0
220
0.0
230
1.0
 70
    11
 71
     3
 72
    17
 73
    13
 74
     0
 42
0.0000000001
 43
0.0000000001
 12
1.0
 22
0.0
 32
0.0
 13
1.0
 23
0.0
 33
0.0
 40
0.0
 40
0.0
 40
0.0
 40
0.0
 40
1.0
 40
1.0
 40
1.0
 40
2.0
 40
2.0
 40
2.0
 40
3.0
 40
3.0
 40
3.0
 40
4.0
 40
4.0
 40
4.0
 40
4.0
 10
79.48488824994934
 20
-119.3233085812804
 30
0.0
 10
79.48488824994934
 20
-119.3429230257198
 30
0.0
 10
79.46904852813122
 20
-119.358762747938
 30
0.0
 10
79.44975158417908
 20
-119.358762747938
 30
0.0
 10
79.43013714023505
 20
-119.358762747938
 30
0.0
 10
79.41426214064005
 20
-119.3429230257198
 30
0.0
 10
79.41426214064005
 20
-119.3233085812804
 30
0.0
 10
79.41426214064005
 20
-119.3040116368405
 30
0.0
 10
79.43013714023505
 20
-119.2881366368448
 30
0.0
 10
79.44975158417908
 20
-119.2881366368448
 30
0.0
 10
79.46904852813122
 20
-119.2881366368448
 30
0.0
 10
79.48488824994934
 20
-119.3040116368405
 30
0.0
 10
79.48488824994934
 20
-119.3233085812804
 30
0.0
  0
SPLINE
  5
91
330
1F
100
AcDbEntity
  8
_U+30EC_U+30A4_U+30E4_U+30FC 1
 62
   179
420
  2234388
370
    25
100
AcDbSpline
210
0.0
220
0.0
230
1.0
 70
    11
 71
     3
 72
    17
 73
    13
 74
     0
 42
0.0000000001
 43
0.0000000001
 12
1.0
 22
0.0
 32
0.0
 13
1.0
 23
0.0
 33
0.0
 40
0.0
 40
0.0
 40
0.0
 40
0.0
 40
1.0
 40
1.0
 40
1.0
 40
2.0
 40
2.0
 40
2.0
 40
3.0
 40
3.0
 40
3.0
 40
4.0
 40
4.0
 40
4.0
 40
4.0
 10
79.48488824994934
 20
-131.3236091338358
 30
0.0
 10
79.48488824994934
 20
-131.3428708004975
 30
0.0
 10
79.46904852813122
 20
-131.3587458004935
 30
0.0
 10
79.44975158417908
 20
-131.3587458004935
 30
0.0
 10
79.43013714023505
 20
-131.3587458004935
 30
0.0
 10
79.41426214064005
 20
-131.3428708004975
 30
0.0
 10
79.41426214064005
 20
-131.3236091338358
 30
0.0
 10
79.41426214064005
 20
-131.304312189396
 30
0.0
 10
79.43013714023505
 20
-131.2884724671781
 30
0.0
 10
79.44975158417908
 20
-131.2884724671781
 30
0.0
 10
79.46904852813122
 20
-131.2884724671781
 30
0.0
 10
79.48488824994934
 20
-131.304312189396
 30
0.0
 10
79.48488824994934
 20
-131.3236091338358
 30
0.0
  0
SPLINE
  5
92
330
1F
100
AcDbEntity
  8
_U+30EC_U+30A4_U+30E4_U+30FC 1
 62
   179
420
  2234388
370
     9
100
AcDbSpline
210
0.0
220
0.0
230
1.0
 70
    11
 71
     3
 72
    17
 73
    13
 74
     0
 42
0.0000000001
 43
0.0000000001
 12
1.0
 22
0.0
 32
0.0
 13
1.0
 23
0.0
 33
0.0
 40
0.0
 40
0.0
 40
0.0
 40
0.0
 40
1.0
 40
1.0
 40
1.0
 40
2.0
 40
2.0
 40
2.0
 40
3.0
 40
3.0
 40
3.0
 40
4.0
 40
4.0
 40
4.0
 40
4.0
 10
75.48481168533313
 20
-131.3236091338358
 30
0.0
 10
75.48481168533313
 20
-131.3428708004975
 30
0.0
 10
75.46893668573813
 20
-131.3587458004935
 30
0.0
 10
75.44964164780411
 20
-131.3587458004935
 30
0.0
 10
75.43002529784195
 20
-131.3587458004935
 30
0.0
 10
75.41450307601573
 20
-131.3428708004975
 30
0.0
 10
75.41450307601573
 20
-131.3236091338358
 30
0.0
 10
75.41450307601573
 20
-131.304312189396
 30
0.0
 10
75.43002529784195
 20
-131.2884724671781
 30
0.0
 10
75.44964164780411
 20
-131.2884724671781
 30
0.0
 10
75.46893668573813
 20
-131.2884724671781
 30
0.0
 10
75.48481168533313
 20
-131.304312189396
 30
0.0
 10
75.48481168533313
 20
-131.3236091338358
 30
0.0
  0
POLYLINE
  5
93
330
1F
100
AcDbEntity
  8
_U+30EC_U+30A4_U+30E4_U+30FC 1
 62
   179
420
  2234388
370
     9
100
AcDb2dPolyline
 66
     1
 10
0.0
 20
0.0
 30
0.0
  0
VERTEX
  5
94
330
93
100
AcDbEntity
  8
_U+30EC_U+30A4_U+30E4_U+30FC 1
 62
   179
420
  2234388
370
     9
100
AcDbVertex
100
AcDb2dVertex
 10
79.44975158417908
 20
-133.8633269109783
 30
0.0
  0
VERTEX
  5
95
330
93
100
AcDbEntity
  8
_U+30EC_U+30A4_U+30E4_U+30FC 1
 62
   179
420
  2234388
370
     9
100
AcDbVertex
100
AcDb2dVertex
 10
79.44975158417908
 20
-136.3238107992526
 30
0.0
  0
SEQEND
  5
96
330
93
100
AcDbEntity
  8
_U+30EC_U+30A4_U+30E4_U+30FC 1
 62
   179
420
  2234388
370
     9
  0
POLYLINE
  5
97
330
1F
100
AcDbEntity
  8
_U+30EC_U+30A4_U+30E4_U+30FC 1
 62
   179
420
  2234388
370
     9
100
AcDb2dPolyline
 66
     1
 10
0.0
 20
0.0
 30
0.0
  0
VERTEX
  5
98
330
97
100
AcDbEntity
  8
_U+30EC_U+30A4_U+30E4_U+30FC 1
 62
   179
420
  2234388
370
     9
100
AcDbVertex
100
AcDb2dVertex
 10
104.8497509361711
 20
-133.8633269109783
 30
0.0
  0
VERTEX
  5
99
330
97
100
AcDbEntity
  8
_U+30EC_U+30A4_U+30E4_U+30FC 1
 62
   179
420
  2234388
370
     9
100
AcDbVertex
100
AcDb2dVertex
 10
104.8497509361711
 20
-136.3238107992526
 30
0.0
  0
SEQEND
  5
9A
330
97
100
AcDbEntity
  8
_U+30EC_U+30A4_U+30E4_U+30FC 1
 62
   179
420
  2234388
370
     9
  0
SPLINE
  5
9B
330
1F
100
AcDbEntity
  8
_U+30EC_U+30A4_U+30E4_U+30FC 1
 62
   179
420
  2234388
370
    25
100
AcDbSpline
210
0.0
220
0.0
230
1.0
 70
    11
 71
     3
 72
    17
 73
    13
 74
     0
 42
0.0000000001
 43
0.0000000001
 12
1.0
 22
0.0
 32
0.0
 13
1.0
 23
0.0
 33
0.0
 40
0.0
 40
0.0
 40
0.0
 40
0.0
 40
1.0
 40
1.0
 40
1.0
 40
2.0
 40
2.0
 40
2.0
 40
3.0
 40
3.0
 40
3.0
 40
4.0
 40
4.0
 40
4.0
 40
4.0
 10
79.48488824994934
 20
-131.3236091338358
 30
0.0
 10
79.48488824994934
 20
-131.3428708004975
 30
0.0
 10
79.46904852813122
 20
-131.3587458004935
 30
0.0
 10
79.44975158417908
 20
-131.3587458004935
 30
0.0
 10
79.43013714023505
 20
-131.3587458004935
 30
0.0
 10
79.41426214064005
 20
-131.3428708004975
 30
0.0
 10
79.41426214064005
 20
-131.3236091338358
 30
0.0
 10
79.41426214064005
 20
-131.304312189396
 30
0.0
 10
79.43013714023505
 20
-131.2884724671781
 30
0.0
 10
79.44975158417908
 20
-131.2884724671781
 30
0.0
 10
79.46904852813122
 20
-131.2884724671781
 30
0.0
 10
79.48488824994934
 20
-131.304312189396
 30
0.0
 10
79.48488824994934
 20
-131.3236091338358
 30
0.0
  0
SPLINE
  5
9C
330
1F
100
AcDbEntity
  8
_U+30EC_U+30A4_U+30E4_U+30FC 1
 62
   179
420
  2234388
370
    25
100
AcDbSpline
210
0.0
220
0.0
230
1.0
 70
    11
 71
     3
 72
    17
 73
    13
 74
     0
 42
0.0000000001
 43
0.0000000001
 12
1.0
 22
0.0
 32
0.0
 13
1.0
 23
0.0
 33
0.0
 40
0.0
 40
0.0
 40
0.0
 40
0.0
 40
1.0
 40
1.0
 40
1.0
 40
2.0
 40
2.0
 40
2.0
 40
3.0
 40
3.0
 40
3.0
 40
4.0
 40
4.0
 40
4.0
 40
4.0
 10
104.8848876019414
 20
-131.3236091338358
 30
0.0
 10
104.8848876019414
 20
-131.3428708004975
 30
0.0
 10
104.8690478801232
 20
-131.3587458004935
 30
0.0
 10
104.8497509361711
 20
-131.3587458004935
 30
0.0
 10
104.8301364922271
 20
-131.3587458004935
 30
0.0
 10
104.8142614926321
 20
-131.3428708004975
 30
0.0
 10
104.8142614926321
 20
-131.3236091338358
 30
0.0
 10
104.8142614926321
 20
-131.304312189396
 30
0.0
 10
104.8301364922271
 20
-131.2884724671781
 30
0.0
 10
104.8497509361711
 20
-131.2884724671781
 30
0.0
 10
104.8690478801232
 20
-131.2884724671781
 30
0.0
 10
104.8848876019414
 20
-131.304312189396
 30
0.0
 10
104.8848876019414
 20
-131.3236091338358
 30
0.0
  0
SPLINE
  5
9D
330
1F
100
AcDbEntity
  8
_U+30EC_U+30A4_U+30E4_U+30FC 1
 62
   179
420
  2234388
370
     9
100
AcDbSpline
210
0.0
220
0.0
230
1.0
 70
    11
 71
     3
 72
    17
 73
    13
 74
     0
 42
0.0000000001
 43
0.0000000001
 12
1.0
 22
0.0
 32
0.0
 13
1.0
 23
0.0
 33
0.0
 40
0.0
 40
0.0
 40
0.0
 40
0.0
 40
1.0
 40
1.0
 40
1.0
 40
2.0
 40
2.0
 40
2.0
 40
3.0
 40
3.0
 40
3.0
 40
4.0
 40
4.0
 40
4.0
 40
4.0
 10
104.8848876019414
 20
-135.3233682995027
 30
0.0
 10
104.8848876019414
 20
-135.3433355217199
 30
0.0
 10
104.8690478801232
 20
-135.3591752439378
 30
0.0
 10
104.8497509361711
 20
-135.3591752439378
 30
0.0
 10
104.8301364922271
 20
-135.3591752439378
 30
0.0
 10
104.8142614926321
 20
-135.3433355217199
 30
0.0
 10
104.8142614926321
 20
-135.3233682995027
 30
0.0
 10
104.8142614926321
 20
-135.3040713550629
 30
0.0
 10
104.8301364922271
 20
-135.2881963550668
 30
0.0
 10
104.8497509361711
 20
-135.2881963550668
 30
0.0
 10
104.8690478801232
 20
-135.2881963550668
 30
0.0
 10
104.8848876019414
 20
-135.3040713550629
 30
0.0
 10
104.8848876019414
 20
-135.3233682995027
 30
0.0
  0
POLYLINE
  5
9E
330
1F
100
AcDbEntity
  8
_U+30EC_U+30A4_U+30E4_U+30FC 1
 62
   179
420
  2234388
370
    25
100
AcDb2dPolyline
 66
     1
 10
0.0
 20
0.0
 30
0.0
  0
VERTEX
  5
9F
330
9E
100
AcDbEntity
  8
_U+30EC_U+30A4_U+30E4_U+30FC 1
 62
   179
420
  2234388
370
    25
100
AcDbVertex
100
AcDb2dVertex
 10
79.44975158417908
 20
-131.3236091338358
 30
0.0
  0
VERTEX
  5
A0
330
9E
100
AcDbEntity
  8
_U+30EC_U+30A4_U+30E4_U+30FC 1
 62
   179
420
  2234388
370
    25
100
AcDbVertex
100
AcDb2dVertex
 10
104.8497509361711
 20
-131.3236091338358
 30
0.0
  0
SEQEND
  5
A1
330
9E
100
AcDbEntity
  8
_U+30EC_U+30A4_U+30E4_U+30FC 1
 62
   179
420
  2234388
370
    25
  0
POLYLINE
  5
A2
330
1F
100
AcDbEntity
  8
_U+30EC_U+30A4_U+30E4_U+30FC 1
 62
   179
420
  2234388
370
     9
100
AcDb2dPolyline
 66
     1
 10
0.0
 20
0.0
 30
0.0
  0
VERTEX
  5
A3
330
A2
100
AcDbEntity
  8
_U+30EC_U+30A4_U+30E4_U+30FC 1
 62
   179
420
  2234388
370
     9
100
AcDbVertex
100
AcDb2dVertex
 10
81.24948264937522
 20
-129.5238780231746
 30
0.0
  0
VERTEX
  5
A4
330
A2
100
AcDbEntity
  8
_U+30EC_U+30A4_U+30E4_U+30FC 1
 62
   179
420
  2234388
370
     9
100
AcDbVertex
100
AcDb2dVertex
 10
104.8497509361711
 20
-129.5238780231746
 30
0.0
  0
SEQEND
  5
A5
330
A2
100
AcDbEntity
  8
_U+30EC_U+30A4_U+30E4_U+30FC 1
 62
   179
420
  2234388
370
     9
  0
POLYLINE
  5
A6
330
1F
100
AcDbEntity
  8
_U+30EC_U+30A4_U+30E4_U+30FC 1
 62
   179
420
  2234388
370
     9
100
AcDb2dPolyline
 66
     1
 10
0.0
 20
0.0
 30
0.0
  0
VERTEX
  5
A7
330
A6
100
AcDbEntity
  8
_U+30EC_U+30A4_U+30E4_U+30FC 1
 62
   179
420
  2234388
370
     9
100
AcDbVertex
100
AcDb2dVertex
 10
79.44975158417908
 20
-135.3233682995027
 30
0.0
  0
VERTEX
  5
A8
330
A6
100
AcDbEntity
  8
_U+30EC_U+30A4_U+30E4_U+30FC 1
 62
   179
420
  2234388
370
     9
100
AcDbVertex
100
AcDb2dVertex
 10
104.8497509361711
 20
-135.3233682995027
 30
0.0
  0
SEQEND
  5
A9
330
A6
100
AcDbEntity
  8
_U+30EC_U+30A4_U+30E4_U+30FC 1
 62
   179
420
  2234388
370
     9
  0
INSERT
  5
AB
330
1F
100
AcDbEntity
  8
_U+30EC_U+30A4_U+30E4_U+30FC 1
100
AcDbBlockReference
  2
block 4
 10
0.0
 20
0.0
 30
0.0
  0
ENDSEC
  0
SECTION
  2
OBJECTS
  0
DICTIONARY
  5
C
330
0
100
AcDbDictionary
281
     1
  3
ACAD_GROUP
350
D
  3
ACAD_LAYOUT
350
1A
  3
ACAD_MATERIAL
350
3B
  3
ACAD_MLEADERSTYLE
350
D0
  3
ACAD_MLINESTYLE
350
17
  3
ACAD_PLOTSETTINGS
350
19
  3
ACAD_PLOTSTYLENAME
350
E
  3
ACAD_TABLESTYLE
350
CF
  3
ACAD_VISUALSTYLE
350
2A
  0
SUN
  5
3F
330
29
100
AcDbSun
 90
        1
290
     0
 63
     7
421
 16777215
 40
1.0
291
     1
 91
  2455826
 92
 54000000
292
     0
 70
     2
 71
   256
280
     1
  0
DICTIONARY
  5
D
102
{ACAD_REACTORS
330
C
102
}
330
C
100
AcDbDictionary
281
     1
  0
DICTIONARY
  5
1A
102
{ACAD_REACTORS
330
C
102
}
330
C
100
AcDbDictionary
281
     1
  3
Layout1
350
1E
  3
Layout2
350
26
  3
Model
350
22
  0
DICTIONARY
  5
3B
102
{ACAD_REACTORS
330
C
102
}
330
C
100
AcDbDictionary
281
     1
  3
ByBlock
350
3D
  3
ByLayer
350
3C
  3
Global
350
3E
  0
DICTIONARY
  5
D0
102
{ACAD_REACTORS
330
C
102
}
330
C
100
AcDbDictionary
281
     1
  0
DICTIONARY
  5
17
102
{ACAD_REACTORS
330
C
102
}
330
C
100
AcDbDictionary
281
     1
  3
Standard
350
18
  0
DICTIONARY
  5
19
102
{ACAD_REACTORS
330
C
102
}
330
C
100
AcDbDictionary
281
     1
  0
ACDBDICTIONARYWDFLT
  5
E
102
{ACAD_REACTORS
330
C
102
}
330
C
100
AcDbDictionary
281
     1
  3
Normal
350
F
100
AcDbDictionaryWithDefault
340
F
  0
DICTIONARY
  5
CF
102
{ACAD_REACTORS
330
C
102
}
330
C
100
AcDbDictionary
281
     1
  0
DICTIONARY
  5
2A
102
{ACAD_REACTORS
330
C
102
}
330
C
100
AcDbDictionary
281
     1
  3
2dWireframe
350
2F
  3
3D Hidden
350
31
  3
3dWireframe
350
30
  3
Basic
350
32
  3
Brighten
350
36
  3
ColorChange
350
3A
  3
Conceptual
350
34
  3
Dim
350
35
  3
Facepattern
350
39
  3
Flat
350
2B
  3
FlatWithEdges
350
2C
  3
Gouraud
350
2D
  3
GouraudWithEdges
350
2E
  3
Linepattern
350
38
  3
Realistic
350
33
  3
Thicken
350
37
  0
LAYOUT
  5
1E
102
{ACAD_REACTORS
330
1A
102
}
330
1A
100
AcDbPlotSettings
  1

  2
none_device
  4

  6

 40
0.0
 41
0.0
 42
0.0
 43
0.0
 44
0.0
 45
0.0
 46
0.0
 47
0.0
 48
0.0
 49
0.0
140
0.0
141
0.0
142
1.0
143
1.0
 70
   688
 72
     0
 73
     0
 74
     5
  7

 75
    16
 76
     0
 77
     2
 78
   300
147
1.0
148
0.0
149
0.0
100
AcDbLayout
  1
Layout1
 70
     1
 71
     1
 10
0.0
 20
0.0
 11
12.0
 21
9.0
 12
0.0
 22
0.0
 32
0.0
 14
1.000000000000000E+20
 24
1.000000000000000E+20
 34
1.000000000000000E+20
 15
-1.000000000000000E+20
 25
-1.000000000000000E+20
 35
-1.000000000000000E+20
146
0.0
 13
0.0
 23
0.0
 33
0.0
 16
1.0
 26
0.0
 36
0.0
 17
0.0
 27
1.0
 37
0.0
 76
     0
330
1B
  0
LAYOUT
  5
26
102
{ACAD_REACTORS
330
1A
102
}
330
1A
100
AcDbPlotSettings
  1

  2
none_device
  4

  6

 40
0.0
 41
0.0
 42
0.0
 43
0.0
 44
0.0
 45
0.0
 46
0.0
 47
0.0
 48
0.0
 49
0.0
140
0.0
141
0.0
142
1.0
143
1.0
 70
   688
 72
     0
 73
     0
 74
     5
  7

 75
    16
 76
     0
 77
     2
 78
   300
147
1.0
148
0.0
149
0.0
100
AcDbLayout
  1
Layout2
 70
     1
 71
     2
 10
0.0
 20
0.0
 11
0.0
 21
0.0
 12
0.0
 22
0.0
 32
0.0
 14
0.0
 24
0.0
 34
0.0
 15
0.0
 25
0.0
 35
0.0
146
0.0
 13
0.0
 23
0.0
 33
0.0
 16
1.0
 26
0.0
 36
0.0
 17
0.0
 27
1.0
 37
0.0
 76
     0
330
23
  0
LAYOUT
  5
22
102
{ACAD_REACTORS
330
1A
102
}
330
1A
100
AcDbPlotSettings
  1

  2
none_device
  4

  6

 40
0.0
 41
0.0
 42
0.0
 43
0.0
 44
0.0
 45
0.0
 46
0.0
 47
0.0
 48
0.0
 49
0.0
140
0.0
141
0.0
142
1.0
143
1.0
 70
  1712
 72
     0
 73
     0
 74
     0
  7

 75
     0
 76
     0
 77
     2
 78
   300
147
1.0
148
0.0
149
0.0
100
AcDbLayout
  1
Model
 70
     1
 71
     0
 10
0.0
 20
0.0
 11
12.0
 21
9.0
 12
0.0
 22
0.0
 32
0.0
 14
1.000000000000000E+20
 24
1.000000000000000E+20
 34
1.000000000000000E+20
 15
-1.000000000000000E+20
 25
-1.000000000000000E+20
 35
-1.000000000000000E+20
146
0.0
 13
0.0
 23
0.0
 33
0.0
 16
1.0
 26
0.0
 36
0.0
 17
0.0
 27
1.0
 37
0.0
 76
     0
330
1F
331
29
  0
MATERIAL
  5
3D
102
{ACAD_REACTORS
330
3B
102
}
330
3B
100
AcDbMaterial
  1
ByBlock
 72
     1
 94
      127
  0
MATERIAL
  5
3C
102
{ACAD_REACTORS
330
3B
102
}
330
3B
100
AcDbMaterial
  1
ByLayer
 72
     1
 94
      127
  0
MATERIAL
  5
3E
102
{ACAD_REACTORS
330
3B
102
}
330
3B
100
AcDbMaterial
  1
Global
 72
     1
 94
      127
  0
MLINESTYLE
  5
18
102
{ACAD_REACTORS
330
17
102
}
330
17
100
AcDbMlineStyle
  2
Standard
 70
     0
  3

 62
   256
 51
90.0
 52
90.0
 71
     2
 49
0.5
 62
   256
  6
BYLAYER
 49
-0.5
 62
   256
  6
BYLAYER
  0
ACDBPLACEHOLDER
  5
F
102
{ACAD_REACTORS
330
E
102
}
330
E
  0
VISUALSTYLE
  5
2F
102
{ACAD_REACTORS
330
2A
102
}
330
2A
100
AcDbVisualStyle
  2
2dWireframe
 70
     4
177
     2
291
     0
 71
     0
176
     1
 72
     2
176
     1
 73
     0
176
     1
 90
        0
176
     1
 40
-0.6
176
     1
 41
-30.0
176
     1
 62
     5
 63
     7
421
 16777215
176
     1
 74
     1
176
     1
 91
        4
176
     1
 64
     7
176
     1
 65
   257
176
     1
 75
     1
176
     1
175
     1
176
     1
 42
1.0
176
     1
 92
        0
176
     1
 66
   257
176
     1
 43
1.0
176
     1
 76
     1
176
     1
 77
     6
176
     1
 78
     2
176
     1
 67
     7
176
     1
 79
     5
176
     1
170
     0
176
     1
171
     0
176
     1
290
     0
176
     1
 93
        1
176
     1
 44
0.0
176
     1
173
     0
176
     1
  0
VISUALSTYLE
  5
31
102
{ACAD_REACTORS
330
2A
102
}
330
2A
100
AcDbVisualStyle
  2
3D Hidden
 70
     6
177
     2
291
     0
 71
     1
176
     1
 72
     2
176
     1
 73
     2
176
     1
 90
        0
176
     1
 40
-0.6
176
     1
 41
-30.0
176
     1
 62
     5
 63
     7
421
 16777215
176
     1
 74
     2
176
     1
 91
        2
176
     1
 64
     7
176
     1
 65
   257
176
     1
 75
     2
176
     1
175
     1
176
     1
 42
40.0
176
     1
 92
        0
176
     1
 66
   257
176
     1
 43
1.0
176
     1
 76
     1
176
     1
 77
     6
176
     1
 78
     2
176
     1
 67
     7
176
     1
 79
     3
176
     1
170
     0
176
     1
171
     0
176
     1
290
     0
176
     1
 93
        1
176
     1
 44
0.0
176
     1
173
     0
176
     1
  0
VISUALSTYLE
  5
30
102
{ACAD_REACTORS
330
2A
102
}
330
2A
100
AcDbVisualStyle
  2
3dWireframe
 70
     5
177
     2
291
     0
 71
     0
176
     1
 72
     2
176
     1
 73
     0
176
     1
 90
        0
176
     1
 40
-0.6
176
     1
 41
-30.0
176
     1
 62
     5
 63
     7
421
 16777215
176
     1
 74
     1
176
     1
 91
        4
176
     1
 64
     7
176
     1
 65
   257
176
     1
 75
     1
176
     1
175
     1
176
     1
 42
1.0
176
     1
 92
        0
176
     1
 66
   257
176
     1
 43
1.0
176
     1
 76
     1
176
     1
 77
     6
176
     1
 78
     2
176
     1
 67
     7
176
     1
 79
     5
176
     1
170
     0
176
     1
171
     0
176
     1
290
     0
176
     1
 93
        1
176
     1
 44
0.0
176
     1
173
     0
176
     1
  0
VISUALSTYLE
  5
32
102
{ACAD_REACTORS
330
2A
102
}
330
2A
100
AcDbVisualStyle
  2
Basic
 70
     7
177
     2
291
     1
 71
     1
176
     1
 72
     0
176
     1
 73
     1
176
     1
 90
        0
176
     1
 40
-0.6
176
     1
 41
-30.0
176
     1
 62
     5
 63
     7
421
 16777215
176
     1
 74
     0
176
     1
 91
        4
176
     1
 64
     7
176
     1
 65
   257
176
     1
 75
     1
176
     1
175
     1
176
     1
 42
1.0
176
     1
 92
        8
176
     1
 66
     7
176
     1
 43
1.0
176
     1
 76
     1
176
     1
 77
     6
176
     1
 78
     2
176
     1
 67
     7
176
     1
 79
     5
176
     1
170
     0
176
     1
171
     0
176
     1
290
     0
176
     1
 93
        1
176
     1
 44
0.0
176
     1
173
     0
176
     1
  0
VISUALSTYLE
  5
36
102
{ACAD_REACTORS
330
2A
102
}
330
2A
100
AcDbVisualStyle
  2
Brighten
 70
    12
177
     2
291
     1
 71
     2
176
     1
 72
     2
176
     1
 73
     0
176
     1
 90
        0
176
     1
 40
-0.6
176
     1
 41
-30.0
176
     1
 62
     5
 63
     7
421
 16777215
176
     1
 74
     1
176
     1
 91
        4
176
     1
 64
     7
176
     1
 65
   257
176
     1
 75
     1
176
     1
175
     1
176
     1
 42
1.0
176
     1
 92
        8
176
     1
 66
     7
176
     1
 43
1.0
176
     1
 76
     1
176
     1
 77
     6
176
     1
 78
     2
176
     1
 67
     7
176
     1
 79
     5
176
     1
170
     0
176
     1
171
     0
176
     1
290
     0
176
     1
 93
        1
176
     1
 44
50.0
176
     1
173
     0
176
     1
  0
VISUALSTYLE
  5
3A
102
{ACAD_REACTORS
330
2A
102
}
330
2A
100
AcDbVisualStyle
  2
ColorChange
 70
    16
177
     2
291
     1
 71
     2
176
     1
 72
     2
176
     1
 73
     3
176
     1
 90
        0
176
     1
 40
-0.6
176
     1
 41
-30.0
176
     1
 62
     5
 63
     8
421
  8421504
176
     1
 74
     1
176
     1
 91
        4
176
     1
 64
     7
176
     1
 65
   257
176
     1
 75
     1
176
     1
175
     1
176
     1
 42
1.0
176
     1
 92
        8
176
     1
 66
     8
424
  8421504
176
     1
 43
1.0
176
     1
 76
     1
176
     1
 77
     6
176
     1
 78
     2
176
     1
 67
     7
176
     1
 79
     5
176
     1
170
     0
176
     1
171
     0
176
     1
290
     0
176
     1
 93
        1
176
     1
 44
0.0
176
     1
173
     0
176
     1
  0
VISUALSTYLE
  5
34
102
{ACAD_REACTORS
330
2A
102
}
330
2A
100
AcDbVisualStyle
  2
Conceptual
 70
     9
177
     2
291
     0
 71
     3
176
     1
 72
     2
176
     1
 73
     0
176
     1
 90
        0
176
     1
 40
-0.6
176
     1
 41
-30.0
176
     1
 62
     5
 63
     7
421
 16777215
176
     1
 74
     2
176
     1
 91
        2
176
     1
 64
     7
176
     1
 65
   257
176
     1
 75
     1
176
     1
175
     1
176
     1
 42
40.0
176
     1
 92
        8
176
     1
 66
     7
176
     1
 43
1.0
176
     1
 76
     1
176
     1
 77
     6
176
     1
 78
     2
176
     1
 67
     7
176
     1
 79
     3
176
     1
170
     0
176
     1
171
     0
176
     1
290
     0
176
     1
 93
        1
176
     1
 44
0.0
176
     1
173
     0
176
     1
  0
VISUALSTYLE
  5
35
102
{ACAD_REACTORS
330
2A
102
}
330
2A
100
AcDbVisualStyle
  2
Dim
 70
    11
177
     2
291
     1
 71
     2
176
     1
 72
     2
176
     1
 73
     0
176
     1
 90
        0
176
     1
 40
-0.6
176
     1
 41
-30.0
176
     1
 62
     5
 63
     7
421
 16777215
176
     1
 74
     1
176
     1
 91
        4
176
     1
 64
     7
176
     1
 65
   257
176
     1
 75
     1
176
     1
175
     1
176
     1
 42
1.0
176
     1
 92
        8
176
     1
 66
     7
176
     1
 43
1.0
176
     1
 76
     1
176
     1
 77
     6
176
     1
 78
     2
176
     1
 67
     7
176
     1
 79
     5
176
     1
170
     0
176
     1
171
     0
176
     1
290
     0
176
     1
 93
        1
176
     1
 44
-50.0
176
     1
173
     0
176
     1
  0
VISUALSTYLE
  5
39
102
{ACAD_REACTORS
330
2A
102
}
330
2A
100
AcDbVisualStyle
  2
Facepattern
 70
    15
177
     2
291
     1
 71
     2
176
     1
 72
     2
176
     1
 73
     0
176
     1
 90
        0
176
     1
 40
-0.6
176
     1
 41
-30.0
176
     1
 62
     5
 63
     7
421
 16777215
176
     1
 74
     1
176
     1
 91
        4
176
     1
 64
     7
176
     1
 65
   257
176
     1
 75
     1
176
     1
175
     1
176
     1
 42
1.0
176
     1
 92
        8
176
     1
 66
     7
176
     1
 43
1.0
176
     1
 76
     1
176
     1
 77
     6
176
     1
 78
     2
176
     1
 67
     7
176
     1
 79
     5
176
     1
170
     0
176
     1
171
     0
176
     1
290
     0
176
     1
 93
        1
176
     1
 44
0.0
176
     1
173
     0
176
     1
  0
VISUALSTYLE
  5
2B
102
{ACAD_REACTORS
330
2A
102
}
330
2A
100
AcDbVisualStyle
  2
Flat
 70
     0
177
     2
291
     1
 71
     2
176
     1
 72
     1
176
     1
 73
     1
176
     1
 90
        2
176
     1
 40
-0.6
176
     1
 41
30.0
176
     1
 62
     5
 63
     7
421
 16777215
176
     1
 74
     0
176
     1
 91
        4
176
     1
 64
     7
176
     1
 65
   257
176
     1
 75
     1
176
     1
175
     1
176
     1
 42
1.0
176
     1
 92
        8
176
     1
 66
     7
176
     1
 43
1.0
176
     1
 76
     1
176
     1
 77
     6
176
     1
 78
     2
176
     1
 67
     7
176
     1
 79
     5
176
     1
170
     0
176
     1
171
     0
176
     1
290
     0
176
     1
 93
       13
176
     1
 44
0.0
176
     1
173
     0
176
     1
  0
VISUALSTYLE
  5
2C
102
{ACAD_REACTORS
330
2A
102
}
330
2A
100
AcDbVisualStyle
  2
FlatWithEdges
 70
     1
177
     2
291
     1
 71
     2
176
     1
 72
     1
176
     1
 73
     1
176
     1
 90
        2
176
     1
 40
-0.6
176
     1
 41
30.0
176
     1
 62
     5
 63
     7
421
 16777215
176
     1
 74
     1
176
     1
 91
        4
176
     1
 64
     7
176
     1
 65
   257
176
     1
 75
     1
176
     1
175
     1
176
     1
 42
1.0
176
     1
 92
        0
176
     1
 66
   257
176
     1
 43
1.0
176
     1
 76
     1
176
     1
 77
     6
176
     1
 78
     2
176
     1
 67
     7
176
     1
 79
     5
176
     1
170
     0
176
     1
171
     0
176
     1
290
     0
176
     1
 93
       13
176
     1
 44
0.0
176
     1
173
     0
176
     1
  0
VISUALSTYLE
  5
2D
102
{ACAD_REACTORS
330
2A
102
}
330
2A
100
AcDbVisualStyle
  2
Gouraud
 70
     2
177
     2
291
     1
 71
     2
176
     1
 72
     2
176
     1
 73
     1
176
     1
 90
        2
176
     1
 40
-0.6
176
     1
 41
30.0
176
     1
 62
     5
 63
     7
421
 16777215
176
     1
 74
     0
176
     1
 91
        4
176
     1
 64
     7
176
     1
 65
   257
176
     1
 75
     1
176
     1
175
     1
176
     1
 42
1.0
176
     1
 92
        0
176
     1
 66
     7
176
     1
 43
1.0
176
     1
 76
     1
176
     1
 77
     6
176
     1
 78
     2
176
     1
 67
     7
176
     1
 79
     5
176
     1
170
     0
176
     1
171
     0
176
     1
290
     0
176
     1
 93
       13
176
     1
 44
0.0
176
     1
173
     0
176
     1
  0
VISUALSTYLE
  5
2E
102
{ACAD_REACTORS
330
2A
102
}
330
2A
100
AcDbVisualStyle
  2
GouraudWithEdges
 70
     3
177
     2
291
     1
 71
     2
176
     1
 72
     2
176
     1
 73
     1
176
     1
 90
        2
176
     1
 40
-0.6
176
     1
 41
30.0
176
     1
 62
     5
 63
     7
421
 16777215
176
     1
 74
     1
176
     1
 91
        4
176
     1
 64
     7
176
     1
 65
   257
176
     1
 75
     1
176
     1
175
     1
176
     1
 42
1.0
176
     1
 92
        0
176
     1
 66
   257
176
     1
 43
1.0
176
     1
 76
     1
176
     1
 77
     6
176
     1
 78
     2
176
     1
 67
     7
176
     1
 79
     5
176
     1
170
     0
176
     1
171
     0
176
     1
290
     0
176
     1
 93
       13
176
     1
 44
0.0
176
     1
173
     0
176
     1
  0
VISUALSTYLE
  5
38
102
{ACAD_REACTORS
330
2A
102
}
330
2A
100
AcDbVisualStyle
  2
Linepattern
 70
    14
177
     2
291
     1
 71
     2
176
     1
 72
     2
176
     1
 73
     0
176
     1
 90
        0
176
     1
 40
-0.6
176
     1
 41
-30.0
176
     1
 62
     5
 63
     7
421
 16777215
176
     1
 74
     1
176
     1
 91
        4
176
     1
 64
     7
176
     1
 65
   257
176
     1
 75
     7
176
     1
175
     7
176
     1
 42
1.0
176
     1
 92
        8
176
     1
 66
     7
176
     1
 43
1.0
176
     1
 76
     1
176
     1
 77
     6
176
     1
 78
     2
176
     1
 67
     7
176
     1
 79
     5
176
     1
170
     0
176
     1
171
     0
176
     1
290
     0
176
     1
 93
        1
176
     1
 44
0.0
176
     1
173
     0
176
     1
  0
VISUALSTYLE
  5
33
102
{ACAD_REACTORS
330
2A
102
}
330
2A
100
AcDbVisualStyle
  2
Realistic
 70
     8
177
     2
291
     0
 71
     2
176
     1
 72
     2
176
     1
 73
     0
176
     1
 90
        0
176
     1
 40
-0.6
176
     1
 41
-30.0
176
     1
 62
     5
 63
     7
421
 16777215
176
     1
 74
     1
176
     1
 91
        0
176
     1
 64
     7
176
     1
 65
   257
176
     1
 75
     1
176
     1
175
     1
176
     1
 42
1.0
176
     1
 92
        8
176
     1
 66
     8
424
  7895160
176
     1
 43
1.0
176
     1
 76
     1
176
     1
 77
     6
176
     1
 78
     2
176
     1
 67
     7
176
     1
 79
     5
176
     1
170
     0
176
     1
171
     0
176
     1
290
     0
176
     1
 93
       13
176
     1
 44
0.0
176
     1
173
     0
176
     1
  0
VISUALSTYLE
  5
37
102
{ACAD_REACTORS
330
2A
102
}
330
2A
100
AcDbVisualStyle
  2
Thicken
 70
    13
177
     2
291
     1
 71
     2
176
     1
 72
     2
176
     1
 73
     0
176
     1
 90
        0
176
     1
 40
-0.6
176
     1
 41
-30.0
176
     1
 62
     5
 63
     7
421
 16777215
176
     1
 74
     1
176
     1
 91
        4
176
     1
 64
     7
176
     1
 65
   257
176
     1
 75
     1
176
     1
175
     1
176
     1
 42
1.0
176
     1
 92
       12
176
     1
 66
     7
176
     1
 43
1.0
176
     1
 76
     1
176
     1
 77
     6
176
     1
 78
     2
176
     1
 67
     7
176
     1
 79
     5
176
     1
170
     0
176
     1
171
     0
176
     1
290
     0
176
     1
 93
        1
176
     1
 44
0.0
176
     1
173
     0
176
     1
  0
ENDSEC
  0
EOF
