  0
SECTION
  2
HEADER
  9
$ACADVER
  1
AC1024
  9
$ACADMAINTVER
 70
     6
  9
$DWGCODEPAGE
  3
UNDEFINED
  9
$INSBASE
 10
0.0
 20
0.0
 30
0.0
  9
$EXTMIN
 10
1.000000000000000E+20
 20
1.000000000000000E+20
 30
1.000000000000000E+20
  9
$EXTMAX
 10
-1.000000000000000E+20
 20
-1.000000000000000E+20
 30
-1.000000000000000E+20
  9
$LIMMIN
 10
0.0
 20
0.0
  9
$LIMMAX
 10
12.0
 20
9.0
  9
$ORTHOMODE
 70
     0
  9
$REGENMODE
 70
     1
  9
$FILLMODE
 70
     1
  9
$QTEXTMODE
 70
     0
  9
$MIRRTEXT
 70
     1
  9
$LTSCALE
 40
1.0
  9
$ATTMODE
 70
     1
  9
$TEXTSIZE
 40
0.2
  9
$TRACEWID
 40
0.05
  9
$TEXTSTYLE
  7
Standard
  9
$CLAYER
  8
0
  9
$CELTYPE
  6
ByLayer
  9
$CECOLOR
 62
   256
  9
$CELTSCALE
 40
1.0
  9
$DISPSILH
 70
     0
  9
$DIMSCALE
 40
1.0
  9
$DIMASZ
 40
0.18
  9
$DIMEXO
 40
0.0625
  9
$DIMDLI
 40
0.38
  9
$DIMRND
 40
0.0
  9
$DIMDLE
 40
0.0
  9
$DIMEXE
 40
0.18
  9
$DIMTP
 40
0.0
  9
$DIMTM
 40
0.0
  9
$DIMTXT
 40
0.18
  9
$DIMCEN
 40
0.09
  9
$DIMTSZ
 40
0.0
  9
$DIMTOL
 70
     0
  9
$DIMLIM
 70
     0
  9
$DIMTIH
 70
     1
  9
$DIMTOH
 70
     1
  9
$DIMSE1
 70
     0
  9
$DIMSE2
 70
     0
  9
$DIMTAD
 70
     0
  9
$DIMZIN
 70
     0
  9
$DIMBLK
  1

  9
$DIMASO
 70
     1
  9
$DIMSHO
 70
     1
  9
$DIMPOST
  1

  9
$DIMAPOST
  1

  9
$DIMALT
 70
     0
  9
$DIMALTD
 70
     2
  9
$DIMALTF
 40
25.4
  9
$DIMLFAC
 40
1.0
  9
$DIMTOFL
 70
     0
  9
$DIMTVP
 40
0.0
  9
$DIMTIX
 70
     0
  9
$DIMSOXD
 70
     0
  9
$DIMSAH
 70
     0
  9
$DIMBLK1
  1

  9
$DIMBLK2
  1

  9
$DIMSTYLE
  2
Standard
  9
$DIMCLRD
 70
     0
  9
$DIMCLRE
 70
     0
  9
$DIMCLRT
 70
     0
  9
$DIMTFAC
 40
1.0
  9
$DIMGAP
 40
0.09
  9
$DIMJUST
 70
     0
  9
$DIMSD1
 70
     0
  9
$DIMSD2
 70
     0
  9
$DIMTOLJ
 70
     1
  9
$DIMTZIN
 70
     0
  9
$DIMALTZ
 70
     0
  9
$DIMALTTZ
 70
     0
  9
$DIMUPT
 70
     0
  9
$DIMDEC
 70
     4
  9
$DIMTDEC
 70
     4
  9
$DIMALTU
 70
     2
  9
$DIMALTTD
 70
     2
  9
$DIMTXSTY
  7
Standard
  9
$DIMAUNIT
 70
     0
  9
$DIMADEC
 70
     0
  9
$DIMALTRND
 40
0.0
  9
$DIMAZIN
 70
     0
  9
$DIMDSEP
 70
    46
  9
$DIMATFIT
 70
     3
  9
$DIMFRAC
 70
     0
  9
$DIMLDRBLK
  1

  9
$DIMLUNIT
 70
     2
  9
$DIMLWD
 70
    -2
  9
$DIMLWE
 70
    -2
  9
$DIMTMOVE
 70
     0
  9
$DIMFXL
 40
1.0
  9
$DIMFXLON
 70
     0
  9
$DIMJOGANG
 40
0.7853981633974483
  9
$DIMTFILL
 70
     0
  9
$DIMTFILLCLR
 70
     0
  9
$DIMARCSYM
 70
     0
  9
$DIMLTYPE
  6

  9
$DIMLTEX1
  6

  9
$DIMLTEX2
  6

  9
$DIMTXTDIRECTION
 70
     0
  9
$LUNITS
 70
     2
  9
$LUPREC
 70
     4
  9
$SKETCHINC
 40
0.1
  9
$FILLETRAD
 40
0.5
  9
$AUNITS
 70
     0
  9
$AUPREC
 70
     0
  9
$MENU
  1
.
  9
$ELEVATION
 40
0.0
  9
$PELEVATION
 40
0.0
  9
$THICKNESS
 40
0.0
  9
$LIMCHECK
 70
     0
  9
$CHAMFERA
 40
0.5
  9
$CHAMFERB
 40
0.5
  9
$CHAMFERC
 40
1.0
  9
$CHAMFERD
 40
0.0
  9
$SKPOLY
 70
     0
  9
$TDCREATE
 40
2457917.609618056
  9
$TDUCREATE
 40
2457917.234618056
  9
$TDUPDATE
 40
2457917.609618056
  9
$TDUUPDATE
 40
2457917.234618056
  9
$TDINDWG
 40
0.0000000116
  9
$TDUSRTIMER
 40
0.0000000116
  9
$USRTIMER
 70
     1
  9
$ANGBASE
 50
0.0
  9
$ANGDIR
 70
     0
  9
$PDMODE
 70
     0
  9
$PDSIZE
 40
0.0
  9
$PLINEWID
 40
0.0
  9
$SPLFRAME
 70
     0
  9
$SPLINETYPE
 70
     6
  9
$SPLINESEGS
 70
     8
  9
$HANDSEED
  5
CC
  9
$SURFTAB1
 70
     6
  9
$SURFTAB2
 70
     6
  9
$SURFTYPE
 70
     6
  9
$SURFU
 70
     6
  9
$SURFV
 70
     6
  9
$UCSBASE
  2

  9
$UCSNAME
  2

  9
$UCSORG
 10
0.0
 20
0.0
 30
0.0
  9
$UCSXDIR
 10
1.0
 20
0.0
 30
0.0
  9
$UCSYDIR
 10
0.0
 20
1.0
 30
0.0
  9
$UCSORTHOREF
  2

  9
$UCSORTHOVIEW
 70
     0
  9
$UCSORGTOP
 10
0.0
 20
0.0
 30
0.0
  9
$UCSORGBOTTOM
 10
0.0
 20
0.0
 30
0.0
  9
$UCSORGLEFT
 10
0.0
 20
0.0
 30
0.0
  9
$UCSORGRIGHT
 10
0.0
 20
0.0
 30
0.0
  9
$UCSORGFRONT
 10
0.0
 20
0.0
 30
0.0
  9
$UCSORGBACK
 10
0.0
 20
0.0
 30
0.0
  9
$PUCSBASE
  2

  9
$PUCSNAME
  2

  9
$PUCSORG
 10
0.0
 20
0.0
 30
0.0
  9
$PUCSXDIR
 10
1.0
 20
0.0
 30
0.0
  9
$PUCSYDIR
 10
0.0
 20
1.0
 30
0.0
  9
$PUCSORTHOREF
  2

  9
$PUCSORTHOVIEW
 70
     0
  9
$PUCSORGTOP
 10
0.0
 20
0.0
 30
0.0
  9
$PUCSORGBOTTOM
 10
0.0
 20
0.0
 30
0.0
  9
$PUCSORGLEFT
 10
0.0
 20
0.0
 30
0.0
  9
$PUCSORGRIGHT
 10
0.0
 20
0.0
 30
0.0
  9
$PUCSORGFRONT
 10
0.0
 20
0.0
 30
0.0
  9
$PUCSORGBACK
 10
0.0
 20
0.0
 30
0.0
  9
$USERI1
 70
     0
  9
$USERI2
 70
     0
  9
$USERI3
 70
     0
  9
$USERI4
 70
     0
  9
$USERI5
 70
     0
  9
$USERR1
 40
0.0
  9
$USERR2
 40
0.0
  9
$USERR3
 40
0.0
  9
$USERR4
 40
0.0
  9
$USERR5
 40
0.0
  9
$WORLDVIEW
 70
     1
  9
$SHADEDGE
 70
     3
  9
$SHADEDIF
 70
    70
  9
$TILEMODE
 70
     1
  9
$MAXACTVP
 70
    64
  9
$PINSBASE
 10
0.0
 20
0.0
 30
0.0
  9
$PLIMCHECK
 70
     0
  9
$PEXTMIN
 10
1.000000000000000E+20
 20
1.000000000000000E+20
 30
1.000000000000000E+20
  9
$PEXTMAX
 10
-1.000000000000000E+20
 20
-1.000000000000000E+20
 30
-1.000000000000000E+20
  9
$PLIMMIN
 10
0.0
 20
0.0
  9
$PLIMMAX
 10
12.0
 20
9.0
  9
$UNITMODE
 70
     0
  9
$VISRETAIN
 70
     1
  9
$PLINEGEN
 70
     0
  9
$PSLTSCALE
 70
     1
  9
$TREEDEPTH
 70
  3020
  9
$CMLSTYLE
  2
Standard
  9
$CMLJUST
 70
     0
  9
$CMLSCALE
 40
1.0
  9
$PROXYGRAPHICS
 70
     1
  9
$MEASUREMENT
 70
     0
  9
$CELWEIGHT
370
    -1
  9
$ENDCAPS
280
     0
  9
$JOINSTYLE
280
     0
  9
$LWDISPLAY
290
     1
  9
$INSUNITS
 70
     1
  9
$HYPERLINKBASE
  1

  9
$STYLESHEET
  1

  9
$XEDIT
290
     1
  9
$CEPSNTYPE
380
     0
  9
$PSTYLEMODE
290
     1
  9
$FINGERPRINTGUID
  2
{26CB8C8F-4B7B-F063-C7DD-3B3BCB7735F6}
  9
$VERSIONGUID
  2
{FAEB1C32-E019-11D5-929B-00C0DF256EC4}
  9
$EXTNAMES
290
     1
  9
$PSVPSCALE
 40
0.0
  9
$OLESTARTUP
290
     0
  9
$SORTENTS
280
   127
  9
$INDEXCTL
280
     0
  9
$HIDETEXT
280
     1
  9
$XCLIPFRAME
280
     2
  9
$HALOGAP
280
     0
  9
$OBSCOLOR
 70
   257
  9
$OBSLTYPE
280
     0
  9
$INTERSECTIONDISPLAY
280
     0
  9
$INTERSECTIONCOLOR
 70
   257
  9
$DIMASSOC
280
     2
  9
$PROJECTNAME
  1

  9
$CAMERADISPLAY
290
     0
  9
$LENSLENGTH
 40
50.0
  9
$CAMERAHEIGHT
 40
0.0
  9
$STEPSPERSEC
 40
2.0
  9
$STEPSIZE
 40
6.0
  9
$3DDWFPREC
 40
2.0
  9
$PSOLWIDTH
 40
0.25
  9
$PSOLHEIGHT
 40
4.0
  9
$LOFTANG1
 40
1.570796326794897
  9
$LOFTANG2
 40
1.570796326794897
  9
$LOFTMAG1
 40
0.0
  9
$LOFTMAG2
 40
0.0
  9
$LOFTPARAM
 70
     7
  9
$LOFTNORMALS
280
     1
  9
$LATITUDE
 40
37.795
  9
$LONGITUDE
 40
-122.394
  9
$NORTHDIRECTION
 40
0.0
  9
$TIMEZONE
 70
 -8000
  9
$LIGHTGLYPHDISPLAY
280
     1
  9
$TILEMODELIGHTSYNCH
280
     1
  9
$CMATERIAL
347
3C
  9
$SOLIDHIST
280
     1
  9
$SHOWHIST
280
     1
  9
$DWFFRAME
280
     2
  9
$DGNFRAME
280
     2
  9
$REALWORLDSCALE
290
     1
  9
$INTERFERECOLOR
 62
   256
  9
$CSHADOW
280
     0
  9
$SHADOWPLANELOCATION
 40
0.0
  0
ENDSEC
  0
SECTION
  2
CLASSES
  0
CLASS
  1
ACDBDICTIONARYWDFLT
  2
AcDbDictionaryWithDefault
  3
ObjectDBX Classes
 90
        0
 91
        4
280
     0
281
     0
  0
CLASS
  1
VISUALSTYLE
  2
AcDbVisualStyle
  3
ObjectDBX Classes
 90
     4095
 91
        4
280
     0
281
     0
  0
CLASS
  1
MATERIAL
  2
AcDbMaterial
  3
ObjectDBX Classes
 90
     1153
 91
        4
280
     0
281
     0
  0
CLASS
  1
SUN
  2
AcDbSun
  3
SCENEOE
 90
     1024
 91
        4
280
     0
281
     0
  0
ENDSEC
  0
SECTION
  2
TABLES
  0
TABLE
  2
VPORT
  5
8
330
0
100
AcDbSymbolTable
 70
     1
  0
VPORT
  5
29
330
8
100
AcDbSymbolTableRecord
100
AcDbViewportTableRecord
  2
*Active
 70
     0
 10
0.0
 20
0.0
 11
1.0
 21
1.0
 12
0.0
 22
0.0
 13
0.0
 23
0.0
 14
0.5
 24
0.5
 15
0.5
 25
0.5
 16
0.0
 26
0.0
 36
1.0
 17
91.00082462281999
 27
-128.4993055234307
 37
0.0
 40
256.9986110468615
 41
0.7081814508812795
 42
50.0
 43
0.0
 44
0.0
 50
0.0
 51
0.0
 71
     0
 72
   100
 73
     1
 74
     3
 75
     0
 76
     0
 77
     0
 78
     0
281
     0
 65
     1
110
0.0
120
0.0
130
0.0
111
1.0
121
0.0
131
0.0
112
0.0
122
1.0
132
0.0
 79
     0
146
0.0
 60
     3
 61
     5
292
     1
282
     1
141
0.0
142
0.0
 63
   250
361
3F
  0
ENDTAB
  0
TABLE
  2
LTYPE
  5
5
330
0
100
AcDbSymbolTable
 70
     1
  0
LTYPE
  5
14
330
5
100
AcDbSymbolTableRecord
100
AcDbLinetypeTableRecord
  2
ByBlock
 70
     0
  3

 72
    65
 73
     0
 40
0.0
  0
LTYPE
  5
15
330
5
100
AcDbSymbolTableRecord
100
AcDbLinetypeTableRecord
  2
ByLayer
 70
     0
  3

 72
    65
 73
     0
 40
0.0
  0
LTYPE
  5
16
330
5
100
AcDbSymbolTableRecord
100
AcDbLinetypeTableRecord
  2
Continuous
 70
     0
  3
Solid line
 72
    65
 73
     0
 40
0.0
  0
ENDTAB
  0
TABLE
  2
LAYER
  5
2
330
0
100
AcDbSymbolTable
 70
     2
  0
LAYER
  5
10
330
2
100
AcDbSymbolTableRecord
100
AcDbLayerTableRecord
  2
0
 70
     0
 62
     7
  6
Continuous
370
    -3
390
F
347
3E
  0
LAYER
  5
40
330
2
100
AcDbSymbolTableRecord
100
AcDbLayerTableRecord
  2
_U+30EC_U+30A4_U+30E4_U+30FC 1
 70
     0
 62
     7
  6
Continuous
370
    -3
390
F
347
3E
  0
ENDTAB
  0
TABLE
  2
STYLE
  5
3
330
0
100
AcDbSymbolTable
 70
     1
  0
STYLE
  5
11
330
3
100
AcDbSymbolTableRecord
100
AcDbTextStyleTableRecord
  2
Standard
 70
     0
 40
0.0
 41
1.0
 50
0.0
 71
     0
 42
0.2
  3
txt
  4

  0
ENDTAB
  0
TABLE
  2
VIEW
  5
6
330
0
100
AcDbSymbolTable
 70
     0
  0
ENDTAB
  0
TABLE
  2
UCS
  5
7
330
0
100
AcDbSymbolTable
 70
     0
  0
ENDTAB
  0
TABLE
  2
APPID
  5
9
330
0
100
AcDbSymbolTable
 70
     1
  0
APPID
  5
12
330
9
100
AcDbSymbolTableRecord
100
AcDbRegAppTableRecord
  2
ACAD
 70
     0
  0
ENDTAB
  0
TABLE
  2
DIMSTYLE
  5
A
330
0
100
AcDbSymbolTable
 70
     1
100
AcDbDimStyleTable
  0
DIMSTYLE
105
27
330
A
100
AcDbSymbolTableRecord
100
AcDbDimStyleTableRecord
  2
Standard
 70
     0
178
     0
340
11
  0
ENDTAB
  0
TABLE
  2
BLOCK_RECORD
  5
1
330
0
100
AcDbSymbolTable
 70
     4
  0
BLOCK_RECORD
  5
1F
330
1
100
AcDbSymbolTableRecord
100
AcDbBlockTableRecord
  2
*Model_Space
340
22
 70
     0
280
     1
281
     0
  0
BLOCK_RECORD
  5
1B
330
1
100
AcDbSymbolTableRecord
100
AcDbBlockTableRecord
  2
*Paper_Space
340
1E
 70
     0
280
     1
281
     0
  0
BLOCK_RECORD
  5
23
330
1
100
AcDbSymbolTableRecord
100
AcDbBlockTableRecord
  2
*Paper_Space0
340
26
 70
     0
280
     1
281
     0
  0
BLOCK_RECORD
  5
6F
330
1
100
AcDbSymbolTableRecord
100
AcDbBlockTableRecord
  2
block 2
340
0
102
{BLKREFS
331
70
102
}
 70
     0
280
     1
281
     0
  0
BLOCK_RECORD
  5
90
330
1
100
AcDbSymbolTableRecord
100
AcDbBlockTableRecord
  2
block 3
340
0
102
{BLKREFS
331
91
102
}
 70
     0
280
     1
281
     0
  0
BLOCK_RECORD
  5
B3
330
1
100
AcDbSymbolTableRecord
100
AcDbBlockTableRecord
  2
block 4
340
0
102
{BLKREFS
331
B4
102
}
 70
     0
280
     1
281
     0
  0
ENDTAB
  0
ENDSEC
  0
SECTION
  2
BLOCKS
  0
BLOCK
  5
20
330
1F
100
AcDbEntity
  8
0
100
AcDbBlockBegin
  2
*Model_Space
 70
     0
 10
0.0
 20
0.0
 30
0.0
  3
*Model_Space
  1

  0
ENDBLK
  5
21
330
1F
100
AcDbEntity
  8
0
100
AcDbBlockEnd
  0
BLOCK
  5
1C
330
1B
100
AcDbEntity
 67
     1
  8
0
100
AcDbBlockBegin
  2
*Paper_Space
 70
     0
 10
0.0
 20
0.0
 30
0.0
  3
*Paper_Space
  1

  0
ENDBLK
  5
1D
330
1B
100
AcDbEntity
 67
     1
  8
0
100
AcDbBlockEnd
  0
BLOCK
  5
24
330
23
100
AcDbEntity
  8
0
100
AcDbBlockBegin
  2
*Paper_Space0
 70
     0
 10
0.0
 20
0.0
 30
0.0
  3
*Paper_Space0
  1

  0
ENDBLK
  5
25
330
23
100
AcDbEntity
  8
0
100
AcDbBlockEnd
  0
BLOCK
  5
71
330
6F
100
AcDbEntity
  8
0
100
AcDbBlockBegin
  2
block 2
 70
     0
 10
0.0
 20
0.0
 30
0.0
  3
block 2
  1

  0
SPLINE
  5
73
330
6F
100
AcDbEntity
  8
_U+30EC_U+30A4_U+30E4_U+30FC 1
370
     0
100
AcDbSpline
210
0.0
220
0.0
230
1.0
 70
    11
 71
     3
 72
    26
 73
    22
 74
     0
 42
0.0000000001
 43
0.0000000001
 12
1.0
 22
0.0
 32
0.0
 13
1.0
 23
0.0
 33
0.0
 40
0.0
 40
0.0
 40
0.0
 40
0.0
 40
1.0
 40
1.0
 40
1.0
 40
2.0
 40
2.0
 40
2.0
 40
3.0
 40
3.0
 40
3.0
 40
4.0
 40
4.0
 40
4.0
 40
5.0
 40
5.0
 40
5.0
 40
6.0
 40
6.0
 40
6.0
 40
7.0
 40
7.0
 40
7.0
 40
7.0
 10
106.8175970870109
 20
-132.6254963861145
 30
0.0
 10
106.8175970870109
 20
-132.6254963861145
 30
0.0
 10
105.7130994744398
 20
-132.6254963861145
 30
0.0
 10
105.7130994744398
 20
-132.6254963861145
 30
0.0
 10
105.7130994744398
 20
-132.6254963861145
 30
0.0
 10
105.7130994744398
 20
-132.9555365336014
 30
0.0
 10
105.7130994744398
 20
-132.9555365336014
 30
0.0
 10
105.7130994744398
 20
-132.9555365336014
 30
0.0
 10
105.564960368574
 20
-132.9555365336014
 30
0.0
 10
105.564960368574
 20
-132.9555365336014
 30
0.0
 10
105.5501464579875
 20
-132.6234293288233
 30
0.0
 10
105.3875379510837
 20
-132.5769205397724
 30
0.0
 10
105.2731607809734
 20
-132.5472927185993
 30
0.0
 10
105.2731607809734
 20
-132.5472927185993
 30
0.0
 10
105.2731607809734
 20
-132.4012206700247
 30
0.0
 10
105.2731607809734
 20
-132.4012206700247
 30
0.0
 10
105.2731607809734
 20
-132.4012206700247
 30
0.0
 10
106.8175970870109
 20
-132.4012206700247
 30
0.0
 10
106.8175970870109
 20
-132.4012206700247
 30
0.0
 10
106.8175970870109
 20
-132.4012206700247
 30
0.0
 10
106.8175970870109
 20
-132.6254963861145
 30
0.0
 10
106.8175970870109
 20
-132.6254963861145
 30
0.0
  0
HATCH
  5
74
330
6F
100
AcDbEntity
  8
_U+30EC_U+30A4_U+30E4_U+30FC 1
 62
   179
420
  2234388
100
AcDbHatch
 10
0.0
 20
0.0
 30
0.0
210
0.0
220
0.0
230
1.0
  2
SOLID
 70
     1
 71
     0
 91
        1
 92
        1
 93
        1
 72
     4
 94
        3
 73
     0
 74
     1
 95
       26
 96
       22
 40
0.0
 40
0.0
 40
0.0
 40
0.0
 40
1.0
 40
1.0
 40
1.0
 40
2.0
 40
2.0
 40
2.0
 40
3.0
 40
3.0
 40
3.0
 40
4.0
 40
4.0
 40
4.0
 40
5.0
 40
5.0
 40
5.0
 40
6.0
 40
6.0
 40
6.0
 40
7.0
 40
7.0
 40
7.0
 40
7.0
 10
106.8175970870109
 20
-132.6254963861145
 10
106.8175970870109
 20
-132.6254963861145
 10
105.7130994744398
 20
-132.6254963861145
 10
105.7130994744398
 20
-132.6254963861145
 10
105.7130994744398
 20
-132.6254963861145
 10
105.7130994744398
 20
-132.9555365336014
 10
105.7130994744398
 20
-132.9555365336014
 10
105.7130994744398
 20
-132.9555365336014
 10
105.564960368574
 20
-132.9555365336014
 10
105.564960368574
 20
-132.9555365336014
 10
105.5501464579875
 20
-132.6234293288233
 10
105.3875379510837
 20
-132.5769205397724
 10
105.2731607809734
 20
-132.5472927185993
 10
105.2731607809734
 20
-132.5472927185993
 10
105.2731607809734
 20
-132.4012206700247
 10
105.2731607809734
 20
-132.4012206700247
 10
105.2731607809734
 20
-132.4012206700247
 10
106.8175970870109
 20
-132.4012206700247
 10
106.8175970870109
 20
-132.4012206700247
 10
106.8175970870109
 20
-132.4012206700247
 10
106.8175970870109
 20
-132.6254963861145
 10
106.8175970870109
 20
-132.6254963861145
 97
        0
 97
        0
 75
     2
 76
     1
 98
        0
  0
POLYLINE
  5
75
330
6F
100
AcDbEntity
  8
_U+30EC_U+30A4_U+30E4_U+30FC 1
370
     0
100
AcDb2dPolyline
 66
     1
 10
0.0
 20
0.0
 30
0.0
  0
VERTEX
  5
76
330
75
100
AcDbEntity
  8
_U+30EC_U+30A4_U+30E4_U+30FC 1
370
     0
100
AcDbVertex
100
AcDb2dVertex
 10
106.8175970870109
 20
-131.8400146154775
 30
0.0
  0
VERTEX
  5
77
330
75
100
AcDbEntity
  8
_U+30EC_U+30A4_U+30E4_U+30FC 1
370
     0
100
AcDbVertex
100
AcDb2dVertex
 10
106.5657606070391
 20
-131.8400146154775
 30
0.0
  0
VERTEX
  5
78
330
75
100
AcDbEntity
  8
_U+30EC_U+30A4_U+30E4_U+30FC 1
370
     0
100
AcDbVertex
100
AcDb2dVertex
 10
106.5657606070391
 20
-131.5881781355057
 30
0.0
  0
VERTEX
  5
79
330
75
100
AcDbEntity
  8
_U+30EC_U+30A4_U+30E4_U+30FC 1
370
     0
100
AcDbVertex
100
AcDb2dVertex
 10
106.8175970870109
 20
-131.5881781355057
 30
0.0
  0
VERTEX
  5
7A
330
75
100
AcDbEntity
  8
_U+30EC_U+30A4_U+30E4_U+30FC 1
370
     0
100
AcDbVertex
100
AcDb2dVertex
 10
106.8175970870109
 20
-131.8400146154775
 30
0.0
  0
SEQEND
  5
7B
330
75
100
AcDbEntity
  8
_U+30EC_U+30A4_U+30E4_U+30FC 1
370
     0
  0
HATCH
  5
7C
330
6F
100
AcDbEntity
  8
_U+30EC_U+30A4_U+30E4_U+30FC 1
 62
   179
420
  2234388
100
AcDbHatch
 10
0.0
 20
0.0
 30
0.0
210
0.0
220
0.0
230
1.0
  2
SOLID
 70
     1
 71
     0
 91
        1
 92
        1
 93
        4
 72
     1
 10
106.8175970870109
 20
-131.8400146154775
 11
106.5657606070391
 21
-131.8400146154775
 72
     1
 10
106.5657606070391
 20
-131.8400146154775
 11
106.5657606070391
 21
-131.5881781355057
 72
     1
 10
106.5657606070391
 20
-131.5881781355057
 11
106.8175970870109
 21
-131.5881781355057
 72
     1
 10
106.8175970870109
 20
-131.5881781355057
 11
106.8175970870109
 21
-131.8400146154775
 97
        0
 75
     2
 76
     1
 98
        0
  0
SPLINE
  5
7D
330
6F
100
AcDbEntity
  8
_U+30EC_U+30A4_U+30E4_U+30FC 1
370
     0
100
AcDbSpline
210
0.0
220
0.0
230
1.0
 70
    11
 71
     3
 72
    29
 73
    25
 74
     0
 42
0.0000000001
 43
0.0000000001
 12
1.0
 22
0.0
 32
0.0
 13
1.0
 23
0.0
 33
0.0
 40
0.0
 40
0.0
 40
0.0
 40
0.0
 40
1.0
 40
1.0
 40
1.0
 40
2.0
 40
2.0
 40
2.0
 40
3.0
 40
3.0
 40
3.0
 40
4.0
 40
4.0
 40
4.0
 40
5.0
 40
5.0
 40
5.0
 40
6.0
 40
6.0
 40
6.0
 40
7.0
 40
7.0
 40
7.0
 40
8.0
 40
8.0
 40
8.0
 40
8.0
 10
106.8682399906441
 20
-130.8516167207593
 30
0.0
 10
106.8682399906441
 20
-131.1182671113177
 30
0.0
 10
106.7307806807826
 20
-131.3721706485806
 30
0.0
 10
106.3817925081268
 20
-131.3721706485806
 30
0.0
 10
106.1258219135727
 20
-131.3721706485806
 30
0.0
 10
106.0303927686313
 20
-131.2302327145883
 30
0.0
 10
105.9690700689938
 20
-131.1244682831911
 30
0.0
 10
105.9098144266476
 20
-131.2495252493057
 30
0.0
 10
105.7957817660858
 20
-131.3256618595297
 30
0.0
 10
105.6348958069246
 20
-131.3256618595297
 30
0.0
 10
105.3599771872017
 20
-131.3256618595297
 30
0.0
 10
105.2245849346314
 20
-131.1268798500308
 30
0.0
 10
105.2245849346314
 20
-130.8516167207593
 30
0.0
 10
105.2245849346314
 20
-130.5680853623233
 30
0.0
 10
105.3682454163663
 20
-130.3779160915375
 30
0.0
 10
105.6348958069246
 20
-130.3779160915375
 30
0.0
 10
105.7957817660858
 20
-130.3779160915375
 30
0.0
 10
105.9098144266476
 20
-130.4561197590527
 30
0.0
 10
105.9690700689938
 20
-130.5808322156187
 30
0.0
 10
106.0200574821755
 20
-130.4919487520992
 30
0.0
 10
106.1151421175684
 20
-130.3334743597777
 30
0.0
 10
106.377313883996
 20
-130.3334743597777
 30
0.0
 10
106.7517957632426
 20
-130.3334743597777
 30
0.0
 10
106.8682399906441
 20
-130.612527094083
 30
0.0
 10
106.8682399906441
 20
-130.8516167207593
 30
0.0
  0
SPLINE
  5
7E
330
6F
100
AcDbEntity
  8
_U+30EC_U+30A4_U+30E4_U+30FC 1
370
     0
100
AcDbSpline
210
0.0
220
0.0
230
1.0
 70
    11
 71
     3
 72
    17
 73
    13
 74
     0
 42
0.0000000001
 43
0.0000000001
 12
1.0
 22
0.0
 32
0.0
 13
1.0
 23
0.0
 33
0.0
 40
0.0
 40
0.0
 40
0.0
 40
0.0
 40
1.0
 40
1.0
 40
1.0
 40
2.0
 40
2.0
 40
2.0
 40
3.0
 40
3.0
 40
3.0
 40
4.0
 40
4.0
 40
4.0
 40
4.0
 10
105.4171657722568
 20
-130.8516167207593
 30
0.0
 10
105.4171657722568
 20
-131.0166367945028
 30
0.0
 10
105.5122504076497
 20
-131.1013861434399
 30
0.0
 10
105.64764266022
 20
-131.1013861434399
 30
0.0
 10
105.7702880594949
 20
-131.1013861434399
 30
0.0
 10
105.8887993441875
 20
-131.0293836477982
 30
0.0
 10
105.8887993441875
 20
-130.8516167207593
 30
0.0
 10
105.8887993441875
 20
-130.6738497937204
 30
0.0
 10
105.7702880594949
 20
-130.6021918076272
 30
0.0
 10
105.64764266022
 20
-130.6021918076272
 30
0.0
 10
105.5122504076497
 20
-130.6021918076272
 30
0.0
 10
105.4171657722568
 20
-130.688663704307
 30
0.0
 10
105.4171657722568
 20
-130.8516167207593
 30
0.0
  0
SPLINE
  5
7F
330
6F
100
AcDbEntity
  8
_U+30EC_U+30A4_U+30E4_U+30FC 1
370
     0
100
AcDbSpline
210
0.0
220
0.0
230
1.0
 70
    11
 71
     3
 72
    17
 73
    13
 74
     0
 42
0.0000000001
 43
0.0000000001
 12
1.0
 22
0.0
 32
0.0
 13
1.0
 23
0.0
 33
0.0
 40
0.0
 40
0.0
 40
0.0
 40
0.0
 40
1.0
 40
1.0
 40
1.0
 40
2.0
 40
2.0
 40
2.0
 40
3.0
 40
3.0
 40
3.0
 40
4.0
 40
4.0
 40
4.0
 40
4.0
 10
106.0769015576822
 20
-130.8516167207593
 30
0.0
 10
106.0769015576822
 20
-130.9956217120428
 30
0.0
 10
106.1637179639105
 20
-131.1478949324908
 30
0.0
 10
106.3669785975402
 20
-131.1478949324908
 30
0.0
 10
106.5719617789126
 20
-131.1478949324908
 30
0.0
 10
106.6735920957274
 20
-131.0211154186336
 30
0.0
 10
106.6735920957274
 20
-130.8516167207593
 30
0.0
 10
106.6735920957274
 20
-130.6655815645558
 30
0.0
 10
106.5509466964525
 20
-130.5556830185764
 30
0.0
 10
106.3731797694137
 20
-130.5556830185764
 30
0.0
 10
106.150971110615
 20
-130.5556830185764
 30
0.0
 10
106.0769015576822
 20
-130.7182915254802
 30
0.0
 10
106.0769015576822
 20
-130.8516167207593
 30
0.0
  0
HATCH
  5
80
330
6F
100
AcDbEntity
  8
_U+30EC_U+30A4_U+30E4_U+30FC 1
 62
   179
420
  2234388
100
AcDbHatch
 10
0.0
 20
0.0
 30
0.0
210
0.0
220
0.0
230
1.0
  2
SOLID
 70
     1
 71
     0
 91
        3
 92
        1
 93
        1
 72
     4
 94
        3
 73
     0
 74
     1
 95
       29
 96
       25
 40
0.0
 40
0.0
 40
0.0
 40
0.0
 40
1.0
 40
1.0
 40
1.0
 40
2.0
 40
2.0
 40
2.0
 40
3.0
 40
3.0
 40
3.0
 40
4.0
 40
4.0
 40
4.0
 40
5.0
 40
5.0
 40
5.0
 40
6.0
 40
6.0
 40
6.0
 40
7.0
 40
7.0
 40
7.0
 40
8.0
 40
8.0
 40
8.0
 40
8.0
 10
106.8682399906441
 20
-130.8516167207593
 10
106.8682399906441
 20
-131.1182671113177
 10
106.7307806807826
 20
-131.3721706485806
 10
106.3817925081268
 20
-131.3721706485806
 10
106.1258219135727
 20
-131.3721706485806
 10
106.0303927686313
 20
-131.2302327145883
 10
105.9690700689938
 20
-131.1244682831911
 10
105.9098144266476
 20
-131.2495252493057
 10
105.7957817660858
 20
-131.3256618595297
 10
105.6348958069246
 20
-131.3256618595297
 10
105.3599771872017
 20
-131.3256618595297
 10
105.2245849346314
 20
-131.1268798500308
 10
105.2245849346314
 20
-130.8516167207593
 10
105.2245849346314
 20
-130.5680853623233
 10
105.3682454163663
 20
-130.3779160915375
 10
105.6348958069246
 20
-130.3779160915375
 10
105.7957817660858
 20
-130.3779160915375
 10
105.9098144266476
 20
-130.4561197590527
 10
105.9690700689938
 20
-130.5808322156187
 10
106.0200574821755
 20
-130.4919487520992
 10
106.1151421175684
 20
-130.3334743597777
 10
106.377313883996
 20
-130.3334743597777
 10
106.7517957632426
 20
-130.3334743597777
 10
106.8682399906441
 20
-130.612527094083
 10
106.8682399906441
 20
-130.8516167207593
 97
        0
 97
        0
 92
        1
 93
        1
 72
     4
 94
        3
 73
     0
 74
     1
 95
       17
 96
       13
 40
0.0
 40
0.0
 40
0.0
 40
0.0
 40
1.0
 40
1.0
 40
1.0
 40
2.0
 40
2.0
 40
2.0
 40
3.0
 40
3.0
 40
3.0
 40
4.0
 40
4.0
 40
4.0
 40
4.0
 10
105.4171657722568
 20
-130.8516167207593
 10
105.4171657722568
 20
-131.0166367945028
 10
105.5122504076497
 20
-131.1013861434399
 10
105.64764266022
 20
-131.1013861434399
 10
105.7702880594949
 20
-131.1013861434399
 10
105.8887993441875
 20
-131.0293836477982
 10
105.8887993441875
 20
-130.8516167207593
 10
105.8887993441875
 20
-130.6738497937204
 10
105.7702880594949
 20
-130.6021918076272
 10
105.64764266022
 20
-130.6021918076272
 10
105.5122504076497
 20
-130.6021918076272
 10
105.4171657722568
 20
-130.688663704307
 10
105.4171657722568
 20
-130.8516167207593
 97
        0
 97
        0
 92
        1
 93
        1
 72
     4
 94
        3
 73
     0
 74
     1
 95
       17
 96
       13
 40
0.0
 40
0.0
 40
0.0
 40
0.0
 40
1.0
 40
1.0
 40
1.0
 40
2.0
 40
2.0
 40
2.0
 40
3.0
 40
3.0
 40
3.0
 40
4.0
 40
4.0
 40
4.0
 40
4.0
 10
106.0769015576822
 20
-130.8516167207593
 10
106.0769015576822
 20
-130.9956217120428
 10
106.1637179639105
 20
-131.1478949324908
 10
106.3669785975402
 20
-131.1478949324908
 10
106.5719617789126
 20
-131.1478949324908
 10
106.6735920957274
 20
-131.0211154186336
 10
106.6735920957274
 20
-130.8516167207593
 10
106.6735920957274
 20
-130.6655815645558
 10
106.5509466964525
 20
-130.5556830185764
 10
106.3731797694137
 20
-130.5556830185764
 10
106.150971110615
 20
-130.5556830185764
 10
106.0769015576822
 20
-130.7182915254802
 10
106.0769015576822
 20
-130.8516167207593
 97
        0
 97
        0
 75
     2
 76
     1
 98
        0
  0
ENDBLK
  5
72
330
6F
100
AcDbEntity
  8
0
100
AcDbBlockEnd
  0
BLOCK
  5
92
330
90
100
AcDbEntity
  8
0
100
AcDbBlockBegin
  2
block 3
 70
     0
 10
0.0
 20
0.0
 30
0.0
  3
block 3
  1

  0
SPLINE
  5
94
330
90
100
AcDbEntity
  8
_U+30EC_U+30A4_U+30E4_U+30FC 1
370
     0
100
AcDbSpline
210
0.0
220
0.0
230
1.0
 70
    11
 71
     3
 72
    44
 73
    40
 74
     0
 42
0.0000000001
 43
0.0000000001
 12
1.0
 22
0.0
 32
0.0
 13
1.0
 23
0.0
 33
0.0
 40
0.0
 40
0.0
 40
0.0
 40
0.0
 40
1.0
 40
1.0
 40
1.0
 40
2.0
 40
2.0
 40
2.0
 40
3.0
 40
3.0
 40
3.0
 40
4.0
 40
4.0
 40
4.0
 40
5.0
 40
5.0
 40
5.0
 40
6.0
 40
6.0
 40
6.0
 40
7.0
 40
7.0
 40
7.0
 40
8.0
 40
8.0
 40
8.0
 40
9.0
 40
9.0
 40
9.0
 40
10.0
 40
10.0
 40
10.0
 40
11.0
 40
11.0
 40
11.0
 40
12.0
 40
12.0
 40
12.0
 40
13.0
 40
13.0
 40
13.0
 40
13.0
 10
90.93140053065257
 20
-139.5597845788253
 30
0.0
 10
90.71349824121052
 20
-139.7182589711468
 30
0.0
 10
90.62048066310878
 20
-139.7923285240797
 30
0.0
 10
90.57173256199249
 20
-139.9363335153631
 30
0.0
 10
90.57173256199249
 20
-139.9363335153631
 30
0.0
 10
91.35032414165894
 20
-139.9363335153631
 30
0.0
 10
91.35032414165894
 20
-139.9363335153631
 30
0.0
 10
91.35032414165894
 20
-139.9363335153631
 30
0.0
 10
91.35032414165894
 20
-140.141661206284
 30
0.0
 10
91.35032414165894
 20
-140.141661206284
 30
0.0
 10
91.35032414165894
 20
-140.141661206284
 30
0.0
 10
90.32213539408613
 20
-140.141661206284
 30
0.0
 10
90.32213539408613
 20
-140.141661206284
 30
0.0
 10
90.35383027255044
 20
-139.7840602949151
 30
0.0
 10
90.41945934154444
 20
-139.7058566273999
 30
0.0
 10
90.80444876202111
 20
-139.4075113583773
 30
0.0
 10
91.06041935657518
 20
-139.2087293488784
 30
0.0
 10
91.12604842556918
 20
-139.140860967819
 30
0.0
 10
91.12604842556918
 20
-139.0034016579575
 30
0.0
 10
91.12604842556918
 20
-138.8848903732649
 30
0.0
 10
91.05404592992747
 20
-138.7536322352769
 30
0.0
 10
90.8573309777197
 20
-138.7536322352769
 30
0.0
 10
90.59722626858334
 20
-138.7536322352769
 30
0.0
 10
90.58878578464447
 20
-138.9844536327886
 30
0.0
 10
90.58447941528792
 20
-139.1005533506415
 30
0.0
 10
90.58447941528792
 20
-139.1005533506415
 30
0.0
 10
90.36020369919815
 20
-139.1005533506415
 30
0.0
 10
90.36020369919815
 20
-139.1005533506415
 30
0.0
 10
90.36864418313701
 20
-138.9737738367843
 30
0.0
 10
90.37932397914129
 20
-138.8618082335137
 30
0.0
 10
90.4595947039476
 20
-138.7432969488211
 30
0.0
 10
90.56966550470133
 20
-138.58241098966
 30
0.0
 10
90.75587291567909
 20
-138.5486490539045
 30
0.0
 10
90.87214488830628
 20
-138.5486490539045
 30
0.0
 10
91.14930282009462
 20
-138.5486490539045
 30
0.0
 10
91.35669756830666
 20
-138.7326171528169
 30
0.0
 10
91.35669756830666
 20
-139.0054687152486
 30
0.0
 10
91.35669756830666
 20
-139.2338785459207
 30
0.0
 10
91.24025334090521
 20
-139.3334418054444
 30
0.0
 10
90.93140053065257
 20
-139.5597845788253
 30
0.0
  0
HATCH
  5
95
330
90
100
AcDbEntity
  8
_U+30EC_U+30A4_U+30E4_U+30FC 1
 62
   179
420
  2234388
100
AcDbHatch
 10
0.0
 20
0.0
 30
0.0
210
0.0
220
0.0
230
1.0
  2
SOLID
 70
     1
 71
     0
 91
        1
 92
        1
 93
        1
 72
     4
 94
        3
 73
     0
 74
     1
 95
       44
 96
       40
 40
0.0
 40
0.0
 40
0.0
 40
0.0
 40
1.0
 40
1.0
 40
1.0
 40
2.0
 40
2.0
 40
2.0
 40
3.0
 40
3.0
 40
3.0
 40
4.0
 40
4.0
 40
4.0
 40
5.0
 40
5.0
 40
5.0
 40
6.0
 40
6.0
 40
6.0
 40
7.0
 40
7.0
 40
7.0
 40
8.0
 40
8.0
 40
8.0
 40
9.0
 40
9.0
 40
9.0
 40
10.0
 40
10.0
 40
10.0
 40
11.0
 40
11.0
 40
11.0
 40
12.0
 40
12.0
 40
12.0
 40
13.0
 40
13.0
 40
13.0
 40
13.0
 10
90.93140053065257
 20
-139.5597845788253
 10
90.71349824121052
 20
-139.7182589711468
 10
90.62048066310878
 20
-139.7923285240797
 10
90.57173256199249
 20
-139.9363335153631
 10
90.57173256199249
 20
-139.9363335153631
 10
91.35032414165894
 20
-139.9363335153631
 10
91.35032414165894
 20
-139.9363335153631
 10
91.35032414165894
 20
-139.9363335153631
 10
91.35032414165894
 20
-140.141661206284
 10
91.35032414165894
 20
-140.141661206284
 10
91.35032414165894
 20
-140.141661206284
 10
90.32213539408613
 20
-140.141661206284
 10
90.32213539408613
 20
-140.141661206284
 10
90.35383027255044
 20
-139.7840602949151
 10
90.41945934154444
 20
-139.7058566273999
 10
90.80444876202111
 20
-139.4075113583773
 10
91.06041935657518
 20
-139.2087293488784
 10
91.12604842556918
 20
-139.140860967819
 10
91.12604842556918
 20
-139.0034016579575
 10
91.12604842556918
 20
-138.8848903732649
 10
91.05404592992747
 20
-138.7536322352769
 10
90.8573309777197
 20
-138.7536322352769
 10
90.59722626858334
 20
-138.7536322352769
 10
90.58878578464447
 20
-138.9844536327886
 10
90.58447941528792
 20
-139.1005533506415
 10
90.58447941528792
 20
-139.1005533506415
 10
90.36020369919815
 20
-139.1005533506415
 10
90.36020369919815
 20
-139.1005533506415
 10
90.36864418313701
 20
-138.9737738367843
 10
90.37932397914129
 20
-138.8618082335137
 10
90.4595947039476
 20
-138.7432969488211
 10
90.56966550470133
 20
-138.58241098966
 10
90.75587291567909
 20
-138.5486490539045
 10
90.87214488830628
 20
-138.5486490539045
 10
91.14930282009462
 20
-138.5486490539045
 10
91.35669756830666
 20
-138.7326171528169
 10
91.35669756830666
 20
-139.0054687152486
 10
91.35669756830666
 20
-139.2338785459207
 10
91.24025334090521
 20
-139.3334418054444
 10
90.93140053065257
 20
-139.5597845788253
 97
        0
 97
        0
 75
     2
 76
     1
 98
        0
  0
SPLINE
  5
96
330
90
100
AcDbEntity
  8
_U+30EC_U+30A4_U+30E4_U+30FC 1
370
     0
100
AcDbSpline
210
0.0
220
0.0
230
1.0
 70
    11
 71
     3
 72
    26
 73
    22
 74
     0
 42
0.0000000001
 43
0.0000000001
 12
1.0
 22
0.0
 32
0.0
 13
1.0
 23
0.0
 33
0.0
 40
0.0
 40
0.0
 40
0.0
 40
0.0
 40
1.0
 40
1.0
 40
1.0
 40
2.0
 40
2.0
 40
2.0
 40
3.0
 40
3.0
 40
3.0
 40
4.0
 40
4.0
 40
4.0
 40
5.0
 40
5.0
 40
5.0
 40
6.0
 40
6.0
 40
6.0
 40
7.0
 40
7.0
 40
7.0
 40
7.0
 10
91.96647946919589
 20
-140.141661206284
 30
0.0
 10
91.96647946919589
 20
-140.141661206284
 30
0.0
 10
91.96647946919589
 20
-139.0371635937129
 30
0.0
 10
91.96647946919589
 20
-139.0371635937129
 30
0.0
 10
91.96647946919589
 20
-139.0371635937129
 30
0.0
 10
91.63643932170895
 20
-139.0371635937129
 30
0.0
 10
91.63643932170895
 20
-139.0371635937129
 30
0.0
 10
91.63643932170895
 20
-139.0371635937129
 30
0.0
 10
91.63643932170895
 20
-138.8890244878472
 30
0.0
 10
91.63643932170895
 20
-138.8890244878472
 30
0.0
 10
91.96854652648703
 20
-138.8742105772606
 30
0.0
 10
92.01505531553791
 20
-138.7116020703568
 30
0.0
 10
92.04468313671106
 20
-138.5972249002465
 30
0.0
 10
92.04468313671106
 20
-138.5972249002465
 30
0.0
 10
92.19075518528565
 20
-138.5972249002465
 30
0.0
 10
92.19075518528565
 20
-138.5972249002465
 30
0.0
 10
92.19075518528565
 20
-138.5972249002465
 30
0.0
 10
92.19075518528565
 20
-140.141661206284
 30
0.0
 10
92.19075518528565
 20
-140.141661206284
 30
0.0
 10
92.19075518528565
 20
-140.141661206284
 30
0.0
 10
91.96647946919589
 20
-140.141661206284
 30
0.0
 10
91.96647946919589
 20
-140.141661206284
 30
0.0
  0
HATCH
  5
97
330
90
100
AcDbEntity
  8
_U+30EC_U+30A4_U+30E4_U+30FC 1
 62
   179
420
  2234388
100
AcDbHatch
 10
0.0
 20
0.0
 30
0.0
210
0.0
220
0.0
230
1.0
  2
SOLID
 70
     1
 71
     0
 91
        1
 92
        1
 93
        1
 72
     4
 94
        3
 73
     0
 74
     1
 95
       26
 96
       22
 40
0.0
 40
0.0
 40
0.0
 40
0.0
 40
1.0
 40
1.0
 40
1.0
 40
2.0
 40
2.0
 40
2.0
 40
3.0
 40
3.0
 40
3.0
 40
4.0
 40
4.0
 40
4.0
 40
5.0
 40
5.0
 40
5.0
 40
6.0
 40
6.0
 40
6.0
 40
7.0
 40
7.0
 40
7.0
 40
7.0
 10
91.96647946919589
 20
-140.141661206284
 10
91.96647946919589
 20
-140.141661206284
 10
91.96647946919589
 20
-139.0371635937129
 10
91.96647946919589
 20
-139.0371635937129
 10
91.96647946919589
 20
-139.0371635937129
 10
91.63643932170895
 20
-139.0371635937129
 10
91.63643932170895
 20
-139.0371635937129
 10
91.63643932170895
 20
-139.0371635937129
 10
91.63643932170895
 20
-138.8890244878472
 10
91.63643932170895
 20
-138.8890244878472
 10
91.96854652648703
 20
-138.8742105772606
 10
92.01505531553791
 20
-138.7116020703568
 10
92.04468313671106
 20
-138.5972249002465
 10
92.04468313671106
 20
-138.5972249002465
 10
92.19075518528565
 20
-138.5972249002465
 10
92.19075518528565
 20
-138.5972249002465
 10
92.19075518528565
 20
-138.5972249002465
 10
92.19075518528565
 20
-140.141661206284
 10
92.19075518528565
 20
-140.141661206284
 10
92.19075518528565
 20
-140.141661206284
 10
91.96647946919589
 20
-140.141661206284
 10
91.96647946919589
 20
-140.141661206284
 97
        0
 97
        0
 75
     2
 76
     1
 98
        0
  0
POLYLINE
  5
98
330
90
100
AcDbEntity
  8
_U+30EC_U+30A4_U+30E4_U+30FC 1
370
     0
100
AcDb2dPolyline
 66
     1
 10
0.0
 20
0.0
 30
0.0
  0
VERTEX
  5
99
330
98
100
AcDbEntity
  8
_U+30EC_U+30A4_U+30E4_U+30FC 1
370
     0
100
AcDbVertex
100
AcDb2dVertex
 10
92.75196123983285
 20
-140.141661206284
 30
0.0
  0
VERTEX
  5
9A
330
98
100
AcDbEntity
  8
_U+30EC_U+30A4_U+30E4_U+30FC 1
370
     0
100
AcDbVertex
100
AcDb2dVertex
 10
92.75196123983285
 20
-139.8898247263123
 30
0.0
  0
VERTEX
  5
9B
330
98
100
AcDbEntity
  8
_U+30EC_U+30A4_U+30E4_U+30FC 1
370
     0
100
AcDbVertex
100
AcDb2dVertex
 10
93.00379771980461
 20
-139.8898247263123
 30
0.0
  0
VERTEX
  5
9C
330
98
100
AcDbEntity
  8
_U+30EC_U+30A4_U+30E4_U+30FC 1
370
     0
100
AcDbVertex
100
AcDb2dVertex
 10
93.00379771980461
 20
-140.141661206284
 30
0.0
  0
VERTEX
  5
9D
330
98
100
AcDbEntity
  8
_U+30EC_U+30A4_U+30E4_U+30FC 1
370
     0
100
AcDbVertex
100
AcDb2dVertex
 10
92.75196123983285
 20
-140.141661206284
 30
0.0
  0
SEQEND
  5
9E
330
98
100
AcDbEntity
  8
_U+30EC_U+30A4_U+30E4_U+30FC 1
370
     0
  0
HATCH
  5
9F
330
90
100
AcDbEntity
  8
_U+30EC_U+30A4_U+30E4_U+30FC 1
 62
   179
420
  2234388
100
AcDbHatch
 10
0.0
 20
0.0
 30
0.0
210
0.0
220
0.0
230
1.0
  2
SOLID
 70
     1
 71
     0
 91
        1
 92
        1
 93
        4
 72
     1
 10
92.75196123983285
 20
-140.141661206284
 11
92.75196123983285
 21
-139.8898247263123
 72
     1
 10
92.75196123983285
 20
-139.8898247263123
 11
93.00379771980461
 21
-139.8898247263123
 72
     1
 10
93.00379771980461
 20
-139.8898247263123
 11
93.00379771980461
 21
-140.141661206284
 72
     1
 10
93.00379771980461
 20
-140.141661206284
 11
92.75196123983285
 21
-140.141661206284
 97
        0
 75
     2
 76
     1
 98
        0
  0
SPLINE
  5
A0
330
90
100
AcDbEntity
  8
_U+30EC_U+30A4_U+30E4_U+30FC 1
370
     0
100
AcDbSpline
210
0.0
220
0.0
230
1.0
 70
    11
 71
     3
 72
    29
 73
    25
 74
     0
 42
0.0000000001
 43
0.0000000001
 12
1.0
 22
0.0
 32
0.0
 13
1.0
 23
0.0
 33
0.0
 40
0.0
 40
0.0
 40
0.0
 40
0.0
 40
1.0
 40
1.0
 40
1.0
 40
2.0
 40
2.0
 40
2.0
 40
3.0
 40
3.0
 40
3.0
 40
4.0
 40
4.0
 40
4.0
 40
5.0
 40
5.0
 40
5.0
 40
6.0
 40
6.0
 40
6.0
 40
7.0
 40
7.0
 40
7.0
 40
8.0
 40
8.0
 40
8.0
 40
8.0
 10
93.74035913455103
 20
-140.1923041099172
 30
0.0
 10
93.47370874399269
 20
-140.1923041099172
 30
0.0
 10
93.21980520672977
 20
-140.0548448000557
 30
0.0
 10
93.21980520672977
 20
-139.7058566273999
 30
0.0
 10
93.21980520672977
 20
-139.4498860328459
 30
0.0
 10
93.36174314072207
 20
-139.3544568879045
 30
0.0
 10
93.46750757211923
 20
-139.293134188267
 30
0.0
 10
93.34245060600468
 20
-139.2338785459207
 30
0.0
 10
93.26631399578065
 20
-139.1198458853589
 30
0.0
 10
93.26631399578065
 20
-138.9589599261978
 30
0.0
 10
93.26631399578065
 20
-138.6840413064748
 30
0.0
 10
93.46509600527956
 20
-138.5486490539045
 30
0.0
 10
93.74035913455103
 20
-138.5486490539045
 30
0.0
 10
94.02389049298709
 20
-138.5486490539045
 30
0.0
 10
94.21405976377288
 20
-138.6923095356394
 30
0.0
 10
94.21405976377288
 20
-138.9589599261978
 30
0.0
 10
94.21405976377288
 20
-139.1198458853589
 30
0.0
 10
94.13585609625771
 20
-139.2338785459207
 30
0.0
 10
94.01114363969167
 20
-139.293134188267
 30
0.0
 10
94.1000271032111
 20
-139.3441216014487
 30
0.0
 10
94.2585014955326
 20
-139.4392062368416
 30
0.0
 10
94.2585014955326
 20
-139.7013780032691
 30
0.0
 10
94.2585014955326
 20
-140.0758598825158
 30
0.0
 10
93.97944876122736
 20
-140.1923041099172
 30
0.0
 10
93.74035913455103
 20
-140.1923041099172
 30
0.0
  0
SPLINE
  5
A1
330
90
100
AcDbEntity
  8
_U+30EC_U+30A4_U+30E4_U+30FC 1
370
     0
100
AcDbSpline
210
0.0
220
0.0
230
1.0
 70
    11
 71
     3
 72
    17
 73
    13
 74
     0
 42
0.0000000001
 43
0.0000000001
 12
1.0
 22
0.0
 32
0.0
 13
1.0
 23
0.0
 33
0.0
 40
0.0
 40
0.0
 40
0.0
 40
0.0
 40
1.0
 40
1.0
 40
1.0
 40
2.0
 40
2.0
 40
2.0
 40
3.0
 40
3.0
 40
3.0
 40
4.0
 40
4.0
 40
4.0
 40
4.0
 10
93.74035913455103
 20
-139.4009656769553
 30
0.0
 10
93.59635414326758
 20
-139.4009656769553
 30
0.0
 10
93.44408092281954
 20
-139.4877820831836
 30
0.0
 10
93.44408092281954
 20
-139.6910427168134
 30
0.0
 10
93.44408092281954
 20
-139.8960258981857
 30
0.0
 10
93.57086043667674
 20
-139.9976562150006
 30
0.0
 10
93.74035913455103
 20
-139.9976562150006
 30
0.0
 10
93.92639429075452
 20
-139.9976562150006
 30
0.0
 10
94.03629283673399
 20
-139.8750108157257
 30
0.0
 10
94.03629283673399
 20
-139.6972438886868
 30
0.0
 10
94.03629283673399
 20
-139.4750352298882
 30
0.0
 10
93.8736843298302
 20
-139.4009656769553
 30
0.0
 10
93.74035913455103
 20
-139.4009656769553
 30
0.0
  0
SPLINE
  5
A2
330
90
100
AcDbEntity
  8
_U+30EC_U+30A4_U+30E4_U+30FC 1
370
     0
100
AcDbSpline
210
0.0
220
0.0
230
1.0
 70
    11
 71
     3
 72
    17
 73
    13
 74
     0
 42
0.0000000001
 43
0.0000000001
 12
1.0
 22
0.0
 32
0.0
 13
1.0
 23
0.0
 33
0.0
 40
0.0
 40
0.0
 40
0.0
 40
0.0
 40
1.0
 40
1.0
 40
1.0
 40
2.0
 40
2.0
 40
2.0
 40
3.0
 40
3.0
 40
3.0
 40
4.0
 40
4.0
 40
4.0
 40
4.0
 10
93.74035913455103
 20
-138.7408853819815
 30
0.0
 10
93.57533906080756
 20
-138.7408853819815
 30
0.0
 10
93.49058971187041
 20
-138.8363145269229
 30
0.0
 10
93.49058971187041
 20
-138.9717067794932
 30
0.0
 10
93.49058971187041
 20
-139.0943521787681
 30
0.0
 10
93.56259220751214
 20
-139.2128634634607
 30
0.0
 10
93.74035913455103
 20
-139.2128634634607
 30
0.0
 10
93.91812606158992
 20
-139.2128634634607
 30
0.0
 10
93.98978404768312
 20
-139.0943521787681
 30
0.0
 10
93.98978404768312
 20
-138.9717067794932
 30
0.0
 10
93.98978404768312
 20
-138.8363145269229
 30
0.0
 10
93.90331215100335
 20
-138.7408853819815
 30
0.0
 10
93.74035913455103
 20
-138.7408853819815
 30
0.0
  0
HATCH
  5
A3
330
90
100
AcDbEntity
  8
_U+30EC_U+30A4_U+30E4_U+30FC 1
 62
   179
420
  2234388
100
AcDbHatch
 10
0.0
 20
0.0
 30
0.0
210
0.0
220
0.0
230
1.0
  2
SOLID
 70
     1
 71
     0
 91
        3
 92
        1
 93
        1
 72
     4
 94
        3
 73
     0
 74
     1
 95
       29
 96
       25
 40
0.0
 40
0.0
 40
0.0
 40
0.0
 40
1.0
 40
1.0
 40
1.0
 40
2.0
 40
2.0
 40
2.0
 40
3.0
 40
3.0
 40
3.0
 40
4.0
 40
4.0
 40
4.0
 40
5.0
 40
5.0
 40
5.0
 40
6.0
 40
6.0
 40
6.0
 40
7.0
 40
7.0
 40
7.0
 40
8.0
 40
8.0
 40
8.0
 40
8.0
 10
93.74035913455103
 20
-140.1923041099172
 10
93.47370874399269
 20
-140.1923041099172
 10
93.21980520672977
 20
-140.0548448000557
 10
93.21980520672977
 20
-139.7058566273999
 10
93.21980520672977
 20
-139.4498860328459
 10
93.36174314072207
 20
-139.3544568879045
 10
93.46750757211923
 20
-139.293134188267
 10
93.34245060600468
 20
-139.2338785459207
 10
93.26631399578065
 20
-139.1198458853589
 10
93.26631399578065
 20
-138.9589599261978
 10
93.26631399578065
 20
-138.6840413064748
 10
93.46509600527956
 20
-138.5486490539045
 10
93.74035913455103
 20
-138.5486490539045
 10
94.02389049298709
 20
-138.5486490539045
 10
94.21405976377288
 20
-138.6923095356394
 10
94.21405976377288
 20
-138.9589599261978
 10
94.21405976377288
 20
-139.1198458853589
 10
94.13585609625771
 20
-139.2338785459207
 10
94.01114363969167
 20
-139.293134188267
 10
94.1000271032111
 20
-139.3441216014487
 10
94.2585014955326
 20
-139.4392062368416
 10
94.2585014955326
 20
-139.7013780032691
 10
94.2585014955326
 20
-140.0758598825158
 10
93.97944876122736
 20
-140.1923041099172
 10
93.74035913455103
 20
-140.1923041099172
 97
        0
 97
        0
 92
        1
 93
        1
 72
     4
 94
        3
 73
     0
 74
     1
 95
       17
 96
       13
 40
0.0
 40
0.0
 40
0.0
 40
0.0
 40
1.0
 40
1.0
 40
1.0
 40
2.0
 40
2.0
 40
2.0
 40
3.0
 40
3.0
 40
3.0
 40
4.0
 40
4.0
 40
4.0
 40
4.0
 10
93.74035913455103
 20
-139.4009656769553
 10
93.59635414326758
 20
-139.4009656769553
 10
93.44408092281954
 20
-139.4877820831836
 10
93.44408092281954
 20
-139.6910427168134
 10
93.44408092281954
 20
-139.8960258981857
 10
93.57086043667674
 20
-139.9976562150006
 10
93.74035913455103
 20
-139.9976562150006
 10
93.92639429075452
 20
-139.9976562150006
 10
94.03629283673399
 20
-139.8750108157257
 10
94.03629283673399
 20
-139.6972438886868
 10
94.03629283673399
 20
-139.4750352298882
 10
93.8736843298302
 20
-139.4009656769553
 10
93.74035913455103
 20
-139.4009656769553
 97
        0
 97
        0
 92
        1
 93
        1
 72
     4
 94
        3
 73
     0
 74
     1
 95
       17
 96
       13
 40
0.0
 40
0.0
 40
0.0
 40
0.0
 40
1.0
 40
1.0
 40
1.0
 40
2.0
 40
2.0
 40
2.0
 40
3.0
 40
3.0
 40
3.0
 40
4.0
 40
4.0
 40
4.0
 40
4.0
 10
93.74035913455103
 20
-138.7408853819815
 10
93.57533906080756
 20
-138.7408853819815
 10
93.49058971187041
 20
-138.8363145269229
 10
93.49058971187041
 20
-138.9717067794932
 10
93.49058971187041
 20
-139.0943521787681
 10
93.56259220751214
 20
-139.2128634634607
 10
93.74035913455103
 20
-139.2128634634607
 10
93.91812606158992
 20
-139.2128634634607
 10
93.98978404768312
 20
-139.0943521787681
 10
93.98978404768312
 20
-138.9717067794932
 10
93.98978404768312
 20
-138.8363145269229
 10
93.90331215100335
 20
-138.7408853819815
 10
93.74035913455103
 20
-138.7408853819815
 97
        0
 97
        0
 75
     2
 76
     1
 98
        0
  0
ENDBLK
  5
93
330
90
100
AcDbEntity
  8
0
100
AcDbBlockEnd
  0
BLOCK
  5
B5
330
B3
100
AcDbEntity
  8
0
100
AcDbBlockBegin
  2
block 4
 70
     0
 10
0.0
 20
0.0
 30
0.0
  3
block 4
  1

  0
SPLINE
  5
B7
330
B3
100
AcDbEntity
  8
_U+30EC_U+30A4_U+30E4_U+30FC 1
370
     0
100
AcDbSpline
210
0.0
220
0.0
230
1.0
 70
    11
 71
     3
 72
    44
 73
    40
 74
     0
 42
0.0000000001
 43
0.0000000001
 12
1.0
 22
0.0
 32
0.0
 13
1.0
 23
0.0
 33
0.0
 40
0.0
 40
0.0
 40
0.0
 40
0.0
 40
1.0
 40
1.0
 40
1.0
 40
2.0
 40
2.0
 40
2.0
 40
3.0
 40
3.0
 40
3.0
 40
4.0
 40
4.0
 40
4.0
 40
5.0
 40
5.0
 40
5.0
 40
6.0
 40
6.0
 40
6.0
 40
7.0
 40
7.0
 40
7.0
 40
8.0
 40
8.0
 40
8.0
 40
9.0
 40
9.0
 40
9.0
 40
10.0
 40
10.0
 40
10.0
 40
11.0
 40
11.0
 40
11.0
 40
12.0
 40
12.0
 40
12.0
 40
13.0
 40
13.0
 40
13.0
 40
13.0
 10
76.43547225736683
 20
-126.9719224400452
 30
0.0
 10
76.59411890446259
 20
-127.1898247294873
 30
0.0
 10
76.66818845739546
 20
-127.282842307589
 30
0.0
 10
76.81202119390464
 20
-127.3315904087053
 30
0.0
 10
76.81202119390464
 20
-127.3315904087053
 30
0.0
 10
76.81202119390464
 20
-126.5529988290388
 30
0.0
 10
76.81202119390464
 20
-126.5529988290388
 30
0.0
 10
76.81202119390464
 20
-126.5529988290388
 30
0.0
 10
77.01717663005127
 20
-126.5529988290388
 30
0.0
 10
77.01717663005127
 20
-126.5529988290388
 30
0.0
 10
77.01717663005127
 20
-126.5529988290388
 30
0.0
 10
77.01717663005127
 20
-127.5811875766117
 30
0.0
 10
77.01717663005127
 20
-127.5811875766117
 30
0.0
 10
76.65974797345659
 20
-127.5494926981474
 30
0.0
 10
76.58137205116716
 20
-127.4838636291533
 30
0.0
 10
76.28319903691879
 20
-127.0988742086767
 30
0.0
 10
76.0842447726456
 20
-126.8429036141226
 30
0.0
 10
76.01654864636045
 20
-126.7772745451286
 30
0.0
 10
75.87908933649898
 20
-126.7772745451286
 30
0.0
 10
75.76057805180639
 20
-126.7772745451286
 30
0.0
 10
75.62949216859263
 20
-126.8492770407703
 30
0.0
 10
75.62949216859263
 20
-127.0459919929781
 30
0.0
 10
75.62949216859263
 20
-127.3060967021145
 30
0.0
 10
75.85996905655584
 20
-127.3145371860533
 30
0.0
 10
75.97641328395729
 20
-127.3188435554099
 30
0.0
 10
75.97641328395729
 20
-127.3188435554099
 30
0.0
 10
75.97641328395729
 20
-127.5431192714996
 30
0.0
 10
75.97641328395729
 20
-127.5431192714996
 30
0.0
 10
75.84946151532583
 20
-127.5346787875608
 30
0.0
 10
75.73732365728095
 20
-127.5239989915565
 30
0.0
 10
75.61881237258835
 20
-127.4437282667502
 30
0.0
 10
75.45809866820144
 20
-127.3336574659965
 30
0.0
 10
75.42416447767174
 20
-127.1474500550187
 30
0.0
 10
75.42416447767174
 20
-127.0311780823915
 30
0.0
 10
75.42416447767174
 20
-126.7540201506032
 30
0.0
 10
75.60830483135834
 20
-126.5466254023911
 30
0.0
 10
75.88115639379014
 20
-126.5466254023911
 30
0.0
 10
76.10973847923646
 20
-126.5466254023911
 30
0.0
 10
76.20912948398592
 20
-126.6630696297926
 30
0.0
 10
76.43547225736683
 20
-126.9719224400452
 30
0.0
  0
HATCH
  5
B8
330
B3
100
AcDbEntity
  8
_U+30EC_U+30A4_U+30E4_U+30FC 1
 62
   179
420
  2234388
100
AcDbHatch
 10
0.0
 20
0.0
 30
0.0
210
0.0
220
0.0
230
1.0
  2
SOLID
 70
     1
 71
     0
 91
        1
 92
        1
 93
        1
 72
     4
 94
        3
 73
     0
 74
     1
 95
       44
 96
       40
 40
0.0
 40
0.0
 40
0.0
 40
0.0
 40
1.0
 40
1.0
 40
1.0
 40
2.0
 40
2.0
 40
2.0
 40
3.0
 40
3.0
 40
3.0
 40
4.0
 40
4.0
 40
4.0
 40
5.0
 40
5.0
 40
5.0
 40
6.0
 40
6.0
 40
6.0
 40
7.0
 40
7.0
 40
7.0
 40
8.0
 40
8.0
 40
8.0
 40
9.0
 40
9.0
 40
9.0
 40
10.0
 40
10.0
 40
10.0
 40
11.0
 40
11.0
 40
11.0
 40
12.0
 40
12.0
 40
12.0
 40
13.0
 40
13.0
 40
13.0
 40
13.0
 10
76.43547225736683
 20
-126.9719224400452
 10
76.59411890446259
 20
-127.1898247294873
 10
76.66818845739546
 20
-127.282842307589
 10
76.81202119390464
 20
-127.3315904087053
 10
76.81202119390464
 20
-127.3315904087053
 10
76.81202119390464
 20
-126.5529988290388
 10
76.81202119390464
 20
-126.5529988290388
 10
76.81202119390464
 20
-126.5529988290388
 10
77.01717663005127
 20
-126.5529988290388
 10
77.01717663005127
 20
-126.5529988290388
 10
77.01717663005127
 20
-126.5529988290388
 10
77.01717663005127
 20
-127.5811875766117
 10
77.01717663005127
 20
-127.5811875766117
 10
76.65974797345659
 20
-127.5494926981474
 10
76.58137205116716
 20
-127.4838636291533
 10
76.28319903691879
 20
-127.0988742086767
 10
76.0842447726456
 20
-126.8429036141226
 10
76.01654864636045
 20
-126.7772745451286
 10
75.87908933649898
 20
-126.7772745451286
 10
75.76057805180639
 20
-126.7772745451286
 10
75.62949216859263
 20
-126.8492770407703
 10
75.62949216859263
 20
-127.0459919929781
 10
75.62949216859263
 20
-127.3060967021145
 10
75.85996905655584
 20
-127.3145371860533
 10
75.97641328395729
 20
-127.3188435554099
 10
75.97641328395729
 20
-127.3188435554099
 10
75.97641328395729
 20
-127.5431192714996
 10
75.97641328395729
 20
-127.5431192714996
 10
75.84946151532583
 20
-127.5346787875608
 10
75.73732365728095
 20
-127.5239989915565
 10
75.61881237258835
 20
-127.4437282667502
 10
75.45809866820144
 20
-127.3336574659965
 10
75.42416447767174
 20
-127.1474500550187
 10
75.42416447767174
 20
-127.0311780823915
 10
75.42416447767174
 20
-126.7540201506032
 10
75.60830483135834
 20
-126.5466254023911
 10
75.88115639379014
 20
-126.5466254023911
 10
76.10973847923646
 20
-126.5466254023911
 10
76.20912948398592
 20
-126.6630696297926
 10
76.43547225736683
 20
-126.9719224400452
 97
        0
 97
        0
 75
     2
 76
     1
 98
        0
  0
SPLINE
  5
B9
330
B3
100
AcDbEntity
  8
_U+30EC_U+30A4_U+30E4_U+30FC 1
370
     0
100
AcDbSpline
210
0.0
220
0.0
230
1.0
 70
    11
 71
     3
 72
    26
 73
    22
 74
     0
 42
0.0000000001
 43
0.0000000001
 12
1.0
 22
0.0
 32
0.0
 13
1.0
 23
0.0
 33
0.0
 40
0.0
 40
0.0
 40
0.0
 40
0.0
 40
1.0
 40
1.0
 40
1.0
 40
2.0
 40
2.0
 40
2.0
 40
3.0
 40
3.0
 40
3.0
 40
4.0
 40
4.0
 40
4.0
 40
5.0
 40
5.0
 40
5.0
 40
6.0
 40
6.0
 40
6.0
 40
7.0
 40
7.0
 40
7.0
 40
7.0
 10
77.01717663005127
 20
-125.9368435015019
 30
0.0
 10
77.01717663005127
 20
-125.9368435015019
 30
0.0
 10
75.91285127225443
 20
-125.9368435015019
 30
0.0
 10
75.91285127225443
 20
-125.9368435015019
 30
0.0
 10
75.91285127225443
 20
-125.9368435015019
 30
0.0
 10
75.91285127225443
 20
-126.2667113942146
 30
0.0
 10
75.91285127225443
 20
-126.2667113942146
 30
0.0
 10
75.91285127225443
 20
-126.2667113942146
 30
0.0
 10
75.76488442116295
 20
-126.2667113942146
 30
0.0
 10
75.76488442116295
 20
-126.2667113942146
 30
0.0
 10
75.75007051057638
 20
-125.9346041894365
 30
0.0
 10
75.58711749412406
 20
-125.8880954003856
 30
0.0
 10
75.47291257878803
 20
-125.8584675792125
 30
0.0
 10
75.47291257878803
 20
-125.8584675792125
 30
0.0
 10
75.47291257878803
 20
-125.7125677854121
 30
0.0
 10
75.47291257878803
 20
-125.7125677854121
 30
0.0
 10
75.47291257878803
 20
-125.7125677854121
 30
0.0
 10
77.01717663005127
 20
-125.7125677854121
 30
0.0
 10
77.01717663005127
 20
-125.7125677854121
 30
0.0
 10
77.01717663005127
 20
-125.7125677854121
 30
0.0
 10
77.01717663005127
 20
-125.9368435015019
 30
0.0
 10
77.01717663005127
 20
-125.9368435015019
 30
0.0
  0
HATCH
  5
BA
330
B3
100
AcDbEntity
  8
_U+30EC_U+30A4_U+30E4_U+30FC 1
 62
   179
420
  2234388
100
AcDbHatch
 10
0.0
 20
0.0
 30
0.0
210
0.0
220
0.0
230
1.0
  2
SOLID
 70
     1
 71
     0
 91
        1
 92
        1
 93
        1
 72
     4
 94
        3
 73
     0
 74
     1
 95
       26
 96
       22
 40
0.0
 40
0.0
 40
0.0
 40
0.0
 40
1.0
 40
1.0
 40
1.0
 40
2.0
 40
2.0
 40
2.0
 40
3.0
 40
3.0
 40
3.0
 40
4.0
 40
4.0
 40
4.0
 40
5.0
 40
5.0
 40
5.0
 40
6.0
 40
6.0
 40
6.0
 40
7.0
 40
7.0
 40
7.0
 40
7.0
 10
77.01717663005127
 20
-125.9368435015019
 10
77.01717663005127
 20
-125.9368435015019
 10
75.91285127225443
 20
-125.9368435015019
 10
75.91285127225443
 20
-125.9368435015019
 10
75.91285127225443
 20
-125.9368435015019
 10
75.91285127225443
 20
-126.2667113942146
 10
75.91285127225443
 20
-126.2667113942146
 10
75.91285127225443
 20
-126.2667113942146
 10
75.76488442116295
 20
-126.2667113942146
 10
75.76488442116295
 20
-126.2667113942146
 10
75.75007051057638
 20
-125.9346041894365
 10
75.58711749412406
 20
-125.8880954003856
 10
75.47291257878803
 20
-125.8584675792125
 10
75.47291257878803
 20
-125.8584675792125
 10
75.47291257878803
 20
-125.7125677854121
 10
75.47291257878803
 20
-125.7125677854121
 10
75.47291257878803
 20
-125.7125677854121
 10
77.01717663005127
 20
-125.7125677854121
 10
77.01717663005127
 20
-125.7125677854121
 10
77.01717663005127
 20
-125.7125677854121
 10
77.01717663005127
 20
-125.9368435015019
 10
77.01717663005127
 20
-125.9368435015019
 97
        0
 97
        0
 75
     2
 76
     1
 98
        0
  0
POLYLINE
  5
BB
330
B3
100
AcDbEntity
  8
_U+30EC_U+30A4_U+30E4_U+30FC 1
370
     0
100
AcDb2dPolyline
 66
     1
 10
0.0
 20
0.0
 30
0.0
  0
VERTEX
  5
BC
330
BB
100
AcDbEntity
  8
_U+30EC_U+30A4_U+30E4_U+30FC 1
370
     0
100
AcDbVertex
100
AcDb2dVertex
 10
77.01717663005127
 20
-125.1511894760907
 30
0.0
  0
VERTEX
  5
BD
330
BB
100
AcDbEntity
  8
_U+30EC_U+30A4_U+30E4_U+30FC 1
370
     0
100
AcDbVertex
100
AcDb2dVertex
 10
76.76551240485377
 20
-125.1511894760907
 30
0.0
  0
VERTEX
  5
BE
330
BB
100
AcDbEntity
  8
_U+30EC_U+30A4_U+30E4_U+30FC 1
370
     0
100
AcDbVertex
100
AcDb2dVertex
 10
76.76551240485377
 20
-124.8995252508932
 30
0.0
  0
VERTEX
  5
BF
330
BB
100
AcDbEntity
  8
_U+30EC_U+30A4_U+30E4_U+30FC 1
370
     0
100
AcDbVertex
100
AcDb2dVertex
 10
77.01717663005127
 20
-124.8995252508932
 30
0.0
  0
VERTEX
  5
C0
330
BB
100
AcDbEntity
  8
_U+30EC_U+30A4_U+30E4_U+30FC 1
370
     0
100
AcDbVertex
100
AcDb2dVertex
 10
77.01717663005127
 20
-125.1511894760907
 30
0.0
  0
SEQEND
  5
C1
330
BB
100
AcDbEntity
  8
_U+30EC_U+30A4_U+30E4_U+30FC 1
370
     0
  0
HATCH
  5
C2
330
B3
100
AcDbEntity
  8
_U+30EC_U+30A4_U+30E4_U+30FC 1
 62
   179
420
  2234388
100
AcDbHatch
 10
0.0
 20
0.0
 30
0.0
210
0.0
220
0.0
230
1.0
  2
SOLID
 70
     1
 71
     0
 91
        1
 92
        1
 93
        4
 72
     1
 10
77.01717663005127
 20
-125.1511894760907
 11
76.76551240485377
 21
-125.1511894760907
 72
     1
 10
76.76551240485377
 20
-125.1511894760907
 11
76.76551240485377
 21
-124.8995252508932
 72
     1
 10
76.76551240485377
 20
-124.8995252508932
 11
77.01717663005127
 21
-124.8995252508932
 72
     1
 10
77.01717663005127
 20
-124.8995252508932
 11
77.01717663005127
 21
-125.1511894760907
 97
        0
 75
     2
 76
     1
 98
        0
  0
SPLINE
  5
C3
330
B3
100
AcDbEntity
  8
_U+30EC_U+30A4_U+30E4_U+30FC 1
370
     0
100
AcDbSpline
210
0.0
220
0.0
230
1.0
 70
    11
 71
     3
 72
    29
 73
    25
 74
     0
 42
0.0000000001
 43
0.0000000001
 12
1.0
 22
0.0
 32
0.0
 13
1.0
 23
0.0
 33
0.0
 40
0.0
 40
0.0
 40
0.0
 40
0.0
 40
1.0
 40
1.0
 40
1.0
 40
2.0
 40
2.0
 40
2.0
 40
3.0
 40
3.0
 40
3.0
 40
4.0
 40
4.0
 40
4.0
 40
5.0
 40
5.0
 40
5.0
 40
6.0
 40
6.0
 40
6.0
 40
7.0
 40
7.0
 40
7.0
 40
8.0
 40
8.0
 40
8.0
 40
8.0
 10
77.0679917884587
 20
-124.163136090921
 30
0.0
 10
77.0679917884587
 20
-124.4296142267051
 30
0.0
 10
76.93053247859723
 20
-124.683517763968
 30
0.0
 10
76.58137205116716
 20
-124.683517763968
 30
0.0
 10
76.3254014566131
 20
-124.683517763968
 30
0.0
 10
76.2303168212202
 20
-124.54175208475
 30
0.0
 10
76.16882186680849
 20
-124.4359876533528
 30
0.0
 10
76.10973847923646
 20
-124.5607001099189
 30
0.0
 10
75.99536130912617
 20
-124.6370089749171
 30
0.0
 10
75.83464760473926
 20
-124.6370089749171
 30
0.0
 10
75.55955673024206
 20
-124.6370089749171
 30
0.0
 10
75.42416447767174
 20
-124.438054710644
 30
0.0
 10
75.42416447767174
 20
-124.163136090921
 30
0.0
 10
75.42416447767174
 20
-123.879604732485
 30
0.0
 10
75.56816946895519
 20
-123.6892632069249
 30
0.0
 10
75.83464760473926
 20
-123.6892632069249
 30
0.0
 10
75.99536130912617
 20
-123.6892632069249
 30
0.0
 10
76.10973847923646
 20
-123.7674668744401
 30
0.0
 10
76.16882186680849
 20
-123.8923515857804
 30
0.0
 10
76.21963702521593
 20
-123.8034681222609
 30
0.0
 10
76.31489391538308
 20
-123.6448214751652
 30
0.0
 10
76.57723793658486
 20
-123.6448214751652
 30
0.0
 10
76.95154756105725
 20
-123.6448214751652
 30
0.0
 10
77.0679917884587
 20
-123.9240464642447
 30
0.0
 10
77.0679917884587
 20
-124.163136090921
 30
0.0
  0
SPLINE
  5
C4
330
B3
100
AcDbEntity
  8
_U+30EC_U+30A4_U+30E4_U+30FC 1
370
     0
100
AcDbSpline
210
0.0
220
0.0
230
1.0
 70
    11
 71
     3
 72
    17
 73
    13
 74
     0
 42
0.0000000001
 43
0.0000000001
 12
1.0
 22
0.0
 32
0.0
 13
1.0
 23
0.0
 33
0.0
 40
0.0
 40
0.0
 40
0.0
 40
0.0
 40
1.0
 40
1.0
 40
1.0
 40
2.0
 40
2.0
 40
2.0
 40
3.0
 40
3.0
 40
3.0
 40
4.0
 40
4.0
 40
4.0
 40
4.0
 10
75.61674531529721
 20
-124.163136090921
 30
0.0
 10
75.61674531529721
 20
-124.3279839098902
 30
0.0
 10
75.71200220546436
 20
-124.4127332588274
 30
0.0
 10
75.84739445803469
 20
-124.4127332588274
 30
0.0
 10
75.97003985730957
 20
-124.4127332588274
 30
0.0
 10
76.08855114200217
 20
-124.3407307631857
 30
0.0
 10
76.08855114200217
 20
-124.163136090921
 30
0.0
 10
76.08855114200217
 20
-123.9853691638821
 30
0.0
 10
75.97003985730957
 20
-123.9133666682404
 30
0.0
 10
75.84739445803469
 20
-123.9133666682404
 30
0.0
 10
75.71200220546436
 20
-123.9133666682404
 30
0.0
 10
75.61674531529721
 20
-124.0001830744687
 30
0.0
 10
75.61674531529721
 20
-124.163136090921
 30
0.0
  0
SPLINE
  5
C5
330
B3
100
AcDbEntity
  8
_U+30EC_U+30A4_U+30E4_U+30FC 1
370
     0
100
AcDbSpline
210
0.0
220
0.0
230
1.0
 70
    11
 71
     3
 72
    17
 73
    13
 74
     0
 42
0.0000000001
 43
0.0000000001
 12
1.0
 22
0.0
 32
0.0
 13
1.0
 23
0.0
 33
0.0
 40
0.0
 40
0.0
 40
0.0
 40
0.0
 40
1.0
 40
1.0
 40
1.0
 40
2.0
 40
2.0
 40
2.0
 40
3.0
 40
3.0
 40
3.0
 40
4.0
 40
4.0
 40
4.0
 40
4.0
 10
76.27682561027108
 20
-124.163136090921
 30
0.0
 10
76.27682561027108
 20
-124.3069688274302
 30
0.0
 10
76.36346976172511
 20
-124.4592420478782
 30
0.0
 10
76.56655814058058
 20
-124.4592420478782
 30
0.0
 10
76.77188583150148
 20
-124.4592420478782
 30
0.0
 10
76.87334389354208
 20
-124.3322902792468
 30
0.0
 10
76.87334389354208
 20
-124.163136090921
 30
0.0
 10
76.87334389354208
 20
-123.9769286799433
 30
0.0
 10
76.75069849426718
 20
-123.8668578791895
 30
0.0
 10
76.5729315672283
 20
-123.8668578791895
 30
0.0
 10
76.35089516320394
 20
-123.8668578791895
 30
0.0
 10
76.27682561027108
 20
-124.0298108956419
 30
0.0
 10
76.27682561027108
 20
-124.163136090921
 30
0.0
  0
HATCH
  5
C6
330
B3
100
AcDbEntity
  8
_U+30EC_U+30A4_U+30E4_U+30FC 1
 62
   179
420
  2234388
100
AcDbHatch
 10
0.0
 20
0.0
 30
0.0
210
0.0
220
0.0
230
1.0
  2
SOLID
 70
     1
 71
     0
 91
        3
 92
        1
 93
        1
 72
     4
 94
        3
 73
     0
 74
     1
 95
       29
 96
       25
 40
0.0
 40
0.0
 40
0.0
 40
0.0
 40
1.0
 40
1.0
 40
1.0
 40
2.0
 40
2.0
 40
2.0
 40
3.0
 40
3.0
 40
3.0
 40
4.0
 40
4.0
 40
4.0
 40
5.0
 40
5.0
 40
5.0
 40
6.0
 40
6.0
 40
6.0
 40
7.0
 40
7.0
 40
7.0
 40
8.0
 40
8.0
 40
8.0
 40
8.0
 10
77.0679917884587
 20
-124.163136090921
 10
77.0679917884587
 20
-124.4296142267051
 10
76.93053247859723
 20
-124.683517763968
 10
76.58137205116716
 20
-124.683517763968
 10
76.3254014566131
 20
-124.683517763968
 10
76.2303168212202
 20
-124.54175208475
 10
76.16882186680849
 20
-124.4359876533528
 10
76.10973847923646
 20
-124.5607001099189
 10
75.99536130912617
 20
-124.6370089749171
 10
75.83464760473926
 20
-124.6370089749171
 10
75.55955673024206
 20
-124.6370089749171
 10
75.42416447767174
 20
-124.438054710644
 10
75.42416447767174
 20
-124.163136090921
 10
75.42416447767174
 20
-123.879604732485
 10
75.56816946895519
 20
-123.6892632069249
 10
75.83464760473926
 20
-123.6892632069249
 10
75.99536130912617
 20
-123.6892632069249
 10
76.10973847923646
 20
-123.7674668744401
 10
76.16882186680849
 20
-123.8923515857804
 10
76.21963702521593
 20
-123.8034681222609
 10
76.31489391538308
 20
-123.6448214751652
 10
76.57723793658486
 20
-123.6448214751652
 10
76.95154756105725
 20
-123.6448214751652
 10
77.0679917884587
 20
-123.9240464642447
 10
77.0679917884587
 20
-124.163136090921
 97
        0
 97
        0
 92
        1
 93
        1
 72
     4
 94
        3
 73
     0
 74
     1
 95
       17
 96
       13
 40
0.0
 40
0.0
 40
0.0
 40
0.0
 40
1.0
 40
1.0
 40
1.0
 40
2.0
 40
2.0
 40
2.0
 40
3.0
 40
3.0
 40
3.0
 40
4.0
 40
4.0
 40
4.0
 40
4.0
 10
75.61674531529721
 20
-124.163136090921
 10
75.61674531529721
 20
-124.3279839098902
 10
75.71200220546436
 20
-124.4127332588274
 10
75.84739445803469
 20
-124.4127332588274
 10
75.97003985730957
 20
-124.4127332588274
 10
76.08855114200217
 20
-124.3407307631857
 10
76.08855114200217
 20
-124.163136090921
 10
76.08855114200217
 20
-123.9853691638821
 10
75.97003985730957
 20
-123.9133666682404
 10
75.84739445803469
 20
-123.9133666682404
 10
75.71200220546436
 20
-123.9133666682404
 10
75.61674531529721
 20
-124.0001830744687
 10
75.61674531529721
 20
-124.163136090921
 97
        0
 97
        0
 92
        1
 93
        1
 72
     4
 94
        3
 73
     0
 74
     1
 95
       17
 96
       13
 40
0.0
 40
0.0
 40
0.0
 40
0.0
 40
1.0
 40
1.0
 40
1.0
 40
2.0
 40
2.0
 40
2.0
 40
3.0
 40
3.0
 40
3.0
 40
4.0
 40
4.0
 40
4.0
 40
4.0
 10
76.27682561027108
 20
-124.163136090921
 10
76.27682561027108
 20
-124.3069688274302
 10
76.36346976172511
 20
-124.4592420478782
 10
76.56655814058058
 20
-124.4592420478782
 10
76.77188583150148
 20
-124.4592420478782
 10
76.87334389354208
 20
-124.3322902792468
 10
76.87334389354208
 20
-124.163136090921
 10
76.87334389354208
 20
-123.9769286799433
 10
76.75069849426718
 20
-123.8668578791895
 10
76.5729315672283
 20
-123.8668578791895
 10
76.35089516320394
 20
-123.8668578791895
 10
76.27682561027108
 20
-124.0298108956419
 10
76.27682561027108
 20
-124.163136090921
 97
        0
 97
        0
 75
     2
 76
     1
 98
        0
  0
ENDBLK
  5
B6
330
B3
100
AcDbEntity
  8
0
100
AcDbBlockEnd
  0
ENDSEC
  0
SECTION
  2
ENTITIES
  0
POLYLINE
  5
41
330
1F
100
AcDbEntity
  8
_U+30EC_U+30A4_U+30E4_U+30FC 1
 62
   179
420
  2234388
370
    25
100
AcDb2dPolyline
 66
     1
 10
0.0
 20
0.0
 30
0.0
  0
VERTEX
  5
42
330
41
100
AcDbEntity
  8
_U+30EC_U+30A4_U+30E4_U+30FC 1
 62
   179
420
  2234388
370
    25
100
AcDbVertex
100
AcDb2dVertex
 10
81.38985292357187
 20
-114.713773026877
 30
0.0
  0
VERTEX
  5
43
330
41
100
AcDbEntity
  8
_U+30EC_U+30A4_U+30E4_U+30FC 1
 62
   179
420
  2234388
370
    25
100
AcDbVertex
100
AcDb2dVertex
 10
81.38985292357187
 20
-136.513993299205
 30
0.0
  0
SEQEND
  5
44
330
41
100
AcDbEntity
  8
_U+30EC_U+30A4_U+30E4_U+30FC 1
 62
   179
420
  2234388
370
    25
  0
POLYLINE
  5
45
330
1F
100
AcDbEntity
  8
_U+30EC_U+30A4_U+30E4_U+30FC 1
 62
   179
420
  2234388
370
    25
100
AcDb2dPolyline
 66
     1
 10
0.0
 20
0.0
 30
0.0
  0
VERTEX
  5
46
330
45
100
AcDbEntity
  8
_U+30EC_U+30A4_U+30E4_U+30FC 1
 62
   179
420
  2234388
370
    25
100
AcDbVertex
100
AcDb2dVertex
 10
81.38985292357187
 20
-136.513993299205
 30
0.0
  0
VERTEX
  5
47
330
45
100
AcDbEntity
  8
_U+30EC_U+30A4_U+30E4_U+30FC 1
 62
   179
420
  2234388
370
    25
100
AcDbVertex
100
AcDb2dVertex
 10
103.1898962562953
 20
-136.513993299205
 30
0.0
  0
SEQEND
  5
48
330
45
100
AcDbEntity
  8
_U+30EC_U+30A4_U+30E4_U+30FC 1
 62
   179
420
  2234388
370
    25
  0
POLYLINE
  5
49
330
1F
100
AcDbEntity
  8
_U+30EC_U+30A4_U+30E4_U+30FC 1
 62
   179
420
  2234388
370
     9
100
AcDb2dPolyline
 66
     1
 10
0.0
 20
0.0
 30
0.0
  0
VERTEX
  5
4A
330
49
100
AcDbEntity
  8
_U+30EC_U+30A4_U+30E4_U+30FC 1
 62
   179
420
  2234388
370
     9
100
AcDbVertex
100
AcDb2dVertex
 10
83.18958609031375
 20
-134.7139094107661
 30
0.0
  0
VERTEX
  5
4B
330
49
100
AcDbEntity
  8
_U+30EC_U+30A4_U+30E4_U+30FC 1
 62
   179
420
  2234388
370
     9
100
AcDbVertex
100
AcDb2dVertex
 10
103.1898962562953
 20
-134.7139094107661
 30
0.0
  0
SEQEND
  5
4C
330
49
100
AcDbEntity
  8
_U+30EC_U+30A4_U+30E4_U+30FC 1
 62
   179
420
  2234388
370
     9
  0
POLYLINE
  5
4D
330
1F
100
AcDbEntity
  8
_U+30EC_U+30A4_U+30E4_U+30FC 1
 62
   179
420
  2234388
370
     9
100
AcDb2dPolyline
 66
     1
 10
0.0
 20
0.0
 30
0.0
  0
VERTEX
  5
4E
330
4D
100
AcDbEntity
  8
_U+30EC_U+30A4_U+30E4_U+30FC 1
 62
   179
420
  2234388
370
     9
100
AcDbVertex
100
AcDb2dVertex
 10
83.18958609031375
 20
-114.713773026877
 30
0.0
  0
VERTEX
  5
4F
330
4D
100
AcDbEntity
  8
_U+30EC_U+30A4_U+30E4_U+30FC 1
 62
   179
420
  2234388
370
     9
100
AcDbVertex
100
AcDb2dVertex
 10
83.18958609031375
 20
-134.7139094107661
 30
0.0
  0
SEQEND
  5
50
330
4D
100
AcDbEntity
  8
_U+30EC_U+30A4_U+30E4_U+30FC 1
 62
   179
420
  2234388
370
     9
  0
POLYLINE
  5
51
330
1F
100
AcDbEntity
  8
_U+30EC_U+30A4_U+30E4_U+30FC 1
 62
   179
420
  2234388
370
    25
100
AcDb2dPolyline
 66
     1
 10
0.0
 20
0.0
 30
0.0
  0
VERTEX
  5
52
330
51
100
AcDbEntity
  8
_U+30EC_U+30A4_U+30E4_U+30FC 1
 62
   179
420
  2234388
370
    25
100
AcDbVertex
100
AcDb2dVertex
 10
103.1898962562953
 20
-134.7139094107661
 30
0.0
  0
VERTEX
  5
53
330
51
100
AcDbEntity
  8
_U+30EC_U+30A4_U+30E4_U+30FC 1
 62
   179
420
  2234388
370
    25
100
AcDbVertex
100
AcDb2dVertex
 10
103.1898962562953
 20
-136.513993299205
 30
0.0
  0
SEQEND
  5
54
330
51
100
AcDbEntity
  8
_U+30EC_U+30A4_U+30E4_U+30FC 1
 62
   179
420
  2234388
370
    25
  0
POLYLINE
  5
55
330
1F
100
AcDbEntity
  8
_U+30EC_U+30A4_U+30E4_U+30FC 1
 62
   179
420
  2234388
370
    25
100
AcDb2dPolyline
 66
     1
 10
0.0
 20
0.0
 30
0.0
  0
VERTEX
  5
56
330
55
100
AcDbEntity
  8
_U+30EC_U+30A4_U+30E4_U+30FC 1
 62
   179
420
  2234388
370
    25
100
AcDbVertex
100
AcDb2dVertex
 10
81.38985292357187
 20
-114.713773026877
 30
0.0
  0
VERTEX
  5
57
330
55
100
AcDbEntity
  8
_U+30EC_U+30A4_U+30E4_U+30FC 1
 62
   179
420
  2234388
370
    25
100
AcDbVertex
100
AcDb2dVertex
 10
83.18958609031375
 20
-114.713773026877
 30
0.0
  0
SEQEND
  5
58
330
55
100
AcDbEntity
  8
_U+30EC_U+30A4_U+30E4_U+30FC 1
 62
   179
420
  2234388
370
    25
  0
SPLINE
  5
59
330
1F
100
AcDbEntity
  8
_U+30EC_U+30A4_U+30E4_U+30FC 1
 62
   179
420
  2234388
370
     9
100
AcDbSpline
210
0.0
220
0.0
230
1.0
 70
    11
 71
     3
 72
    17
 73
    13
 74
     0
 42
0.0000000001
 43
0.0000000001
 12
1.0
 22
0.0
 32
0.0
 13
1.0
 23
0.0
 33
0.0
 40
0.0
 40
0.0
 40
0.0
 40
0.0
 40
1.0
 40
1.0
 40
1.0
 40
2.0
 40
2.0
 40
2.0
 40
3.0
 40
3.0
 40
3.0
 40
4.0
 40
4.0
 40
4.0
 40
4.0
 10
81.4897595876897
 20
-140.5137171870938
 30
0.0
 10
81.4897595876897
 20
-140.4586132982188
 30
0.0
 10
81.44499208883181
 20
-140.4138105204521
 30
0.0
 10
81.38985292357187
 20
-140.4138105204521
 30
0.0
 10
81.33439625832001
 20
-140.4138105204521
 30
0.0
 10
81.28959348168524
 20
-140.4586132982188
 30
0.0
 10
81.28959348168524
 20
-140.5137171870938
 30
0.0
 10
81.28959348168524
 20
-140.5695266315242
 30
0.0
 10
81.33439625832001
 20
-140.6143294092909
 30
0.0
 10
81.38985292357187
 20
-140.6143294092909
 30
0.0
 10
81.44499208883181
 20
-140.6143294092909
 30
0.0
 10
81.4897595876897
 20
-140.5695266315242
 30
0.0
 10
81.4897595876897
 20
-140.5137171870938
 30
0.0
  0
SPLINE
  5
5A
330
1F
100
AcDbEntity
  8
_U+30EC_U+30A4_U+30E4_U+30FC 1
 62
   179
420
  2234388
370
     9
100
AcDbSpline
210
0.0
220
0.0
230
1.0
 70
    11
 71
     3
 72
    17
 73
    13
 74
     0
 42
0.0000000001
 43
0.0000000001
 12
1.0
 22
0.0
 32
0.0
 13
1.0
 23
0.0
 33
0.0
 40
0.0
 40
0.0
 40
0.0
 40
0.0
 40
1.0
 40
1.0
 40
1.0
 40
2.0
 40
2.0
 40
2.0
 40
3.0
 40
3.0
 40
3.0
 40
4.0
 40
4.0
 40
4.0
 40
4.0
 10
77.48968302307348
 20
-136.513993299205
 30
0.0
 10
77.48968302307348
 20
-136.4585013547742
 30
0.0
 10
77.44488024643873
 20
-136.4137338547856
 30
0.0
 10
77.38977635895566
 20
-136.4137338547856
 30
0.0
 10
77.3346371936957
 20
-136.4137338547856
 30
0.0
 10
77.28986969483782
 20
-136.4585013547742
 30
0.0
 10
77.28986969483782
 20
-136.513993299205
 30
0.0
 10
77.28986969483782
 20
-136.56909718808
 30
0.0
 10
77.3346371936957
 20
-136.6138999658467
 30
0.0
 10
77.38977635895566
 20
-136.6138999658467
 30
0.0
 10
77.44488024643873
 20
-136.6138999658467
 30
0.0
 10
77.48968302307348
 20
-136.56909718808
 30
0.0
 10
77.48968302307348
 20
-136.513993299205
 30
0.0
  0
SPLINE
  5
5B
330
1F
100
AcDbEntity
  8
_U+30EC_U+30A4_U+30E4_U+30FC 1
 62
   179
420
  2234388
370
     9
100
AcDbSpline
210
0.0
220
0.0
230
1.0
 70
    11
 71
     3
 72
    17
 73
    13
 74
     0
 42
0.0000000001
 43
0.0000000001
 12
1.0
 22
0.0
 32
0.0
 13
1.0
 23
0.0
 33
0.0
 40
0.0
 40
0.0
 40
0.0
 40
0.0
 40
1.0
 40
1.0
 40
1.0
 40
2.0
 40
2.0
 40
2.0
 40
3.0
 40
3.0
 40
3.0
 40
4.0
 40
4.0
 40
4.0
 40
4.0
 10
107.290267540575
 20
-136.513993299205
 30
0.0
 10
107.290267540575
 20
-136.4585013547742
 30
0.0
 10
107.2454647639402
 20
-136.4137338547856
 30
0.0
 10
107.1903608764572
 20
-136.4137338547856
 30
0.0
 10
107.1345514334366
 20
-136.4137338547856
 30
0.0
 10
107.0897486568018
 20
-136.4585013547742
 30
0.0
 10
107.0897486568018
 20
-136.513993299205
 30
0.0
 10
107.0897486568018
 20
-136.56909718808
 30
0.0
 10
107.1345514334366
 20
-136.6138999658467
 30
0.0
 10
107.1903608764572
 20
-136.6138999658467
 30
0.0
 10
107.2454647639402
 20
-136.6138999658467
 30
0.0
 10
107.290267540575
 20
-136.56909718808
 30
0.0
 10
107.290267540575
 20
-136.513993299205
 30
0.0
  0
SPLINE
  5
5C
330
1F
100
AcDbEntity
  8
_U+30EC_U+30A4_U+30E4_U+30FC 1
 62
   179
420
  2234388
370
     9
100
AcDbSpline
210
0.0
220
0.0
230
1.0
 70
    11
 71
     3
 72
    17
 73
    13
 74
     0
 42
0.0000000001
 43
0.0000000001
 12
1.0
 22
0.0
 32
0.0
 13
1.0
 23
0.0
 33
0.0
 40
0.0
 40
0.0
 40
0.0
 40
0.0
 40
1.0
 40
1.0
 40
1.0
 40
2.0
 40
2.0
 40
2.0
 40
3.0
 40
3.0
 40
3.0
 40
4.0
 40
4.0
 40
4.0
 40
4.0
 10
107.290267540575
 20
-134.7139094107661
 30
0.0
 10
107.290267540575
 20
-134.6584527441134
 30
0.0
 10
107.2454647639402
 20
-134.6136499663467
 30
0.0
 10
107.1903608764572
 20
-134.6136499663467
 30
0.0
 10
107.1345514334366
 20
-134.6136499663467
 30
0.0
 10
107.0897486568018
 20
-134.6584527441134
 30
0.0
 10
107.0897486568018
 20
-134.7139094107661
 30
0.0
 10
107.0897486568018
 20
-134.7690485774185
 30
0.0
 10
107.1345514334366
 20
-134.8138160774078
 30
0.0
 10
107.1903608764572
 20
-134.8138160774078
 30
0.0
 10
107.2454647639402
 20
-134.8138160774078
 30
0.0
 10
107.290267540575
 20
-134.7690485774185
 30
0.0
 10
107.290267540575
 20
-134.7139094107661
 30
0.0
  0
SPLINE
  5
5D
330
1F
100
AcDbEntity
  8
_U+30EC_U+30A4_U+30E4_U+30FC 1
 62
   179
420
  2234388
370
     9
100
AcDbSpline
210
0.0
220
0.0
230
1.0
 70
    11
 71
     3
 72
    17
 73
    13
 74
     0
 42
0.0000000001
 43
0.0000000001
 12
1.0
 22
0.0
 32
0.0
 13
1.0
 23
0.0
 33
0.0
 40
0.0
 40
0.0
 40
0.0
 40
0.0
 40
1.0
 40
1.0
 40
1.0
 40
2.0
 40
2.0
 40
2.0
 40
3.0
 40
3.0
 40
3.0
 40
4.0
 40
4.0
 40
4.0
 40
4.0
 10
103.2898055297334
 20
-140.5137171870938
 30
0.0
 10
103.2898055297334
 20
-140.4586132982188
 30
0.0
 10
103.2450354215553
 20
-140.4138105204521
 30
0.0
 10
103.1898962562953
 20
-140.4138105204521
 30
0.0
 10
103.1347923688122
 20
-140.4138105204521
 30
0.0
 10
103.0899895921775
 20
-140.4586132982188
 30
0.0
 10
103.0899895921775
 20
-140.5137171870938
 30
0.0
 10
103.0899895921775
 20
-140.5695266315242
 30
0.0
 10
103.1347923688122
 20
-140.6143294092909
 30
0.0
 10
103.1898962562953
 20
-140.6143294092909
 30
0.0
 10
103.2450354215553
 20
-140.6143294092909
 30
0.0
 10
103.2898055297334
 20
-140.5695266315242
 30
0.0
 10
103.2898055297334
 20
-140.5137171870938
 30
0.0
  0
SPLINE
  5
5E
330
1F
100
AcDbEntity
  8
_U+30EC_U+30A4_U+30E4_U+30FC 1
 62
   179
420
  2234388
370
     9
100
AcDbSpline
210
0.0
220
0.0
230
1.0
 70
    11
 71
     3
 72
    17
 73
    13
 74
     0
 42
0.0000000001
 43
0.0000000001
 12
1.0
 22
0.0
 32
0.0
 13
1.0
 23
0.0
 33
0.0
 40
0.0
 40
0.0
 40
0.0
 40
0.0
 40
1.0
 40
1.0
 40
1.0
 40
2.0
 40
2.0
 40
2.0
 40
3.0
 40
3.0
 40
3.0
 40
4.0
 40
4.0
 40
4.0
 40
4.0
 10
77.48968302307348
 20
-114.713773026877
 30
0.0
 10
77.48968302307348
 20
-114.6586338602242
 30
0.0
 10
77.44488024643873
 20
-114.6138310824578
 30
0.0
 10
77.38977635895566
 20
-114.6138310824578
 30
0.0
 10
77.3346371936957
 20
-114.6138310824578
 30
0.0
 10
77.28986969483782
 20
-114.6586338602242
 30
0.0
 10
77.28986969483782
 20
-114.713773026877
 30
0.0
 10
77.28986969483782
 20
-114.76922969353
 30
0.0
 10
77.3346371936957
 20
-114.8136796935189
 30
0.0
 10
77.38977635895566
 20
-114.8136796935189
 30
0.0
 10
77.44488024643873
 20
-114.8136796935189
 30
0.0
 10
77.48968302307348
 20
-114.76922969353
 30
0.0
 10
77.48968302307348
 20
-114.713773026877
 30
0.0
  0
POLYLINE
  5
5F
330
1F
100
AcDbEntity
  8
_U+30EC_U+30A4_U+30E4_U+30FC 1
 62
   179
420
  2234388
370
     9
100
AcDb2dPolyline
 66
     1
 10
0.0
 20
0.0
 30
0.0
  0
VERTEX
  5
60
330
5F
100
AcDbEntity
  8
_U+30EC_U+30A4_U+30E4_U+30FC 1
 62
   179
420
  2234388
370
     9
100
AcDbVertex
100
AcDb2dVertex
 10
107.1903608764572
 20
-134.7139094107661
 30
0.0
  0
VERTEX
  5
61
330
5F
100
AcDbEntity
  8
_U+30EC_U+30A4_U+30E4_U+30FC 1
 62
   179
420
  2234388
370
     9
100
AcDbVertex
100
AcDb2dVertex
 10
107.1903608764572
 20
-129.4560035787472
 30
0.0
  0
SEQEND
  5
62
330
5F
100
AcDbEntity
  8
_U+30EC_U+30A4_U+30E4_U+30FC 1
 62
   179
420
  2234388
370
     9
  0
POLYLINE
  5
63
330
1F
100
AcDbEntity
  8
_U+30EC_U+30A4_U+30E4_U+30FC 1
 62
   179
420
  2234388
370
     9
100
AcDb2dPolyline
 66
     1
 10
0.0
 20
0.0
 30
0.0
  0
VERTEX
  5
64
330
63
100
AcDbEntity
  8
_U+30EC_U+30A4_U+30E4_U+30FC 1
 62
   179
420
  2234388
370
     9
100
AcDbVertex
100
AcDb2dVertex
 10
107.1903608764572
 20
-134.7139094107661
 30
0.0
  0
VERTEX
  5
65
330
63
100
AcDbEntity
  8
_U+30EC_U+30A4_U+30E4_U+30FC 1
 62
   179
420
  2234388
370
     9
100
AcDbVertex
100
AcDb2dVertex
 10
107.1903608764572
 20
-136.513993299205
 30
0.0
  0
SEQEND
  5
66
330
63
100
AcDbEntity
  8
_U+30EC_U+30A4_U+30E4_U+30FC 1
 62
   179
420
  2234388
370
     9
  0
POLYLINE
  5
67
330
1F
100
AcDbEntity
  8
_U+30EC_U+30A4_U+30E4_U+30FC 1
 62
   179
420
  2234388
370
     9
100
AcDb2dPolyline
 66
     1
 10
0.0
 20
0.0
 30
0.0
  0
VERTEX
  5
68
330
67
100
AcDbEntity
  8
_U+30EC_U+30A4_U+30E4_U+30FC 1
 62
   179
420
  2234388
370
     9
100
AcDbVertex
100
AcDb2dVertex
 10
105.7303221957898
 20
-134.7139094107661
 30
0.0
  0
VERTEX
  5
69
330
67
100
AcDbEntity
  8
_U+30EC_U+30A4_U+30E4_U+30FC 1
 62
   179
420
  2234388
370
     9
100
AcDbVertex
100
AcDb2dVertex
 10
108.1901330731731
 20
-134.7139094107661
 30
0.0
  0
SEQEND
  5
6A
330
67
100
AcDbEntity
  8
_U+30EC_U+30A4_U+30E4_U+30FC 1
 62
   179
420
  2234388
370
     9
  0
POLYLINE
  5
6B
330
1F
100
AcDbEntity
  8
_U+30EC_U+30A4_U+30E4_U+30FC 1
 62
   179
420
  2234388
370
     9
100
AcDb2dPolyline
 66
     1
 10
0.0
 20
0.0
 30
0.0
  0
VERTEX
  5
6C
330
6B
100
AcDbEntity
  8
_U+30EC_U+30A4_U+30E4_U+30FC 1
 62
   179
420
  2234388
370
     9
100
AcDbVertex
100
AcDb2dVertex
 10
105.7303221957898
 20
-136.513993299205
 30
0.0
  0
VERTEX
  5
6D
330
6B
100
AcDbEntity
  8
_U+30EC_U+30A4_U+30E4_U+30FC 1
 62
   179
420
  2234388
370
     9
100
AcDbVertex
100
AcDb2dVertex
 10
108.1901330731731
 20
-136.513993299205
 30
0.0
  0
SEQEND
  5
6E
330
6B
100
AcDbEntity
  8
_U+30EC_U+30A4_U+30E4_U+30FC 1
 62
   179
420
  2234388
370
     9
  0
INSERT
  5
70
330
1F
100
AcDbEntity
  8
_U+30EC_U+30A4_U+30E4_U+30FC 1
100
AcDbBlockReference
  2
block 2
 10
0.0
 20
0.0
 30
0.0
  0
SPLINE
  5
81
330
1F
100
AcDbEntity
  8
_U+30EC_U+30A4_U+30E4_U+30FC 1
 62
   179
420
  2234388
370
     9
100
AcDbSpline
210
0.0
220
0.0
230
1.0
 70
    11
 71
     3
 72
    17
 73
    13
 74
     0
 42
0.0000000001
 43
0.0000000001
 12
1.0
 22
0.0
 32
0.0
 13
1.0
 23
0.0
 33
0.0
 40
0.0
 40
0.0
 40
0.0
 40
0.0
 40
1.0
 40
1.0
 40
1.0
 40
2.0
 40
2.0
 40
2.0
 40
3.0
 40
3.0
 40
3.0
 40
4.0
 40
4.0
 40
4.0
 40
4.0
 10
103.2250329220656
 20
-134.7139094107661
 30
0.0
 10
103.2250329220656
 20
-134.7332063552053
 30
0.0
 10
103.209898755785
 20
-134.7490460774238
 30
0.0
 10
103.1898962562953
 20
-134.7490460774238
 30
0.0
 10
103.1705993123432
 20
-134.7490460774238
 30
0.0
 10
103.1547595905251
 20
-134.7332063552053
 30
0.0
 10
103.1547595905251
 20
-134.7139094107661
 30
0.0
 10
103.1547595905251
 20
-134.6942596885485
 30
0.0
 10
103.1705993123432
 20
-134.6784199663306
 30
0.0
 10
103.1898962562953
 20
-134.6784199663306
 30
0.0
 10
103.209898755785
 20
-134.6784199663306
 30
0.0
 10
103.2250329220656
 20
-134.6942596885485
 30
0.0
 10
103.2250329220656
 20
-134.7139094107661
 30
0.0
  0
SPLINE
  5
82
330
1F
100
AcDbEntity
  8
_U+30EC_U+30A4_U+30E4_U+30FC 1
 62
   179
420
  2234388
370
    25
100
AcDbSpline
210
0.0
220
0.0
230
1.0
 70
    11
 71
     3
 72
    17
 73
    13
 74
     0
 42
0.0000000001
 43
0.0000000001
 12
1.0
 22
0.0
 32
0.0
 13
1.0
 23
0.0
 33
0.0
 40
0.0
 40
0.0
 40
0.0
 40
0.0
 40
1.0
 40
1.0
 40
1.0
 40
2.0
 40
2.0
 40
2.0
 40
3.0
 40
3.0
 40
3.0
 40
4.0
 40
4.0
 40
4.0
 40
4.0
 10
103.2250329220656
 20
-136.513993299205
 30
0.0
 10
103.2250329220656
 20
-136.5332549658667
 30
0.0
 10
103.209898755785
 20
-136.5491299658628
 30
0.0
 10
103.1898962562953
 20
-136.5491299658628
 30
0.0
 10
103.1705993123432
 20
-136.5491299658628
 30
0.0
 10
103.1547595905251
 20
-136.5332549658667
 30
0.0
 10
103.1547595905251
 20
-136.513993299205
 30
0.0
 10
103.1547595905251
 20
-136.4943435769874
 30
0.0
 10
103.1705993123432
 20
-136.4785038547695
 30
0.0
 10
103.1898962562953
 20
-136.4785038547695
 30
0.0
 10
103.209898755785
 20
-136.4785038547695
 30
0.0
 10
103.2250329220656
 20
-136.4943435769874
 30
0.0
 10
103.2250329220656
 20
-136.513993299205
 30
0.0
  0
SPLINE
  5
83
330
1F
100
AcDbEntity
  8
_U+30EC_U+30A4_U+30E4_U+30FC 1
 62
   179
420
  2234388
370
     9
100
AcDbSpline
210
0.0
220
0.0
230
1.0
 70
    11
 71
     3
 72
    17
 73
    13
 74
     0
 42
0.0000000001
 43
0.0000000001
 12
1.0
 22
0.0
 32
0.0
 13
1.0
 23
0.0
 33
0.0
 40
0.0
 40
0.0
 40
0.0
 40
0.0
 40
1.0
 40
1.0
 40
1.0
 40
2.0
 40
2.0
 40
2.0
 40
3.0
 40
3.0
 40
3.0
 40
4.0
 40
4.0
 40
4.0
 40
4.0
 10
107.2254975422274
 20
-136.513993299205
 30
0.0
 10
107.2254975422274
 20
-136.5332549658667
 30
0.0
 10
107.2096578204093
 20
-136.5491299658628
 30
0.0
 10
107.1903608764572
 20
-136.5491299658628
 30
0.0
 10
107.1703610843188
 20
-136.5491299658628
 30
0.0
 10
107.1545186551494
 20
-136.5332549658667
 30
0.0
 10
107.1545186551494
 20
-136.513993299205
 30
0.0
 10
107.1545186551494
 20
-136.4943435769874
 30
0.0
 10
107.1703610843188
 20
-136.4785038547695
 30
0.0
 10
107.1903608764572
 20
-136.4785038547695
 30
0.0
 10
107.2096578204093
 20
-136.4785038547695
 30
0.0
 10
107.2254975422274
 20
-136.4943435769874
 30
0.0
 10
107.2254975422274
 20
-136.513993299205
 30
0.0
  0
POLYLINE
  5
84
330
1F
100
AcDbEntity
  8
_U+30EC_U+30A4_U+30E4_U+30FC 1
 62
   179
420
  2234388
370
     9
100
AcDb2dPolyline
 66
     1
 10
0.0
 20
0.0
 30
0.0
  0
VERTEX
  5
85
330
84
100
AcDbEntity
  8
_U+30EC_U+30A4_U+30E4_U+30FC 1
 62
   179
420
  2234388
370
     9
100
AcDbVertex
100
AcDb2dVertex
 10
81.38985292357187
 20
-140.5137171870938
 30
0.0
  0
VERTEX
  5
86
330
84
100
AcDbEntity
  8
_U+30EC_U+30A4_U+30E4_U+30FC 1
 62
   179
420
  2234388
370
     9
100
AcDbVertex
100
AcDb2dVertex
 10
103.1898962562953
 20
-140.5137171870938
 30
0.0
  0
SEQEND
  5
87
330
84
100
AcDbEntity
  8
_U+30EC_U+30A4_U+30E4_U+30FC 1
 62
   179
420
  2234388
370
     9
  0
POLYLINE
  5
88
330
1F
100
AcDbEntity
  8
_U+30EC_U+30A4_U+30E4_U+30FC 1
 62
   179
420
  2234388
370
     9
100
AcDb2dPolyline
 66
     1
 10
0.0
 20
0.0
 30
0.0
  0
VERTEX
  5
89
330
88
100
AcDbEntity
  8
_U+30EC_U+30A4_U+30E4_U+30FC 1
 62
   179
420
  2234388
370
     9
100
AcDbVertex
100
AcDb2dVertex
 10
81.38985292357187
 20
-139.0537110763476
 30
0.0
  0
VERTEX
  5
8A
330
88
100
AcDbEntity
  8
_U+30EC_U+30A4_U+30E4_U+30FC 1
 62
   179
420
  2234388
370
     9
100
AcDbVertex
100
AcDb2dVertex
 10
81.38985292357187
 20
-141.5141949646212
 30
0.0
  0
SEQEND
  5
8B
330
88
100
AcDbEntity
  8
_U+30EC_U+30A4_U+30E4_U+30FC 1
 62
   179
420
  2234388
370
     9
  0
POLYLINE
  5
8C
330
1F
100
AcDbEntity
  8
_U+30EC_U+30A4_U+30E4_U+30FC 1
 62
   179
420
  2234388
370
     9
100
AcDb2dPolyline
 66
     1
 10
0.0
 20
0.0
 30
0.0
  0
VERTEX
  5
8D
330
8C
100
AcDbEntity
  8
_U+30EC_U+30A4_U+30E4_U+30FC 1
 62
   179
420
  2234388
370
     9
100
AcDbVertex
100
AcDb2dVertex
 10
103.1898962562953
 20
-139.0537110763476
 30
0.0
  0
VERTEX
  5
8E
330
8C
100
AcDbEntity
  8
_U+30EC_U+30A4_U+30E4_U+30FC 1
 62
   179
420
  2234388
370
     9
100
AcDbVertex
100
AcDb2dVertex
 10
103.1898962562953
 20
-141.5141949646212
 30
0.0
  0
SEQEND
  5
8F
330
8C
100
AcDbEntity
  8
_U+30EC_U+30A4_U+30E4_U+30FC 1
 62
   179
420
  2234388
370
     9
  0
INSERT
  5
91
330
1F
100
AcDbEntity
  8
_U+30EC_U+30A4_U+30E4_U+30FC 1
100
AcDbBlockReference
  2
block 3
 10
0.0
 20
0.0
 30
0.0
  0
SPLINE
  5
A4
330
1F
100
AcDbEntity
  8
_U+30EC_U+30A4_U+30E4_U+30FC 1
 62
   179
420
  2234388
370
    25
100
AcDbSpline
210
0.0
220
0.0
230
1.0
 70
    11
 71
     3
 72
    17
 73
    13
 74
     0
 42
0.0000000001
 43
0.0000000001
 12
1.0
 22
0.0
 32
0.0
 13
1.0
 23
0.0
 33
0.0
 40
0.0
 40
0.0
 40
0.0
 40
0.0
 40
1.0
 40
1.0
 40
1.0
 40
2.0
 40
2.0
 40
2.0
 40
3.0
 40
3.0
 40
3.0
 40
4.0
 40
4.0
 40
4.0
 40
4.0
 10
81.42499164631032
 20
-136.513993299205
 30
0.0
 10
81.42499164631032
 20
-136.5332549658667
 30
0.0
 10
81.40914986752401
 20
-136.5491299658628
 30
0.0
 10
81.38985292357187
 20
-136.5491299658628
 30
0.0
 10
81.37023847962783
 20
-136.5491299658628
 30
0.0
 10
81.35436348003283
 20
-136.5332549658667
 30
0.0
 10
81.35436348003283
 20
-136.513993299205
 30
0.0
 10
81.35436348003283
 20
-136.4943435769874
 30
0.0
 10
81.37023847962783
 20
-136.4785038547695
 30
0.0
 10
81.38985292357187
 20
-136.4785038547695
 30
0.0
 10
81.40914986752401
 20
-136.4785038547695
 30
0.0
 10
81.42499164631032
 20
-136.4943435769874
 30
0.0
 10
81.42499164631032
 20
-136.513993299205
 30
0.0
  0
SPLINE
  5
A5
330
1F
100
AcDbEntity
  8
_U+30EC_U+30A4_U+30E4_U+30FC 1
 62
   179
420
  2234388
370
    25
100
AcDbSpline
210
0.0
220
0.0
230
1.0
 70
    11
 71
     3
 72
    17
 73
    13
 74
     0
 42
0.0000000001
 43
0.0000000001
 12
1.0
 22
0.0
 32
0.0
 13
1.0
 23
0.0
 33
0.0
 40
0.0
 40
0.0
 40
0.0
 40
0.0
 40
1.0
 40
1.0
 40
1.0
 40
2.0
 40
2.0
 40
2.0
 40
3.0
 40
3.0
 40
3.0
 40
4.0
 40
4.0
 40
4.0
 40
4.0
 10
103.2250329220656
 20
-136.513993299205
 30
0.0
 10
103.2250329220656
 20
-136.5332549658667
 30
0.0
 10
103.209898755785
 20
-136.5491299658628
 30
0.0
 10
103.1898962562953
 20
-136.5491299658628
 30
0.0
 10
103.1705993123432
 20
-136.5491299658628
 30
0.0
 10
103.1547595905251
 20
-136.5332549658667
 30
0.0
 10
103.1547595905251
 20
-136.513993299205
 30
0.0
 10
103.1547595905251
 20
-136.4943435769874
 30
0.0
 10
103.1705993123432
 20
-136.4785038547695
 30
0.0
 10
103.1898962562953
 20
-136.4785038547695
 30
0.0
 10
103.209898755785
 20
-136.4785038547695
 30
0.0
 10
103.2250329220656
 20
-136.4943435769874
 30
0.0
 10
103.2250329220656
 20
-136.513993299205
 30
0.0
  0
SPLINE
  5
A6
330
1F
100
AcDbEntity
  8
_U+30EC_U+30A4_U+30E4_U+30FC 1
 62
   179
420
  2234388
370
     9
100
AcDbSpline
210
0.0
220
0.0
230
1.0
 70
    11
 71
     3
 72
    17
 73
    13
 74
     0
 42
0.0000000001
 43
0.0000000001
 12
1.0
 22
0.0
 32
0.0
 13
1.0
 23
0.0
 33
0.0
 40
0.0
 40
0.0
 40
0.0
 40
0.0
 40
1.0
 40
1.0
 40
1.0
 40
2.0
 40
2.0
 40
2.0
 40
3.0
 40
3.0
 40
3.0
 40
4.0
 40
4.0
 40
4.0
 40
4.0
 10
103.2250329220656
 20
-140.5137171870938
 30
0.0
 10
103.2250329220656
 20
-140.5337196870891
 30
0.0
 10
103.209898755785
 20
-140.549559409307
 30
0.0
 10
103.1898962562953
 20
-140.549559409307
 30
0.0
 10
103.1705993123432
 20
-140.549559409307
 30
0.0
 10
103.1547595905251
 20
-140.5337196870891
 30
0.0
 10
103.1547595905251
 20
-140.5137171870938
 30
0.0
 10
103.1547595905251
 20
-140.4944555204321
 30
0.0
 10
103.1705993123432
 20
-140.478580520436
 30
0.0
 10
103.1898962562953
 20
-140.478580520436
 30
0.0
 10
103.209898755785
 20
-140.478580520436
 30
0.0
 10
103.2250329220656
 20
-140.4944555204321
 30
0.0
 10
103.2250329220656
 20
-140.5137171870938
 30
0.0
  0
POLYLINE
  5
A7
330
1F
100
AcDbEntity
  8
_U+30EC_U+30A4_U+30E4_U+30FC 1
 62
   179
420
  2234388
370
     9
100
AcDb2dPolyline
 66
     1
 10
0.0
 20
0.0
 30
0.0
  0
VERTEX
  5
A8
330
A7
100
AcDbEntity
  8
_U+30EC_U+30A4_U+30E4_U+30FC 1
 62
   179
420
  2234388
370
     9
100
AcDbVertex
100
AcDb2dVertex
 10
77.38977635895566
 20
-114.713773026877
 30
0.0
  0
VERTEX
  5
A9
330
A7
100
AcDbEntity
  8
_U+30EC_U+30A4_U+30E4_U+30FC 1
 62
   179
420
  2234388
370
     9
100
AcDbVertex
100
AcDb2dVertex
 10
77.38977635895566
 20
-136.513993299205
 30
0.0
  0
SEQEND
  5
AA
330
A7
100
AcDbEntity
  8
_U+30EC_U+30A4_U+30E4_U+30FC 1
 62
   179
420
  2234388
370
     9
  0
POLYLINE
  5
AB
330
1F
100
AcDbEntity
  8
_U+30EC_U+30A4_U+30E4_U+30FC 1
 62
   179
420
  2234388
370
     9
100
AcDb2dPolyline
 66
     1
 10
0.0
 20
0.0
 30
0.0
  0
VERTEX
  5
AC
330
AB
100
AcDbEntity
  8
_U+30EC_U+30A4_U+30E4_U+30FC 1
 62
   179
420
  2234388
370
     9
100
AcDbVertex
100
AcDb2dVertex
 10
78.8497824328189
 20
-114.713773026877
 30
0.0
  0
VERTEX
  5
AD
330
AB
100
AcDbEntity
  8
_U+30EC_U+30A4_U+30E4_U+30FC 1
 62
   179
420
  2234388
370
     9
100
AcDbVertex
100
AcDb2dVertex
 10
76.38965138447097
 20
-114.713773026877
 30
0.0
  0
SEQEND
  5
AE
330
AB
100
AcDbEntity
  8
_U+30EC_U+30A4_U+30E4_U+30FC 1
 62
   179
420
  2234388
370
     9
  0
POLYLINE
  5
AF
330
1F
100
AcDbEntity
  8
_U+30EC_U+30A4_U+30E4_U+30FC 1
 62
   179
420
  2234388
370
     9
100
AcDb2dPolyline
 66
     1
 10
0.0
 20
0.0
 30
0.0
  0
VERTEX
  5
B0
330
AF
100
AcDbEntity
  8
_U+30EC_U+30A4_U+30E4_U+30FC 1
 62
   179
420
  2234388
370
     9
100
AcDbVertex
100
AcDb2dVertex
 10
78.8497824328189
 20
-136.513993299205
 30
0.0
  0
VERTEX
  5
B1
330
AF
100
AcDbEntity
  8
_U+30EC_U+30A4_U+30E4_U+30FC 1
 62
   179
420
  2234388
370
     9
100
AcDbVertex
100
AcDb2dVertex
 10
76.38965138447097
 20
-136.513993299205
 30
0.0
  0
SEQEND
  5
B2
330
AF
100
AcDbEntity
  8
_U+30EC_U+30A4_U+30E4_U+30FC 1
 62
   179
420
  2234388
370
     9
  0
INSERT
  5
B4
330
1F
100
AcDbEntity
  8
_U+30EC_U+30A4_U+30E4_U+30FC 1
100
AcDbBlockReference
  2
block 4
 10
0.0
 20
0.0
 30
0.0
  0
SPLINE
  5
C7
330
1F
100
AcDbEntity
  8
_U+30EC_U+30A4_U+30E4_U+30FC 1
 62
   179
420
  2234388
370
    25
100
AcDbSpline
210
0.0
220
0.0
230
1.0
 70
    11
 71
     3
 72
    17
 73
    13
 74
     0
 42
0.0000000001
 43
0.0000000001
 12
1.0
 22
0.0
 32
0.0
 13
1.0
 23
0.0
 33
0.0
 40
0.0
 40
0.0
 40
0.0
 40
0.0
 40
1.0
 40
1.0
 40
1.0
 40
2.0
 40
2.0
 40
2.0
 40
3.0
 40
3.0
 40
3.0
 40
4.0
 40
4.0
 40
4.0
 40
4.0
 10
81.42499164631032
 20
-114.713773026877
 30
0.0
 10
81.42499164631032
 20
-114.7333874713167
 30
0.0
 10
81.40914986752401
 20
-114.7492271935349
 30
0.0
 10
81.38985292357187
 20
-114.7492271935349
 30
0.0
 10
81.37023847962783
 20
-114.7492271935349
 30
0.0
 10
81.35436348003283
 20
-114.7333874713167
 30
0.0
 10
81.35436348003283
 20
-114.713773026877
 30
0.0
 10
81.35436348003283
 20
-114.6944760824375
 30
0.0
 10
81.37023847962783
 20
-114.6786010824414
 30
0.0
 10
81.38985292357187
 20
-114.6786010824414
 30
0.0
 10
81.40914986752401
 20
-114.6786010824414
 30
0.0
 10
81.42499164631032
 20
-114.6944760824375
 30
0.0
 10
81.42499164631032
 20
-114.713773026877
 30
0.0
  0
SPLINE
  5
C8
330
1F
100
AcDbEntity
  8
_U+30EC_U+30A4_U+30E4_U+30FC 1
 62
   179
420
  2234388
370
    25
100
AcDbSpline
210
0.0
220
0.0
230
1.0
 70
    11
 71
     3
 72
    17
 73
    13
 74
     0
 42
0.0000000001
 43
0.0000000001
 12
1.0
 22
0.0
 32
0.0
 13
1.0
 23
0.0
 33
0.0
 40
0.0
 40
0.0
 40
0.0
 40
0.0
 40
1.0
 40
1.0
 40
1.0
 40
2.0
 40
2.0
 40
2.0
 40
3.0
 40
3.0
 40
3.0
 40
4.0
 40
4.0
 40
4.0
 40
4.0
 10
81.42499164631032
 20
-136.513993299205
 30
0.0
 10
81.42499164631032
 20
-136.5332549658667
 30
0.0
 10
81.40914986752401
 20
-136.5491299658628
 30
0.0
 10
81.38985292357187
 20
-136.5491299658628
 30
0.0
 10
81.37023847962783
 20
-136.5491299658628
 30
0.0
 10
81.35436348003283
 20
-136.5332549658667
 30
0.0
 10
81.35436348003283
 20
-136.513993299205
 30
0.0
 10
81.35436348003283
 20
-136.4943435769874
 30
0.0
 10
81.37023847962783
 20
-136.4785038547695
 30
0.0
 10
81.38985292357187
 20
-136.4785038547695
 30
0.0
 10
81.40914986752401
 20
-136.4785038547695
 30
0.0
 10
81.42499164631032
 20
-136.4943435769874
 30
0.0
 10
81.42499164631032
 20
-136.513993299205
 30
0.0
  0
SPLINE
  5
C9
330
1F
100
AcDbEntity
  8
_U+30EC_U+30A4_U+30E4_U+30FC 1
 62
   179
420
  2234388
370
     9
100
AcDbSpline
210
0.0
220
0.0
230
1.0
 70
    11
 71
     3
 72
    17
 73
    13
 74
     0
 42
0.0000000001
 43
0.0000000001
 12
1.0
 22
0.0
 32
0.0
 13
1.0
 23
0.0
 33
0.0
 40
0.0
 40
0.0
 40
0.0
 40
0.0
 40
1.0
 40
1.0
 40
1.0
 40
2.0
 40
2.0
 40
2.0
 40
3.0
 40
3.0
 40
3.0
 40
4.0
 40
4.0
 40
4.0
 40
4.0
 10
77.42491302472591
 20
-136.513993299205
 30
0.0
 10
77.42491302472591
 20
-136.5332549658667
 30
0.0
 10
77.40903802513091
 20
-136.5491299658628
 30
0.0
 10
77.38977635895566
 20
-136.5491299658628
 30
0.0
 10
77.37012663723473
 20
-136.5491299658628
 30
0.0
 10
77.35460441540852
 20
-136.5332549658667
 30
0.0
 10
77.35460441540852
 20
-136.513993299205
 30
0.0
 10
77.35460441540852
 20
-136.4943435769874
 30
0.0
 10
77.37012663723473
 20
-136.4785038547695
 30
0.0
 10
77.38977635895566
 20
-136.4785038547695
 30
0.0
 10
77.40903802513091
 20
-136.4785038547695
 30
0.0
 10
77.42491302472591
 20
-136.4943435769874
 30
0.0
 10
77.42491302472591
 20
-136.513993299205
 30
0.0
  0
ENDSEC
  0
SECTION
  2
OBJECTS
  0
DICTIONARY
  5
C
330
0
100
AcDbDictionary
281
     1
  3
ACAD_GROUP
350
D
  3
ACAD_LAYOUT
350
1A
  3
ACAD_MATERIAL
350
3B
  3
ACAD_MLEADERSTYLE
350
CB
  3
ACAD_MLINESTYLE
350
17
  3
ACAD_PLOTSETTINGS
350
19
  3
ACAD_PLOTSTYLENAME
350
E
  3
ACAD_TABLESTYLE
350
CA
  3
ACAD_VISUALSTYLE
350
2A
  0
SUN
  5
3F
330
29
100
AcDbSun
 90
        1
290
     0
 63
     7
421
 16777215
 40
1.0
291
     1
 91
  2455826
 92
 54000000
292
     0
 70
     2
 71
   256
280
     1
  0
DICTIONARY
  5
D
102
{ACAD_REACTORS
330
C
102
}
330
C
100
AcDbDictionary
281
     1
  0
DICTIONARY
  5
1A
102
{ACAD_REACTORS
330
C
102
}
330
C
100
AcDbDictionary
281
     1
  3
Layout1
350
1E
  3
Layout2
350
26
  3
Model
350
22
  0
DICTIONARY
  5
3B
102
{ACAD_REACTORS
330
C
102
}
330
C
100
AcDbDictionary
281
     1
  3
ByBlock
350
3D
  3
ByLayer
350
3C
  3
Global
350
3E
  0
DICTIONARY
  5
CB
102
{ACAD_REACTORS
330
C
102
}
330
C
100
AcDbDictionary
281
     1
  0
DICTIONARY
  5
17
102
{ACAD_REACTORS
330
C
102
}
330
C
100
AcDbDictionary
281
     1
  3
Standard
350
18
  0
DICTIONARY
  5
19
102
{ACAD_REACTORS
330
C
102
}
330
C
100
AcDbDictionary
281
     1
  0
ACDBDICTIONARYWDFLT
  5
E
102
{ACAD_REACTORS
330
C
102
}
330
C
100
AcDbDictionary
281
     1
  3
Normal
350
F
100
AcDbDictionaryWithDefault
340
F
  0
DICTIONARY
  5
CA
102
{ACAD_REACTORS
330
C
102
}
330
C
100
AcDbDictionary
281
     1
  0
DICTIONARY
  5
2A
102
{ACAD_REACTORS
330
C
102
}
330
C
100
AcDbDictionary
281
     1
  3
2dWireframe
350
2F
  3
3D Hidden
350
31
  3
3dWireframe
350
30
  3
Basic
350
32
  3
Brighten
350
36
  3
ColorChange
350
3A
  3
Conceptual
350
34
  3
Dim
350
35
  3
Facepattern
350
39
  3
Flat
350
2B
  3
FlatWithEdges
350
2C
  3
Gouraud
350
2D
  3
GouraudWithEdges
350
2E
  3
Linepattern
350
38
  3
Realistic
350
33
  3
Thicken
350
37
  0
LAYOUT
  5
1E
102
{ACAD_REACTORS
330
1A
102
}
330
1A
100
AcDbPlotSettings
  1

  2
none_device
  4

  6

 40
0.0
 41
0.0
 42
0.0
 43
0.0
 44
0.0
 45
0.0
 46
0.0
 47
0.0
 48
0.0
 49
0.0
140
0.0
141
0.0
142
1.0
143
1.0
 70
   688
 72
     0
 73
     0
 74
     5
  7

 75
    16
 76
     0
 77
     2
 78
   300
147
1.0
148
0.0
149
0.0
100
AcDbLayout
  1
Layout1
 70
     1
 71
     1
 10
0.0
 20
0.0
 11
12.0
 21
9.0
 12
0.0
 22
0.0
 32
0.0
 14
1.000000000000000E+20
 24
1.000000000000000E+20
 34
1.000000000000000E+20
 15
-1.000000000000000E+20
 25
-1.000000000000000E+20
 35
-1.000000000000000E+20
146
0.0
 13
0.0
 23
0.0
 33
0.0
 16
1.0
 26
0.0
 36
0.0
 17
0.0
 27
1.0
 37
0.0
 76
     0
330
1B
  0
LAYOUT
  5
26
102
{ACAD_REACTORS
330
1A
102
}
330
1A
100
AcDbPlotSettings
  1

  2
none_device
  4

  6

 40
0.0
 41
0.0
 42
0.0
 43
0.0
 44
0.0
 45
0.0
 46
0.0
 47
0.0
 48
0.0
 49
0.0
140
0.0
141
0.0
142
1.0
143
1.0
 70
   688
 72
     0
 73
     0
 74
     5
  7

 75
    16
 76
     0
 77
     2
 78
   300
147
1.0
148
0.0
149
0.0
100
AcDbLayout
  1
Layout2
 70
     1
 71
     2
 10
0.0
 20
0.0
 11
0.0
 21
0.0
 12
0.0
 22
0.0
 32
0.0
 14
0.0
 24
0.0
 34
0.0
 15
0.0
 25
0.0
 35
0.0
146
0.0
 13
0.0
 23
0.0
 33
0.0
 16
1.0
 26
0.0
 36
0.0
 17
0.0
 27
1.0
 37
0.0
 76
     0
330
23
  0
LAYOUT
  5
22
102
{ACAD_REACTORS
330
1A
102
}
330
1A
100
AcDbPlotSettings
  1

  2
none_device
  4

  6

 40
0.0
 41
0.0
 42
0.0
 43
0.0
 44
0.0
 45
0.0
 46
0.0
 47
0.0
 48
0.0
 49
0.0
140
0.0
141
0.0
142
1.0
143
1.0
 70
  1712
 72
     0
 73
     0
 74
     0
  7

 75
     0
 76
     0
 77
     2
 78
   300
147
1.0
148
0.0
149
0.0
100
AcDbLayout
  1
Model
 70
     1
 71
     0
 10
0.0
 20
0.0
 11
12.0
 21
9.0
 12
0.0
 22
0.0
 32
0.0
 14
1.000000000000000E+20
 24
1.000000000000000E+20
 34
1.000000000000000E+20
 15
-1.000000000000000E+20
 25
-1.000000000000000E+20
 35
-1.000000000000000E+20
146
0.0
 13
0.0
 23
0.0
 33
0.0
 16
1.0
 26
0.0
 36
0.0
 17
0.0
 27
1.0
 37
0.0
 76
     0
330
1F
331
29
  0
MATERIAL
  5
3D
102
{ACAD_REACTORS
330
3B
102
}
330
3B
100
AcDbMaterial
  1
ByBlock
 72
     1
 94
      127
  0
MATERIAL
  5
3C
102
{ACAD_REACTORS
330
3B
102
}
330
3B
100
AcDbMaterial
  1
ByLayer
 72
     1
 94
      127
  0
MATERIAL
  5
3E
102
{ACAD_REACTORS
330
3B
102
}
330
3B
100
AcDbMaterial
  1
Global
 72
     1
 94
      127
  0
MLINESTYLE
  5
18
102
{ACAD_REACTORS
330
17
102
}
330
17
100
AcDbMlineStyle
  2
Standard
 70
     0
  3

 62
   256
 51
90.0
 52
90.0
 71
     2
 49
0.5
 62
   256
  6
BYLAYER
 49
-0.5
 62
   256
  6
BYLAYER
  0
ACDBPLACEHOLDER
  5
F
102
{ACAD_REACTORS
330
E
102
}
330
E
  0
VISUALSTYLE
  5
2F
102
{ACAD_REACTORS
330
2A
102
}
330
2A
100
AcDbVisualStyle
  2
2dWireframe
 70
     4
177
     2
291
     0
 71
     0
176
     1
 72
     2
176
     1
 73
     0
176
     1
 90
        0
176
     1
 40
-0.6
176
     1
 41
-30.0
176
     1
 62
     5
 63
     7
421
 16777215
176
     1
 74
     1
176
     1
 91
        4
176
     1
 64
     7
176
     1
 65
   257
176
     1
 75
     1
176
     1
175
     1
176
     1
 42
1.0
176
     1
 92
        0
176
     1
 66
   257
176
     1
 43
1.0
176
     1
 76
     1
176
     1
 77
     6
176
     1
 78
     2
176
     1
 67
     7
176
     1
 79
     5
176
     1
170
     0
176
     1
171
     0
176
     1
290
     0
176
     1
 93
        1
176
     1
 44
0.0
176
     1
173
     0
176
     1
  0
VISUALSTYLE
  5
31
102
{ACAD_REACTORS
330
2A
102
}
330
2A
100
AcDbVisualStyle
  2
3D Hidden
 70
     6
177
     2
291
     0
 71
     1
176
     1
 72
     2
176
     1
 73
     2
176
     1
 90
        0
176
     1
 40
-0.6
176
     1
 41
-30.0
176
     1
 62
     5
 63
     7
421
 16777215
176
     1
 74
     2
176
     1
 91
        2
176
     1
 64
     7
176
     1
 65
   257
176
     1
 75
     2
176
     1
175
     1
176
     1
 42
40.0
176
     1
 92
        0
176
     1
 66
   257
176
     1
 43
1.0
176
     1
 76
     1
176
     1
 77
     6
176
     1
 78
     2
176
     1
 67
     7
176
     1
 79
     3
176
     1
170
     0
176
     1
171
     0
176
     1
290
     0
176
     1
 93
        1
176
     1
 44
0.0
176
     1
173
     0
176
     1
  0
VISUALSTYLE
  5
30
102
{ACAD_REACTORS
330
2A
102
}
330
2A
100
AcDbVisualStyle
  2
3dWireframe
 70
     5
177
     2
291
     0
 71
     0
176
     1
 72
     2
176
     1
 73
     0
176
     1
 90
        0
176
     1
 40
-0.6
176
     1
 41
-30.0
176
     1
 62
     5
 63
     7
421
 16777215
176
     1
 74
     1
176
     1
 91
        4
176
     1
 64
     7
176
     1
 65
   257
176
     1
 75
     1
176
     1
175
     1
176
     1
 42
1.0
176
     1
 92
        0
176
     1
 66
   257
176
     1
 43
1.0
176
     1
 76
     1
176
     1
 77
     6
176
     1
 78
     2
176
     1
 67
     7
176
     1
 79
     5
176
     1
170
     0
176
     1
171
     0
176
     1
290
     0
176
     1
 93
        1
176
     1
 44
0.0
176
     1
173
     0
176
     1
  0
VISUALSTYLE
  5
32
102
{ACAD_REACTORS
330
2A
102
}
330
2A
100
AcDbVisualStyle
  2
Basic
 70
     7
177
     2
291
     1
 71
     1
176
     1
 72
     0
176
     1
 73
     1
176
     1
 90
        0
176
     1
 40
-0.6
176
     1
 41
-30.0
176
     1
 62
     5
 63
     7
421
 16777215
176
     1
 74
     0
176
     1
 91
        4
176
     1
 64
     7
176
     1
 65
   257
176
     1
 75
     1
176
     1
175
     1
176
     1
 42
1.0
176
     1
 92
        8
176
     1
 66
     7
176
     1
 43
1.0
176
     1
 76
     1
176
     1
 77
     6
176
     1
 78
     2
176
     1
 67
     7
176
     1
 79
     5
176
     1
170
     0
176
     1
171
     0
176
     1
290
     0
176
     1
 93
        1
176
     1
 44
0.0
176
     1
173
     0
176
     1
  0
VISUALSTYLE
  5
36
102
{ACAD_REACTORS
330
2A
102
}
330
2A
100
AcDbVisualStyle
  2
Brighten
 70
    12
177
     2
291
     1
 71
     2
176
     1
 72
     2
176
     1
 73
     0
176
     1
 90
        0
176
     1
 40
-0.6
176
     1
 41
-30.0
176
     1
 62
     5
 63
     7
421
 16777215
176
     1
 74
     1
176
     1
 91
        4
176
     1
 64
     7
176
     1
 65
   257
176
     1
 75
     1
176
     1
175
     1
176
     1
 42
1.0
176
     1
 92
        8
176
     1
 66
     7
176
     1
 43
1.0
176
     1
 76
     1
176
     1
 77
     6
176
     1
 78
     2
176
     1
 67
     7
176
     1
 79
     5
176
     1
170
     0
176
     1
171
     0
176
     1
290
     0
176
     1
 93
        1
176
     1
 44
50.0
176
     1
173
     0
176
     1
  0
VISUALSTYLE
  5
3A
102
{ACAD_REACTORS
330
2A
102
}
330
2A
100
AcDbVisualStyle
  2
ColorChange
 70
    16
177
     2
291
     1
 71
     2
176
     1
 72
     2
176
     1
 73
     3
176
     1
 90
        0
176
     1
 40
-0.6
176
     1
 41
-30.0
176
     1
 62
     5
 63
     8
421
  8421504
176
     1
 74
     1
176
     1
 91
        4
176
     1
 64
     7
176
     1
 65
   257
176
     1
 75
     1
176
     1
175
     1
176
     1
 42
1.0
176
     1
 92
        8
176
     1
 66
     8
424
  8421504
176
     1
 43
1.0
176
     1
 76
     1
176
     1
 77
     6
176
     1
 78
     2
176
     1
 67
     7
176
     1
 79
     5
176
     1
170
     0
176
     1
171
     0
176
     1
290
     0
176
     1
 93
        1
176
     1
 44
0.0
176
     1
173
     0
176
     1
  0
VISUALSTYLE
  5
34
102
{ACAD_REACTORS
330
2A
102
}
330
2A
100
AcDbVisualStyle
  2
Conceptual
 70
     9
177
     2
291
     0
 71
     3
176
     1
 72
     2
176
     1
 73
     0
176
     1
 90
        0
176
     1
 40
-0.6
176
     1
 41
-30.0
176
     1
 62
     5
 63
     7
421
 16777215
176
     1
 74
     2
176
     1
 91
        2
176
     1
 64
     7
176
     1
 65
   257
176
     1
 75
     1
176
     1
175
     1
176
     1
 42
40.0
176
     1
 92
        8
176
     1
 66
     7
176
     1
 43
1.0
176
     1
 76
     1
176
     1
 77
     6
176
     1
 78
     2
176
     1
 67
     7
176
     1
 79
     3
176
     1
170
     0
176
     1
171
     0
176
     1
290
     0
176
     1
 93
        1
176
     1
 44
0.0
176
     1
173
     0
176
     1
  0
VISUALSTYLE
  5
35
102
{ACAD_REACTORS
330
2A
102
}
330
2A
100
AcDbVisualStyle
  2
Dim
 70
    11
177
     2
291
     1
 71
     2
176
     1
 72
     2
176
     1
 73
     0
176
     1
 90
        0
176
     1
 40
-0.6
176
     1
 41
-30.0
176
     1
 62
     5
 63
     7
421
 16777215
176
     1
 74
     1
176
     1
 91
        4
176
     1
 64
     7
176
     1
 65
   257
176
     1
 75
     1
176
     1
175
     1
176
     1
 42
1.0
176
     1
 92
        8
176
     1
 66
     7
176
     1
 43
1.0
176
     1
 76
     1
176
     1
 77
     6
176
     1
 78
     2
176
     1
 67
     7
176
     1
 79
     5
176
     1
170
     0
176
     1
171
     0
176
     1
290
     0
176
     1
 93
        1
176
     1
 44
-50.0
176
     1
173
     0
176
     1
  0
VISUALSTYLE
  5
39
102
{ACAD_REACTORS
330
2A
102
}
330
2A
100
AcDbVisualStyle
  2
Facepattern
 70
    15
177
     2
291
     1
 71
     2
176
     1
 72
     2
176
     1
 73
     0
176
     1
 90
        0
176
     1
 40
-0.6
176
     1
 41
-30.0
176
     1
 62
     5
 63
     7
421
 16777215
176
     1
 74
     1
176
     1
 91
        4
176
     1
 64
     7
176
     1
 65
   257
176
     1
 75
     1
176
     1
175
     1
176
     1
 42
1.0
176
     1
 92
        8
176
     1
 66
     7
176
     1
 43
1.0
176
     1
 76
     1
176
     1
 77
     6
176
     1
 78
     2
176
     1
 67
     7
176
     1
 79
     5
176
     1
170
     0
176
     1
171
     0
176
     1
290
     0
176
     1
 93
        1
176
     1
 44
0.0
176
     1
173
     0
176
     1
  0
VISUALSTYLE
  5
2B
102
{ACAD_REACTORS
330
2A
102
}
330
2A
100
AcDbVisualStyle
  2
Flat
 70
     0
177
     2
291
     1
 71
     2
176
     1
 72
     1
176
     1
 73
     1
176
     1
 90
        2
176
     1
 40
-0.6
176
     1
 41
30.0
176
     1
 62
     5
 63
     7
421
 16777215
176
     1
 74
     0
176
     1
 91
        4
176
     1
 64
     7
176
     1
 65
   257
176
     1
 75
     1
176
     1
175
     1
176
     1
 42
1.0
176
     1
 92
        8
176
     1
 66
     7
176
     1
 43
1.0
176
     1
 76
     1
176
     1
 77
     6
176
     1
 78
     2
176
     1
 67
     7
176
     1
 79
     5
176
     1
170
     0
176
     1
171
     0
176
     1
290
     0
176
     1
 93
       13
176
     1
 44
0.0
176
     1
173
     0
176
     1
  0
VISUALSTYLE
  5
2C
102
{ACAD_REACTORS
330
2A
102
}
330
2A
100
AcDbVisualStyle
  2
FlatWithEdges
 70
     1
177
     2
291
     1
 71
     2
176
     1
 72
     1
176
     1
 73
     1
176
     1
 90
        2
176
     1
 40
-0.6
176
     1
 41
30.0
176
     1
 62
     5
 63
     7
421
 16777215
176
     1
 74
     1
176
     1
 91
        4
176
     1
 64
     7
176
     1
 65
   257
176
     1
 75
     1
176
     1
175
     1
176
     1
 42
1.0
176
     1
 92
        0
176
     1
 66
   257
176
     1
 43
1.0
176
     1
 76
     1
176
     1
 77
     6
176
     1
 78
     2
176
     1
 67
     7
176
     1
 79
     5
176
     1
170
     0
176
     1
171
     0
176
     1
290
     0
176
     1
 93
       13
176
     1
 44
0.0
176
     1
173
     0
176
     1
  0
VISUALSTYLE
  5
2D
102
{ACAD_REACTORS
330
2A
102
}
330
2A
100
AcDbVisualStyle
  2
Gouraud
 70
     2
177
     2
291
     1
 71
     2
176
     1
 72
     2
176
     1
 73
     1
176
     1
 90
        2
176
     1
 40
-0.6
176
     1
 41
30.0
176
     1
 62
     5
 63
     7
421
 16777215
176
     1
 74
     0
176
     1
 91
        4
176
     1
 64
     7
176
     1
 65
   257
176
     1
 75
     1
176
     1
175
     1
176
     1
 42
1.0
176
     1
 92
        0
176
     1
 66
     7
176
     1
 43
1.0
176
     1
 76
     1
176
     1
 77
     6
176
     1
 78
     2
176
     1
 67
     7
176
     1
 79
     5
176
     1
170
     0
176
     1
171
     0
176
     1
290
     0
176
     1
 93
       13
176
     1
 44
0.0
176
     1
173
     0
176
     1
  0
VISUALSTYLE
  5
2E
102
{ACAD_REACTORS
330
2A
102
}
330
2A
100
AcDbVisualStyle
  2
GouraudWithEdges
 70
     3
177
     2
291
     1
 71
     2
176
     1
 72
     2
176
     1
 73
     1
176
     1
 90
        2
176
     1
 40
-0.6
176
     1
 41
30.0
176
     1
 62
     5
 63
     7
421
 16777215
176
     1
 74
     1
176
     1
 91
        4
176
     1
 64
     7
176
     1
 65
   257
176
     1
 75
     1
176
     1
175
     1
176
     1
 42
1.0
176
     1
 92
        0
176
     1
 66
   257
176
     1
 43
1.0
176
     1
 76
     1
176
     1
 77
     6
176
     1
 78
     2
176
     1
 67
     7
176
     1
 79
     5
176
     1
170
     0
176
     1
171
     0
176
     1
290
     0
176
     1
 93
       13
176
     1
 44
0.0
176
     1
173
     0
176
     1
  0
VISUALSTYLE
  5
38
102
{ACAD_REACTORS
330
2A
102
}
330
2A
100
AcDbVisualStyle
  2
Linepattern
 70
    14
177
     2
291
     1
 71
     2
176
     1
 72
     2
176
     1
 73
     0
176
     1
 90
        0
176
     1
 40
-0.6
176
     1
 41
-30.0
176
     1
 62
     5
 63
     7
421
 16777215
176
     1
 74
     1
176
     1
 91
        4
176
     1
 64
     7
176
     1
 65
   257
176
     1
 75
     7
176
     1
175
     7
176
     1
 42
1.0
176
     1
 92
        8
176
     1
 66
     7
176
     1
 43
1.0
176
     1
 76
     1
176
     1
 77
     6
176
     1
 78
     2
176
     1
 67
     7
176
     1
 79
     5
176
     1
170
     0
176
     1
171
     0
176
     1
290
     0
176
     1
 93
        1
176
     1
 44
0.0
176
     1
173
     0
176
     1
  0
VISUALSTYLE
  5
33
102
{ACAD_REACTORS
330
2A
102
}
330
2A
100
AcDbVisualStyle
  2
Realistic
 70
     8
177
     2
291
     0
 71
     2
176
     1
 72
     2
176
     1
 73
     0
176
     1
 90
        0
176
     1
 40
-0.6
176
     1
 41
-30.0
176
     1
 62
     5
 63
     7
421
 16777215
176
     1
 74
     1
176
     1
 91
        0
176
     1
 64
     7
176
     1
 65
   257
176
     1
 75
     1
176
     1
175
     1
176
     1
 42
1.0
176
     1
 92
        8
176
     1
 66
     8
424
  7895160
176
     1
 43
1.0
176
     1
 76
     1
176
     1
 77
     6
176
     1
 78
     2
176
     1
 67
     7
176
     1
 79
     5
176
     1
170
     0
176
     1
171
     0
176
     1
290
     0
176
     1
 93
       13
176
     1
 44
0.0
176
     1
173
     0
176
     1
  0
VISUALSTYLE
  5
37
102
{ACAD_REACTORS
330
2A
102
}
330
2A
100
AcDbVisualStyle
  2
Thicken
 70
    13
177
     2
291
     1
 71
     2
176
     1
 72
     2
176
     1
 73
     0
176
     1
 90
        0
176
     1
 40
-0.6
176
     1
 41
-30.0
176
     1
 62
     5
 63
     7
421
 16777215
176
     1
 74
     1
176
     1
 91
        4
176
     1
 64
     7
176
     1
 65
   257
176
     1
 75
     1
176
     1
175
     1
176
     1
 42
1.0
176
     1
 92
       12
176
     1
 66
     7
176
     1
 43
1.0
176
     1
 76
     1
176
     1
 77
     6
176
     1
 78
     2
176
     1
 67
     7
176
     1
 79
     5
176
     1
170
     0
176
     1
171
     0
176
     1
290
     0
176
     1
 93
        1
176
     1
 44
0.0
176
     1
173
     0
176
     1
  0
ENDSEC
  0
EOF
