  0
SECTION
  2
HEADER
  9
$ACADVER
  1
AC1024
  9
$ACADMAINTVER
 70
     6
  9
$DWGCODEPAGE
  3
UNDEFINED
  9
$INSBASE
 10
0.0
 20
0.0
 30
0.0
  9
$EXTMIN
 10
1.000000000000000E+20
 20
1.000000000000000E+20
 30
1.000000000000000E+20
  9
$EXTMAX
 10
-1.000000000000000E+20
 20
-1.000000000000000E+20
 30
-1.000000000000000E+20
  9
$LIMMIN
 10
0.0
 20
0.0
  9
$LIMMAX
 10
12.0
 20
9.0
  9
$ORTHOMODE
 70
     0
  9
$REGENMODE
 70
     1
  9
$FILLMODE
 70
     1
  9
$QTEXTMODE
 70
     0
  9
$MIRRTEXT
 70
     1
  9
$LTSCALE
 40
1.0
  9
$ATTMODE
 70
     1
  9
$TEXTSIZE
 40
0.2
  9
$TRACEWID
 40
0.05
  9
$TEXTSTYLE
  7
Standard
  9
$CLAYER
  8
0
  9
$CELTYPE
  6
ByLayer
  9
$CECOLOR
 62
   256
  9
$CELTSCALE
 40
1.0
  9
$DISPSILH
 70
     0
  9
$DIMSCALE
 40
1.0
  9
$DIMASZ
 40
0.18
  9
$DIMEXO
 40
0.0625
  9
$DIMDLI
 40
0.38
  9
$DIMRND
 40
0.0
  9
$DIMDLE
 40
0.0
  9
$DIMEXE
 40
0.18
  9
$DIMTP
 40
0.0
  9
$DIMTM
 40
0.0
  9
$DIMTXT
 40
0.18
  9
$DIMCEN
 40
0.09
  9
$DIMTSZ
 40
0.0
  9
$DIMTOL
 70
     0
  9
$DIMLIM
 70
     0
  9
$DIMTIH
 70
     1
  9
$DIMTOH
 70
     1
  9
$DIMSE1
 70
     0
  9
$DIMSE2
 70
     0
  9
$DIMTAD
 70
     0
  9
$DIMZIN
 70
     0
  9
$DIMBLK
  1

  9
$DIMASO
 70
     1
  9
$DIMSHO
 70
     1
  9
$DIMPOST
  1

  9
$DIMAPOST
  1

  9
$DIMALT
 70
     0
  9
$DIMALTD
 70
     2
  9
$DIMALTF
 40
25.4
  9
$DIMLFAC
 40
1.0
  9
$DIMTOFL
 70
     0
  9
$DIMTVP
 40
0.0
  9
$DIMTIX
 70
     0
  9
$DIMSOXD
 70
     0
  9
$DIMSAH
 70
     0
  9
$DIMBLK1
  1

  9
$DIMBLK2
  1

  9
$DIMSTYLE
  2
Standard
  9
$DIMCLRD
 70
     0
  9
$DIMCLRE
 70
     0
  9
$DIMCLRT
 70
     0
  9
$DIMTFAC
 40
1.0
  9
$DIMGAP
 40
0.09
  9
$DIMJUST
 70
     0
  9
$DIMSD1
 70
     0
  9
$DIMSD2
 70
     0
  9
$DIMTOLJ
 70
     1
  9
$DIMTZIN
 70
     0
  9
$DIMALTZ
 70
     0
  9
$DIMALTTZ
 70
     0
  9
$DIMUPT
 70
     0
  9
$DIMDEC
 70
     4
  9
$DIMTDEC
 70
     4
  9
$DIMALTU
 70
     2
  9
$DIMALTTD
 70
     2
  9
$DIMTXSTY
  7
Standard
  9
$DIMAUNIT
 70
     0
  9
$DIMADEC
 70
     0
  9
$DIMALTRND
 40
0.0
  9
$DIMAZIN
 70
     0
  9
$DIMDSEP
 70
    46
  9
$DIMATFIT
 70
     3
  9
$DIMFRAC
 70
     0
  9
$DIMLDRBLK
  1

  9
$DIMLUNIT
 70
     2
  9
$DIMLWD
 70
    -2
  9
$DIMLWE
 70
    -2
  9
$DIMTMOVE
 70
     0
  9
$DIMFXL
 40
1.0
  9
$DIMFXLON
 70
     0
  9
$DIMJOGANG
 40
0.7853981633974483
  9
$DIMTFILL
 70
     0
  9
$DIMTFILLCLR
 70
     0
  9
$DIMARCSYM
 70
     0
  9
$DIMLTYPE
  6

  9
$DIMLTEX1
  6

  9
$DIMLTEX2
  6

  9
$DIMTXTDIRECTION
 70
     0
  9
$LUNITS
 70
     2
  9
$LUPREC
 70
     4
  9
$SKETCHINC
 40
0.1
  9
$FILLETRAD
 40
0.5
  9
$AUNITS
 70
     0
  9
$AUPREC
 70
     0
  9
$MENU
  1
.
  9
$ELEVATION
 40
0.0
  9
$PELEVATION
 40
0.0
  9
$THICKNESS
 40
0.0
  9
$LIMCHECK
 70
     0
  9
$CHAMFERA
 40
0.5
  9
$CHAMFERB
 40
0.5
  9
$CHAMFERC
 40
1.0
  9
$CHAMFERD
 40
0.0
  9
$SKPOLY
 70
     0
  9
$TDCREATE
 40
2457917.609456019
  9
$TDUCREATE
 40
2457917.234456019
  9
$TDUPDATE
 40
2457917.609456019
  9
$TDUUPDATE
 40
2457917.234456019
  9
$TDINDWG
 40
0.0000000116
  9
$TDUSRTIMER
 40
0.0000000116
  9
$USRTIMER
 70
     1
  9
$ANGBASE
 50
0.0
  9
$ANGDIR
 70
     0
  9
$PDMODE
 70
     0
  9
$PDSIZE
 40
0.0
  9
$PLINEWID
 40
0.0
  9
$SPLFRAME
 70
     0
  9
$SPLINETYPE
 70
     6
  9
$SPLINESEGS
 70
     8
  9
$HANDSEED
  5
13E
  9
$SURFTAB1
 70
     6
  9
$SURFTAB2
 70
     6
  9
$SURFTYPE
 70
     6
  9
$SURFU
 70
     6
  9
$SURFV
 70
     6
  9
$UCSBASE
  2

  9
$UCSNAME
  2

  9
$UCSORG
 10
0.0
 20
0.0
 30
0.0
  9
$UCSXDIR
 10
1.0
 20
0.0
 30
0.0
  9
$UCSYDIR
 10
0.0
 20
1.0
 30
0.0
  9
$UCSORTHOREF
  2

  9
$UCSORTHOVIEW
 70
     0
  9
$UCSORGTOP
 10
0.0
 20
0.0
 30
0.0
  9
$UCSORGBOTTOM
 10
0.0
 20
0.0
 30
0.0
  9
$UCSORGLEFT
 10
0.0
 20
0.0
 30
0.0
  9
$UCSORGRIGHT
 10
0.0
 20
0.0
 30
0.0
  9
$UCSORGFRONT
 10
0.0
 20
0.0
 30
0.0
  9
$UCSORGBACK
 10
0.0
 20
0.0
 30
0.0
  9
$PUCSBASE
  2

  9
$PUCSNAME
  2

  9
$PUCSORG
 10
0.0
 20
0.0
 30
0.0
  9
$PUCSXDIR
 10
1.0
 20
0.0
 30
0.0
  9
$PUCSYDIR
 10
0.0
 20
1.0
 30
0.0
  9
$PUCSORTHOREF
  2

  9
$PUCSORTHOVIEW
 70
     0
  9
$PUCSORGTOP
 10
0.0
 20
0.0
 30
0.0
  9
$PUCSORGBOTTOM
 10
0.0
 20
0.0
 30
0.0
  9
$PUCSORGLEFT
 10
0.0
 20
0.0
 30
0.0
  9
$PUCSORGRIGHT
 10
0.0
 20
0.0
 30
0.0
  9
$PUCSORGFRONT
 10
0.0
 20
0.0
 30
0.0
  9
$PUCSORGBACK
 10
0.0
 20
0.0
 30
0.0
  9
$USERI1
 70
     0
  9
$USERI2
 70
     0
  9
$USERI3
 70
     0
  9
$USERI4
 70
     0
  9
$USERI5
 70
     0
  9
$USERR1
 40
0.0
  9
$USERR2
 40
0.0
  9
$USERR3
 40
0.0
  9
$USERR4
 40
0.0
  9
$USERR5
 40
0.0
  9
$WORLDVIEW
 70
     1
  9
$SHADEDGE
 70
     3
  9
$SHADEDIF
 70
    70
  9
$TILEMODE
 70
     1
  9
$MAXACTVP
 70
    64
  9
$PINSBASE
 10
0.0
 20
0.0
 30
0.0
  9
$PLIMCHECK
 70
     0
  9
$PEXTMIN
 10
1.000000000000000E+20
 20
1.000000000000000E+20
 30
1.000000000000000E+20
  9
$PEXTMAX
 10
-1.000000000000000E+20
 20
-1.000000000000000E+20
 30
-1.000000000000000E+20
  9
$PLIMMIN
 10
0.0
 20
0.0
  9
$PLIMMAX
 10
12.0
 20
9.0
  9
$UNITMODE
 70
     0
  9
$VISRETAIN
 70
     1
  9
$PLINEGEN
 70
     0
  9
$PSLTSCALE
 70
     1
  9
$TREEDEPTH
 70
  3020
  9
$CMLSTYLE
  2
Standard
  9
$CMLJUST
 70
     0
  9
$CMLSCALE
 40
1.0
  9
$PROXYGRAPHICS
 70
     1
  9
$MEASUREMENT
 70
     0
  9
$CELWEIGHT
370
    -1
  9
$ENDCAPS
280
     0
  9
$JOINSTYLE
280
     0
  9
$LWDISPLAY
290
     1
  9
$INSUNITS
 70
     1
  9
$HYPERLINKBASE
  1

  9
$STYLESHEET
  1

  9
$XEDIT
290
     1
  9
$CEPSNTYPE
380
     0
  9
$PSTYLEMODE
290
     1
  9
$FINGERPRINTGUID
  2
{B2F0A84D-F162-1E43-1FE9-B0082C5DCEDC}
  9
$VERSIONGUID
  2
{FAEB1C32-E019-11D5-929B-00C0DF256EC4}
  9
$EXTNAMES
290
     1
  9
$PSVPSCALE
 40
0.0
  9
$OLESTARTUP
290
     0
  9
$SORTENTS
280
   127
  9
$INDEXCTL
280
     0
  9
$HIDETEXT
280
     1
  9
$XCLIPFRAME
280
     2
  9
$HALOGAP
280
     0
  9
$OBSCOLOR
 70
   257
  9
$OBSLTYPE
280
     0
  9
$INTERSECTIONDISPLAY
280
     0
  9
$INTERSECTIONCOLOR
 70
   257
  9
$DIMASSOC
280
     2
  9
$PROJECTNAME
  1

  9
$CAMERADISPLAY
290
     0
  9
$LENSLENGTH
 40
50.0
  9
$CAMERAHEIGHT
 40
0.0
  9
$STEPSPERSEC
 40
2.0
  9
$STEPSIZE
 40
6.0
  9
$3DDWFPREC
 40
2.0
  9
$PSOLWIDTH
 40
0.25
  9
$PSOLHEIGHT
 40
4.0
  9
$LOFTANG1
 40
1.570796326794897
  9
$LOFTANG2
 40
1.570796326794897
  9
$LOFTMAG1
 40
0.0
  9
$LOFTMAG2
 40
0.0
  9
$LOFTPARAM
 70
     7
  9
$LOFTNORMALS
280
     1
  9
$LATITUDE
 40
37.795
  9
$LONGITUDE
 40
-122.394
  9
$NORTHDIRECTION
 40
0.0
  9
$TIMEZONE
 70
 -8000
  9
$LIGHTGLYPHDISPLAY
280
     1
  9
$TILEMODELIGHTSYNCH
280
     1
  9
$CMATERIAL
347
3C
  9
$SOLIDHIST
280
     1
  9
$SHOWHIST
280
     1
  9
$DWFFRAME
280
     2
  9
$DGNFRAME
280
     2
  9
$REALWORLDSCALE
290
     1
  9
$INTERFERECOLOR
 62
   256
  9
$CSHADOW
280
     0
  9
$SHADOWPLANELOCATION
 40
0.0
  0
ENDSEC
  0
SECTION
  2
CLASSES
  0
CLASS
  1
ACDBDICTIONARYWDFLT
  2
AcDbDictionaryWithDefault
  3
ObjectDBX Classes
 90
        0
 91
        4
280
     0
281
     0
  0
CLASS
  1
VISUALSTYLE
  2
AcDbVisualStyle
  3
ObjectDBX Classes
 90
     4095
 91
        4
280
     0
281
     0
  0
CLASS
  1
MATERIAL
  2
AcDbMaterial
  3
ObjectDBX Classes
 90
     1153
 91
        4
280
     0
281
     0
  0
CLASS
  1
SUN
  2
AcDbSun
  3
SCENEOE
 90
     1024
 91
        4
280
     0
281
     0
  0
ENDSEC
  0
SECTION
  2
TABLES
  0
TABLE
  2
VPORT
  5
8
330
0
100
AcDbSymbolTable
 70
     1
  0
VPORT
  5
29
330
8
100
AcDbSymbolTableRecord
100
AcDbViewportTableRecord
  2
*Active
 70
     0
 10
0.0
 20
0.0
 11
1.0
 21
1.0
 12
0.0
 22
0.0
 13
0.0
 23
0.0
 14
0.5
 24
0.5
 15
0.5
 25
0.5
 16
0.0
 26
0.0
 36
1.0
 17
91.00082462281999
 27
-128.4993055234307
 37
0.0
 40
256.9986110468615
 41
0.7081814508812795
 42
50.0
 43
0.0
 44
0.0
 50
0.0
 51
0.0
 71
     0
 72
   100
 73
     1
 74
     3
 75
     0
 76
     0
 77
     0
 78
     0
281
     0
 65
     1
110
0.0
120
0.0
130
0.0
111
1.0
121
0.0
131
0.0
112
0.0
122
1.0
132
0.0
 79
     0
146
0.0
 60
     3
 61
     5
292
     1
282
     1
141
0.0
142
0.0
 63
   250
361
3F
  0
ENDTAB
  0
TABLE
  2
LTYPE
  5
5
330
0
100
AcDbSymbolTable
 70
     1
  0
LTYPE
  5
14
330
5
100
AcDbSymbolTableRecord
100
AcDbLinetypeTableRecord
  2
ByBlock
 70
     0
  3

 72
    65
 73
     0
 40
0.0
  0
LTYPE
  5
15
330
5
100
AcDbSymbolTableRecord
100
AcDbLinetypeTableRecord
  2
ByLayer
 70
     0
  3

 72
    65
 73
     0
 40
0.0
  0
LTYPE
  5
16
330
5
100
AcDbSymbolTableRecord
100
AcDbLinetypeTableRecord
  2
Continuous
 70
     0
  3
Solid line
 72
    65
 73
     0
 40
0.0
  0
ENDTAB
  0
TABLE
  2
LAYER
  5
2
330
0
100
AcDbSymbolTable
 70
     2
  0
LAYER
  5
10
330
2
100
AcDbSymbolTableRecord
100
AcDbLayerTableRecord
  2
0
 70
     0
 62
     7
  6
Continuous
370
    -3
390
F
347
3E
  0
LAYER
  5
40
330
2
100
AcDbSymbolTableRecord
100
AcDbLayerTableRecord
  2
_U+30EC_U+30A4_U+30E4_U+30FC 1
 70
     0
 62
     7
  6
Continuous
370
    -3
390
F
347
3E
  0
ENDTAB
  0
TABLE
  2
STYLE
  5
3
330
0
100
AcDbSymbolTable
 70
     1
  0
STYLE
  5
11
330
3
100
AcDbSymbolTableRecord
100
AcDbTextStyleTableRecord
  2
Standard
 70
     0
 40
0.0
 41
1.0
 50
0.0
 71
     0
 42
0.2
  3
txt
  4

  0
ENDTAB
  0
TABLE
  2
VIEW
  5
6
330
0
100
AcDbSymbolTable
 70
     0
  0
ENDTAB
  0
TABLE
  2
UCS
  5
7
330
0
100
AcDbSymbolTable
 70
     0
  0
ENDTAB
  0
TABLE
  2
APPID
  5
9
330
0
100
AcDbSymbolTable
 70
     1
  0
APPID
  5
12
330
9
100
AcDbSymbolTableRecord
100
AcDbRegAppTableRecord
  2
ACAD
 70
     0
  0
ENDTAB
  0
TABLE
  2
DIMSTYLE
  5
A
330
0
100
AcDbSymbolTable
 70
     1
100
AcDbDimStyleTable
  0
DIMSTYLE
105
27
330
A
100
AcDbSymbolTableRecord
100
AcDbDimStyleTableRecord
  2
Standard
 70
     0
178
     0
340
11
  0
ENDTAB
  0
TABLE
  2
BLOCK_RECORD
  5
1
330
0
100
AcDbSymbolTable
 70
     5
  0
BLOCK_RECORD
  5
1F
330
1
100
AcDbSymbolTableRecord
100
AcDbBlockTableRecord
  2
*Model_Space
340
22
 70
     0
280
     1
281
     0
  0
BLOCK_RECORD
  5
1B
330
1
100
AcDbSymbolTableRecord
100
AcDbBlockTableRecord
  2
*Paper_Space
340
1E
 70
     0
280
     1
281
     0
  0
BLOCK_RECORD
  5
23
330
1
100
AcDbSymbolTableRecord
100
AcDbBlockTableRecord
  2
*Paper_Space0
340
26
 70
     0
280
     1
281
     0
  0
BLOCK_RECORD
  5
59
330
1
100
AcDbSymbolTableRecord
100
AcDbBlockTableRecord
  2
block 2
340
0
102
{BLKREFS
331
5A
102
}
 70
     0
280
     1
281
     0
  0
BLOCK_RECORD
  5
7D
330
1
100
AcDbSymbolTableRecord
100
AcDbBlockTableRecord
  2
block 3
340
0
102
{BLKREFS
331
7E
102
}
 70
     0
280
     1
281
     0
  0
BLOCK_RECORD
  5
84
330
1
100
AcDbSymbolTableRecord
100
AcDbBlockTableRecord
  2
block 4
340
0
102
{BLKREFS
331
85
102
}
 70
     0
280
     1
281
     0
  0
BLOCK_RECORD
  5
A8
330
1
100
AcDbSymbolTableRecord
100
AcDbBlockTableRecord
  2
block 5
340
0
102
{BLKREFS
331
A9
102
}
 70
     0
280
     1
281
     0
  0
ENDTAB
  0
ENDSEC
  0
SECTION
  2
BLOCKS
  0
BLOCK
  5
20
330
1F
100
AcDbEntity
  8
0
100
AcDbBlockBegin
  2
*Model_Space
 70
     0
 10
0.0
 20
0.0
 30
0.0
  3
*Model_Space
  1

  0
ENDBLK
  5
21
330
1F
100
AcDbEntity
  8
0
100
AcDbBlockEnd
  0
BLOCK
  5
1C
330
1B
100
AcDbEntity
 67
     1
  8
0
100
AcDbBlockBegin
  2
*Paper_Space
 70
     0
 10
0.0
 20
0.0
 30
0.0
  3
*Paper_Space
  1

  0
ENDBLK
  5
1D
330
1B
100
AcDbEntity
 67
     1
  8
0
100
AcDbBlockEnd
  0
BLOCK
  5
24
330
23
100
AcDbEntity
  8
0
100
AcDbBlockBegin
  2
*Paper_Space0
 70
     0
 10
0.0
 20
0.0
 30
0.0
  3
*Paper_Space0
  1

  0
ENDBLK
  5
25
330
23
100
AcDbEntity
  8
0
100
AcDbBlockEnd
  0
BLOCK
  5
5B
330
59
100
AcDbEntity
  8
0
100
AcDbBlockBegin
  2
block 2
 70
     0
 10
0.0
 20
0.0
 30
0.0
  3
block 2
  1

  0
POLYLINE
  5
5D
330
59
100
AcDbEntity
  8
_U+30EC_U+30A4_U+30E4_U+30FC 1
370
     0
100
AcDb2dPolyline
 66
     1
 10
0.0
 20
0.0
 30
0.0
  0
VERTEX
  5
5E
330
5D
100
AcDbEntity
  8
_U+30EC_U+30A4_U+30E4_U+30FC 1
370
     0
100
AcDbVertex
100
AcDb2dVertex
 10
90.31455618401858
 20
-137.9919216234881
 30
0.0
  0
VERTEX
  5
5F
330
5D
100
AcDbEntity
  8
_U+30EC_U+30A4_U+30E4_U+30FC 1
370
     0
100
AcDbVertex
100
AcDb2dVertex
 10
90.05341794623665
 20
-137.9919216234881
 30
0.0
  0
VERTEX
  5
60
330
5D
100
AcDbEntity
  8
_U+30EC_U+30A4_U+30E4_U+30FC 1
370
     0
100
AcDbVertex
100
AcDb2dVertex
 10
89.77815481696518
 20
-136.7182698225913
 30
0.0
  0
VERTEX
  5
61
330
5D
100
AcDbEntity
  8
_U+30EC_U+30A4_U+30E4_U+30FC 1
370
     0
100
AcDbVertex
100
AcDb2dVertex
 10
89.50478649021062
 20
-137.9919216234881
 30
0.0
  0
VERTEX
  5
62
330
5D
100
AcDbEntity
  8
_U+30EC_U+30A4_U+30E4_U+30FC 1
370
     0
100
AcDbVertex
100
AcDb2dVertex
 10
89.24364825242867
 20
-137.9919216234881
 30
0.0
  0
VERTEX
  5
63
330
5D
100
AcDbEntity
  8
_U+30EC_U+30A4_U+30E4_U+30FC 1
370
     0
100
AcDbVertex
100
AcDb2dVertex
 10
88.87433401640989
 20
-136.4474853174506
 30
0.0
  0
VERTEX
  5
64
330
5D
100
AcDbEntity
  8
_U+30EC_U+30A4_U+30E4_U+30FC 1
370
     0
100
AcDbVertex
100
AcDb2dVertex
 10
89.09878198727392
 20
-136.4474853174506
 30
0.0
  0
VERTEX
  5
65
330
5D
100
AcDbEntity
  8
_U+30EC_U+30A4_U+30E4_U+30FC 1
370
     0
100
AcDbVertex
100
AcDb2dVertex
 10
89.37421737131965
 20
-137.6977104690478
 30
0.0
  0
VERTEX
  5
66
330
5D
100
AcDbEntity
  8
_U+30EC_U+30A4_U+30E4_U+30FC 1
370
     0
100
AcDbVertex
100
AcDb2dVertex
 10
89.64345158349192
 20
-136.4474853174506
 30
0.0
  0
VERTEX
  5
67
330
5D
100
AcDbEntity
  8
_U+30EC_U+30A4_U+30E4_U+30FC 1
370
     0
100
AcDbVertex
100
AcDb2dVertex
 10
89.91268579566419
 20
-136.4474853174506
 30
0.0
  0
VERTEX
  5
68
330
5D
100
AcDbEntity
  8
_U+30EC_U+30A4_U+30E4_U+30FC 1
370
     0
100
AcDbVertex
100
AcDb2dVertex
 10
90.18209226261074
 20
-137.6977104690478
 30
0.0
  0
VERTEX
  5
69
330
5D
100
AcDbEntity
  8
_U+30EC_U+30A4_U+30E4_U+30FC 1
370
     0
100
AcDbVertex
100
AcDb2dVertex
 10
90.45942244917335
 20
-136.4474853174506
 30
0.0
  0
VERTEX
  5
6A
330
5D
100
AcDbEntity
  8
_U+30EC_U+30A4_U+30E4_U+30FC 1
370
     0
100
AcDbVertex
100
AcDb2dVertex
 10
90.68387042003737
 20
-136.4474853174506
 30
0.0
  0
VERTEX
  5
6B
330
5D
100
AcDbEntity
  8
_U+30EC_U+30A4_U+30E4_U+30FC 1
370
     0
100
AcDbVertex
100
AcDb2dVertex
 10
90.31455618401858
 20
-137.9919216234881
 30
0.0
  0
SEQEND
  5
6C
330
5D
100
AcDbEntity
  8
_U+30EC_U+30A4_U+30E4_U+30FC 1
370
     0
  0
HATCH
  5
6D
330
59
100
AcDbEntity
  8
_U+30EC_U+30A4_U+30E4_U+30FC 1
 62
   179
420
  2234388
100
AcDbHatch
 10
0.0
 20
0.0
 30
0.0
210
0.0
220
0.0
230
1.0
  2
SOLID
 70
     1
 71
     0
 91
        1
 92
        1
 93
       13
 72
     1
 10
90.31455618401858
 20
-137.9919216234881
 11
90.05341794623665
 21
-137.9919216234881
 72
     1
 10
90.05341794623665
 20
-137.9919216234881
 11
89.77815481696518
 21
-136.7182698225913
 72
     1
 10
89.77815481696518
 20
-136.7182698225913
 11
89.50478649021062
 21
-137.9919216234881
 72
     1
 10
89.50478649021062
 20
-137.9919216234881
 11
89.24364825242867
 21
-137.9919216234881
 72
     1
 10
89.24364825242867
 20
-137.9919216234881
 11
88.87433401640989
 21
-136.4474853174506
 72
     1
 10
88.87433401640989
 20
-136.4474853174506
 11
89.09878198727392
 21
-136.4474853174506
 72
     1
 10
89.09878198727392
 20
-136.4474853174506
 11
89.37421737131965
 21
-137.6977104690478
 72
     1
 10
89.37421737131965
 20
-137.6977104690478
 11
89.64345158349192
 21
-136.4474853174506
 72
     1
 10
89.64345158349192
 20
-136.4474853174506
 11
89.91268579566419
 21
-136.4474853174506
 72
     1
 10
89.91268579566419
 20
-136.4474853174506
 11
90.18209226261074
 21
-137.6977104690478
 72
     1
 10
90.18209226261074
 20
-137.6977104690478
 11
90.45942244917335
 21
-136.4474853174506
 72
     1
 10
90.45942244917335
 20
-136.4474853174506
 11
90.68387042003737
 21
-136.4474853174506
 72
     1
 10
90.68387042003737
 20
-136.4474853174506
 11
90.31455618401858
 21
-137.9919216234881
 97
        0
 75
     2
 76
     1
 98
        0
  0
ENDBLK
  5
5C
330
59
100
AcDbEntity
  8
0
100
AcDbBlockEnd
  0
BLOCK
  5
7F
330
7D
100
AcDbEntity
  8
0
100
AcDbBlockBegin
  2
block 3
 70
     0
 10
0.0
 20
0.0
 30
0.0
  3
block 3
  1

  0
SPLINE
  5
81
330
7D
100
AcDbEntity
  8
_U+30EC_U+30A4_U+30E4_U+30FC 1
370
     0
100
AcDbSpline
210
0.0
220
0.0
230
1.0
 70
    11
 71
     3
 72
    44
 73
    40
 74
     0
 42
0.0000000001
 43
0.0000000001
 12
1.0
 22
0.0
 32
0.0
 13
1.0
 23
0.0
 33
0.0
 40
0.0
 40
0.0
 40
0.0
 40
0.0
 40
1.0
 40
1.0
 40
1.0
 40
2.0
 40
2.0
 40
2.0
 40
3.0
 40
3.0
 40
3.0
 40
4.0
 40
4.0
 40
4.0
 40
5.0
 40
5.0
 40
5.0
 40
6.0
 40
6.0
 40
6.0
 40
7.0
 40
7.0
 40
7.0
 40
8.0
 40
8.0
 40
8.0
 40
9.0
 40
9.0
 40
9.0
 40
10.0
 40
10.0
 40
10.0
 40
11.0
 40
11.0
 40
11.0
 40
12.0
 40
12.0
 40
12.0
 40
13.0
 40
13.0
 40
13.0
 40
13.0
 10
76.58033852252159
 20
-134.2284993154012
 30
0.0
 10
76.73898516961734
 20
-134.4386501400014
 30
0.0
 10
76.8130547225502
 20
-134.5285671321665
 30
0.0
 10
76.95688745905939
 20
-134.5754204307659
 30
0.0
 10
76.95688745905939
 20
-134.5754204307659
 30
0.0
 10
76.95688745905939
 20
-133.8247341245299
 30
0.0
 10
76.95688745905939
 20
-133.8247341245299
 30
0.0
 10
76.95688745905939
 20
-133.8247341245299
 30
0.0
 10
77.16204289520601
 20
-133.8247341245299
 30
0.0
 10
77.16204289520601
 20
-133.8247341245299
 30
0.0
 10
77.16204289520601
 20
-133.8247341245299
 30
0.0
 10
77.16204289520601
 20
-134.8162326051848
 30
0.0
 10
77.16204289520601
 20
-134.8162326051848
 30
0.0
 10
76.80461423861135
 20
-134.7855712553661
 30
0.0
 10
76.72623831632191
 20
-134.722526007986
 30
0.0
 10
76.42806530207355
 20
-134.3511447146761
 30
0.0
 10
76.22911103780037
 20
-134.1041313683837
 30
0.0
 10
76.16141491151521
 20
-134.0410861210036
 30
0.0
 10
76.02395560165374
 20
-134.0410861210036
 30
0.0
 10
75.90544431696114
 20
-134.0410861210036
 30
0.0
 10
75.77435843374738
 20
-134.1103325402571
 30
0.0
 10
75.77435843374738
 20
-134.3001573014944
 30
0.0
 10
75.77435843374738
 20
-134.5509602528206
 30
0.0
 10
76.0048353217106
 20
-134.5592284819852
 30
0.0
 10
76.12127954911205
 20
-134.5633625965675
 30
0.0
 10
76.12127954911205
 20
-134.5633625965675
 30
0.0
 10
76.12127954911205
 20
-134.7793700834927
 30
0.0
 10
76.12127954911205
 20
-134.7793700834927
 30
0.0
 10
75.99432778048059
 20
-134.7714463638766
 30
0.0
 10
75.8821899224357
 20
-134.7611110774208
 30
0.0
 10
75.76367863774311
 20
-134.6835964290027
 30
0.0
 10
75.6029649333562
 20
-134.577487488057
 30
0.0
 10
75.5690307428265
 20
-134.3979980132755
 30
0.0
 10
75.5690307428265
 20
-134.2856879004564
 30
0.0
 10
75.5690307428265
 20
-134.018348490801
 30
0.0
 10
75.7531710965131
 20
-133.8185329526565
 30
0.0
 10
76.02602265894488
 20
-133.8185329526565
 30
0.0
 10
76.25460474439122
 20
-133.8185329526565
 30
0.0
 10
76.35399574914067
 20
-133.9308430654756
 30
0.0
 10
76.58033852252159
 20
-134.2284993154012
 30
0.0
  0
HATCH
  5
82
330
7D
100
AcDbEntity
  8
_U+30EC_U+30A4_U+30E4_U+30FC 1
 62
   179
420
  2234388
100
AcDbHatch
 10
0.0
 20
0.0
 30
0.0
210
0.0
220
0.0
230
1.0
  2
SOLID
 70
     1
 71
     0
 91
        1
 92
        1
 93
        1
 72
     4
 94
        3
 73
     0
 74
     1
 95
       44
 96
       40
 40
0.0
 40
0.0
 40
0.0
 40
0.0
 40
1.0
 40
1.0
 40
1.0
 40
2.0
 40
2.0
 40
2.0
 40
3.0
 40
3.0
 40
3.0
 40
4.0
 40
4.0
 40
4.0
 40
5.0
 40
5.0
 40
5.0
 40
6.0
 40
6.0
 40
6.0
 40
7.0
 40
7.0
 40
7.0
 40
8.0
 40
8.0
 40
8.0
 40
9.0
 40
9.0
 40
9.0
 40
10.0
 40
10.0
 40
10.0
 40
11.0
 40
11.0
 40
11.0
 40
12.0
 40
12.0
 40
12.0
 40
13.0
 40
13.0
 40
13.0
 40
13.0
 10
76.58033852252159
 20
-134.2284993154012
 10
76.73898516961734
 20
-134.4386501400014
 10
76.8130547225502
 20
-134.5285671321665
 10
76.95688745905939
 20
-134.5754204307659
 10
76.95688745905939
 20
-134.5754204307659
 10
76.95688745905939
 20
-133.8247341245299
 10
76.95688745905939
 20
-133.8247341245299
 10
76.95688745905939
 20
-133.8247341245299
 10
77.16204289520601
 20
-133.8247341245299
 10
77.16204289520601
 20
-133.8247341245299
 10
77.16204289520601
 20
-133.8247341245299
 10
77.16204289520601
 20
-134.8162326051848
 10
77.16204289520601
 20
-134.8162326051848
 10
76.80461423861135
 20
-134.7855712553661
 10
76.72623831632191
 20
-134.722526007986
 10
76.42806530207355
 20
-134.3511447146761
 10
76.22911103780037
 20
-134.1041313683837
 10
76.16141491151521
 20
-134.0410861210036
 10
76.02395560165374
 20
-134.0410861210036
 10
75.90544431696114
 20
-134.0410861210036
 10
75.77435843374738
 20
-134.1103325402571
 10
75.77435843374738
 20
-134.3001573014944
 10
75.77435843374738
 20
-134.5509602528206
 10
76.0048353217106
 20
-134.5592284819852
 10
76.12127954911205
 20
-134.5633625965675
 10
76.12127954911205
 20
-134.5633625965675
 10
76.12127954911205
 20
-134.7793700834927
 10
76.12127954911205
 20
-134.7793700834927
 10
75.99432778048059
 20
-134.7714463638766
 10
75.8821899224357
 20
-134.7611110774208
 10
75.76367863774311
 20
-134.6835964290027
 10
75.6029649333562
 20
-134.577487488057
 10
75.5690307428265
 20
-134.3979980132755
 10
75.5690307428265
 20
-134.2856879004564
 10
75.5690307428265
 20
-134.018348490801
 10
75.7531710965131
 20
-133.8185329526565
 10
76.02602265894488
 20
-133.8185329526565
 10
76.25460474439122
 20
-133.8185329526565
 10
76.35399574914067
 20
-133.9308430654756
 10
76.58033852252159
 20
-134.2284993154012
 97
        0
 97
        0
 75
     2
 76
     1
 98
        0
  0
ENDBLK
  5
80
330
7D
100
AcDbEntity
  8
0
100
AcDbBlockEnd
  0
BLOCK
  5
86
330
84
100
AcDbEntity
  8
0
100
AcDbBlockBegin
  2
block 4
 70
     0
 10
0.0
 20
0.0
 30
0.0
  3
block 4
  1

  0
SPLINE
  5
88
330
84
100
AcDbEntity
  8
_U+30EC_U+30A4_U+30E4_U+30FC 1
370
     0
100
AcDbSpline
210
0.0
220
0.0
230
1.0
 70
    11
 71
     3
 72
    56
 73
    52
 74
     0
 42
0.0000000001
 43
0.0000000001
 12
1.0
 22
0.0
 32
0.0
 13
1.0
 23
0.0
 33
0.0
 40
0.0
 40
0.0
 40
0.0
 40
0.0
 40
1.0
 40
1.0
 40
1.0
 40
2.0
 40
2.0
 40
2.0
 40
3.0
 40
3.0
 40
3.0
 40
4.0
 40
4.0
 40
4.0
 40
5.0
 40
5.0
 40
5.0
 40
6.0
 40
6.0
 40
6.0
 40
7.0
 40
7.0
 40
7.0
 40
8.0
 40
8.0
 40
8.0
 40
9.0
 40
9.0
 40
9.0
 40
10.0
 40
10.0
 40
10.0
 40
11.0
 40
11.0
 40
11.0
 40
12.0
 40
12.0
 40
12.0
 40
13.0
 40
13.0
 40
13.0
 40
14.0
 40
14.0
 40
14.0
 40
15.0
 40
15.0
 40
15.0
 40
16.0
 40
16.0
 40
16.0
 40
17.0
 40
17.0
 40
17.0
 40
17.0
 10
84.40225556700707
 20
-121.1066473764074
 30
0.0
 10
84.21656492035211
 20
-120.7977945661547
 30
0.0
 10
83.9676567715428
 20
-120.5924668752338
 30
0.0
 10
83.8799790914432
 20
-120.5270100610141
 30
0.0
 10
83.59627547823288
 20
-120.8654906924399
 30
0.0
 10
83.31687823437912
 20
-121.0177639128879
 30
0.0
 10
83.1249864158507
 20
-121.1107814909897
 30
0.0
 10
83.1249864158507
 20
-121.1107814909897
 30
0.0
 10
82.97202417630561
 20
-120.9225070227208
 30
0.0
 10
82.97202417630561
 20
-120.9225070227208
 30
0.0
 10
83.07193194537786
 20
-120.8865057748999
 30
0.0
 10
83.27812091017006
 20
-120.8103691646759
 30
0.0
 10
83.50239662625982
 20
-120.6243340084724
 30
0.0
 10
83.75750594694257
 20
-120.4126328909038
 30
0.0
 10
83.93699542172409
 20
-120.1249674178854
 30
0.0
 10
84.05533445164242
 20
-119.8119804930505
 30
0.0
 10
84.05533445164242
 20
-119.8119804930505
 30
0.0
 10
83.69222138749709
 20
-119.8119804930505
 30
0.0
 10
83.69222138749709
 20
-119.8119804930505
 30
0.0
 10
83.54528806505118
 20
-119.8119804930505
 30
0.0
 10
83.34340546961555
 20
-119.8161146076328
 30
0.0
 10
83.19853920446079
 20
-119.8352348875759
 30
0.0
 10
83.19853920446079
 20
-119.8352348875759
 30
0.0
 10
83.19853920446079
 20
-119.6237060247816
 30
0.0
 10
83.19853920446079
 20
-119.6237060247816
 30
0.0
 10
83.26382376390627
 20
-119.629907196655
 30
0.0
 10
83.51462671523245
 20
-119.6405869926593
 30
0.0
 10
83.59834253552403
 20
-119.6405869926593
 30
0.0
 10
83.59834253552403
 20
-119.6405869926593
 30
0.0
 10
83.89823809751503
 20
-119.6405869926593
 30
0.0
 10
83.89823809751503
 20
-119.6405869926593
 30
0.0
 10
84.09822589043378
 20
-119.6405869926593
 30
0.0
 10
84.12061901108791
 20
-119.6342135660116
 30
0.0
 10
84.14301213174203
 20
-119.629907196655
 30
0.0
 10
84.18590357053338
 20
-119.6237060247816
 30
0.0
 10
84.2225938374513
 20
-119.5982123181907
 30
0.0
 10
84.24309215558854
 20
-119.581331350313
 30
0.0
 10
84.24309215558854
 20
-119.581331350313
 30
0.0
 10
84.39398733784247
 20
-119.7547919079953
 30
0.0
 10
84.39398733784247
 20
-119.7547919079953
 30
0.0
 10
84.35523001363342
 20
-119.7823526718773
 30
0.0
 10
84.34299992466079
 20
-119.7928602131073
 30
0.0
 10
84.29614662606139
 20
-119.8288614609282
 30
0.0
 10
84.1716064242696
 20
-120.0763915715434
 30
0.0
 10
84.09409177585148
 20
-120.2265977347003
 30
0.0
 10
83.99418400677924
 20
-120.3724975285006
 30
0.0
 10
84.29614662606139
 20
-120.5903998179427
 30
0.0
 10
84.5164604823431
 20
-120.8759982336699
 30
0.0
 10
84.56744789552481
 20
-120.9542019011851
 30
0.0
 10
84.56744789552481
 20
-120.9542019011851
 30
0.0
 10
84.40225556700707
 20
-121.1066473764074
 30
0.0
 10
84.40225556700707
 20
-121.1066473764074
 30
0.0
  0
HATCH
  5
89
330
84
100
AcDbEntity
  8
_U+30EC_U+30A4_U+30E4_U+30FC 1
 62
   179
420
  2234388
100
AcDbHatch
 10
0.0
 20
0.0
 30
0.0
210
0.0
220
0.0
230
1.0
  2
SOLID
 70
     1
 71
     0
 91
        1
 92
        1
 93
        1
 72
     4
 94
        3
 73
     0
 74
     1
 95
       56
 96
       52
 40
0.0
 40
0.0
 40
0.0
 40
0.0
 40
1.0
 40
1.0
 40
1.0
 40
2.0
 40
2.0
 40
2.0
 40
3.0
 40
3.0
 40
3.0
 40
4.0
 40
4.0
 40
4.0
 40
5.0
 40
5.0
 40
5.0
 40
6.0
 40
6.0
 40
6.0
 40
7.0
 40
7.0
 40
7.0
 40
8.0
 40
8.0
 40
8.0
 40
9.0
 40
9.0
 40
9.0
 40
10.0
 40
10.0
 40
10.0
 40
11.0
 40
11.0
 40
11.0
 40
12.0
 40
12.0
 40
12.0
 40
13.0
 40
13.0
 40
13.0
 40
14.0
 40
14.0
 40
14.0
 40
15.0
 40
15.0
 40
15.0
 40
16.0
 40
16.0
 40
16.0
 40
17.0
 40
17.0
 40
17.0
 40
17.0
 10
84.40225556700707
 20
-121.1066473764074
 10
84.21656492035211
 20
-120.7977945661547
 10
83.9676567715428
 20
-120.5924668752338
 10
83.8799790914432
 20
-120.5270100610141
 10
83.59627547823288
 20
-120.8654906924399
 10
83.31687823437912
 20
-121.0177639128879
 10
83.1249864158507
 20
-121.1107814909897
 10
83.1249864158507
 20
-121.1107814909897
 10
82.97202417630561
 20
-120.9225070227208
 10
82.97202417630561
 20
-120.9225070227208
 10
83.07193194537786
 20
-120.8865057748999
 10
83.27812091017006
 20
-120.8103691646759
 10
83.50239662625982
 20
-120.6243340084724
 10
83.75750594694257
 20
-120.4126328909038
 10
83.93699542172409
 20
-120.1249674178854
 10
84.05533445164242
 20
-119.8119804930505
 10
84.05533445164242
 20
-119.8119804930505
 10
83.69222138749709
 20
-119.8119804930505
 10
83.69222138749709
 20
-119.8119804930505
 10
83.54528806505118
 20
-119.8119804930505
 10
83.34340546961555
 20
-119.8161146076328
 10
83.19853920446079
 20
-119.8352348875759
 10
83.19853920446079
 20
-119.8352348875759
 10
83.19853920446079
 20
-119.6237060247816
 10
83.19853920446079
 20
-119.6237060247816
 10
83.26382376390627
 20
-119.629907196655
 10
83.51462671523245
 20
-119.6405869926593
 10
83.59834253552403
 20
-119.6405869926593
 10
83.59834253552403
 20
-119.6405869926593
 10
83.89823809751503
 20
-119.6405869926593
 10
83.89823809751503
 20
-119.6405869926593
 10
84.09822589043378
 20
-119.6405869926593
 10
84.12061901108791
 20
-119.6342135660116
 10
84.14301213174203
 20
-119.629907196655
 10
84.18590357053338
 20
-119.6237060247816
 10
84.2225938374513
 20
-119.5982123181907
 10
84.24309215558854
 20
-119.581331350313
 10
84.24309215558854
 20
-119.581331350313
 10
84.39398733784247
 20
-119.7547919079953
 10
84.39398733784247
 20
-119.7547919079953
 10
84.35523001363342
 20
-119.7823526718773
 10
84.34299992466079
 20
-119.7928602131073
 10
84.29614662606139
 20
-119.8288614609282
 10
84.1716064242696
 20
-120.0763915715434
 10
84.09409177585148
 20
-120.2265977347003
 10
83.99418400677924
 20
-120.3724975285006
 10
84.29614662606139
 20
-120.5903998179427
 10
84.5164604823431
 20
-120.8759982336699
 10
84.56744789552481
 20
-120.9542019011851
 10
84.56744789552481
 20
-120.9542019011851
 10
84.40225556700707
 20
-121.1066473764074
 10
84.40225556700707
 20
-121.1066473764074
 97
        0
 97
        0
 75
     2
 76
     1
 98
        0
  0
SPLINE
  5
8A
330
84
100
AcDbEntity
  8
_U+30EC_U+30A4_U+30E4_U+30FC 1
370
     0
100
AcDbSpline
210
0.0
220
0.0
230
1.0
 70
    11
 71
     3
 72
    47
 73
    43
 74
     0
 42
0.0000000001
 43
0.0000000001
 12
1.0
 22
0.0
 32
0.0
 13
1.0
 23
0.0
 33
0.0
 40
0.0
 40
0.0
 40
0.0
 40
0.0
 40
1.0
 40
1.0
 40
1.0
 40
2.0
 40
2.0
 40
2.0
 40
3.0
 40
3.0
 40
3.0
 40
4.0
 40
4.0
 40
4.0
 40
5.0
 40
5.0
 40
5.0
 40
6.0
 40
6.0
 40
6.0
 40
7.0
 40
7.0
 40
7.0
 40
8.0
 40
8.0
 40
8.0
 40
9.0
 40
9.0
 40
9.0
 40
10.0
 40
10.0
 40
10.0
 40
11.0
 40
11.0
 40
11.0
 40
12.0
 40
12.0
 40
12.0
 40
13.0
 40
13.0
 40
13.0
 40
14.0
 40
14.0
 40
14.0
 40
14.0
 10
85.85126272810317
 20
-120.2688001543946
 30
0.0
 10
85.85126272810317
 20
-120.2688001543946
 30
0.0
 10
85.75342201632206
 20
-120.2688001543946
 30
0.0
 10
85.75342201632206
 20
-120.2688001543946
 30
0.0
 10
85.75342201632206
 20
-120.3556165606229
 30
0.0
 10
85.73292369818483
 20
-120.7449123504561
 30
0.0
 10
85.54327119172183
 20
-120.9648816971893
 30
0.0
 10
85.39633786927592
 20
-121.1340358855151
 30
0.0
 10
85.19635007635716
 20
-121.2039713238657
 30
0.0
 10
85.11470131335675
 20
-121.2313598329734
 30
0.0
 10
85.11470131335675
 20
-121.2313598329734
 30
0.0
 10
84.9271158641849
 20
-121.0642727019388
 30
0.0
 10
84.9271158641849
 20
-121.0642727019388
 30
0.0
 10
85.02099471615794
 20
-121.0515258486434
 30
0.0
 10
85.19032115925798
 20
-121.0282714541179
 30
0.0
 10
85.37187769133064
 20
-120.839996985849
 30
0.0
 10
85.44319116787531
 20
-120.7681667449816
 30
0.0
 10
85.54327119172183
 20
-120.6284681230547
 30
0.0
 10
85.54327119172183
 20
-120.2688001543946
 30
0.0
 10
85.54327119172183
 20
-120.2688001543946
 30
0.0
 10
85.32089027814895
 20
-120.2688001543946
 30
0.0
 10
85.32089027814895
 20
-120.2688001543946
 30
0.0
 10
85.14122854859316
 20
-120.2688001543946
 30
0.0
 10
84.96173907381166
 20
-120.2731065237512
 30
0.0
 10
84.78224959903014
 20
-120.2879204343377
 30
0.0
 10
84.78224959903014
 20
-120.2879204343377
 30
0.0
 10
84.78224959903014
 20
-120.0679510876045
 30
0.0
 10
84.78224959903014
 20
-120.0679510876045
 30
0.0
 10
84.9638061311028
 20
-120.0827649981911
 30
0.0
 10
85.23924151514852
 20
-120.0868991127734
 30
0.0
 10
85.32089027814895
 20
-120.0868991127734
 30
0.0
 10
85.32089027814895
 20
-120.0868991127734
 30
0.0
 10
85.85126272810317
 20
-120.0868991127734
 30
0.0
 10
85.85126272810317
 20
-120.0868991127734
 30
0.0
 10
85.86969398894925
 20
-120.0868991127734
 30
0.0
 10
86.17561846803943
 20
-120.0868991127734
 30
0.0
 10
86.39593232432117
 20
-120.0679510876045
 30
0.0
 10
86.39593232432117
 20
-120.0679510876045
 30
0.0
 10
86.39593232432117
 20
-120.2879204343377
 30
0.0
 10
86.39593232432117
 20
-120.2879204343377
 30
0.0
 10
86.21437579224849
 20
-120.2731065237512
 30
0.0
 10
86.03281926017583
 20
-120.2688001543946
 30
0.0
 10
85.85126272810317
 20
-120.2688001543946
 30
0.0
  0
SPLINE
  5
8B
330
84
100
AcDbEntity
  8
_U+30EC_U+30A4_U+30E4_U+30FC 1
370
     0
100
AcDbSpline
210
0.0
220
0.0
230
1.0
 70
    11
 71
     3
 72
    29
 73
    25
 74
     0
 42
0.0000000001
 43
0.0000000001
 12
1.0
 22
0.0
 32
0.0
 13
1.0
 23
0.0
 33
0.0
 40
0.0
 40
0.0
 40
0.0
 40
0.0
 40
1.0
 40
1.0
 40
1.0
 40
2.0
 40
2.0
 40
2.0
 40
3.0
 40
3.0
 40
3.0
 40
4.0
 40
4.0
 40
4.0
 40
5.0
 40
5.0
 40
5.0
 40
6.0
 40
6.0
 40
6.0
 40
7.0
 40
7.0
 40
7.0
 40
8.0
 40
8.0
 40
8.0
 40
8.0
 10
85.75342201632206
 20
-119.7399779974088
 30
0.0
 10
85.75342201632206
 20
-119.7399779974088
 30
0.0
 10
85.41270207283085
 20
-119.7399779974088
 30
0.0
 10
85.41270207283085
 20
-119.7399779974088
 30
0.0
 10
85.30452607459401
 20
-119.7399779974088
 30
0.0
 10
85.16982284112075
 20
-119.7463514240565
 30
0.0
 10
85.0657809574662
 20
-119.7590982773519
 30
0.0
 10
85.0657809574662
 20
-119.7590982773519
 30
0.0
 10
85.0657809574662
 20
-119.5241427652579
 30
0.0
 10
85.0657809574662
 20
-119.5241427652579
 30
0.0
 10
85.17998587280223
 20
-119.5389566758444
 30
0.0
 10
85.35758054506685
 20
-119.543263045201
 30
0.0
 10
85.41270207283085
 20
-119.543263045201
 30
0.0
 10
85.41270207283085
 20
-119.543263045201
 30
0.0
 10
85.75342201632206
 20
-119.543263045201
 30
0.0
 10
85.75342201632206
 20
-119.543263045201
 30
0.0
 10
85.77168102239389
 20
-119.543263045201
 30
0.0
 10
85.96753470073034
 20
-119.543263045201
 30
0.0
 10
86.10430499149476
 20
-119.5241427652579
 30
0.0
 10
86.10430499149476
 20
-119.5241427652579
 30
0.0
 10
86.10430499149476
 20
-119.7590982773519
 30
0.0
 10
86.10430499149476
 20
-119.7590982773519
 30
0.0
 10
85.95323755446655
 20
-119.7399779974088
 30
0.0
 10
85.76961396510274
 20
-119.7399779974088
 30
0.0
 10
85.75342201632206
 20
-119.7399779974088
 30
0.0
  0
HATCH
  5
8C
330
84
100
AcDbEntity
  8
_U+30EC_U+30A4_U+30E4_U+30FC 1
 62
   179
420
  2234388
100
AcDbHatch
 10
0.0
 20
0.0
 30
0.0
210
0.0
220
0.0
230
1.0
  2
SOLID
 70
     1
 71
     0
 91
        2
 92
        1
 93
        1
 72
     4
 94
        3
 73
     0
 74
     1
 95
       47
 96
       43
 40
0.0
 40
0.0
 40
0.0
 40
0.0
 40
1.0
 40
1.0
 40
1.0
 40
2.0
 40
2.0
 40
2.0
 40
3.0
 40
3.0
 40
3.0
 40
4.0
 40
4.0
 40
4.0
 40
5.0
 40
5.0
 40
5.0
 40
6.0
 40
6.0
 40
6.0
 40
7.0
 40
7.0
 40
7.0
 40
8.0
 40
8.0
 40
8.0
 40
9.0
 40
9.0
 40
9.0
 40
10.0
 40
10.0
 40
10.0
 40
11.0
 40
11.0
 40
11.0
 40
12.0
 40
12.0
 40
12.0
 40
13.0
 40
13.0
 40
13.0
 40
14.0
 40
14.0
 40
14.0
 40
14.0
 10
85.85126272810317
 20
-120.2688001543946
 10
85.85126272810317
 20
-120.2688001543946
 10
85.75342201632206
 20
-120.2688001543946
 10
85.75342201632206
 20
-120.2688001543946
 10
85.75342201632206
 20
-120.3556165606229
 10
85.73292369818483
 20
-120.7449123504561
 10
85.54327119172183
 20
-120.9648816971893
 10
85.39633786927592
 20
-121.1340358855151
 10
85.19635007635716
 20
-121.2039713238657
 10
85.11470131335675
 20
-121.2313598329734
 10
85.11470131335675
 20
-121.2313598329734
 10
84.9271158641849
 20
-121.0642727019388
 10
84.9271158641849
 20
-121.0642727019388
 10
85.02099471615794
 20
-121.0515258486434
 10
85.19032115925798
 20
-121.0282714541179
 10
85.37187769133064
 20
-120.839996985849
 10
85.44319116787531
 20
-120.7681667449816
 10
85.54327119172183
 20
-120.6284681230547
 10
85.54327119172183
 20
-120.2688001543946
 10
85.54327119172183
 20
-120.2688001543946
 10
85.32089027814895
 20
-120.2688001543946
 10
85.32089027814895
 20
-120.2688001543946
 10
85.14122854859316
 20
-120.2688001543946
 10
84.96173907381166
 20
-120.2731065237512
 10
84.78224959903014
 20
-120.2879204343377
 10
84.78224959903014
 20
-120.2879204343377
 10
84.78224959903014
 20
-120.0679510876045
 10
84.78224959903014
 20
-120.0679510876045
 10
84.9638061311028
 20
-120.0827649981911
 10
85.23924151514852
 20
-120.0868991127734
 10
85.32089027814895
 20
-120.0868991127734
 10
85.32089027814895
 20
-120.0868991127734
 10
85.85126272810317
 20
-120.0868991127734
 10
85.85126272810317
 20
-120.0868991127734
 10
85.86969398894925
 20
-120.0868991127734
 10
86.17561846803943
 20
-120.0868991127734
 10
86.39593232432117
 20
-120.0679510876045
 10
86.39593232432117
 20
-120.0679510876045
 10
86.39593232432117
 20
-120.2879204343377
 10
86.39593232432117
 20
-120.2879204343377
 10
86.21437579224849
 20
-120.2731065237512
 10
86.03281926017583
 20
-120.2688001543946
 10
85.85126272810317
 20
-120.2688001543946
 97
        0
 97
        0
 92
        1
 93
        1
 72
     4
 94
        3
 73
     0
 74
     1
 95
       29
 96
       25
 40
0.0
 40
0.0
 40
0.0
 40
0.0
 40
1.0
 40
1.0
 40
1.0
 40
2.0
 40
2.0
 40
2.0
 40
3.0
 40
3.0
 40
3.0
 40
4.0
 40
4.0
 40
4.0
 40
5.0
 40
5.0
 40
5.0
 40
6.0
 40
6.0
 40
6.0
 40
7.0
 40
7.0
 40
7.0
 40
8.0
 40
8.0
 40
8.0
 40
8.0
 10
85.75342201632206
 20
-119.7399779974088
 10
85.75342201632206
 20
-119.7399779974088
 10
85.41270207283085
 20
-119.7399779974088
 10
85.41270207283085
 20
-119.7399779974088
 10
85.30452607459401
 20
-119.7399779974088
 10
85.16982284112075
 20
-119.7463514240565
 10
85.0657809574662
 20
-119.7590982773519
 10
85.0657809574662
 20
-119.7590982773519
 10
85.0657809574662
 20
-119.5241427652579
 10
85.0657809574662
 20
-119.5241427652579
 10
85.17998587280223
 20
-119.5389566758444
 10
85.35758054506685
 20
-119.543263045201
 10
85.41270207283085
 20
-119.543263045201
 10
85.41270207283085
 20
-119.543263045201
 10
85.75342201632206
 20
-119.543263045201
 10
85.75342201632206
 20
-119.543263045201
 10
85.77168102239389
 20
-119.543263045201
 10
85.96753470073034
 20
-119.543263045201
 10
86.10430499149476
 20
-119.5241427652579
 10
86.10430499149476
 20
-119.5241427652579
 10
86.10430499149476
 20
-119.7590982773519
 10
86.10430499149476
 20
-119.7590982773519
 10
85.95323755446655
 20
-119.7399779974088
 10
85.76961396510274
 20
-119.7399779974088
 10
85.75342201632206
 20
-119.7399779974088
 97
        0
 97
        0
 75
     2
 76
     1
 98
        0
  0
SPLINE
  5
8D
330
84
100
AcDbEntity
  8
_U+30EC_U+30A4_U+30E4_U+30FC 1
370
     0
100
AcDbSpline
210
0.0
220
0.0
230
1.0
 70
    11
 71
     3
 72
    26
 73
    22
 74
     0
 42
0.0000000001
 43
0.0000000001
 12
1.0
 22
0.0
 32
0.0
 13
1.0
 23
0.0
 33
0.0
 40
0.0
 40
0.0
 40
0.0
 40
0.0
 40
1.0
 40
1.0
 40
1.0
 40
2.0
 40
2.0
 40
2.0
 40
3.0
 40
3.0
 40
3.0
 40
4.0
 40
4.0
 40
4.0
 40
5.0
 40
5.0
 40
5.0
 40
6.0
 40
6.0
 40
6.0
 40
7.0
 40
7.0
 40
7.0
 40
7.0
 10
86.84741208766314
 20
-121.0895941537554
 30
0.0
 10
86.84345022785512
 20
-121.0982068924685
 30
0.0
 10
86.83311494139936
 20
-121.131968828224
 30
0.0
 10
86.82915308159133
 20
-121.1383422548717
 30
0.0
 10
86.82501896700903
 20
-121.1467827388105
 30
0.0
 10
86.81692299261869
 20
-121.1510891081671
 30
0.0
 10
86.80658770616294
 20
-121.1510891081671
 30
0.0
 10
86.79246281467341
 20
-121.1510891081671
 30
0.0
 10
86.78626164279997
 20
-121.142476369454
 30
0.0
 10
86.76386852214584
 20
-121.1002739497597
 30
0.0
 10
86.76386852214584
 20
-121.1002739497597
 30
0.0
 10
86.65362546661785
 20
-120.8803046030265
 30
0.0
 10
86.65362546661785
 20
-120.8803046030265
 30
0.0
 10
86.96781817487263
 20
-120.8358628712667
 30
0.0
 10
87.7023125323279
 20
-120.5035834117144
 30
0.0
 10
88.0898857744185
 20
-119.9854410507328
 30
0.0
 10
88.0898857744185
 20
-119.9854410507328
 30
0.0
 10
88.17153453741892
 20
-120.1905964868794
 30
0.0
 10
88.17153453741892
 20
-120.1905964868794
 30
0.0
 10
87.77173120635568
 20
-120.6792832814621
 30
0.0
 10
87.12904864358232
 20
-120.9648816971893
 30
0.0
 10
86.84741208766314
 20
-121.0895941537554
 30
0.0
  0
SPLINE
  5
8E
330
84
100
AcDbEntity
  8
_U+30EC_U+30A4_U+30E4_U+30FC 1
370
     0
100
AcDbSpline
210
0.0
220
0.0
230
1.0
 70
    11
 71
     3
 72
    17
 73
    13
 74
     0
 42
0.0000000001
 43
0.0000000001
 12
1.0
 22
0.0
 32
0.0
 13
1.0
 23
0.0
 33
0.0
 40
0.0
 40
0.0
 40
0.0
 40
0.0
 40
1.0
 40
1.0
 40
1.0
 40
2.0
 40
2.0
 40
2.0
 40
3.0
 40
3.0
 40
3.0
 40
4.0
 40
4.0
 40
4.0
 40
4.0
 10
87.13111570087348
 20
-119.998015649254
 30
0.0
 10
86.9964124674002
 20
-119.8648627087491
 30
0.0
 10
86.78626164279997
 20
-119.7504855386388
 30
0.0
 10
86.68635387372773
 20
-119.7060438068791
 30
0.0
 10
86.68635387372773
 20
-119.7060438068791
 30
0.0
 10
86.7984917317726
 20
-119.515702281319
 30
0.0
 10
86.7984917317726
 20
-119.515702281319
 30
0.0
 10
87.10252140834591
 20
-119.6659084444759
 30
0.0
 10
87.19433320302781
 20
-119.7568589652865
 30
0.0
 10
87.24738767350065
 20
-119.8097411809851
 30
0.0
 10
87.24738767350065
 20
-119.8097411809851
 30
0.0
 10
87.13111570087348
 20
-119.998015649254
 30
0.0
 10
87.13111570087348
 20
-119.998015649254
 30
0.0
  0
HATCH
  5
8F
330
84
100
AcDbEntity
  8
_U+30EC_U+30A4_U+30E4_U+30FC 1
 62
   179
420
  2234388
100
AcDbHatch
 10
0.0
 20
0.0
 30
0.0
210
0.0
220
0.0
230
1.0
  2
SOLID
 70
     1
 71
     0
 91
        2
 92
        1
 93
        1
 72
     4
 94
        3
 73
     0
 74
     1
 95
       26
 96
       22
 40
0.0
 40
0.0
 40
0.0
 40
0.0
 40
1.0
 40
1.0
 40
1.0
 40
2.0
 40
2.0
 40
2.0
 40
3.0
 40
3.0
 40
3.0
 40
4.0
 40
4.0
 40
4.0
 40
5.0
 40
5.0
 40
5.0
 40
6.0
 40
6.0
 40
6.0
 40
7.0
 40
7.0
 40
7.0
 40
7.0
 10
86.84741208766314
 20
-121.0895941537554
 10
86.84345022785512
 20
-121.0982068924685
 10
86.83311494139936
 20
-121.131968828224
 10
86.82915308159133
 20
-121.1383422548717
 10
86.82501896700903
 20
-121.1467827388105
 10
86.81692299261869
 20
-121.1510891081671
 10
86.80658770616294
 20
-121.1510891081671
 10
86.79246281467341
 20
-121.1510891081671
 10
86.78626164279997
 20
-121.142476369454
 10
86.76386852214584
 20
-121.1002739497597
 10
86.76386852214584
 20
-121.1002739497597
 10
86.65362546661785
 20
-120.8803046030265
 10
86.65362546661785
 20
-120.8803046030265
 10
86.96781817487263
 20
-120.8358628712667
 10
87.7023125323279
 20
-120.5035834117144
 10
88.0898857744185
 20
-119.9854410507328
 10
88.0898857744185
 20
-119.9854410507328
 10
88.17153453741892
 20
-120.1905964868794
 10
88.17153453741892
 20
-120.1905964868794
 10
87.77173120635568
 20
-120.6792832814621
 10
87.12904864358232
 20
-120.9648816971893
 10
86.84741208766314
 20
-121.0895941537554
 97
        0
 97
        0
 92
        1
 93
        1
 72
     4
 94
        3
 73
     0
 74
     1
 95
       17
 96
       13
 40
0.0
 40
0.0
 40
0.0
 40
0.0
 40
1.0
 40
1.0
 40
1.0
 40
2.0
 40
2.0
 40
2.0
 40
3.0
 40
3.0
 40
3.0
 40
4.0
 40
4.0
 40
4.0
 40
4.0
 10
87.13111570087348
 20
-119.998015649254
 10
86.9964124674002
 20
-119.8648627087491
 10
86.78626164279997
 20
-119.7504855386388
 10
86.68635387372773
 20
-119.7060438068791
 10
86.68635387372773
 20
-119.7060438068791
 10
86.7984917317726
 20
-119.515702281319
 10
86.7984917317726
 20
-119.515702281319
 10
87.10252140834591
 20
-119.6659084444759
 10
87.19433320302781
 20
-119.7568589652865
 10
87.24738767350065
 20
-119.8097411809851
 10
87.24738767350065
 20
-119.8097411809851
 10
87.13111570087348
 20
-119.998015649254
 10
87.13111570087348
 20
-119.998015649254
 97
        0
 97
        0
 75
     2
 76
     1
 98
        0
  0
SPLINE
  5
90
330
84
100
AcDbEntity
  8
_U+30EC_U+30A4_U+30E4_U+30FC 1
370
     0
100
AcDbSpline
210
0.0
220
0.0
230
1.0
 70
    11
 71
     3
 72
    44
 73
    40
 74
     0
 42
0.0000000001
 43
0.0000000001
 12
1.0
 22
0.0
 32
0.0
 13
1.0
 23
0.0
 33
0.0
 40
0.0
 40
0.0
 40
0.0
 40
0.0
 40
1.0
 40
1.0
 40
1.0
 40
2.0
 40
2.0
 40
2.0
 40
3.0
 40
3.0
 40
3.0
 40
4.0
 40
4.0
 40
4.0
 40
5.0
 40
5.0
 40
5.0
 40
6.0
 40
6.0
 40
6.0
 40
7.0
 40
7.0
 40
7.0
 40
8.0
 40
8.0
 40
8.0
 40
9.0
 40
9.0
 40
9.0
 40
10.0
 40
10.0
 40
10.0
 40
11.0
 40
11.0
 40
11.0
 40
12.0
 40
12.0
 40
12.0
 40
13.0
 40
13.0
 40
13.0
 40
13.0
 10
88.57822805945267
 20
-121.1066473764074
 30
0.0
 10
88.57822805945267
 20
-121.1066473764074
 30
0.0
 10
88.451793055144
 20
-121.0093234289491
 30
0.0
 10
88.451793055144
 20
-121.0093234289491
 30
0.0
 10
88.45575491495204
 20
-120.9605753278328
 30
0.0
 10
88.45988902953434
 20
-120.9245740800119
 30
0.0
 10
88.46195608682548
 20
-120.7998616234459
 30
0.0
 10
88.46195608682548
 20
-120.7617933183339
 30
0.0
 10
88.45988902953434
 20
-120.6009073591727
 30
0.0
 10
88.45988902953434
 20
-120.5671454234172
 30
0.0
 10
88.45988902953434
 20
-120.5671454234172
 30
0.0
 10
88.45988902953434
 20
-120.0508978649526
 30
0.0
 10
88.45988902953434
 20
-120.0508978649526
 30
0.0
 10
88.45988902953434
 20
-119.949439802912
 30
0.0
 10
88.45575491495204
 20
-119.6595350178282
 30
0.0
 10
88.44559188327055
 20
-119.5685844970176
 30
0.0
 10
88.44559188327055
 20
-119.5685844970176
 30
0.0
 10
88.68020288581606
 20
-119.6066528021296
 30
0.0
 10
88.68020288581606
 20
-119.6066528021296
 30
0.0
 10
88.70879717834364
 20
-119.6109591714862
 30
0.0
 10
88.73739147087122
 20
-119.6173325981339
 30
0.0
 10
88.73739147087122
 20
-119.6595350178282
 30
0.0
 10
88.73739147087122
 20
-119.6827894123536
 30
0.0
 10
88.73119029899776
 20
-119.6870957817102
 30
0.0
 10
88.68433700039836
 20
-119.723097029531
 30
0.0
 10
88.67210691142573
 20
-119.8309285182194
 30
0.0
 10
88.66590573955227
 20
-119.8710638806225
 30
0.0
 10
88.66590573955227
 20
-120.2307318492826
 30
0.0
 10
88.66590573955227
 20
-120.2307318492826
 30
0.0
 10
88.66590573955227
 20
-120.8231160179713
 30
0.0
 10
88.66590573955227
 20
-120.8231160179713
 30
0.0
 10
88.92911103462536
 20
-120.7829806555682
 30
0.0
 10
89.45552162477154
 20
-120.4698214759589
 30
0.0
 10
89.74525415508106
 20
-120.063644718248
 30
0.0
 10
89.74525415508106
 20
-120.063644718248
 30
0.0
 10
89.81053871452653
 20
-120.3132418861543
 30
0.0
 10
89.81053871452653
 20
-120.3132418861543
 30
0.0
 10
89.52683510131621
 20
-120.687723765401
 30
0.0
 10
88.9923285367797
 20
-120.9922702062971
 30
0.0
 10
88.57822805945267
 20
-121.1066473764074
 30
0.0
  0
HATCH
  5
91
330
84
100
AcDbEntity
  8
_U+30EC_U+30A4_U+30E4_U+30FC 1
 62
   179
420
  2234388
100
AcDbHatch
 10
0.0
 20
0.0
 30
0.0
210
0.0
220
0.0
230
1.0
  2
SOLID
 70
     1
 71
     0
 91
        1
 92
        1
 93
        1
 72
     4
 94
        3
 73
     0
 74
     1
 95
       44
 96
       40
 40
0.0
 40
0.0
 40
0.0
 40
0.0
 40
1.0
 40
1.0
 40
1.0
 40
2.0
 40
2.0
 40
2.0
 40
3.0
 40
3.0
 40
3.0
 40
4.0
 40
4.0
 40
4.0
 40
5.0
 40
5.0
 40
5.0
 40
6.0
 40
6.0
 40
6.0
 40
7.0
 40
7.0
 40
7.0
 40
8.0
 40
8.0
 40
8.0
 40
9.0
 40
9.0
 40
9.0
 40
10.0
 40
10.0
 40
10.0
 40
11.0
 40
11.0
 40
11.0
 40
12.0
 40
12.0
 40
12.0
 40
13.0
 40
13.0
 40
13.0
 40
13.0
 10
88.57822805945267
 20
-121.1066473764074
 10
88.57822805945267
 20
-121.1066473764074
 10
88.451793055144
 20
-121.0093234289491
 10
88.451793055144
 20
-121.0093234289491
 10
88.45575491495204
 20
-120.9605753278328
 10
88.45988902953434
 20
-120.9245740800119
 10
88.46195608682548
 20
-120.7998616234459
 10
88.46195608682548
 20
-120.7617933183339
 10
88.45988902953434
 20
-120.6009073591727
 10
88.45988902953434
 20
-120.5671454234172
 10
88.45988902953434
 20
-120.5671454234172
 10
88.45988902953434
 20
-120.0508978649526
 10
88.45988902953434
 20
-120.0508978649526
 10
88.45988902953434
 20
-119.949439802912
 10
88.45575491495204
 20
-119.6595350178282
 10
88.44559188327055
 20
-119.5685844970176
 10
88.44559188327055
 20
-119.5685844970176
 10
88.68020288581606
 20
-119.6066528021296
 10
88.68020288581606
 20
-119.6066528021296
 10
88.70879717834364
 20
-119.6109591714862
 10
88.73739147087122
 20
-119.6173325981339
 10
88.73739147087122
 20
-119.6595350178282
 10
88.73739147087122
 20
-119.6827894123536
 10
88.73119029899776
 20
-119.6870957817102
 10
88.68433700039836
 20
-119.723097029531
 10
88.67210691142573
 20
-119.8309285182194
 10
88.66590573955227
 20
-119.8710638806225
 10
88.66590573955227
 20
-120.2307318492826
 10
88.66590573955227
 20
-120.2307318492826
 10
88.66590573955227
 20
-120.8231160179713
 10
88.66590573955227
 20
-120.8231160179713
 10
88.92911103462536
 20
-120.7829806555682
 10
89.45552162477154
 20
-120.4698214759589
 10
89.74525415508106
 20
-120.063644718248
 10
89.74525415508106
 20
-120.063644718248
 10
89.81053871452653
 20
-120.3132418861543
 10
89.81053871452653
 20
-120.3132418861543
 10
89.52683510131621
 20
-120.687723765401
 10
88.9923285367797
 20
-120.9922702062971
 10
88.57822805945267
 20
-121.1066473764074
 97
        0
 97
        0
 75
     2
 76
     1
 98
        0
  0
SPLINE
  5
92
330
84
100
AcDbEntity
  8
_U+30EC_U+30A4_U+30E4_U+30FC 1
370
     0
100
AcDbSpline
210
0.0
220
0.0
230
1.0
 70
    11
 71
     3
 72
    56
 73
    52
 74
     0
 42
0.0000000001
 43
0.0000000001
 12
1.0
 22
0.0
 32
0.0
 13
1.0
 23
0.0
 33
0.0
 40
0.0
 40
0.0
 40
0.0
 40
0.0
 40
1.0
 40
1.0
 40
1.0
 40
2.0
 40
2.0
 40
2.0
 40
3.0
 40
3.0
 40
3.0
 40
4.0
 40
4.0
 40
4.0
 40
5.0
 40
5.0
 40
5.0
 40
6.0
 40
6.0
 40
6.0
 40
7.0
 40
7.0
 40
7.0
 40
8.0
 40
8.0
 40
8.0
 40
9.0
 40
9.0
 40
9.0
 40
10.0
 40
10.0
 40
10.0
 40
11.0
 40
11.0
 40
11.0
 40
12.0
 40
12.0
 40
12.0
 40
13.0
 40
13.0
 40
13.0
 40
14.0
 40
14.0
 40
14.0
 40
15.0
 40
15.0
 40
15.0
 40
16.0
 40
16.0
 40
16.0
 40
17.0
 40
17.0
 40
17.0
 40
17.0
 10
91.38804793722244
 20
-121.1066473764074
 30
0.0
 10
91.20252954534173
 20
-120.7977945661547
 30
0.0
 10
90.95362139653243
 20
-120.5924668752338
 30
0.0
 10
90.86594371643282
 20
-120.5270100610141
 30
0.0
 10
90.58241235799676
 20
-120.8654906924399
 30
0.0
 10
90.30284285936874
 20
-121.0177639128879
 30
0.0
 10
90.11112329561459
 20
-121.1107814909897
 30
0.0
 10
90.11112329561459
 20
-121.1107814909897
 30
0.0
 10
89.95798880129523
 20
-120.9225070227208
 30
0.0
 10
89.95798880129523
 20
-120.9225070227208
 30
0.0
 10
90.05806882514173
 20
-120.8865057748999
 30
0.0
 10
90.26408553515968
 20
-120.8103691646759
 30
0.0
 10
90.4885335060237
 20
-120.6243340084724
 30
0.0
 10
90.74347057193219
 20
-120.4126328909038
 30
0.0
 10
90.92296004671371
 20
-120.1249674178854
 30
0.0
 10
91.04129907663204
 20
-119.8119804930505
 30
0.0
 10
91.04129907663204
 20
-119.8119804930505
 30
0.0
 10
90.6781860124867
 20
-119.8119804930505
 30
0.0
 10
90.6781860124867
 20
-119.8119804930505
 30
0.0
 10
90.5312526900408
 20
-119.8119804930505
 30
0.0
 10
90.32937009460517
 20
-119.8161146076328
 30
0.0
 10
90.1845038294504
 20
-119.8352348875759
 30
0.0
 10
90.1845038294504
 20
-119.8352348875759
 30
0.0
 10
90.1845038294504
 20
-119.6237060247816
 30
0.0
 10
90.1845038294504
 20
-119.6237060247816
 30
0.0
 10
90.2497883888959
 20
-119.629907196655
 30
0.0
 10
90.50076359499634
 20
-119.6405869926593
 30
0.0
 10
90.58430716051365
 20
-119.6405869926593
 30
0.0
 10
90.58430716051365
 20
-119.6405869926593
 30
0.0
 10
90.88420272250465
 20
-119.6405869926593
 30
0.0
 10
90.88420272250465
 20
-119.6405869926593
 30
0.0
 10
91.0841905154234
 20
-119.6405869926593
 30
0.0
 10
91.10658363607753
 20
-119.6342135660116
 30
0.0
 10
91.12914901150592
 20
-119.629907196655
 30
0.0
 10
91.171868195523
 20
-119.6237060247816
 30
0.0
 10
91.20873071721519
 20
-119.5982123181907
 30
0.0
 10
91.22905678057816
 20
-119.581331350313
 30
0.0
 10
91.22905678057816
 20
-119.581331350313
 30
0.0
 10
91.38012421760637
 20
-119.7547919079953
 30
0.0
 10
91.38012421760637
 20
-119.7547919079953
 30
0.0
 10
91.34119463862304
 20
-119.7823526718773
 30
0.0
 10
91.32896454965041
 20
-119.7928602131073
 30
0.0
 10
91.282111251051
 20
-119.8288614609282
 30
0.0
 10
91.15757104925922
 20
-120.0763915715434
 30
0.0
 10
91.0800564008411
 20
-120.2265977347003
 30
0.0
 10
90.98014863176886
 20
-120.3724975285006
 30
0.0
 10
91.282111251051
 20
-120.5903998179427
 30
0.0
 10
91.50242510733273
 20
-120.8759982336699
 30
0.0
 10
91.55341252051443
 20
-120.9542019011851
 30
0.0
 10
91.55341252051443
 20
-120.9542019011851
 30
0.0
 10
91.38804793722244
 20
-121.1066473764074
 30
0.0
 10
91.38804793722244
 20
-121.1066473764074
 30
0.0
  0
HATCH
  5
93
330
84
100
AcDbEntity
  8
_U+30EC_U+30A4_U+30E4_U+30FC 1
 62
   179
420
  2234388
100
AcDbHatch
 10
0.0
 20
0.0
 30
0.0
210
0.0
220
0.0
230
1.0
  2
SOLID
 70
     1
 71
     0
 91
        1
 92
        1
 93
        1
 72
     4
 94
        3
 73
     0
 74
     1
 95
       56
 96
       52
 40
0.0
 40
0.0
 40
0.0
 40
0.0
 40
1.0
 40
1.0
 40
1.0
 40
2.0
 40
2.0
 40
2.0
 40
3.0
 40
3.0
 40
3.0
 40
4.0
 40
4.0
 40
4.0
 40
5.0
 40
5.0
 40
5.0
 40
6.0
 40
6.0
 40
6.0
 40
7.0
 40
7.0
 40
7.0
 40
8.0
 40
8.0
 40
8.0
 40
9.0
 40
9.0
 40
9.0
 40
10.0
 40
10.0
 40
10.0
 40
11.0
 40
11.0
 40
11.0
 40
12.0
 40
12.0
 40
12.0
 40
13.0
 40
13.0
 40
13.0
 40
14.0
 40
14.0
 40
14.0
 40
15.0
 40
15.0
 40
15.0
 40
16.0
 40
16.0
 40
16.0
 40
17.0
 40
17.0
 40
17.0
 40
17.0
 10
91.38804793722244
 20
-121.1066473764074
 10
91.20252954534173
 20
-120.7977945661547
 10
90.95362139653243
 20
-120.5924668752338
 10
90.86594371643282
 20
-120.5270100610141
 10
90.58241235799676
 20
-120.8654906924399
 10
90.30284285936874
 20
-121.0177639128879
 10
90.11112329561459
 20
-121.1107814909897
 10
90.11112329561459
 20
-121.1107814909897
 10
89.95798880129523
 20
-120.9225070227208
 10
89.95798880129523
 20
-120.9225070227208
 10
90.05806882514173
 20
-120.8865057748999
 10
90.26408553515968
 20
-120.8103691646759
 10
90.4885335060237
 20
-120.6243340084724
 10
90.74347057193219
 20
-120.4126328909038
 10
90.92296004671371
 20
-120.1249674178854
 10
91.04129907663204
 20
-119.8119804930505
 10
91.04129907663204
 20
-119.8119804930505
 10
90.6781860124867
 20
-119.8119804930505
 10
90.6781860124867
 20
-119.8119804930505
 10
90.5312526900408
 20
-119.8119804930505
 10
90.32937009460517
 20
-119.8161146076328
 10
90.1845038294504
 20
-119.8352348875759
 10
90.1845038294504
 20
-119.8352348875759
 10
90.1845038294504
 20
-119.6237060247816
 10
90.1845038294504
 20
-119.6237060247816
 10
90.2497883888959
 20
-119.629907196655
 10
90.50076359499634
 20
-119.6405869926593
 10
90.58430716051365
 20
-119.6405869926593
 10
90.58430716051365
 20
-119.6405869926593
 10
90.88420272250465
 20
-119.6405869926593
 10
90.88420272250465
 20
-119.6405869926593
 10
91.0841905154234
 20
-119.6405869926593
 10
91.10658363607753
 20
-119.6342135660116
 10
91.12914901150592
 20
-119.629907196655
 10
91.171868195523
 20
-119.6237060247816
 10
91.20873071721519
 20
-119.5982123181907
 10
91.22905678057816
 20
-119.581331350313
 10
91.22905678057816
 20
-119.581331350313
 10
91.38012421760637
 20
-119.7547919079953
 10
91.38012421760637
 20
-119.7547919079953
 10
91.34119463862304
 20
-119.7823526718773
 10
91.32896454965041
 20
-119.7928602131073
 10
91.282111251051
 20
-119.8288614609282
 10
91.15757104925922
 20
-120.0763915715434
 10
91.0800564008411
 20
-120.2265977347003
 10
90.98014863176886
 20
-120.3724975285006
 10
91.282111251051
 20
-120.5903998179427
 10
91.50242510733273
 20
-120.8759982336699
 10
91.55341252051443
 20
-120.9542019011851
 10
91.55341252051443
 20
-120.9542019011851
 10
91.38804793722244
 20
-121.1066473764074
 10
91.38804793722244
 20
-121.1066473764074
 97
        0
 97
        0
 75
     2
 76
     1
 98
        0
  0
SPLINE
  5
94
330
84
100
AcDbEntity
  8
_U+30EC_U+30A4_U+30E4_U+30FC 1
370
     0
100
AcDbSpline
210
0.0
220
0.0
230
1.0
 70
    11
 71
     3
 72
   104
 73
   100
 74
     0
 42
0.0000000001
 43
0.0000000001
 12
1.0
 22
0.0
 32
0.0
 13
1.0
 23
0.0
 33
0.0
 40
0.0
 40
0.0
 40
0.0
 40
0.0
 40
1.0
 40
1.0
 40
1.0
 40
2.0
 40
2.0
 40
2.0
 40
3.0
 40
3.0
 40
3.0
 40
4.0
 40
4.0
 40
4.0
 40
5.0
 40
5.0
 40
5.0
 40
6.0
 40
6.0
 40
6.0
 40
7.0
 40
7.0
 40
7.0
 40
8.0
 40
8.0
 40
8.0
 40
9.0
 40
9.0
 40
9.0
 40
10.0
 40
10.0
 40
10.0
 40
11.0
 40
11.0
 40
11.0
 40
12.0
 40
12.0
 40
12.0
 40
13.0
 40
13.0
 40
13.0
 40
14.0
 40
14.0
 40
14.0
 40
15.0
 40
15.0
 40
15.0
 40
16.0
 40
16.0
 40
16.0
 40
17.0
 40
17.0
 40
17.0
 40
18.0
 40
18.0
 40
18.0
 40
19.0
 40
19.0
 40
19.0
 40
20.0
 40
20.0
 40
20.0
 40
21.0
 40
21.0
 40
21.0
 40
22.0
 40
22.0
 40
22.0
 40
23.0
 40
23.0
 40
23.0
 40
24.0
 40
24.0
 40
24.0
 40
25.0
 40
25.0
 40
25.0
 40
26.0
 40
26.0
 40
26.0
 40
27.0
 40
27.0
 40
27.0
 40
28.0
 40
28.0
 40
28.0
 40
29.0
 40
29.0
 40
29.0
 40
30.0
 40
30.0
 40
30.0
 40
31.0
 40
31.0
 40
31.0
 40
32.0
 40
32.0
 40
32.0
 40
33.0
 40
33.0
 40
33.0
 40
33.0
 10
93.2105034489196
 20
-119.7568589652865
 30
0.0
 10
93.24116479873832
 20
-119.8140475503416
 30
0.0
 10
93.2697590912659
 20
-119.8901841605657
 30
0.0
 10
93.28595104004657
 20
-119.9747612547285
 30
0.0
 10
93.28595104004657
 20
-119.9747612547285
 30
0.0
 10
93.11059567984735
 20
-120.0424573810137
 30
0.0
 10
93.11059567984735
 20
-120.0424573810137
 30
0.0
 10
93.08613550190208
 20
-119.9282524656777
 30
0.0
 10
93.07166610086404
 20
-119.8626233966837
 30
0.0
 10
93.0148220253574
 20
-119.7568589652865
 30
0.0
 10
93.0148220253574
 20
-119.7568589652865
 30
0.0
 10
92.89837779795596
 20
-119.7568589652865
 30
0.0
 10
92.89837779795596
 20
-119.7568589652865
 30
0.0
 10
92.81259492037324
 20
-119.9218790390299
 30
0.0
 10
92.7760769082296
 20
-119.9642537134985
 30
0.0
 10
92.74748261570203
 20
-119.998015649254
 30
0.0
 10
92.74748261570203
 20
-119.998015649254
 30
0.0
 10
92.55145668259131
 20
-119.9261854083865
 30
0.0
 10
92.55145668259131
 20
-119.9261854083865
 30
0.0
 10
92.59038626157464
 20
-119.8901841605657
 30
0.0
 10
92.6534315089547
 20
-119.8329955755105
 30
0.0
 10
92.69856225981148
 20
-119.7652994492254
 30
0.0
 10
92.64550778933862
 20
-119.7632323919342
 30
0.0
 10
92.48014320604663
 20
-119.7632323919342
 30
0.0
 10
92.41882050640919
 20
-119.7632323919342
 30
0.0
 10
92.41882050640919
 20
-119.7632323919342
 30
0.0
 10
92.39057072343014
 20
-119.7632323919342
 30
0.0
 10
92.39057072343014
 20
-119.7632323919342
 30
0.0
 10
92.42502167828263
 20
-119.8329955755105
 30
0.0
 10
92.46808537184826
 20
-119.9303195229688
 30
0.0
 10
92.49254554979353
 20
-120.0107625025494
 30
0.0
 10
92.49254554979353
 20
-120.0107625025494
 30
0.0
 10
92.31684568004579
 20
-120.0848320554823
 30
0.0
 10
92.31684568004579
 20
-120.0848320554823
 30
0.0
 10
92.30065373126511
 20
-120.025576413136
 30
0.0
 10
92.26792532415524
 20
-119.9113714977999
 30
0.0
 10
92.19454479031943
 20
-119.7632323919342
 30
0.0
 10
92.19454479031943
 20
-119.7632323919342
 30
0.0
 10
92.08843584937372
 20
-119.7632323919342
 30
0.0
 10
92.08843584937372
 20
-119.7632323919342
 30
0.0
 10
92.08223467750028
 20
-119.7696058185819
 30
0.0
 10
91.99059513759263
 20
-119.8796766193356
 30
0.0
 10
91.89861108813646
 20
-119.9620144014331
 30
0.0
 10
91.89861108813646
 20
-119.9620144014331
 30
0.0
 10
91.7129204414815
 20
-119.8626233966837
 30
0.0
 10
91.7129204414815
 20
-119.8626233966837
 30
0.0
 10
91.80283743364652
 20
-119.8097411809851
 30
0.0
 10
91.88035208206463
 20
-119.7356716280522
 30
0.0
 10
91.947531444027
 20
-119.6531615911805
 30
0.0
 10
92.03124726431858
 20
-119.5496364718487
 30
0.0
 10
92.07017684330191
 20
-119.4480061550338
 30
0.0
 10
92.10290525041178
 20
-119.3529215196409
 30
0.0
 10
92.10290525041178
 20
-119.3529215196409
 30
0.0
 10
92.28825138751822
 20
-119.4352593017384
 30
0.0
 10
92.28825138751822
 20
-119.4352593017384
 30
0.0
 10
92.30272078855627
 20
-119.4416327283861
 30
0.0
 10
92.31271156546349
 20
-119.450073212325
 30
0.0
 10
92.31271156546349
 20
-119.4607530083293
 30
0.0
 10
92.31271156546349
 20
-119.4819403455635
 30
0.0
 10
92.28825138751822
 20
-119.4860744601458
 30
0.0
 10
92.26000160453917
 20
-119.4903808295024
 30
0.0
 10
92.22520614013814
 20
-119.5517035291399
 30
0.0
 10
92.21280379639124
 20
-119.5728908663741
 30
0.0
 10
92.19454479031943
 20
-119.6025186875473
 30
0.0
 10
92.19454479031943
 20
-119.6025186875473
 30
0.0
 10
92.41882050640919
 20
-119.6025186875473
 30
0.0
 10
92.41882050640919
 20
-119.6025186875473
 30
0.0
 10
92.4660183145571
 20
-119.6025186875473
 30
0.0
 10
92.66790090999275
 20
-119.5961452608996
 30
0.0
 10
92.71062009400985
 20
-119.5940782036084
 30
0.0
 10
92.71062009400985
 20
-119.5940782036084
 30
0.0
 10
92.71062009400985
 20
-119.7463514240565
 30
0.0
 10
92.71062009400985
 20
-119.7463514240565
 30
0.0
 10
92.75161673028433
 20
-119.6765882404802
 30
0.0
 10
92.82499726412014
 20
-119.4903808295024
 30
0.0
 10
92.84739038477427
 20
-119.363429060871
 30
0.0
 10
92.84739038477427
 20
-119.363429060871
 30
0.0
 10
93.03514808872039
 20
-119.429058129865
 30
0.0
 10
93.03514808872039
 20
-119.429058129865
 30
0.0
 10
93.05134003750106
 20
-119.4352593017384
 30
0.0
 10
93.0658094385391
 20
-119.439565671095
 30
0.0
 10
93.0658094385391
 20
-119.4543795816816
 30
0.0
 10
93.0658094385391
 20
-119.4755669189158
 30
0.0
 10
93.03928220330269
 20
-119.4797010334981
 30
0.0
 10
93.01688908264856
 20
-119.4840074028547
 30
0.0
 10
93.00448673890166
 20
-119.515702281319
 30
0.0
 10
92.99036184741213
 20
-119.5496364718487
 30
0.0
 10
92.96762421720949
 20
-119.6045857448384
 30
0.0
 10
92.96762421720949
 20
-119.6045857448384
 30
0.0
 10
93.22669539770027
 20
-119.6045857448384
 30
0.0
 10
93.22669539770027
 20
-119.6045857448384
 30
0.0
 10
93.28595104004657
 20
-119.6045857448384
 30
0.0
 10
93.55329044970196
 20
-119.591838891543
 30
0.0
 10
93.60841197746596
 20
-119.5897718342519
 30
0.0
 10
93.60841197746596
 20
-119.5897718342519
 30
0.0
 10
93.60841197746596
 20
-119.7696058185819
 30
0.0
 10
93.60841197746596
 20
-119.7696058185819
 30
0.0
 10
93.55329044970196
 20
-119.7652994492254
 30
0.0
 10
93.3758680322116
 20
-119.7568589652865
 30
0.0
 10
93.2105034489196
 20
-119.7568589652865
 30
0.0
  0
SPLINE
  5
95
330
84
100
AcDbEntity
  8
_U+30EC_U+30A4_U+30E4_U+30FC 1
370
     0
100
AcDbSpline
210
0.0
220
0.0
230
1.0
 70
    11
 71
     3
 72
    17
 73
    13
 74
     0
 42
0.0000000001
 43
0.0000000001
 12
1.0
 22
0.0
 32
0.0
 13
1.0
 23
0.0
 33
0.0
 40
0.0
 40
0.0
 40
0.0
 40
0.0
 40
1.0
 40
1.0
 40
1.0
 40
2.0
 40
2.0
 40
2.0
 40
3.0
 40
3.0
 40
3.0
 40
4.0
 40
4.0
 40
4.0
 40
4.0
 10
91.9599337877739
 20
-120.6537895748713
 30
0.0
 10
91.88862031122923
 20
-120.5714517927738
 30
0.0
 10
91.82729761159179
 20
-120.5206366343664
 30
0.0
 10
91.7211886706461
 20
-120.4550075653724
 30
0.0
 10
91.7211886706461
 20
-120.4550075653724
 30
0.0
 10
91.83763289804754
 20
-120.3175482555109
 30
0.0
 10
91.83763289804754
 20
-120.3175482555109
 30
0.0
 10
91.93133949524633
 20
-120.3788709551483
 30
0.0
 10
91.99266219488378
 20
-120.4317531708469
 30
0.0
 10
92.06604272871961
 20
-120.5078897810709
 30
0.0
 10
92.06604272871961
 20
-120.5078897810709
 30
0.0
 10
91.9599337877739
 20
-120.6537895748713
 30
0.0
 10
91.9599337877739
 20
-120.6537895748713
 30
0.0
  0
SPLINE
  5
96
330
84
100
AcDbEntity
  8
_U+30EC_U+30A4_U+30E4_U+30FC 1
370
     0
100
AcDbSpline
210
0.0
220
0.0
230
1.0
 70
    11
 71
     3
 72
    29
 73
    25
 74
     0
 42
0.0000000001
 43
0.0000000001
 12
1.0
 22
0.0
 32
0.0
 13
1.0
 23
0.0
 33
0.0
 40
0.0
 40
0.0
 40
0.0
 40
0.0
 40
1.0
 40
1.0
 40
1.0
 40
2.0
 40
2.0
 40
2.0
 40
3.0
 40
3.0
 40
3.0
 40
4.0
 40
4.0
 40
4.0
 40
5.0
 40
5.0
 40
5.0
 40
6.0
 40
6.0
 40
6.0
 40
7.0
 40
7.0
 40
7.0
 40
8.0
 40
8.0
 40
8.0
 40
8.0
 10
92.18214244657253
 20
-120.9183729081385
 30
0.0
 10
92.16181638320955
 20
-120.9628146398982
 30
0.0
 10
92.06190861413731
 20
-121.1383422548717
 30
0.0
 10
92.00472002908215
 20
-121.2398003169123
 30
0.0
 10
92.01092120095561
 20
-121.2525471702077
 30
0.0
 10
92.01712237282905
 20
-121.2673610807943
 30
0.0
 10
92.01712237282905
 20
-121.2821749913809
 30
0.0
 10
92.01712237282905
 20
-121.2906154753197
 30
0.0
 10
92.01298825824675
 20
-121.3033623286151
 30
0.0
 10
91.99679630946608
 20
-121.3033623286151
 30
0.0
 10
91.98646102301034
 20
-121.3033623286151
 30
0.0
 10
91.97405867926344
 20
-121.2969889019674
 30
0.0
 10
91.97026907422966
 20
-121.2949218446763
 30
0.0
 10
91.97026907422966
 20
-121.2949218446763
 30
0.0
 10
91.80697154822882
 20
-121.1912244705703
 30
0.0
 10
91.80697154822882
 20
-121.1912244705703
 30
0.0
 10
91.93340655253749
 20
-121.0430853647045
 30
0.0
 10
92.10669485544555
 20
-120.7046047332787
 30
0.0
 10
92.1721516696653
 20
-120.4994492971321
 30
0.0
 10
92.1721516696653
 20
-120.4994492971321
 30
0.0
 10
92.30892196042971
 20
-120.6348415497024
 30
0.0
 10
92.30892196042971
 20
-120.6348415497024
 30
0.0
 10
92.28446178248444
 20
-120.7025376759876
 30
0.0
 10
92.2272731974293
 20
-120.8251830752625
 30
0.0
 10
92.18214244657253
 20
-120.9183729081385
 30
0.0
  0
SPLINE
  5
97
330
84
100
AcDbEntity
  8
_U+30EC_U+30A4_U+30E4_U+30FC 1
370
     0
100
AcDbSpline
210
0.0
220
0.0
230
1.0
 70
    11
 71
     3
 72
    17
 73
    13
 74
     0
 42
0.0000000001
 43
0.0000000001
 12
1.0
 22
0.0
 32
0.0
 13
1.0
 23
0.0
 33
0.0
 40
0.0
 40
0.0
 40
0.0
 40
0.0
 40
1.0
 40
1.0
 40
1.0
 40
2.0
 40
2.0
 40
2.0
 40
3.0
 40
3.0
 40
3.0
 40
4.0
 40
4.0
 40
4.0
 40
4.0
 10
92.1721516696653
 20
-120.3280557967409
 30
0.0
 10
92.09050290666488
 20
-120.2327989065737
 30
0.0
 10
92.0191894301202
 20
-120.1714762069363
 30
0.0
 10
91.91514754646566
 20
-120.10171302336
 30
0.0
 10
91.91514754646566
 20
-120.10171302336
 30
0.0
 10
92.02918020702744
 20
-119.9663207707897
 30
0.0
 10
92.02918020702744
 20
-119.9663207707897
 30
0.0
 10
92.10669485544555
 20
-120.0192029864883
 30
0.0
 10
92.21693791097354
 20
-120.1060193927166
 30
0.0
 10
92.2823947251933
 20
-120.1885294295883
 30
0.0
 10
92.2823947251933
 20
-120.1885294295883
 30
0.0
 10
92.1721516696653
 20
-120.3280557967409
 30
0.0
 10
92.1721516696653
 20
-120.3280557967409
 30
0.0
  0
SPLINE
  5
98
330
84
100
AcDbEntity
  8
_U+30EC_U+30A4_U+30E4_U+30FC 1
370
     0
100
AcDbSpline
210
0.0
220
0.0
230
1.0
 70
    11
 71
     3
 72
    71
 73
    67
 74
     0
 42
0.0000000001
 43
0.0000000001
 12
1.0
 22
0.0
 32
0.0
 13
1.0
 23
0.0
 33
0.0
 40
0.0
 40
0.0
 40
0.0
 40
0.0
 40
1.0
 40
1.0
 40
1.0
 40
2.0
 40
2.0
 40
2.0
 40
3.0
 40
3.0
 40
3.0
 40
4.0
 40
4.0
 40
4.0
 40
5.0
 40
5.0
 40
5.0
 40
6.0
 40
6.0
 40
6.0
 40
7.0
 40
7.0
 40
7.0
 40
8.0
 40
8.0
 40
8.0
 40
9.0
 40
9.0
 40
9.0
 40
10.0
 40
10.0
 40
10.0
 40
11.0
 40
11.0
 40
11.0
 40
12.0
 40
12.0
 40
12.0
 40
13.0
 40
13.0
 40
13.0
 40
14.0
 40
14.0
 40
14.0
 40
15.0
 40
15.0
 40
15.0
 40
16.0
 40
16.0
 40
16.0
 40
17.0
 40
17.0
 40
17.0
 40
18.0
 40
18.0
 40
18.0
 40
19.0
 40
19.0
 40
19.0
 40
20.0
 40
20.0
 40
20.0
 40
21.0
 40
21.0
 40
21.0
 40
22.0
 40
22.0
 40
22.0
 40
22.0
 10
93.48990069277336
 20
-120.5375176022441
 30
0.0
 10
93.48990069277336
 20
-120.5375176022441
 30
0.0
 10
93.48990069277336
 20
-120.9245740800119
 30
0.0
 10
93.48990069277336
 20
-120.9245740800119
 30
0.0
 10
93.48990069277336
 20
-120.9245740800119
 30
0.0
 10
93.48990069277336
 20
-120.9796956077759
 30
0.0
 10
93.48990069277336
 20
-120.9796956077759
 30
0.0
 10
93.48990069277336
 20
-121.0113904862402
 30
0.0
 10
93.49403480735566
 20
-121.1932915278614
 30
0.0
 10
93.49816892193796
 20
-121.2864813607374
 30
0.0
 10
93.49816892193796
 20
-121.2864813607374
 30
0.0
 10
93.29215221192003
 20
-121.2864813607374
 30
0.0
 10
93.29215221192003
 20
-121.2864813607374
 30
0.0
 10
93.29628632650233
 20
-121.2208522917434
 30
0.0
 10
93.29628632650233
 20
-121.2124118078045
 30
0.0
 10
93.30042044108463
 20
-121.1404093121628
 30
0.0
 10
93.30042044108463
 20
-121.1404093121628
 30
0.0
 10
92.57006019821165
 20
-121.1404093121628
 30
0.0
 10
92.57006019821165
 20
-121.1404093121628
 30
0.0
 10
92.57006019821165
 20
-121.1404093121628
 30
0.0
 10
92.57591686053658
 20
-121.2990559592586
 30
0.0
 10
92.57591686053658
 20
-121.2990559592586
 30
0.0
 10
92.57591686053658
 20
-121.2990559592586
 30
0.0
 10
92.37610132239209
 20
-121.2990559592586
 30
0.0
 10
92.37610132239209
 20
-121.2990559592586
 30
0.0
 10
92.37816837968325
 20
-121.2694281380854
 30
0.0
 10
92.38023543697439
 20
-121.2546142274988
 30
0.0
 10
92.38436955155669
 20
-121.1340358855151
 30
0.0
 10
92.38643660884784
 20
-121.0982068924685
 30
0.0
 10
92.38850366613899
 20
-120.9352538760162
 30
0.0
 10
92.38850366613899
 20
-120.9013196854865
 30
0.0
 10
92.38850366613899
 20
-120.9013196854865
 30
0.0
 10
92.38850366613899
 20
-120.5227036916575
 30
0.0
 10
92.38850366613899
 20
-120.5227036916575
 30
0.0
 10
92.38850366613899
 20
-120.4041924069649
 30
0.0
 10
92.38230249426555
 20
-120.2265977347003
 30
0.0
 10
92.38023543697439
 20
-120.1757825762929
 30
0.0
 10
92.44741479893676
 20
-120.1821560029406
 30
0.0
 10
92.65549856624585
 20
-120.1862901175229
 30
0.0
 10
92.73094615737283
 20
-120.1862901175229
 30
0.0
 10
92.73094615737283
 20
-120.1862901175229
 30
0.0
 10
92.7719427936473
 20
-120.1862901175229
 30
0.0
 10
92.7719427936473
 20
-120.1862901175229
 30
0.0
 10
92.79226885701027
 20
-120.1165269339466
 30
0.0
 10
92.8146619776644
 20
-120.0212700437794
 30
0.0
 10
92.82086314953784
 20
-119.949439802912
 30
0.0
 10
92.82086314953784
 20
-119.949439802912
 30
0.0
 10
93.00035262431936
 20
-120.0023220186105
 30
0.0
 10
93.00035262431936
 20
-120.0023220186105
 30
0.0
 10
93.03514808872039
 20
-120.0128295598406
 30
0.0
 10
93.04341631788499
 20
-120.0128295598406
 30
0.0
 10
93.04341631788499
 20
-120.0319498397837
 30
0.0
 10
93.04341631788499
 20
-120.0508978649526
 30
0.0
 10
93.01688908264856
 20
-120.0615776609568
 30
0.0
 10
92.99208439515476
 20
-120.0720852021868
 30
0.0
 10
92.98209361824753
 20
-120.1144598766554
 30
0.0
 10
92.97382538908293
 20
-120.1418483857632
 30
0.0
 10
92.95556638301112
 20
-120.1862901175229
 30
0.0
 10
92.95556638301112
 20
-120.1862901175229
 30
0.0
 10
93.1209309663031
 20
-120.1862901175229
 30
0.0
 10
93.1209309663031
 20
-120.1862901175229
 30
0.0
 10
93.18190915639202
 20
-120.1862901175229
 30
0.0
 10
93.44304739417396
 20
-120.177849633584
 30
0.0
 10
93.50230303652026
 20
-120.1757825762929
 30
0.0
 10
93.49403480735566
 20
-120.2879204343377
 30
0.0
 10
93.48990069277336
 20
-120.3957519230261
 30
0.0
 10
93.48990069277336
 20
-120.5375176022441
 30
0.0
  0
POLYLINE
  5
99
330
84
100
AcDbEntity
  8
_U+30EC_U+30A4_U+30E4_U+30FC 1
370
     0
100
AcDb2dPolyline
 66
     1
 10
0.0
 20
0.0
 30
0.0
  0
VERTEX
  5
9A
330
99
100
AcDbEntity
  8
_U+30EC_U+30A4_U+30E4_U+30FC 1
370
     0
100
AcDbVertex
100
AcDb2dVertex
 10
93.30627710340954
 20
-120.3471760766841
 30
0.0
  0
VERTEX
  5
9B
330
99
100
AcDbEntity
  8
_U+30EC_U+30A4_U+30E4_U+30FC 1
370
     0
100
AcDbVertex
100
AcDb2dVertex
 10
92.56592608362935
 20
-120.3471760766841
 30
0.0
  0
VERTEX
  5
9C
330
99
100
AcDbEntity
  8
_U+30EC_U+30A4_U+30E4_U+30FC 1
370
     0
100
AcDbVertex
100
AcDb2dVertex
 10
92.56592608362935
 20
-120.5755859073561
 30
0.0
  0
VERTEX
  5
9D
330
99
100
AcDbEntity
  8
_U+30EC_U+30A4_U+30E4_U+30FC 1
370
     0
100
AcDbVertex
100
AcDb2dVertex
 10
93.30627710340954
 20
-120.5755859073561
 30
0.0
  0
VERTEX
  5
9E
330
99
100
AcDbEntity
  8
_U+30EC_U+30A4_U+30E4_U+30FC 1
370
     0
100
AcDbVertex
100
AcDb2dVertex
 10
93.30627710340954
 20
-120.3471760766841
 30
0.0
  0
SEQEND
  5
9F
330
99
100
AcDbEntity
  8
_U+30EC_U+30A4_U+30E4_U+30FC 1
370
     0
  0
POLYLINE
  5
A0
330
84
100
AcDbEntity
  8
_U+30EC_U+30A4_U+30E4_U+30FC 1
370
     0
100
AcDb2dPolyline
 66
     1
 10
0.0
 20
0.0
 30
0.0
  0
VERTEX
  5
A1
330
A0
100
AcDbEntity
  8
_U+30EC_U+30A4_U+30E4_U+30FC 1
370
     0
100
AcDbVertex
100
AcDb2dVertex
 10
93.30627710340954
 20
-120.7278591278042
 30
0.0
  0
VERTEX
  5
A2
330
A0
100
AcDbEntity
  8
_U+30EC_U+30A4_U+30E4_U+30FC 1
370
     0
100
AcDbVertex
100
AcDb2dVertex
 10
92.56592608362935
 20
-120.7278591278042
 30
0.0
  0
VERTEX
  5
A3
330
A0
100
AcDbEntity
  8
_U+30EC_U+30A4_U+30E4_U+30FC 1
370
     0
100
AcDbVertex
100
AcDb2dVertex
 10
92.56592608362935
 20
-120.9648816971893
 30
0.0
  0
VERTEX
  5
A4
330
A0
100
AcDbEntity
  8
_U+30EC_U+30A4_U+30E4_U+30FC 1
370
     0
100
AcDbVertex
100
AcDb2dVertex
 10
93.30627710340954
 20
-120.9648816971893
 30
0.0
  0
VERTEX
  5
A5
330
A0
100
AcDbEntity
  8
_U+30EC_U+30A4_U+30E4_U+30FC 1
370
     0
100
AcDbVertex
100
AcDb2dVertex
 10
93.30627710340954
 20
-120.7278591278042
 30
0.0
  0
SEQEND
  5
A6
330
A0
100
AcDbEntity
  8
_U+30EC_U+30A4_U+30E4_U+30FC 1
370
     0
  0
HATCH
  5
A7
330
84
100
AcDbEntity
  8
_U+30EC_U+30A4_U+30E4_U+30FC 1
 62
   179
420
  2234388
100
AcDbHatch
 10
0.0
 20
0.0
 30
0.0
210
0.0
220
0.0
230
1.0
  2
SOLID
 70
     1
 71
     0
 91
        7
 92
        1
 93
        1
 72
     4
 94
        3
 73
     0
 74
     1
 95
      104
 96
      100
 40
0.0
 40
0.0
 40
0.0
 40
0.0
 40
1.0
 40
1.0
 40
1.0
 40
2.0
 40
2.0
 40
2.0
 40
3.0
 40
3.0
 40
3.0
 40
4.0
 40
4.0
 40
4.0
 40
5.0
 40
5.0
 40
5.0
 40
6.0
 40
6.0
 40
6.0
 40
7.0
 40
7.0
 40
7.0
 40
8.0
 40
8.0
 40
8.0
 40
9.0
 40
9.0
 40
9.0
 40
10.0
 40
10.0
 40
10.0
 40
11.0
 40
11.0
 40
11.0
 40
12.0
 40
12.0
 40
12.0
 40
13.0
 40
13.0
 40
13.0
 40
14.0
 40
14.0
 40
14.0
 40
15.0
 40
15.0
 40
15.0
 40
16.0
 40
16.0
 40
16.0
 40
17.0
 40
17.0
 40
17.0
 40
18.0
 40
18.0
 40
18.0
 40
19.0
 40
19.0
 40
19.0
 40
20.0
 40
20.0
 40
20.0
 40
21.0
 40
21.0
 40
21.0
 40
22.0
 40
22.0
 40
22.0
 40
23.0
 40
23.0
 40
23.0
 40
24.0
 40
24.0
 40
24.0
 40
25.0
 40
25.0
 40
25.0
 40
26.0
 40
26.0
 40
26.0
 40
27.0
 40
27.0
 40
27.0
 40
28.0
 40
28.0
 40
28.0
 40
29.0
 40
29.0
 40
29.0
 40
30.0
 40
30.0
 40
30.0
 40
31.0
 40
31.0
 40
31.0
 40
32.0
 40
32.0
 40
32.0
 40
33.0
 40
33.0
 40
33.0
 40
33.0
 10
93.2105034489196
 20
-119.7568589652865
 10
93.24116479873832
 20
-119.8140475503416
 10
93.2697590912659
 20
-119.8901841605657
 10
93.28595104004657
 20
-119.9747612547285
 10
93.28595104004657
 20
-119.9747612547285
 10
93.11059567984735
 20
-120.0424573810137
 10
93.11059567984735
 20
-120.0424573810137
 10
93.08613550190208
 20
-119.9282524656777
 10
93.07166610086404
 20
-119.8626233966837
 10
93.0148220253574
 20
-119.7568589652865
 10
93.0148220253574
 20
-119.7568589652865
 10
92.89837779795596
 20
-119.7568589652865
 10
92.89837779795596
 20
-119.7568589652865
 10
92.81259492037324
 20
-119.9218790390299
 10
92.7760769082296
 20
-119.9642537134985
 10
92.74748261570203
 20
-119.998015649254
 10
92.74748261570203
 20
-119.998015649254
 10
92.55145668259131
 20
-119.9261854083865
 10
92.55145668259131
 20
-119.9261854083865
 10
92.59038626157464
 20
-119.8901841605657
 10
92.6534315089547
 20
-119.8329955755105
 10
92.69856225981148
 20
-119.7652994492254
 10
92.64550778933862
 20
-119.7632323919342
 10
92.48014320604663
 20
-119.7632323919342
 10
92.41882050640919
 20
-119.7632323919342
 10
92.41882050640919
 20
-119.7632323919342
 10
92.39057072343014
 20
-119.7632323919342
 10
92.39057072343014
 20
-119.7632323919342
 10
92.42502167828263
 20
-119.8329955755105
 10
92.46808537184826
 20
-119.9303195229688
 10
92.49254554979353
 20
-120.0107625025494
 10
92.49254554979353
 20
-120.0107625025494
 10
92.31684568004579
 20
-120.0848320554823
 10
92.31684568004579
 20
-120.0848320554823
 10
92.30065373126511
 20
-120.025576413136
 10
92.26792532415524
 20
-119.9113714977999
 10
92.19454479031943
 20
-119.7632323919342
 10
92.19454479031943
 20
-119.7632323919342
 10
92.08843584937372
 20
-119.7632323919342
 10
92.08843584937372
 20
-119.7632323919342
 10
92.08223467750028
 20
-119.7696058185819
 10
91.99059513759263
 20
-119.8796766193356
 10
91.89861108813646
 20
-119.9620144014331
 10
91.89861108813646
 20
-119.9620144014331
 10
91.7129204414815
 20
-119.8626233966837
 10
91.7129204414815
 20
-119.8626233966837
 10
91.80283743364652
 20
-119.8097411809851
 10
91.88035208206463
 20
-119.7356716280522
 10
91.947531444027
 20
-119.6531615911805
 10
92.03124726431858
 20
-119.5496364718487
 10
92.07017684330191
 20
-119.4480061550338
 10
92.10290525041178
 20
-119.3529215196409
 10
92.10290525041178
 20
-119.3529215196409
 10
92.28825138751822
 20
-119.4352593017384
 10
92.28825138751822
 20
-119.4352593017384
 10
92.30272078855627
 20
-119.4416327283861
 10
92.31271156546349
 20
-119.450073212325
 10
92.31271156546349
 20
-119.4607530083293
 10
92.31271156546349
 20
-119.4819403455635
 10
92.28825138751822
 20
-119.4860744601458
 10
92.26000160453917
 20
-119.4903808295024
 10
92.22520614013814
 20
-119.5517035291399
 10
92.21280379639124
 20
-119.5728908663741
 10
92.19454479031943
 20
-119.6025186875473
 10
92.19454479031943
 20
-119.6025186875473
 10
92.41882050640919
 20
-119.6025186875473
 10
92.41882050640919
 20
-119.6025186875473
 10
92.4660183145571
 20
-119.6025186875473
 10
92.66790090999275
 20
-119.5961452608996
 10
92.71062009400985
 20
-119.5940782036084
 10
92.71062009400985
 20
-119.5940782036084
 10
92.71062009400985
 20
-119.7463514240565
 10
92.71062009400985
 20
-119.7463514240565
 10
92.75161673028433
 20
-119.6765882404802
 10
92.82499726412014
 20
-119.4903808295024
 10
92.84739038477427
 20
-119.363429060871
 10
92.84739038477427
 20
-119.363429060871
 10
93.03514808872039
 20
-119.429058129865
 10
93.03514808872039
 20
-119.429058129865
 10
93.05134003750106
 20
-119.4352593017384
 10
93.0658094385391
 20
-119.439565671095
 10
93.0658094385391
 20
-119.4543795816816
 10
93.0658094385391
 20
-119.4755669189158
 10
93.03928220330269
 20
-119.4797010334981
 10
93.01688908264856
 20
-119.4840074028547
 10
93.00448673890166
 20
-119.515702281319
 10
92.99036184741213
 20
-119.5496364718487
 10
92.96762421720949
 20
-119.6045857448384
 10
92.96762421720949
 20
-119.6045857448384
 10
93.22669539770027
 20
-119.6045857448384
 10
93.22669539770027
 20
-119.6045857448384
 10
93.28595104004657
 20
-119.6045857448384
 10
93.55329044970196
 20
-119.591838891543
 10
93.60841197746596
 20
-119.5897718342519
 10
93.60841197746596
 20
-119.5897718342519
 10
93.60841197746596
 20
-119.7696058185819
 10
93.60841197746596
 20
-119.7696058185819
 10
93.55329044970196
 20
-119.7652994492254
 10
93.3758680322116
 20
-119.7568589652865
 10
93.2105034489196
 20
-119.7568589652865
 97
        0
 97
        0
 92
        1
 93
        1
 72
     4
 94
        3
 73
     0
 74
     1
 95
       17
 96
       13
 40
0.0
 40
0.0
 40
0.0
 40
0.0
 40
1.0
 40
1.0
 40
1.0
 40
2.0
 40
2.0
 40
2.0
 40
3.0
 40
3.0
 40
3.0
 40
4.0
 40
4.0
 40
4.0
 40
4.0
 10
91.9599337877739
 20
-120.6537895748713
 10
91.88862031122923
 20
-120.5714517927738
 10
91.82729761159179
 20
-120.5206366343664
 10
91.7211886706461
 20
-120.4550075653724
 10
91.7211886706461
 20
-120.4550075653724
 10
91.83763289804754
 20
-120.3175482555109
 10
91.83763289804754
 20
-120.3175482555109
 10
91.93133949524633
 20
-120.3788709551483
 10
91.99266219488378
 20
-120.4317531708469
 10
92.06604272871961
 20
-120.5078897810709
 10
92.06604272871961
 20
-120.5078897810709
 10
91.9599337877739
 20
-120.6537895748713
 10
91.9599337877739
 20
-120.6537895748713
 97
        0
 97
        0
 92
        1
 93
        1
 72
     4
 94
        3
 73
     0
 74
     1
 95
       29
 96
       25
 40
0.0
 40
0.0
 40
0.0
 40
0.0
 40
1.0
 40
1.0
 40
1.0
 40
2.0
 40
2.0
 40
2.0
 40
3.0
 40
3.0
 40
3.0
 40
4.0
 40
4.0
 40
4.0
 40
5.0
 40
5.0
 40
5.0
 40
6.0
 40
6.0
 40
6.0
 40
7.0
 40
7.0
 40
7.0
 40
8.0
 40
8.0
 40
8.0
 40
8.0
 10
92.18214244657253
 20
-120.9183729081385
 10
92.16181638320955
 20
-120.9628146398982
 10
92.06190861413731
 20
-121.1383422548717
 10
92.00472002908215
 20
-121.2398003169123
 10
92.01092120095561
 20
-121.2525471702077
 10
92.01712237282905
 20
-121.2673610807943
 10
92.01712237282905
 20
-121.2821749913809
 10
92.01712237282905
 20
-121.2906154753197
 10
92.01298825824675
 20
-121.3033623286151
 10
91.99679630946608
 20
-121.3033623286151
 10
91.98646102301034
 20
-121.3033623286151
 10
91.97405867926344
 20
-121.2969889019674
 10
91.97026907422966
 20
-121.2949218446763
 10
91.97026907422966
 20
-121.2949218446763
 10
91.80697154822882
 20
-121.1912244705703
 10
91.80697154822882
 20
-121.1912244705703
 10
91.93340655253749
 20
-121.0430853647045
 10
92.10669485544555
 20
-120.7046047332787
 10
92.1721516696653
 20
-120.4994492971321
 10
92.1721516696653
 20
-120.4994492971321
 10
92.30892196042971
 20
-120.6348415497024
 10
92.30892196042971
 20
-120.6348415497024
 10
92.28446178248444
 20
-120.7025376759876
 10
92.2272731974293
 20
-120.8251830752625
 10
92.18214244657253
 20
-120.9183729081385
 97
        0
 97
        0
 92
        1
 93
        1
 72
     4
 94
        3
 73
     0
 74
     1
 95
       17
 96
       13
 40
0.0
 40
0.0
 40
0.0
 40
0.0
 40
1.0
 40
1.0
 40
1.0
 40
2.0
 40
2.0
 40
2.0
 40
3.0
 40
3.0
 40
3.0
 40
4.0
 40
4.0
 40
4.0
 40
4.0
 10
92.1721516696653
 20
-120.3280557967409
 10
92.09050290666488
 20
-120.2327989065737
 10
92.0191894301202
 20
-120.1714762069363
 10
91.91514754646566
 20
-120.10171302336
 10
91.91514754646566
 20
-120.10171302336
 10
92.02918020702744
 20
-119.9663207707897
 10
92.02918020702744
 20
-119.9663207707897
 10
92.10669485544555
 20
-120.0192029864883
 10
92.21693791097354
 20
-120.1060193927166
 10
92.2823947251933
 20
-120.1885294295883
 10
92.2823947251933
 20
-120.1885294295883
 10
92.1721516696653
 20
-120.3280557967409
 10
92.1721516696653
 20
-120.3280557967409
 97
        0
 97
        0
 92
        1
 93
        1
 72
     4
 94
        3
 73
     0
 74
     1
 95
       71
 96
       67
 40
0.0
 40
0.0
 40
0.0
 40
0.0
 40
1.0
 40
1.0
 40
1.0
 40
2.0
 40
2.0
 40
2.0
 40
3.0
 40
3.0
 40
3.0
 40
4.0
 40
4.0
 40
4.0
 40
5.0
 40
5.0
 40
5.0
 40
6.0
 40
6.0
 40
6.0
 40
7.0
 40
7.0
 40
7.0
 40
8.0
 40
8.0
 40
8.0
 40
9.0
 40
9.0
 40
9.0
 40
10.0
 40
10.0
 40
10.0
 40
11.0
 40
11.0
 40
11.0
 40
12.0
 40
12.0
 40
12.0
 40
13.0
 40
13.0
 40
13.0
 40
14.0
 40
14.0
 40
14.0
 40
15.0
 40
15.0
 40
15.0
 40
16.0
 40
16.0
 40
16.0
 40
17.0
 40
17.0
 40
17.0
 40
18.0
 40
18.0
 40
18.0
 40
19.0
 40
19.0
 40
19.0
 40
20.0
 40
20.0
 40
20.0
 40
21.0
 40
21.0
 40
21.0
 40
22.0
 40
22.0
 40
22.0
 40
22.0
 10
93.48990069277336
 20
-120.5375176022441
 10
93.48990069277336
 20
-120.5375176022441
 10
93.48990069277336
 20
-120.9245740800119
 10
93.48990069277336
 20
-120.9245740800119
 10
93.48990069277336
 20
-120.9245740800119
 10
93.48990069277336
 20
-120.9796956077759
 10
93.48990069277336
 20
-120.9796956077759
 10
93.48990069277336
 20
-121.0113904862402
 10
93.49403480735566
 20
-121.1932915278614
 10
93.49816892193796
 20
-121.2864813607374
 10
93.49816892193796
 20
-121.2864813607374
 10
93.29215221192003
 20
-121.2864813607374
 10
93.29215221192003
 20
-121.2864813607374
 10
93.29628632650233
 20
-121.2208522917434
 10
93.29628632650233
 20
-121.2124118078045
 10
93.30042044108463
 20
-121.1404093121628
 10
93.30042044108463
 20
-121.1404093121628
 10
92.57006019821165
 20
-121.1404093121628
 10
92.57006019821165
 20
-121.1404093121628
 10
92.57006019821165
 20
-121.1404093121628
 10
92.57591686053658
 20
-121.2990559592586
 10
92.57591686053658
 20
-121.2990559592586
 10
92.57591686053658
 20
-121.2990559592586
 10
92.37610132239209
 20
-121.2990559592586
 10
92.37610132239209
 20
-121.2990559592586
 10
92.37816837968325
 20
-121.2694281380854
 10
92.38023543697439
 20
-121.2546142274988
 10
92.38436955155669
 20
-121.1340358855151
 10
92.38643660884784
 20
-121.0982068924685
 10
92.38850366613899
 20
-120.9352538760162
 10
92.38850366613899
 20
-120.9013196854865
 10
92.38850366613899
 20
-120.9013196854865
 10
92.38850366613899
 20
-120.5227036916575
 10
92.38850366613899
 20
-120.5227036916575
 10
92.38850366613899
 20
-120.4041924069649
 10
92.38230249426555
 20
-120.2265977347003
 10
92.38023543697439
 20
-120.1757825762929
 10
92.44741479893676
 20
-120.1821560029406
 10
92.65549856624585
 20
-120.1862901175229
 10
92.73094615737283
 20
-120.1862901175229
 10
92.73094615737283
 20
-120.1862901175229
 10
92.7719427936473
 20
-120.1862901175229
 10
92.7719427936473
 20
-120.1862901175229
 10
92.79226885701027
 20
-120.1165269339466
 10
92.8146619776644
 20
-120.0212700437794
 10
92.82086314953784
 20
-119.949439802912
 10
92.82086314953784
 20
-119.949439802912
 10
93.00035262431936
 20
-120.0023220186105
 10
93.00035262431936
 20
-120.0023220186105
 10
93.03514808872039
 20
-120.0128295598406
 10
93.04341631788499
 20
-120.0128295598406
 10
93.04341631788499
 20
-120.0319498397837
 10
93.04341631788499
 20
-120.0508978649526
 10
93.01688908264856
 20
-120.0615776609568
 10
92.99208439515476
 20
-120.0720852021868
 10
92.98209361824753
 20
-120.1144598766554
 10
92.97382538908293
 20
-120.1418483857632
 10
92.95556638301112
 20
-120.1862901175229
 10
92.95556638301112
 20
-120.1862901175229
 10
93.1209309663031
 20
-120.1862901175229
 10
93.1209309663031
 20
-120.1862901175229
 10
93.18190915639202
 20
-120.1862901175229
 10
93.44304739417396
 20
-120.177849633584
 10
93.50230303652026
 20
-120.1757825762929
 10
93.49403480735566
 20
-120.2879204343377
 10
93.48990069277336
 20
-120.3957519230261
 10
93.48990069277336
 20
-120.5375176022441
 97
        0
 97
        0
 92
        1
 93
        4
 72
     1
 10
93.30627710340954
 20
-120.3471760766841
 11
92.56592608362935
 21
-120.3471760766841
 72
     1
 10
92.56592608362935
 20
-120.3471760766841
 11
92.56592608362935
 21
-120.5755859073561
 72
     1
 10
92.56592608362935
 20
-120.5755859073561
 11
93.30627710340954
 21
-120.5755859073561
 72
     1
 10
93.30627710340954
 20
-120.5755859073561
 11
93.30627710340954
 21
-120.3471760766841
 97
        0
 92
        1
 93
        4
 72
     1
 10
93.30627710340954
 20
-120.7278591278042
 11
92.56592608362935
 21
-120.7278591278042
 72
     1
 10
92.56592608362935
 20
-120.7278591278042
 11
92.56592608362935
 21
-120.9648816971893
 72
     1
 10
92.56592608362935
 20
-120.9648816971893
 11
93.30627710340954
 21
-120.9648816971893
 72
     1
 10
93.30627710340954
 20
-120.9648816971893
 11
93.30627710340954
 21
-120.7278591278042
 97
        0
 75
     2
 76
     1
 98
        0
  0
ENDBLK
  5
87
330
84
100
AcDbEntity
  8
0
100
AcDbBlockEnd
  0
BLOCK
  5
AA
330
A8
100
AcDbEntity
  8
0
100
AcDbBlockBegin
  2
block 5
 70
     0
 10
0.0
 20
0.0
 30
0.0
  3
block 5
  1

  0
POLYLINE
  5
AC
330
A8
100
AcDbEntity
  8
_U+30EC_U+30A4_U+30E4_U+30FC 1
370
     0
100
AcDb2dPolyline
 66
     1
 10
0.0
 20
0.0
 30
0.0
  0
VERTEX
  5
AD
330
AC
100
AcDbEntity
  8
_U+30EC_U+30A4_U+30E4_U+30FC 1
370
     0
100
AcDbVertex
100
AcDb2dVertex
 10
78.05604517362835
 20
-124.4978271173131
 30
0.0
  0
VERTEX
  5
AE
330
AC
100
AcDbEntity
  8
_U+30EC_U+30A4_U+30E4_U+30FC 1
370
     0
100
AcDbVertex
100
AcDb2dVertex
 10
77.91720782557279
 20
-124.0704630223678
 30
0.0
  0
VERTEX
  5
AF
330
AC
100
AcDbEntity
  8
_U+30EC_U+30A4_U+30E4_U+30FC 1
370
     0
100
AcDbVertex
100
AcDb2dVertex
 10
77.3665093122556
 20
-124.0704630223678
 30
0.0
  0
VERTEX
  5
B0
330
AC
100
AcDbEntity
  8
_U+30EC_U+30A4_U+30E4_U+30FC 1
370
     0
100
AcDbVertex
100
AcDb2dVertex
 10
77.22560490690888
 20
-124.4978271173131
 30
0.0
  0
VERTEX
  5
B1
330
AC
100
AcDbEntity
  8
_U+30EC_U+30A4_U+30E4_U+30FC 1
370
     0
100
AcDbVertex
100
AcDb2dVertex
 10
76.98083087268188
 20
-124.4978271173131
 30
0.0
  0
VERTEX
  5
B2
330
AC
100
AcDbEntity
  8
_U+30EC_U+30A4_U+30E4_U+30FC 1
370
     0
100
AcDbVertex
100
AcDb2dVertex
 10
77.51533743721839
 20
-122.9535630660498
 30
0.0
  0
VERTEX
  5
B3
330
AC
100
AcDbEntity
  8
_U+30EC_U+30A4_U+30E4_U+30FC 1
370
     0
100
AcDbVertex
100
AcDb2dVertex
 10
77.76631264331884
 20
-122.9535630660498
 30
0.0
  0
VERTEX
  5
B4
330
AC
100
AcDbEntity
  8
_U+30EC_U+30A4_U+30E4_U+30FC 1
370
     0
100
AcDbVertex
100
AcDb2dVertex
 10
78.30081920785535
 20
-124.4978271173131
 30
0.0
  0
VERTEX
  5
B5
330
AC
100
AcDbEntity
  8
_U+30EC_U+30A4_U+30E4_U+30FC 1
370
     0
100
AcDbVertex
100
AcDb2dVertex
 10
78.05604517362835
 20
-124.4978271173131
 30
0.0
  0
SEQEND
  5
B6
330
AC
100
AcDbEntity
  8
_U+30EC_U+30A4_U+30E4_U+30FC 1
370
     0
  0
POLYLINE
  5
B7
330
A8
100
AcDbEntity
  8
_U+30EC_U+30A4_U+30E4_U+30FC 1
370
     0
100
AcDb2dPolyline
 66
     1
 10
0.0
 20
0.0
 30
0.0
  0
VERTEX
  5
B8
330
B7
100
AcDbEntity
  8
_U+30EC_U+30A4_U+30E4_U+30FC 1
370
     0
100
AcDbVertex
100
AcDb2dVertex
 10
77.64194469630132
 20
-123.2307209978382
 30
0.0
  0
VERTEX
  5
B9
330
B7
100
AcDbEntity
  8
_U+30EC_U+30A4_U+30E4_U+30FC 1
370
     0
100
AcDbVertex
100
AcDb2dVertex
 10
77.43386092899223
 20
-123.8610012168646
 30
0.0
  0
VERTEX
  5
BA
330
B7
100
AcDbEntity
  8
_U+30EC_U+30A4_U+30E4_U+30FC 1
370
     0
100
AcDbVertex
100
AcDb2dVertex
 10
77.84796140631926
 20
-123.8610012168646
 30
0.0
  0
VERTEX
  5
BB
330
B7
100
AcDbEntity
  8
_U+30EC_U+30A4_U+30E4_U+30FC 1
370
     0
100
AcDbVertex
100
AcDb2dVertex
 10
77.64194469630132
 20
-123.2307209978382
 30
0.0
  0
SEQEND
  5
BC
330
B7
100
AcDbEntity
  8
_U+30EC_U+30A4_U+30E4_U+30FC 1
370
     0
  0
HATCH
  5
BD
330
A8
100
AcDbEntity
  8
_U+30EC_U+30A4_U+30E4_U+30FC 1
 62
   179
420
  2234388
100
AcDbHatch
 10
0.0
 20
0.0
 30
0.0
210
0.0
220
0.0
230
1.0
  2
SOLID
 70
     1
 71
     0
 91
        2
 92
        1
 93
        8
 72
     1
 10
78.05604517362835
 20
-124.4978271173131
 11
77.91720782557279
 21
-124.0704630223678
 72
     1
 10
77.91720782557279
 20
-124.0704630223678
 11
77.3665093122556
 21
-124.0704630223678
 72
     1
 10
77.3665093122556
 20
-124.0704630223678
 11
77.22560490690888
 21
-124.4978271173131
 72
     1
 10
77.22560490690888
 20
-124.4978271173131
 11
76.98083087268188
 21
-124.4978271173131
 72
     1
 10
76.98083087268188
 20
-124.4978271173131
 11
77.51533743721839
 21
-122.9535630660498
 72
     1
 10
77.51533743721839
 20
-122.9535630660498
 11
77.76631264331884
 21
-122.9535630660498
 72
     1
 10
77.76631264331884
 20
-122.9535630660498
 11
78.30081920785535
 21
-124.4978271173131
 72
     1
 10
78.30081920785535
 20
-124.4978271173131
 11
78.05604517362835
 21
-124.4978271173131
 97
        0
 92
        1
 93
        3
 72
     1
 10
77.64194469630132
 20
-123.2307209978382
 11
77.43386092899223
 21
-123.8610012168646
 72
     1
 10
77.43386092899223
 20
-123.8610012168646
 11
77.84796140631926
 21
-123.8610012168646
 72
     1
 10
77.84796140631926
 20
-123.8610012168646
 11
77.64194469630132
 21
-123.2307209978382
 97
        0
 75
     2
 76
     1
 98
        0
  0
SPLINE
  5
BE
330
A8
100
AcDbEntity
  8
_U+30EC_U+30A4_U+30E4_U+30FC 1
370
     0
100
AcDbSpline
210
0.0
220
0.0
230
1.0
 70
    11
 71
     3
 72
    26
 73
    22
 74
     0
 42
0.0000000001
 43
0.0000000001
 12
1.0
 22
0.0
 32
0.0
 13
1.0
 23
0.0
 33
0.0
 40
0.0
 40
0.0
 40
0.0
 40
0.0
 40
1.0
 40
1.0
 40
1.0
 40
2.0
 40
2.0
 40
2.0
 40
3.0
 40
3.0
 40
3.0
 40
4.0
 40
4.0
 40
4.0
 40
5.0
 40
5.0
 40
5.0
 40
6.0
 40
6.0
 40
6.0
 40
7.0
 40
7.0
 40
7.0
 40
7.0
 10
79.18310816162784
 20
-124.4978271173131
 30
0.0
 10
79.18310816162784
 20
-124.4978271173131
 30
0.0
 10
78.5261284525907
 20
-124.4978271173131
 30
0.0
 10
78.5261284525907
 20
-124.4978271173131
 30
0.0
 10
78.5261284525907
 20
-124.4978271173131
 30
0.0
 10
78.5261284525907
 20
-122.9535630660498
 30
0.0
 10
78.5261284525907
 20
-122.9535630660498
 30
0.0
 10
78.5261284525907
 20
-122.9535630660498
 30
0.0
 10
79.1708780726552
 20
-122.9535630660498
 30
0.0
 10
79.1708780726552
 20
-122.9535630660498
 30
0.0
 10
79.37689478267315
 20
-122.9535630660498
 30
0.0
 10
79.58291149269108
 20
-123.0634616120293
 30
0.0
 10
79.58291149269108
 20
-123.3321790598788
 30
0.0
 10
79.58291149269108
 20
-123.569201629264
 30
0.0
 10
79.42581513856369
 20
-123.6410318701314
 30
0.0
 10
79.3605305791182
 20
-123.6706596913046
 30
0.0
 10
79.42788219585483
 20
-123.6875406591823
 30
0.0
 10
79.64819605213657
 20
-123.7467963015286
 30
0.0
 10
79.64819605213657
 20
-124.0515149971989
 30
0.0
 10
79.64819605213657
 20
-124.2819918851621
 30
0.0
 10
79.49523381259148
 20
-124.4978271173131
 30
0.0
 10
79.18310816162784
 20
-124.4978271173131
 30
0.0
  0
SPLINE
  5
BF
330
A8
100
AcDbEntity
  8
_U+30EC_U+30A4_U+30E4_U+30FC 1
370
     0
100
AcDbSpline
210
0.0
220
0.0
230
1.0
 70
    11
 71
     3
 72
    20
 73
    16
 74
     0
 42
0.0000000001
 43
0.0000000001
 12
1.0
 22
0.0
 32
0.0
 13
1.0
 23
0.0
 33
0.0
 40
0.0
 40
0.0
 40
0.0
 40
0.0
 40
1.0
 40
1.0
 40
1.0
 40
2.0
 40
2.0
 40
2.0
 40
3.0
 40
3.0
 40
3.0
 40
4.0
 40
4.0
 40
4.0
 40
5.0
 40
5.0
 40
5.0
 40
5.0
 10
79.10352645591857
 20
-123.1650919288441
 30
0.0
 10
79.10352645591857
 20
-123.1650919288441
 30
0.0
 10
78.75264348074587
 20
-123.1650919288441
 30
0.0
 10
78.75264348074587
 20
-123.1650919288441
 30
0.0
 10
78.75264348074587
 20
-123.1650919288441
 30
0.0
 10
78.75264348074587
 20
-123.5817762277851
 30
0.0
 10
78.75264348074587
 20
-123.5817762277851
 30
0.0
 10
78.75264348074587
 20
-123.5817762277851
 30
0.0
 10
79.10352645591857
 20
-123.5817762277851
 30
0.0
 10
79.10352645591857
 20
-123.5817762277851
 30
0.0
 10
79.23822968939183
 20
-123.5817762277851
 30
0.0
 10
79.34623343285442
 20
-123.5268269547954
 30
0.0
 10
79.34623343285442
 20
-123.3723144222819
 30
0.0
 10
79.34623343285442
 20
-123.2052272912473
 30
0.0
 10
79.21566431396344
 20
-123.1650919288441
 30
0.0
 10
79.10352645591857
 20
-123.1650919288441
 30
0.0
  0
SPLINE
  5
C0
330
A8
100
AcDbEntity
  8
_U+30EC_U+30A4_U+30E4_U+30FC 1
370
     0
100
AcDbSpline
210
0.0
220
0.0
230
1.0
 70
    11
 71
     3
 72
    20
 73
    16
 74
     0
 42
0.0000000001
 43
0.0000000001
 12
1.0
 22
0.0
 32
0.0
 13
1.0
 23
0.0
 33
0.0
 40
0.0
 40
0.0
 40
0.0
 40
0.0
 40
1.0
 40
1.0
 40
1.0
 40
2.0
 40
2.0
 40
2.0
 40
3.0
 40
3.0
 40
3.0
 40
4.0
 40
4.0
 40
4.0
 40
5.0
 40
5.0
 40
5.0
 40
5.0
 10
79.15451386910027
 20
-123.7933050905795
 30
0.0
 10
79.15451386910027
 20
-123.7933050905795
 30
0.0
 10
78.75264348074587
 20
-123.7933050905795
 30
0.0
 10
78.75264348074587
 20
-123.7933050905795
 30
0.0
 10
78.75264348074587
 20
-123.7933050905795
 30
0.0
 10
78.75264348074587
 20
-124.2862982545187
 30
0.0
 10
78.75264348074587
 20
-124.2862982545187
 30
0.0
 10
78.75264348074587
 20
-124.2862982545187
 30
0.0
 10
79.15451386910027
 20
-124.2862982545187
 30
0.0
 10
79.15451386910027
 20
-124.2862982545187
 30
0.0
 10
79.30747610864536
 20
-124.2862982545187
 30
0.0
 10
79.41358504959105
 20
-124.1953477337081
 30
0.0
 10
79.41358504959105
 20
-124.0367010866124
 30
0.0
 10
79.41358504959105
 20
-123.8990695219766
 30
0.0
 10
79.32177325490915
 20
-123.7933050905795
 30
0.0
 10
79.15451386910027
 20
-123.7933050905795
 30
0.0
  0
HATCH
  5
C1
330
A8
100
AcDbEntity
  8
_U+30EC_U+30A4_U+30E4_U+30FC 1
 62
   179
420
  2234388
100
AcDbHatch
 10
0.0
 20
0.0
 30
0.0
210
0.0
220
0.0
230
1.0
  2
SOLID
 70
     1
 71
     0
 91
        3
 92
        1
 93
        1
 72
     4
 94
        3
 73
     0
 74
     1
 95
       26
 96
       22
 40
0.0
 40
0.0
 40
0.0
 40
0.0
 40
1.0
 40
1.0
 40
1.0
 40
2.0
 40
2.0
 40
2.0
 40
3.0
 40
3.0
 40
3.0
 40
4.0
 40
4.0
 40
4.0
 40
5.0
 40
5.0
 40
5.0
 40
6.0
 40
6.0
 40
6.0
 40
7.0
 40
7.0
 40
7.0
 40
7.0
 10
79.18310816162784
 20
-124.4978271173131
 10
79.18310816162784
 20
-124.4978271173131
 10
78.5261284525907
 20
-124.4978271173131
 10
78.5261284525907
 20
-124.4978271173131
 10
78.5261284525907
 20
-124.4978271173131
 10
78.5261284525907
 20
-122.9535630660498
 10
78.5261284525907
 20
-122.9535630660498
 10
78.5261284525907
 20
-122.9535630660498
 10
79.1708780726552
 20
-122.9535630660498
 10
79.1708780726552
 20
-122.9535630660498
 10
79.37689478267315
 20
-122.9535630660498
 10
79.58291149269108
 20
-123.0634616120293
 10
79.58291149269108
 20
-123.3321790598788
 10
79.58291149269108
 20
-123.569201629264
 10
79.42581513856369
 20
-123.6410318701314
 10
79.3605305791182
 20
-123.6706596913046
 10
79.42788219585483
 20
-123.6875406591823
 10
79.64819605213657
 20
-123.7467963015286
 10
79.64819605213657
 20
-124.0515149971989
 10
79.64819605213657
 20
-124.2819918851621
 10
79.49523381259148
 20
-124.4978271173131
 10
79.18310816162784
 20
-124.4978271173131
 97
        0
 97
        0
 92
        1
 93
        1
 72
     4
 94
        3
 73
     0
 74
     1
 95
       20
 96
       16
 40
0.0
 40
0.0
 40
0.0
 40
0.0
 40
1.0
 40
1.0
 40
1.0
 40
2.0
 40
2.0
 40
2.0
 40
3.0
 40
3.0
 40
3.0
 40
4.0
 40
4.0
 40
4.0
 40
5.0
 40
5.0
 40
5.0
 40
5.0
 10
79.10352645591857
 20
-123.1650919288441
 10
79.10352645591857
 20
-123.1650919288441
 10
78.75264348074587
 20
-123.1650919288441
 10
78.75264348074587
 20
-123.1650919288441
 10
78.75264348074587
 20
-123.1650919288441
 10
78.75264348074587
 20
-123.5817762277851
 10
78.75264348074587
 20
-123.5817762277851
 10
78.75264348074587
 20
-123.5817762277851
 10
79.10352645591857
 20
-123.5817762277851
 10
79.10352645591857
 20
-123.5817762277851
 10
79.23822968939183
 20
-123.5817762277851
 10
79.34623343285442
 20
-123.5268269547954
 10
79.34623343285442
 20
-123.3723144222819
 10
79.34623343285442
 20
-123.2052272912473
 10
79.21566431396344
 20
-123.1650919288441
 10
79.10352645591857
 20
-123.1650919288441
 97
        0
 97
        0
 92
        1
 93
        1
 72
     4
 94
        3
 73
     0
 74
     1
 95
       20
 96
       16
 40
0.0
 40
0.0
 40
0.0
 40
0.0
 40
1.0
 40
1.0
 40
1.0
 40
2.0
 40
2.0
 40
2.0
 40
3.0
 40
3.0
 40
3.0
 40
4.0
 40
4.0
 40
4.0
 40
5.0
 40
5.0
 40
5.0
 40
5.0
 10
79.15451386910027
 20
-123.7933050905795
 10
79.15451386910027
 20
-123.7933050905795
 10
78.75264348074587
 20
-123.7933050905795
 10
78.75264348074587
 20
-123.7933050905795
 10
78.75264348074587
 20
-123.7933050905795
 10
78.75264348074587
 20
-124.2862982545187
 10
78.75264348074587
 20
-124.2862982545187
 10
78.75264348074587
 20
-124.2862982545187
 10
79.15451386910027
 20
-124.2862982545187
 10
79.15451386910027
 20
-124.2862982545187
 10
79.30747610864536
 20
-124.2862982545187
 10
79.41358504959105
 20
-124.1953477337081
 10
79.41358504959105
 20
-124.0367010866124
 10
79.41358504959105
 20
-123.8990695219766
 10
79.32177325490915
 20
-123.7933050905795
 10
79.15451386910027
 20
-123.7933050905795
 97
        0
 97
        0
 75
     2
 76
     1
 98
        0
  0
SPLINE
  5
C2
330
A8
100
AcDbEntity
  8
_U+30EC_U+30A4_U+30E4_U+30FC 1
370
     0
100
AcDbSpline
210
0.0
220
0.0
230
1.0
 70
    11
 71
     3
 72
    50
 73
    46
 74
     0
 42
0.0000000001
 43
0.0000000001
 12
1.0
 22
0.0
 32
0.0
 13
1.0
 23
0.0
 33
0.0
 40
0.0
 40
0.0
 40
0.0
 40
0.0
 40
1.0
 40
1.0
 40
1.0
 40
2.0
 40
2.0
 40
2.0
 40
3.0
 40
3.0
 40
3.0
 40
4.0
 40
4.0
 40
4.0
 40
5.0
 40
5.0
 40
5.0
 40
6.0
 40
6.0
 40
6.0
 40
7.0
 40
7.0
 40
7.0
 40
8.0
 40
8.0
 40
8.0
 40
9.0
 40
9.0
 40
9.0
 40
10.0
 40
10.0
 40
10.0
 40
11.0
 40
11.0
 40
11.0
 40
12.0
 40
12.0
 40
12.0
 40
13.0
 40
13.0
 40
13.0
 40
14.0
 40
14.0
 40
14.0
 40
15.0
 40
15.0
 40
15.0
 40
15.0
 10
80.43453909664484
 20
-124.5486422757205
 30
0.0
 10
79.88986950042684
 20
-124.5486422757205
 30
0.0
 10
79.84697806163548
 20
-124.1572794285961
 30
0.0
 10
79.83078611285481
 20
-124.0027668960826
 30
0.0
 10
79.83078611285481
 20
-124.0027668960826
 30
0.0
 10
80.05316702642769
 20
-124.0027668960826
 30
0.0
 10
80.05316702642769
 20
-124.0027668960826
 30
0.0
 10
80.07762720437296
 20
-124.2990451078141
 30
0.0
 10
80.28967283149008
 20
-124.3476209541562
 30
0.0
 10
80.4407402685183
 20
-124.3476209541562
 30
0.0
 10
80.64468992124507
 20
-124.3476209541562
 30
0.0
 10
80.80798744724592
 20
-124.2482299494067
 30
0.0
 10
80.80798744724592
 20
-124.0832098756632
 30
0.0
 10
80.80798744724592
 20
-123.9224961712763
 30
0.0
 10
80.63245983227245
 20
-123.8694417008035
 30
0.0
 10
80.37338865178165
 20
-123.8124253705226
 30
0.0
 10
80.06935897520836
 20
-123.7447292442374
 30
0.0
 10
79.88177352603651
 20
-123.6410318701314
 30
0.0
 10
79.88177352603651
 20
-123.3723144222819
 30
0.0
 10
79.88177352603651
 20
-123.1122097131456
 30
0.0
 10
80.08158906418099
 20
-122.9027479076424
 30
0.0
 10
80.4264431222545
 20
-122.9027479076424
 30
0.0
 10
80.51412080235411
 20
-122.9027479076424
 30
0.0
 10
80.7773260974272
 20
-122.9196288755201
 30
0.0
 10
80.90789521631817
 20
-123.1142767704367
 30
0.0
 10
80.98144800492825
 20
-123.2264146284816
 30
0.0
 10
80.98540986473628
 20
-123.3385524865265
 30
0.0
 10
80.98747692202744
 20
-123.4019422434551
 30
0.0
 10
80.98747692202744
 20
-123.4019422434551
 30
0.0
 10
80.7731919828449
 20
-123.4019422434551
 30
0.0
 10
80.7731919828449
 20
-123.4019422434551
 30
0.0
 10
80.76096189387226
 20
-123.1523450755487
 30
0.0
 10
80.56924233011812
 20
-123.1142767704367
 30
0.0
 10
80.42851017954565
 20
-123.1142767704367
 30
0.0
 10
80.30000811794584
 20
-123.1142767704367
 30
0.0
 10
80.10208738231823
 20
-123.1650919288441
 30
0.0
 10
80.10208738231823
 20
-123.3490600277565
 30
0.0
 10
80.10208738231823
 20
-123.4611978858014
 30
0.0
 10
80.15514185279108
 20
-123.5183864708565
 30
0.0
 10
80.48552650982654
 20
-123.5945230810805
 30
0.0
 10
80.85484074584532
 20
-123.6811672325346
 30
0.0
 10
81.0303683608188
 20
-123.7912380332883
 30
0.0
 10
81.0303683608188
 20
-124.0599554811378
 30
0.0
 10
81.0303683608188
 20
-124.3138590184007
 30
0.0
 10
80.84674477145498
 20
-124.5486422757205
 30
0.0
 10
80.43453909664484
 20
-124.5486422757205
 30
0.0
  0
HATCH
  5
C3
330
A8
100
AcDbEntity
  8
_U+30EC_U+30A4_U+30E4_U+30FC 1
 62
   179
420
  2234388
100
AcDbHatch
 10
0.0
 20
0.0
 30
0.0
210
0.0
220
0.0
230
1.0
  2
SOLID
 70
     1
 71
     0
 91
        1
 92
        1
 93
        1
 72
     4
 94
        3
 73
     0
 74
     1
 95
       50
 96
       46
 40
0.0
 40
0.0
 40
0.0
 40
0.0
 40
1.0
 40
1.0
 40
1.0
 40
2.0
 40
2.0
 40
2.0
 40
3.0
 40
3.0
 40
3.0
 40
4.0
 40
4.0
 40
4.0
 40
5.0
 40
5.0
 40
5.0
 40
6.0
 40
6.0
 40
6.0
 40
7.0
 40
7.0
 40
7.0
 40
8.0
 40
8.0
 40
8.0
 40
9.0
 40
9.0
 40
9.0
 40
10.0
 40
10.0
 40
10.0
 40
11.0
 40
11.0
 40
11.0
 40
12.0
 40
12.0
 40
12.0
 40
13.0
 40
13.0
 40
13.0
 40
14.0
 40
14.0
 40
14.0
 40
15.0
 40
15.0
 40
15.0
 40
15.0
 10
80.43453909664484
 20
-124.5486422757205
 10
79.88986950042684
 20
-124.5486422757205
 10
79.84697806163548
 20
-124.1572794285961
 10
79.83078611285481
 20
-124.0027668960826
 10
79.83078611285481
 20
-124.0027668960826
 10
80.05316702642769
 20
-124.0027668960826
 10
80.05316702642769
 20
-124.0027668960826
 10
80.07762720437296
 20
-124.2990451078141
 10
80.28967283149008
 20
-124.3476209541562
 10
80.4407402685183
 20
-124.3476209541562
 10
80.64468992124507
 20
-124.3476209541562
 10
80.80798744724592
 20
-124.2482299494067
 10
80.80798744724592
 20
-124.0832098756632
 10
80.80798744724592
 20
-123.9224961712763
 10
80.63245983227245
 20
-123.8694417008035
 10
80.37338865178165
 20
-123.8124253705226
 10
80.06935897520836
 20
-123.7447292442374
 10
79.88177352603651
 20
-123.6410318701314
 10
79.88177352603651
 20
-123.3723144222819
 10
79.88177352603651
 20
-123.1122097131456
 10
80.08158906418099
 20
-122.9027479076424
 10
80.4264431222545
 20
-122.9027479076424
 10
80.51412080235411
 20
-122.9027479076424
 10
80.7773260974272
 20
-122.9196288755201
 10
80.90789521631817
 20
-123.1142767704367
 10
80.98144800492825
 20
-123.2264146284816
 10
80.98540986473628
 20
-123.3385524865265
 10
80.98747692202744
 20
-123.4019422434551
 10
80.98747692202744
 20
-123.4019422434551
 10
80.7731919828449
 20
-123.4019422434551
 10
80.7731919828449
 20
-123.4019422434551
 10
80.76096189387226
 20
-123.1523450755487
 10
80.56924233011812
 20
-123.1142767704367
 10
80.42851017954565
 20
-123.1142767704367
 10
80.30000811794584
 20
-123.1142767704367
 10
80.10208738231823
 20
-123.1650919288441
 10
80.10208738231823
 20
-123.3490600277565
 10
80.10208738231823
 20
-123.4611978858014
 10
80.15514185279108
 20
-123.5183864708565
 10
80.48552650982654
 20
-123.5945230810805
 10
80.85484074584532
 20
-123.6811672325346
 10
81.0303683608188
 20
-123.7912380332883
 10
81.0303683608188
 20
-124.0599554811378
 10
81.0303683608188
 20
-124.3138590184007
 10
80.84674477145498
 20
-124.5486422757205
 10
80.43453909664484
 20
-124.5486422757205
 97
        0
 97
        0
 75
     2
 76
     1
 98
        0
  0
SPLINE
  5
C4
330
A8
100
AcDbEntity
  8
_U+30EC_U+30A4_U+30E4_U+30FC 1
370
     0
100
AcDbSpline
210
0.0
220
0.0
230
1.0
 70
    11
 71
     3
 72
   122
 73
   118
 74
     0
 42
0.0000000001
 43
0.0000000001
 12
1.0
 22
0.0
 32
0.0
 13
1.0
 23
0.0
 33
0.0
 40
0.0
 40
0.0
 40
0.0
 40
0.0
 40
1.0
 40
1.0
 40
1.0
 40
2.0
 40
2.0
 40
2.0
 40
3.0
 40
3.0
 40
3.0
 40
4.0
 40
4.0
 40
4.0
 40
5.0
 40
5.0
 40
5.0
 40
6.0
 40
6.0
 40
6.0
 40
7.0
 40
7.0
 40
7.0
 40
8.0
 40
8.0
 40
8.0
 40
9.0
 40
9.0
 40
9.0
 40
10.0
 40
10.0
 40
10.0
 40
11.0
 40
11.0
 40
11.0
 40
12.0
 40
12.0
 40
12.0
 40
13.0
 40
13.0
 40
13.0
 40
14.0
 40
14.0
 40
14.0
 40
15.0
 40
15.0
 40
15.0
 40
16.0
 40
16.0
 40
16.0
 40
17.0
 40
17.0
 40
17.0
 40
18.0
 40
18.0
 40
18.0
 40
19.0
 40
19.0
 40
19.0
 40
20.0
 40
20.0
 40
20.0
 40
21.0
 40
21.0
 40
21.0
 40
22.0
 40
22.0
 40
22.0
 40
23.0
 40
23.0
 40
23.0
 40
24.0
 40
24.0
 40
24.0
 40
25.0
 40
25.0
 40
25.0
 40
26.0
 40
26.0
 40
26.0
 40
27.0
 40
27.0
 40
27.0
 40
28.0
 40
28.0
 40
28.0
 40
29.0
 40
29.0
 40
29.0
 40
30.0
 40
30.0
 40
30.0
 40
31.0
 40
31.0
 40
31.0
 40
32.0
 40
32.0
 40
32.0
 40
33.0
 40
33.0
 40
33.0
 40
34.0
 40
34.0
 40
34.0
 40
35.0
 40
35.0
 40
35.0
 40
36.0
 40
36.0
 40
36.0
 40
37.0
 40
37.0
 40
37.0
 40
38.0
 40
38.0
 40
38.0
 40
39.0
 40
39.0
 40
39.0
 40
39.0
 10
82.25320500330822
 20
-123.9202568592109
 30
0.0
 10
82.25320500330822
 20
-123.9202568592109
 30
0.0
 10
82.06355249684523
 20
-123.9202568592109
 30
0.0
 10
82.06355249684523
 20
-123.9202568592109
 30
0.0
 10
82.03495820431765
 20
-123.9202568592109
 30
0.0
 10
81.95330944131723
 20
-123.9224961712763
 30
0.0
 10
81.87389999038223
 20
-123.9309366552152
 30
0.0
 10
81.87992890748141
 20
-123.87374807016
 30
0.0
 10
81.87992890748141
 20
-123.808119001166
 30
0.0
 10
81.87992890748141
 20
-123.7659165814717
 30
0.0
 10
81.87992890748141
 20
-123.7659165814717
 30
0.0
 10
81.78002113840917
 20
-123.9309366552152
 30
0.0
 10
81.78002113840917
 20
-123.9309366552152
 30
0.0
 10
81.7555609604639
 20
-123.8928683501032
 30
0.0
 10
81.71266952167252
 20
-123.8293063384003
 30
0.0
 10
81.65548093661738
 20
-123.7235419070032
 30
0.0
 10
81.65548093661738
 20
-123.7235419070032
 30
0.0
 10
81.65548093661738
 20
-123.9858859282049
 30
0.0
 10
81.65548093661738
 20
-123.9858859282049
 30
0.0
 10
81.65548093661738
 20
-124.2375501534024
 30
0.0
 10
81.66771102559002
 20
-124.5169473972562
 30
0.0
 10
81.67804631204577
 20
-124.6523396498265
 30
0.0
 10
81.67804631204577
 20
-124.6523396498265
 30
0.0
 10
81.4840874362262
 20
-124.6523396498265
 30
0.0
 10
81.4840874362262
 20
-124.6523396498265
 30
0.0
 10
81.4882215508085
 20
-124.5210815118385
 30
0.0
 10
81.49028860809965
 20
-124.4173841377325
 30
0.0
 10
81.49028860809965
 20
-124.3348741008607
 30
0.0
 10
81.49028860809965
 20
-124.1043972128975
 30
0.0
 10
81.4923556653908
 20
-124.0789035063067
 30
0.0
 10
81.4923556653908
 20
-123.9963934694349
 30
0.0
 10
81.4923556653908
 20
-123.9963934694349
 30
0.0
 10
81.4923556653908
 20
-123.8399861344046
 30
0.0
 10
81.4923556653908
 20
-123.8399861344046
 30
0.0
 10
81.45153128389059
 20
-123.9519517376752
 30
0.0
 10
81.36574840630787
 20
-124.1085313274798
 30
0.0
 10
81.33732636855456
 20
-124.1488389446572
 30
0.0
 10
81.33732636855456
 20
-124.1488389446572
 30
0.0
 10
81.16593286816338
 20
-124.0832098756632
 30
0.0
 10
81.16593286816338
 20
-124.0832098756632
 30
0.0
 10
81.22105439592738
 20
-124.0091403227304
 30
0.0
 10
81.30873207602698
 20
-123.8928683501032
 30
0.0
 10
81.37797849528052
 20
-123.6834065446
 30
0.0
 10
81.40657278780809
 20
-123.5945230810805
 30
0.0
 10
81.44739716930829
 20
-123.4274359500459
 30
0.0
 10
81.45962725828093
 20
-123.3130587799356
 30
0.0
 10
81.37608369276361
 20
-123.3130587799356
 30
0.0
 10
81.30873207602698
 20
-123.3130587799356
 30
0.0
 10
81.24947643368068
 20
-123.3258056332311
 30
0.0
 10
81.24947643368068
 20
-123.3258056332311
 30
0.0
 10
81.24947643368068
 20
-123.135464107671
 30
0.0
 10
81.24947643368068
 20
-123.135464107671
 30
0.0
 10
81.32905813938996
 20
-123.1523450755487
 30
0.0
 10
81.43930119491796
 20
-123.1523450755487
 30
0.0
 10
81.44739716930829
 20
-123.1523450755487
 30
0.0
 10
81.44739716930829
 20
-123.1523450755487
 30
0.0
 10
81.4882215508085
 20
-123.1523450755487
 30
0.0
 10
81.4882215508085
 20
-123.1523450755487
 30
0.0
 10
81.48615449351735
 20
-122.9471896394021
 30
0.0
 10
81.4840874362262
 20
-122.8858669397647
 30
0.0
 10
81.47392440454472
 20
-122.7165404966646
 30
0.0
 10
81.47392440454472
 20
-122.7165404966646
 30
0.0
 10
81.66977808288117
 20
-122.7377278338989
 30
0.0
 10
81.66977808288117
 20
-122.7377278338989
 30
0.0
 10
81.68200817185381
 20
-122.7397948911901
 30
0.0
 10
81.70250648999104
 20
-122.7420342032555
 30
0.0
 10
81.70250648999104
 20
-122.7609822284243
 30
0.0
 10
81.70250648999104
 20
-122.7778631963021
 30
0.0
 10
81.6963053181176
 20
-122.7801025083675
 30
0.0
 10
81.65961505119968
 20
-122.8033569028929
 30
0.0
 10
81.65548093661738
 20
-122.8963744809947
 30
0.0
 10
81.65548093661738
 20
-122.9154947609378
 30
0.0
 10
81.65548093661738
 20
-123.1523450755487
 30
0.0
 10
81.67391219746347
 20
-123.1523450755487
 30
0.0
 10
81.76779104943652
 20
-123.1502780182576
 30
0.0
 10
81.84117158327236
 20
-123.135464107671
 30
0.0
 10
81.84117158327236
 20
-123.135464107671
 30
0.0
 10
81.84117158327236
 20
-123.3258056332311
 30
0.0
 10
81.84117158327236
 20
-123.3258056332311
 30
0.0
 10
81.78002113840917
 20
-123.3130587799356
 30
0.0
 10
81.70250648999104
 20
-123.3130587799356
 30
0.0
 10
81.65548093661738
 20
-123.3130587799356
 30
0.0
 10
81.65548093661738
 20
-123.3130587799356
 30
0.0
 10
81.65548093661738
 20
-123.3512993398219
 30
0.0
 10
81.65548093661738
 20
-123.3512993398219
 30
0.0
 10
81.65548093661738
 20
-123.3809271609951
 30
0.0
 10
81.71266952167252
 20
-123.5035725602699
 30
0.0
 10
81.73299558503551
 20
-123.541640865382
 30
0.0
 10
81.78208819570031
 20
-123.6325913861926
 30
0.0
 10
81.83100855159087
 20
-123.7002875124777
 30
0.0
 10
81.87992890748141
 20
-123.7636772694063
 30
0.0
 10
81.87992890748141
 20
-123.7636772694063
 30
0.0
 10
81.87992890748141
 20
-123.6389648128403
 30
0.0
 10
81.87992890748141
 20
-123.6389648128403
 30
0.0
 10
81.87992890748141
 20
-123.5881496544328
 30
0.0
 10
81.87786185019026
 20
-123.5395738080908
 30
0.0
 10
81.87389999038223
 20
-123.4887586496834
 30
0.0
 10
81.95330944131723
 20
-123.4971991336222
 30
0.0
 10
82.02892928721846
 20
-123.5015055029788
 30
0.0
 10
82.06355249684523
 20
-123.5015055029788
 30
0.0
 10
82.06355249684523
 20
-123.5015055029788
 30
0.0
 10
82.25320500330822
 20
-123.5015055029788
 30
0.0
 10
82.25320500330822
 20
-123.5015055029788
 30
0.0
 10
82.27973223854465
 20
-123.5015055029788
 30
0.0
 10
82.38187931968231
 20
-123.4951320763311
 30
0.0
 10
82.44096270725434
 20
-123.4887586496834
 30
0.0
 10
82.43682859267204
 20
-123.5352674387342
 30
0.0
 10
82.43493379015516
 20
-123.6198445328971
 30
0.0
 10
82.43493379015516
 20
-123.6389648128403
 30
0.0
 10
82.43493379015516
 20
-123.6389648128403
 30
0.0
 10
82.43493379015516
 20
-123.7827975493494
 30
0.0
 10
82.43493379015516
 20
-123.7827975493494
 30
0.0
 10
82.43493379015516
 20
-123.7955444026449
 30
0.0
 10
82.43682859267204
 20
-123.8842556113901
 30
0.0
 10
82.44096270725434
 20
-123.9309366552152
 30
0.0
 10
82.37567814780886
 20
-123.9245632285675
 30
0.0
 10
82.2919623275173
 20
-123.9202568592109
 30
0.0
 10
82.25320500330822
 20
-123.9202568592109
 30
0.0
  0
SPLINE
  5
C5
330
A8
100
AcDbEntity
  8
_U+30EC_U+30A4_U+30E4_U+30FC 1
370
     0
100
AcDbSpline
210
0.0
220
0.0
230
1.0
 70
    11
 71
     3
 72
    47
 73
    43
 74
     0
 42
0.0000000001
 43
0.0000000001
 12
1.0
 22
0.0
 32
0.0
 13
1.0
 23
0.0
 33
0.0
 40
0.0
 40
0.0
 40
0.0
 40
0.0
 40
1.0
 40
1.0
 40
1.0
 40
2.0
 40
2.0
 40
2.0
 40
3.0
 40
3.0
 40
3.0
 40
4.0
 40
4.0
 40
4.0
 40
5.0
 40
5.0
 40
5.0
 40
6.0
 40
6.0
 40
6.0
 40
7.0
 40
7.0
 40
7.0
 40
8.0
 40
8.0
 40
8.0
 40
9.0
 40
9.0
 40
9.0
 40
10.0
 40
10.0
 40
10.0
 40
11.0
 40
11.0
 40
11.0
 40
12.0
 40
12.0
 40
12.0
 40
13.0
 40
13.0
 40
13.0
 40
14.0
 40
14.0
 40
14.0
 40
14.0
 10
82.52674558483707
 20
-124.3751817180381
 30
0.0
 10
82.42459850369941
 20
-124.4153170804413
 30
0.0
 10
82.09007973208165
 20
-124.5210815118385
 30
0.0
 10
81.89629311103634
 20
-124.5718966702459
 30
0.0
 10
81.8942260537452
 20
-124.5930840074802
 30
0.0
 10
81.8900919391629
 20
-124.6204725165879
 30
0.0
 10
81.87183293309107
 20
-124.6204725165879
 30
0.0
 10
81.86149764663533
 20
-124.6204725165879
 30
0.0
 10
81.85133461495384
 20
-124.6163384020056
 30
0.0
 10
81.84117158327236
 20
-124.5951510647714
 30
0.0
 10
81.84117158327236
 20
-124.5951510647714
 30
0.0
 10
81.7514268458816
 20
-124.4025702271459
 30
0.0
 10
81.7514268458816
 20
-124.4025702271459
 30
0.0
 10
81.94728052421804
 20
-124.3856892592682
 30
0.0
 10
82.13693303068105
 20
-124.3371134129261
 30
0.0
 10
82.32675779191831
 20
-124.279924827871
 30
0.0
 10
82.32675779191831
 20
-124.279924827871
 30
0.0
 10
82.1941216157362
 20
-124.2270426121724
 30
0.0
 10
82.1941216157362
 20
-124.2270426121724
 30
0.0
 10
82.25320500330822
 20
-124.0937174168932
 30
0.0
 10
82.26750214957201
 20
-124.0027668960826
 30
0.0
 10
82.27370332144547
 20
-123.9519517376752
 30
0.0
 10
82.27370332144547
 20
-123.9519517376752
 30
0.0
 10
82.45319279622699
 20
-124.0027668960826
 30
0.0
 10
82.45319279622699
 20
-124.0027668960826
 30
0.0
 10
82.47162405707307
 20
-124.0070732654392
 30
0.0
 10
82.48178708875456
 20
-124.0112073800215
 30
0.0
 10
82.48178708875456
 20
-124.0260212906081
 30
0.0
 10
82.48178708875456
 20
-124.0492756851335
 30
0.0
 10
82.45319279622699
 20
-124.0599554811378
 30
0.0
 10
82.43286673286401
 20
-124.0663289077855
 30
0.0
 10
82.42253144640826
 20
-124.0916503596021
 30
0.0
 10
82.38187931968231
 20
-124.2017211603558
 30
0.0
 10
82.37154403322656
 20
-124.2227362428159
 30
0.0
 10
82.36344805883623
 20
-124.2397894654678
 30
0.0
 10
82.36344805883623
 20
-124.2439235800501
 30
0.0
 10
82.34708385528128
 20
-124.2735514012233
 30
0.0
 10
82.48178708875456
 20
-124.2334160388201
 30
0.0
 10
82.5389756738097
 20
-124.2101616442947
 30
0.0
 10
82.57566594072762
 20
-124.1953477337081
 30
0.0
 10
82.57566594072762
 20
-124.1953477337081
 30
0.0
 10
82.52674558483707
 20
-124.3751817180381
 30
0.0
 10
82.52674558483707
 20
-124.3751817180381
 30
0.0
  0
SPLINE
  5
C6
330
A8
100
AcDbEntity
  8
_U+30EC_U+30A4_U+30E4_U+30FC 1
370
     0
100
AcDbSpline
210
0.0
220
0.0
230
1.0
 70
    11
 71
     3
 72
    77
 73
    73
 74
     0
 42
0.0000000001
 43
0.0000000001
 12
1.0
 22
0.0
 32
0.0
 13
1.0
 23
0.0
 33
0.0
 40
0.0
 40
0.0
 40
0.0
 40
0.0
 40
1.0
 40
1.0
 40
1.0
 40
2.0
 40
2.0
 40
2.0
 40
3.0
 40
3.0
 40
3.0
 40
4.0
 40
4.0
 40
4.0
 40
5.0
 40
5.0
 40
5.0
 40
6.0
 40
6.0
 40
6.0
 40
7.0
 40
7.0
 40
7.0
 40
8.0
 40
8.0
 40
8.0
 40
9.0
 40
9.0
 40
9.0
 40
10.0
 40
10.0
 40
10.0
 40
11.0
 40
11.0
 40
11.0
 40
12.0
 40
12.0
 40
12.0
 40
13.0
 40
13.0
 40
13.0
 40
14.0
 40
14.0
 40
14.0
 40
15.0
 40
15.0
 40
15.0
 40
16.0
 40
16.0
 40
16.0
 40
17.0
 40
17.0
 40
17.0
 40
18.0
 40
18.0
 40
18.0
 40
19.0
 40
19.0
 40
19.0
 40
20.0
 40
20.0
 40
20.0
 40
21.0
 40
21.0
 40
21.0
 40
22.0
 40
22.0
 40
22.0
 40
23.0
 40
23.0
 40
23.0
 40
24.0
 40
24.0
 40
24.0
 40
24.0
 10
82.27163626415431
 20
-123.0805148346813
 30
0.0
 10
82.27163626415431
 20
-123.0805148346813
 30
0.0
 10
82.23908011181871
 20
-123.0805148346813
 30
0.0
 10
82.23908011181871
 20
-123.0805148346813
 30
0.0
 10
82.23908011181871
 20
-123.0805148346813
 30
0.0
 10
82.23908011181871
 20
-123.211600717895
 30
0.0
 10
82.23908011181871
 20
-123.211600717895
 30
0.0
 10
82.31039358836338
 20
-123.211600717895
 30
0.0
 10
82.3920423513638
 20
-123.2031602339562
 30
0.0
 10
82.4388956499632
 20
-123.1988538645996
 30
0.0
 10
82.4388956499632
 20
-123.1988538645996
 30
0.0
 10
82.4388956499632
 20
-123.3766207916385
 30
0.0
 10
82.4388956499632
 20
-123.3766207916385
 30
0.0
 10
82.37981226239116
 20
-123.3702473649908
 30
0.0
 10
82.28800046770925
 20
-123.3661132504085
 30
0.0
 10
82.2492431435002
 20
-123.3661132504085
 30
0.0
 10
82.2492431435002
 20
-123.3661132504085
 30
0.0
 10
82.06148543955408
 20
-123.3661132504085
 30
0.0
 10
82.06148543955408
 20
-123.3661132504085
 30
0.0
 10
82.02892928721846
 20
-123.3661132504085
 30
0.0
 10
81.93711749253656
 20
-123.3702473649908
 30
0.0
 10
81.87183293309107
 20
-123.3766207916385
 30
0.0
 10
81.87183293309107
 20
-123.3766207916385
 30
0.0
 10
81.87183293309107
 20
-123.1988538645996
 30
0.0
 10
81.87183293309107
 20
-123.1988538645996
 30
0.0
 10
81.91059025730013
 20
-123.2031602339562
 30
0.0
 10
81.99206676552629
 20
-123.211600717895
 30
0.0
 10
82.08198375769132
 20
-123.211600717895
 30
0.0
 10
82.08198375769132
 20
-123.211600717895
 30
0.0
 10
82.08198375769132
 20
-123.0805148346813
 30
0.0
 10
82.08198375769132
 20
-123.0805148346813
 30
0.0
 10
82.08198375769132
 20
-123.0805148346813
 30
0.0
 10
82.0370252616088
 20
-123.0805148346813
 30
0.0
 10
82.0370252616088
 20
-123.0805148346813
 30
0.0
 10
81.99620088010859
 20
-123.0805148346813
 30
0.0
 10
81.88406302206371
 20
-123.0846489492636
 30
0.0
 10
81.80241425906328
 20
-123.0930894332024
 30
0.0
 10
81.80241425906328
 20
-123.0930894332024
 30
0.0
 10
81.80241425906328
 20
-122.9132554488724
 30
0.0
 10
81.80241425906328
 20
-122.9132554488724
 30
0.0
 10
81.87786185019026
 20
-122.9216959328112
 30
0.0
 10
81.9860378484271
 20
-122.9260023021678
 30
0.0
 10
82.0370252616088
 20
-122.9260023021678
 30
0.0
 10
82.0370252616088
 20
-122.9260023021678
 30
0.0
 10
82.08198375769132
 20
-122.9260023021678
 30
0.0
 10
82.08198375769132
 20
-122.9260023021678
 30
0.0
 10
82.07784964310902
 20
-122.8603732331738
 30
0.0
 10
82.07578258581786
 20
-122.7906100495975
 30
0.0
 10
82.06975366871868
 20
-122.7272202926689
 30
0.0
 10
82.06975366871868
 20
-122.7272202926689
 30
0.0
 10
82.2492431435002
 20
-122.7420342032555
 30
0.0
 10
82.2492431435002
 20
-122.7420342032555
 30
0.0
 10
82.26147323247282
 20
-122.7420342032555
 30
0.0
 10
82.28800046770925
 20
-122.7441012605466
 30
0.0
 10
82.28800046770925
 20
-122.7652885977809
 30
0.0
 10
82.28800046770925
 20
-122.7821695656586
 30
0.0
 10
82.27370332144547
 20
-122.7926771068886
 30
0.0
 10
82.2451090289179
 20
-122.8117973868318
 30
0.0
 10
82.2409749143356
 20
-122.8498656919438
 30
0.0
 10
82.2409749143356
 20
-122.9111883915812
 30
0.0
 10
82.23908011181871
 20
-122.9260023021678
 30
0.0
 10
82.23908011181871
 20
-122.9260023021678
 30
0.0
 10
82.27163626415431
 20
-122.9260023021678
 30
0.0
 10
82.27163626415431
 20
-122.9260023021678
 30
0.0
 10
82.32055662004487
 20
-122.9260023021678
 30
0.0
 10
82.42666556099056
 20
-122.9216959328112
 30
0.0
 10
82.50418020940869
 20
-122.9132554488724
 30
0.0
 10
82.50418020940869
 20
-122.9132554488724
 30
0.0
 10
82.50418020940869
 20
-123.0930894332024
 30
0.0
 10
82.50418020940869
 20
-123.0930894332024
 30
0.0
 10
82.43286673286401
 20
-123.0846489492636
 30
0.0
 10
82.31659476023682
 20
-123.0805148346813
 30
0.0
 10
82.27163626415431
 20
-123.0805148346813
 30
0.0
  0
SPLINE
  5
C7
330
A8
100
AcDbEntity
  8
_U+30EC_U+30A4_U+30E4_U+30FC 1
370
     0
100
AcDbSpline
210
0.0
220
0.0
230
1.0
 70
    11
 71
     3
 72
    17
 73
    13
 74
     0
 42
0.0000000001
 43
0.0000000001
 12
1.0
 22
0.0
 32
0.0
 13
1.0
 23
0.0
 33
0.0
 40
0.0
 40
0.0
 40
0.0
 40
0.0
 40
1.0
 40
1.0
 40
1.0
 40
2.0
 40
2.0
 40
2.0
 40
3.0
 40
3.0
 40
3.0
 40
4.0
 40
4.0
 40
4.0
 40
4.0
 10
81.99206676552629
 20
-124.3138590184007
 30
0.0
 10
81.94314640963574
 20
-124.1720933391827
 30
0.0
 10
81.90438908542669
 20
-124.0916503596021
 30
0.0
 10
81.86563176121763
 20
-124.0344617745469
 30
0.0
 10
81.86563176121763
 20
-124.0344617745469
 30
0.0
 10
82.02066105805386
 20
-123.9667656482618
 30
0.0
 10
82.02066105805386
 20
-123.9667656482618
 30
0.0
 10
82.0921467893728
 20
-124.0620225384289
 30
0.0
 10
82.1247029417084
 20
-124.1488389446572
 30
0.0
 10
82.15123017694484
 20
-124.2354830961113
 30
0.0
 10
82.15123017694484
 20
-124.2354830961113
 30
0.0
 10
81.99206676552629
 20
-124.3138590184007
 30
0.0
 10
81.99206676552629
 20
-124.3138590184007
 30
0.0
  0
POLYLINE
  5
C8
330
A8
100
AcDbEntity
  8
_U+30EC_U+30A4_U+30E4_U+30FC 1
370
     0
100
AcDb2dPolyline
 66
     1
 10
0.0
 20
0.0
 30
0.0
  0
VERTEX
  5
C9
330
C8
100
AcDbEntity
  8
_U+30EC_U+30A4_U+30E4_U+30FC 1
370
     0
100
AcDbVertex
100
AcDb2dVertex
 10
82.28800046770925
 20
-123.617777475606
 30
0.0
  0
VERTEX
  5
CA
330
C8
100
AcDbEntity
  8
_U+30EC_U+30A4_U+30E4_U+30FC 1
370
     0
100
AcDbVertex
100
AcDb2dVertex
 10
82.03495820431765
 20
-123.617777475606
 30
0.0
  0
VERTEX
  5
CB
330
C8
100
AcDbEntity
  8
_U+30EC_U+30A4_U+30E4_U+30FC 1
370
     0
100
AcDbVertex
100
AcDb2dVertex
 10
82.03495820431765
 20
-123.7955444026449
 30
0.0
  0
VERTEX
  5
CC
330
C8
100
AcDbEntity
  8
_U+30EC_U+30A4_U+30E4_U+30FC 1
370
     0
100
AcDbVertex
100
AcDb2dVertex
 10
82.28800046770925
 20
-123.7955444026449
 30
0.0
  0
VERTEX
  5
CD
330
C8
100
AcDbEntity
  8
_U+30EC_U+30A4_U+30E4_U+30FC 1
370
     0
100
AcDbVertex
100
AcDb2dVertex
 10
82.28800046770925
 20
-123.617777475606
 30
0.0
  0
SEQEND
  5
CE
330
C8
100
AcDbEntity
  8
_U+30EC_U+30A4_U+30E4_U+30FC 1
370
     0
  0
SPLINE
  5
CF
330
A8
100
AcDbEntity
  8
_U+30EC_U+30A4_U+30E4_U+30FC 1
370
     0
100
AcDbSpline
210
0.0
220
0.0
230
1.0
 70
    11
 71
     3
 72
    17
 73
    13
 74
     0
 42
0.0000000001
 43
0.0000000001
 12
1.0
 22
0.0
 32
0.0
 13
1.0
 23
0.0
 33
0.0
 40
0.0
 40
0.0
 40
0.0
 40
0.0
 40
1.0
 40
1.0
 40
1.0
 40
2.0
 40
2.0
 40
2.0
 40
3.0
 40
3.0
 40
3.0
 40
4.0
 40
4.0
 40
4.0
 40
4.0
 10
82.60822209306322
 20
-123.9900200427872
 30
0.0
 10
82.59392494679943
 20
-123.8949354073943
 30
0.0
 10
82.56550290904613
 20
-123.7552367854674
 30
0.0
 10
82.4838541460457
 20
-123.6241509022537
 30
0.0
 10
82.4838541460457
 20
-123.6241509022537
 30
0.0
 10
82.6326822710085
 20
-123.5437079226731
 30
0.0
 10
82.6326822710085
 20
-123.5437079226731
 30
0.0
 10
82.71639809130006
 20
-123.6727267485957
 30
0.0
 10
82.74895424363568
 20
-123.7827975493494
 30
0.0
 10
82.76531844719062
 20
-123.901308834042
 30
0.0
 10
82.76531844719062
 20
-123.901308834042
 30
0.0
 10
82.60822209306322
 20
-123.9900200427872
 30
0.0
 10
82.60822209306322
 20
-123.9900200427872
 30
0.0
  0
SPLINE
  5
D0
330
A8
100
AcDbEntity
  8
_U+30EC_U+30A4_U+30E4_U+30FC 1
370
     0
100
AcDbSpline
210
0.0
220
0.0
230
1.0
 70
    11
 71
     3
 72
    68
 73
    64
 74
     0
 42
0.0000000001
 43
0.0000000001
 12
1.0
 22
0.0
 32
0.0
 13
1.0
 23
0.0
 33
0.0
 40
0.0
 40
0.0
 40
0.0
 40
0.0
 40
1.0
 40
1.0
 40
1.0
 40
2.0
 40
2.0
 40
2.0
 40
3.0
 40
3.0
 40
3.0
 40
4.0
 40
4.0
 40
4.0
 40
5.0
 40
5.0
 40
5.0
 40
6.0
 40
6.0
 40
6.0
 40
7.0
 40
7.0
 40
7.0
 40
8.0
 40
8.0
 40
8.0
 40
9.0
 40
9.0
 40
9.0
 40
10.0
 40
10.0
 40
10.0
 40
11.0
 40
11.0
 40
11.0
 40
12.0
 40
12.0
 40
12.0
 40
13.0
 40
13.0
 40
13.0
 40
14.0
 40
14.0
 40
14.0
 40
15.0
 40
15.0
 40
15.0
 40
16.0
 40
16.0
 40
16.0
 40
17.0
 40
17.0
 40
17.0
 40
18.0
 40
18.0
 40
18.0
 40
19.0
 40
19.0
 40
19.0
 40
20.0
 40
20.0
 40
20.0
 40
21.0
 40
21.0
 40
21.0
 40
21.0
 10
82.94480792197214
 20
-123.3554334544042
 30
0.0
 10
82.94480792197214
 20
-123.3554334544042
 30
0.0
 10
82.94480792197214
 20
-123.9498846803841
 30
0.0
 10
82.94480792197214
 20
-123.9498846803841
 30
0.0
 10
82.94480792197214
 20
-124.0535820544901
 30
0.0
 10
82.95514320842788
 20
-124.3116197063353
 30
0.0
 10
82.95514320842788
 20
-124.4132500231502
 30
0.0
 10
82.95514320842788
 20
-124.6078979180668
 30
0.0
 10
82.91845294150997
 20
-124.6523396498265
 30
0.0
 10
82.66747773540952
 20
-124.6501003377611
 30
0.0
 10
82.66747773540952
 20
-124.6501003377611
 30
0.0
 10
82.54293753361775
 20
-124.4661322388487
 30
0.0
 10
82.54293753361775
 20
-124.4661322388487
 30
0.0
 10
82.5816948578268
 20
-124.4681992961399
 30
0.0
 10
82.65524764643689
 20
-124.4725056654965
 30
0.0
 10
82.70003388774514
 20
-124.4725056654965
 30
0.0
 10
82.76531844719062
 20
-124.4725056654965
 30
0.0
 10
82.77151961906407
 20
-124.4533853855533
 30
0.0
 10
82.77151961906407
 20
-124.3793158326204
 30
0.0
 10
82.77151961906407
 20
-124.3793158326204
 30
0.0
 10
82.77151961906407
 20
-123.3512993398219
 30
0.0
 10
82.77151961906407
 20
-123.3512993398219
 30
0.0
 10
82.77151961906407
 20
-123.3512993398219
 30
0.0
 10
82.74499238382765
 20
-123.3512993398219
 30
0.0
 10
82.74499238382765
 20
-123.3512993398219
 30
0.0
 10
82.70416800232744
 20
-123.3512993398219
 30
0.0
 10
82.5899630869914
 20
-123.3575005116953
 30
0.0
 10
82.51038138128213
 20
-123.3638739383431
 30
0.0
 10
82.51038138128213
 20
-123.3638739383431
 30
0.0
 10
82.51038138128213
 20
-123.1862792660784
 30
0.0
 10
82.51038138128213
 20
-123.1862792660784
 30
0.0
 10
82.5858289724091
 20
-123.1924804379519
 30
0.0
 10
82.69400497064595
 20
-123.1967868073084
 30
0.0
 10
82.74499238382765
 20
-123.1967868073084
 30
0.0
 10
82.74499238382765
 20
-123.1967868073084
 30
0.0
 10
82.77151961906407
 20
-123.1967868073084
 30
0.0
 10
82.77151961906407
 20
-123.1967868073084
 30
0.0
 10
82.77151961906407
 20
-123.1967868073084
 30
0.0
 10
82.77151961906407
 20
-123.1247843116667
 30
0.0
 10
82.77151961906407
 20
-123.1247843116667
 30
0.0
 10
82.77151961906407
 20
-123.0465806441516
 30
0.0
 10
82.75722247280028
 20
-122.8138644441229
 30
0.0
 10
82.7470594411188
 20
-122.72928734996
 30
0.0
 10
82.7470594411188
 20
-122.72928734996
 30
0.0
 10
82.95514320842788
 20
-122.756848113842
 30
0.0
 10
82.95514320842788
 20
-122.756848113842
 30
0.0
 10
82.97133515720856
 20
-122.7589151711332
 30
0.0
 10
82.98563230347234
 20
-122.7609822284243
 30
0.0
 10
82.98563230347234
 20
-122.7778631963021
 30
0.0
 10
82.98563230347234
 20
-122.7969834762452
 30
0.0
 10
82.96737329740053
 20
-122.8074910174752
 30
0.0
 10
82.94687497926328
 20
-122.8181708134795
 30
0.0
 10
82.94480792197214
 20
-122.8943074237035
 30
0.0
 10
82.94480792197214
 20
-123.1924804379519
 30
0.0
 10
82.94480792197214
 20
-123.1947197500173
 30
0.0
 10
82.96117212552707
 20
-123.1947197500173
 30
0.0
 10
83.02042776787337
 20
-123.1904133806607
 30
0.0
 10
83.07348223834622
 20
-123.1862792660784
 30
0.0
 10
83.07348223834622
 20
-123.1862792660784
 30
0.0
 10
83.07348223834622
 20
-123.3638739383431
 30
0.0
 10
83.07348223834622
 20
-123.3638739383431
 30
0.0
 10
83.0285237422637
 20
-123.3597398237608
 30
0.0
 10
82.98373750095546
 20
-123.3554334544042
 30
0.0
 10
82.94480792197214
 20
-123.3554334544042
 30
0.0
  0
HATCH
  5
D1
330
A8
100
AcDbEntity
  8
_U+30EC_U+30A4_U+30E4_U+30FC 1
 62
   179
420
  2234388
100
AcDbHatch
 10
0.0
 20
0.0
 30
0.0
210
0.0
220
0.0
230
1.0
  2
SOLID
 70
     1
 71
     0
 91
        7
 92
        1
 93
        1
 72
     4
 94
        3
 73
     0
 74
     1
 95
      122
 96
      118
 40
0.0
 40
0.0
 40
0.0
 40
0.0
 40
1.0
 40
1.0
 40
1.0
 40
2.0
 40
2.0
 40
2.0
 40
3.0
 40
3.0
 40
3.0
 40
4.0
 40
4.0
 40
4.0
 40
5.0
 40
5.0
 40
5.0
 40
6.0
 40
6.0
 40
6.0
 40
7.0
 40
7.0
 40
7.0
 40
8.0
 40
8.0
 40
8.0
 40
9.0
 40
9.0
 40
9.0
 40
10.0
 40
10.0
 40
10.0
 40
11.0
 40
11.0
 40
11.0
 40
12.0
 40
12.0
 40
12.0
 40
13.0
 40
13.0
 40
13.0
 40
14.0
 40
14.0
 40
14.0
 40
15.0
 40
15.0
 40
15.0
 40
16.0
 40
16.0
 40
16.0
 40
17.0
 40
17.0
 40
17.0
 40
18.0
 40
18.0
 40
18.0
 40
19.0
 40
19.0
 40
19.0
 40
20.0
 40
20.0
 40
20.0
 40
21.0
 40
21.0
 40
21.0
 40
22.0
 40
22.0
 40
22.0
 40
23.0
 40
23.0
 40
23.0
 40
24.0
 40
24.0
 40
24.0
 40
25.0
 40
25.0
 40
25.0
 40
26.0
 40
26.0
 40
26.0
 40
27.0
 40
27.0
 40
27.0
 40
28.0
 40
28.0
 40
28.0
 40
29.0
 40
29.0
 40
29.0
 40
30.0
 40
30.0
 40
30.0
 40
31.0
 40
31.0
 40
31.0
 40
32.0
 40
32.0
 40
32.0
 40
33.0
 40
33.0
 40
33.0
 40
34.0
 40
34.0
 40
34.0
 40
35.0
 40
35.0
 40
35.0
 40
36.0
 40
36.0
 40
36.0
 40
37.0
 40
37.0
 40
37.0
 40
38.0
 40
38.0
 40
38.0
 40
39.0
 40
39.0
 40
39.0
 40
39.0
 10
82.25320500330822
 20
-123.9202568592109
 10
82.25320500330822
 20
-123.9202568592109
 10
82.06355249684523
 20
-123.9202568592109
 10
82.06355249684523
 20
-123.9202568592109
 10
82.03495820431765
 20
-123.9202568592109
 10
81.95330944131723
 20
-123.9224961712763
 10
81.87389999038223
 20
-123.9309366552152
 10
81.87992890748141
 20
-123.87374807016
 10
81.87992890748141
 20
-123.808119001166
 10
81.87992890748141
 20
-123.7659165814717
 10
81.87992890748141
 20
-123.7659165814717
 10
81.78002113840917
 20
-123.9309366552152
 10
81.78002113840917
 20
-123.9309366552152
 10
81.7555609604639
 20
-123.8928683501032
 10
81.71266952167252
 20
-123.8293063384003
 10
81.65548093661738
 20
-123.7235419070032
 10
81.65548093661738
 20
-123.7235419070032
 10
81.65548093661738
 20
-123.9858859282049
 10
81.65548093661738
 20
-123.9858859282049
 10
81.65548093661738
 20
-124.2375501534024
 10
81.66771102559002
 20
-124.5169473972562
 10
81.67804631204577
 20
-124.6523396498265
 10
81.67804631204577
 20
-124.6523396498265
 10
81.4840874362262
 20
-124.6523396498265
 10
81.4840874362262
 20
-124.6523396498265
 10
81.4882215508085
 20
-124.5210815118385
 10
81.49028860809965
 20
-124.4173841377325
 10
81.49028860809965
 20
-124.3348741008607
 10
81.49028860809965
 20
-124.1043972128975
 10
81.4923556653908
 20
-124.0789035063067
 10
81.4923556653908
 20
-123.9963934694349
 10
81.4923556653908
 20
-123.9963934694349
 10
81.4923556653908
 20
-123.8399861344046
 10
81.4923556653908
 20
-123.8399861344046
 10
81.45153128389059
 20
-123.9519517376752
 10
81.36574840630787
 20
-124.1085313274798
 10
81.33732636855456
 20
-124.1488389446572
 10
81.33732636855456
 20
-124.1488389446572
 10
81.16593286816338
 20
-124.0832098756632
 10
81.16593286816338
 20
-124.0832098756632
 10
81.22105439592738
 20
-124.0091403227304
 10
81.30873207602698
 20
-123.8928683501032
 10
81.37797849528052
 20
-123.6834065446
 10
81.40657278780809
 20
-123.5945230810805
 10
81.44739716930829
 20
-123.4274359500459
 10
81.45962725828093
 20
-123.3130587799356
 10
81.37608369276361
 20
-123.3130587799356
 10
81.30873207602698
 20
-123.3130587799356
 10
81.24947643368068
 20
-123.3258056332311
 10
81.24947643368068
 20
-123.3258056332311
 10
81.24947643368068
 20
-123.135464107671
 10
81.24947643368068
 20
-123.135464107671
 10
81.32905813938996
 20
-123.1523450755487
 10
81.43930119491796
 20
-123.1523450755487
 10
81.44739716930829
 20
-123.1523450755487
 10
81.44739716930829
 20
-123.1523450755487
 10
81.4882215508085
 20
-123.1523450755487
 10
81.4882215508085
 20
-123.1523450755487
 10
81.48615449351735
 20
-122.9471896394021
 10
81.4840874362262
 20
-122.8858669397647
 10
81.47392440454472
 20
-122.7165404966646
 10
81.47392440454472
 20
-122.7165404966646
 10
81.66977808288117
 20
-122.7377278338989
 10
81.66977808288117
 20
-122.7377278338989
 10
81.68200817185381
 20
-122.7397948911901
 10
81.70250648999104
 20
-122.7420342032555
 10
81.70250648999104
 20
-122.7609822284243
 10
81.70250648999104
 20
-122.7778631963021
 10
81.6963053181176
 20
-122.7801025083675
 10
81.65961505119968
 20
-122.8033569028929
 10
81.65548093661738
 20
-122.8963744809947
 10
81.65548093661738
 20
-122.9154947609378
 10
81.65548093661738
 20
-123.1523450755487
 10
81.67391219746347
 20
-123.1523450755487
 10
81.76779104943652
 20
-123.1502780182576
 10
81.84117158327236
 20
-123.135464107671
 10
81.84117158327236
 20
-123.135464107671
 10
81.84117158327236
 20
-123.3258056332311
 10
81.84117158327236
 20
-123.3258056332311
 10
81.78002113840917
 20
-123.3130587799356
 10
81.70250648999104
 20
-123.3130587799356
 10
81.65548093661738
 20
-123.3130587799356
 10
81.65548093661738
 20
-123.3130587799356
 10
81.65548093661738
 20
-123.3512993398219
 10
81.65548093661738
 20
-123.3512993398219
 10
81.65548093661738
 20
-123.3809271609951
 10
81.71266952167252
 20
-123.5035725602699
 10
81.73299558503551
 20
-123.541640865382
 10
81.78208819570031
 20
-123.6325913861926
 10
81.83100855159087
 20
-123.7002875124777
 10
81.87992890748141
 20
-123.7636772694063
 10
81.87992890748141
 20
-123.7636772694063
 10
81.87992890748141
 20
-123.6389648128403
 10
81.87992890748141
 20
-123.6389648128403
 10
81.87992890748141
 20
-123.5881496544328
 10
81.87786185019026
 20
-123.5395738080908
 10
81.87389999038223
 20
-123.4887586496834
 10
81.95330944131723
 20
-123.4971991336222
 10
82.02892928721846
 20
-123.5015055029788
 10
82.06355249684523
 20
-123.5015055029788
 10
82.06355249684523
 20
-123.5015055029788
 10
82.25320500330822
 20
-123.5015055029788
 10
82.25320500330822
 20
-123.5015055029788
 10
82.27973223854465
 20
-123.5015055029788
 10
82.38187931968231
 20
-123.4951320763311
 10
82.44096270725434
 20
-123.4887586496834
 10
82.43682859267204
 20
-123.5352674387342
 10
82.43493379015516
 20
-123.6198445328971
 10
82.43493379015516
 20
-123.6389648128403
 10
82.43493379015516
 20
-123.6389648128403
 10
82.43493379015516
 20
-123.7827975493494
 10
82.43493379015516
 20
-123.7827975493494
 10
82.43493379015516
 20
-123.7955444026449
 10
82.43682859267204
 20
-123.8842556113901
 10
82.44096270725434
 20
-123.9309366552152
 10
82.37567814780886
 20
-123.9245632285675
 10
82.2919623275173
 20
-123.9202568592109
 10
82.25320500330822
 20
-123.9202568592109
 97
        0
 97
        0
 92
        1
 93
        1
 72
     4
 94
        3
 73
     0
 74
     1
 95
       47
 96
       43
 40
0.0
 40
0.0
 40
0.0
 40
0.0
 40
1.0
 40
1.0
 40
1.0
 40
2.0
 40
2.0
 40
2.0
 40
3.0
 40
3.0
 40
3.0
 40
4.0
 40
4.0
 40
4.0
 40
5.0
 40
5.0
 40
5.0
 40
6.0
 40
6.0
 40
6.0
 40
7.0
 40
7.0
 40
7.0
 40
8.0
 40
8.0
 40
8.0
 40
9.0
 40
9.0
 40
9.0
 40
10.0
 40
10.0
 40
10.0
 40
11.0
 40
11.0
 40
11.0
 40
12.0
 40
12.0
 40
12.0
 40
13.0
 40
13.0
 40
13.0
 40
14.0
 40
14.0
 40
14.0
 40
14.0
 10
82.52674558483707
 20
-124.3751817180381
 10
82.42459850369941
 20
-124.4153170804413
 10
82.09007973208165
 20
-124.5210815118385
 10
81.89629311103634
 20
-124.5718966702459
 10
81.8942260537452
 20
-124.5930840074802
 10
81.8900919391629
 20
-124.6204725165879
 10
81.87183293309107
 20
-124.6204725165879
 10
81.86149764663533
 20
-124.6204725165879
 10
81.85133461495384
 20
-124.6163384020056
 10
81.84117158327236
 20
-124.5951510647714
 10
81.84117158327236
 20
-124.5951510647714
 10
81.7514268458816
 20
-124.4025702271459
 10
81.7514268458816
 20
-124.4025702271459
 10
81.94728052421804
 20
-124.3856892592682
 10
82.13693303068105
 20
-124.3371134129261
 10
82.32675779191831
 20
-124.279924827871
 10
82.32675779191831
 20
-124.279924827871
 10
82.1941216157362
 20
-124.2270426121724
 10
82.1941216157362
 20
-124.2270426121724
 10
82.25320500330822
 20
-124.0937174168932
 10
82.26750214957201
 20
-124.0027668960826
 10
82.27370332144547
 20
-123.9519517376752
 10
82.27370332144547
 20
-123.9519517376752
 10
82.45319279622699
 20
-124.0027668960826
 10
82.45319279622699
 20
-124.0027668960826
 10
82.47162405707307
 20
-124.0070732654392
 10
82.48178708875456
 20
-124.0112073800215
 10
82.48178708875456
 20
-124.0260212906081
 10
82.48178708875456
 20
-124.0492756851335
 10
82.45319279622699
 20
-124.0599554811378
 10
82.43286673286401
 20
-124.0663289077855
 10
82.42253144640826
 20
-124.0916503596021
 10
82.38187931968231
 20
-124.2017211603558
 10
82.37154403322656
 20
-124.2227362428159
 10
82.36344805883623
 20
-124.2397894654678
 10
82.36344805883623
 20
-124.2439235800501
 10
82.34708385528128
 20
-124.2735514012233
 10
82.48178708875456
 20
-124.2334160388201
 10
82.5389756738097
 20
-124.2101616442947
 10
82.57566594072762
 20
-124.1953477337081
 10
82.57566594072762
 20
-124.1953477337081
 10
82.52674558483707
 20
-124.3751817180381
 10
82.52674558483707
 20
-124.3751817180381
 97
        0
 97
        0
 92
        1
 93
        1
 72
     4
 94
        3
 73
     0
 74
     1
 95
       77
 96
       73
 40
0.0
 40
0.0
 40
0.0
 40
0.0
 40
1.0
 40
1.0
 40
1.0
 40
2.0
 40
2.0
 40
2.0
 40
3.0
 40
3.0
 40
3.0
 40
4.0
 40
4.0
 40
4.0
 40
5.0
 40
5.0
 40
5.0
 40
6.0
 40
6.0
 40
6.0
 40
7.0
 40
7.0
 40
7.0
 40
8.0
 40
8.0
 40
8.0
 40
9.0
 40
9.0
 40
9.0
 40
10.0
 40
10.0
 40
10.0
 40
11.0
 40
11.0
 40
11.0
 40
12.0
 40
12.0
 40
12.0
 40
13.0
 40
13.0
 40
13.0
 40
14.0
 40
14.0
 40
14.0
 40
15.0
 40
15.0
 40
15.0
 40
16.0
 40
16.0
 40
16.0
 40
17.0
 40
17.0
 40
17.0
 40
18.0
 40
18.0
 40
18.0
 40
19.0
 40
19.0
 40
19.0
 40
20.0
 40
20.0
 40
20.0
 40
21.0
 40
21.0
 40
21.0
 40
22.0
 40
22.0
 40
22.0
 40
23.0
 40
23.0
 40
23.0
 40
24.0
 40
24.0
 40
24.0
 40
24.0
 10
82.27163626415431
 20
-123.0805148346813
 10
82.27163626415431
 20
-123.0805148346813
 10
82.23908011181871
 20
-123.0805148346813
 10
82.23908011181871
 20
-123.0805148346813
 10
82.23908011181871
 20
-123.0805148346813
 10
82.23908011181871
 20
-123.211600717895
 10
82.23908011181871
 20
-123.211600717895
 10
82.31039358836338
 20
-123.211600717895
 10
82.3920423513638
 20
-123.2031602339562
 10
82.4388956499632
 20
-123.1988538645996
 10
82.4388956499632
 20
-123.1988538645996
 10
82.4388956499632
 20
-123.3766207916385
 10
82.4388956499632
 20
-123.3766207916385
 10
82.37981226239116
 20
-123.3702473649908
 10
82.28800046770925
 20
-123.3661132504085
 10
82.2492431435002
 20
-123.3661132504085
 10
82.2492431435002
 20
-123.3661132504085
 10
82.06148543955408
 20
-123.3661132504085
 10
82.06148543955408
 20
-123.3661132504085
 10
82.02892928721846
 20
-123.3661132504085
 10
81.93711749253656
 20
-123.3702473649908
 10
81.87183293309107
 20
-123.3766207916385
 10
81.87183293309107
 20
-123.3766207916385
 10
81.87183293309107
 20
-123.1988538645996
 10
81.87183293309107
 20
-123.1988538645996
 10
81.91059025730013
 20
-123.2031602339562
 10
81.99206676552629
 20
-123.211600717895
 10
82.08198375769132
 20
-123.211600717895
 10
82.08198375769132
 20
-123.211600717895
 10
82.08198375769132
 20
-123.0805148346813
 10
82.08198375769132
 20
-123.0805148346813
 10
82.08198375769132
 20
-123.0805148346813
 10
82.0370252616088
 20
-123.0805148346813
 10
82.0370252616088
 20
-123.0805148346813
 10
81.99620088010859
 20
-123.0805148346813
 10
81.88406302206371
 20
-123.0846489492636
 10
81.80241425906328
 20
-123.0930894332024
 10
81.80241425906328
 20
-123.0930894332024
 10
81.80241425906328
 20
-122.9132554488724
 10
81.80241425906328
 20
-122.9132554488724
 10
81.87786185019026
 20
-122.9216959328112
 10
81.9860378484271
 20
-122.9260023021678
 10
82.0370252616088
 20
-122.9260023021678
 10
82.0370252616088
 20
-122.9260023021678
 10
82.08198375769132
 20
-122.9260023021678
 10
82.08198375769132
 20
-122.9260023021678
 10
82.07784964310902
 20
-122.8603732331738
 10
82.07578258581786
 20
-122.7906100495975
 10
82.06975366871868
 20
-122.7272202926689
 10
82.06975366871868
 20
-122.7272202926689
 10
82.2492431435002
 20
-122.7420342032555
 10
82.2492431435002
 20
-122.7420342032555
 10
82.26147323247282
 20
-122.7420342032555
 10
82.28800046770925
 20
-122.7441012605466
 10
82.28800046770925
 20
-122.7652885977809
 10
82.28800046770925
 20
-122.7821695656586
 10
82.27370332144547
 20
-122.7926771068886
 10
82.2451090289179
 20
-122.8117973868318
 10
82.2409749143356
 20
-122.8498656919438
 10
82.2409749143356
 20
-122.9111883915812
 10
82.23908011181871
 20
-122.9260023021678
 10
82.23908011181871
 20
-122.9260023021678
 10
82.27163626415431
 20
-122.9260023021678
 10
82.27163626415431
 20
-122.9260023021678
 10
82.32055662004487
 20
-122.9260023021678
 10
82.42666556099056
 20
-122.9216959328112
 10
82.50418020940869
 20
-122.9132554488724
 10
82.50418020940869
 20
-122.9132554488724
 10
82.50418020940869
 20
-123.0930894332024
 10
82.50418020940869
 20
-123.0930894332024
 10
82.43286673286401
 20
-123.0846489492636
 10
82.31659476023682
 20
-123.0805148346813
 10
82.27163626415431
 20
-123.0805148346813
 97
        0
 97
        0
 92
        1
 93
        1
 72
     4
 94
        3
 73
     0
 74
     1
 95
       17
 96
       13
 40
0.0
 40
0.0
 40
0.0
 40
0.0
 40
1.0
 40
1.0
 40
1.0
 40
2.0
 40
2.0
 40
2.0
 40
3.0
 40
3.0
 40
3.0
 40
4.0
 40
4.0
 40
4.0
 40
4.0
 10
81.99206676552629
 20
-124.3138590184007
 10
81.94314640963574
 20
-124.1720933391827
 10
81.90438908542669
 20
-124.0916503596021
 10
81.86563176121763
 20
-124.0344617745469
 10
81.86563176121763
 20
-124.0344617745469
 10
82.02066105805386
 20
-123.9667656482618
 10
82.02066105805386
 20
-123.9667656482618
 10
82.0921467893728
 20
-124.0620225384289
 10
82.1247029417084
 20
-124.1488389446572
 10
82.15123017694484
 20
-124.2354830961113
 10
82.15123017694484
 20
-124.2354830961113
 10
81.99206676552629
 20
-124.3138590184007
 10
81.99206676552629
 20
-124.3138590184007
 97
        0
 97
        0
 92
        1
 93
        4
 72
     1
 10
82.28800046770925
 20
-123.617777475606
 11
82.03495820431765
 21
-123.617777475606
 72
     1
 10
82.03495820431765
 20
-123.617777475606
 11
82.03495820431765
 21
-123.7955444026449
 72
     1
 10
82.03495820431765
 20
-123.7955444026449
 11
82.28800046770925
 21
-123.7955444026449
 72
     1
 10
82.28800046770925
 20
-123.7955444026449
 11
82.28800046770925
 21
-123.617777475606
 97
        0
 92
        1
 93
        1
 72
     4
 94
        3
 73
     0
 74
     1
 95
       17
 96
       13
 40
0.0
 40
0.0
 40
0.0
 40
0.0
 40
1.0
 40
1.0
 40
1.0
 40
2.0
 40
2.0
 40
2.0
 40
3.0
 40
3.0
 40
3.0
 40
4.0
 40
4.0
 40
4.0
 40
4.0
 10
82.60822209306322
 20
-123.9900200427872
 10
82.59392494679943
 20
-123.8949354073943
 10
82.56550290904613
 20
-123.7552367854674
 10
82.4838541460457
 20
-123.6241509022537
 10
82.4838541460457
 20
-123.6241509022537
 10
82.6326822710085
 20
-123.5437079226731
 10
82.6326822710085
 20
-123.5437079226731
 10
82.71639809130006
 20
-123.6727267485957
 10
82.74895424363568
 20
-123.7827975493494
 10
82.76531844719062
 20
-123.901308834042
 10
82.76531844719062
 20
-123.901308834042
 10
82.60822209306322
 20
-123.9900200427872
 10
82.60822209306322
 20
-123.9900200427872
 97
        0
 97
        0
 92
        1
 93
        1
 72
     4
 94
        3
 73
     0
 74
     1
 95
       68
 96
       64
 40
0.0
 40
0.0
 40
0.0
 40
0.0
 40
1.0
 40
1.0
 40
1.0
 40
2.0
 40
2.0
 40
2.0
 40
3.0
 40
3.0
 40
3.0
 40
4.0
 40
4.0
 40
4.0
 40
5.0
 40
5.0
 40
5.0
 40
6.0
 40
6.0
 40
6.0
 40
7.0
 40
7.0
 40
7.0
 40
8.0
 40
8.0
 40
8.0
 40
9.0
 40
9.0
 40
9.0
 40
10.0
 40
10.0
 40
10.0
 40
11.0
 40
11.0
 40
11.0
 40
12.0
 40
12.0
 40
12.0
 40
13.0
 40
13.0
 40
13.0
 40
14.0
 40
14.0
 40
14.0
 40
15.0
 40
15.0
 40
15.0
 40
16.0
 40
16.0
 40
16.0
 40
17.0
 40
17.0
 40
17.0
 40
18.0
 40
18.0
 40
18.0
 40
19.0
 40
19.0
 40
19.0
 40
20.0
 40
20.0
 40
20.0
 40
21.0
 40
21.0
 40
21.0
 40
21.0
 10
82.94480792197214
 20
-123.3554334544042
 10
82.94480792197214
 20
-123.3554334544042
 10
82.94480792197214
 20
-123.9498846803841
 10
82.94480792197214
 20
-123.9498846803841
 10
82.94480792197214
 20
-124.0535820544901
 10
82.95514320842788
 20
-124.3116197063353
 10
82.95514320842788
 20
-124.4132500231502
 10
82.95514320842788
 20
-124.6078979180668
 10
82.91845294150997
 20
-124.6523396498265
 10
82.66747773540952
 20
-124.6501003377611
 10
82.66747773540952
 20
-124.6501003377611
 10
82.54293753361775
 20
-124.4661322388487
 10
82.54293753361775
 20
-124.4661322388487
 10
82.5816948578268
 20
-124.4681992961399
 10
82.65524764643689
 20
-124.4725056654965
 10
82.70003388774514
 20
-124.4725056654965
 10
82.76531844719062
 20
-124.4725056654965
 10
82.77151961906407
 20
-124.4533853855533
 10
82.77151961906407
 20
-124.3793158326204
 10
82.77151961906407
 20
-124.3793158326204
 10
82.77151961906407
 20
-123.3512993398219
 10
82.77151961906407
 20
-123.3512993398219
 10
82.77151961906407
 20
-123.3512993398219
 10
82.74499238382765
 20
-123.3512993398219
 10
82.74499238382765
 20
-123.3512993398219
 10
82.70416800232744
 20
-123.3512993398219
 10
82.5899630869914
 20
-123.3575005116953
 10
82.51038138128213
 20
-123.3638739383431
 10
82.51038138128213
 20
-123.3638739383431
 10
82.51038138128213
 20
-123.1862792660784
 10
82.51038138128213
 20
-123.1862792660784
 10
82.5858289724091
 20
-123.1924804379519
 10
82.69400497064595
 20
-123.1967868073084
 10
82.74499238382765
 20
-123.1967868073084
 10
82.74499238382765
 20
-123.1967868073084
 10
82.77151961906407
 20
-123.1967868073084
 10
82.77151961906407
 20
-123.1967868073084
 10
82.77151961906407
 20
-123.1967868073084
 10
82.77151961906407
 20
-123.1247843116667
 10
82.77151961906407
 20
-123.1247843116667
 10
82.77151961906407
 20
-123.0465806441516
 10
82.75722247280028
 20
-122.8138644441229
 10
82.7470594411188
 20
-122.72928734996
 10
82.7470594411188
 20
-122.72928734996
 10
82.95514320842788
 20
-122.756848113842
 10
82.95514320842788
 20
-122.756848113842
 10
82.97133515720856
 20
-122.7589151711332
 10
82.98563230347234
 20
-122.7609822284243
 10
82.98563230347234
 20
-122.7778631963021
 10
82.98563230347234
 20
-122.7969834762452
 10
82.96737329740053
 20
-122.8074910174752
 10
82.94687497926328
 20
-122.8181708134795
 10
82.94480792197214
 20
-122.8943074237035
 10
82.94480792197214
 20
-123.1924804379519
 10
82.94480792197214
 20
-123.1947197500173
 10
82.96117212552707
 20
-123.1947197500173
 10
83.02042776787337
 20
-123.1904133806607
 10
83.07348223834622
 20
-123.1862792660784
 10
83.07348223834622
 20
-123.1862792660784
 10
83.07348223834622
 20
-123.3638739383431
 10
83.07348223834622
 20
-123.3638739383431
 10
83.0285237422637
 20
-123.3597398237608
 10
82.98373750095546
 20
-123.3554334544042
 10
82.94480792197214
 20
-123.3554334544042
 97
        0
 97
        0
 75
     2
 76
     1
 98
        0
  0
SPLINE
  5
D2
330
A8
100
AcDbEntity
  8
_U+30EC_U+30A4_U+30E4_U+30FC 1
370
     0
100
AcDbSpline
210
0.0
220
0.0
230
1.0
 70
    11
 71
     3
 72
    59
 73
    55
 74
     0
 42
0.0000000001
 43
0.0000000001
 12
1.0
 22
0.0
 32
0.0
 13
1.0
 23
0.0
 33
0.0
 40
0.0
 40
0.0
 40
0.0
 40
0.0
 40
1.0
 40
1.0
 40
1.0
 40
2.0
 40
2.0
 40
2.0
 40
3.0
 40
3.0
 40
3.0
 40
4.0
 40
4.0
 40
4.0
 40
5.0
 40
5.0
 40
5.0
 40
6.0
 40
6.0
 40
6.0
 40
7.0
 40
7.0
 40
7.0
 40
8.0
 40
8.0
 40
8.0
 40
9.0
 40
9.0
 40
9.0
 40
10.0
 40
10.0
 40
10.0
 40
11.0
 40
11.0
 40
11.0
 40
12.0
 40
12.0
 40
12.0
 40
13.0
 40
13.0
 40
13.0
 40
14.0
 40
14.0
 40
14.0
 40
15.0
 40
15.0
 40
15.0
 40
16.0
 40
16.0
 40
16.0
 40
17.0
 40
17.0
 40
17.0
 40
18.0
 40
18.0
 40
18.0
 40
18.0
 10
83.61849634411274
 20
-124.6184054592968
 30
0.0
 10
83.61849634411274
 20
-124.6184054592968
 30
0.0
 10
83.52668454943083
 20
-124.4173841377325
 30
0.0
 10
83.52668454943083
 20
-124.4173841377325
 30
0.0
 10
83.57767196261253
 20
-124.4280639337367
 30
0.0
 10
83.64915769393147
 20
-124.4406385322579
 30
0.0
 10
83.70014510711316
 20
-124.4406385322579
 30
0.0
 10
83.75113252029486
 20
-124.4406385322579
 30
0.0
 10
83.75113252029486
 20
-124.4280639337367
 30
0.0
 10
83.75113252029486
 20
-124.3159260756919
 30
0.0
 10
83.75113252029486
 20
-124.3159260756919
 30
0.0
 10
83.75113252029486
 20
-123.9245632285675
 30
0.0
 10
83.75113252029486
 20
-123.9245632285675
 30
0.0
 10
83.75113252029486
 20
-123.9245632285675
 30
0.0
 10
83.54718286756807
 20
-123.9245632285675
 30
0.0
 10
83.54718286756807
 20
-123.9245632285675
 30
0.0
 10
83.53288572130428
 20
-124.1064642701887
 30
0.0
 10
83.51049260065015
 20
-124.4110107110848
 30
0.0
 10
83.40627846222135
 20
-124.5930840074802
 30
0.0
 10
83.40627846222135
 20
-124.5930840074802
 30
0.0
 10
83.21662595575835
 20
-124.5062676012519
 30
0.0
 10
83.21662595575835
 20
-124.5062676012519
 30
0.0
 10
83.2553832799674
 20
-124.4618258694922
 30
0.0
 10
83.30430363585796
 20
-124.4089436537936
 30
0.0
 10
83.35339624652276
 20
-124.1529730592395
 30
0.0
 10
83.37578936717689
 20
-124.0344617745469
 30
0.0
 10
83.38595239885838
 20
-123.9350707697975
 30
0.0
 10
83.38595239885838
 20
-123.6537787234268
 30
0.0
 10
83.38595239885838
 20
-123.6537787234268
 30
0.0
 10
83.38595239885838
 20
-123.0296996762738
 30
0.0
 10
83.38595239885838
 20
-123.0296996762738
 30
0.0
 10
83.38595239885838
 20
-122.9893920590964
 30
0.0
 10
83.38595239885838
 20
-122.8922403664124
 30
0.0
 10
83.37785642446804
 20
-122.7906100495975
 30
0.0
 10
83.45330401559501
 20
-122.7990505335364
 30
0.0
 10
83.54098169569463
 20
-122.7990505335364
 30
0.0
 10
83.54924992485923
 20
-122.7990505335364
 30
0.0
 10
83.54924992485923
 20
-122.7990505335364
 30
0.0
 10
83.73890243132222
 20
-122.7990505335364
 30
0.0
 10
83.73890243132222
 20
-122.7990505335364
 30
0.0
 10
83.83881020039446
 20
-122.7990505335364
 30
0.0
 10
83.88790281105928
 20
-122.7969834762452
 30
0.0
 10
83.92666013526834
 20
-122.7949164189541
 30
0.0
 10
83.92045896339489
 20
-122.8710530291781
 30
0.0
 10
83.91839190610374
 20
-122.9893920590964
 30
0.0
 10
83.91839190610374
 20
-123.0253933069173
 30
0.0
 10
83.91839190610374
 20
-123.0253933069173
 30
0.0
 10
83.91839190610374
 20
-123.6982204551866
 30
0.0
 10
83.91839190610374
 20
-123.6982204551866
 30
0.0
 10
83.91839190610374
 20
-123.808119001166
 30
0.0
 10
83.93062199507638
 20
-124.2968057957487
 30
0.0
 10
83.93062199507638
 20
-124.3961968004982
 30
0.0
 10
83.93062199507638
 20
-124.5867105808325
 30
0.0
 10
83.88790281105928
 20
-124.6268459432357
 30
0.0
 10
83.61849634411274
 20
-124.6184054592968
 30
0.0
  0
POLYLINE
  5
D3
330
A8
100
AcDbEntity
  8
_U+30EC_U+30A4_U+30E4_U+30FC 1
370
     0
100
AcDb2dPolyline
 66
     1
 10
0.0
 20
0.0
 30
0.0
  0
VERTEX
  5
D4
330
D3
100
AcDbEntity
  8
_U+30EC_U+30A4_U+30E4_U+30FC 1
370
     0
100
AcDbVertex
100
AcDb2dVertex
 10
83.75113252029486
 20
-122.9620035499887
 30
0.0
  0
VERTEX
  5
D5
330
D3
100
AcDbEntity
  8
_U+30EC_U+30A4_U+30E4_U+30FC 1
370
     0
100
AcDbVertex
100
AcDb2dVertex
 10
83.55734589924955
 20
-122.9620035499887
 30
0.0
  0
VERTEX
  5
D6
330
D3
100
AcDbEntity
  8
_U+30EC_U+30A4_U+30E4_U+30FC 1
370
     0
100
AcDbVertex
100
AcDb2dVertex
 10
83.55734589924955
 20
-123.2729234175325
 30
0.0
  0
VERTEX
  5
D7
330
D3
100
AcDbEntity
  8
_U+30EC_U+30A4_U+30E4_U+30FC 1
370
     0
100
AcDbVertex
100
AcDb2dVertex
 10
83.75113252029486
 20
-123.2729234175325
 30
0.0
  0
VERTEX
  5
D8
330
D3
100
AcDbEntity
  8
_U+30EC_U+30A4_U+30E4_U+30FC 1
370
     0
100
AcDbVertex
100
AcDb2dVertex
 10
83.75113252029486
 20
-122.9620035499887
 30
0.0
  0
SEQEND
  5
D9
330
D3
100
AcDbEntity
  8
_U+30EC_U+30A4_U+30E4_U+30FC 1
370
     0
  0
POLYLINE
  5
DA
330
A8
100
AcDbEntity
  8
_U+30EC_U+30A4_U+30E4_U+30FC 1
370
     0
100
AcDb2dPolyline
 66
     1
 10
0.0
 20
0.0
 30
0.0
  0
VERTEX
  5
DB
330
DA
100
AcDbEntity
  8
_U+30EC_U+30A4_U+30E4_U+30FC 1
370
     0
100
AcDbVertex
100
AcDb2dVertex
 10
83.75113252029486
 20
-123.4379434912759
 30
0.0
  0
VERTEX
  5
DC
330
DA
100
AcDbEntity
  8
_U+30EC_U+30A4_U+30E4_U+30FC 1
370
     0
100
AcDbVertex
100
AcDb2dVertex
 10
83.55734589924955
 20
-123.4379434912759
 30
0.0
  0
VERTEX
  5
DD
330
DA
100
AcDbEntity
  8
_U+30EC_U+30A4_U+30E4_U+30FC 1
370
     0
100
AcDbVertex
100
AcDb2dVertex
 10
83.55734589924955
 20
-123.7511026708851
 30
0.0
  0
VERTEX
  5
DE
330
DA
100
AcDbEntity
  8
_U+30EC_U+30A4_U+30E4_U+30FC 1
370
     0
100
AcDbVertex
100
AcDb2dVertex
 10
83.75113252029486
 20
-123.7511026708851
 30
0.0
  0
VERTEX
  5
DF
330
DA
100
AcDbEntity
  8
_U+30EC_U+30A4_U+30E4_U+30FC 1
370
     0
100
AcDbVertex
100
AcDb2dVertex
 10
83.75113252029486
 20
-123.4379434912759
 30
0.0
  0
SEQEND
  5
E0
330
DA
100
AcDbEntity
  8
_U+30EC_U+30A4_U+30E4_U+30FC 1
370
     0
  0
SPLINE
  5
E1
330
A8
100
AcDbEntity
  8
_U+30EC_U+30A4_U+30E4_U+30FC 1
370
     0
100
AcDbSpline
210
0.0
220
0.0
230
1.0
 70
    11
 71
     3
 72
    62
 73
    58
 74
     0
 42
0.0000000001
 43
0.0000000001
 12
1.0
 22
0.0
 32
0.0
 13
1.0
 23
0.0
 33
0.0
 40
0.0
 40
0.0
 40
0.0
 40
0.0
 40
1.0
 40
1.0
 40
1.0
 40
2.0
 40
2.0
 40
2.0
 40
3.0
 40
3.0
 40
3.0
 40
4.0
 40
4.0
 40
4.0
 40
5.0
 40
5.0
 40
5.0
 40
6.0
 40
6.0
 40
6.0
 40
7.0
 40
7.0
 40
7.0
 40
8.0
 40
8.0
 40
8.0
 40
9.0
 40
9.0
 40
9.0
 40
10.0
 40
10.0
 40
10.0
 40
11.0
 40
11.0
 40
11.0
 40
12.0
 40
12.0
 40
12.0
 40
13.0
 40
13.0
 40
13.0
 40
14.0
 40
14.0
 40
14.0
 40
15.0
 40
15.0
 40
15.0
 40
16.0
 40
16.0
 40
16.0
 40
17.0
 40
17.0
 40
17.0
 40
18.0
 40
18.0
 40
18.0
 40
19.0
 40
19.0
 40
19.0
 40
19.0
 10
84.82427976395019
 20
-123.5395738080908
 30
0.0
 10
84.82427976395019
 20
-123.5395738080908
 30
0.0
 10
84.24481470333116
 20
-123.5395738080908
 30
0.0
 10
84.24481470333116
 20
-123.5395738080908
 30
0.0
 10
84.10201549546755
 20
-123.5395738080908
 30
0.0
 10
84.06119111396734
 20
-123.4971991336222
 30
0.0
 10
84.06119111396734
 20
-123.3406195438176
 30
0.0
 10
84.06119111396734
 20
-123.3406195438176
 30
0.0
 10
84.06119111396734
 20
-123.0465806441516
 30
0.0
 10
84.06119111396734
 20
-123.0465806441516
 30
0.0
 10
84.06119111396734
 20
-122.9620035499887
 30
0.0
 10
84.0591240566762
 20
-122.9196288755201
 30
0.0
 10
84.05309513957701
 20
-122.7652885977809
 30
0.0
 10
84.05309513957701
 20
-122.7652885977809
 30
0.0
 10
84.25101587520462
 20
-122.7926771068886
 30
0.0
 10
84.25101587520462
 20
-122.7926771068886
 30
0.0
 10
84.27134193856759
 20
-122.7949164189541
 30
0.0
 10
84.28977319941367
 20
-122.7969834762452
 30
0.0
 10
84.28977319941367
 20
-122.8159315014141
 30
0.0
 10
84.28977319941367
 20
-122.8307454120007
 30
0.0
 10
84.27754311044103
 20
-122.8393581507138
 30
0.0
 10
84.24688176062232
 20
-122.8603732331738
 30
0.0
 10
84.24481470333116
 20
-122.9513237539844
 30
0.0
 10
84.24274764604002
 20
-122.9873250018053
 30
0.0
 10
84.24274764604002
 20
-123.0276326189827
 30
0.0
 10
84.51818303008574
 20
-122.9704440339275
 30
0.0
 10
84.708007791323
 20
-122.8710530291781
 30
0.0
 10
84.82841387853249
 20
-122.7609822284243
 30
0.0
 10
84.82841387853249
 20
-122.7609822284243
 30
0.0
 10
85.0037692387317
 20
-122.8943074237035
 30
0.0
 10
85.0037692387317
 20
-122.8943074237035
 30
0.0
 10
85.007903353314
 20
-122.8984415382858
 30
0.0
 10
85.01806638499549
 20
-122.9068820222247
 30
0.0
 10
85.01806638499549
 20
-122.9175618182289
 30
0.0
 10
85.01806638499549
 20
-122.9408162127544
 30
0.0
 10
84.98947209246792
 20
-122.9387491554632
 30
0.0
 10
84.95278182555
 20
-122.9344427861067
 30
0.0
 10
84.61826305393224
 20
-123.1311577383144
 30
0.0
 10
84.33455944072192
 20
-123.1862792660784
 30
0.0
 10
84.24085284352313
 20
-123.1988538645996
 30
0.0
 10
84.24085284352313
 20
-123.1988538645996
 30
0.0
 10
84.24085284352313
 20
-123.2941107547668
 30
0.0
 10
84.24085284352313
 20
-123.2941107547668
 30
0.0
 10
84.24085284352313
 20
-123.3638739383431
 30
0.0
 10
84.27134193856759
 20
-123.3638739383431
 30
0.0
 10
84.33266463820503
 20
-123.3638739383431
 30
0.0
 10
84.33266463820503
 20
-123.3638739383431
 30
0.0
 10
84.77535940805964
 20
-123.3638739383431
 30
0.0
 10
84.77535940805964
 20
-123.3638739383431
 30
0.0
 10
84.87113306254957
 20
-123.3638739383431
 30
0.0
 10
84.88336315152222
 20
-123.3469929704653
 30
0.0
 10
84.9486477109677
 20
-123.0846489492636
 30
0.0
 10
84.9486477109677
 20
-123.0846489492636
 30
0.0
 10
85.11194523696855
 20
-123.2327880551293
 30
0.0
 10
85.11194523696855
 20
-123.2327880551293
 30
0.0
 10
85.02822941667698
 20
-123.5268269547954
 30
0.0
 10
84.99774032163252
 20
-123.5395738080908
 30
0.0
 10
84.82427976395019
 20
-123.5395738080908
 30
0.0
  0
SPLINE
  5
E2
330
A8
100
AcDbEntity
  8
_U+30EC_U+30A4_U+30E4_U+30FC 1
370
     0
100
AcDbSpline
210
0.0
220
0.0
230
1.0
 70
    11
 71
     3
 72
    50
 73
    46
 74
     0
 42
0.0000000001
 43
0.0000000001
 12
1.0
 22
0.0
 32
0.0
 13
1.0
 23
0.0
 33
0.0
 40
0.0
 40
0.0
 40
0.0
 40
0.0
 40
1.0
 40
1.0
 40
1.0
 40
2.0
 40
2.0
 40
2.0
 40
3.0
 40
3.0
 40
3.0
 40
4.0
 40
4.0
 40
4.0
 40
5.0
 40
5.0
 40
5.0
 40
6.0
 40
6.0
 40
6.0
 40
7.0
 40
7.0
 40
7.0
 40
8.0
 40
8.0
 40
8.0
 40
9.0
 40
9.0
 40
9.0
 40
10.0
 40
10.0
 40
10.0
 40
11.0
 40
11.0
 40
11.0
 40
12.0
 40
12.0
 40
12.0
 40
13.0
 40
13.0
 40
13.0
 40
14.0
 40
14.0
 40
14.0
 40
15.0
 40
15.0
 40
15.0
 40
15.0
 10
84.80188664329606
 20
-124.6268459432357
 30
0.0
 10
84.80378144581294
 20
-124.6184054592968
 30
0.0
 10
84.80791556039524
 20
-124.5443359063639
 30
0.0
 10
84.80791556039524
 20
-124.5338283651339
 30
0.0
 10
84.80791556039524
 20
-124.5338283651339
 30
0.0
 10
84.29390731399597
 20
-124.5338283651339
 30
0.0
 10
84.29390731399597
 20
-124.5338283651339
 30
0.0
 10
84.29390731399597
 20
-124.5486422757205
 30
0.0
 10
84.29580211651286
 20
-124.5951510647714
 30
0.0
 10
84.29993623109516
 20
-124.6289130005268
 30
0.0
 10
84.29993623109516
 20
-124.6289130005268
 30
0.0
 10
84.09598657836837
 20
-124.6289130005268
 30
0.0
 10
84.09598657836837
 20
-124.6289130005268
 30
0.0
 10
84.11028372463215
 20
-124.5274549384862
 30
0.0
 10
84.11028372463215
 20
-124.4132500231502
 30
0.0
 10
84.11028372463215
 20
-124.345553896865
 30
0.0
 10
84.11028372463215
 20
-124.345553896865
 30
0.0
 10
84.11028372463215
 20
-123.9435112537363
 30
0.0
 10
84.11028372463215
 20
-123.9435112537363
 30
0.0
 10
84.11028372463215
 20
-123.7996785172272
 30
0.0
 10
84.10821666734101
 20
-123.7467963015286
 30
0.0
 10
84.10408255275871
 20
-123.6811672325346
 30
0.0
 10
84.21622041080359
 20
-123.6918470285388
 30
0.0
 10
84.35919187344146
 20
-123.6918470285388
 30
0.0
 10
84.39174802577706
 20
-123.6918470285388
 30
0.0
 10
84.39174802577706
 20
-123.6918470285388
 30
0.0
 10
84.71610376571334
 20
-123.6918470285388
 30
0.0
 10
84.71610376571334
 20
-123.6918470285388
 30
0.0
 10
84.77329235076849
 20
-123.6918470285388
 30
0.0
 10
84.9569159401323
 20
-123.6854736018911
 30
0.0
 10
85.0037692387317
 20
-123.6834065446
 30
0.0
 10
85.00170218144055
 20
-123.7383558175897
 30
0.0
 10
84.99774032163252
 20
-123.8970024646855
 30
0.0
 10
84.99774032163252
 20
-123.939377139154
 30
0.0
 10
84.99774032163252
 20
-123.939377139154
 30
0.0
 10
84.99774032163252
 20
-124.3371134129261
 30
0.0
 10
84.99774032163252
 20
-124.3371134129261
 30
0.0
 10
84.99774032163252
 20
-124.3688082913904
 30
0.0
 10
85.00170218144055
 20
-124.5083346585431
 30
0.0
 10
85.00170218144055
 20
-124.5379624797162
 30
0.0
 10
85.0037692387317
 20
-124.5718966702459
 30
0.0
 10
85.0037692387317
 20
-124.5951510647714
 30
0.0
 10
85.00583629602285
 20
-124.6268459432357
 30
0.0
 10
85.00583629602285
 20
-124.6268459432357
 30
0.0
 10
84.80188664329606
 20
-124.6268459432357
 30
0.0
 10
84.80188664329606
 20
-124.6268459432357
 30
0.0
  0
POLYLINE
  5
E3
330
A8
100
AcDbEntity
  8
_U+30EC_U+30A4_U+30E4_U+30FC 1
370
     0
100
AcDb2dPolyline
 66
     1
 10
0.0
 20
0.0
 30
0.0
  0
VERTEX
  5
E4
330
E3
100
AcDbEntity
  8
_U+30EC_U+30A4_U+30E4_U+30FC 1
370
     0
100
AcDbVertex
100
AcDb2dVertex
 10
84.80791556039524
 20
-123.8525607329258
 30
0.0
  0
VERTEX
  5
E5
330
E3
100
AcDbEntity
  8
_U+30EC_U+30A4_U+30E4_U+30FC 1
370
     0
100
AcDbVertex
100
AcDb2dVertex
 10
84.29184025670482
 20
-123.8525607329258
 30
0.0
  0
VERTEX
  5
E6
330
E3
100
AcDbEntity
  8
_U+30EC_U+30A4_U+30E4_U+30FC 1
370
     0
100
AcDbVertex
100
AcDb2dVertex
 10
84.29184025670482
 20
-124.0344617745469
 30
0.0
  0
VERTEX
  5
E7
330
E3
100
AcDbEntity
  8
_U+30EC_U+30A4_U+30E4_U+30FC 1
370
     0
100
AcDbVertex
100
AcDb2dVertex
 10
84.80791556039524
 20
-124.0344617745469
 30
0.0
  0
VERTEX
  5
E8
330
E3
100
AcDbEntity
  8
_U+30EC_U+30A4_U+30E4_U+30FC 1
370
     0
100
AcDbVertex
100
AcDb2dVertex
 10
84.80791556039524
 20
-123.8525607329258
 30
0.0
  0
SEQEND
  5
E9
330
E3
100
AcDbEntity
  8
_U+30EC_U+30A4_U+30E4_U+30FC 1
370
     0
  0
POLYLINE
  5
EA
330
A8
100
AcDbEntity
  8
_U+30EC_U+30A4_U+30E4_U+30FC 1
370
     0
100
AcDb2dPolyline
 66
     1
 10
0.0
 20
0.0
 30
0.0
  0
VERTEX
  5
EB
330
EA
100
AcDbEntity
  8
_U+30EC_U+30A4_U+30E4_U+30FC 1
370
     0
100
AcDbVertex
100
AcDb2dVertex
 10
84.80791556039524
 20
-124.1889743070604
 30
0.0
  0
VERTEX
  5
EC
330
EA
100
AcDbEntity
  8
_U+30EC_U+30A4_U+30E4_U+30FC 1
370
     0
100
AcDbVertex
100
AcDb2dVertex
 10
84.29184025670482
 20
-124.1889743070604
 30
0.0
  0
VERTEX
  5
ED
330
EA
100
AcDbEntity
  8
_U+30EC_U+30A4_U+30E4_U+30FC 1
370
     0
100
AcDbVertex
100
AcDb2dVertex
 10
84.29184025670482
 20
-124.3751817180381
 30
0.0
  0
VERTEX
  5
EE
330
EA
100
AcDbEntity
  8
_U+30EC_U+30A4_U+30E4_U+30FC 1
370
     0
100
AcDbVertex
100
AcDb2dVertex
 10
84.80791556039524
 20
-124.3751817180381
 30
0.0
  0
VERTEX
  5
EF
330
EA
100
AcDbEntity
  8
_U+30EC_U+30A4_U+30E4_U+30FC 1
370
     0
100
AcDbVertex
100
AcDb2dVertex
 10
84.80791556039524
 20
-124.1889743070604
 30
0.0
  0
SEQEND
  5
F0
330
EA
100
AcDbEntity
  8
_U+30EC_U+30A4_U+30E4_U+30FC 1
370
     0
  0
HATCH
  5
F1
330
A8
100
AcDbEntity
  8
_U+30EC_U+30A4_U+30E4_U+30FC 1
 62
   179
420
  2234388
100
AcDbHatch
 10
0.0
 20
0.0
 30
0.0
210
0.0
220
0.0
230
1.0
  2
SOLID
 70
     1
 71
     0
 91
        7
 92
        1
 93
        1
 72
     4
 94
        3
 73
     0
 74
     1
 95
       59
 96
       55
 40
0.0
 40
0.0
 40
0.0
 40
0.0
 40
1.0
 40
1.0
 40
1.0
 40
2.0
 40
2.0
 40
2.0
 40
3.0
 40
3.0
 40
3.0
 40
4.0
 40
4.0
 40
4.0
 40
5.0
 40
5.0
 40
5.0
 40
6.0
 40
6.0
 40
6.0
 40
7.0
 40
7.0
 40
7.0
 40
8.0
 40
8.0
 40
8.0
 40
9.0
 40
9.0
 40
9.0
 40
10.0
 40
10.0
 40
10.0
 40
11.0
 40
11.0
 40
11.0
 40
12.0
 40
12.0
 40
12.0
 40
13.0
 40
13.0
 40
13.0
 40
14.0
 40
14.0
 40
14.0
 40
15.0
 40
15.0
 40
15.0
 40
16.0
 40
16.0
 40
16.0
 40
17.0
 40
17.0
 40
17.0
 40
18.0
 40
18.0
 40
18.0
 40
18.0
 10
83.61849634411274
 20
-124.6184054592968
 10
83.61849634411274
 20
-124.6184054592968
 10
83.52668454943083
 20
-124.4173841377325
 10
83.52668454943083
 20
-124.4173841377325
 10
83.57767196261253
 20
-124.4280639337367
 10
83.64915769393147
 20
-124.4406385322579
 10
83.70014510711316
 20
-124.4406385322579
 10
83.75113252029486
 20
-124.4406385322579
 10
83.75113252029486
 20
-124.4280639337367
 10
83.75113252029486
 20
-124.3159260756919
 10
83.75113252029486
 20
-124.3159260756919
 10
83.75113252029486
 20
-123.9245632285675
 10
83.75113252029486
 20
-123.9245632285675
 10
83.75113252029486
 20
-123.9245632285675
 10
83.54718286756807
 20
-123.9245632285675
 10
83.54718286756807
 20
-123.9245632285675
 10
83.53288572130428
 20
-124.1064642701887
 10
83.51049260065015
 20
-124.4110107110848
 10
83.40627846222135
 20
-124.5930840074802
 10
83.40627846222135
 20
-124.5930840074802
 10
83.21662595575835
 20
-124.5062676012519
 10
83.21662595575835
 20
-124.5062676012519
 10
83.2553832799674
 20
-124.4618258694922
 10
83.30430363585796
 20
-124.4089436537936
 10
83.35339624652276
 20
-124.1529730592395
 10
83.37578936717689
 20
-124.0344617745469
 10
83.38595239885838
 20
-123.9350707697975
 10
83.38595239885838
 20
-123.6537787234268
 10
83.38595239885838
 20
-123.6537787234268
 10
83.38595239885838
 20
-123.0296996762738
 10
83.38595239885838
 20
-123.0296996762738
 10
83.38595239885838
 20
-122.9893920590964
 10
83.38595239885838
 20
-122.8922403664124
 10
83.37785642446804
 20
-122.7906100495975
 10
83.45330401559501
 20
-122.7990505335364
 10
83.54098169569463
 20
-122.7990505335364
 10
83.54924992485923
 20
-122.7990505335364
 10
83.54924992485923
 20
-122.7990505335364
 10
83.73890243132222
 20
-122.7990505335364
 10
83.73890243132222
 20
-122.7990505335364
 10
83.83881020039446
 20
-122.7990505335364
 10
83.88790281105928
 20
-122.7969834762452
 10
83.92666013526834
 20
-122.7949164189541
 10
83.92045896339489
 20
-122.8710530291781
 10
83.91839190610374
 20
-122.9893920590964
 10
83.91839190610374
 20
-123.0253933069173
 10
83.91839190610374
 20
-123.0253933069173
 10
83.91839190610374
 20
-123.6982204551866
 10
83.91839190610374
 20
-123.6982204551866
 10
83.91839190610374
 20
-123.808119001166
 10
83.93062199507638
 20
-124.2968057957487
 10
83.93062199507638
 20
-124.3961968004982
 10
83.93062199507638
 20
-124.5867105808325
 10
83.88790281105928
 20
-124.6268459432357
 10
83.61849634411274
 20
-124.6184054592968
 97
        0
 97
        0
 92
        1
 93
        4
 72
     1
 10
83.75113252029486
 20
-122.9620035499887
 11
83.55734589924955
 21
-122.9620035499887
 72
     1
 10
83.55734589924955
 20
-122.9620035499887
 11
83.55734589924955
 21
-123.2729234175325
 72
     1
 10
83.55734589924955
 20
-123.2729234175325
 11
83.75113252029486
 21
-123.2729234175325
 72
     1
 10
83.75113252029486
 20
-123.2729234175325
 11
83.75113252029486
 21
-122.9620035499887
 97
        0
 92
        1
 93
        4
 72
     1
 10
83.75113252029486
 20
-123.4379434912759
 11
83.55734589924955
 21
-123.4379434912759
 72
     1
 10
83.55734589924955
 20
-123.4379434912759
 11
83.55734589924955
 21
-123.7511026708851
 72
     1
 10
83.55734589924955
 20
-123.7511026708851
 11
83.75113252029486
 21
-123.7511026708851
 72
     1
 10
83.75113252029486
 20
-123.7511026708851
 11
83.75113252029486
 21
-123.4379434912759
 97
        0
 92
        1
 93
        1
 72
     4
 94
        3
 73
     0
 74
     1
 95
       62
 96
       58
 40
0.0
 40
0.0
 40
0.0
 40
0.0
 40
1.0
 40
1.0
 40
1.0
 40
2.0
 40
2.0
 40
2.0
 40
3.0
 40
3.0
 40
3.0
 40
4.0
 40
4.0
 40
4.0
 40
5.0
 40
5.0
 40
5.0
 40
6.0
 40
6.0
 40
6.0
 40
7.0
 40
7.0
 40
7.0
 40
8.0
 40
8.0
 40
8.0
 40
9.0
 40
9.0
 40
9.0
 40
10.0
 40
10.0
 40
10.0
 40
11.0
 40
11.0
 40
11.0
 40
12.0
 40
12.0
 40
12.0
 40
13.0
 40
13.0
 40
13.0
 40
14.0
 40
14.0
 40
14.0
 40
15.0
 40
15.0
 40
15.0
 40
16.0
 40
16.0
 40
16.0
 40
17.0
 40
17.0
 40
17.0
 40
18.0
 40
18.0
 40
18.0
 40
19.0
 40
19.0
 40
19.0
 40
19.0
 10
84.82427976395019
 20
-123.5395738080908
 10
84.82427976395019
 20
-123.5395738080908
 10
84.24481470333116
 20
-123.5395738080908
 10
84.24481470333116
 20
-123.5395738080908
 10
84.10201549546755
 20
-123.5395738080908
 10
84.06119111396734
 20
-123.4971991336222
 10
84.06119111396734
 20
-123.3406195438176
 10
84.06119111396734
 20
-123.3406195438176
 10
84.06119111396734
 20
-123.0465806441516
 10
84.06119111396734
 20
-123.0465806441516
 10
84.06119111396734
 20
-122.9620035499887
 10
84.0591240566762
 20
-122.9196288755201
 10
84.05309513957701
 20
-122.7652885977809
 10
84.05309513957701
 20
-122.7652885977809
 10
84.25101587520462
 20
-122.7926771068886
 10
84.25101587520462
 20
-122.7926771068886
 10
84.27134193856759
 20
-122.7949164189541
 10
84.28977319941367
 20
-122.7969834762452
 10
84.28977319941367
 20
-122.8159315014141
 10
84.28977319941367
 20
-122.8307454120007
 10
84.27754311044103
 20
-122.8393581507138
 10
84.24688176062232
 20
-122.8603732331738
 10
84.24481470333116
 20
-122.9513237539844
 10
84.24274764604002
 20
-122.9873250018053
 10
84.24274764604002
 20
-123.0276326189827
 10
84.51818303008574
 20
-122.9704440339275
 10
84.708007791323
 20
-122.8710530291781
 10
84.82841387853249
 20
-122.7609822284243
 10
84.82841387853249
 20
-122.7609822284243
 10
85.0037692387317
 20
-122.8943074237035
 10
85.0037692387317
 20
-122.8943074237035
 10
85.007903353314
 20
-122.8984415382858
 10
85.01806638499549
 20
-122.9068820222247
 10
85.01806638499549
 20
-122.9175618182289
 10
85.01806638499549
 20
-122.9408162127544
 10
84.98947209246792
 20
-122.9387491554632
 10
84.95278182555
 20
-122.9344427861067
 10
84.61826305393224
 20
-123.1311577383144
 10
84.33455944072192
 20
-123.1862792660784
 10
84.24085284352313
 20
-123.1988538645996
 10
84.24085284352313
 20
-123.1988538645996
 10
84.24085284352313
 20
-123.2941107547668
 10
84.24085284352313
 20
-123.2941107547668
 10
84.24085284352313
 20
-123.3638739383431
 10
84.27134193856759
 20
-123.3638739383431
 10
84.33266463820503
 20
-123.3638739383431
 10
84.33266463820503
 20
-123.3638739383431
 10
84.77535940805964
 20
-123.3638739383431
 10
84.77535940805964
 20
-123.3638739383431
 10
84.87113306254957
 20
-123.3638739383431
 10
84.88336315152222
 20
-123.3469929704653
 10
84.9486477109677
 20
-123.0846489492636
 10
84.9486477109677
 20
-123.0846489492636
 10
85.11194523696855
 20
-123.2327880551293
 10
85.11194523696855
 20
-123.2327880551293
 10
85.02822941667698
 20
-123.5268269547954
 10
84.99774032163252
 20
-123.5395738080908
 10
84.82427976395019
 20
-123.5395738080908
 97
        0
 97
        0
 92
        1
 93
        1
 72
     4
 94
        3
 73
     0
 74
     1
 95
       50
 96
       46
 40
0.0
 40
0.0
 40
0.0
 40
0.0
 40
1.0
 40
1.0
 40
1.0
 40
2.0
 40
2.0
 40
2.0
 40
3.0
 40
3.0
 40
3.0
 40
4.0
 40
4.0
 40
4.0
 40
5.0
 40
5.0
 40
5.0
 40
6.0
 40
6.0
 40
6.0
 40
7.0
 40
7.0
 40
7.0
 40
8.0
 40
8.0
 40
8.0
 40
9.0
 40
9.0
 40
9.0
 40
10.0
 40
10.0
 40
10.0
 40
11.0
 40
11.0
 40
11.0
 40
12.0
 40
12.0
 40
12.0
 40
13.0
 40
13.0
 40
13.0
 40
14.0
 40
14.0
 40
14.0
 40
15.0
 40
15.0
 40
15.0
 40
15.0
 10
84.80188664329606
 20
-124.6268459432357
 10
84.80378144581294
 20
-124.6184054592968
 10
84.80791556039524
 20
-124.5443359063639
 10
84.80791556039524
 20
-124.5338283651339
 10
84.80791556039524
 20
-124.5338283651339
 10
84.29390731399597
 20
-124.5338283651339
 10
84.29390731399597
 20
-124.5338283651339
 10
84.29390731399597
 20
-124.5486422757205
 10
84.29580211651286
 20
-124.5951510647714
 10
84.29993623109516
 20
-124.6289130005268
 10
84.29993623109516
 20
-124.6289130005268
 10
84.09598657836837
 20
-124.6289130005268
 10
84.09598657836837
 20
-124.6289130005268
 10
84.11028372463215
 20
-124.5274549384862
 10
84.11028372463215
 20
-124.4132500231502
 10
84.11028372463215
 20
-124.345553896865
 10
84.11028372463215
 20
-124.345553896865
 10
84.11028372463215
 20
-123.9435112537363
 10
84.11028372463215
 20
-123.9435112537363
 10
84.11028372463215
 20
-123.7996785172272
 10
84.10821666734101
 20
-123.7467963015286
 10
84.10408255275871
 20
-123.6811672325346
 10
84.21622041080359
 20
-123.6918470285388
 10
84.35919187344146
 20
-123.6918470285388
 10
84.39174802577706
 20
-123.6918470285388
 10
84.39174802577706
 20
-123.6918470285388
 10
84.71610376571334
 20
-123.6918470285388
 10
84.71610376571334
 20
-123.6918470285388
 10
84.77329235076849
 20
-123.6918470285388
 10
84.9569159401323
 20
-123.6854736018911
 10
85.0037692387317
 20
-123.6834065446
 10
85.00170218144055
 20
-123.7383558175897
 10
84.99774032163252
 20
-123.8970024646855
 10
84.99774032163252
 20
-123.939377139154
 10
84.99774032163252
 20
-123.939377139154
 10
84.99774032163252
 20
-124.3371134129261
 10
84.99774032163252
 20
-124.3371134129261
 10
84.99774032163252
 20
-124.3688082913904
 10
85.00170218144055
 20
-124.5083346585431
 10
85.00170218144055
 20
-124.5379624797162
 10
85.0037692387317
 20
-124.5718966702459
 10
85.0037692387317
 20
-124.5951510647714
 10
85.00583629602285
 20
-124.6268459432357
 10
85.00583629602285
 20
-124.6268459432357
 10
84.80188664329606
 20
-124.6268459432357
 10
84.80188664329606
 20
-124.6268459432357
 97
        0
 97
        0
 92
        1
 93
        4
 72
     1
 10
84.80791556039524
 20
-123.8525607329258
 11
84.29184025670482
 21
-123.8525607329258
 72
     1
 10
84.29184025670482
 20
-123.8525607329258
 11
84.29184025670482
 21
-124.0344617745469
 72
     1
 10
84.29184025670482
 20
-124.0344617745469
 11
84.80791556039524
 21
-124.0344617745469
 72
     1
 10
84.80791556039524
 20
-124.0344617745469
 11
84.80791556039524
 21
-123.8525607329258
 97
        0
 92
        1
 93
        4
 72
     1
 10
84.80791556039524
 20
-124.1889743070604
 11
84.29184025670482
 21
-124.1889743070604
 72
     1
 10
84.29184025670482
 20
-124.1889743070604
 11
84.29184025670482
 21
-124.3751817180381
 72
     1
 10
84.29184025670482
 20
-124.3751817180381
 11
84.80791556039524
 21
-124.3751817180381
 72
     1
 10
84.80791556039524
 20
-124.3751817180381
 11
84.80791556039524
 21
-124.1889743070604
 97
        0
 75
     2
 76
     1
 98
        0
  0
SPLINE
  5
F2
330
A8
100
AcDbEntity
  8
_U+30EC_U+30A4_U+30E4_U+30FC 1
370
     0
100
AcDbSpline
210
0.0
220
0.0
230
1.0
 70
    11
 71
     3
 72
    23
 73
    19
 74
     0
 42
0.0000000001
 43
0.0000000001
 12
1.0
 22
0.0
 32
0.0
 13
1.0
 23
0.0
 33
0.0
 40
0.0
 40
0.0
 40
0.0
 40
0.0
 40
1.0
 40
1.0
 40
1.0
 40
2.0
 40
2.0
 40
2.0
 40
3.0
 40
3.0
 40
3.0
 40
4.0
 40
4.0
 40
4.0
 40
5.0
 40
5.0
 40
5.0
 40
6.0
 40
6.0
 40
6.0
 40
6.0
 10
76.22497692321807
 20
-127.4702555019866
 30
0.0
 10
76.06581351179952
 20
-127.2776746643611
 30
0.0
 10
75.84153779570975
 20
-127.0025837898639
 30
0.0
 10
75.84153779570975
 20
-126.4548136077092
 30
0.0
 10
75.84153779570975
 20
-125.9068711707802
 30
0.0
 10
76.06581351179952
 20
-125.631780296283
 30
0.0
 10
76.22497692321807
 20
-125.4393717134318
 30
0.0
 10
76.22497692321807
 20
-125.4393717134318
 30
0.0
 10
76.33315292145491
 20
-125.5387627181813
 30
0.0
 10
76.33315292145491
 20
-125.5387627181813
 30
0.0
 10
76.19844968798164
 20
-125.7058498492159
 30
0.0
 10
75.99450003525484
 20
-125.96182044377
 30
0.0
 10
75.99450003525484
 20
-126.4548136077092
 30
0.0
 10
75.99450003525484
 20
-126.9476345168742
 30
0.0
 10
76.19844968798164
 20
-127.2036051114283
 30
0.0
 10
76.33315292145491
 20
-127.3706922424629
 30
0.0
 10
76.33315292145491
 20
-127.3706922424629
 30
0.0
 10
76.22497692321807
 20
-127.4702555019866
 30
0.0
 10
76.22497692321807
 20
-127.4702555019866
 30
0.0
  0
HATCH
  5
F3
330
A8
100
AcDbEntity
  8
_U+30EC_U+30A4_U+30E4_U+30FC 1
 62
   179
420
  2234388
100
AcDbHatch
 10
0.0
 20
0.0
 30
0.0
210
0.0
220
0.0
230
1.0
  2
SOLID
 70
     1
 71
     0
 91
        1
 92
        1
 93
        1
 72
     4
 94
        3
 73
     0
 74
     1
 95
       23
 96
       19
 40
0.0
 40
0.0
 40
0.0
 40
0.0
 40
1.0
 40
1.0
 40
1.0
 40
2.0
 40
2.0
 40
2.0
 40
3.0
 40
3.0
 40
3.0
 40
4.0
 40
4.0
 40
4.0
 40
5.0
 40
5.0
 40
5.0
 40
6.0
 40
6.0
 40
6.0
 40
6.0
 10
76.22497692321807
 20
-127.4702555019866
 10
76.06581351179952
 20
-127.2776746643611
 10
75.84153779570975
 20
-127.0025837898639
 10
75.84153779570975
 20
-126.4548136077092
 10
75.84153779570975
 20
-125.9068711707802
 10
76.06581351179952
 20
-125.631780296283
 10
76.22497692321807
 20
-125.4393717134318
 10
76.22497692321807
 20
-125.4393717134318
 10
76.33315292145491
 20
-125.5387627181813
 10
76.33315292145491
 20
-125.5387627181813
 10
76.19844968798164
 20
-125.7058498492159
 10
75.99450003525484
 20
-125.96182044377
 10
75.99450003525484
 20
-126.4548136077092
 10
75.99450003525484
 20
-126.9476345168742
 10
76.19844968798164
 20
-127.2036051114283
 10
76.33315292145491
 20
-127.3706922424629
 10
76.33315292145491
 20
-127.3706922424629
 10
76.22497692321807
 20
-127.4702555019866
 10
76.22497692321807
 20
-127.4702555019866
 97
        0
 97
        0
 75
     2
 76
     1
 98
        0
  0
SPLINE
  5
F4
330
A8
100
AcDbEntity
  8
_U+30EC_U+30A4_U+30E4_U+30FC 1
370
     0
100
AcDbSpline
210
0.0
220
0.0
230
1.0
 70
    11
 71
     3
 72
   203
 73
   199
 74
     0
 42
0.0000000001
 43
0.0000000001
 12
1.0
 22
0.0
 32
0.0
 13
1.0
 23
0.0
 33
0.0
 40
0.0
 40
0.0
 40
0.0
 40
0.0
 40
1.0
 40
1.0
 40
1.0
 40
2.0
 40
2.0
 40
2.0
 40
3.0
 40
3.0
 40
3.0
 40
4.0
 40
4.0
 40
4.0
 40
5.0
 40
5.0
 40
5.0
 40
6.0
 40
6.0
 40
6.0
 40
7.0
 40
7.0
 40
7.0
 40
8.0
 40
8.0
 40
8.0
 40
9.0
 40
9.0
 40
9.0
 40
10.0
 40
10.0
 40
10.0
 40
11.0
 40
11.0
 40
11.0
 40
12.0
 40
12.0
 40
12.0
 40
13.0
 40
13.0
 40
13.0
 40
14.0
 40
14.0
 40
14.0
 40
15.0
 40
15.0
 40
15.0
 40
16.0
 40
16.0
 40
16.0
 40
17.0
 40
17.0
 40
17.0
 40
18.0
 40
18.0
 40
18.0
 40
19.0
 40
19.0
 40
19.0
 40
20.0
 40
20.0
 40
20.0
 40
21.0
 40
21.0
 40
21.0
 40
22.0
 40
22.0
 40
22.0
 40
23.0
 40
23.0
 40
23.0
 40
24.0
 40
24.0
 40
24.0
 40
25.0
 40
25.0
 40
25.0
 40
26.0
 40
26.0
 40
26.0
 40
27.0
 40
27.0
 40
27.0
 40
28.0
 40
28.0
 40
28.0
 40
29.0
 40
29.0
 40
29.0
 40
30.0
 40
30.0
 40
30.0
 40
31.0
 40
31.0
 40
31.0
 40
32.0
 40
32.0
 40
32.0
 40
33.0
 40
33.0
 40
33.0
 40
34.0
 40
34.0
 40
34.0
 40
35.0
 40
35.0
 40
35.0
 40
36.0
 40
36.0
 40
36.0
 40
37.0
 40
37.0
 40
37.0
 40
38.0
 40
38.0
 40
38.0
 40
39.0
 40
39.0
 40
39.0
 40
40.0
 40
40.0
 40
40.0
 40
41.0
 40
41.0
 40
41.0
 40
42.0
 40
42.0
 40
42.0
 40
43.0
 40
43.0
 40
43.0
 40
44.0
 40
44.0
 40
44.0
 40
45.0
 40
45.0
 40
45.0
 40
46.0
 40
46.0
 40
46.0
 40
47.0
 40
47.0
 40
47.0
 40
48.0
 40
48.0
 40
48.0
 40
49.0
 40
49.0
 40
49.0
 40
50.0
 40
50.0
 40
50.0
 40
51.0
 40
51.0
 40
51.0
 40
52.0
 40
52.0
 40
52.0
 40
53.0
 40
53.0
 40
53.0
 40
54.0
 40
54.0
 40
54.0
 40
55.0
 40
55.0
 40
55.0
 40
56.0
 40
56.0
 40
56.0
 40
57.0
 40
57.0
 40
57.0
 40
58.0
 40
58.0
 40
58.0
 40
59.0
 40
59.0
 40
59.0
 40
60.0
 40
60.0
 40
60.0
 40
61.0
 40
61.0
 40
61.0
 40
62.0
 40
62.0
 40
62.0
 40
63.0
 40
63.0
 40
63.0
 40
64.0
 40
64.0
 40
64.0
 40
65.0
 40
65.0
 40
65.0
 40
66.0
 40
66.0
 40
66.0
 40
66.0
 10
77.77389185338639
 20
-126.4039984493018
 30
0.0
 10
77.77389185338639
 20
-126.4039984493018
 30
0.0
 10
77.23525117426757
 20
-126.4039984493018
 30
0.0
 10
77.23525117426757
 20
-126.4039984493018
 30
0.0
 10
77.22508814258609
 20
-126.4484401810615
 30
0.0
 10
77.21681991342149
 20
-126.4801350595258
 30
0.0
 10
77.20458982444886
 20
-126.5182033646378
 30
0.0
 10
77.22905000239413
 20
-126.5182033646378
 30
0.0
 10
77.24334714865792
 20
-126.520270421929
 30
0.0
 10
77.24954832053136
 20
-126.520270421929
 30
0.0
 10
77.24954832053136
 20
-126.520270421929
 30
0.0
 10
77.43110485260404
 20
-126.520270421929
 30
0.0
 10
77.43110485260404
 20
-126.520270421929
 30
0.0
 10
77.43110485260404
 20
-126.520270421929
 30
0.0
 10
77.79215085945822
 20
-126.520270421929
 30
0.0
 10
77.79215085945822
 20
-126.520270421929
 30
0.0
 10
77.84107121534876
 20
-126.520270421929
 30
0.0
 10
78.1146117968776
 20
-126.5076958234078
 30
0.0
 10
78.14510089192206
 20
-126.5076958234078
 30
0.0
 10
78.14303383463091
 20
-126.5350843325155
 30
0.0
 10
78.14096677733976
 20
-126.5542046124587
 30
0.0
 10
78.14096677733976
 20
-126.5838324336318
 30
0.0
 10
78.13907197482287
 20
-126.6155273120961
 30
0.0
 10
78.13907197482287
 20
-126.7509195646664
 30
0.0
 10
78.13907197482287
 20
-126.7784803285484
 30
0.0
 10
78.13907197482287
 20
-126.7784803285484
 30
0.0
 10
78.13907197482287
 20
-127.0237711270982
 30
0.0
 10
78.13907197482287
 20
-127.0237711270982
 30
0.0
 10
78.13907197482287
 20
-127.0682128588579
 30
0.0
 10
78.14303383463091
 20
-127.2649278110657
 30
0.0
 10
78.14716794921321
 20
-127.417373286288
 30
0.0
 10
78.14716794921321
 20
-127.417373286288
 30
0.0
 10
77.92892115022264
 20
-127.417373286288
 30
0.0
 10
77.92892115022264
 20
-127.417373286288
 30
0.0
 10
77.92892115022264
 20
-127.417373286288
 30
0.0
 10
77.93098820751378
 20
-127.3834390957583
 30
0.0
 10
77.93098820751378
 20
-127.3834390957583
 30
0.0
 10
77.93098820751378
 20
-127.3834390957583
 30
0.0
 10
77.2535101803394
 20
-127.3834390957583
 30
0.0
 10
77.2535101803394
 20
-127.3834390957583
 30
0.0
 10
77.2535101803394
 20
-127.3834390957583
 30
0.0
 10
77.25557723763055
 20
-127.417373286288
 30
0.0
 10
77.25557723763055
 20
-127.417373286288
 30
0.0
 10
77.25557723763055
 20
-127.417373286288
 30
0.0
 10
77.04542641303031
 20
-127.417373286288
 30
0.0
 10
77.04542641303031
 20
-127.417373286288
 30
0.0
 10
77.04956052761261
 20
-127.362251758524
 30
0.0
 10
77.04956052761261
 20
-127.3496771600029
 30
0.0
 10
77.05576169948607
 20
-127.2352999898926
 30
0.0
 10
77.05765650200296
 20
-127.2079114807848
 30
0.0
 10
77.0597235592941
 20
-127.0745862855057
 30
0.0
 10
77.0597235592941
 20
-127.0554660055625
 30
0.0
 10
77.0597235592941
 20
-127.0554660055625
 30
0.0
 10
77.0597235592941
 20
-126.8523776267071
 30
0.0
 10
77.0597235592941
 20
-126.8523776267071
 30
0.0
 10
76.9251925805951
 20
-127.1021470493877
 30
0.0
 10
76.76189505459425
 20
-127.2332329326014
 30
0.0
 10
76.65992022823086
 20
-127.2988620015954
 30
0.0
 10
76.65992022823086
 20
-127.2988620015954
 30
0.0
 10
76.49266084242198
 20
-127.1591633796685
 30
0.0
 10
76.49266084242198
 20
-127.1591633796685
 30
0.0
 10
76.57827146523043
 20
-127.1083482212611
 30
0.0
 10
76.717108813286
 20
-127.0217040698071
 30
0.0
 10
76.84957273469387
 20
-126.8270561748905
 30
0.0
 10
76.93742266956774
 20
-126.700104406259
 30
0.0
 10
77.00064017172207
 20
-126.5562716697498
 30
0.0
 10
77.03319632405767
 20
-126.4039984493018
 30
0.0
 10
76.81288246777595
 20
-126.4060655065929
 30
0.0
 10
76.63942191009362
 20
-126.4124389332407
 30
0.0
 10
76.54778237018597
 20
-126.4145059905318
 30
0.0
 10
76.54778237018597
 20
-126.4145059905318
 30
0.0
 10
76.54778237018597
 20
-126.2369113182672
 30
0.0
 10
76.54778237018597
 20
-126.2369113182672
 30
0.0
 10
76.73743487664898
 20
-126.2431124901406
 30
0.0
 10
77.01080320340355
 20
-126.2474188594972
 30
0.0
 10
77.15566946855832
 20
-126.2474188594972
 30
0.0
 10
77.15566946855832
 20
-126.2474188594972
 30
0.0
 10
77.36168617857625
 20
-126.2474188594972
 30
0.0
 10
77.36168617857625
 20
-126.2474188594972
 30
0.0
 10
77.36168617857625
 20
-126.2474188594972
 30
0.0
 10
77.36168617857625
 20
-126.1395873708089
 30
0.0
 10
77.36168617857625
 20
-126.1395873708089
 30
0.0
 10
77.36168617857625
 20
-126.1395873708089
 30
0.0
 10
77.22095402800379
 20
-126.1395873708089
 30
0.0
 10
77.22095402800379
 20
-126.1395873708089
 30
0.0
 10
77.05765650200296
 20
-126.1395873708089
 30
0.0
 10
76.89453123077637
 20
-126.1437214853912
 30
0.0
 10
76.73330076206668
 20
-126.1500949120389
 30
0.0
 10
76.73330076206668
 20
-126.1500949120389
 30
0.0
 10
76.73330076206668
 20
-125.9787014116477
 30
0.0
 10
76.73330076206668
 20
-125.9787014116477
 30
0.0
 10
76.88230114180374
 20
-125.989381207652
 30
0.0
 10
77.06179061658526
 20
-125.989381207652
 30
0.0
 10
77.22095402800379
 20
-125.989381207652
 30
0.0
 10
77.22095402800379
 20
-125.989381207652
 30
0.0
 10
77.36168617857625
 20
-125.989381207652
 30
0.0
 10
77.36168617857625
 20
-125.989381207652
 30
0.0
 10
77.36168617857625
 20
-125.989381207652
 30
0.0
 10
77.36168617857625
 20
-125.8708699229594
 30
0.0
 10
77.36168617857625
 20
-125.8708699229594
 30
0.0
 10
77.36168617857625
 20
-125.8708699229594
 30
0.0
 10
77.23525117426757
 20
-125.8708699229594
 30
0.0
 10
77.23525117426757
 20
-125.8708699229594
 30
0.0
 10
77.19029267818507
 20
-125.8708699229594
 30
0.0
 10
76.99443899984861
 20
-125.8793104068982
 30
0.0
 10
76.95361461834841
 20
-125.8793104068982
 30
0.0
 10
76.75776094001195
 20
-125.8836167762548
 30
0.0
 10
76.68438040617613
 20
-125.8856838335459
 30
0.0
 10
76.60893281504916
 20
-125.8877508908371
 30
0.0
 10
76.60893281504916
 20
-125.8877508908371
 30
0.0
 10
76.60893281504916
 20
-125.7037827919248
 30
0.0
 10
76.60893281504916
 20
-125.7037827919248
 30
0.0
 10
76.71900361580289
 20
-125.7122232758636
 30
0.0
 10
76.76189505459425
 20
-125.7122232758636
 30
0.0
 10
77.13120929061303
 20
-125.7206637598025
 30
0.0
 10
77.07005884574986
 20
-125.6254068696353
 30
0.0
 10
77.04353161051343
 20
-125.5980183605276
 30
0.0
 10
77.0087361461124
 20
-125.5620171127067
 30
0.0
 10
77.0087361461124
 20
-125.5620171127067
 30
0.0
 10
77.17806258921243
 20
-125.479507075835
 30
0.0
 10
77.17806258921243
 20
-125.479507075835
 30
0.0
 10
77.21681991342149
 20
-125.5155083236559
 30
0.0
 10
77.25971135221285
 20
-125.5577107433502
 30
0.0
 10
77.33119708353179
 20
-125.6677815441039
 30
0.0
 10
77.33119708353179
 20
-125.6677815441039
 30
0.0
 10
77.22095402800379
 20
-125.7227308170936
 30
0.0
 10
77.22095402800379
 20
-125.7227308170936
 30
0.0
 10
77.22095402800379
 20
-125.7227308170936
 30
0.0
 10
77.23111705968527
 20
-125.7227308170936
 30
0.0
 10
77.23111705968527
 20
-125.7227308170936
 30
0.0
 10
77.23111705968527
 20
-125.7227308170936
 30
0.0
 10
77.73513452917733
 20
-125.7227308170936
 30
0.0
 10
77.73513452917733
 20
-125.7227308170936
 30
0.0
 10
77.73513452917733
 20
-125.7227308170936
 30
0.0
 10
77.64332273449543
 20
-125.6782890853339
 30
0.0
 10
77.64332273449543
 20
-125.6782890853339
 30
0.0
 10
77.66984996973184
 20
-125.6402207802219
 30
0.0
 10
77.72479924272159
 20
-125.5599500554156
 30
0.0
 10
77.73909638898537
 20
-125.4858805024827
 30
0.0
 10
77.73909638898537
 20
-125.4858805024827
 30
0.0
 10
77.94511309900331
 20
-125.5492702594113
 30
0.0
 10
77.94511309900331
 20
-125.5492702594113
 30
0.0
 10
77.95338132816791
 20
-125.5513373167024
 30
0.0
 10
77.97370739153088
 20
-125.5620171127067
 30
0.0
 10
77.97370739153088
 20
-125.583204449941
 30
0.0
 10
77.97370739153088
 20
-125.621272755053
 30
0.0
 10
77.91048988937655
 20
-125.621272755053
 30
0.0
 10
77.89223088330472
 20
-125.621272755053
 30
0.0
 10
77.88189559684898
 20
-125.6402207802219
 30
0.0
 10
77.85950247619485
 20
-125.6805283973993
 30
0.0
 10
77.83090818366728
 20
-125.7206637598025
 30
0.0
 10
78.216586623241
 20
-125.7142903331548
 30
0.0
 10
78.24518091576857
 20
-125.7122232758636
 30
0.0
 10
78.31856144960439
 20
-125.7058498492159
 30
0.0
 10
78.31856144960439
 20
-125.7058498492159
 30
0.0
 10
78.31856144960439
 20
-125.8877508908371
 30
0.0
 10
78.31856144960439
 20
-125.8877508908371
 30
0.0
 10
78.3001301887583
 20
-125.8877508908371
 30
0.0
 10
78.27567001081303
 20
-125.8856838335459
 30
0.0
 10
78.06345212892164
 20
-125.8772433496071
 30
0.0
 10
78.0145317730311
 20
-125.8751762923159
 30
0.0
 10
77.8023138911397
 20
-125.8708699229594
 30
0.0
 10
77.7595947071226
 20
-125.8708699229594
 30
0.0
 10
77.7595947071226
 20
-125.8708699229594
 30
0.0
 10
77.55151093981351
 20
-125.8708699229594
 30
0.0
 10
77.55151093981351
 20
-125.8708699229594
 30
0.0
 10
77.55151093981351
 20
-125.8708699229594
 30
0.0
 10
77.55151093981351
 20
-125.989381207652
 30
0.0
 10
77.55151093981351
 20
-125.989381207652
 30
0.0
 10
77.55151093981351
 20
-125.989381207652
 30
0.0
 10
77.7187703256224
 20
-125.989381207652
 30
0.0
 10
77.7187703256224
 20
-125.989381207652
 30
0.0
 10
77.87586667974979
 20
-125.989381207652
 30
0.0
 10
78.05949026911361
 20
-125.989381207652
 30
0.0
 10
78.21038545136754
 20
-125.9787014116477
 30
0.0
 10
78.21038545136754
 20
-125.9787014116477
 30
0.0
 10
78.21038545136754
 20
-126.1500949120389
 30
0.0
 10
78.21038545136754
 20
-126.1500949120389
 30
0.0
 10
78.00850285593191
 20
-126.1416544281
 30
0.0
 10
77.81867809469463
 20
-126.1395873708089
 30
0.0
 10
77.7187703256224
 20
-126.1395873708089
 30
0.0
 10
77.7187703256224
 20
-126.1395873708089
 30
0.0
 10
77.55151093981351
 20
-126.1395873708089
 30
0.0
 10
77.55151093981351
 20
-126.1395873708089
 30
0.0
 10
77.55151093981351
 20
-126.1395873708089
 30
0.0
 10
77.55151093981351
 20
-126.2474188594972
 30
0.0
 10
77.55151093981351
 20
-126.2474188594972
 30
0.0
 10
77.55151093981351
 20
-126.2474188594972
 30
0.0
 10
77.77389185338639
 20
-126.2474188594972
 30
0.0
 10
77.77389185338639
 20
-126.2474188594972
 30
0.0
 10
77.9023939149862
 20
-126.2474188594972
 30
0.0
 10
78.17989635632308
 20
-126.2431124901406
 30
0.0
 10
78.38177895175872
 20
-126.2369113182672
 30
0.0
 10
78.38177895175872
 20
-126.2369113182672
 30
0.0
 10
78.38177895175872
 20
-126.4145059905318
 30
0.0
 10
78.38177895175872
 20
-126.4145059905318
 30
0.0
 10
78.19608830510376
 20
-126.4081325638841
 30
0.0
 10
77.8941256858216
 20
-126.4039984493018
 30
0.0
 10
77.77389185338639
 20
-126.4039984493018
 30
0.0
  0
POLYLINE
  5
F5
330
A8
100
AcDbEntity
  8
_U+30EC_U+30A4_U+30E4_U+30FC 1
370
     0
100
AcDb2dPolyline
 66
     1
 10
0.0
 20
0.0
 30
0.0
  0
VERTEX
  5
F6
330
F5
100
AcDbEntity
  8
_U+30EC_U+30A4_U+30E4_U+30FC 1
370
     0
100
AcDbVertex
100
AcDb2dVertex
 10
77.93288301003066
 20
-126.6599690438559
 30
0.0
  0
VERTEX
  5
F7
330
F5
100
AcDbEntity
  8
_U+30EC_U+30A4_U+30E4_U+30FC 1
370
     0
100
AcDbVertex
100
AcDb2dVertex
 10
77.25161537782252
 20
-126.6599690438559
 30
0.0
  0
VERTEX
  5
F8
330
F5
100
AcDbEntity
  8
_U+30EC_U+30A4_U+30E4_U+30FC 1
370
     0
100
AcDbVertex
100
AcDb2dVertex
 10
77.25161537782252
 20
-126.7678005325442
 30
0.0
  0
VERTEX
  5
F9
330
F5
100
AcDbEntity
  8
_U+30EC_U+30A4_U+30E4_U+30FC 1
370
     0
100
AcDbVertex
100
AcDb2dVertex
 10
77.93288301003066
 20
-126.7678005325442
 30
0.0
  0
VERTEX
  5
FA
330
F5
100
AcDbEntity
  8
_U+30EC_U+30A4_U+30E4_U+30FC 1
370
     0
100
AcDbVertex
100
AcDb2dVertex
 10
77.93288301003066
 20
-126.6599690438559
 30
0.0
  0
SEQEND
  5
FB
330
F5
100
AcDbEntity
  8
_U+30EC_U+30A4_U+30E4_U+30FC 1
370
     0
  0
POLYLINE
  5
FC
330
A8
100
AcDbEntity
  8
_U+30EC_U+30A4_U+30E4_U+30FC 1
370
     0
100
AcDb2dPolyline
 66
     1
 10
0.0
 20
0.0
 30
0.0
  0
VERTEX
  5
FD
330
FC
100
AcDbEntity
  8
_U+30EC_U+30A4_U+30E4_U+30FC 1
370
     0
100
AcDbVertex
100
AcDb2dVertex
 10
77.93288301003066
 20
-126.8926852438845
 30
0.0
  0
VERTEX
  5
FE
330
FC
100
AcDbEntity
  8
_U+30EC_U+30A4_U+30E4_U+30FC 1
370
     0
100
AcDbVertex
100
AcDb2dVertex
 10
77.25161537782252
 20
-126.8926852438845
 30
0.0
  0
VERTEX
  5
FF
330
FC
100
AcDbEntity
  8
_U+30EC_U+30A4_U+30E4_U+30FC 1
370
     0
100
AcDbVertex
100
AcDb2dVertex
 10
77.25161537782252
 20
-127.0068901592205
 30
0.0
  0
VERTEX
  5
100
330
FC
100
AcDbEntity
  8
_U+30EC_U+30A4_U+30E4_U+30FC 1
370
     0
100
AcDbVertex
100
AcDb2dVertex
 10
77.93288301003066
 20
-127.0068901592205
 30
0.0
  0
VERTEX
  5
101
330
FC
100
AcDbEntity
  8
_U+30EC_U+30A4_U+30E4_U+30FC 1
370
     0
100
AcDbVertex
100
AcDb2dVertex
 10
77.93288301003066
 20
-126.8926852438845
 30
0.0
  0
SEQEND
  5
102
330
FC
100
AcDbEntity
  8
_U+30EC_U+30A4_U+30E4_U+30FC 1
370
     0
  0
POLYLINE
  5
103
330
A8
100
AcDbEntity
  8
_U+30EC_U+30A4_U+30E4_U+30FC 1
370
     0
100
AcDb2dPolyline
 66
     1
 10
0.0
 20
0.0
 30
0.0
  0
VERTEX
  5
104
330
103
100
AcDbEntity
  8
_U+30EC_U+30A4_U+30E4_U+30FC 1
370
     0
100
AcDbVertex
100
AcDb2dVertex
 10
77.93288301003066
 20
-127.1359089851431
 30
0.0
  0
VERTEX
  5
105
330
103
100
AcDbEntity
  8
_U+30EC_U+30A4_U+30E4_U+30FC 1
370
     0
100
AcDbVertex
100
AcDb2dVertex
 10
77.25161537782252
 20
-127.1359089851431
 30
0.0
  0
VERTEX
  5
106
330
103
100
AcDbEntity
  8
_U+30EC_U+30A4_U+30E4_U+30FC 1
370
     0
100
AcDbVertex
100
AcDb2dVertex
 10
77.25161537782252
 20
-127.2501139004791
 30
0.0
  0
VERTEX
  5
107
330
103
100
AcDbEntity
  8
_U+30EC_U+30A4_U+30E4_U+30FC 1
370
     0
100
AcDbVertex
100
AcDb2dVertex
 10
77.93288301003066
 20
-127.2501139004791
 30
0.0
  0
VERTEX
  5
108
330
103
100
AcDbEntity
  8
_U+30EC_U+30A4_U+30E4_U+30FC 1
370
     0
100
AcDbVertex
100
AcDb2dVertex
 10
77.93288301003066
 20
-127.1359089851431
 30
0.0
  0
SEQEND
  5
109
330
103
100
AcDbEntity
  8
_U+30EC_U+30A4_U+30E4_U+30FC 1
370
     0
  0
HATCH
  5
10A
330
A8
100
AcDbEntity
  8
_U+30EC_U+30A4_U+30E4_U+30FC 1
 62
   179
420
  2234388
100
AcDbHatch
 10
0.0
 20
0.0
 30
0.0
210
0.0
220
0.0
230
1.0
  2
SOLID
 70
     1
 71
     0
 91
        4
 92
        1
 93
        1
 72
     4
 94
        3
 73
     0
 74
     1
 95
      203
 96
      199
 40
0.0
 40
0.0
 40
0.0
 40
0.0
 40
1.0
 40
1.0
 40
1.0
 40
2.0
 40
2.0
 40
2.0
 40
3.0
 40
3.0
 40
3.0
 40
4.0
 40
4.0
 40
4.0
 40
5.0
 40
5.0
 40
5.0
 40
6.0
 40
6.0
 40
6.0
 40
7.0
 40
7.0
 40
7.0
 40
8.0
 40
8.0
 40
8.0
 40
9.0
 40
9.0
 40
9.0
 40
10.0
 40
10.0
 40
10.0
 40
11.0
 40
11.0
 40
11.0
 40
12.0
 40
12.0
 40
12.0
 40
13.0
 40
13.0
 40
13.0
 40
14.0
 40
14.0
 40
14.0
 40
15.0
 40
15.0
 40
15.0
 40
16.0
 40
16.0
 40
16.0
 40
17.0
 40
17.0
 40
17.0
 40
18.0
 40
18.0
 40
18.0
 40
19.0
 40
19.0
 40
19.0
 40
20.0
 40
20.0
 40
20.0
 40
21.0
 40
21.0
 40
21.0
 40
22.0
 40
22.0
 40
22.0
 40
23.0
 40
23.0
 40
23.0
 40
24.0
 40
24.0
 40
24.0
 40
25.0
 40
25.0
 40
25.0
 40
26.0
 40
26.0
 40
26.0
 40
27.0
 40
27.0
 40
27.0
 40
28.0
 40
28.0
 40
28.0
 40
29.0
 40
29.0
 40
29.0
 40
30.0
 40
30.0
 40
30.0
 40
31.0
 40
31.0
 40
31.0
 40
32.0
 40
32.0
 40
32.0
 40
33.0
 40
33.0
 40
33.0
 40
34.0
 40
34.0
 40
34.0
 40
35.0
 40
35.0
 40
35.0
 40
36.0
 40
36.0
 40
36.0
 40
37.0
 40
37.0
 40
37.0
 40
38.0
 40
38.0
 40
38.0
 40
39.0
 40
39.0
 40
39.0
 40
40.0
 40
40.0
 40
40.0
 40
41.0
 40
41.0
 40
41.0
 40
42.0
 40
42.0
 40
42.0
 40
43.0
 40
43.0
 40
43.0
 40
44.0
 40
44.0
 40
44.0
 40
45.0
 40
45.0
 40
45.0
 40
46.0
 40
46.0
 40
46.0
 40
47.0
 40
47.0
 40
47.0
 40
48.0
 40
48.0
 40
48.0
 40
49.0
 40
49.0
 40
49.0
 40
50.0
 40
50.0
 40
50.0
 40
51.0
 40
51.0
 40
51.0
 40
52.0
 40
52.0
 40
52.0
 40
53.0
 40
53.0
 40
53.0
 40
54.0
 40
54.0
 40
54.0
 40
55.0
 40
55.0
 40
55.0
 40
56.0
 40
56.0
 40
56.0
 40
57.0
 40
57.0
 40
57.0
 40
58.0
 40
58.0
 40
58.0
 40
59.0
 40
59.0
 40
59.0
 40
60.0
 40
60.0
 40
60.0
 40
61.0
 40
61.0
 40
61.0
 40
62.0
 40
62.0
 40
62.0
 40
63.0
 40
63.0
 40
63.0
 40
64.0
 40
64.0
 40
64.0
 40
65.0
 40
65.0
 40
65.0
 40
66.0
 40
66.0
 40
66.0
 40
66.0
 10
77.77389185338639
 20
-126.4039984493018
 10
77.77389185338639
 20
-126.4039984493018
 10
77.23525117426757
 20
-126.4039984493018
 10
77.23525117426757
 20
-126.4039984493018
 10
77.22508814258609
 20
-126.4484401810615
 10
77.21681991342149
 20
-126.4801350595258
 10
77.20458982444886
 20
-126.5182033646378
 10
77.22905000239413
 20
-126.5182033646378
 10
77.24334714865792
 20
-126.520270421929
 10
77.24954832053136
 20
-126.520270421929
 10
77.24954832053136
 20
-126.520270421929
 10
77.43110485260404
 20
-126.520270421929
 10
77.43110485260404
 20
-126.520270421929
 10
77.43110485260404
 20
-126.520270421929
 10
77.79215085945822
 20
-126.520270421929
 10
77.79215085945822
 20
-126.520270421929
 10
77.84107121534876
 20
-126.520270421929
 10
78.1146117968776
 20
-126.5076958234078
 10
78.14510089192206
 20
-126.5076958234078
 10
78.14303383463091
 20
-126.5350843325155
 10
78.14096677733976
 20
-126.5542046124587
 10
78.14096677733976
 20
-126.5838324336318
 10
78.13907197482287
 20
-126.6155273120961
 10
78.13907197482287
 20
-126.7509195646664
 10
78.13907197482287
 20
-126.7784803285484
 10
78.13907197482287
 20
-126.7784803285484
 10
78.13907197482287
 20
-127.0237711270982
 10
78.13907197482287
 20
-127.0237711270982
 10
78.13907197482287
 20
-127.0682128588579
 10
78.14303383463091
 20
-127.2649278110657
 10
78.14716794921321
 20
-127.417373286288
 10
78.14716794921321
 20
-127.417373286288
 10
77.92892115022264
 20
-127.417373286288
 10
77.92892115022264
 20
-127.417373286288
 10
77.92892115022264
 20
-127.417373286288
 10
77.93098820751378
 20
-127.3834390957583
 10
77.93098820751378
 20
-127.3834390957583
 10
77.93098820751378
 20
-127.3834390957583
 10
77.2535101803394
 20
-127.3834390957583
 10
77.2535101803394
 20
-127.3834390957583
 10
77.2535101803394
 20
-127.3834390957583
 10
77.25557723763055
 20
-127.417373286288
 10
77.25557723763055
 20
-127.417373286288
 10
77.25557723763055
 20
-127.417373286288
 10
77.04542641303031
 20
-127.417373286288
 10
77.04542641303031
 20
-127.417373286288
 10
77.04956052761261
 20
-127.362251758524
 10
77.04956052761261
 20
-127.3496771600029
 10
77.05576169948607
 20
-127.2352999898926
 10
77.05765650200296
 20
-127.2079114807848
 10
77.0597235592941
 20
-127.0745862855057
 10
77.0597235592941
 20
-127.0554660055625
 10
77.0597235592941
 20
-127.0554660055625
 10
77.0597235592941
 20
-126.8523776267071
 10
77.0597235592941
 20
-126.8523776267071
 10
76.9251925805951
 20
-127.1021470493877
 10
76.76189505459425
 20
-127.2332329326014
 10
76.65992022823086
 20
-127.2988620015954
 10
76.65992022823086
 20
-127.2988620015954
 10
76.49266084242198
 20
-127.1591633796685
 10
76.49266084242198
 20
-127.1591633796685
 10
76.57827146523043
 20
-127.1083482212611
 10
76.717108813286
 20
-127.0217040698071
 10
76.84957273469387
 20
-126.8270561748905
 10
76.93742266956774
 20
-126.700104406259
 10
77.00064017172207
 20
-126.5562716697498
 10
77.03319632405767
 20
-126.4039984493018
 10
76.81288246777595
 20
-126.4060655065929
 10
76.63942191009362
 20
-126.4124389332407
 10
76.54778237018597
 20
-126.4145059905318
 10
76.54778237018597
 20
-126.4145059905318
 10
76.54778237018597
 20
-126.2369113182672
 10
76.54778237018597
 20
-126.2369113182672
 10
76.73743487664898
 20
-126.2431124901406
 10
77.01080320340355
 20
-126.2474188594972
 10
77.15566946855832
 20
-126.2474188594972
 10
77.15566946855832
 20
-126.2474188594972
 10
77.36168617857625
 20
-126.2474188594972
 10
77.36168617857625
 20
-126.2474188594972
 10
77.36168617857625
 20
-126.2474188594972
 10
77.36168617857625
 20
-126.1395873708089
 10
77.36168617857625
 20
-126.1395873708089
 10
77.36168617857625
 20
-126.1395873708089
 10
77.22095402800379
 20
-126.1395873708089
 10
77.22095402800379
 20
-126.1395873708089
 10
77.05765650200296
 20
-126.1395873708089
 10
76.89453123077637
 20
-126.1437214853912
 10
76.73330076206668
 20
-126.1500949120389
 10
76.73330076206668
 20
-126.1500949120389
 10
76.73330076206668
 20
-125.9787014116477
 10
76.73330076206668
 20
-125.9787014116477
 10
76.88230114180374
 20
-125.989381207652
 10
77.06179061658526
 20
-125.989381207652
 10
77.22095402800379
 20
-125.989381207652
 10
77.22095402800379
 20
-125.989381207652
 10
77.36168617857625
 20
-125.989381207652
 10
77.36168617857625
 20
-125.989381207652
 10
77.36168617857625
 20
-125.989381207652
 10
77.36168617857625
 20
-125.8708699229594
 10
77.36168617857625
 20
-125.8708699229594
 10
77.36168617857625
 20
-125.8708699229594
 10
77.23525117426757
 20
-125.8708699229594
 10
77.23525117426757
 20
-125.8708699229594
 10
77.19029267818507
 20
-125.8708699229594
 10
76.99443899984861
 20
-125.8793104068982
 10
76.95361461834841
 20
-125.8793104068982
 10
76.75776094001195
 20
-125.8836167762548
 10
76.68438040617613
 20
-125.8856838335459
 10
76.60893281504916
 20
-125.8877508908371
 10
76.60893281504916
 20
-125.8877508908371
 10
76.60893281504916
 20
-125.7037827919248
 10
76.60893281504916
 20
-125.7037827919248
 10
76.71900361580289
 20
-125.7122232758636
 10
76.76189505459425
 20
-125.7122232758636
 10
77.13120929061303
 20
-125.7206637598025
 10
77.07005884574986
 20
-125.6254068696353
 10
77.04353161051343
 20
-125.5980183605276
 10
77.0087361461124
 20
-125.5620171127067
 10
77.0087361461124
 20
-125.5620171127067
 10
77.17806258921243
 20
-125.479507075835
 10
77.17806258921243
 20
-125.479507075835
 10
77.21681991342149
 20
-125.5155083236559
 10
77.25971135221285
 20
-125.5577107433502
 10
77.33119708353179
 20
-125.6677815441039
 10
77.33119708353179
 20
-125.6677815441039
 10
77.22095402800379
 20
-125.7227308170936
 10
77.22095402800379
 20
-125.7227308170936
 10
77.22095402800379
 20
-125.7227308170936
 10
77.23111705968527
 20
-125.7227308170936
 10
77.23111705968527
 20
-125.7227308170936
 10
77.23111705968527
 20
-125.7227308170936
 10
77.73513452917733
 20
-125.7227308170936
 10
77.73513452917733
 20
-125.7227308170936
 10
77.73513452917733
 20
-125.7227308170936
 10
77.64332273449543
 20
-125.6782890853339
 10
77.64332273449543
 20
-125.6782890853339
 10
77.66984996973184
 20
-125.6402207802219
 10
77.72479924272159
 20
-125.5599500554156
 10
77.73909638898537
 20
-125.4858805024827
 10
77.73909638898537
 20
-125.4858805024827
 10
77.94511309900331
 20
-125.5492702594113
 10
77.94511309900331
 20
-125.5492702594113
 10
77.95338132816791
 20
-125.5513373167024
 10
77.97370739153088
 20
-125.5620171127067
 10
77.97370739153088
 20
-125.583204449941
 10
77.97370739153088
 20
-125.621272755053
 10
77.91048988937655
 20
-125.621272755053
 10
77.89223088330472
 20
-125.621272755053
 10
77.88189559684898
 20
-125.6402207802219
 10
77.85950247619485
 20
-125.6805283973993
 10
77.83090818366728
 20
-125.7206637598025
 10
78.216586623241
 20
-125.7142903331548
 10
78.24518091576857
 20
-125.7122232758636
 10
78.31856144960439
 20
-125.7058498492159
 10
78.31856144960439
 20
-125.7058498492159
 10
78.31856144960439
 20
-125.8877508908371
 10
78.31856144960439
 20
-125.8877508908371
 10
78.3001301887583
 20
-125.8877508908371
 10
78.27567001081303
 20
-125.8856838335459
 10
78.06345212892164
 20
-125.8772433496071
 10
78.0145317730311
 20
-125.8751762923159
 10
77.8023138911397
 20
-125.8708699229594
 10
77.7595947071226
 20
-125.8708699229594
 10
77.7595947071226
 20
-125.8708699229594
 10
77.55151093981351
 20
-125.8708699229594
 10
77.55151093981351
 20
-125.8708699229594
 10
77.55151093981351
 20
-125.8708699229594
 10
77.55151093981351
 20
-125.989381207652
 10
77.55151093981351
 20
-125.989381207652
 10
77.55151093981351
 20
-125.989381207652
 10
77.7187703256224
 20
-125.989381207652
 10
77.7187703256224
 20
-125.989381207652
 10
77.87586667974979
 20
-125.989381207652
 10
78.05949026911361
 20
-125.989381207652
 10
78.21038545136754
 20
-125.9787014116477
 10
78.21038545136754
 20
-125.9787014116477
 10
78.21038545136754
 20
-126.1500949120389
 10
78.21038545136754
 20
-126.1500949120389
 10
78.00850285593191
 20
-126.1416544281
 10
77.81867809469463
 20
-126.1395873708089
 10
77.7187703256224
 20
-126.1395873708089
 10
77.7187703256224
 20
-126.1395873708089
 10
77.55151093981351
 20
-126.1395873708089
 10
77.55151093981351
 20
-126.1395873708089
 10
77.55151093981351
 20
-126.1395873708089
 10
77.55151093981351
 20
-126.2474188594972
 10
77.55151093981351
 20
-126.2474188594972
 10
77.55151093981351
 20
-126.2474188594972
 10
77.77389185338639
 20
-126.2474188594972
 10
77.77389185338639
 20
-126.2474188594972
 10
77.9023939149862
 20
-126.2474188594972
 10
78.17989635632308
 20
-126.2431124901406
 10
78.38177895175872
 20
-126.2369113182672
 10
78.38177895175872
 20
-126.2369113182672
 10
78.38177895175872
 20
-126.4145059905318
 10
78.38177895175872
 20
-126.4145059905318
 10
78.19608830510376
 20
-126.4081325638841
 10
77.8941256858216
 20
-126.4039984493018
 10
77.77389185338639
 20
-126.4039984493018
 97
        0
 97
        0
 92
        1
 93
        4
 72
     1
 10
77.93288301003066
 20
-126.6599690438559
 11
77.25161537782252
 21
-126.6599690438559
 72
     1
 10
77.25161537782252
 20
-126.6599690438559
 11
77.25161537782252
 21
-126.7678005325442
 72
     1
 10
77.25161537782252
 20
-126.7678005325442
 11
77.93288301003066
 21
-126.7678005325442
 72
     1
 10
77.93288301003066
 20
-126.7678005325442
 11
77.93288301003066
 21
-126.6599690438559
 97
        0
 92
        1
 93
        4
 72
     1
 10
77.93288301003066
 20
-126.8926852438845
 11
77.25161537782252
 21
-126.8926852438845
 72
     1
 10
77.25161537782252
 20
-126.8926852438845
 11
77.25161537782252
 21
-127.0068901592205
 72
     1
 10
77.25161537782252
 20
-127.0068901592205
 11
77.93288301003066
 21
-127.0068901592205
 72
     1
 10
77.93288301003066
 20
-127.0068901592205
 11
77.93288301003066
 21
-126.8926852438845
 97
        0
 92
        1
 93
        4
 72
     1
 10
77.93288301003066
 20
-127.1359089851431
 11
77.25161537782252
 21
-127.1359089851431
 72
     1
 10
77.25161537782252
 20
-127.1359089851431
 11
77.25161537782252
 21
-127.2501139004791
 72
     1
 10
77.25161537782252
 20
-127.2501139004791
 11
77.93288301003066
 21
-127.2501139004791
 72
     1
 10
77.93288301003066
 20
-127.2501139004791
 11
77.93288301003066
 21
-127.1359089851431
 97
        0
 75
     2
 76
     1
 98
        0
  0
SPLINE
  5
10B
330
A8
100
AcDbEntity
  8
_U+30EC_U+30A4_U+30E4_U+30FC 1
370
     0
100
AcDbSpline
210
0.0
220
0.0
230
1.0
 70
    11
 71
     3
 72
    98
 73
    94
 74
     0
 42
0.0000000001
 43
0.0000000001
 12
1.0
 22
0.0
 32
0.0
 13
1.0
 23
0.0
 33
0.0
 40
0.0
 40
0.0
 40
0.0
 40
0.0
 40
1.0
 40
1.0
 40
1.0
 40
2.0
 40
2.0
 40
2.0
 40
3.0
 40
3.0
 40
3.0
 40
4.0
 40
4.0
 40
4.0
 40
5.0
 40
5.0
 40
5.0
 40
6.0
 40
6.0
 40
6.0
 40
7.0
 40
7.0
 40
7.0
 40
8.0
 40
8.0
 40
8.0
 40
9.0
 40
9.0
 40
9.0
 40
10.0
 40
10.0
 40
10.0
 40
11.0
 40
11.0
 40
11.0
 40
12.0
 40
12.0
 40
12.0
 40
13.0
 40
13.0
 40
13.0
 40
14.0
 40
14.0
 40
14.0
 40
15.0
 40
15.0
 40
15.0
 40
16.0
 40
16.0
 40
16.0
 40
17.0
 40
17.0
 40
17.0
 40
18.0
 40
18.0
 40
18.0
 40
19.0
 40
19.0
 40
19.0
 40
20.0
 40
20.0
 40
20.0
 40
21.0
 40
21.0
 40
21.0
 40
22.0
 40
22.0
 40
22.0
 40
23.0
 40
23.0
 40
23.0
 40
24.0
 40
24.0
 40
24.0
 40
25.0
 40
25.0
 40
25.0
 40
26.0
 40
26.0
 40
26.0
 40
27.0
 40
27.0
 40
27.0
 40
28.0
 40
28.0
 40
28.0
 40
29.0
 40
29.0
 40
29.0
 40
30.0
 40
30.0
 40
30.0
 40
31.0
 40
31.0
 40
31.0
 40
31.0
 10
80.29173988878124
 20
-127.3009290588866
 30
0.0
 10
80.22645532933575
 20
-127.3770656691106
 30
0.0
 10
80.1692667442806
 20
-127.3770656691106
 30
0.0
 10
80.01630450473552
 20
-127.3770656691106
 30
0.0
 10
80.01630450473552
 20
-127.3770656691106
 30
0.0
 10
79.20842961344442
 20
-127.3770656691106
 30
0.0
 10
79.20842961344442
 20
-127.3770656691106
 30
0.0
 10
79.05546737389933
 20
-127.3770656691106
 30
0.0
 10
78.93919540127214
 20
-127.3749986118194
 30
0.0
 10
78.86168075285403
 20
-127.2988620015954
 30
0.0
 10
78.79829099592543
 20
-127.237539301958
 30
0.0
 10
78.79226207882624
 20
-127.1527899530208
 30
0.0
 10
78.79226207882624
 20
-127.0237711270982
 30
0.0
 10
78.79226207882624
 20
-127.0237711270982
 30
0.0
 10
78.79226207882624
 20
-126.1289075748046
 30
0.0
 10
78.79226207882624
 20
-126.1289075748046
 30
0.0
 10
78.73111163396305
 20
-126.1606024532689
 30
0.0
 10
78.72284340479845
 20
-126.1628417653343
 30
0.0
 10
78.69028725246285
 20
-126.179722733212
 30
0.0
 10
78.69028725246285
 20
-126.179722733212
 30
0.0
 10
78.55765107628073
 20
-126.0041951182385
 30
0.0
 10
78.55765107628073
 20
-126.0041951182385
 30
0.0
 10
78.69424911227088
 20
-125.972327985
 30
0.0
 10
79.0289401386629
 20
-125.8200547645519
 30
0.0
 10
79.22479381699937
 20
-125.4858805024827
 30
0.0
 10
79.22479381699937
 20
-125.4858805024827
 30
0.0
 10
79.43701169889076
 20
-125.6105929590487
 30
0.0
 10
79.43701169889076
 20
-125.6105929590487
 30
0.0
 10
79.44717473057224
 20
-125.6148993284053
 30
0.0
 10
79.45113659038027
 20
-125.6254068696353
 30
0.0
 10
79.45113659038027
 20
-125.6338473535742
 30
0.0
 10
79.45113659038027
 20
-125.659341060165
 30
0.0
 10
79.4308105270173
 20
-125.6634751747473
 30
0.0
 10
79.42064749533581
 20
-125.6657144868127
 30
0.0
 10
79.41237926617121
 20
-125.6677815441039
 30
0.0
 10
79.36966008215411
 20
-125.6720879134605
 30
0.0
 10
79.36139185298951
 20
-125.6720879134605
 30
0.0
 10
79.34519990420884
 20
-125.6910359386293
 30
0.0
 10
79.32056747148931
 20
-125.7185967025113
 30
0.0
 10
79.31040443980783
 20
-125.7291042437413
 30
0.0
 10
79.31040443980783
 20
-125.7291042437413
 30
0.0
 10
79.58583982385355
 20
-125.7291042437413
 30
0.0
 10
79.58583982385355
 20
-125.7291042437413
 30
0.0
 10
79.69401582209039
 20
-125.7291042437413
 30
0.0
 10
79.80219182032724
 20
-125.7227308170936
 30
0.0
 10
79.91019556378981
 20
-125.7122232758636
 30
0.0
 10
79.91019556378981
 20
-125.7122232758636
 30
0.0
 10
79.97341306594414
 20
-125.7819864594399
 30
0.0
 10
79.97341306594414
 20
-125.7819864594399
 30
0.0
 10
79.86334226519041
 20
-125.8898179481282
 30
0.0
 10
79.76136743882702
 20
-126.0041951182385
 30
0.0
 10
79.65939261246363
 20
-126.1204670908657
 30
0.0
 10
79.65939261246363
 20
-126.1204670908657
 30
0.0
 10
79.76532929863507
 20
-126.1204670908657
 30
0.0
 10
79.76532929863507
 20
-126.1204670908657
 30
0.0
 10
79.83888208724514
 20
-126.1204670908657
 30
0.0
 10
80.13257647736269
 20
-126.1120266069269
 30
0.0
 10
80.19786103680818
 20
-126.103586122988
 30
0.0
 10
80.19579397951702
 20
-126.1840291025686
 30
0.0
 10
80.19389917700013
 20
-126.293927648548
 30
0.0
 10
80.19389917700013
 20
-126.3447428069555
 30
0.0
 10
80.19389917700013
 20
-126.3447428069555
 30
0.0
 10
80.19389917700013
 20
-126.6387817066216
 30
0.0
 10
80.19389917700013
 20
-126.6387817066216
 30
0.0
 10
80.19389917700013
 20
-126.6789170690247
 30
0.0
 10
80.19786103680818
 20
-126.7994954110085
 30
0.0
 10
80.19992809409932
 20
-126.8354966588293
 30
0.0
 10
80.19992809409932
 20
-126.8354966588293
 30
0.0
 10
80.00407441576287
 20
-126.8354966588293
 30
0.0
 10
80.00407441576287
 20
-126.8354966588293
 30
0.0
 10
80.00614147305403
 20
-126.8229220603082
 30
0.0
 10
80.00820853034517
 20
-126.7593600486053
 30
0.0
 10
80.01027558763633
 20
-126.7466131953099
 30
0.0
 10
80.01027558763633
 20
-126.7466131953099
 30
0.0
 10
78.98604869987155
 20
-126.7466131953099
 30
0.0
 10
78.98604869987155
 20
-126.7466131953099
 30
0.0
 10
78.98604869987155
 20
-126.7466131953099
 30
0.0
 10
78.98604869987155
 20
-127.0153306431594
 30
0.0
 10
78.98604869987155
 20
-127.0153306431594
 30
0.0
 10
78.98604869987155
 20
-127.1083482212611
 30
0.0
 10
78.98604869987155
 20
-127.1972316847806
 30
0.0
 10
79.16967228923536
 20
-127.1972316847806
 30
0.0
 10
79.16967228923536
 20
-127.1972316847806
 30
0.0
 10
80.02250567660896
 20
-127.1972316847806
 30
0.0
 10
80.02250567660896
 20
-127.1972316847806
 30
0.0
 10
80.1182793310989
 20
-127.1972316847806
 30
0.0
 10
80.17546791615405
 20
-127.1972316847806
 30
0.0
 10
80.25298256457218
 20
-126.8926852438845
 30
0.0
 10
80.25298256457218
 20
-126.8926852438845
 30
0.0
 10
80.41214597599071
 20
-127.0554660055625
 30
0.0
 10
80.41214597599071
 20
-127.0554660055625
 30
0.0
 10
80.39164765785348
 20
-127.1169609599742
 30
0.0
 10
80.35909150551787
 20
-127.2227253913714
 30
0.0
 10
80.29173988878124
 20
-127.3009290588866
 30
0.0
  0
SPLINE
  5
10C
330
A8
100
AcDbEntity
  8
_U+30EC_U+30A4_U+30E4_U+30FC 1
370
     0
100
AcDbSpline
210
0.0
220
0.0
230
1.0
 70
    11
 71
     3
 72
    23
 73
    19
 74
     0
 42
0.0000000001
 43
0.0000000001
 12
1.0
 22
0.0
 32
0.0
 13
1.0
 23
0.0
 33
0.0
 40
0.0
 40
0.0
 40
0.0
 40
0.0
 40
1.0
 40
1.0
 40
1.0
 40
2.0
 40
2.0
 40
2.0
 40
3.0
 40
3.0
 40
3.0
 40
4.0
 40
4.0
 40
4.0
 40
5.0
 40
5.0
 40
5.0
 40
6.0
 40
6.0
 40
6.0
 40
6.0
 10
79.13711613689975
 20
-125.896191374776
 30
0.0
 10
79.08595646894379
 20
-125.9385660492445
 30
0.0
 10
78.97381861089892
 20
-126.0315836273463
 30
0.0
 10
78.82481823116186
 20
-126.1120266069269
 30
0.0
 10
78.92696531229952
 20
-126.114093664218
 30
0.0
 10
79.08802352623495
 20
-126.1163329762834
 30
0.0
 10
79.18810355008145
 20
-126.1184000335746
 30
0.0
 10
79.19826658176294
 20
-126.1184000335746
 30
0.0
 10
79.2411580205543
 20
-126.1204670908657
 30
0.0
 10
79.25132105223578
 20
-126.1204670908657
 30
0.0
 10
79.25132105223578
 20
-126.1204670908657
 30
0.0
 10
79.41237926617121
 20
-126.1204670908657
 30
0.0
 10
79.41237926617121
 20
-126.1204670908657
 30
0.0
 10
79.47973088290784
 20
-126.0463975379328
 30
0.0
 10
79.54501544235333
 20
-125.9702609277088
 30
0.0
 10
79.61236705908996
 20
-125.896191374776
 30
0.0
 10
79.61236705908996
 20
-125.896191374776
 30
0.0
 10
79.13711613689975
 20
-125.896191374776
 30
0.0
 10
79.13711613689975
 20
-125.896191374776
 30
0.0
  0
POLYLINE
  5
10D
330
A8
100
AcDbEntity
  8
_U+30EC_U+30A4_U+30E4_U+30FC 1
370
     0
100
AcDb2dPolyline
 66
     1
 10
0.0
 20
0.0
 30
0.0
  0
VERTEX
  5
10E
330
10D
100
AcDbEntity
  8
_U+30EC_U+30A4_U+30E4_U+30FC 1
370
     0
100
AcDbVertex
100
AcDb2dVertex
 10
79.40635034907203
 20
-126.2854871646092
 30
0.0
  0
VERTEX
  5
10F
330
10D
100
AcDbEntity
  8
_U+30EC_U+30A4_U+30E4_U+30FC 1
370
     0
100
AcDbVertex
100
AcDb2dVertex
 10
78.98604869987155
 20
-126.2854871646092
 30
0.0
  0
VERTEX
  5
110
330
10D
100
AcDbEntity
  8
_U+30EC_U+30A4_U+30E4_U+30FC 1
370
     0
100
AcDbVertex
100
AcDb2dVertex
 10
78.98604869987155
 20
-126.5795260642753
 30
0.0
  0
VERTEX
  5
111
330
10D
100
AcDbEntity
  8
_U+30EC_U+30A4_U+30E4_U+30FC 1
370
     0
100
AcDbVertex
100
AcDb2dVertex
 10
79.40635034907203
 20
-126.5795260642753
 30
0.0
  0
VERTEX
  5
112
330
10D
100
AcDbEntity
  8
_U+30EC_U+30A4_U+30E4_U+30FC 1
370
     0
100
AcDbVertex
100
AcDb2dVertex
 10
79.40635034907203
 20
-126.2854871646092
 30
0.0
  0
SEQEND
  5
113
330
10D
100
AcDbEntity
  8
_U+30EC_U+30A4_U+30E4_U+30FC 1
370
     0
  0
POLYLINE
  5
114
330
A8
100
AcDbEntity
  8
_U+30EC_U+30A4_U+30E4_U+30FC 1
370
     0
100
AcDb2dPolyline
 66
     1
 10
0.0
 20
0.0
 30
0.0
  0
VERTEX
  5
115
330
114
100
AcDbEntity
  8
_U+30EC_U+30A4_U+30E4_U+30FC 1
370
     0
100
AcDbVertex
100
AcDb2dVertex
 10
80.01423744744436
 20
-126.2854871646092
 30
0.0
  0
VERTEX
  5
116
330
114
100
AcDbEntity
  8
_U+30EC_U+30A4_U+30E4_U+30FC 1
370
     0
100
AcDbVertex
100
AcDb2dVertex
 10
79.59204099572699
 20
-126.2854871646092
 30
0.0
  0
VERTEX
  5
117
330
114
100
AcDbEntity
  8
_U+30EC_U+30A4_U+30E4_U+30FC 1
370
     0
100
AcDbVertex
100
AcDb2dVertex
 10
79.59204099572699
 20
-126.5795260642753
 30
0.0
  0
VERTEX
  5
118
330
114
100
AcDbEntity
  8
_U+30EC_U+30A4_U+30E4_U+30FC 1
370
     0
100
AcDbVertex
100
AcDb2dVertex
 10
80.01423744744436
 20
-126.5795260642753
 30
0.0
  0
VERTEX
  5
119
330
114
100
AcDbEntity
  8
_U+30EC_U+30A4_U+30E4_U+30FC 1
370
     0
100
AcDbVertex
100
AcDb2dVertex
 10
80.01423744744436
 20
-126.2854871646092
 30
0.0
  0
SEQEND
  5
11A
330
114
100
AcDbEntity
  8
_U+30EC_U+30A4_U+30E4_U+30FC 1
370
     0
  0
HATCH
  5
11B
330
A8
100
AcDbEntity
  8
_U+30EC_U+30A4_U+30E4_U+30FC 1
 62
   179
420
  2234388
100
AcDbHatch
 10
0.0
 20
0.0
 30
0.0
210
0.0
220
0.0
230
1.0
  2
SOLID
 70
     1
 71
     0
 91
        4
 92
        1
 93
        1
 72
     4
 94
        3
 73
     0
 74
     1
 95
       98
 96
       94
 40
0.0
 40
0.0
 40
0.0
 40
0.0
 40
1.0
 40
1.0
 40
1.0
 40
2.0
 40
2.0
 40
2.0
 40
3.0
 40
3.0
 40
3.0
 40
4.0
 40
4.0
 40
4.0
 40
5.0
 40
5.0
 40
5.0
 40
6.0
 40
6.0
 40
6.0
 40
7.0
 40
7.0
 40
7.0
 40
8.0
 40
8.0
 40
8.0
 40
9.0
 40
9.0
 40
9.0
 40
10.0
 40
10.0
 40
10.0
 40
11.0
 40
11.0
 40
11.0
 40
12.0
 40
12.0
 40
12.0
 40
13.0
 40
13.0
 40
13.0
 40
14.0
 40
14.0
 40
14.0
 40
15.0
 40
15.0
 40
15.0
 40
16.0
 40
16.0
 40
16.0
 40
17.0
 40
17.0
 40
17.0
 40
18.0
 40
18.0
 40
18.0
 40
19.0
 40
19.0
 40
19.0
 40
20.0
 40
20.0
 40
20.0
 40
21.0
 40
21.0
 40
21.0
 40
22.0
 40
22.0
 40
22.0
 40
23.0
 40
23.0
 40
23.0
 40
24.0
 40
24.0
 40
24.0
 40
25.0
 40
25.0
 40
25.0
 40
26.0
 40
26.0
 40
26.0
 40
27.0
 40
27.0
 40
27.0
 40
28.0
 40
28.0
 40
28.0
 40
29.0
 40
29.0
 40
29.0
 40
30.0
 40
30.0
 40
30.0
 40
31.0
 40
31.0
 40
31.0
 40
31.0
 10
80.29173988878124
 20
-127.3009290588866
 10
80.22645532933575
 20
-127.3770656691106
 10
80.1692667442806
 20
-127.3770656691106
 10
80.01630450473552
 20
-127.3770656691106
 10
80.01630450473552
 20
-127.3770656691106
 10
79.20842961344442
 20
-127.3770656691106
 10
79.20842961344442
 20
-127.3770656691106
 10
79.05546737389933
 20
-127.3770656691106
 10
78.93919540127214
 20
-127.3749986118194
 10
78.86168075285403
 20
-127.2988620015954
 10
78.79829099592543
 20
-127.237539301958
 10
78.79226207882624
 20
-127.1527899530208
 10
78.79226207882624
 20
-127.0237711270982
 10
78.79226207882624
 20
-127.0237711270982
 10
78.79226207882624
 20
-126.1289075748046
 10
78.79226207882624
 20
-126.1289075748046
 10
78.73111163396305
 20
-126.1606024532689
 10
78.72284340479845
 20
-126.1628417653343
 10
78.69028725246285
 20
-126.179722733212
 10
78.69028725246285
 20
-126.179722733212
 10
78.55765107628073
 20
-126.0041951182385
 10
78.55765107628073
 20
-126.0041951182385
 10
78.69424911227088
 20
-125.972327985
 10
79.0289401386629
 20
-125.8200547645519
 10
79.22479381699937
 20
-125.4858805024827
 10
79.22479381699937
 20
-125.4858805024827
 10
79.43701169889076
 20
-125.6105929590487
 10
79.43701169889076
 20
-125.6105929590487
 10
79.44717473057224
 20
-125.6148993284053
 10
79.45113659038027
 20
-125.6254068696353
 10
79.45113659038027
 20
-125.6338473535742
 10
79.45113659038027
 20
-125.659341060165
 10
79.4308105270173
 20
-125.6634751747473
 10
79.42064749533581
 20
-125.6657144868127
 10
79.41237926617121
 20
-125.6677815441039
 10
79.36966008215411
 20
-125.6720879134605
 10
79.36139185298951
 20
-125.6720879134605
 10
79.34519990420884
 20
-125.6910359386293
 10
79.32056747148931
 20
-125.7185967025113
 10
79.31040443980783
 20
-125.7291042437413
 10
79.31040443980783
 20
-125.7291042437413
 10
79.58583982385355
 20
-125.7291042437413
 10
79.58583982385355
 20
-125.7291042437413
 10
79.69401582209039
 20
-125.7291042437413
 10
79.80219182032724
 20
-125.7227308170936
 10
79.91019556378981
 20
-125.7122232758636
 10
79.91019556378981
 20
-125.7122232758636
 10
79.97341306594414
 20
-125.7819864594399
 10
79.97341306594414
 20
-125.7819864594399
 10
79.86334226519041
 20
-125.8898179481282
 10
79.76136743882702
 20
-126.0041951182385
 10
79.65939261246363
 20
-126.1204670908657
 10
79.65939261246363
 20
-126.1204670908657
 10
79.76532929863507
 20
-126.1204670908657
 10
79.76532929863507
 20
-126.1204670908657
 10
79.83888208724514
 20
-126.1204670908657
 10
80.13257647736269
 20
-126.1120266069269
 10
80.19786103680818
 20
-126.103586122988
 10
80.19579397951702
 20
-126.1840291025686
 10
80.19389917700013
 20
-126.293927648548
 10
80.19389917700013
 20
-126.3447428069555
 10
80.19389917700013
 20
-126.3447428069555
 10
80.19389917700013
 20
-126.6387817066216
 10
80.19389917700013
 20
-126.6387817066216
 10
80.19389917700013
 20
-126.6789170690247
 10
80.19786103680818
 20
-126.7994954110085
 10
80.19992809409932
 20
-126.8354966588293
 10
80.19992809409932
 20
-126.8354966588293
 10
80.00407441576287
 20
-126.8354966588293
 10
80.00407441576287
 20
-126.8354966588293
 10
80.00614147305403
 20
-126.8229220603082
 10
80.00820853034517
 20
-126.7593600486053
 10
80.01027558763633
 20
-126.7466131953099
 10
80.01027558763633
 20
-126.7466131953099
 10
78.98604869987155
 20
-126.7466131953099
 10
78.98604869987155
 20
-126.7466131953099
 10
78.98604869987155
 20
-126.7466131953099
 10
78.98604869987155
 20
-127.0153306431594
 10
78.98604869987155
 20
-127.0153306431594
 10
78.98604869987155
 20
-127.1083482212611
 10
78.98604869987155
 20
-127.1972316847806
 10
79.16967228923536
 20
-127.1972316847806
 10
79.16967228923536
 20
-127.1972316847806
 10
80.02250567660896
 20
-127.1972316847806
 10
80.02250567660896
 20
-127.1972316847806
 10
80.1182793310989
 20
-127.1972316847806
 10
80.17546791615405
 20
-127.1972316847806
 10
80.25298256457218
 20
-126.8926852438845
 10
80.25298256457218
 20
-126.8926852438845
 10
80.41214597599071
 20
-127.0554660055625
 10
80.41214597599071
 20
-127.0554660055625
 10
80.39164765785348
 20
-127.1169609599742
 10
80.35909150551787
 20
-127.2227253913714
 10
80.29173988878124
 20
-127.3009290588866
 97
        0
 97
        0
 92
        1
 93
        1
 72
     4
 94
        3
 73
     0
 74
     1
 95
       23
 96
       19
 40
0.0
 40
0.0
 40
0.0
 40
0.0
 40
1.0
 40
1.0
 40
1.0
 40
2.0
 40
2.0
 40
2.0
 40
3.0
 40
3.0
 40
3.0
 40
4.0
 40
4.0
 40
4.0
 40
5.0
 40
5.0
 40
5.0
 40
6.0
 40
6.0
 40
6.0
 40
6.0
 10
79.13711613689975
 20
-125.896191374776
 10
79.08595646894379
 20
-125.9385660492445
 10
78.97381861089892
 20
-126.0315836273463
 10
78.82481823116186
 20
-126.1120266069269
 10
78.92696531229952
 20
-126.114093664218
 10
79.08802352623495
 20
-126.1163329762834
 10
79.18810355008145
 20
-126.1184000335746
 10
79.19826658176294
 20
-126.1184000335746
 10
79.2411580205543
 20
-126.1204670908657
 10
79.25132105223578
 20
-126.1204670908657
 10
79.25132105223578
 20
-126.1204670908657
 10
79.41237926617121
 20
-126.1204670908657
 10
79.41237926617121
 20
-126.1204670908657
 10
79.47973088290784
 20
-126.0463975379328
 10
79.54501544235333
 20
-125.9702609277088
 10
79.61236705908996
 20
-125.896191374776
 10
79.61236705908996
 20
-125.896191374776
 10
79.13711613689975
 20
-125.896191374776
 10
79.13711613689975
 20
-125.896191374776
 97
        0
 97
        0
 92
        1
 93
        4
 72
     1
 10
79.40635034907203
 20
-126.2854871646092
 11
78.98604869987155
 21
-126.2854871646092
 72
     1
 10
78.98604869987155
 20
-126.2854871646092
 11
78.98604869987155
 21
-126.5795260642753
 72
     1
 10
78.98604869987155
 20
-126.5795260642753
 11
79.40635034907203
 21
-126.5795260642753
 72
     1
 10
79.40635034907203
 20
-126.5795260642753
 11
79.40635034907203
 21
-126.2854871646092
 97
        0
 92
        1
 93
        4
 72
     1
 10
80.01423744744436
 20
-126.2854871646092
 11
79.59204099572699
 21
-126.2854871646092
 72
     1
 10
79.59204099572699
 20
-126.2854871646092
 11
79.59204099572699
 21
-126.5795260642753
 72
     1
 10
79.59204099572699
 20
-126.5795260642753
 11
80.01423744744436
 21
-126.5795260642753
 72
     1
 10
80.01423744744436
 20
-126.5795260642753
 11
80.01423744744436
 21
-126.2854871646092
 97
        0
 75
     2
 76
     1
 98
        0
  0
SPLINE
  5
11C
330
A8
100
AcDbEntity
  8
_U+30EC_U+30A4_U+30E4_U+30FC 1
370
     0
100
AcDbSpline
210
0.0
220
0.0
230
1.0
 70
    11
 71
     3
 72
    59
 73
    55
 74
     0
 42
0.0000000001
 43
0.0000000001
 12
1.0
 22
0.0
 32
0.0
 13
1.0
 23
0.0
 33
0.0
 40
0.0
 40
0.0
 40
0.0
 40
0.0
 40
1.0
 40
1.0
 40
1.0
 40
2.0
 40
2.0
 40
2.0
 40
3.0
 40
3.0
 40
3.0
 40
4.0
 40
4.0
 40
4.0
 40
5.0
 40
5.0
 40
5.0
 40
6.0
 40
6.0
 40
6.0
 40
7.0
 40
7.0
 40
7.0
 40
8.0
 40
8.0
 40
8.0
 40
9.0
 40
9.0
 40
9.0
 40
10.0
 40
10.0
 40
10.0
 40
11.0
 40
11.0
 40
11.0
 40
12.0
 40
12.0
 40
12.0
 40
13.0
 40
13.0
 40
13.0
 40
14.0
 40
14.0
 40
14.0
 40
15.0
 40
15.0
 40
15.0
 40
16.0
 40
16.0
 40
16.0
 40
17.0
 40
17.0
 40
17.0
 40
18.0
 40
18.0
 40
18.0
 40
18.0
 10
81.95503198905986
 20
-126.1966037010897
 30
0.0
 10
81.87148842354254
 20
-126.4568806650004
 30
0.0
 10
81.73058401819583
 20
-126.7953612964262
 30
0.0
 10
81.41845836723219
 20
-127.0873331388011
 30
0.0
 10
81.25929495581366
 20
-127.2332329326014
 30
0.0
 10
81.10633271626855
 20
-127.3052354282431
 30
0.0
 10
81.0124538642955
 20
-127.351744217294
 30
0.0
 10
81.0124538642955
 20
-127.351744217294
 30
0.0
 10
80.82883027493169
 20
-127.2079114807848
 30
0.0
 10
80.82883027493169
 20
-127.2079114807848
 30
0.0
 10
81.08393959561444
 20
-127.1105875333265
 30
0.0
 10
81.30838756647846
 20
-126.9412610902265
 30
0.0
 10
81.47564695228735
 20
-126.7192246862021
 30
0.0
 10
81.5695258042604
 20
-126.5943399748618
 30
0.0
 10
81.7224880438055
 20
-126.3319959536601
 30
0.0
 10
81.79380152035016
 20
-126.0062621755297
 30
0.0
 10
81.79380152035016
 20
-126.0062621755297
 30
0.0
 10
81.17971325010438
 20
-126.0062621755297
 30
0.0
 10
81.17971325010438
 20
-126.0062621755297
 30
0.0
 10
81.11253388814201
 20
-126.103586122988
 30
0.0
 10
80.93700627316854
 20
-126.3616237748332
 30
0.0
 10
80.76561277277735
 20
-126.4844414288824
 30
0.0
 10
80.76561277277735
 20
-126.4844414288824
 30
0.0
 10
80.60455455884193
 20
-126.3574896602509
 30
0.0
 10
80.60455455884193
 20
-126.3574896602509
 30
0.0
 10
80.90238306354176
 20
-126.1373480587434
 30
0.0
 10
81.11253388814201
 20
-125.7607991222056
 30
0.0
 10
81.1778184475875
 20
-125.5492702594113
 30
0.0
 10
81.1778184475875
 20
-125.5492702594113
 30
0.0
 10
81.38986407470462
 20
-125.6486612641608
 30
0.0
 10
81.38986407470462
 20
-125.6486612641608
 30
0.0
 10
81.39399818928692
 20
-125.6509005762262
 30
0.0
 10
81.43275551349598
 20
-125.6677815441039
 30
0.0
 10
81.43275551349598
 20
-125.6910359386293
 30
0.0
 10
81.43275551349598
 20
-125.7058498492159
 30
0.0
 10
81.43275551349598
 20
-125.7163573904459
 30
0.0
 10
81.34301077610522
 20
-125.7418510970368
 30
0.0
 10
81.30425345189616
 20
-125.8095472233219
 30
0.0
 10
81.30011933731386
 20
-125.8159206499696
 30
0.0
 10
81.28392738853319
 20
-125.8412421017862
 30
0.0
 10
81.28392738853319
 20
-125.8412421017862
 30
0.0
 10
81.59605303949682
 20
-125.8412421017862
 30
0.0
 10
81.59605303949682
 20
-125.8412421017862
 30
0.0
 10
81.77554251427834
 20
-125.8412421017862
 30
0.0
 10
81.79793563493246
 20
-125.8391750444951
 30
0.0
 10
81.82446287016889
 20
-125.8369357324297
 30
0.0
 10
81.89181448690552
 20
-125.8328016178474
 30
0.0
 10
81.9061116331693
 20
-125.8243611339085
 30
0.0
 10
81.92643769653229
 20
-125.8095472233219
 30
0.0
 10
81.92643769653229
 20
-125.8095472233219
 30
0.0
 10
82.08353405065968
 20
-125.9766343543565
 30
0.0
 10
82.08353405065968
 20
-125.9766343543565
 30
0.0
 10
82.0080864595327
 20
-126.0486368499983
 30
0.0
 10
81.99999048514236
 20
-126.0591443912283
 30
0.0
 10
81.95503198905986
 20
-126.1966037010897
 30
0.0
  0
SPLINE
  5
11D
330
A8
100
AcDbEntity
  8
_U+30EC_U+30A4_U+30E4_U+30FC 1
370
     0
100
AcDbSpline
210
0.0
220
0.0
230
1.0
 70
    11
 71
     3
 72
    17
 73
    13
 74
     0
 42
0.0000000001
 43
0.0000000001
 12
1.0
 22
0.0
 32
0.0
 13
1.0
 23
0.0
 33
0.0
 40
0.0
 40
0.0
 40
0.0
 40
0.0
 40
1.0
 40
1.0
 40
1.0
 40
2.0
 40
2.0
 40
2.0
 40
3.0
 40
3.0
 40
3.0
 40
4.0
 40
4.0
 40
4.0
 40
4.0
 10
81.8694213662514
 20
-125.7311713010325
 30
0.0
 10
81.76727428511374
 20
-125.6381537229307
 30
0.0
 10
81.7550441961411
 20
-125.6276461817007
 30
0.0
 10
81.65720348436001
 20
-125.5492702594113
 30
0.0
 10
81.65720348436001
 20
-125.5492702594113
 30
0.0
 10
81.76537948259686
 20
-125.451946311953
 30
0.0
 10
81.76537948259686
 20
-125.451946311953
 30
0.0
 10
81.87148842354254
 20
-125.528082922177
 30
0.0
 10
81.901977518587
 20
-125.5599500554156
 30
0.0
 10
81.98155922429628
 20
-125.6445271495785
 30
0.0
 10
81.98155922429628
 20
-125.6445271495785
 30
0.0
 10
81.8694213662514
 20
-125.7311713010325
 30
0.0
 10
81.8694213662514
 20
-125.7311713010325
 30
0.0
  0
SPLINE
  5
11E
330
A8
100
AcDbEntity
  8
_U+30EC_U+30A4_U+30E4_U+30FC 1
370
     0
100
AcDbSpline
210
0.0
220
0.0
230
1.0
 70
    11
 71
     3
 72
    17
 73
    13
 74
     0
 42
0.0000000001
 43
0.0000000001
 12
1.0
 22
0.0
 32
0.0
 13
1.0
 23
0.0
 33
0.0
 40
0.0
 40
0.0
 40
0.0
 40
0.0
 40
1.0
 40
1.0
 40
1.0
 40
2.0
 40
2.0
 40
2.0
 40
3.0
 40
3.0
 40
3.0
 40
4.0
 40
4.0
 40
4.0
 40
4.0
 10
82.19171004889652
 20
-125.7397840397456
 30
0.0
 10
82.13262666132448
 20
-125.6634751747473
 30
0.0
 10
82.0692369043959
 20
-125.5916449338799
 30
0.0
 10
81.99172225597776
 20
-125.5323892915336
 30
0.0
 10
81.99172225597776
 20
-125.5323892915336
 30
0.0
 10
82.10799422860495
 20
-125.4393717134318
 30
0.0
 10
82.10799422860495
 20
-125.4393717134318
 30
0.0
 10
82.19377710618767
 20
-125.4963880437127
 30
0.0
 10
82.24476451936937
 20
-125.5492702594113
 30
0.0
 10
82.3079820215237
 20
-125.6381537229307
 30
0.0
 10
82.3079820215237
 20
-125.6381537229307
 30
0.0
 10
82.19171004889652
 20
-125.7397840397456
 30
0.0
 10
82.19171004889652
 20
-125.7397840397456
 30
0.0
  0
HATCH
  5
11F
330
A8
100
AcDbEntity
  8
_U+30EC_U+30A4_U+30E4_U+30FC 1
 62
   179
420
  2234388
100
AcDbHatch
 10
0.0
 20
0.0
 30
0.0
210
0.0
220
0.0
230
1.0
  2
SOLID
 70
     1
 71
     0
 91
        3
 92
        1
 93
        1
 72
     4
 94
        3
 73
     0
 74
     1
 95
       59
 96
       55
 40
0.0
 40
0.0
 40
0.0
 40
0.0
 40
1.0
 40
1.0
 40
1.0
 40
2.0
 40
2.0
 40
2.0
 40
3.0
 40
3.0
 40
3.0
 40
4.0
 40
4.0
 40
4.0
 40
5.0
 40
5.0
 40
5.0
 40
6.0
 40
6.0
 40
6.0
 40
7.0
 40
7.0
 40
7.0
 40
8.0
 40
8.0
 40
8.0
 40
9.0
 40
9.0
 40
9.0
 40
10.0
 40
10.0
 40
10.0
 40
11.0
 40
11.0
 40
11.0
 40
12.0
 40
12.0
 40
12.0
 40
13.0
 40
13.0
 40
13.0
 40
14.0
 40
14.0
 40
14.0
 40
15.0
 40
15.0
 40
15.0
 40
16.0
 40
16.0
 40
16.0
 40
17.0
 40
17.0
 40
17.0
 40
18.0
 40
18.0
 40
18.0
 40
18.0
 10
81.95503198905986
 20
-126.1966037010897
 10
81.87148842354254
 20
-126.4568806650004
 10
81.73058401819583
 20
-126.7953612964262
 10
81.41845836723219
 20
-127.0873331388011
 10
81.25929495581366
 20
-127.2332329326014
 10
81.10633271626855
 20
-127.3052354282431
 10
81.0124538642955
 20
-127.351744217294
 10
81.0124538642955
 20
-127.351744217294
 10
80.82883027493169
 20
-127.2079114807848
 10
80.82883027493169
 20
-127.2079114807848
 10
81.08393959561444
 20
-127.1105875333265
 10
81.30838756647846
 20
-126.9412610902265
 10
81.47564695228735
 20
-126.7192246862021
 10
81.5695258042604
 20
-126.5943399748618
 10
81.7224880438055
 20
-126.3319959536601
 10
81.79380152035016
 20
-126.0062621755297
 10
81.79380152035016
 20
-126.0062621755297
 10
81.17971325010438
 20
-126.0062621755297
 10
81.17971325010438
 20
-126.0062621755297
 10
81.11253388814201
 20
-126.103586122988
 10
80.93700627316854
 20
-126.3616237748332
 10
80.76561277277735
 20
-126.4844414288824
 10
80.76561277277735
 20
-126.4844414288824
 10
80.60455455884193
 20
-126.3574896602509
 10
80.60455455884193
 20
-126.3574896602509
 10
80.90238306354176
 20
-126.1373480587434
 10
81.11253388814201
 20
-125.7607991222056
 10
81.1778184475875
 20
-125.5492702594113
 10
81.1778184475875
 20
-125.5492702594113
 10
81.38986407470462
 20
-125.6486612641608
 10
81.38986407470462
 20
-125.6486612641608
 10
81.39399818928692
 20
-125.6509005762262
 10
81.43275551349598
 20
-125.6677815441039
 10
81.43275551349598
 20
-125.6910359386293
 10
81.43275551349598
 20
-125.7058498492159
 10
81.43275551349598
 20
-125.7163573904459
 10
81.34301077610522
 20
-125.7418510970368
 10
81.30425345189616
 20
-125.8095472233219
 10
81.30011933731386
 20
-125.8159206499696
 10
81.28392738853319
 20
-125.8412421017862
 10
81.28392738853319
 20
-125.8412421017862
 10
81.59605303949682
 20
-125.8412421017862
 10
81.59605303949682
 20
-125.8412421017862
 10
81.77554251427834
 20
-125.8412421017862
 10
81.79793563493246
 20
-125.8391750444951
 10
81.82446287016889
 20
-125.8369357324297
 10
81.89181448690552
 20
-125.8328016178474
 10
81.9061116331693
 20
-125.8243611339085
 10
81.92643769653229
 20
-125.8095472233219
 10
81.92643769653229
 20
-125.8095472233219
 10
82.08353405065968
 20
-125.9766343543565
 10
82.08353405065968
 20
-125.9766343543565
 10
82.0080864595327
 20
-126.0486368499983
 10
81.99999048514236
 20
-126.0591443912283
 10
81.95503198905986
 20
-126.1966037010897
 97
        0
 97
        0
 92
        1
 93
        1
 72
     4
 94
        3
 73
     0
 74
     1
 95
       17
 96
       13
 40
0.0
 40
0.0
 40
0.0
 40
0.0
 40
1.0
 40
1.0
 40
1.0
 40
2.0
 40
2.0
 40
2.0
 40
3.0
 40
3.0
 40
3.0
 40
4.0
 40
4.0
 40
4.0
 40
4.0
 10
81.8694213662514
 20
-125.7311713010325
 10
81.76727428511374
 20
-125.6381537229307
 10
81.7550441961411
 20
-125.6276461817007
 10
81.65720348436001
 20
-125.5492702594113
 10
81.65720348436001
 20
-125.5492702594113
 10
81.76537948259686
 20
-125.451946311953
 10
81.76537948259686
 20
-125.451946311953
 10
81.87148842354254
 20
-125.528082922177
 10
81.901977518587
 20
-125.5599500554156
 10
81.98155922429628
 20
-125.6445271495785
 10
81.98155922429628
 20
-125.6445271495785
 10
81.8694213662514
 20
-125.7311713010325
 10
81.8694213662514
 20
-125.7311713010325
 97
        0
 97
        0
 92
        1
 93
        1
 72
     4
 94
        3
 73
     0
 74
     1
 95
       17
 96
       13
 40
0.0
 40
0.0
 40
0.0
 40
0.0
 40
1.0
 40
1.0
 40
1.0
 40
2.0
 40
2.0
 40
2.0
 40
3.0
 40
3.0
 40
3.0
 40
4.0
 40
4.0
 40
4.0
 40
4.0
 10
82.19171004889652
 20
-125.7397840397456
 10
82.13262666132448
 20
-125.6634751747473
 10
82.0692369043959
 20
-125.5916449338799
 10
81.99172225597776
 20
-125.5323892915336
 10
81.99172225597776
 20
-125.5323892915336
 10
82.10799422860495
 20
-125.4393717134318
 10
82.10799422860495
 20
-125.4393717134318
 10
82.19377710618767
 20
-125.4963880437127
 10
82.24476451936937
 20
-125.5492702594113
 10
82.3079820215237
 20
-125.6381537229307
 10
82.3079820215237
 20
-125.6381537229307
 10
82.19171004889652
 20
-125.7397840397456
 10
82.19171004889652
 20
-125.7397840397456
 97
        0
 97
        0
 75
     2
 76
     1
 98
        0
  0
SPLINE
  5
120
330
A8
100
AcDbEntity
  8
_U+30EC_U+30A4_U+30E4_U+30FC 1
370
     0
100
AcDbSpline
210
0.0
220
0.0
230
1.0
 70
    11
 71
     3
 72
    44
 73
    40
 74
     0
 42
0.0000000001
 43
0.0000000001
 12
1.0
 22
0.0
 32
0.0
 13
1.0
 23
0.0
 33
0.0
 40
0.0
 40
0.0
 40
0.0
 40
0.0
 40
1.0
 40
1.0
 40
1.0
 40
2.0
 40
2.0
 40
2.0
 40
3.0
 40
3.0
 40
3.0
 40
4.0
 40
4.0
 40
4.0
 40
5.0
 40
5.0
 40
5.0
 40
6.0
 40
6.0
 40
6.0
 40
7.0
 40
7.0
 40
7.0
 40
8.0
 40
8.0
 40
8.0
 40
9.0
 40
9.0
 40
9.0
 40
10.0
 40
10.0
 40
10.0
 40
11.0
 40
11.0
 40
11.0
 40
12.0
 40
12.0
 40
12.0
 40
13.0
 40
13.0
 40
13.0
 40
13.0
 10
82.63905569765622
 20
-127.2184190220148
 30
0.0
 10
82.63905569765622
 20
-127.2184190220148
 30
0.0
 10
82.51262069334754
 20
-127.1210950745565
 30
0.0
 10
82.51262069334754
 20
-127.1210950745565
 30
0.0
 10
82.51675480792984
 20
-127.0725192282145
 30
0.0
 10
82.52088892251214
 20
-127.0365179803937
 30
0.0
 10
82.52278372502903
 20
-126.9116332690534
 30
0.0
 10
82.52278372502903
 20
-126.8735649639413
 30
0.0
 10
82.52088892251214
 20
-126.7128512595544
 30
0.0
 10
82.52088892251214
 20
-126.6789170690247
 30
0.0
 10
82.52088892251214
 20
-126.6789170690247
 30
0.0
 10
82.52088892251214
 20
-126.1628417653343
 30
0.0
 10
82.52088892251214
 20
-126.1628417653343
 30
0.0
 10
82.52088892251214
 20
-126.0612114485194
 30
0.0
 10
82.51675480792984
 20
-125.7714789182099
 30
0.0
 10
82.50659177624836
 20
-125.6805283973993
 30
0.0
 10
82.50659177624836
 20
-125.6805283973993
 30
0.0
 10
82.74120277879386
 20
-125.7185967025113
 30
0.0
 10
82.74120277879386
 20
-125.7185967025113
 30
0.0
 10
82.76962481654718
 20
-125.7227308170936
 30
0.0
 10
82.79821910907475
 20
-125.7291042437413
 30
0.0
 10
82.79821910907475
 20
-125.7714789182099
 30
0.0
 10
82.79821910907475
 20
-125.7947333127353
 30
0.0
 10
82.79219019197556
 20
-125.7988674273176
 30
0.0
 10
82.7451646386019
 20
-125.8348686751385
 30
0.0
 10
82.73293454962926
 20
-125.9428724186011
 30
0.0
 10
82.72690563253008
 20
-125.9830077810042
 30
0.0
 10
82.72690563253008
 20
-126.3426757496643
 30
0.0
 10
82.72690563253008
 20
-126.3426757496643
 30
0.0
 10
82.72690563253008
 20
-126.9348876635788
 30
0.0
 10
82.72690563253008
 20
-126.9348876635788
 30
0.0
 10
82.99011092760317
 20
-126.8947523011756
 30
0.0
 10
83.51634926297508
 20
-126.5815931215664
 30
0.0
 10
83.80608179328459
 20
-126.1754163638555
 30
0.0
 10
83.80608179328459
 20
-126.1754163638555
 30
0.0
 10
83.87136635273008
 20
-126.4251857865361
 30
0.0
 10
83.87136635273008
 20
-126.4251857865361
 30
0.0
 10
83.58783499429401
 20
-126.7994954110085
 30
0.0
 10
83.0533284297575
 20
-127.1042141066788
 30
0.0
 10
82.63905569765622
 20
-127.2184190220148
 30
0.0
  0
HATCH
  5
121
330
A8
100
AcDbEntity
  8
_U+30EC_U+30A4_U+30E4_U+30FC 1
 62
   179
420
  2234388
100
AcDbHatch
 10
0.0
 20
0.0
 30
0.0
210
0.0
220
0.0
230
1.0
  2
SOLID
 70
     1
 71
     0
 91
        1
 92
        1
 93
        1
 72
     4
 94
        3
 73
     0
 74
     1
 95
       44
 96
       40
 40
0.0
 40
0.0
 40
0.0
 40
0.0
 40
1.0
 40
1.0
 40
1.0
 40
2.0
 40
2.0
 40
2.0
 40
3.0
 40
3.0
 40
3.0
 40
4.0
 40
4.0
 40
4.0
 40
5.0
 40
5.0
 40
5.0
 40
6.0
 40
6.0
 40
6.0
 40
7.0
 40
7.0
 40
7.0
 40
8.0
 40
8.0
 40
8.0
 40
9.0
 40
9.0
 40
9.0
 40
10.0
 40
10.0
 40
10.0
 40
11.0
 40
11.0
 40
11.0
 40
12.0
 40
12.0
 40
12.0
 40
13.0
 40
13.0
 40
13.0
 40
13.0
 10
82.63905569765622
 20
-127.2184190220148
 10
82.63905569765622
 20
-127.2184190220148
 10
82.51262069334754
 20
-127.1210950745565
 10
82.51262069334754
 20
-127.1210950745565
 10
82.51675480792984
 20
-127.0725192282145
 10
82.52088892251214
 20
-127.0365179803937
 10
82.52278372502903
 20
-126.9116332690534
 10
82.52278372502903
 20
-126.8735649639413
 10
82.52088892251214
 20
-126.7128512595544
 10
82.52088892251214
 20
-126.6789170690247
 10
82.52088892251214
 20
-126.6789170690247
 10
82.52088892251214
 20
-126.1628417653343
 10
82.52088892251214
 20
-126.1628417653343
 10
82.52088892251214
 20
-126.0612114485194
 10
82.51675480792984
 20
-125.7714789182099
 10
82.50659177624836
 20
-125.6805283973993
 10
82.50659177624836
 20
-125.6805283973993
 10
82.74120277879386
 20
-125.7185967025113
 10
82.74120277879386
 20
-125.7185967025113
 10
82.76962481654718
 20
-125.7227308170936
 10
82.79821910907475
 20
-125.7291042437413
 10
82.79821910907475
 20
-125.7714789182099
 10
82.79821910907475
 20
-125.7947333127353
 10
82.79219019197556
 20
-125.7988674273176
 10
82.7451646386019
 20
-125.8348686751385
 10
82.73293454962926
 20
-125.9428724186011
 10
82.72690563253008
 20
-125.9830077810042
 10
82.72690563253008
 20
-126.3426757496643
 10
82.72690563253008
 20
-126.3426757496643
 10
82.72690563253008
 20
-126.9348876635788
 10
82.72690563253008
 20
-126.9348876635788
 10
82.99011092760317
 20
-126.8947523011756
 10
83.51634926297508
 20
-126.5815931215664
 10
83.80608179328459
 20
-126.1754163638555
 10
83.80608179328459
 20
-126.1754163638555
 10
83.87136635273008
 20
-126.4251857865361
 10
83.87136635273008
 20
-126.4251857865361
 10
83.58783499429401
 20
-126.7994954110085
 10
83.0533284297575
 20
-127.1042141066788
 10
82.63905569765622
 20
-127.2184190220148
 97
        0
 97
        0
 75
     2
 76
     1
 98
        0
  0
SPLINE
  5
122
330
A8
100
AcDbEntity
  8
_U+30EC_U+30A4_U+30E4_U+30FC 1
370
     0
100
AcDbSpline
210
0.0
220
0.0
230
1.0
 70
    11
 71
     3
 72
    29
 73
    25
 74
     0
 42
0.0000000001
 43
0.0000000001
 12
1.0
 22
0.0
 32
0.0
 13
1.0
 23
0.0
 33
0.0
 40
0.0
 40
0.0
 40
0.0
 40
0.0
 40
1.0
 40
1.0
 40
1.0
 40
2.0
 40
2.0
 40
2.0
 40
3.0
 40
3.0
 40
3.0
 40
4.0
 40
4.0
 40
4.0
 40
5.0
 40
5.0
 40
5.0
 40
6.0
 40
6.0
 40
6.0
 40
7.0
 40
7.0
 40
7.0
 40
8.0
 40
8.0
 40
8.0
 40
8.0
 10
85.05131155642815
 20
-126.5435248164544
 30
0.0
 10
85.05131155642815
 20
-126.5435248164544
 30
0.0
 10
84.58415660862828
 20
-126.5435248164544
 30
0.0
 10
84.58415660862828
 20
-126.5435248164544
 30
0.0
 10
84.55762937339185
 20
-126.5435248164544
 30
0.0
 10
84.2515326395274
 20
-126.5435248164544
 30
0.0
 10
84.0475829868006
 20
-126.5690185230452
 30
0.0
 10
84.0475829868006
 20
-126.5690185230452
 30
0.0
 10
84.0475829868006
 20
-126.3383693803078
 30
0.0
 10
84.0475829868006
 20
-126.3383693803078
 30
0.0
 10
84.2005452263457
 20
-126.3616237748332
 30
0.0
 10
84.38416881570951
 20
-126.3636908321244
 30
0.0
 10
84.58415660862828
 20
-126.3636908321244
 30
0.0
 10
84.58415660862828
 20
-126.3636908321244
 30
0.0
 10
85.05131155642815
 20
-126.3636908321244
 30
0.0
 10
85.05131155642815
 20
-126.3636908321244
 30
0.0
 10
85.23080103120967
 20
-126.3636908321244
 30
0.0
 10
85.41029050599118
 20
-126.3616237748332
 30
0.0
 10
85.58788517825582
 20
-126.3383693803078
 30
0.0
 10
85.58788517825582
 20
-126.3383693803078
 30
0.0
 10
85.58788517825582
 20
-126.5690185230452
 30
0.0
 10
85.58788517825582
 20
-126.5690185230452
 30
0.0
 10
85.41029050599118
 20
-126.5457641285198
 30
0.0
 10
85.17171764363763
 20
-126.5435248164544
 30
0.0
 10
85.05131155642815
 20
-126.5435248164544
 30
0.0
  0
HATCH
  5
123
330
A8
100
AcDbEntity
  8
_U+30EC_U+30A4_U+30E4_U+30FC 1
 62
   179
420
  2234388
100
AcDbHatch
 10
0.0
 20
0.0
 30
0.0
210
0.0
220
0.0
230
1.0
  2
SOLID
 70
     1
 71
     0
 91
        1
 92
        1
 93
        1
 72
     4
 94
        3
 73
     0
 74
     1
 95
       29
 96
       25
 40
0.0
 40
0.0
 40
0.0
 40
0.0
 40
1.0
 40
1.0
 40
1.0
 40
2.0
 40
2.0
 40
2.0
 40
3.0
 40
3.0
 40
3.0
 40
4.0
 40
4.0
 40
4.0
 40
5.0
 40
5.0
 40
5.0
 40
6.0
 40
6.0
 40
6.0
 40
7.0
 40
7.0
 40
7.0
 40
8.0
 40
8.0
 40
8.0
 40
8.0
 10
85.05131155642815
 20
-126.5435248164544
 10
85.05131155642815
 20
-126.5435248164544
 10
84.58415660862828
 20
-126.5435248164544
 10
84.58415660862828
 20
-126.5435248164544
 10
84.55762937339185
 20
-126.5435248164544
 10
84.2515326395274
 20
-126.5435248164544
 10
84.0475829868006
 20
-126.5690185230452
 10
84.0475829868006
 20
-126.5690185230452
 10
84.0475829868006
 20
-126.3383693803078
 10
84.0475829868006
 20
-126.3383693803078
 10
84.2005452263457
 20
-126.3616237748332
 10
84.38416881570951
 20
-126.3636908321244
 10
84.58415660862828
 20
-126.3636908321244
 10
84.58415660862828
 20
-126.3636908321244
 10
85.05131155642815
 20
-126.3636908321244
 10
85.05131155642815
 20
-126.3636908321244
 10
85.23080103120967
 20
-126.3636908321244
 10
85.41029050599118
 20
-126.3616237748332
 10
85.58788517825582
 20
-126.3383693803078
 10
85.58788517825582
 20
-126.3383693803078
 10
85.58788517825582
 20
-126.5690185230452
 10
85.58788517825582
 20
-126.5690185230452
 10
85.41029050599118
 20
-126.5457641285198
 10
85.17171764363763
 20
-126.5435248164544
 10
85.05131155642815
 20
-126.5435248164544
 97
        0
 97
        0
 75
     2
 76
     1
 98
        0
  0
SPLINE
  5
124
330
A8
100
AcDbEntity
  8
_U+30EC_U+30A4_U+30E4_U+30FC 1
370
     0
100
AcDbSpline
210
0.0
220
0.0
230
1.0
 70
    11
 71
     3
 72
    23
 73
    19
 74
     0
 42
0.0000000001
 43
0.0000000001
 12
1.0
 22
0.0
 32
0.0
 13
1.0
 23
0.0
 33
0.0
 40
0.0
 40
0.0
 40
0.0
 40
0.0
 40
1.0
 40
1.0
 40
1.0
 40
2.0
 40
2.0
 40
2.0
 40
3.0
 40
3.0
 40
3.0
 40
4.0
 40
4.0
 40
4.0
 40
5.0
 40
5.0
 40
5.0
 40
6.0
 40
6.0
 40
6.0
 40
6.0
 10
85.8188788305418
 20
-127.3706922424629
 30
0.0
 10
85.95340980924082
 20
-127.2036051114283
 30
0.0
 10
86.15753171674187
 20
-126.9476345168742
 30
0.0
 10
86.15753171674187
 20
-126.4548136077092
 30
0.0
 10
86.15753171674187
 20
-125.96182044377
 30
0.0
 10
85.95340980924082
 20
-125.7058498492159
 30
0.0
 10
85.8188788305418
 20
-125.5387627181813
 30
0.0
 10
85.8188788305418
 20
-125.5387627181813
 30
0.0
 10
85.9268825740044
 20
-125.4393717134318
 30
0.0
 10
85.9268825740044
 20
-125.4393717134318
 30
0.0
 10
86.08397892813178
 20
-125.631780296283
 30
0.0
 10
86.31049395628696
 20
-125.9068711707802
 30
0.0
 10
86.31049395628696
 20
-126.4548136077092
 30
0.0
 10
86.31049395628696
 20
-127.0025837898639
 30
0.0
 10
86.08397892813178
 20
-127.2776746643611
 30
0.0
 10
85.9268825740044
 20
-127.4702555019866
 30
0.0
 10
85.9268825740044
 20
-127.4702555019866
 30
0.0
 10
85.8188788305418
 20
-127.3706922424629
 30
0.0
 10
85.8188788305418
 20
-127.3706922424629
 30
0.0
  0
HATCH
  5
125
330
A8
100
AcDbEntity
  8
_U+30EC_U+30A4_U+30E4_U+30FC 1
 62
   179
420
  2234388
100
AcDbHatch
 10
0.0
 20
0.0
 30
0.0
210
0.0
220
0.0
230
1.0
  2
SOLID
 70
     1
 71
     0
 91
        1
 92
        1
 93
        1
 72
     4
 94
        3
 73
     0
 74
     1
 95
       23
 96
       19
 40
0.0
 40
0.0
 40
0.0
 40
0.0
 40
1.0
 40
1.0
 40
1.0
 40
2.0
 40
2.0
 40
2.0
 40
3.0
 40
3.0
 40
3.0
 40
4.0
 40
4.0
 40
4.0
 40
5.0
 40
5.0
 40
5.0
 40
6.0
 40
6.0
 40
6.0
 40
6.0
 10
85.8188788305418
 20
-127.3706922424629
 10
85.95340980924082
 20
-127.2036051114283
 10
86.15753171674187
 20
-126.9476345168742
 10
86.15753171674187
 20
-126.4548136077092
 10
86.15753171674187
 20
-125.96182044377
 10
85.95340980924082
 20
-125.7058498492159
 10
85.8188788305418
 20
-125.5387627181813
 10
85.8188788305418
 20
-125.5387627181813
 10
85.9268825740044
 20
-125.4393717134318
 10
85.9268825740044
 20
-125.4393717134318
 10
86.08397892813178
 20
-125.631780296283
 10
86.31049395628696
 20
-125.9068711707802
 10
86.31049395628696
 20
-126.4548136077092
 10
86.31049395628696
 20
-127.0025837898639
 10
86.08397892813178
 20
-127.2776746643611
 10
85.9268825740044
 20
-127.4702555019866
 10
85.9268825740044
 20
-127.4702555019866
 10
85.8188788305418
 20
-127.3706922424629
 10
85.8188788305418
 20
-127.3706922424629
 97
        0
 97
        0
 75
     2
 76
     1
 98
        0
  0
ENDBLK
  5
AB
330
A8
100
AcDbEntity
  8
0
100
AcDbBlockEnd
  0
ENDSEC
  0
SECTION
  2
ENTITIES
  0
POLYLINE
  5
41
330
1F
100
AcDbEntity
  8
_U+30EC_U+30A4_U+30E4_U+30FC 1
370
     0
100
AcDb2dPolyline
 66
     1
 10
0.0
 20
0.0
 30
0.0
  0
VERTEX
  5
42
330
41
100
AcDbEntity
  8
_U+30EC_U+30A4_U+30E4_U+30FC 1
370
     0
100
AcDbVertex
100
AcDb2dVertex
 10
108.3579141800037
 20
-140.3607527426875
 30
0.0
  0
VERTEX
  5
43
330
41
100
AcDbEntity
  8
_U+30EC_U+30A4_U+30E4_U+30FC 1
370
     0
100
AcDbVertex
100
AcDb2dVertex
 10
74.97388364281244
 20
-140.3607527426875
 30
0.0
  0
VERTEX
  5
44
330
41
100
AcDbEntity
  8
_U+30EC_U+30A4_U+30E4_U+30FC 1
370
     0
100
AcDbVertex
100
AcDb2dVertex
 10
74.97388364281244
 20
-116.0693921932048
 30
0.0
  0
VERTEX
  5
45
330
41
100
AcDbEntity
  8
_U+30EC_U+30A4_U+30E4_U+30FC 1
370
     0
100
AcDbVertex
100
AcDb2dVertex
 10
108.3579141800037
 20
-116.0693921932048
 30
0.0
  0
VERTEX
  5
46
330
41
100
AcDbEntity
  8
_U+30EC_U+30A4_U+30E4_U+30FC 1
370
     0
100
AcDbVertex
100
AcDb2dVertex
 10
108.3579141800037
 20
-140.3607527426875
 30
0.0
  0
SEQEND
  5
48
330
41
100
AcDbEntity
  8
_U+30EC_U+30A4_U+30E4_U+30FC 1
370
     0
  0
HATCH
  5
47
330
1F
100
AcDbEntity
  8
_U+30EC_U+30A4_U+30E4_U+30FC 1
 62
   253
420
 10728925
100
AcDbHatch
 10
0.0
 20
0.0
 30
0.0
210
0.0
220
0.0
230
1.0
  2
SOLID
 70
     1
 71
     0
 91
        1
 92
        1
 93
        4
 72
     1
 10
108.3579141800037
 20
-140.3607527426875
 11
74.97388364281244
 21
-140.3607527426875
 72
     1
 10
74.97388364281244
 20
-140.3607527426875
 11
74.97388364281244
 21
-116.0693921932048
 72
     1
 10
74.97388364281244
 20
-116.0693921932048
 11
108.3579141800037
 21
-116.0693921932048
 72
     1
 10
108.3579141800037
 20
-116.0693921932048
 11
108.3579141800037
 21
-140.3607527426875
 97
        0
 75
     2
 76
     1
 98
        0
  0
SPLINE
  5
49
330
1F
100
AcDbEntity
  8
_U+30EC_U+30A4_U+30E4_U+30FC 1
 62
     7
420
 16711422
370
     5
100
AcDbSpline
210
0.0
220
0.0
230
1.0
 70
    11
 71
     3
 72
    50
 73
    46
 74
     0
 42
0.0000000001
 43
0.0000000001
 12
1.0
 22
0.0
 32
0.0
 13
1.0
 23
0.0
 33
0.0
 40
0.0
 40
0.0
 40
0.0
 40
0.0
 40
1.0
 40
1.0
 40
1.0
 40
2.0
 40
2.0
 40
2.0
 40
3.0
 40
3.0
 40
3.0
 40
4.0
 40
4.0
 40
4.0
 40
5.0
 40
5.0
 40
5.0
 40
6.0
 40
6.0
 40
6.0
 40
7.0
 40
7.0
 40
7.0
 40
8.0
 40
8.0
 40
8.0
 40
9.0
 40
9.0
 40
9.0
 40
10.0
 40
10.0
 40
10.0
 40
11.0
 40
11.0
 40
11.0
 40
12.0
 40
12.0
 40
12.0
 40
13.0
 40
13.0
 40
13.0
 40
14.0
 40
14.0
 40
14.0
 40
15.0
 40
15.0
 40
15.0
 40
15.0
 10
106.1378836810859
 20
-116.0537288598754
 30
0.0
 10
106.1378836810859
 20
-116.0537288598754
 30
0.0
 10
79.81184268605249
 20
-133.2962719111205
 30
0.0
 10
79.81184268605249
 20
-133.2962719111205
 30
0.0
 10
79.81184268605249
 20
-133.2962719111205
 30
0.0
 10
79.3708704750804
 20
-133.3844663555429
 30
0.0
 10
79.392919085629
 20
-133.9577302442885
 30
0.0
 10
79.392919085629
 20
-133.9577302442885
 30
0.0
 10
79.392919085629
 20
-134.6632857996676
 30
0.0
 10
79.392919085629
 20
-134.6632857996676
 30
0.0
 10
79.392919085629
 20
-134.6632857996676
 30
0.0
 10
79.52521074892063
 20
-135.082209410674
 30
0.0
 10
79.9661829598927
 20
-135.1483552439908
 30
0.0
 10
79.9661829598927
 20
-135.1483552439908
 30
0.0
 10
81.70802319323244
 20
-135.1483552439908
 30
0.0
 10
81.70802319323244
 20
-135.1483552439908
 30
0.0
 10
81.70802319323244
 20
-135.1483552439908
 30
0.0
 10
82.14899540420453
 20
-134.3766538552948
 30
0.0
 10
82.81045372066265
 20
-134.4427996886116
 30
0.0
 10
82.81045372066265
 20
-134.4427996886116
 30
0.0
 10
83.73649536370402
 20
-134.6191885774564
 30
0.0
 10
83.80264119534984
 20
-135.1704038550964
 30
0.0
 10
83.80264119534984
 20
-135.1704038550964
 30
0.0
 10
95.6868422810475
 20
-135.1704038550964
 30
0.0
 10
95.6868422810475
 20
-135.1704038550964
 30
0.0
 10
95.6868422810475
 20
-135.1704038550964
 30
0.0
 10
95.97347421817935
 20
-134.4427996886116
 30
0.0
 10
96.59083531354027
 20
-134.4868969108228
 30
0.0
 10
96.59083531354027
 20
-134.4868969108228
 30
0.0
 10
97.47277973548444
 20
-134.3987024664004
 30
0.0
 10
97.67121723042187
 20
-135.0381121884628
 30
0.0
 10
97.67121723042187
 20
-135.0381121884628
 30
0.0
 10
99.63354356924765
 20
-135.0381121884628
 30
0.0
 10
99.63354356924765
 20
-135.0381121884628
 30
0.0
 10
99.63354356924765
 20
-135.0381121884628
 30
0.0
 10
100.0304185591225
 20
-134.7955774663012
 30
0.0
 10
100.0304185591225
 20
-134.7955774663012
 30
0.0
 10
100.0304185591225
 20
-134.7955774663012
 30
0.0
 10
108.5766716744228
 20
-129.7781249675555
 30
0.0
 10
108.5766716744228
 20
-129.7781249675555
 30
0.0
 10
108.5766716744228
 20
-129.7781249675555
 30
0.0
 10
108.5277413978933
 20
-116.0659702487613
 30
0.0
 10
108.5277413978933
 20
-116.0659702487613
 30
0.0
 10
108.5277413978933
 20
-116.0659702487613
 30
0.0
 10
106.1378836810859
 20
-116.0537288598754
 30
0.0
 10
106.1378836810859
 20
-116.0537288598754
 30
0.0
  0
HATCH
  5
4A
330
1F
100
AcDbEntity
  8
_U+30EC_U+30A4_U+30E4_U+30FC 1
 62
     7
420
 16711422
100
AcDbHatch
 10
0.0
 20
0.0
 30
0.0
210
0.0
220
0.0
230
1.0
  2
SOLID
 70
     1
 71
     0
 91
        1
 92
        1
 93
        1
 72
     4
 94
        3
 73
     0
 74
     1
 95
       50
 96
       46
 40
0.0
 40
0.0
 40
0.0
 40
0.0
 40
1.0
 40
1.0
 40
1.0
 40
2.0
 40
2.0
 40
2.0
 40
3.0
 40
3.0
 40
3.0
 40
4.0
 40
4.0
 40
4.0
 40
5.0
 40
5.0
 40
5.0
 40
6.0
 40
6.0
 40
6.0
 40
7.0
 40
7.0
 40
7.0
 40
8.0
 40
8.0
 40
8.0
 40
9.0
 40
9.0
 40
9.0
 40
10.0
 40
10.0
 40
10.0
 40
11.0
 40
11.0
 40
11.0
 40
12.0
 40
12.0
 40
12.0
 40
13.0
 40
13.0
 40
13.0
 40
14.0
 40
14.0
 40
14.0
 40
15.0
 40
15.0
 40
15.0
 40
15.0
 10
106.1378836810859
 20
-116.0537288598754
 10
106.1378836810859
 20
-116.0537288598754
 10
79.81184268605249
 20
-133.2962719111205
 10
79.81184268605249
 20
-133.2962719111205
 10
79.81184268605249
 20
-133.2962719111205
 10
79.3708704750804
 20
-133.3844663555429
 10
79.392919085629
 20
-133.9577302442885
 10
79.392919085629
 20
-133.9577302442885
 10
79.392919085629
 20
-134.6632857996676
 10
79.392919085629
 20
-134.6632857996676
 10
79.392919085629
 20
-134.6632857996676
 10
79.52521074892063
 20
-135.082209410674
 10
79.9661829598927
 20
-135.1483552439908
 10
79.9661829598927
 20
-135.1483552439908
 10
81.70802319323244
 20
-135.1483552439908
 10
81.70802319323244
 20
-135.1483552439908
 10
81.70802319323244
 20
-135.1483552439908
 10
82.14899540420453
 20
-134.3766538552948
 10
82.81045372066265
 20
-134.4427996886116
 10
82.81045372066265
 20
-134.4427996886116
 10
83.73649536370402
 20
-134.6191885774564
 10
83.80264119534984
 20
-135.1704038550964
 10
83.80264119534984
 20
-135.1704038550964
 10
95.6868422810475
 20
-135.1704038550964
 10
95.6868422810475
 20
-135.1704038550964
 10
95.6868422810475
 20
-135.1704038550964
 10
95.97347421817935
 20
-134.4427996886116
 10
96.59083531354027
 20
-134.4868969108228
 10
96.59083531354027
 20
-134.4868969108228
 10
97.47277973548444
 20
-134.3987024664004
 10
97.67121723042187
 20
-135.0381121884628
 10
97.67121723042187
 20
-135.0381121884628
 10
99.63354356924765
 20
-135.0381121884628
 10
99.63354356924765
 20
-135.0381121884628
 10
99.63354356924765
 20
-135.0381121884628
 10
100.0304185591225
 20
-134.7955774663012
 10
100.0304185591225
 20
-134.7955774663012
 10
100.0304185591225
 20
-134.7955774663012
 10
108.5766716744228
 20
-129.7781249675555
 10
108.5766716744228
 20
-129.7781249675555
 10
108.5766716744228
 20
-129.7781249675555
 10
108.5277413978933
 20
-116.0659702487613
 10
108.5277413978933
 20
-116.0659702487613
 10
108.5277413978933
 20
-116.0659702487613
 10
106.1378836810859
 20
-116.0537288598754
 10
106.1378836810859
 20
-116.0537288598754
 97
        0
 97
        0
 75
     2
 76
     1
 98
        0
  0
SPLINE
  5
4B
330
1F
100
AcDbEntity
  8
_U+30EC_U+30A4_U+30E4_U+30FC 1
 62
   179
420
  2234388
370
     9
100
AcDbSpline
210
0.0
220
0.0
230
1.0
 70
    11
 71
     3
 72
    17
 73
    13
 74
     0
 42
0.0000000001
 43
0.0000000001
 12
1.0
 22
0.0
 32
0.0
 13
1.0
 23
0.0
 33
0.0
 40
0.0
 40
0.0
 40
0.0
 40
0.0
 40
1.0
 40
1.0
 40
1.0
 40
2.0
 40
2.0
 40
2.0
 40
3.0
 40
3.0
 40
3.0
 40
4.0
 40
4.0
 40
4.0
 40
4.0
 10
79.65027046795231
 20
-138.3646655209643
 30
0.0
 10
79.65027046795231
 20
-138.3095616320894
 30
0.0
 10
79.60546769131754
 20
-138.2647588543227
 30
0.0
 10
79.55036380383447
 20
-138.2647588543227
 30
0.0
 10
79.49522463857453
 20
-138.2647588543227
 30
0.0
 10
79.45045713971663
 20
-138.3095616320894
 30
0.0
 10
79.45045713971663
 20
-138.3646655209643
 30
0.0
 10
79.45045713971663
 20
-138.4198046876174
 30
0.0
 10
79.49522463857453
 20
-138.4645721876059
 30
0.0
 10
79.55036380383447
 20
-138.4645721876059
 30
0.0
 10
79.60546769131754
 20
-138.4645721876059
 30
0.0
 10
79.65027046795231
 20
-138.4198046876174
 30
0.0
 10
79.65027046795231
 20
-138.3646655209643
 30
0.0
  0
SPLINE
  5
4C
330
1F
100
AcDbEntity
  8
_U+30EC_U+30A4_U+30E4_U+30FC 1
 62
   179
420
  2234388
370
     9
100
AcDbSpline
210
0.0
220
0.0
230
1.0
 70
    11
 71
     3
 72
    17
 73
    13
 74
     0
 42
0.0000000001
 43
0.0000000001
 12
1.0
 22
0.0
 32
0.0
 13
1.0
 23
0.0
 33
0.0
 40
0.0
 40
0.0
 40
0.0
 40
0.0
 40
1.0
 40
1.0
 40
1.0
 40
2.0
 40
2.0
 40
2.0
 40
3.0
 40
3.0
 40
3.0
 40
4.0
 40
4.0
 40
4.0
 40
4.0
 10
100.1041491127971
 20
-138.3646655209643
 30
0.0
 10
100.1041491127971
 20
-138.3095616320894
 30
0.0
 10
100.0596991139311
 20
-138.2647588543227
 30
0.0
 10
100.0042424486792
 20
-138.2647588543227
 30
0.0
 10
99.94910328341928
 20
-138.2647588543227
 30
0.0
 10
99.90433578456138
 20
-138.3095616320894
 30
0.0
 10
99.90433578456138
 20
-138.3646655209643
 30
0.0
 10
99.90433578456138
 20
-138.4198046876174
 30
0.0
 10
99.94910328341928
 20
-138.4645721876059
 30
0.0
 10
100.0042424486792
 20
-138.4645721876059
 30
0.0
 10
100.0596991139311
 20
-138.4645721876059
 30
0.0
 10
100.1041491127971
 20
-138.4198046876174
 30
0.0
 10
100.1041491127971
 20
-138.3646655209643
 30
0.0
  0
POLYLINE
  5
4D
330
1F
100
AcDbEntity
  8
_U+30EC_U+30A4_U+30E4_U+30FC 1
 62
   179
420
  2234388
370
     9
100
AcDb2dPolyline
 66
     1
 10
0.0
 20
0.0
 30
0.0
  0
VERTEX
  5
4E
330
4D
100
AcDbEntity
  8
_U+30EC_U+30A4_U+30E4_U+30FC 1
 62
   179
420
  2234388
370
     9
100
AcDbVertex
100
AcDb2dVertex
 10
79.55036380383447
 20
-138.3646655209643
 30
0.0
  0
VERTEX
  5
4F
330
4D
100
AcDbEntity
  8
_U+30EC_U+30A4_U+30E4_U+30FC 1
 62
   179
420
  2234388
370
     9
100
AcDbVertex
100
AcDb2dVertex
 10
100.0042424486792
 20
-138.3646655209643
 30
0.0
  0
SEQEND
  5
50
330
4D
100
AcDbEntity
  8
_U+30EC_U+30A4_U+30E4_U+30FC 1
 62
   179
420
  2234388
370
     9
  0
POLYLINE
  5
51
330
1F
100
AcDbEntity
  8
_U+30EC_U+30A4_U+30E4_U+30FC 1
 62
   179
420
  2234388
370
     9
100
AcDb2dPolyline
 66
     1
 10
0.0
 20
0.0
 30
0.0
  0
VERTEX
  5
52
330
51
100
AcDbEntity
  8
_U+30EC_U+30A4_U+30E4_U+30FC 1
 62
   179
420
  2234388
370
     9
100
AcDbVertex
100
AcDb2dVertex
 10
79.55036380383447
 20
-136.9046594102181
 30
0.0
  0
VERTEX
  5
53
330
51
100
AcDbEntity
  8
_U+30EC_U+30A4_U+30E4_U+30FC 1
 62
   179
420
  2234388
370
     9
100
AcDbVertex
100
AcDb2dVertex
 10
79.55036380383447
 20
-139.3644377429368
 30
0.0
  0
SEQEND
  5
54
330
51
100
AcDbEntity
  8
_U+30EC_U+30A4_U+30E4_U+30FC 1
 62
   179
420
  2234388
370
     9
  0
POLYLINE
  5
55
330
1F
100
AcDbEntity
  8
_U+30EC_U+30A4_U+30E4_U+30FC 1
 62
   179
420
  2234388
370
     9
100
AcDb2dPolyline
 66
     1
 10
0.0
 20
0.0
 30
0.0
  0
VERTEX
  5
56
330
55
100
AcDbEntity
  8
_U+30EC_U+30A4_U+30E4_U+30FC 1
 62
   179
420
  2234388
370
     9
100
AcDbVertex
100
AcDb2dVertex
 10
100.0042424486792
 20
-136.9046594102181
 30
0.0
  0
VERTEX
  5
57
330
55
100
AcDbEntity
  8
_U+30EC_U+30A4_U+30E4_U+30FC 1
 62
   179
420
  2234388
370
     9
100
AcDbVertex
100
AcDb2dVertex
 10
100.0042424486792
 20
-139.3644377429368
 30
0.0
  0
SEQEND
  5
58
330
55
100
AcDbEntity
  8
_U+30EC_U+30A4_U+30E4_U+30FC 1
 62
   179
420
  2234388
370
     9
  0
INSERT
  5
5A
330
1F
100
AcDbEntity
  8
_U+30EC_U+30A4_U+30E4_U+30FC 1
100
AcDbBlockReference
  2
block 2
 10
0.0
 20
0.0
 30
0.0
  0
SPLINE
  5
6E
330
1F
100
AcDbEntity
  8
_U+30EC_U+30A4_U+30E4_U+30FC 1
 62
   179
420
  2234388
370
     9
100
AcDbSpline
210
0.0
220
0.0
230
1.0
 70
    11
 71
     3
 72
    17
 73
    13
 74
     0
 42
0.0000000001
 43
0.0000000001
 12
1.0
 22
0.0
 32
0.0
 13
1.0
 23
0.0
 33
0.0
 40
0.0
 40
0.0
 40
0.0
 40
0.0
 40
1.0
 40
1.0
 40
1.0
 40
2.0
 40
2.0
 40
2.0
 40
3.0
 40
3.0
 40
3.0
 40
4.0
 40
4.0
 40
4.0
 40
4.0
 10
100.0396966144414
 20
-138.3646655209643
 30
0.0
 10
100.0396966144414
 20
-138.3839624654041
 30
0.0
 10
100.0238568926233
 20
-138.3998374654002
 30
0.0
 10
100.0042424486792
 20
-138.3998374654002
 30
0.0
 10
99.98494550472708
 20
-138.3998374654002
 30
0.0
 10
99.9691083083412
 20
-138.3839624654041
 30
0.0
 10
99.9691083083412
 20
-138.3646655209643
 30
0.0
 10
99.9691083083412
 20
-138.3454038543026
 30
0.0
 10
99.98494550472708
 20
-138.3295288543066
 30
0.0
 10
100.0042424486792
 20
-138.3295288543066
 30
0.0
 10
100.0238568926233
 20
-138.3295288543066
 30
0.0
 10
100.0396966144414
 20
-138.3454038543026
 30
0.0
 10
100.0396966144414
 20
-138.3646655209643
 30
0.0
  0
SPLINE
  5
6F
330
1F
100
AcDbEntity
  8
_U+30EC_U+30A4_U+30E4_U+30FC 1
 62
   179
420
  2234388
370
     9
100
AcDbSpline
210
0.0
220
0.0
230
1.0
 70
    11
 71
     3
 72
    17
 73
    13
 74
     0
 42
0.0000000001
 43
0.0000000001
 12
1.0
 22
0.0
 32
0.0
 13
1.0
 23
0.0
 33
0.0
 40
0.0
 40
0.0
 40
0.0
 40
0.0
 40
1.0
 40
1.0
 40
1.0
 40
2.0
 40
2.0
 40
2.0
 40
3.0
 40
3.0
 40
3.0
 40
4.0
 40
4.0
 40
4.0
 40
4.0
 10
77.63523913047115
 20
-133.3189908000034
 30
0.0
 10
77.63523913047115
 20
-133.2638869111285
 30
0.0
 10
77.5904363538364
 20
-133.2190841333618
 30
0.0
 10
77.53497968858454
 20
-133.2190841333618
 30
0.0
 10
77.47984052332458
 20
-133.2190841333618
 30
0.0
 10
77.4350749806413
 20
-133.2638869111285
 30
0.0
 10
77.4350749806413
 20
-133.3189908000034
 30
0.0
 10
77.4350749806413
 20
-133.3741299666565
 30
0.0
 10
77.47984052332458
 20
-133.4188974666451
 30
0.0
 10
77.53497968858454
 20
-133.4188974666451
 30
0.0
 10
77.5904363538364
 20
-133.4188974666451
 30
0.0
 10
77.63523913047115
 20
-133.3741299666565
 30
0.0
 10
77.63523913047115
 20
-133.3189908000034
 30
0.0
  0
SPLINE
  5
70
330
1F
100
AcDbEntity
  8
_U+30EC_U+30A4_U+30E4_U+30FC 1
 62
   179
420
  2234388
370
     9
100
AcDbSpline
210
0.0
220
0.0
230
1.0
 70
    11
 71
     3
 72
    17
 73
    13
 74
     0
 42
0.0000000001
 43
0.0000000001
 12
1.0
 22
0.0
 32
0.0
 13
1.0
 23
0.0
 33
0.0
 40
0.0
 40
0.0
 40
0.0
 40
0.0
 40
1.0
 40
1.0
 40
1.0
 40
2.0
 40
2.0
 40
2.0
 40
3.0
 40
3.0
 40
3.0
 40
4.0
 40
4.0
 40
4.0
 40
4.0
 10
77.63523913047115
 20
-135.3192055217259
 30
0.0
 10
77.63523913047115
 20
-135.264101632851
 30
0.0
 10
77.5904363538364
 20
-135.2192988550842
 30
0.0
 10
77.53497968858454
 20
-135.2192988550842
 30
0.0
 10
77.47984052332458
 20
-135.2192988550842
 30
0.0
 10
77.4350749806413
 20
-135.264101632851
 30
0.0
 10
77.4350749806413
 20
-135.3192055217259
 30
0.0
 10
77.4350749806413
 20
-135.374344688379
 30
0.0
 10
77.47984052332458
 20
-135.4191121883675
 30
0.0
 10
77.53497968858454
 20
-135.4191121883675
 30
0.0
 10
77.5904363538364
 20
-135.4191121883675
 30
0.0
 10
77.63523913047115
 20
-135.374344688379
 30
0.0
 10
77.63523913047115
 20
-135.3192055217259
 30
0.0
  0
POLYLINE
  5
71
330
1F
100
AcDbEntity
  8
_U+30EC_U+30A4_U+30E4_U+30FC 1
 62
   179
420
  2234388
370
     9
100
AcDb2dPolyline
 66
     1
 10
0.0
 20
0.0
 30
0.0
  0
VERTEX
  5
72
330
71
100
AcDbEntity
  8
_U+30EC_U+30A4_U+30E4_U+30FC 1
 62
   179
420
  2234388
370
     9
100
AcDbVertex
100
AcDb2dVertex
 10
77.53497968858454
 20
-133.3189908000034
 30
0.0
  0
VERTEX
  5
73
330
71
100
AcDbEntity
  8
_U+30EC_U+30A4_U+30E4_U+30FC 1
 62
   179
420
  2234388
370
     9
100
AcDbVertex
100
AcDb2dVertex
 10
77.53497968858454
 20
-135.3192055217259
 30
0.0
  0
SEQEND
  5
74
330
71
100
AcDbEntity
  8
_U+30EC_U+30A4_U+30E4_U+30FC 1
 62
   179
420
  2234388
370
     9
  0
POLYLINE
  5
75
330
1F
100
AcDbEntity
  8
_U+30EC_U+30A4_U+30E4_U+30FC 1
 62
   179
420
  2234388
370
     9
100
AcDb2dPolyline
 66
     1
 10
0.0
 20
0.0
 30
0.0
  0
VERTEX
  5
76
330
75
100
AcDbEntity
  8
_U+30EC_U+30A4_U+30E4_U+30FC 1
 62
   179
420
  2234388
370
     9
100
AcDbVertex
100
AcDb2dVertex
 10
78.99502104022467
 20
-133.3189908000034
 30
0.0
  0
VERTEX
  5
77
330
75
100
AcDbEntity
  8
_U+30EC_U+30A4_U+30E4_U+30FC 1
 62
   179
420
  2234388
370
     9
100
AcDbVertex
100
AcDb2dVertex
 10
76.53520749186863
 20
-133.3189908000034
 30
0.0
  0
SEQEND
  5
78
330
75
100
AcDbEntity
  8
_U+30EC_U+30A4_U+30E4_U+30FC 1
 62
   179
420
  2234388
370
     9
  0
POLYLINE
  5
79
330
1F
100
AcDbEntity
  8
_U+30EC_U+30A4_U+30E4_U+30FC 1
 62
   179
420
  2234388
370
     9
100
AcDb2dPolyline
 66
     1
 10
0.0
 20
0.0
 30
0.0
  0
VERTEX
  5
7A
330
79
100
AcDbEntity
  8
_U+30EC_U+30A4_U+30E4_U+30FC 1
 62
   179
420
  2234388
370
     9
100
AcDbVertex
100
AcDb2dVertex
 10
78.99502104022467
 20
-135.3192055217259
 30
0.0
  0
VERTEX
  5
7B
330
79
100
AcDbEntity
  8
_U+30EC_U+30A4_U+30E4_U+30FC 1
 62
   179
420
  2234388
370
     9
100
AcDbVertex
100
AcDb2dVertex
 10
76.53520749186863
 20
-135.3192055217259
 30
0.0
  0
SEQEND
  5
7C
330
79
100
AcDbEntity
  8
_U+30EC_U+30A4_U+30E4_U+30FC 1
 62
   179
420
  2234388
370
     9
  0
INSERT
  5
7E
330
1F
100
AcDbEntity
  8
_U+30EC_U+30A4_U+30E4_U+30FC 1
100
AcDbBlockReference
  2
block 3
 10
0.0
 20
0.0
 30
0.0
  0
SPLINE
  5
83
330
1F
100
AcDbEntity
  8
_U+30EC_U+30A4_U+30E4_U+30FC 1
 62
   179
420
  2234388
370
     9
100
AcDbSpline
210
0.0
220
0.0
230
1.0
 70
    11
 71
     3
 72
    17
 73
    13
 74
     0
 42
0.0000000001
 43
0.0000000001
 12
1.0
 22
0.0
 32
0.0
 13
1.0
 23
0.0
 33
0.0
 40
0.0
 40
0.0
 40
0.0
 40
0.0
 40
1.0
 40
1.0
 40
1.0
 40
2.0
 40
2.0
 40
2.0
 40
3.0
 40
3.0
 40
3.0
 40
4.0
 40
4.0
 40
4.0
 40
4.0
 10
77.57046913212358
 20
-135.3192055217259
 30
0.0
 10
77.57046913212358
 20
-135.3385024661651
 30
0.0
 10
77.55459413252858
 20
-135.3543421883836
 30
0.0
 10
77.53497968858454
 20
-135.3543421883836
 30
0.0
 10
77.5156827446324
 20
-135.3543421883836
 30
0.0
 10
77.49984302281429
 20
-135.3385024661651
 30
0.0
 10
77.49984302281429
 20
-135.3192055217259
 30
0.0
 10
77.49984302281429
 20
-135.2992382995087
 30
0.0
 10
77.5156827446324
 20
-135.2840688550681
 30
0.0
 10
77.53497968858454
 20
-135.2840688550681
 30
0.0
 10
77.55459413252858
 20
-135.2840688550681
 30
0.0
 10
77.57046913212358
 20
-135.2992382995087
 30
0.0
 10
77.57046913212358
 20
-135.3192055217259
 30
0.0
  0
INSERT
  5
85
330
1F
100
AcDbEntity
  8
_U+30EC_U+30A4_U+30E4_U+30FC 1
100
AcDbBlockReference
  2
block 4
 10
0.0
 20
0.0
 30
0.0
  0
INSERT
  5
A9
330
1F
100
AcDbEntity
  8
_U+30EC_U+30A4_U+30E4_U+30FC 1
100
AcDbBlockReference
  2
block 5
 10
0.0
 20
0.0
 30
0.0
  0
SPLINE
  5
126
330
1F
100
AcDbEntity
  8
_U+30EC_U+30A4_U+30E4_U+30FC 1
 62
   179
420
  2234388
370
     9
100
AcDbSpline
210
0.0
220
0.0
230
1.0
 70
     8
 71
     3
 72
    20
 73
    16
 74
     0
 42
0.0000000001
 43
0.0000000001
 12
1.0
 22
0.0
 32
0.0
 13
1.0
 23
0.0
 33
0.0
 40
0.0
 40
0.0
 40
0.0
 40
0.0
 40
1.0
 40
1.0
 40
1.0
 40
2.0
 40
2.0
 40
2.0
 40
3.0
 40
3.0
 40
3.0
 40
4.0
 40
4.0
 40
4.0
 40
5.0
 40
5.0
 40
5.0
 40
5.0
 10
81.74831041442685
 20
-135.2165471884178
 30
0.0
 10
81.74831041442685
 20
-135.2165471884178
 30
0.0
 10
81.92265318775678
 20
-134.4310874663924
 30
0.0
 10
82.79528427660522
 20
-134.4896485774886
 30
0.0
 10
82.79528427660522
 20
-134.4896485774886
 30
0.0
 10
83.72580831240175
 20
-134.4896485774886
 30
0.0
 10
83.81297758397503
 20
-135.1876194106478
 30
0.0
 10
83.81297758397503
 20
-135.1876194106478
 30
0.0
 10
95.67823450348932
 20
-135.1876194106478
 30
0.0
 10
95.67823450348932
 20
-135.1876194106478
 30
0.0
 10
95.67823450348932
 20
-135.1876194106478
 30
0.0
 10
95.85254442048151
 20
-134.4896485774886
 30
0.0
 10
96.57979336937753
 20
-134.4896485774886
 30
0.0
 10
96.57979336937753
 20
-134.4896485774886
 30
0.0
 10
97.59748667674735
 20
-134.3153057997547
 30
0.0
 10
97.6846580634123
 20
-135.1586916328772
 30
0.0
  0
SPLINE
  5
127
330
1F
100
AcDbEntity
  8
_U+30EC_U+30A4_U+30E4_U+30FC 1
 62
     7
420
 16777215
370
    25
100
AcDbSpline
210
0.0
220
0.0
230
1.0
 70
     8
 71
     3
 72
    32
 73
    28
 74
     0
 42
0.0000000001
 43
0.0000000001
 12
1.0
 22
0.0
 32
0.0
 13
1.0
 23
0.0
 33
0.0
 40
0.0
 40
0.0
 40
0.0
 40
0.0
 40
1.0
 40
1.0
 40
1.0
 40
2.0
 40
2.0
 40
2.0
 40
3.0
 40
3.0
 40
3.0
 40
4.0
 40
4.0
 40
4.0
 40
5.0
 40
5.0
 40
5.0
 40
6.0
 40
6.0
 40
6.0
 40
7.0
 40
7.0
 40
7.0
 40
8.0
 40
8.0
 40
8.0
 40
9.0
 40
9.0
 40
9.0
 40
9.0
 10
81.70594180439666
 20
-135.1876194106478
 30
0.0
 10
81.70594180439666
 20
-135.1876194106478
 30
0.0
 10
80.00340101449875
 20
-135.1586916328772
 30
0.0
 10
80.00340101449875
 20
-135.1586916328772
 30
0.0
 10
80.00340101449875
 20
-135.1586916328772
 30
0.0
 10
79.42184686266877
 20
-135.0132766329133
 30
0.0
 10
79.39256630786022
 20
-134.4896485774886
 30
0.0
 10
79.39256630786022
 20
-134.4896485774886
 30
0.0
 10
79.39256630786022
 20
-133.8206055221007
 30
0.0
 10
79.39256630786022
 20
-133.8206055221007
 30
0.0
 10
79.39256630786022
 20
-133.8206055221007
 30
0.0
 10
79.16001520268199
 20
-133.0647438556226
 30
0.0
 10
81.19571931741352
 20
-133.0647438556226
 30
0.0
 10
81.19571931741352
 20
-133.0647438556226
 30
0.0
 10
99.13880802631385
 20
-133.0647438556226
 30
0.0
 10
99.13880802631385
 20
-133.0647438556226
 30
0.0
 10
99.13880802631385
 20
-133.0647438556226
 30
0.0
 10
100.1275735566439
 20
-133.0061827445264
 30
0.0
 10
100.1275735566439
 20
-133.7330813554556
 30
0.0
 10
100.1275735566439
 20
-133.7330813554556
 30
0.0
 10
100.1275735566439
 20
-134.5475041330299
 30
0.0
 10
100.1275735566439
 20
-134.5475041330299
 30
0.0
 10
100.1275735566439
 20
-134.5475041330299
 30
0.0
 10
100.2440254981174
 20
-135.0711674662321
 30
0.0
 10
99.1677710811305
 20
-135.0711674662321
 30
0.0
 10
99.1677710811305
 20
-135.0711674662321
 30
0.0
 10
97.7352816732319
 20
-135.064958577345
 30
0.0
 10
97.7352816732319
 20
-135.064958577345
 30
0.0
  0
POLYLINE
  5
128
330
1F
100
AcDbEntity
  8
_U+30EC_U+30A4_U+30E4_U+30FC 1
 62
     7
420
 16777215
370
     9
100
AcDb2dPolyline
 66
     1
 10
0.0
 20
0.0
 30
0.0
  0
VERTEX
  5
129
330
128
100
AcDbEntity
  8
_U+30EC_U+30A4_U+30E4_U+30FC 1
 62
     7
420
 16777215
370
     9
100
AcDbVertex
100
AcDb2dVertex
 10
99.89502497502606
 20
-133.1804902444828
 30
0.0
  0
VERTEX
  5
12A
330
128
100
AcDbEntity
  8
_U+30EC_U+30A4_U+30E4_U+30FC 1
 62
     7
420
 16777215
370
     9
100
AcDbVertex
100
AcDb2dVertex
 10
108.0977758533071
 20
-128.4186958012286
 30
0.0
  0
SEQEND
  5
12B
330
128
100
AcDbEntity
  8
_U+30EC_U+30A4_U+30E4_U+30FC 1
 62
     7
420
 16777215
370
     9
  0
POLYLINE
  5
12C
330
1F
100
AcDbEntity
  8
_U+30EC_U+30A4_U+30E4_U+30FC 1
 62
     7
420
 16777215
370
     9
100
AcDb2dPolyline
 66
     1
 10
0.0
 20
0.0
 30
0.0
  0
VERTEX
  5
12D
330
12C
100
AcDbEntity
  8
_U+30EC_U+30A4_U+30E4_U+30FC 1
 62
     7
420
 16777215
370
     9
100
AcDbVertex
100
AcDb2dVertex
 10
100.1410143896343
 20
-134.8251755218492
 30
0.0
  0
VERTEX
  5
12E
330
12C
100
AcDbEntity
  8
_U+30EC_U+30A4_U+30E4_U+30FC 1
 62
     7
420
 16777215
370
     9
100
AcDbVertex
100
AcDb2dVertex
 10
108.1722119625192
 20
-130.0413324674898
 30
0.0
  0
SEQEND
  5
12F
330
12C
100
AcDbEntity
  8
_U+30EC_U+30A4_U+30E4_U+30FC 1
 62
     7
420
 16777215
370
     9
  0
POLYLINE
  5
130
330
1F
100
AcDbEntity
  8
_U+30EC_U+30A4_U+30E4_U+30FC 1
 62
     7
420
 16777215
370
     9
100
AcDb2dPolyline
 66
     1
 10
0.0
 20
0.0
 30
0.0
  0
VERTEX
  5
131
330
130
100
AcDbEntity
  8
_U+30EC_U+30A4_U+30E4_U+30FC 1
 62
     7
420
 16777215
370
     9
100
AcDbVertex
100
AcDb2dVertex
 10
79.57583435874022
 20
-133.3761760777668
 30
0.0
  0
VERTEX
  5
132
330
130
100
AcDbEntity
  8
_U+30EC_U+30A4_U+30E4_U+30FC 1
 62
     7
420
 16777215
370
     9
100
AcDbVertex
100
AcDb2dVertex
 10
105.9515138624007
 20
-116.2044355265045
 30
0.0
  0
SEQEND
  5
133
330
130
100
AcDbEntity
  8
_U+30EC_U+30A4_U+30E4_U+30FC 1
 62
     7
420
 16777215
370
     9
  0
POLYLINE
  5
134
330
1F
100
AcDbEntity
  8
_U+30EC_U+30A4_U+30E4_U+30FC 1
 62
   179
420
  2234388
370
     9
100
AcDb2dPolyline
 66
     1
 10
0.0
 20
0.0
 30
0.0
  0
VERTEX
  5
135
330
134
100
AcDbEntity
  8
_U+30EC_U+30A4_U+30E4_U+30FC 1
 62
   179
420
  2234388
370
     9
100
AcDbVertex
100
AcDb2dVertex
 10
83.48224842574596
 20
-127.8020049680495
 30
0.0
  0
VERTEX
  5
136
330
134
100
AcDbEntity
  8
_U+30EC_U+30A4_U+30E4_U+30FC 1
 62
   179
420
  2234388
370
     9
100
AcDbVertex
100
AcDb2dVertex
 10
86.60281473502258
 20
-134.090021910922
 30
0.0
  0
SEQEND
  5
137
330
134
100
AcDbEntity
  8
_U+30EC_U+30A4_U+30E4_U+30FC 1
 62
   179
420
  2234388
370
     9
  0
POLYLINE
  5
138
330
1F
100
AcDbEntity
  8
_U+30EC_U+30A4_U+30E4_U+30FC 1
 62
   179
420
  2234388
370
     9
100
AcDb2dPolyline
 66
     1
 10
0.0
 20
0.0
 30
0.0
  0
VERTEX
  5
139
330
138
100
AcDbEntity
  8
_U+30EC_U+30A4_U+30E4_U+30FC 1
 62
   179
420
  2234388
370
     9
100
AcDbVertex
100
AcDb2dVertex
 10
93.98426621337272
 20
-121.8912838584162
 30
0.0
  0
VERTEX
  5
13A
330
138
100
AcDbEntity
  8
_U+30EC_U+30A4_U+30E4_U+30FC 1
 62
   179
420
  2234388
370
     9
100
AcDbVertex
100
AcDb2dVertex
 10
98.42086998907442
 20
-132.9434941334309
 30
0.0
  0
SEQEND
  5
13B
330
138
100
AcDbEntity
  8
_U+30EC_U+30A4_U+30E4_U+30FC 1
 62
   179
420
  2234388
370
     9
  0
ENDSEC
  0
SECTION
  2
OBJECTS
  0
DICTIONARY
  5
C
330
0
100
AcDbDictionary
281
     1
  3
ACAD_GROUP
350
D
  3
ACAD_LAYOUT
350
1A
  3
ACAD_MATERIAL
350
3B
  3
ACAD_MLEADERSTYLE
350
13D
  3
ACAD_MLINESTYLE
350
17
  3
ACAD_PLOTSETTINGS
350
19
  3
ACAD_PLOTSTYLENAME
350
E
  3
ACAD_TABLESTYLE
350
13C
  3
ACAD_VISUALSTYLE
350
2A
  0
SUN
  5
3F
330
29
100
AcDbSun
 90
        1
290
     0
 63
     7
421
 16777215
 40
1.0
291
     1
 91
  2455826
 92
 54000000
292
     0
 70
     2
 71
   256
280
     1
  0
DICTIONARY
  5
D
102
{ACAD_REACTORS
330
C
102
}
330
C
100
AcDbDictionary
281
     1
  0
DICTIONARY
  5
1A
102
{ACAD_REACTORS
330
C
102
}
330
C
100
AcDbDictionary
281
     1
  3
Layout1
350
1E
  3
Layout2
350
26
  3
Model
350
22
  0
DICTIONARY
  5
3B
102
{ACAD_REACTORS
330
C
102
}
330
C
100
AcDbDictionary
281
     1
  3
ByBlock
350
3D
  3
ByLayer
350
3C
  3
Global
350
3E
  0
DICTIONARY
  5
13D
102
{ACAD_REACTORS
330
C
102
}
330
C
100
AcDbDictionary
281
     1
  0
DICTIONARY
  5
17
102
{ACAD_REACTORS
330
C
102
}
330
C
100
AcDbDictionary
281
     1
  3
Standard
350
18
  0
DICTIONARY
  5
19
102
{ACAD_REACTORS
330
C
102
}
330
C
100
AcDbDictionary
281
     1
  0
ACDBDICTIONARYWDFLT
  5
E
102
{ACAD_REACTORS
330
C
102
}
330
C
100
AcDbDictionary
281
     1
  3
Normal
350
F
100
AcDbDictionaryWithDefault
340
F
  0
DICTIONARY
  5
13C
102
{ACAD_REACTORS
330
C
102
}
330
C
100
AcDbDictionary
281
     1
  0
DICTIONARY
  5
2A
102
{ACAD_REACTORS
330
C
102
}
330
C
100
AcDbDictionary
281
     1
  3
2dWireframe
350
2F
  3
3D Hidden
350
31
  3
3dWireframe
350
30
  3
Basic
350
32
  3
Brighten
350
36
  3
ColorChange
350
3A
  3
Conceptual
350
34
  3
Dim
350
35
  3
Facepattern
350
39
  3
Flat
350
2B
  3
FlatWithEdges
350
2C
  3
Gouraud
350
2D
  3
GouraudWithEdges
350
2E
  3
Linepattern
350
38
  3
Realistic
350
33
  3
Thicken
350
37
  0
LAYOUT
  5
1E
102
{ACAD_REACTORS
330
1A
102
}
330
1A
100
AcDbPlotSettings
  1

  2
none_device
  4

  6

 40
0.0
 41
0.0
 42
0.0
 43
0.0
 44
0.0
 45
0.0
 46
0.0
 47
0.0
 48
0.0
 49
0.0
140
0.0
141
0.0
142
1.0
143
1.0
 70
   688
 72
     0
 73
     0
 74
     5
  7

 75
    16
 76
     0
 77
     2
 78
   300
147
1.0
148
0.0
149
0.0
100
AcDbLayout
  1
Layout1
 70
     1
 71
     1
 10
0.0
 20
0.0
 11
12.0
 21
9.0
 12
0.0
 22
0.0
 32
0.0
 14
1.000000000000000E+20
 24
1.000000000000000E+20
 34
1.000000000000000E+20
 15
-1.000000000000000E+20
 25
-1.000000000000000E+20
 35
-1.000000000000000E+20
146
0.0
 13
0.0
 23
0.0
 33
0.0
 16
1.0
 26
0.0
 36
0.0
 17
0.0
 27
1.0
 37
0.0
 76
     0
330
1B
  0
LAYOUT
  5
26
102
{ACAD_REACTORS
330
1A
102
}
330
1A
100
AcDbPlotSettings
  1

  2
none_device
  4

  6

 40
0.0
 41
0.0
 42
0.0
 43
0.0
 44
0.0
 45
0.0
 46
0.0
 47
0.0
 48
0.0
 49
0.0
140
0.0
141
0.0
142
1.0
143
1.0
 70
   688
 72
     0
 73
     0
 74
     5
  7

 75
    16
 76
     0
 77
     2
 78
   300
147
1.0
148
0.0
149
0.0
100
AcDbLayout
  1
Layout2
 70
     1
 71
     2
 10
0.0
 20
0.0
 11
0.0
 21
0.0
 12
0.0
 22
0.0
 32
0.0
 14
0.0
 24
0.0
 34
0.0
 15
0.0
 25
0.0
 35
0.0
146
0.0
 13
0.0
 23
0.0
 33
0.0
 16
1.0
 26
0.0
 36
0.0
 17
0.0
 27
1.0
 37
0.0
 76
     0
330
23
  0
LAYOUT
  5
22
102
{ACAD_REACTORS
330
1A
102
}
330
1A
100
AcDbPlotSettings
  1

  2
none_device
  4

  6

 40
0.0
 41
0.0
 42
0.0
 43
0.0
 44
0.0
 45
0.0
 46
0.0
 47
0.0
 48
0.0
 49
0.0
140
0.0
141
0.0
142
1.0
143
1.0
 70
  1712
 72
     0
 73
     0
 74
     0
  7

 75
     0
 76
     0
 77
     2
 78
   300
147
1.0
148
0.0
149
0.0
100
AcDbLayout
  1
Model
 70
     1
 71
     0
 10
0.0
 20
0.0
 11
12.0
 21
9.0
 12
0.0
 22
0.0
 32
0.0
 14
1.000000000000000E+20
 24
1.000000000000000E+20
 34
1.000000000000000E+20
 15
-1.000000000000000E+20
 25
-1.000000000000000E+20
 35
-1.000000000000000E+20
146
0.0
 13
0.0
 23
0.0
 33
0.0
 16
1.0
 26
0.0
 36
0.0
 17
0.0
 27
1.0
 37
0.0
 76
     0
330
1F
331
29
  0
MATERIAL
  5
3D
102
{ACAD_REACTORS
330
3B
102
}
330
3B
100
AcDbMaterial
  1
ByBlock
 72
     1
 94
      127
  0
MATERIAL
  5
3C
102
{ACAD_REACTORS
330
3B
102
}
330
3B
100
AcDbMaterial
  1
ByLayer
 72
     1
 94
      127
  0
MATERIAL
  5
3E
102
{ACAD_REACTORS
330
3B
102
}
330
3B
100
AcDbMaterial
  1
Global
 72
     1
 94
      127
  0
MLINESTYLE
  5
18
102
{ACAD_REACTORS
330
17
102
}
330
17
100
AcDbMlineStyle
  2
Standard
 70
     0
  3

 62
   256
 51
90.0
 52
90.0
 71
     2
 49
0.5
 62
   256
  6
BYLAYER
 49
-0.5
 62
   256
  6
BYLAYER
  0
ACDBPLACEHOLDER
  5
F
102
{ACAD_REACTORS
330
E
102
}
330
E
  0
VISUALSTYLE
  5
2F
102
{ACAD_REACTORS
330
2A
102
}
330
2A
100
AcDbVisualStyle
  2
2dWireframe
 70
     4
177
     2
291
     0
 71
     0
176
     1
 72
     2
176
     1
 73
     0
176
     1
 90
        0
176
     1
 40
-0.6
176
     1
 41
-30.0
176
     1
 62
     5
 63
     7
421
 16777215
176
     1
 74
     1
176
     1
 91
        4
176
     1
 64
     7
176
     1
 65
   257
176
     1
 75
     1
176
     1
175
     1
176
     1
 42
1.0
176
     1
 92
        0
176
     1
 66
   257
176
     1
 43
1.0
176
     1
 76
     1
176
     1
 77
     6
176
     1
 78
     2
176
     1
 67
     7
176
     1
 79
     5
176
     1
170
     0
176
     1
171
     0
176
     1
290
     0
176
     1
 93
        1
176
     1
 44
0.0
176
     1
173
     0
176
     1
  0
VISUALSTYLE
  5
31
102
{ACAD_REACTORS
330
2A
102
}
330
2A
100
AcDbVisualStyle
  2
3D Hidden
 70
     6
177
     2
291
     0
 71
     1
176
     1
 72
     2
176
     1
 73
     2
176
     1
 90
        0
176
     1
 40
-0.6
176
     1
 41
-30.0
176
     1
 62
     5
 63
     7
421
 16777215
176
     1
 74
     2
176
     1
 91
        2
176
     1
 64
     7
176
     1
 65
   257
176
     1
 75
     2
176
     1
175
     1
176
     1
 42
40.0
176
     1
 92
        0
176
     1
 66
   257
176
     1
 43
1.0
176
     1
 76
     1
176
     1
 77
     6
176
     1
 78
     2
176
     1
 67
     7
176
     1
 79
     3
176
     1
170
     0
176
     1
171
     0
176
     1
290
     0
176
     1
 93
        1
176
     1
 44
0.0
176
     1
173
     0
176
     1
  0
VISUALSTYLE
  5
30
102
{ACAD_REACTORS
330
2A
102
}
330
2A
100
AcDbVisualStyle
  2
3dWireframe
 70
     5
177
     2
291
     0
 71
     0
176
     1
 72
     2
176
     1
 73
     0
176
     1
 90
        0
176
     1
 40
-0.6
176
     1
 41
-30.0
176
     1
 62
     5
 63
     7
421
 16777215
176
     1
 74
     1
176
     1
 91
        4
176
     1
 64
     7
176
     1
 65
   257
176
     1
 75
     1
176
     1
175
     1
176
     1
 42
1.0
176
     1
 92
        0
176
     1
 66
   257
176
     1
 43
1.0
176
     1
 76
     1
176
     1
 77
     6
176
     1
 78
     2
176
     1
 67
     7
176
     1
 79
     5
176
     1
170
     0
176
     1
171
     0
176
     1
290
     0
176
     1
 93
        1
176
     1
 44
0.0
176
     1
173
     0
176
     1
  0
VISUALSTYLE
  5
32
102
{ACAD_REACTORS
330
2A
102
}
330
2A
100
AcDbVisualStyle
  2
Basic
 70
     7
177
     2
291
     1
 71
     1
176
     1
 72
     0
176
     1
 73
     1
176
     1
 90
        0
176
     1
 40
-0.6
176
     1
 41
-30.0
176
     1
 62
     5
 63
     7
421
 16777215
176
     1
 74
     0
176
     1
 91
        4
176
     1
 64
     7
176
     1
 65
   257
176
     1
 75
     1
176
     1
175
     1
176
     1
 42
1.0
176
     1
 92
        8
176
     1
 66
     7
176
     1
 43
1.0
176
     1
 76
     1
176
     1
 77
     6
176
     1
 78
     2
176
     1
 67
     7
176
     1
 79
     5
176
     1
170
     0
176
     1
171
     0
176
     1
290
     0
176
     1
 93
        1
176
     1
 44
0.0
176
     1
173
     0
176
     1
  0
VISUALSTYLE
  5
36
102
{ACAD_REACTORS
330
2A
102
}
330
2A
100
AcDbVisualStyle
  2
Brighten
 70
    12
177
     2
291
     1
 71
     2
176
     1
 72
     2
176
     1
 73
     0
176
     1
 90
        0
176
     1
 40
-0.6
176
     1
 41
-30.0
176
     1
 62
     5
 63
     7
421
 16777215
176
     1
 74
     1
176
     1
 91
        4
176
     1
 64
     7
176
     1
 65
   257
176
     1
 75
     1
176
     1
175
     1
176
     1
 42
1.0
176
     1
 92
        8
176
     1
 66
     7
176
     1
 43
1.0
176
     1
 76
     1
176
     1
 77
     6
176
     1
 78
     2
176
     1
 67
     7
176
     1
 79
     5
176
     1
170
     0
176
     1
171
     0
176
     1
290
     0
176
     1
 93
        1
176
     1
 44
50.0
176
     1
173
     0
176
     1
  0
VISUALSTYLE
  5
3A
102
{ACAD_REACTORS
330
2A
102
}
330
2A
100
AcDbVisualStyle
  2
ColorChange
 70
    16
177
     2
291
     1
 71
     2
176
     1
 72
     2
176
     1
 73
     3
176
     1
 90
        0
176
     1
 40
-0.6
176
     1
 41
-30.0
176
     1
 62
     5
 63
     8
421
  8421504
176
     1
 74
     1
176
     1
 91
        4
176
     1
 64
     7
176
     1
 65
   257
176
     1
 75
     1
176
     1
175
     1
176
     1
 42
1.0
176
     1
 92
        8
176
     1
 66
     8
424
  8421504
176
     1
 43
1.0
176
     1
 76
     1
176
     1
 77
     6
176
     1
 78
     2
176
     1
 67
     7
176
     1
 79
     5
176
     1
170
     0
176
     1
171
     0
176
     1
290
     0
176
     1
 93
        1
176
     1
 44
0.0
176
     1
173
     0
176
     1
  0
VISUALSTYLE
  5
34
102
{ACAD_REACTORS
330
2A
102
}
330
2A
100
AcDbVisualStyle
  2
Conceptual
 70
     9
177
     2
291
     0
 71
     3
176
     1
 72
     2
176
     1
 73
     0
176
     1
 90
        0
176
     1
 40
-0.6
176
     1
 41
-30.0
176
     1
 62
     5
 63
     7
421
 16777215
176
     1
 74
     2
176
     1
 91
        2
176
     1
 64
     7
176
     1
 65
   257
176
     1
 75
     1
176
     1
175
     1
176
     1
 42
40.0
176
     1
 92
        8
176
     1
 66
     7
176
     1
 43
1.0
176
     1
 76
     1
176
     1
 77
     6
176
     1
 78
     2
176
     1
 67
     7
176
     1
 79
     3
176
     1
170
     0
176
     1
171
     0
176
     1
290
     0
176
     1
 93
        1
176
     1
 44
0.0
176
     1
173
     0
176
     1
  0
VISUALSTYLE
  5
35
102
{ACAD_REACTORS
330
2A
102
}
330
2A
100
AcDbVisualStyle
  2
Dim
 70
    11
177
     2
291
     1
 71
     2
176
     1
 72
     2
176
     1
 73
     0
176
     1
 90
        0
176
     1
 40
-0.6
176
     1
 41
-30.0
176
     1
 62
     5
 63
     7
421
 16777215
176
     1
 74
     1
176
     1
 91
        4
176
     1
 64
     7
176
     1
 65
   257
176
     1
 75
     1
176
     1
175
     1
176
     1
 42
1.0
176
     1
 92
        8
176
     1
 66
     7
176
     1
 43
1.0
176
     1
 76
     1
176
     1
 77
     6
176
     1
 78
     2
176
     1
 67
     7
176
     1
 79
     5
176
     1
170
     0
176
     1
171
     0
176
     1
290
     0
176
     1
 93
        1
176
     1
 44
-50.0
176
     1
173
     0
176
     1
  0
VISUALSTYLE
  5
39
102
{ACAD_REACTORS
330
2A
102
}
330
2A
100
AcDbVisualStyle
  2
Facepattern
 70
    15
177
     2
291
     1
 71
     2
176
     1
 72
     2
176
     1
 73
     0
176
     1
 90
        0
176
     1
 40
-0.6
176
     1
 41
-30.0
176
     1
 62
     5
 63
     7
421
 16777215
176
     1
 74
     1
176
     1
 91
        4
176
     1
 64
     7
176
     1
 65
   257
176
     1
 75
     1
176
     1
175
     1
176
     1
 42
1.0
176
     1
 92
        8
176
     1
 66
     7
176
     1
 43
1.0
176
     1
 76
     1
176
     1
 77
     6
176
     1
 78
     2
176
     1
 67
     7
176
     1
 79
     5
176
     1
170
     0
176
     1
171
     0
176
     1
290
     0
176
     1
 93
        1
176
     1
 44
0.0
176
     1
173
     0
176
     1
  0
VISUALSTYLE
  5
2B
102
{ACAD_REACTORS
330
2A
102
}
330
2A
100
AcDbVisualStyle
  2
Flat
 70
     0
177
     2
291
     1
 71
     2
176
     1
 72
     1
176
     1
 73
     1
176
     1
 90
        2
176
     1
 40
-0.6
176
     1
 41
30.0
176
     1
 62
     5
 63
     7
421
 16777215
176
     1
 74
     0
176
     1
 91
        4
176
     1
 64
     7
176
     1
 65
   257
176
     1
 75
     1
176
     1
175
     1
176
     1
 42
1.0
176
     1
 92
        8
176
     1
 66
     7
176
     1
 43
1.0
176
     1
 76
     1
176
     1
 77
     6
176
     1
 78
     2
176
     1
 67
     7
176
     1
 79
     5
176
     1
170
     0
176
     1
171
     0
176
     1
290
     0
176
     1
 93
       13
176
     1
 44
0.0
176
     1
173
     0
176
     1
  0
VISUALSTYLE
  5
2C
102
{ACAD_REACTORS
330
2A
102
}
330
2A
100
AcDbVisualStyle
  2
FlatWithEdges
 70
     1
177
     2
291
     1
 71
     2
176
     1
 72
     1
176
     1
 73
     1
176
     1
 90
        2
176
     1
 40
-0.6
176
     1
 41
30.0
176
     1
 62
     5
 63
     7
421
 16777215
176
     1
 74
     1
176
     1
 91
        4
176
     1
 64
     7
176
     1
 65
   257
176
     1
 75
     1
176
     1
175
     1
176
     1
 42
1.0
176
     1
 92
        0
176
     1
 66
   257
176
     1
 43
1.0
176
     1
 76
     1
176
     1
 77
     6
176
     1
 78
     2
176
     1
 67
     7
176
     1
 79
     5
176
     1
170
     0
176
     1
171
     0
176
     1
290
     0
176
     1
 93
       13
176
     1
 44
0.0
176
     1
173
     0
176
     1
  0
VISUALSTYLE
  5
2D
102
{ACAD_REACTORS
330
2A
102
}
330
2A
100
AcDbVisualStyle
  2
Gouraud
 70
     2
177
     2
291
     1
 71
     2
176
     1
 72
     2
176
     1
 73
     1
176
     1
 90
        2
176
     1
 40
-0.6
176
     1
 41
30.0
176
     1
 62
     5
 63
     7
421
 16777215
176
     1
 74
     0
176
     1
 91
        4
176
     1
 64
     7
176
     1
 65
   257
176
     1
 75
     1
176
     1
175
     1
176
     1
 42
1.0
176
     1
 92
        0
176
     1
 66
     7
176
     1
 43
1.0
176
     1
 76
     1
176
     1
 77
     6
176
     1
 78
     2
176
     1
 67
     7
176
     1
 79
     5
176
     1
170
     0
176
     1
171
     0
176
     1
290
     0
176
     1
 93
       13
176
     1
 44
0.0
176
     1
173
     0
176
     1
  0
VISUALSTYLE
  5
2E
102
{ACAD_REACTORS
330
2A
102
}
330
2A
100
AcDbVisualStyle
  2
GouraudWithEdges
 70
     3
177
     2
291
     1
 71
     2
176
     1
 72
     2
176
     1
 73
     1
176
     1
 90
        2
176
     1
 40
-0.6
176
     1
 41
30.0
176
     1
 62
     5
 63
     7
421
 16777215
176
     1
 74
     1
176
     1
 91
        4
176
     1
 64
     7
176
     1
 65
   257
176
     1
 75
     1
176
     1
175
     1
176
     1
 42
1.0
176
     1
 92
        0
176
     1
 66
   257
176
     1
 43
1.0
176
     1
 76
     1
176
     1
 77
     6
176
     1
 78
     2
176
     1
 67
     7
176
     1
 79
     5
176
     1
170
     0
176
     1
171
     0
176
     1
290
     0
176
     1
 93
       13
176
     1
 44
0.0
176
     1
173
     0
176
     1
  0
VISUALSTYLE
  5
38
102
{ACAD_REACTORS
330
2A
102
}
330
2A
100
AcDbVisualStyle
  2
Linepattern
 70
    14
177
     2
291
     1
 71
     2
176
     1
 72
     2
176
     1
 73
     0
176
     1
 90
        0
176
     1
 40
-0.6
176
     1
 41
-30.0
176
     1
 62
     5
 63
     7
421
 16777215
176
     1
 74
     1
176
     1
 91
        4
176
     1
 64
     7
176
     1
 65
   257
176
     1
 75
     7
176
     1
175
     7
176
     1
 42
1.0
176
     1
 92
        8
176
     1
 66
     7
176
     1
 43
1.0
176
     1
 76
     1
176
     1
 77
     6
176
     1
 78
     2
176
     1
 67
     7
176
     1
 79
     5
176
     1
170
     0
176
     1
171
     0
176
     1
290
     0
176
     1
 93
        1
176
     1
 44
0.0
176
     1
173
     0
176
     1
  0
VISUALSTYLE
  5
33
102
{ACAD_REACTORS
330
2A
102
}
330
2A
100
AcDbVisualStyle
  2
Realistic
 70
     8
177
     2
291
     0
 71
     2
176
     1
 72
     2
176
     1
 73
     0
176
     1
 90
        0
176
     1
 40
-0.6
176
     1
 41
-30.0
176
     1
 62
     5
 63
     7
421
 16777215
176
     1
 74
     1
176
     1
 91
        0
176
     1
 64
     7
176
     1
 65
   257
176
     1
 75
     1
176
     1
175
     1
176
     1
 42
1.0
176
     1
 92
        8
176
     1
 66
     8
424
  7895160
176
     1
 43
1.0
176
     1
 76
     1
176
     1
 77
     6
176
     1
 78
     2
176
     1
 67
     7
176
     1
 79
     5
176
     1
170
     0
176
     1
171
     0
176
     1
290
     0
176
     1
 93
       13
176
     1
 44
0.0
176
     1
173
     0
176
     1
  0
VISUALSTYLE
  5
37
102
{ACAD_REACTORS
330
2A
102
}
330
2A
100
AcDbVisualStyle
  2
Thicken
 70
    13
177
     2
291
     1
 71
     2
176
     1
 72
     2
176
     1
 73
     0
176
     1
 90
        0
176
     1
 40
-0.6
176
     1
 41
-30.0
176
     1
 62
     5
 63
     7
421
 16777215
176
     1
 74
     1
176
     1
 91
        4
176
     1
 64
     7
176
     1
 65
   257
176
     1
 75
     1
176
     1
175
     1
176
     1
 42
1.0
176
     1
 92
       12
176
     1
 66
     7
176
     1
 43
1.0
176
     1
 76
     1
176
     1
 77
     6
176
     1
 78
     2
176
     1
 67
     7
176
     1
 79
     5
176
     1
170
     0
176
     1
171
     0
176
     1
290
     0
176
     1
 93
        1
176
     1
 44
0.0
176
     1
173
     0
176
     1
  0
ENDSEC
  0
EOF
