  0
SECTION
  2
HEADER
  9
$ACADVER
  1
AC1024
  9
$ACADMAINTVER
 70
     6
  9
$DWGCODEPAGE
  3
UNDEFINED
  9
$INSBASE
 10
0.0
 20
0.0
 30
0.0
  9
$EXTMIN
 10
1.000000000000000E+20
 20
1.000000000000000E+20
 30
1.000000000000000E+20
  9
$EXTMAX
 10
-1.000000000000000E+20
 20
-1.000000000000000E+20
 30
-1.000000000000000E+20
  9
$LIMMIN
 10
0.0
 20
0.0
  9
$LIMMAX
 10
12.0
 20
9.0
  9
$ORTHOMODE
 70
     0
  9
$REGENMODE
 70
     1
  9
$FILLMODE
 70
     1
  9
$QTEXTMODE
 70
     0
  9
$MIRRTEXT
 70
     1
  9
$LTSCALE
 40
1.0
  9
$ATTMODE
 70
     1
  9
$TEXTSIZE
 40
0.2
  9
$TRACEWID
 40
0.05
  9
$TEXTSTYLE
  7
Standard
  9
$CLAYER
  8
0
  9
$CELTYPE
  6
ByLayer
  9
$CECOLOR
 62
   256
  9
$CELTSCALE
 40
1.0
  9
$DISPSILH
 70
     0
  9
$DIMSCALE
 40
1.0
  9
$DIMASZ
 40
0.18
  9
$DIMEXO
 40
0.0625
  9
$DIMDLI
 40
0.38
  9
$DIMRND
 40
0.0
  9
$DIMDLE
 40
0.0
  9
$DIMEXE
 40
0.18
  9
$DIMTP
 40
0.0
  9
$DIMTM
 40
0.0
  9
$DIMTXT
 40
0.18
  9
$DIMCEN
 40
0.09
  9
$DIMTSZ
 40
0.0
  9
$DIMTOL
 70
     0
  9
$DIMLIM
 70
     0
  9
$DIMTIH
 70
     1
  9
$DIMTOH
 70
     1
  9
$DIMSE1
 70
     0
  9
$DIMSE2
 70
     0
  9
$DIMTAD
 70
     0
  9
$DIMZIN
 70
     0
  9
$DIMBLK
  1

  9
$DIMASO
 70
     1
  9
$DIMSHO
 70
     1
  9
$DIMPOST
  1

  9
$DIMAPOST
  1

  9
$DIMALT
 70
     0
  9
$DIMALTD
 70
     2
  9
$DIMALTF
 40
25.4
  9
$DIMLFAC
 40
1.0
  9
$DIMTOFL
 70
     0
  9
$DIMTVP
 40
0.0
  9
$DIMTIX
 70
     0
  9
$DIMSOXD
 70
     0
  9
$DIMSAH
 70
     0
  9
$DIMBLK1
  1

  9
$DIMBLK2
  1

  9
$DIMSTYLE
  2
Standard
  9
$DIMCLRD
 70
     0
  9
$DIMCLRE
 70
     0
  9
$DIMCLRT
 70
     0
  9
$DIMTFAC
 40
1.0
  9
$DIMGAP
 40
0.09
  9
$DIMJUST
 70
     0
  9
$DIMSD1
 70
     0
  9
$DIMSD2
 70
     0
  9
$DIMTOLJ
 70
     1
  9
$DIMTZIN
 70
     0
  9
$DIMALTZ
 70
     0
  9
$DIMALTTZ
 70
     0
  9
$DIMUPT
 70
     0
  9
$DIMDEC
 70
     4
  9
$DIMTDEC
 70
     4
  9
$DIMALTU
 70
     2
  9
$DIMALTTD
 70
     2
  9
$DIMTXSTY
  7
Standard
  9
$DIMAUNIT
 70
     0
  9
$DIMADEC
 70
     0
  9
$DIMALTRND
 40
0.0
  9
$DIMAZIN
 70
     0
  9
$DIMDSEP
 70
    46
  9
$DIMATFIT
 70
     3
  9
$DIMFRAC
 70
     0
  9
$DIMLDRBLK
  1

  9
$DIMLUNIT
 70
     2
  9
$DIMLWD
 70
    -2
  9
$DIMLWE
 70
    -2
  9
$DIMTMOVE
 70
     0
  9
$DIMFXL
 40
1.0
  9
$DIMFXLON
 70
     0
  9
$DIMJOGANG
 40
0.7853981633974483
  9
$DIMTFILL
 70
     0
  9
$DIMTFILLCLR
 70
     0
  9
$DIMARCSYM
 70
     0
  9
$DIMLTYPE
  6

  9
$DIMLTEX1
  6

  9
$DIMLTEX2
  6

  9
$DIMTXTDIRECTION
 70
     0
  9
$LUNITS
 70
     2
  9
$LUPREC
 70
     4
  9
$SKETCHINC
 40
0.1
  9
$FILLETRAD
 40
0.5
  9
$AUNITS
 70
     0
  9
$AUPREC
 70
     0
  9
$MENU
  1
.
  9
$ELEVATION
 40
0.0
  9
$PELEVATION
 40
0.0
  9
$THICKNESS
 40
0.0
  9
$LIMCHECK
 70
     0
  9
$CHAMFERA
 40
0.5
  9
$CHAMFERB
 40
0.5
  9
$CHAMFERC
 40
1.0
  9
$CHAMFERD
 40
0.0
  9
$SKPOLY
 70
     0
  9
$TDCREATE
 40
2457917.608831019
  9
$TDUCREATE
 40
2457917.233831019
  9
$TDUPDATE
 40
2457917.608831019
  9
$TDUUPDATE
 40
2457917.233831019
  9
$TDINDWG
 40
0.0000000116
  9
$TDUSRTIMER
 40
0.0000000116
  9
$USRTIMER
 70
     1
  9
$ANGBASE
 50
0.0
  9
$ANGDIR
 70
     0
  9
$PDMODE
 70
     0
  9
$PDSIZE
 40
0.0
  9
$PLINEWID
 40
0.0
  9
$SPLFRAME
 70
     0
  9
$SPLINETYPE
 70
     6
  9
$SPLINESEGS
 70
     8
  9
$HANDSEED
  5
E6
  9
$SURFTAB1
 70
     6
  9
$SURFTAB2
 70
     6
  9
$SURFTYPE
 70
     6
  9
$SURFU
 70
     6
  9
$SURFV
 70
     6
  9
$UCSBASE
  2

  9
$UCSNAME
  2

  9
$UCSORG
 10
0.0
 20
0.0
 30
0.0
  9
$UCSXDIR
 10
1.0
 20
0.0
 30
0.0
  9
$UCSYDIR
 10
0.0
 20
1.0
 30
0.0
  9
$UCSORTHOREF
  2

  9
$UCSORTHOVIEW
 70
     0
  9
$UCSORGTOP
 10
0.0
 20
0.0
 30
0.0
  9
$UCSORGBOTTOM
 10
0.0
 20
0.0
 30
0.0
  9
$UCSORGLEFT
 10
0.0
 20
0.0
 30
0.0
  9
$UCSORGRIGHT
 10
0.0
 20
0.0
 30
0.0
  9
$UCSORGFRONT
 10
0.0
 20
0.0
 30
0.0
  9
$UCSORGBACK
 10
0.0
 20
0.0
 30
0.0
  9
$PUCSBASE
  2

  9
$PUCSNAME
  2

  9
$PUCSORG
 10
0.0
 20
0.0
 30
0.0
  9
$PUCSXDIR
 10
1.0
 20
0.0
 30
0.0
  9
$PUCSYDIR
 10
0.0
 20
1.0
 30
0.0
  9
$PUCSORTHOREF
  2

  9
$PUCSORTHOVIEW
 70
     0
  9
$PUCSORGTOP
 10
0.0
 20
0.0
 30
0.0
  9
$PUCSORGBOTTOM
 10
0.0
 20
0.0
 30
0.0
  9
$PUCSORGLEFT
 10
0.0
 20
0.0
 30
0.0
  9
$PUCSORGRIGHT
 10
0.0
 20
0.0
 30
0.0
  9
$PUCSORGFRONT
 10
0.0
 20
0.0
 30
0.0
  9
$PUCSORGBACK
 10
0.0
 20
0.0
 30
0.0
  9
$USERI1
 70
     0
  9
$USERI2
 70
     0
  9
$USERI3
 70
     0
  9
$USERI4
 70
     0
  9
$USERI5
 70
     0
  9
$USERR1
 40
0.0
  9
$USERR2
 40
0.0
  9
$USERR3
 40
0.0
  9
$USERR4
 40
0.0
  9
$USERR5
 40
0.0
  9
$WORLDVIEW
 70
     1
  9
$SHADEDGE
 70
     3
  9
$SHADEDIF
 70
    70
  9
$TILEMODE
 70
     1
  9
$MAXACTVP
 70
    64
  9
$PINSBASE
 10
0.0
 20
0.0
 30
0.0
  9
$PLIMCHECK
 70
     0
  9
$PEXTMIN
 10
1.000000000000000E+20
 20
1.000000000000000E+20
 30
1.000000000000000E+20
  9
$PEXTMAX
 10
-1.000000000000000E+20
 20
-1.000000000000000E+20
 30
-1.000000000000000E+20
  9
$PLIMMIN
 10
0.0
 20
0.0
  9
$PLIMMAX
 10
12.0
 20
9.0
  9
$UNITMODE
 70
     0
  9
$VISRETAIN
 70
     1
  9
$PLINEGEN
 70
     0
  9
$PSLTSCALE
 70
     1
  9
$TREEDEPTH
 70
  3020
  9
$CMLSTYLE
  2
Standard
  9
$CMLJUST
 70
     0
  9
$CMLSCALE
 40
1.0
  9
$PROXYGRAPHICS
 70
     1
  9
$MEASUREMENT
 70
     0
  9
$CELWEIGHT
370
    -1
  9
$ENDCAPS
280
     0
  9
$JOINSTYLE
280
     0
  9
$LWDISPLAY
290
     1
  9
$INSUNITS
 70
     1
  9
$HYPERLINKBASE
  1

  9
$STYLESHEET
  1

  9
$XEDIT
290
     1
  9
$CEPSNTYPE
380
     0
  9
$PSTYLEMODE
290
     1
  9
$FINGERPRINTGUID
  2
{42AF5065-09D0-CB6E-0D95-FCDBD545FE41}
  9
$VERSIONGUID
  2
{FAEB1C32-E019-11D5-929B-00C0DF256EC4}
  9
$EXTNAMES
290
     1
  9
$PSVPSCALE
 40
0.0
  9
$OLESTARTUP
290
     0
  9
$SORTENTS
280
   127
  9
$INDEXCTL
280
     0
  9
$HIDETEXT
280
     1
  9
$XCLIPFRAME
280
     2
  9
$HALOGAP
280
     0
  9
$OBSCOLOR
 70
   257
  9
$OBSLTYPE
280
     0
  9
$INTERSECTIONDISPLAY
280
     0
  9
$INTERSECTIONCOLOR
 70
   257
  9
$DIMASSOC
280
     2
  9
$PROJECTNAME
  1

  9
$CAMERADISPLAY
290
     0
  9
$LENSLENGTH
 40
50.0
  9
$CAMERAHEIGHT
 40
0.0
  9
$STEPSPERSEC
 40
2.0
  9
$STEPSIZE
 40
6.0
  9
$3DDWFPREC
 40
2.0
  9
$PSOLWIDTH
 40
0.25
  9
$PSOLHEIGHT
 40
4.0
  9
$LOFTANG1
 40
1.570796326794897
  9
$LOFTANG2
 40
1.570796326794897
  9
$LOFTMAG1
 40
0.0
  9
$LOFTMAG2
 40
0.0
  9
$LOFTPARAM
 70
     7
  9
$LOFTNORMALS
280
     1
  9
$LATITUDE
 40
37.795
  9
$LONGITUDE
 40
-122.394
  9
$NORTHDIRECTION
 40
0.0
  9
$TIMEZONE
 70
 -8000
  9
$LIGHTGLYPHDISPLAY
280
     1
  9
$TILEMODELIGHTSYNCH
280
     1
  9
$CMATERIAL
347
3C
  9
$SOLIDHIST
280
     1
  9
$SHOWHIST
280
     1
  9
$DWFFRAME
280
     2
  9
$DGNFRAME
280
     2
  9
$REALWORLDSCALE
290
     1
  9
$INTERFERECOLOR
 62
   256
  9
$CSHADOW
280
     0
  9
$SHADOWPLANELOCATION
 40
0.0
  0
ENDSEC
  0
SECTION
  2
CLASSES
  0
CLASS
  1
ACDBDICTIONARYWDFLT
  2
AcDbDictionaryWithDefault
  3
ObjectDBX Classes
 90
        0
 91
        4
280
     0
281
     0
  0
CLASS
  1
VISUALSTYLE
  2
AcDbVisualStyle
  3
ObjectDBX Classes
 90
     4095
 91
        4
280
     0
281
     0
  0
CLASS
  1
MATERIAL
  2
AcDbMaterial
  3
ObjectDBX Classes
 90
     1153
 91
        4
280
     0
281
     0
  0
CLASS
  1
SUN
  2
AcDbSun
  3
SCENEOE
 90
     1024
 91
        4
280
     0
281
     0
  0
ENDSEC
  0
SECTION
  2
TABLES
  0
TABLE
  2
VPORT
  5
8
330
0
100
AcDbSymbolTable
 70
     1
  0
VPORT
  5
29
330
8
100
AcDbSymbolTableRecord
100
AcDbViewportTableRecord
  2
*Active
 70
     0
 10
0.0
 20
0.0
 11
1.0
 21
1.0
 12
0.0
 22
0.0
 13
0.0
 23
0.0
 14
0.5
 24
0.5
 15
0.5
 25
0.5
 16
0.0
 26
0.0
 36
1.0
 17
91.00082462281999
 27
-128.4993055234307
 37
0.0
 40
256.9986110468615
 41
0.7081814508812795
 42
50.0
 43
0.0
 44
0.0
 50
0.0
 51
0.0
 71
     0
 72
   100
 73
     1
 74
     3
 75
     0
 76
     0
 77
     0
 78
     0
281
     0
 65
     1
110
0.0
120
0.0
130
0.0
111
1.0
121
0.0
131
0.0
112
0.0
122
1.0
132
0.0
 79
     0
146
0.0
 60
     3
 61
     5
292
     1
282
     1
141
0.0
142
0.0
 63
   250
361
3F
  0
ENDTAB
  0
TABLE
  2
LTYPE
  5
5
330
0
100
AcDbSymbolTable
 70
     1
  0
LTYPE
  5
14
330
5
100
AcDbSymbolTableRecord
100
AcDbLinetypeTableRecord
  2
ByBlock
 70
     0
  3

 72
    65
 73
     0
 40
0.0
  0
LTYPE
  5
15
330
5
100
AcDbSymbolTableRecord
100
AcDbLinetypeTableRecord
  2
ByLayer
 70
     0
  3

 72
    65
 73
     0
 40
0.0
  0
LTYPE
  5
16
330
5
100
AcDbSymbolTableRecord
100
AcDbLinetypeTableRecord
  2
Continuous
 70
     0
  3
Solid line
 72
    65
 73
     0
 40
0.0
  0
ENDTAB
  0
TABLE
  2
LAYER
  5
2
330
0
100
AcDbSymbolTable
 70
     2
  0
LAYER
  5
10
330
2
100
AcDbSymbolTableRecord
100
AcDbLayerTableRecord
  2
0
 70
     0
 62
     7
  6
Continuous
370
    -3
390
F
347
3E
  0
LAYER
  5
40
330
2
100
AcDbSymbolTableRecord
100
AcDbLayerTableRecord
  2
_U+30EC_U+30A4_U+30E4_U+30FC 1
 70
     0
 62
     7
  6
Continuous
370
    -3
390
F
347
3E
  0
ENDTAB
  0
TABLE
  2
STYLE
  5
3
330
0
100
AcDbSymbolTable
 70
     1
  0
STYLE
  5
11
330
3
100
AcDbSymbolTableRecord
100
AcDbTextStyleTableRecord
  2
Standard
 70
     0
 40
0.0
 41
1.0
 50
0.0
 71
     0
 42
0.2
  3
txt
  4

  0
ENDTAB
  0
TABLE
  2
VIEW
  5
6
330
0
100
AcDbSymbolTable
 70
     0
  0
ENDTAB
  0
TABLE
  2
UCS
  5
7
330
0
100
AcDbSymbolTable
 70
     0
  0
ENDTAB
  0
TABLE
  2
APPID
  5
9
330
0
100
AcDbSymbolTable
 70
     1
  0
APPID
  5
12
330
9
100
AcDbSymbolTableRecord
100
AcDbRegAppTableRecord
  2
ACAD
 70
     0
  0
ENDTAB
  0
TABLE
  2
DIMSTYLE
  5
A
330
0
100
AcDbSymbolTable
 70
     1
100
AcDbDimStyleTable
  0
DIMSTYLE
105
27
330
A
100
AcDbSymbolTableRecord
100
AcDbDimStyleTableRecord
  2
Standard
 70
     0
178
     0
340
11
  0
ENDTAB
  0
TABLE
  2
BLOCK_RECORD
  5
1
330
0
100
AcDbSymbolTable
 70
     8
  0
BLOCK_RECORD
  5
1F
330
1
100
AcDbSymbolTableRecord
100
AcDbBlockTableRecord
  2
*Model_Space
340
22
 70
     0
280
     1
281
     0
  0
BLOCK_RECORD
  5
1B
330
1
100
AcDbSymbolTableRecord
100
AcDbBlockTableRecord
  2
*Paper_Space
340
1E
 70
     0
280
     1
281
     0
  0
BLOCK_RECORD
  5
23
330
1
100
AcDbSymbolTableRecord
100
AcDbBlockTableRecord
  2
*Paper_Space0
340
26
 70
     0
280
     1
281
     0
  0
BLOCK_RECORD
  5
55
330
1
100
AcDbSymbolTableRecord
100
AcDbBlockTableRecord
  2
block 2
340
0
102
{BLKREFS
331
56
102
}
 70
     0
280
     1
281
     0
  0
BLOCK_RECORD
  5
6D
330
1
100
AcDbSymbolTableRecord
100
AcDbBlockTableRecord
  2
block 3
340
0
102
{BLKREFS
331
6E
102
}
 70
     0
280
     1
281
     0
  0
BLOCK_RECORD
  5
83
330
1
100
AcDbSymbolTableRecord
100
AcDbBlockTableRecord
  2
block 4
340
0
102
{BLKREFS
331
84
102
}
 70
     0
280
     1
281
     0
  0
BLOCK_RECORD
  5
98
330
1
100
AcDbSymbolTableRecord
100
AcDbBlockTableRecord
  2
block 5
340
0
102
{BLKREFS
331
99
102
}
 70
     0
280
     1
281
     0
  0
BLOCK_RECORD
  5
B0
330
1
100
AcDbSymbolTableRecord
100
AcDbBlockTableRecord
  2
block 6
340
0
102
{BLKREFS
331
B1
102
}
 70
     0
280
     1
281
     0
  0
BLOCK_RECORD
  5
CA
330
1
100
AcDbSymbolTableRecord
100
AcDbBlockTableRecord
  2
block 7
340
0
102
{BLKREFS
331
CB
102
}
 70
     0
280
     1
281
     0
  0
BLOCK_RECORD
  5
DA
330
1
100
AcDbSymbolTableRecord
100
AcDbBlockTableRecord
  2
block 8
340
0
102
{BLKREFS
331
DB
102
}
 70
     0
280
     1
281
     0
  0
ENDTAB
  0
ENDSEC
  0
SECTION
  2
BLOCKS
  0
BLOCK
  5
20
330
1F
100
AcDbEntity
  8
0
100
AcDbBlockBegin
  2
*Model_Space
 70
     0
 10
0.0
 20
0.0
 30
0.0
  3
*Model_Space
  1

  0
ENDBLK
  5
21
330
1F
100
AcDbEntity
  8
0
100
AcDbBlockEnd
  0
BLOCK
  5
1C
330
1B
100
AcDbEntity
 67
     1
  8
0
100
AcDbBlockBegin
  2
*Paper_Space
 70
     0
 10
0.0
 20
0.0
 30
0.0
  3
*Paper_Space
  1

  0
ENDBLK
  5
1D
330
1B
100
AcDbEntity
 67
     1
  8
0
100
AcDbBlockEnd
  0
BLOCK
  5
24
330
23
100
AcDbEntity
  8
0
100
AcDbBlockBegin
  2
*Paper_Space0
 70
     0
 10
0.0
 20
0.0
 30
0.0
  3
*Paper_Space0
  1

  0
ENDBLK
  5
25
330
23
100
AcDbEntity
  8
0
100
AcDbBlockEnd
  0
BLOCK
  5
57
330
55
100
AcDbEntity
  8
0
100
AcDbBlockBegin
  2
block 2
 70
     0
 10
0.0
 20
0.0
 30
0.0
  3
block 2
  1

  0
SPLINE
  5
59
330
55
100
AcDbEntity
  8
_U+30EC_U+30A4_U+30E4_U+30FC 1
370
     0
100
AcDbSpline
210
0.0
220
0.0
230
1.0
 70
    11
 71
     3
 72
    26
 73
    22
 74
     0
 42
0.0000000001
 43
0.0000000001
 12
1.0
 22
0.0
 32
0.0
 13
1.0
 23
0.0
 33
0.0
 40
0.0
 40
0.0
 40
0.0
 40
0.0
 40
1.0
 40
1.0
 40
1.0
 40
2.0
 40
2.0
 40
2.0
 40
3.0
 40
3.0
 40
3.0
 40
4.0
 40
4.0
 40
4.0
 40
5.0
 40
5.0
 40
5.0
 40
6.0
 40
6.0
 40
6.0
 40
7.0
 40
7.0
 40
7.0
 40
7.0
 10
69.99486624769226
 20
-128.1816677196907
 30
0.0
 10
69.99486624769226
 20
-128.1816677196907
 30
0.0
 10
68.89054088989542
 20
-128.1816677196907
 30
0.0
 10
68.89054088989542
 20
-128.1816677196907
 30
0.0
 10
68.89054088989542
 20
-128.1816677196907
 30
0.0
 10
68.89054088989542
 20
-128.4999945425278
 30
0.0
 10
68.89054088989542
 20
-128.4999945425278
 30
0.0
 10
68.89054088989542
 20
-128.4999945425278
 30
0.0
 10
68.74257403880394
 20
-128.4999945425278
 30
0.0
 10
68.74257403880394
 20
-128.4999945425278
 30
0.0
 10
68.72776012821737
 20
-128.1796006623995
 30
0.0
 10
68.56480711176505
 20
-128.1348144210913
 30
0.0
 10
68.45060219642902
 20
-128.1062201285637
 30
0.0
 10
68.45060219642902
 20
-128.1062201285637
 30
0.0
 10
68.45060219642902
 20
-127.9654879779913
 30
0.0
 10
68.45060219642902
 20
-127.9654879779913
 30
0.0
 10
68.45060219642902
 20
-127.9654879779913
 30
0.0
 10
69.99486624769226
 20
-127.9654879779913
 30
0.0
 10
69.99486624769226
 20
-127.9654879779913
 30
0.0
 10
69.99486624769226
 20
-127.9654879779913
 30
0.0
 10
69.99486624769226
 20
-128.1816677196907
 30
0.0
 10
69.99486624769226
 20
-128.1816677196907
 30
0.0
  0
HATCH
  5
5A
330
55
100
AcDbEntity
  8
_U+30EC_U+30A4_U+30E4_U+30FC 1
 62
     7
420
 16777215
100
AcDbHatch
 10
0.0
 20
0.0
 30
0.0
210
0.0
220
0.0
230
1.0
  2
SOLID
 70
     1
 71
     0
 91
        1
 92
        1
 93
        1
 72
     4
 94
        3
 73
     0
 74
     1
 95
       26
 96
       22
 40
0.0
 40
0.0
 40
0.0
 40
0.0
 40
1.0
 40
1.0
 40
1.0
 40
2.0
 40
2.0
 40
2.0
 40
3.0
 40
3.0
 40
3.0
 40
4.0
 40
4.0
 40
4.0
 40
5.0
 40
5.0
 40
5.0
 40
6.0
 40
6.0
 40
6.0
 40
7.0
 40
7.0
 40
7.0
 40
7.0
 10
69.99486624769226
 20
-128.1816677196907
 10
69.99486624769226
 20
-128.1816677196907
 10
68.89054088989542
 20
-128.1816677196907
 10
68.89054088989542
 20
-128.1816677196907
 10
68.89054088989542
 20
-128.1816677196907
 10
68.89054088989542
 20
-128.4999945425278
 10
68.89054088989542
 20
-128.4999945425278
 10
68.89054088989542
 20
-128.4999945425278
 10
68.74257403880394
 20
-128.4999945425278
 10
68.74257403880394
 20
-128.4999945425278
 10
68.72776012821737
 20
-128.1796006623995
 10
68.56480711176505
 20
-128.1348144210913
 10
68.45060219642902
 20
-128.1062201285637
 10
68.45060219642902
 20
-128.1062201285637
 10
68.45060219642902
 20
-127.9654879779913
 10
68.45060219642902
 20
-127.9654879779913
 10
68.45060219642902
 20
-127.9654879779913
 10
69.99486624769226
 20
-127.9654879779913
 10
69.99486624769226
 20
-127.9654879779913
 10
69.99486624769226
 20
-127.9654879779913
 10
69.99486624769226
 20
-128.1816677196907
 10
69.99486624769226
 20
-128.1816677196907
 97
        0
 97
        0
 75
     2
 76
     1
 98
        0
  0
SPLINE
  5
5B
330
55
100
AcDbEntity
  8
_U+30EC_U+30A4_U+30E4_U+30FC 1
370
     0
100
AcDbSpline
210
0.0
220
0.0
230
1.0
 70
    11
 71
     3
 72
    32
 73
    28
 74
     0
 42
0.0000000001
 43
0.0000000001
 12
1.0
 22
0.0
 32
0.0
 13
1.0
 23
0.0
 33
0.0
 40
0.0
 40
0.0
 40
0.0
 40
0.0
 40
1.0
 40
1.0
 40
1.0
 40
2.0
 40
2.0
 40
2.0
 40
3.0
 40
3.0
 40
3.0
 40
4.0
 40
4.0
 40
4.0
 40
5.0
 40
5.0
 40
5.0
 40
6.0
 40
6.0
 40
6.0
 40
7.0
 40
7.0
 40
7.0
 40
8.0
 40
8.0
 40
8.0
 40
9.0
 40
9.0
 40
9.0
 40
9.0
 10
70.04568140609969
 20
-126.9972438918618
 30
0.0
 10
70.04568140609969
 20
-127.4950601894804
 30
0.0
 10
69.491365542523
 20
-127.503328418645
 30
0.0
 10
69.2777696224375
 20
-127.503328418645
 30
0.0
 10
69.04712047970003
 20
-127.503328418645
 30
0.0
 10
68.39978703802159
 20
-127.4848971577989
 30
0.0
 10
68.39978703802159
 20
-126.9605536249439
 30
0.0
 10
68.39978703802159
 20
-126.793294239135
 30
0.0
 10
68.4695502215979
 20
-126.5566161792983
 30
0.0
 10
68.80182968115024
 20
-126.5199259123804
 30
0.0
 10
68.80182968115024
 20
-126.5199259123804
 30
0.0
 10
68.80182968115024
 20
-126.7259426223984
 30
0.0
 10
68.80182968115024
 20
-126.7259426223984
 30
0.0
 10
68.7446410960951
 20
-126.7361056540799
 30
0.0
 10
68.59650199022936
 20
-126.7667670038986
 30
0.0
 10
68.59650199022936
 20
-126.962620682235
 30
0.0
 10
68.59650199022936
 20
-127.2442572381542
 30
0.0
 10
68.92447508042514
 20
-127.2830145623633
 30
0.0
 10
69.12963051657177
 20
-127.2952446513359
 30
0.0
 10
69.0514268490566
 20
-127.2053276591709
 30
0.0
 10
68.9921712067103
 20
-127.1400430997254
 30
0.0
 10
68.9921712067103
 20
-126.9646877395262
 30
0.0
 10
68.9921712067103
 20
-126.7912271818439
 30
0.0
 10
69.10000269539862
 20
-126.4995998490175
 30
0.0
 10
69.50617945310957
 20
-126.4995998490175
 30
0.0
 10
69.8257120593665
 20
-126.4995998490175
 30
0.0
 10
70.04568140609969
 20
-126.6913194127716
 30
0.0
 10
70.04568140609969
 20
-126.9972438918618
 30
0.0
  0
SPLINE
  5
5C
330
55
100
AcDbEntity
  8
_U+30EC_U+30A4_U+30E4_U+30FC 1
370
     0
100
AcDbSpline
210
0.0
220
0.0
230
1.0
 70
    11
 71
     3
 72
    17
 73
    13
 74
     0
 42
0.0000000001
 43
0.0000000001
 12
1.0
 22
0.0
 32
0.0
 13
1.0
 23
0.0
 33
0.0
 40
0.0
 40
0.0
 40
0.0
 40
0.0
 40
1.0
 40
1.0
 40
1.0
 40
2.0
 40
2.0
 40
2.0
 40
3.0
 40
3.0
 40
3.0
 40
4.0
 40
4.0
 40
4.0
 40
4.0
 10
69.18681910162691
 20
-126.9810519430811
 30
0.0
 10
69.18681910162691
 20
-127.2339219516985
 30
0.0
 10
69.39834796442125
 20
-127.2706122186164
 30
0.0
 10
69.51461993704844
 20
-127.2706122186164
 30
0.0
 10
69.69031980679617
 20
-127.2706122186164
 30
0.0
 10
69.85310056847423
 20
-127.1788004239345
 30
0.0
 10
69.85310056847423
 20
-127.0013780064441
 30
0.0
 10
69.85310056847423
 20
-126.8851060338169
 30
0.0
 10
69.79384492612793
 20
-126.7157795907169
 30
0.0
 10
69.50824651040072
 20
-126.7157795907169
 30
0.0
 10
69.28414304908522
 20
-126.7157795907169
 30
0.0
 10
69.18681910162691
 20
-126.8504828241902
 30
0.0
 10
69.18681910162691
 20
-126.9810519430811
 30
0.0
  0
HATCH
  5
5D
330
55
100
AcDbEntity
  8
_U+30EC_U+30A4_U+30E4_U+30FC 1
 62
     7
420
 16777215
100
AcDbHatch
 10
0.0
 20
0.0
 30
0.0
210
0.0
220
0.0
230
1.0
  2
SOLID
 70
     1
 71
     0
 91
        2
 92
        1
 93
        1
 72
     4
 94
        3
 73
     0
 74
     1
 95
       32
 96
       28
 40
0.0
 40
0.0
 40
0.0
 40
0.0
 40
1.0
 40
1.0
 40
1.0
 40
2.0
 40
2.0
 40
2.0
 40
3.0
 40
3.0
 40
3.0
 40
4.0
 40
4.0
 40
4.0
 40
5.0
 40
5.0
 40
5.0
 40
6.0
 40
6.0
 40
6.0
 40
7.0
 40
7.0
 40
7.0
 40
8.0
 40
8.0
 40
8.0
 40
9.0
 40
9.0
 40
9.0
 40
9.0
 10
70.04568140609969
 20
-126.9972438918618
 10
70.04568140609969
 20
-127.4950601894804
 10
69.491365542523
 20
-127.503328418645
 10
69.2777696224375
 20
-127.503328418645
 10
69.04712047970003
 20
-127.503328418645
 10
68.39978703802159
 20
-127.4848971577989
 10
68.39978703802159
 20
-126.9605536249439
 10
68.39978703802159
 20
-126.793294239135
 10
68.4695502215979
 20
-126.5566161792983
 10
68.80182968115024
 20
-126.5199259123804
 10
68.80182968115024
 20
-126.5199259123804
 10
68.80182968115024
 20
-126.7259426223984
 10
68.80182968115024
 20
-126.7259426223984
 10
68.7446410960951
 20
-126.7361056540799
 10
68.59650199022936
 20
-126.7667670038986
 10
68.59650199022936
 20
-126.962620682235
 10
68.59650199022936
 20
-127.2442572381542
 10
68.92447508042514
 20
-127.2830145623633
 10
69.12963051657177
 20
-127.2952446513359
 10
69.0514268490566
 20
-127.2053276591709
 10
68.9921712067103
 20
-127.1400430997254
 10
68.9921712067103
 20
-126.9646877395262
 10
68.9921712067103
 20
-126.7912271818439
 10
69.10000269539862
 20
-126.4995998490175
 10
69.50617945310957
 20
-126.4995998490175
 10
69.8257120593665
 20
-126.4995998490175
 10
70.04568140609969
 20
-126.6913194127716
 10
70.04568140609969
 20
-126.9972438918618
 97
        0
 97
        0
 92
        1
 93
        1
 72
     4
 94
        3
 73
     0
 74
     1
 95
       17
 96
       13
 40
0.0
 40
0.0
 40
0.0
 40
0.0
 40
1.0
 40
1.0
 40
1.0
 40
2.0
 40
2.0
 40
2.0
 40
3.0
 40
3.0
 40
3.0
 40
4.0
 40
4.0
 40
4.0
 40
4.0
 10
69.18681910162691
 20
-126.9810519430811
 10
69.18681910162691
 20
-127.2339219516985
 10
69.39834796442125
 20
-127.2706122186164
 10
69.51461993704844
 20
-127.2706122186164
 10
69.69031980679617
 20
-127.2706122186164
 10
69.85310056847423
 20
-127.1788004239345
 10
69.85310056847423
 20
-127.0013780064441
 10
69.85310056847423
 20
-126.8851060338169
 10
69.79384492612793
 20
-126.7157795907169
 10
69.50824651040072
 20
-126.7157795907169
 10
69.28414304908522
 20
-126.7157795907169
 10
69.18681910162691
 20
-126.8504828241902
 10
69.18681910162691
 20
-126.9810519430811
 97
        0
 97
        0
 75
     2
 76
     1
 98
        0
  0
ENDBLK
  5
58
330
55
100
AcDbEntity
  8
0
100
AcDbBlockEnd
  0
BLOCK
  5
6F
330
6D
100
AcDbEntity
  8
0
100
AcDbBlockBegin
  2
block 3
 70
     0
 10
0.0
 20
0.0
 30
0.0
  3
block 3
  1

  0
SPLINE
  5
71
330
6D
100
AcDbEntity
  8
_U+30EC_U+30A4_U+30E4_U+30FC 1
370
     0
100
AcDbSpline
210
0.0
220
0.0
230
1.0
 70
    11
 71
     3
 72
    32
 73
    28
 74
     0
 42
0.0000000001
 43
0.0000000001
 12
1.0
 22
0.0
 32
0.0
 13
1.0
 23
0.0
 33
0.0
 40
0.0
 40
0.0
 40
0.0
 40
0.0
 40
1.0
 40
1.0
 40
1.0
 40
2.0
 40
2.0
 40
2.0
 40
3.0
 40
3.0
 40
3.0
 40
4.0
 40
4.0
 40
4.0
 40
5.0
 40
5.0
 40
5.0
 40
6.0
 40
6.0
 40
6.0
 40
7.0
 40
7.0
 40
7.0
 40
8.0
 40
8.0
 40
8.0
 40
9.0
 40
9.0
 40
9.0
 40
9.0
 10
93.78927949044157
 20
-122.5634060023453
 30
0.0
 10
93.78927949044157
 20
-123.0612222999639
 30
0.0
 10
93.23496362686487
 20
-123.0694905291285
 30
0.0
 10
93.02136770677939
 20
-123.0694905291285
 30
0.0
 10
92.79089081881617
 20
-123.0694905291285
 30
0.0
 10
92.14355737713772
 20
-123.0510592682824
 30
0.0
 10
92.14355737713772
 20
-122.5267157354274
 30
0.0
 10
92.14355737713772
 20
-122.3594563496185
 30
0.0
 10
92.21314830593977
 20
-122.1227782897818
 30
0.0
 10
92.54525551071785
 20
-122.0860880228639
 30
0.0
 10
92.54525551071785
 20
-122.0860880228639
 30
0.0
 10
92.54525551071785
 20
-122.2921047328818
 30
0.0
 10
92.54525551071785
 20
-122.2921047328818
 30
0.0
 10
92.48806692566271
 20
-122.3022677645633
 30
0.0
 10
92.3402723293455
 20
-122.3329291143821
 30
0.0
 10
92.3402723293455
 20
-122.5287827927185
 30
0.0
 10
92.3402723293455
 20
-122.8102470938634
 30
0.0
 10
92.66790090999275
 20
-122.8490044180725
 30
0.0
 10
92.87322860091363
 20
-122.8614067618194
 30
0.0
 10
92.79502493339847
 20
-122.7714897696544
 30
0.0
 10
92.73576929105218
 20
-122.7062052102089
 30
0.0
 10
92.73576929105218
 20
-122.5308498500097
 30
0.0
 10
92.73576929105218
 20
-122.3573892923273
 30
0.0
 10
92.8436007797405
 20
-122.0655897047267
 30
0.0
 10
93.24977753745145
 20
-122.0655897047267
 30
0.0
 10
93.56913788893411
 20
-122.0655897047267
 30
0.0
 10
93.78927949044157
 20
-122.2574815232551
 30
0.0
 10
93.78927949044157
 20
-122.5634060023453
 30
0.0
  0
SPLINE
  5
72
330
6D
100
AcDbEntity
  8
_U+30EC_U+30A4_U+30E4_U+30FC 1
370
     0
100
AcDbSpline
210
0.0
220
0.0
230
1.0
 70
    11
 71
     3
 72
    17
 73
    13
 74
     0
 42
0.0000000001
 43
0.0000000001
 12
1.0
 22
0.0
 32
0.0
 13
1.0
 23
0.0
 33
0.0
 40
0.0
 40
0.0
 40
0.0
 40
0.0
 40
1.0
 40
1.0
 40
1.0
 40
2.0
 40
2.0
 40
2.0
 40
3.0
 40
3.0
 40
3.0
 40
4.0
 40
4.0
 40
4.0
 40
4.0
 10
92.93041718596879
 20
-122.5472140535646
 30
0.0
 10
92.93041718596879
 20
-122.8000840621819
 30
0.0
 10
93.14194604876313
 20
-122.8367743290998
 30
0.0
 10
93.25839027616458
 20
-122.8367743290998
 30
0.0
 10
93.4337456363638
 20
-122.8367743290998
 30
0.0
 10
93.5966986528161
 20
-122.7449625344179
 30
0.0
 10
93.5966986528161
 20
-122.5675401169276
 30
0.0
 10
93.5966986528161
 20
-122.4512681443004
 30
0.0
 10
93.53744301046981
 20
-122.2819417012004
 30
0.0
 10
93.2518445947426
 20
-122.2819417012004
 30
0.0
 10
93.02756887865283
 20
-122.2819417012004
 30
0.0
 10
92.93041718596879
 20
-122.4166449346736
 30
0.0
 10
92.93041718596879
 20
-122.5472140535646
 30
0.0
  0
HATCH
  5
73
330
6D
100
AcDbEntity
  8
_U+30EC_U+30A4_U+30E4_U+30FC 1
 62
     7
420
 16777215
100
AcDbHatch
 10
0.0
 20
0.0
 30
0.0
210
0.0
220
0.0
230
1.0
  2
SOLID
 70
     1
 71
     0
 91
        2
 92
        1
 93
        1
 72
     4
 94
        3
 73
     0
 74
     1
 95
       32
 96
       28
 40
0.0
 40
0.0
 40
0.0
 40
0.0
 40
1.0
 40
1.0
 40
1.0
 40
2.0
 40
2.0
 40
2.0
 40
3.0
 40
3.0
 40
3.0
 40
4.0
 40
4.0
 40
4.0
 40
5.0
 40
5.0
 40
5.0
 40
6.0
 40
6.0
 40
6.0
 40
7.0
 40
7.0
 40
7.0
 40
8.0
 40
8.0
 40
8.0
 40
9.0
 40
9.0
 40
9.0
 40
9.0
 10
93.78927949044157
 20
-122.5634060023453
 10
93.78927949044157
 20
-123.0612222999639
 10
93.23496362686487
 20
-123.0694905291285
 10
93.02136770677939
 20
-123.0694905291285
 10
92.79089081881617
 20
-123.0694905291285
 10
92.14355737713772
 20
-123.0510592682824
 10
92.14355737713772
 20
-122.5267157354274
 10
92.14355737713772
 20
-122.3594563496185
 10
92.21314830593977
 20
-122.1227782897818
 10
92.54525551071785
 20
-122.0860880228639
 10
92.54525551071785
 20
-122.0860880228639
 10
92.54525551071785
 20
-122.2921047328818
 10
92.54525551071785
 20
-122.2921047328818
 10
92.48806692566271
 20
-122.3022677645633
 10
92.3402723293455
 20
-122.3329291143821
 10
92.3402723293455
 20
-122.5287827927185
 10
92.3402723293455
 20
-122.8102470938634
 10
92.66790090999275
 20
-122.8490044180725
 10
92.87322860091363
 20
-122.8614067618194
 10
92.79502493339847
 20
-122.7714897696544
 10
92.73576929105218
 20
-122.7062052102089
 10
92.73576929105218
 20
-122.5308498500097
 10
92.73576929105218
 20
-122.3573892923273
 10
92.8436007797405
 20
-122.0655897047267
 10
93.24977753745145
 20
-122.0655897047267
 10
93.56913788893411
 20
-122.0655897047267
 10
93.78927949044157
 20
-122.2574815232551
 10
93.78927949044157
 20
-122.5634060023453
 97
        0
 97
        0
 92
        1
 93
        1
 72
     4
 94
        3
 73
     0
 74
     1
 95
       17
 96
       13
 40
0.0
 40
0.0
 40
0.0
 40
0.0
 40
1.0
 40
1.0
 40
1.0
 40
2.0
 40
2.0
 40
2.0
 40
3.0
 40
3.0
 40
3.0
 40
4.0
 40
4.0
 40
4.0
 40
4.0
 10
92.93041718596879
 20
-122.5472140535646
 10
92.93041718596879
 20
-122.8000840621819
 10
93.14194604876313
 20
-122.8367743290998
 10
93.25839027616458
 20
-122.8367743290998
 10
93.4337456363638
 20
-122.8367743290998
 10
93.5966986528161
 20
-122.7449625344179
 10
93.5966986528161
 20
-122.5675401169276
 10
93.5966986528161
 20
-122.4512681443004
 10
93.53744301046981
 20
-122.2819417012004
 10
93.2518445947426
 20
-122.2819417012004
 10
93.02756887865283
 20
-122.2819417012004
 10
92.93041718596879
 20
-122.4166449346736
 10
92.93041718596879
 20
-122.5472140535646
 97
        0
 97
        0
 75
     2
 76
     1
 98
        0
  0
ENDBLK
  5
70
330
6D
100
AcDbEntity
  8
0
100
AcDbBlockEnd
  0
BLOCK
  5
85
330
83
100
AcDbEntity
  8
0
100
AcDbBlockBegin
  2
block 4
 70
     0
 10
0.0
 20
0.0
 30
0.0
  3
block 4
  1

  0
SPLINE
  5
87
330
83
100
AcDbEntity
  8
_U+30EC_U+30A4_U+30E4_U+30FC 1
370
     0
100
AcDbSpline
210
0.0
220
0.0
230
1.0
 70
    11
 71
     3
 72
    26
 73
    22
 74
     0
 42
0.0000000001
 43
0.0000000001
 12
1.0
 22
0.0
 32
0.0
 13
1.0
 23
0.0
 33
0.0
 40
0.0
 40
0.0
 40
0.0
 40
0.0
 40
1.0
 40
1.0
 40
1.0
 40
2.0
 40
2.0
 40
2.0
 40
3.0
 40
3.0
 40
3.0
 40
4.0
 40
4.0
 40
4.0
 40
5.0
 40
5.0
 40
5.0
 40
6.0
 40
6.0
 40
6.0
 40
7.0
 40
7.0
 40
7.0
 40
7.0
 10
113.3801594768633
 20
-135.439105868918
 30
0.0
 10
113.3801594768633
 20
-135.439105868918
 30
0.0
 10
112.2756618642922
 20
-135.439105868918
 30
0.0
 10
112.2756618642922
 20
-135.439105868918
 30
0.0
 10
112.2756618642922
 20
-135.439105868918
 30
0.0
 10
112.2756618642922
 20
-135.7574326917551
 30
0.0
 10
112.2756618642922
 20
-135.7574326917551
 30
0.0
 10
112.2756618642922
 20
-135.7574326917551
 30
0.0
 10
112.1275227584265
 20
-135.7574326917551
 30
0.0
 10
112.1275227584265
 20
-135.7574326917551
 30
0.0
 10
112.1127088478399
 20
-135.4370388116268
 30
0.0
 10
111.9501003409361
 20
-135.3922525703186
 30
0.0
 10
111.8357231708258
 20
-135.363658277791
 30
0.0
 10
111.8357231708258
 20
-135.363658277791
 30
0.0
 10
111.8357231708258
 20
-135.2227538724443
 30
0.0
 10
111.8357231708258
 20
-135.2227538724443
 30
0.0
 10
111.8357231708258
 20
-135.2227538724443
 30
0.0
 10
113.3801594768633
 20
-135.2227538724443
 30
0.0
 10
113.3801594768633
 20
-135.2227538724443
 30
0.0
 10
113.3801594768633
 20
-135.2227538724443
 30
0.0
 10
113.3801594768633
 20
-135.439105868918
 30
0.0
 10
113.3801594768633
 20
-135.439105868918
 30
0.0
  0
HATCH
  5
88
330
83
100
AcDbEntity
  8
_U+30EC_U+30A4_U+30E4_U+30FC 1
 62
     7
420
 16777215
100
AcDbHatch
 10
0.0
 20
0.0
 30
0.0
210
0.0
220
0.0
230
1.0
  2
SOLID
 70
     1
 71
     0
 91
        1
 92
        1
 93
        1
 72
     4
 94
        3
 73
     0
 74
     1
 95
       26
 96
       22
 40
0.0
 40
0.0
 40
0.0
 40
0.0
 40
1.0
 40
1.0
 40
1.0
 40
2.0
 40
2.0
 40
2.0
 40
3.0
 40
3.0
 40
3.0
 40
4.0
 40
4.0
 40
4.0
 40
5.0
 40
5.0
 40
5.0
 40
6.0
 40
6.0
 40
6.0
 40
7.0
 40
7.0
 40
7.0
 40
7.0
 10
113.3801594768633
 20
-135.439105868918
 10
113.3801594768633
 20
-135.439105868918
 10
112.2756618642922
 20
-135.439105868918
 10
112.2756618642922
 20
-135.439105868918
 10
112.2756618642922
 20
-135.439105868918
 10
112.2756618642922
 20
-135.7574326917551
 10
112.2756618642922
 20
-135.7574326917551
 10
112.2756618642922
 20
-135.7574326917551
 10
112.1275227584265
 20
-135.7574326917551
 10
112.1275227584265
 20
-135.7574326917551
 10
112.1127088478399
 20
-135.4370388116268
 10
111.9501003409361
 20
-135.3922525703186
 10
111.8357231708258
 20
-135.363658277791
 10
111.8357231708258
 20
-135.363658277791
 10
111.8357231708258
 20
-135.2227538724443
 10
111.8357231708258
 20
-135.2227538724443
 10
111.8357231708258
 20
-135.2227538724443
 10
113.3801594768633
 20
-135.2227538724443
 10
113.3801594768633
 20
-135.2227538724443
 10
113.3801594768633
 20
-135.2227538724443
 10
113.3801594768633
 20
-135.439105868918
 10
113.3801594768633
 20
-135.439105868918
 97
        0
 97
        0
 75
     2
 76
     1
 98
        0
  0
ENDBLK
  5
86
330
83
100
AcDbEntity
  8
0
100
AcDbBlockEnd
  0
BLOCK
  5
9A
330
98
100
AcDbEntity
  8
0
100
AcDbBlockBegin
  2
block 5
 70
     0
 10
0.0
 20
0.0
 30
0.0
  3
block 5
  1

  0
SPLINE
  5
9C
330
98
100
AcDbEntity
  8
_U+30EC_U+30A4_U+30E4_U+30FC 1
370
     0
100
AcDbSpline
210
0.0
220
0.0
230
1.0
 70
    11
 71
     3
 72
    26
 73
    22
 74
     0
 42
0.0000000001
 43
0.0000000001
 12
1.0
 22
0.0
 32
0.0
 13
1.0
 23
0.0
 33
0.0
 40
0.0
 40
0.0
 40
0.0
 40
0.0
 40
1.0
 40
1.0
 40
1.0
 40
2.0
 40
2.0
 40
2.0
 40
3.0
 40
3.0
 40
3.0
 40
4.0
 40
4.0
 40
4.0
 40
5.0
 40
5.0
 40
5.0
 40
6.0
 40
6.0
 40
6.0
 40
7.0
 40
7.0
 40
7.0
 40
7.0
 10
81.46582843015437
 20
-115.4839070349311
 30
0.0
 10
81.46582843015437
 20
-115.4839070349311
 30
0.0
 10
81.46582843015437
 20
-114.3795816771343
 30
0.0
 10
81.46582843015437
 20
-114.3795816771343
 30
0.0
 10
81.46582843015437
 20
-114.3795816771343
 30
0.0
 10
81.14767386209155
 20
-114.3795816771343
 30
0.0
 10
81.14767386209155
 20
-114.3795816771343
 30
0.0
 10
81.14767386209155
 20
-114.3795816771343
 30
0.0
 10
81.14767386209155
 20
-114.2316148260428
 30
0.0
 10
81.14767386209155
 20
-114.2316148260428
 30
0.0
 10
81.46789548744553
 20
-114.2168009154562
 30
0.0
 10
81.51285398352805
 20
-114.0538478990039
 30
0.0
 10
81.54144827605562
 20
-113.9396429836679
 30
0.0
 10
81.54144827605562
 20
-113.9396429836679
 30
0.0
 10
81.68218042662807
 20
-113.9396429836679
 30
0.0
 10
81.68218042662807
 20
-113.9396429836679
 30
0.0
 10
81.68218042662807
 20
-113.9396429836679
 30
0.0
 10
81.68218042662807
 20
-115.4839070349311
 30
0.0
 10
81.68218042662807
 20
-115.4839070349311
 30
0.0
 10
81.68218042662807
 20
-115.4839070349311
 30
0.0
 10
81.46582843015437
 20
-115.4839070349311
 30
0.0
 10
81.46582843015437
 20
-115.4839070349311
 30
0.0
  0
HATCH
  5
9D
330
98
100
AcDbEntity
  8
_U+30EC_U+30A4_U+30E4_U+30FC 1
 62
     7
420
 16777215
100
AcDbHatch
 10
0.0
 20
0.0
 30
0.0
210
0.0
220
0.0
230
1.0
  2
SOLID
 70
     1
 71
     0
 91
        1
 92
        1
 93
        1
 72
     4
 94
        3
 73
     0
 74
     1
 95
       26
 96
       22
 40
0.0
 40
0.0
 40
0.0
 40
0.0
 40
1.0
 40
1.0
 40
1.0
 40
2.0
 40
2.0
 40
2.0
 40
3.0
 40
3.0
 40
3.0
 40
4.0
 40
4.0
 40
4.0
 40
5.0
 40
5.0
 40
5.0
 40
6.0
 40
6.0
 40
6.0
 40
7.0
 40
7.0
 40
7.0
 40
7.0
 10
81.46582843015437
 20
-115.4839070349311
 10
81.46582843015437
 20
-115.4839070349311
 10
81.46582843015437
 20
-114.3795816771343
 10
81.46582843015437
 20
-114.3795816771343
 10
81.46582843015437
 20
-114.3795816771343
 10
81.14767386209155
 20
-114.3795816771343
 10
81.14767386209155
 20
-114.3795816771343
 10
81.14767386209155
 20
-114.3795816771343
 10
81.14767386209155
 20
-114.2316148260428
 10
81.14767386209155
 20
-114.2316148260428
 10
81.46789548744553
 20
-114.2168009154562
 10
81.51285398352805
 20
-114.0538478990039
 10
81.54144827605562
 20
-113.9396429836679
 10
81.54144827605562
 20
-113.9396429836679
 10
81.68218042662807
 20
-113.9396429836679
 10
81.68218042662807
 20
-113.9396429836679
 10
81.68218042662807
 20
-113.9396429836679
 10
81.68218042662807
 20
-115.4839070349311
 10
81.68218042662807
 20
-115.4839070349311
 10
81.68218042662807
 20
-115.4839070349311
 10
81.46582843015437
 20
-115.4839070349311
 10
81.46582843015437
 20
-115.4839070349311
 97
        0
 97
        0
 75
     2
 76
     1
 98
        0
  0
SPLINE
  5
9E
330
98
100
AcDbEntity
  8
_U+30EC_U+30A4_U+30E4_U+30FC 1
370
     0
100
AcDbSpline
210
0.0
220
0.0
230
1.0
 70
    11
 71
     3
 72
    32
 73
    28
 74
     0
 42
0.0000000001
 43
0.0000000001
 12
1.0
 22
0.0
 32
0.0
 13
1.0
 23
0.0
 33
0.0
 40
0.0
 40
0.0
 40
0.0
 40
0.0
 40
1.0
 40
1.0
 40
1.0
 40
2.0
 40
2.0
 40
2.0
 40
3.0
 40
3.0
 40
3.0
 40
4.0
 40
4.0
 40
4.0
 40
5.0
 40
5.0
 40
5.0
 40
6.0
 40
6.0
 40
6.0
 40
7.0
 40
7.0
 40
7.0
 40
8.0
 40
8.0
 40
8.0
 40
9.0
 40
9.0
 40
9.0
 40
9.0
 10
82.65025225798327
 20
-115.5347221933386
 30
0.0
 10
82.15243596036467
 20
-115.5347221933386
 30
0.0
 10
82.14433998597434
 20
-114.9804063297618
 30
0.0
 10
82.14433998597434
 20
-114.7668104096764
 30
0.0
 10
82.14433998597434
 20
-114.5361612669389
 30
0.0
 10
82.16277124682043
 20
-113.8888278252604
 30
0.0
 10
82.68694252490118
 20
-113.8888278252604
 30
0.0
 10
82.85437416548433
 20
-113.8888278252604
 30
0.0
 10
83.09087997054672
 20
-113.9585910088367
 30
0.0
 10
83.1277424922389
 20
-114.2908704683891
 30
0.0
 10
83.1277424922389
 20
-114.2908704683891
 30
0.0
 10
82.9215535274467
 20
-114.2908704683891
 30
0.0
 10
82.9215535274467
 20
-114.2908704683891
 30
0.0
 10
82.91139049576522
 20
-114.2336818833339
 30
0.0
 10
82.88090140072075
 20
-114.0855427774682
 30
0.0
 10
82.6850477223843
 20
-114.0855427774682
 30
0.0
 10
82.40341116646512
 20
-114.0855427774682
 30
0.0
 10
82.36465384225606
 20
-114.413515867664
 30
0.0
 10
82.35242375328343
 20
-114.6186713038106
 30
0.0
 10
82.44216849067418
 20
-114.5404676362954
 30
0.0
 10
82.50745305011966
 20
-114.4812119939491
 30
0.0
 10
82.68298066509315
 20
-114.4812119939491
 30
0.0
 10
82.85626896800122
 20
-114.4812119939491
 30
0.0
 10
83.14806855560188
 20
-114.5890434826375
 30
0.0
 10
83.14806855560188
 20
-114.9952202403484
 30
0.0
 10
83.14806855560188
 20
-115.3147528466053
 30
0.0
 10
82.95634899184772
 20
-115.5347221933386
 30
0.0
 10
82.65025225798327
 20
-115.5347221933386
 30
0.0
  0
SPLINE
  5
9F
330
98
100
AcDbEntity
  8
_U+30EC_U+30A4_U+30E4_U+30FC 1
370
     0
100
AcDbSpline
210
0.0
220
0.0
230
1.0
 70
    11
 71
     3
 72
    17
 73
    13
 74
     0
 42
0.0000000001
 43
0.0000000001
 12
1.0
 22
0.0
 32
0.0
 13
1.0
 23
0.0
 33
0.0
 40
0.0
 40
0.0
 40
0.0
 40
0.0
 40
1.0
 40
1.0
 40
1.0
 40
2.0
 40
2.0
 40
2.0
 40
3.0
 40
3.0
 40
3.0
 40
4.0
 40
4.0
 40
4.0
 40
4.0
 10
82.66661646153821
 20
-114.6758598888658
 30
0.0
 10
82.4135741981466
 20
-114.6758598888658
 30
0.0
 10
82.3768839312287
 20
-114.8873887516601
 30
0.0
 10
82.3768839312287
 20
-115.0036607242873
 30
0.0
 10
82.3768839312287
 20
-115.179360594035
 30
0.0
 10
82.4686957259106
 20
-115.3421413557131
 30
0.0
 10
82.64629039817524
 20
-115.3421413557131
 30
0.0
 10
82.76256237080241
 20
-115.3421413557131
 30
0.0
 10
82.93188881390245
 20
-115.2828857133668
 30
0.0
 10
82.93188881390245
 20
-114.9972872976396
 30
0.0
 10
82.93188881390245
 20
-114.7731838363241
 30
0.0
 10
82.79718558042919
 20
-114.6758598888658
 30
0.0
 10
82.66661646153821
 20
-114.6758598888658
 30
0.0
  0
HATCH
  5
A0
330
98
100
AcDbEntity
  8
_U+30EC_U+30A4_U+30E4_U+30FC 1
 62
     7
420
 16777215
100
AcDbHatch
 10
0.0
 20
0.0
 30
0.0
210
0.0
220
0.0
230
1.0
  2
SOLID
 70
     1
 71
     0
 91
        2
 92
        1
 93
        1
 72
     4
 94
        3
 73
     0
 74
     1
 95
       32
 96
       28
 40
0.0
 40
0.0
 40
0.0
 40
0.0
 40
1.0
 40
1.0
 40
1.0
 40
2.0
 40
2.0
 40
2.0
 40
3.0
 40
3.0
 40
3.0
 40
4.0
 40
4.0
 40
4.0
 40
5.0
 40
5.0
 40
5.0
 40
6.0
 40
6.0
 40
6.0
 40
7.0
 40
7.0
 40
7.0
 40
8.0
 40
8.0
 40
8.0
 40
9.0
 40
9.0
 40
9.0
 40
9.0
 10
82.65025225798327
 20
-115.5347221933386
 10
82.15243596036467
 20
-115.5347221933386
 10
82.14433998597434
 20
-114.9804063297618
 10
82.14433998597434
 20
-114.7668104096764
 10
82.14433998597434
 20
-114.5361612669389
 10
82.16277124682043
 20
-113.8888278252604
 10
82.68694252490118
 20
-113.8888278252604
 10
82.85437416548433
 20
-113.8888278252604
 10
83.09087997054672
 20
-113.9585910088367
 10
83.1277424922389
 20
-114.2908704683891
 10
83.1277424922389
 20
-114.2908704683891
 10
82.9215535274467
 20
-114.2908704683891
 10
82.9215535274467
 20
-114.2908704683891
 10
82.91139049576522
 20
-114.2336818833339
 10
82.88090140072075
 20
-114.0855427774682
 10
82.6850477223843
 20
-114.0855427774682
 10
82.40341116646512
 20
-114.0855427774682
 10
82.36465384225606
 20
-114.413515867664
 10
82.35242375328343
 20
-114.6186713038106
 10
82.44216849067418
 20
-114.5404676362954
 10
82.50745305011966
 20
-114.4812119939491
 10
82.68298066509315
 20
-114.4812119939491
 10
82.85626896800122
 20
-114.4812119939491
 10
83.14806855560188
 20
-114.5890434826375
 10
83.14806855560188
 20
-114.9952202403484
 10
83.14806855560188
 20
-115.3147528466053
 10
82.95634899184772
 20
-115.5347221933386
 10
82.65025225798327
 20
-115.5347221933386
 97
        0
 97
        0
 92
        1
 93
        1
 72
     4
 94
        3
 73
     0
 74
     1
 95
       17
 96
       13
 40
0.0
 40
0.0
 40
0.0
 40
0.0
 40
1.0
 40
1.0
 40
1.0
 40
2.0
 40
2.0
 40
2.0
 40
3.0
 40
3.0
 40
3.0
 40
4.0
 40
4.0
 40
4.0
 40
4.0
 10
82.66661646153821
 20
-114.6758598888658
 10
82.4135741981466
 20
-114.6758598888658
 10
82.3768839312287
 20
-114.8873887516601
 10
82.3768839312287
 20
-115.0036607242873
 10
82.3768839312287
 20
-115.179360594035
 10
82.4686957259106
 20
-115.3421413557131
 10
82.64629039817524
 20
-115.3421413557131
 10
82.76256237080241
 20
-115.3421413557131
 10
82.93188881390245
 20
-115.2828857133668
 10
82.93188881390245
 20
-114.9972872976396
 10
82.93188881390245
 20
-114.7731838363241
 10
82.79718558042919
 20
-114.6758598888658
 10
82.66661646153821
 20
-114.6758598888658
 97
        0
 97
        0
 75
     2
 76
     1
 98
        0
  0
ENDBLK
  5
9B
330
98
100
AcDbEntity
  8
0
100
AcDbBlockEnd
  0
BLOCK
  5
B2
330
B0
100
AcDbEntity
  8
0
100
AcDbBlockBegin
  2
block 6
 70
     0
 10
0.0
 20
0.0
 30
0.0
  3
block 6
  1

  0
SPLINE
  5
B4
330
B0
100
AcDbEntity
  8
_U+30EC_U+30A4_U+30E4_U+30FC 1
370
     0
100
AcDbSpline
210
0.0
220
0.0
230
1.0
 70
    11
 71
     3
 72
    26
 73
    22
 74
     0
 42
0.0000000001
 43
0.0000000001
 12
1.0
 22
0.0
 32
0.0
 13
1.0
 23
0.0
 33
0.0
 40
0.0
 40
0.0
 40
0.0
 40
0.0
 40
1.0
 40
1.0
 40
1.0
 40
2.0
 40
2.0
 40
2.0
 40
3.0
 40
3.0
 40
3.0
 40
4.0
 40
4.0
 40
4.0
 40
5.0
 40
5.0
 40
5.0
 40
6.0
 40
6.0
 40
6.0
 40
7.0
 40
7.0
 40
7.0
 40
7.0
 10
104.5197183983492
 20
-130.6772948892057
 30
0.0
 10
104.5197183983492
 20
-130.6772948892057
 30
0.0
 10
104.5197183983492
 20
-129.5727972766346
 30
0.0
 10
104.5197183983492
 20
-129.5727972766346
 30
0.0
 10
104.5197183983492
 20
-129.5727972766346
 30
0.0
 10
104.2013915755122
 20
-129.5727972766346
 30
0.0
 10
104.2013915755122
 20
-129.5727972766346
 30
0.0
 10
104.2013915755122
 20
-129.5727972766346
 30
0.0
 10
104.2013915755122
 20
-129.4246581707689
 30
0.0
 10
104.2013915755122
 20
-129.4246581707689
 30
0.0
 10
104.5217854556404
 20
-129.4098442601823
 30
0.0
 10
104.5665716969486
 20
-129.2472357532785
 30
0.0
 10
104.5951659894762
 20
-129.1328585831682
 30
0.0
 10
104.5951659894762
 20
-129.1328585831682
 30
0.0
 10
104.7357258852744
 20
-129.1328585831682
 30
0.0
 10
104.7357258852744
 20
-129.1328585831682
 30
0.0
 10
104.7357258852744
 20
-129.1328585831682
 30
0.0
 10
104.7357258852744
 20
-130.6772948892057
 30
0.0
 10
104.7357258852744
 20
-130.6772948892057
 30
0.0
 10
104.7357258852744
 20
-130.6772948892057
 30
0.0
 10
104.5197183983492
 20
-130.6772948892057
 30
0.0
 10
104.5197183983492
 20
-130.6772948892057
 30
0.0
  0
HATCH
  5
B5
330
B0
100
AcDbEntity
  8
_U+30EC_U+30A4_U+30E4_U+30FC 1
 62
     7
420
 16777215
100
AcDbHatch
 10
0.0
 20
0.0
 30
0.0
210
0.0
220
0.0
230
1.0
  2
SOLID
 70
     1
 71
     0
 91
        1
 92
        1
 93
        1
 72
     4
 94
        3
 73
     0
 74
     1
 95
       26
 96
       22
 40
0.0
 40
0.0
 40
0.0
 40
0.0
 40
1.0
 40
1.0
 40
1.0
 40
2.0
 40
2.0
 40
2.0
 40
3.0
 40
3.0
 40
3.0
 40
4.0
 40
4.0
 40
4.0
 40
5.0
 40
5.0
 40
5.0
 40
6.0
 40
6.0
 40
6.0
 40
7.0
 40
7.0
 40
7.0
 40
7.0
 10
104.5197183983492
 20
-130.6772948892057
 10
104.5197183983492
 20
-130.6772948892057
 10
104.5197183983492
 20
-129.5727972766346
 10
104.5197183983492
 20
-129.5727972766346
 10
104.5197183983492
 20
-129.5727972766346
 10
104.2013915755122
 20
-129.5727972766346
 10
104.2013915755122
 20
-129.5727972766346
 10
104.2013915755122
 20
-129.5727972766346
 10
104.2013915755122
 20
-129.4246581707689
 10
104.2013915755122
 20
-129.4246581707689
 10
104.5217854556404
 20
-129.4098442601823
 10
104.5665716969486
 20
-129.2472357532785
 10
104.5951659894762
 20
-129.1328585831682
 10
104.5951659894762
 20
-129.1328585831682
 10
104.7357258852744
 20
-129.1328585831682
 10
104.7357258852744
 20
-129.1328585831682
 10
104.7357258852744
 20
-129.1328585831682
 10
104.7357258852744
 20
-130.6772948892057
 10
104.7357258852744
 20
-130.6772948892057
 10
104.7357258852744
 20
-130.6772948892057
 10
104.5197183983492
 20
-130.6772948892057
 10
104.5197183983492
 20
-130.6772948892057
 97
        0
 97
        0
 75
     2
 76
     1
 98
        0
  0
SPLINE
  5
B6
330
B0
100
AcDbEntity
  8
_U+30EC_U+30A4_U+30E4_U+30FC 1
370
     0
100
AcDbSpline
210
0.0
220
0.0
230
1.0
 70
    11
 71
     3
 72
    29
 73
    25
 74
     0
 42
0.0000000001
 43
0.0000000001
 12
1.0
 22
0.0
 32
0.0
 13
1.0
 23
0.0
 33
0.0
 40
0.0
 40
0.0
 40
0.0
 40
0.0
 40
1.0
 40
1.0
 40
1.0
 40
2.0
 40
2.0
 40
2.0
 40
3.0
 40
3.0
 40
3.0
 40
4.0
 40
4.0
 40
4.0
 40
5.0
 40
5.0
 40
5.0
 40
6.0
 40
6.0
 40
6.0
 40
7.0
 40
7.0
 40
7.0
 40
8.0
 40
8.0
 40
8.0
 40
8.0
 10
106.0834472391041
 20
-130.4995279621668
 30
0.0
 10
105.9794053554496
 20
-130.70898976767
 30
0.0
 10
105.8119737148665
 20
-130.7279377928388
 30
0.0
 10
105.7000081115958
 20
-130.7279377928388
 30
0.0
 10
105.5449788147596
 20
-130.7279377928388
 30
0.0
 10
105.4082085239952
 20
-130.681429003788
 30
0.0
 10
105.316224474539
 20
-130.4995279621668
 30
0.0
 10
105.2163167054668
 20
-130.3048800672502
 30
0.0
 10
105.1980576993949
 20
-130.067857497865
 30
0.0
 10
105.1980576993949
 20
-129.9049044814127
 30
0.0
 10
105.1980576993949
 20
-129.7612439996778
 30
0.0
 10
105.2142496481756
 20
-129.509407519706
 30
0.0
 10
105.316224474539
 20
-129.3106255102071
 30
0.0
 10
105.4202663581935
 20
-129.1073648765773
 30
0.0
 10
105.5756401645783
 20
-129.0842827368262
 30
0.0
 10
105.7000081115958
 20
-129.0842827368262
 30
0.0
 10
105.8529703511409
 20
-129.0842827368262
 30
0.0
 10
105.9918076991965
 20
-129.1287244685859
 30
0.0
 10
106.0834472391041
 20
-129.3106255102071
 30
0.0
 10
106.1792208935941
 20
-129.5032063478325
 30
0.0
 10
106.2019585237967
 20
-129.7316161785046
 30
0.0
 10
106.2019585237967
 20
-129.9049044814127
 30
0.0
 10
106.2019585237967
 20
-130.0764702365781
 30
0.0
 10
106.1812879508852
 20
-130.3069471245413
 30
0.0
 10
106.0834472391041
 20
-130.4995279621668
 30
0.0
  0
SPLINE
  5
B7
330
B0
100
AcDbEntity
  8
_U+30EC_U+30A4_U+30E4_U+30FC 1
370
     0
100
AcDbSpline
210
0.0
220
0.0
230
1.0
 70
    11
 71
     3
 72
    17
 73
    13
 74
     0
 42
0.0000000001
 43
0.0000000001
 12
1.0
 22
0.0
 32
0.0
 13
1.0
 23
0.0
 33
0.0
 40
0.0
 40
0.0
 40
0.0
 40
0.0
 40
1.0
 40
1.0
 40
1.0
 40
2.0
 40
2.0
 40
2.0
 40
3.0
 40
3.0
 40
3.0
 40
4.0
 40
4.0
 40
4.0
 40
4.0
 10
105.7000081115958
 20
-129.2765190649031
 30
0.0
 10
105.4591959371769
 20
-129.2765190649031
 30
0.0
 10
105.4144096958686
 20
-129.5600504233392
 30
0.0
 10
105.4144096958686
 20
-129.9049044814127
 30
0.0
 10
105.4144096958686
 20
-130.2246093424438
 30
0.0
 10
105.4488606507211
 20
-130.5332898979222
 30
0.0
 10
105.7000081115958
 20
-130.5332898979222
 30
0.0
 10
105.9387532287237
 20
-130.5332898979222
 30
0.0
 10
105.985606527323
 20
-130.2518255967773
 30
0.0
 10
105.985606527323
 20
-129.9049044814127
 30
0.0
 10
105.985606527323
 20
-129.58554412993
 30
0.0
 10
105.9487440056309
 20
-129.2765190649031
 30
0.0
 10
105.7000081115958
 20
-129.2765190649031
 30
0.0
  0
HATCH
  5
B8
330
B0
100
AcDbEntity
  8
_U+30EC_U+30A4_U+30E4_U+30FC 1
 62
     7
420
 16777215
100
AcDbHatch
 10
0.0
 20
0.0
 30
0.0
210
0.0
220
0.0
230
1.0
  2
SOLID
 70
     1
 71
     0
 91
        2
 92
        1
 93
        1
 72
     4
 94
        3
 73
     0
 74
     1
 95
       29
 96
       25
 40
0.0
 40
0.0
 40
0.0
 40
0.0
 40
1.0
 40
1.0
 40
1.0
 40
2.0
 40
2.0
 40
2.0
 40
3.0
 40
3.0
 40
3.0
 40
4.0
 40
4.0
 40
4.0
 40
5.0
 40
5.0
 40
5.0
 40
6.0
 40
6.0
 40
6.0
 40
7.0
 40
7.0
 40
7.0
 40
8.0
 40
8.0
 40
8.0
 40
8.0
 10
106.0834472391041
 20
-130.4995279621668
 10
105.9794053554496
 20
-130.70898976767
 10
105.8119737148665
 20
-130.7279377928388
 10
105.7000081115958
 20
-130.7279377928388
 10
105.5449788147596
 20
-130.7279377928388
 10
105.4082085239952
 20
-130.681429003788
 10
105.316224474539
 20
-130.4995279621668
 10
105.2163167054668
 20
-130.3048800672502
 10
105.1980576993949
 20
-130.067857497865
 10
105.1980576993949
 20
-129.9049044814127
 10
105.1980576993949
 20
-129.7612439996778
 10
105.2142496481756
 20
-129.509407519706
 10
105.316224474539
 20
-129.3106255102071
 10
105.4202663581935
 20
-129.1073648765773
 10
105.5756401645783
 20
-129.0842827368262
 10
105.7000081115958
 20
-129.0842827368262
 10
105.8529703511409
 20
-129.0842827368262
 10
105.9918076991965
 20
-129.1287244685859
 10
106.0834472391041
 20
-129.3106255102071
 10
106.1792208935941
 20
-129.5032063478325
 10
106.2019585237967
 20
-129.7316161785046
 10
106.2019585237967
 20
-129.9049044814127
 10
106.2019585237967
 20
-130.0764702365781
 10
106.1812879508852
 20
-130.3069471245413
 10
106.0834472391041
 20
-130.4995279621668
 97
        0
 97
        0
 92
        1
 93
        1
 72
     4
 94
        3
 73
     0
 74
     1
 95
       17
 96
       13
 40
0.0
 40
0.0
 40
0.0
 40
0.0
 40
1.0
 40
1.0
 40
1.0
 40
2.0
 40
2.0
 40
2.0
 40
3.0
 40
3.0
 40
3.0
 40
4.0
 40
4.0
 40
4.0
 40
4.0
 10
105.7000081115958
 20
-129.2765190649031
 10
105.4591959371769
 20
-129.2765190649031
 10
105.4144096958686
 20
-129.5600504233392
 10
105.4144096958686
 20
-129.9049044814127
 10
105.4144096958686
 20
-130.2246093424438
 10
105.4488606507211
 20
-130.5332898979222
 10
105.7000081115958
 20
-130.5332898979222
 10
105.9387532287237
 20
-130.5332898979222
 10
105.985606527323
 20
-130.2518255967773
 10
105.985606527323
 20
-129.9049044814127
 10
105.985606527323
 20
-129.58554412993
 10
105.9487440056309
 20
-129.2765190649031
 10
105.7000081115958
 20
-129.2765190649031
 97
        0
 97
        0
 75
     2
 76
     1
 98
        0
  0
ENDBLK
  5
B3
330
B0
100
AcDbEntity
  8
0
100
AcDbBlockEnd
  0
BLOCK
  5
CC
330
CA
100
AcDbEntity
  8
0
100
AcDbBlockBegin
  2
block 7
 70
     0
 10
0.0
 20
0.0
 30
0.0
  3
block 7
  1

  0
SPLINE
  5
CE
330
CA
100
AcDbEntity
  8
_U+30EC_U+30A4_U+30E4_U+30FC 1
370
     0
100
AcDbSpline
210
0.0
220
0.0
230
1.0
 70
    11
 71
     3
 72
    32
 73
    28
 74
     0
 42
0.0000000001
 43
0.0000000001
 12
1.0
 22
0.0
 32
0.0
 13
1.0
 23
0.0
 33
0.0
 40
0.0
 40
0.0
 40
0.0
 40
0.0
 40
1.0
 40
1.0
 40
1.0
 40
2.0
 40
2.0
 40
2.0
 40
3.0
 40
3.0
 40
3.0
 40
4.0
 40
4.0
 40
4.0
 40
5.0
 40
5.0
 40
5.0
 40
6.0
 40
6.0
 40
6.0
 40
7.0
 40
7.0
 40
7.0
 40
8.0
 40
8.0
 40
8.0
 40
9.0
 40
9.0
 40
9.0
 40
9.0
 10
77.21595863955018
 20
-139.2249212976591
 30
0.0
 10
76.71814234193158
 20
-139.2249212976591
 30
0.0
 10
76.71004636754124
 20
-138.6706054340823
 30
0.0
 10
76.71004636754124
 20
-138.4570095139969
 30
0.0
 10
76.71004636754124
 20
-138.2265326260336
 30
0.0
 10
76.72847762838732
 20
-137.5791991843552
 30
0.0
 10
77.25282116124235
 20
-137.5791991843552
 30
0.0
 10
77.42008054705123
 20
-137.5791991843552
 30
0.0
 10
77.65675860688789
 20
-137.6487901131572
 30
0.0
 10
77.6934488738058
 20
-137.9808973179353
 30
0.0
 10
77.6934488738058
 20
-137.9808973179353
 30
0.0
 10
77.48743216378787
 20
-137.9808973179353
 30
0.0
 10
77.48743216378787
 20
-137.9808973179353
 30
0.0
 10
77.47709687733212
 20
-137.9237087328802
 30
0.0
 10
77.44660778228766
 20
-137.775914136563
 30
0.0
 10
77.25075410395121
 20
-137.775914136563
 30
0.0
 10
76.96911754803203
 20
-137.775914136563
 30
0.0
 10
76.93036022382297
 20
-138.1035427172102
 30
0.0
 10
76.91813013485033
 20
-138.3088704081311
 30
0.0
 10
77.00787487224109
 20
-138.230666740616
 30
0.0
 10
77.07315943168658
 20
-138.1714110982697
 30
0.0
 10
77.24868704666005
 20
-138.1714110982697
 30
0.0
 10
77.42214760434238
 20
-138.1714110982697
 30
0.0
 10
77.71377493716878
 20
-138.279242586958
 30
0.0
 10
77.71377493716878
 20
-138.6854193446689
 30
0.0
 10
77.71377493716878
 20
-139.0047796961516
 30
0.0
 10
77.52205537341463
 20
-139.2249212976591
 30
0.0
 10
77.21595863955018
 20
-139.2249212976591
 30
0.0
  0
SPLINE
  5
CF
330
CA
100
AcDbEntity
  8
_U+30EC_U+30A4_U+30E4_U+30FC 1
370
     0
100
AcDbSpline
210
0.0
220
0.0
230
1.0
 70
    11
 71
     3
 72
    17
 73
    13
 74
     0
 42
0.0000000001
 43
0.0000000001
 12
1.0
 22
0.0
 32
0.0
 13
1.0
 23
0.0
 33
0.0
 40
0.0
 40
0.0
 40
0.0
 40
0.0
 40
1.0
 40
1.0
 40
1.0
 40
2.0
 40
2.0
 40
2.0
 40
3.0
 40
3.0
 40
3.0
 40
4.0
 40
4.0
 40
4.0
 40
4.0
 10
77.23232284310512
 20
-138.3660589931863
 30
0.0
 10
76.97928057971352
 20
-138.3660589931863
 30
0.0
 10
76.9425903127956
 20
-138.5775878559806
 30
0.0
 10
76.9425903127956
 20
-138.694032083382
 30
0.0
 10
76.9425903127956
 20
-138.8693874435813
 30
0.0
 10
77.03440210747752
 20
-139.0323404600336
 30
0.0
 10
77.21199677974214
 20
-139.0323404600336
 30
0.0
 10
77.32826875236933
 20
-139.0323404600336
 30
0.0
 10
77.49759519546936
 20
-138.9730848176873
 30
0.0
 10
77.49759519546936
 20
-138.6874864019601
 30
0.0
 10
77.49759519546936
 20
-138.4632106858703
 30
0.0
 10
77.36289196199608
 20
-138.3660589931863
 30
0.0
 10
77.23232284310512
 20
-138.3660589931863
 30
0.0
  0
HATCH
  5
D0
330
CA
100
AcDbEntity
  8
_U+30EC_U+30A4_U+30E4_U+30FC 1
 62
     7
420
 16777215
100
AcDbHatch
 10
0.0
 20
0.0
 30
0.0
210
0.0
220
0.0
230
1.0
  2
SOLID
 70
     1
 71
     0
 91
        2
 92
        1
 93
        1
 72
     4
 94
        3
 73
     0
 74
     1
 95
       32
 96
       28
 40
0.0
 40
0.0
 40
0.0
 40
0.0
 40
1.0
 40
1.0
 40
1.0
 40
2.0
 40
2.0
 40
2.0
 40
3.0
 40
3.0
 40
3.0
 40
4.0
 40
4.0
 40
4.0
 40
5.0
 40
5.0
 40
5.0
 40
6.0
 40
6.0
 40
6.0
 40
7.0
 40
7.0
 40
7.0
 40
8.0
 40
8.0
 40
8.0
 40
9.0
 40
9.0
 40
9.0
 40
9.0
 10
77.21595863955018
 20
-139.2249212976591
 10
76.71814234193158
 20
-139.2249212976591
 10
76.71004636754124
 20
-138.6706054340823
 10
76.71004636754124
 20
-138.4570095139969
 10
76.71004636754124
 20
-138.2265326260336
 10
76.72847762838732
 20
-137.5791991843552
 10
77.25282116124235
 20
-137.5791991843552
 10
77.42008054705123
 20
-137.5791991843552
 10
77.65675860688789
 20
-137.6487901131572
 10
77.6934488738058
 20
-137.9808973179353
 10
77.6934488738058
 20
-137.9808973179353
 10
77.48743216378787
 20
-137.9808973179353
 10
77.48743216378787
 20
-137.9808973179353
 10
77.47709687733212
 20
-137.9237087328802
 10
77.44660778228766
 20
-137.775914136563
 10
77.25075410395121
 20
-137.775914136563
 10
76.96911754803203
 20
-137.775914136563
 10
76.93036022382297
 20
-138.1035427172102
 10
76.91813013485033
 20
-138.3088704081311
 10
77.00787487224109
 20
-138.230666740616
 10
77.07315943168658
 20
-138.1714110982697
 10
77.24868704666005
 20
-138.1714110982697
 10
77.42214760434238
 20
-138.1714110982697
 10
77.71377493716878
 20
-138.279242586958
 10
77.71377493716878
 20
-138.6854193446689
 10
77.71377493716878
 20
-139.0047796961516
 10
77.52205537341463
 20
-139.2249212976591
 10
77.21595863955018
 20
-139.2249212976591
 97
        0
 97
        0
 92
        1
 93
        1
 72
     4
 94
        3
 73
     0
 74
     1
 95
       17
 96
       13
 40
0.0
 40
0.0
 40
0.0
 40
0.0
 40
1.0
 40
1.0
 40
1.0
 40
2.0
 40
2.0
 40
2.0
 40
3.0
 40
3.0
 40
3.0
 40
4.0
 40
4.0
 40
4.0
 40
4.0
 10
77.23232284310512
 20
-138.3660589931863
 10
76.97928057971352
 20
-138.3660589931863
 10
76.9425903127956
 20
-138.5775878559806
 10
76.9425903127956
 20
-138.694032083382
 10
76.9425903127956
 20
-138.8693874435813
 10
77.03440210747752
 20
-139.0323404600336
 10
77.21199677974214
 20
-139.0323404600336
 10
77.32826875236933
 20
-139.0323404600336
 10
77.49759519546936
 20
-138.9730848176873
 10
77.49759519546936
 20
-138.6874864019601
 10
77.49759519546936
 20
-138.4632106858703
 10
77.36289196199608
 20
-138.3660589931863
 10
77.23232284310512
 20
-138.3660589931863
 97
        0
 97
        0
 75
     2
 76
     1
 98
        0
  0
ENDBLK
  5
CD
330
CA
100
AcDbEntity
  8
0
100
AcDbBlockEnd
  0
BLOCK
  5
DC
330
DA
100
AcDbEntity
  8
0
100
AcDbBlockBegin
  2
block 8
 70
     0
 10
0.0
 20
0.0
 30
0.0
  3
block 8
  1

  0
SPLINE
  5
DE
330
DA
100
AcDbEntity
  8
_U+30EC_U+30A4_U+30E4_U+30FC 1
370
     0
100
AcDbSpline
210
0.0
220
0.0
230
1.0
 70
    11
 71
     3
 72
    62
 73
    58
 74
     0
 42
0.0000000001
 43
0.0000000001
 12
1.0
 22
0.0
 32
0.0
 13
1.0
 23
0.0
 33
0.0
 40
0.0
 40
0.0
 40
0.0
 40
0.0
 40
1.0
 40
1.0
 40
1.0
 40
2.0
 40
2.0
 40
2.0
 40
3.0
 40
3.0
 40
3.0
 40
4.0
 40
4.0
 40
4.0
 40
5.0
 40
5.0
 40
5.0
 40
6.0
 40
6.0
 40
6.0
 40
7.0
 40
7.0
 40
7.0
 40
8.0
 40
8.0
 40
8.0
 40
9.0
 40
9.0
 40
9.0
 40
10.0
 40
10.0
 40
10.0
 40
11.0
 40
11.0
 40
11.0
 40
12.0
 40
12.0
 40
12.0
 40
13.0
 40
13.0
 40
13.0
 40
14.0
 40
14.0
 40
14.0
 40
15.0
 40
15.0
 40
15.0
 40
16.0
 40
16.0
 40
16.0
 40
17.0
 40
17.0
 40
17.0
 40
18.0
 40
18.0
 40
18.0
 40
19.0
 40
19.0
 40
19.0
 40
19.0
 10
91.637128340806
 20
-143.2246771560341
 30
0.0
 10
91.54514429134983
 20
-143.2246771560341
 30
0.0
 10
91.3349934667496
 20
-143.2036620735741
 30
0.0
 10
91.21475963431438
 20
-143.0172824078221
 30
0.0
 10
91.14327390299543
 20
-142.9053168045515
 30
0.0
 10
91.1393120431874
 20
-142.8057535450277
 30
0.0
 10
91.1351779286051
 20
-142.7213487056391
 30
0.0
 10
91.1351779286051
 20
-142.7213487056391
 30
0.0
 10
91.3473958104965
 20
-142.7213487056391
 30
0.0
 10
91.3473958104965
 20
-142.7213487056391
 30
0.0
 10
91.34929061301338
 20
-142.7950737490235
 30
0.0
 10
91.35962589946912
 20
-143.0300292611175
 30
0.0
 10
91.6329942262237
 20
-143.0300292611175
 30
0.0
 10
91.76563040240582
 20
-143.0300292611175
 30
0.0
 10
91.91239147007747
 20
-142.9600938227669
 30
0.0
 10
91.91239147007747
 20
-142.7316839920949
 30
0.0
 10
91.91239147007747
 20
-142.6152397646934
 30
0.0
 10
91.8758734579338
 20
-142.5666639183514
 30
0.0
 10
91.84521210811509
 20
-142.5349690398871
 30
0.0
 10
91.77355412202189
 20
-142.4608994869542
 30
0.0
 10
91.66158851875127
 20
-142.4481526336588
 30
0.0
 10
91.60853404827843
 20
-142.4481526336588
 30
0.0
 10
91.58993053265807
 20
-142.4481526336588
 30
0.0
 10
91.55547957780558
 20
-142.4505642004985
 30
0.0
 10
91.52895234256916
 20
-142.4546983150808
 30
0.0
 10
91.52895234256916
 20
-142.4546983150808
 30
0.0
 10
91.52895234256916
 20
-142.2600504201642
 30
0.0
 10
91.52895234256916
 20
-142.2600504201642
 30
0.0
 10
91.5654703547128
 20
-142.2662515920376
 30
0.0
 10
91.60646699098727
 20
-142.2683186493288
 30
0.0
 10
91.61266816286073
 20
-142.2683186493288
 30
0.0
 10
91.6757134102408
 20
-142.2683186493288
 30
0.0
 10
91.86760522876921
 20
-142.2473035668687
 30
0.0
 10
91.86760522876921
 20
-142.0102809974835
 30
0.0
 10
91.86760522876921
 20
-141.8325140704447
 30
0.0
 10
91.74117022446055
 20
-141.7777370522292
 30
0.0
 10
91.63506128351484
 20
-141.7777370522292
 30
0.0
 10
91.38012421760637
 20
-141.7777370522292
 30
0.0
 10
91.37185598844177
 20
-142.0102809974835
 30
0.0
 10
91.36772187385947
 20
-142.0822834931253
 30
0.0
 10
91.36772187385947
 20
-142.0822834931253
 30
0.0
 10
91.171868195523
 20
-142.0822834931253
 30
0.0
 10
91.171868195523
 20
-142.0822834931253
 30
0.0
 10
91.17996416991335
 20
-141.9575710365592
 30
0.0
 10
91.20649140514978
 20
-141.5810221000214
 30
0.0
 10
91.64711911771323
 20
-141.5810221000214
 30
0.0
 10
91.86347111418691
 20
-141.5810221000214
 30
0.0
 10
92.09601505944129
 20
-141.7078016138786
 30
0.0
 10
92.09601505944129
 20
-142.0040798256101
 30
0.0
 10
92.09601505944129
 20
-142.1901149818136
 30
0.0
 10
92.00437551953364
 20
-142.2727972734596
 30
0.0
 10
91.90825735549517
 20
-142.334119973097
 30
0.0
 10
91.96751299784145
 20
-142.361680736979
 30
0.0
 10
92.14286835804067
 20
-142.4419514617854
 30
0.0
 10
92.14286835804067
 20
-142.7189371387994
 30
0.0
 10
92.14286835804067
 20
-143.0575900249995
 30
0.0
 10
91.90412324091287
 20
-143.2246771560341
 30
0.0
 10
91.637128340806
 20
-143.2246771560341
 30
0.0
  0
HATCH
  5
DF
330
DA
100
AcDbEntity
  8
_U+30EC_U+30A4_U+30E4_U+30FC 1
 62
     7
420
 16777215
100
AcDbHatch
 10
0.0
 20
0.0
 30
0.0
210
0.0
220
0.0
230
1.0
  2
SOLID
 70
     1
 71
     0
 91
        1
 92
        1
 93
        1
 72
     4
 94
        3
 73
     0
 74
     1
 95
       62
 96
       58
 40
0.0
 40
0.0
 40
0.0
 40
0.0
 40
1.0
 40
1.0
 40
1.0
 40
2.0
 40
2.0
 40
2.0
 40
3.0
 40
3.0
 40
3.0
 40
4.0
 40
4.0
 40
4.0
 40
5.0
 40
5.0
 40
5.0
 40
6.0
 40
6.0
 40
6.0
 40
7.0
 40
7.0
 40
7.0
 40
8.0
 40
8.0
 40
8.0
 40
9.0
 40
9.0
 40
9.0
 40
10.0
 40
10.0
 40
10.0
 40
11.0
 40
11.0
 40
11.0
 40
12.0
 40
12.0
 40
12.0
 40
13.0
 40
13.0
 40
13.0
 40
14.0
 40
14.0
 40
14.0
 40
15.0
 40
15.0
 40
15.0
 40
16.0
 40
16.0
 40
16.0
 40
17.0
 40
17.0
 40
17.0
 40
18.0
 40
18.0
 40
18.0
 40
19.0
 40
19.0
 40
19.0
 40
19.0
 10
91.637128340806
 20
-143.2246771560341
 10
91.54514429134983
 20
-143.2246771560341
 10
91.3349934667496
 20
-143.2036620735741
 10
91.21475963431438
 20
-143.0172824078221
 10
91.14327390299543
 20
-142.9053168045515
 10
91.1393120431874
 20
-142.8057535450277
 10
91.1351779286051
 20
-142.7213487056391
 10
91.1351779286051
 20
-142.7213487056391
 10
91.3473958104965
 20
-142.7213487056391
 10
91.3473958104965
 20
-142.7213487056391
 10
91.34929061301338
 20
-142.7950737490235
 10
91.35962589946912
 20
-143.0300292611175
 10
91.6329942262237
 20
-143.0300292611175
 10
91.76563040240582
 20
-143.0300292611175
 10
91.91239147007747
 20
-142.9600938227669
 10
91.91239147007747
 20
-142.7316839920949
 10
91.91239147007747
 20
-142.6152397646934
 10
91.8758734579338
 20
-142.5666639183514
 10
91.84521210811509
 20
-142.5349690398871
 10
91.77355412202189
 20
-142.4608994869542
 10
91.66158851875127
 20
-142.4481526336588
 10
91.60853404827843
 20
-142.4481526336588
 10
91.58993053265807
 20
-142.4481526336588
 10
91.55547957780558
 20
-142.4505642004985
 10
91.52895234256916
 20
-142.4546983150808
 10
91.52895234256916
 20
-142.4546983150808
 10
91.52895234256916
 20
-142.2600504201642
 10
91.52895234256916
 20
-142.2600504201642
 10
91.5654703547128
 20
-142.2662515920376
 10
91.60646699098727
 20
-142.2683186493288
 10
91.61266816286073
 20
-142.2683186493288
 10
91.6757134102408
 20
-142.2683186493288
 10
91.86760522876921
 20
-142.2473035668687
 10
91.86760522876921
 20
-142.0102809974835
 10
91.86760522876921
 20
-141.8325140704447
 10
91.74117022446055
 20
-141.7777370522292
 10
91.63506128351484
 20
-141.7777370522292
 10
91.38012421760637
 20
-141.7777370522292
 10
91.37185598844177
 20
-142.0102809974835
 10
91.36772187385947
 20
-142.0822834931253
 10
91.36772187385947
 20
-142.0822834931253
 10
91.171868195523
 20
-142.0822834931253
 10
91.171868195523
 20
-142.0822834931253
 10
91.17996416991335
 20
-141.9575710365592
 10
91.20649140514978
 20
-141.5810221000214
 10
91.64711911771323
 20
-141.5810221000214
 10
91.86347111418691
 20
-141.5810221000214
 10
92.09601505944129
 20
-141.7078016138786
 10
92.09601505944129
 20
-142.0040798256101
 10
92.09601505944129
 20
-142.1901149818136
 10
92.00437551953364
 20
-142.2727972734596
 10
91.90825735549517
 20
-142.334119973097
 10
91.96751299784145
 20
-142.361680736979
 10
92.14286835804067
 20
-142.4419514617854
 10
92.14286835804067
 20
-142.7189371387994
 10
92.14286835804067
 20
-143.0575900249995
 10
91.90412324091287
 20
-143.2246771560341
 10
91.637128340806
 20
-143.2246771560341
 97
        0
 97
        0
 75
     2
 76
     1
 98
        0
  0
SPLINE
  5
E0
330
DA
100
AcDbEntity
  8
_U+30EC_U+30A4_U+30E4_U+30FC 1
370
     0
100
AcDbSpline
210
0.0
220
0.0
230
1.0
 70
    11
 71
     3
 72
    32
 73
    28
 74
     0
 42
0.0000000001
 43
0.0000000001
 12
1.0
 22
0.0
 32
0.0
 13
1.0
 23
0.0
 33
0.0
 40
0.0
 40
0.0
 40
0.0
 40
0.0
 40
1.0
 40
1.0
 40
1.0
 40
2.0
 40
2.0
 40
2.0
 40
3.0
 40
3.0
 40
3.0
 40
4.0
 40
4.0
 40
4.0
 40
5.0
 40
5.0
 40
5.0
 40
6.0
 40
6.0
 40
6.0
 40
7.0
 40
7.0
 40
7.0
 40
8.0
 40
8.0
 40
8.0
 40
9.0
 40
9.0
 40
9.0
 40
9.0
 10
92.78262258965157
 20
-143.2246771560341
 30
0.0
 10
92.28480629203297
 20
-143.2246771560341
 30
0.0
 10
92.2768825724169
 20
-142.6703612924574
 30
0.0
 10
92.2768825724169
 20
-142.4567653723719
 30
0.0
 10
92.2768825724169
 20
-142.2262884844087
 30
0.0
 10
92.29514157848872
 20
-141.5789550427303
 30
0.0
 10
92.81948511134374
 20
-141.5789550427303
 30
0.0
 10
92.98657224237836
 20
-141.5789550427303
 30
0.0
 10
93.22325030221502
 20
-141.6485459715323
 30
0.0
 10
93.26011282390719
 20
-141.9806531763104
 30
0.0
 10
93.26011282390719
 20
-141.9806531763104
 30
0.0
 10
93.05409611388926
 20
-141.9806531763104
 30
0.0
 10
93.05409611388926
 20
-141.9806531763104
 30
0.0
 10
93.0437608274335
 20
-141.9234645912553
 30
0.0
 10
93.01309947761479
 20
-141.775669994938
 30
0.0
 10
92.8174180540526
 20
-141.775669994938
 30
0.0
 10
92.53595375290769
 20
-141.775669994938
 30
0.0
 10
92.49702417392436
 20
-142.1032985755853
 30
0.0
 10
92.48496633972599
 20
-142.3086262665062
 30
0.0
 10
92.57453882234248
 20
-142.230422598991
 30
0.0
 10
92.63999563656223
 20
-142.1711669566447
 30
0.0
 10
92.81535099676144
 20
-142.1711669566447
 30
0.0
 10
92.98863929966952
 20
-142.1711669566447
 30
0.0
 10
93.28043888727018
 20
-142.278998445333
 30
0.0
 10
93.28043888727018
 20
-142.685175203044
 30
0.0
 10
93.28043888727018
 20
-143.0045355545267
 30
0.0
 10
93.08854706874176
 20
-143.2246771560341
 30
0.0
 10
92.78262258965157
 20
-143.2246771560341
 30
0.0
  0
SPLINE
  5
E1
330
DA
100
AcDbEntity
  8
_U+30EC_U+30A4_U+30E4_U+30FC 1
370
     0
100
AcDbSpline
210
0.0
220
0.0
230
1.0
 70
    11
 71
     3
 72
    17
 73
    13
 74
     0
 42
0.0000000001
 43
0.0000000001
 12
1.0
 22
0.0
 32
0.0
 13
1.0
 23
0.0
 33
0.0
 40
0.0
 40
0.0
 40
0.0
 40
0.0
 40
1.0
 40
1.0
 40
1.0
 40
2.0
 40
2.0
 40
2.0
 40
3.0
 40
3.0
 40
3.0
 40
4.0
 40
4.0
 40
4.0
 40
4.0
 10
92.79915904798077
 20
-142.3658148515613
 30
0.0
 10
92.5459445298149
 20
-142.3658148515613
 30
0.0
 10
92.50942651767126
 20
-142.5773437143557
 30
0.0
 10
92.50942651767126
 20
-142.6937879417571
 30
0.0
 10
92.50942651767126
 20
-142.8691433019563
 30
0.0
 10
92.6010660575789
 20
-143.0320963184087
 30
0.0
 10
92.77848847506927
 20
-143.0320963184087
 30
0.0
 10
92.89493270247071
 20
-143.0320963184087
 30
0.0
 10
93.06408689079649
 20
-142.9728406760624
 30
0.0
 10
93.06408689079649
 20
-142.6872422603352
 30
0.0
 10
93.06408689079649
 20
-142.4629665442454
 30
0.0
 10
92.92938365732321
 20
-142.3658148515613
 30
0.0
 10
92.79915904798077
 20
-142.3658148515613
 30
0.0
  0
HATCH
  5
E2
330
DA
100
AcDbEntity
  8
_U+30EC_U+30A4_U+30E4_U+30FC 1
 62
     7
420
 16777215
100
AcDbHatch
 10
0.0
 20
0.0
 30
0.0
210
0.0
220
0.0
230
1.0
  2
SOLID
 70
     1
 71
     0
 91
        2
 92
        1
 93
        1
 72
     4
 94
        3
 73
     0
 74
     1
 95
       32
 96
       28
 40
0.0
 40
0.0
 40
0.0
 40
0.0
 40
1.0
 40
1.0
 40
1.0
 40
2.0
 40
2.0
 40
2.0
 40
3.0
 40
3.0
 40
3.0
 40
4.0
 40
4.0
 40
4.0
 40
5.0
 40
5.0
 40
5.0
 40
6.0
 40
6.0
 40
6.0
 40
7.0
 40
7.0
 40
7.0
 40
8.0
 40
8.0
 40
8.0
 40
9.0
 40
9.0
 40
9.0
 40
9.0
 10
92.78262258965157
 20
-143.2246771560341
 10
92.28480629203297
 20
-143.2246771560341
 10
92.2768825724169
 20
-142.6703612924574
 10
92.2768825724169
 20
-142.4567653723719
 10
92.2768825724169
 20
-142.2262884844087
 10
92.29514157848872
 20
-141.5789550427303
 10
92.81948511134374
 20
-141.5789550427303
 10
92.98657224237836
 20
-141.5789550427303
 10
93.22325030221502
 20
-141.6485459715323
 10
93.26011282390719
 20
-141.9806531763104
 10
93.26011282390719
 20
-141.9806531763104
 10
93.05409611388926
 20
-141.9806531763104
 10
93.05409611388926
 20
-141.9806531763104
 10
93.0437608274335
 20
-141.9234645912553
 10
93.01309947761479
 20
-141.775669994938
 10
92.8174180540526
 20
-141.775669994938
 10
92.53595375290769
 20
-141.775669994938
 10
92.49702417392436
 20
-142.1032985755853
 10
92.48496633972599
 20
-142.3086262665062
 10
92.57453882234248
 20
-142.230422598991
 10
92.63999563656223
 20
-142.1711669566447
 10
92.81535099676144
 20
-142.1711669566447
 10
92.98863929966952
 20
-142.1711669566447
 10
93.28043888727018
 20
-142.278998445333
 10
93.28043888727018
 20
-142.685175203044
 10
93.28043888727018
 20
-143.0045355545267
 10
93.08854706874176
 20
-143.2246771560341
 10
92.78262258965157
 20
-143.2246771560341
 97
        0
 97
        0
 92
        1
 93
        1
 72
     4
 94
        3
 73
     0
 74
     1
 95
       17
 96
       13
 40
0.0
 40
0.0
 40
0.0
 40
0.0
 40
1.0
 40
1.0
 40
1.0
 40
2.0
 40
2.0
 40
2.0
 40
3.0
 40
3.0
 40
3.0
 40
4.0
 40
4.0
 40
4.0
 40
4.0
 10
92.79915904798077
 20
-142.3658148515613
 10
92.5459445298149
 20
-142.3658148515613
 10
92.50942651767126
 20
-142.5773437143557
 10
92.50942651767126
 20
-142.6937879417571
 10
92.50942651767126
 20
-142.8691433019563
 10
92.6010660575789
 20
-143.0320963184087
 10
92.77848847506927
 20
-143.0320963184087
 10
92.89493270247071
 20
-143.0320963184087
 10
93.06408689079649
 20
-142.9728406760624
 10
93.06408689079649
 20
-142.6872422603352
 10
93.06408689079649
 20
-142.4629665442454
 10
92.92938365732321
 20
-142.3658148515613
 10
92.79915904798077
 20
-142.3658148515613
 97
        0
 97
        0
 75
     2
 76
     1
 98
        0
  0
ENDBLK
  5
DD
330
DA
100
AcDbEntity
  8
0
100
AcDbBlockEnd
  0
ENDSEC
  0
SECTION
  2
ENTITIES
  0
SPLINE
  5
41
330
1F
100
AcDbEntity
  8
_U+30EC_U+30A4_U+30E4_U+30FC 1
370
     0
100
AcDbSpline
210
0.0
220
0.0
230
1.0
 70
    11
 71
     3
 72
    95
 73
    91
 74
     0
 42
0.0000000001
 43
0.0000000001
 12
1.0
 22
0.0
 32
0.0
 13
1.0
 23
0.0
 33
0.0
 40
0.0
 40
0.0
 40
0.0
 40
0.0
 40
1.0
 40
1.0
 40
1.0
 40
2.0
 40
2.0
 40
2.0
 40
3.0
 40
3.0
 40
3.0
 40
4.0
 40
4.0
 40
4.0
 40
5.0
 40
5.0
 40
5.0
 40
6.0
 40
6.0
 40
6.0
 40
7.0
 40
7.0
 40
7.0
 40
8.0
 40
8.0
 40
8.0
 40
9.0
 40
9.0
 40
9.0
 40
10.0
 40
10.0
 40
10.0
 40
11.0
 40
11.0
 40
11.0
 40
12.0
 40
12.0
 40
12.0
 40
13.0
 40
13.0
 40
13.0
 40
14.0
 40
14.0
 40
14.0
 40
15.0
 40
15.0
 40
15.0
 40
16.0
 40
16.0
 40
16.0
 40
17.0
 40
17.0
 40
17.0
 40
18.0
 40
18.0
 40
18.0
 40
19.0
 40
19.0
 40
19.0
 40
20.0
 40
20.0
 40
20.0
 40
21.0
 40
21.0
 40
21.0
 40
22.0
 40
22.0
 40
22.0
 40
23.0
 40
23.0
 40
23.0
 40
24.0
 40
24.0
 40
24.0
 40
25.0
 40
25.0
 40
25.0
 40
26.0
 40
26.0
 40
26.0
 40
27.0
 40
27.0
 40
27.0
 40
28.0
 40
28.0
 40
28.0
 40
29.0
 40
29.0
 40
29.0
 40
30.0
 40
30.0
 40
30.0
 40
30.0
 10
99.55497996014087
 20
-134.3463149664131
 30
0.0
 10
99.55497996014087
 20
-134.3463149664131
 30
0.0
 10
99.72586551133676
 20
-134.6839585774403
 30
0.0
 10
99.72586551133676
 20
-134.6839585774403
 30
0.0
 10
99.72586551133676
 20
-134.6839585774403
 30
0.0
 10
100.7442290964673
 20
-134.6839585774403
 30
0.0
 10
100.7442290964673
 20
-134.6839585774403
 30
0.0
 10
100.7442290964673
 20
-134.6839585774403
 30
0.0
 10
100.9096138636614
 20
-134.3463149664131
 30
0.0
 10
100.9096138636614
 20
-134.3463149664131
 30
0.0
 10
100.9096138636614
 20
-134.3463149664131
 30
0.0
 10
101.2485954724887
 20
-134.1771580220112
 30
0.0
 10
101.2485954724887
 20
-134.1771580220112
 30
0.0
 10
101.2485954724887
 20
-134.1771580220112
 30
0.0
 10
101.5869093527465
 20
-134.3463149664131
 30
0.0
 10
101.5869093527465
 20
-134.3463149664131
 30
0.0
 10
101.5869093527465
 20
-134.3463149664131
 30
0.0
 10
101.7632982371353
 20
-134.6839585774403
 30
0.0
 10
101.7632982371353
 20
-134.6839585774403
 30
0.0
 10
101.7632982371353
 20
-134.6839585774403
 30
0.0
 10
110.2230855213081
 20
-134.6839585774403
 30
0.0
 10
110.2230855213081
 20
-134.6839585774403
 30
0.0
 10
110.2230855213081
 20
-134.6839585774403
 30
0.0
 10
110.2230855213081
 20
-135.7009463549636
 30
0.0
 10
110.2230855213081
 20
-135.7009463549636
 30
0.0
 10
110.2230855213081
 20
-135.7009463549636
 30
0.0
 10
80.25073350818877
 20
-135.7009463549636
 30
0.0
 10
80.25073350818877
 20
-135.7009463549636
 30
0.0
 10
80.25073350818877
 20
-135.7009463549636
 30
0.0
 10
80.25073350818877
 20
-135.1931227439794
 30
0.0
 10
80.25073350818877
 20
-135.1931227439794
 30
0.0
 10
80.25073350818877
 20
-135.1931227439794
 30
0.0
 10
74.93977003257163
 20
-135.5644919105532
 30
0.0
 10
74.93977003257163
 20
-135.5644919105532
 30
0.0
 10
74.6345467070252
 20
-135.5644919105532
 30
0.0
 10
74.38650865779762
 20
-135.317159410615
 30
0.0
 10
74.38650865779762
 20
-135.011230521803
 30
0.0
 10
74.38650865779762
 20
-135.011230521803
 30
0.0
 10
74.38650865779762
 20
-120.3430480254698
 30
0.0
 10
74.38650865779762
 20
-120.3430480254698
 30
0.0
 10
74.38650865779762
 20
-120.0371191366575
 30
0.0
 10
74.6345467070252
 20
-119.7890810811637
 30
0.0
 10
74.93977003257163
 20
-119.7890810811637
 30
0.0
 10
74.93977003257163
 20
-119.7890810811637
 30
0.0
 10
89.56491327056425
 20
-119.7890810811637
 30
0.0
 10
89.56491327056425
 20
-119.7890810811637
 30
0.0
 10
89.87084442197688
 20
-119.7890810811637
 30
0.0
 10
90.11817464533827
 20
-120.0371191366575
 30
0.0
 10
90.11817464533827
 20
-120.3430480254698
 30
0.0
 10
90.11817464533827
 20
-120.3430480254698
 30
0.0
 10
89.81362159755251
 20
-125.6860438574675
 30
0.0
 10
89.81362159755251
 20
-125.6860438574675
 30
0.0
 10
89.81362159755251
 20
-125.6860438574675
 30
0.0
 10
88.37908607859501
 20
-125.6860438574675
 30
0.0
 10
88.37908607859501
 20
-125.6860438574675
 30
0.0
 10
88.37908607859501
 20
-125.6860438574675
 30
0.0
 10
88.62920551665837
 20
-121.9601813583988
 30
0.0
 10
88.62920551665837
 20
-121.9601813583988
 30
0.0
 10
88.64437496071581
 20
-121.4902460807386
 30
0.0
 10
88.21098747177244
 20
-121.2229110808053
 30
0.0
 10
87.95621136716122
 20
-121.2229110808053
 30
0.0
 10
87.95621136716122
 20
-121.2229110808053
 30
0.0
 10
76.28131333167934
 20
-121.2229110808053
 30
0.0
 10
76.28131333167934
 20
-121.2229110808053
 30
0.0
 10
76.02636083818372
 20
-121.2229110808053
 30
0.0
 10
75.8194919545725
 20
-121.428933302976
 30
0.0
 10
75.8194919545725
 20
-121.6838858029123
 30
0.0
 10
75.8194919545725
 20
-121.6838858029123
 30
0.0
 10
75.8194919545725
 20
-133.4995071888475
 30
0.0
 10
75.8194919545725
 20
-133.4995071888475
 30
0.0
 10
75.8194919545725
 20
-133.7534366332281
 30
0.0
 10
75.9180227853921
 20
-134.0896691331443
 30
0.0
 10
76.31316916419996
 20
-134.0844832998123
 30
0.0
 10
76.80480026276852
 20
-134.0772513553695
 30
0.0
 10
80.16684295477344
 20
-133.838526633207
 30
0.0
 10
80.16684295477344
 20
-133.838526633207
 30
0.0
 10
80.16684295477344
 20
-133.838526633207
 30
0.0
 10
89.11360467096698
 20
-134.6839585774403
 30
0.0
 10
89.11360467096698
 20
-134.6839585774403
 30
0.0
 10
89.11360467096698
 20
-134.6839585774403
 30
0.0
 10
98.71921664198713
 20
-134.6839585774403
 30
0.0
 10
98.71921664198713
 20
-134.6839585774403
 30
0.0
 10
98.71921664198713
 20
-134.6839585774403
 30
0.0
 10
98.87768192186462
 20
-134.3463149664131
 30
0.0
 10
98.87768192186462
 20
-134.3463149664131
 30
0.0
 10
98.87768192186462
 20
-134.3463149664131
 30
0.0
 10
99.21666607988308
 20
-134.1771580220112
 30
0.0
 10
99.21666607988308
 20
-134.1771580220112
 30
0.0
 10
99.21666607988308
 20
-134.1771580220112
 30
0.0
 10
99.55497996014087
 20
-134.3463149664131
 30
0.0
 10
99.55497996014087
 20
-134.3463149664131
 30
0.0
  0
SPLINE
  5
42
330
1F
100
AcDbEntity
  8
_U+30EC_U+30A4_U+30E4_U+30FC 1
 62
     7
420
 16777215
370
     9
100
AcDbSpline
210
0.0
220
0.0
230
1.0
 70
    11
 71
     3
 72
    95
 73
    91
 74
     0
 42
0.0000000001
 43
0.0000000001
 12
1.0
 22
0.0
 32
0.0
 13
1.0
 23
0.0
 33
0.0
 40
0.0
 40
0.0
 40
0.0
 40
0.0
 40
1.0
 40
1.0
 40
1.0
 40
2.0
 40
2.0
 40
2.0
 40
3.0
 40
3.0
 40
3.0
 40
4.0
 40
4.0
 40
4.0
 40
5.0
 40
5.0
 40
5.0
 40
6.0
 40
6.0
 40
6.0
 40
7.0
 40
7.0
 40
7.0
 40
8.0
 40
8.0
 40
8.0
 40
9.0
 40
9.0
 40
9.0
 40
10.0
 40
10.0
 40
10.0
 40
11.0
 40
11.0
 40
11.0
 40
12.0
 40
12.0
 40
12.0
 40
13.0
 40
13.0
 40
13.0
 40
14.0
 40
14.0
 40
14.0
 40
15.0
 40
15.0
 40
15.0
 40
16.0
 40
16.0
 40
16.0
 40
17.0
 40
17.0
 40
17.0
 40
18.0
 40
18.0
 40
18.0
 40
19.0
 40
19.0
 40
19.0
 40
20.0
 40
20.0
 40
20.0
 40
21.0
 40
21.0
 40
21.0
 40
22.0
 40
22.0
 40
22.0
 40
23.0
 40
23.0
 40
23.0
 40
24.0
 40
24.0
 40
24.0
 40
25.0
 40
25.0
 40
25.0
 40
26.0
 40
26.0
 40
26.0
 40
27.0
 40
27.0
 40
27.0
 40
28.0
 40
28.0
 40
28.0
 40
29.0
 40
29.0
 40
29.0
 40
30.0
 40
30.0
 40
30.0
 40
30.0
 10
99.55497996014087
 20
-134.3463149664131
 30
0.0
 10
99.55497996014087
 20
-134.3463149664131
 30
0.0
 10
99.72586551133676
 20
-134.6839585774403
 30
0.0
 10
99.72586551133676
 20
-134.6839585774403
 30
0.0
 10
99.72586551133676
 20
-134.6839585774403
 30
0.0
 10
100.7442290964673
 20
-134.6839585774403
 30
0.0
 10
100.7442290964673
 20
-134.6839585774403
 30
0.0
 10
100.7442290964673
 20
-134.6839585774403
 30
0.0
 10
100.9096138636614
 20
-134.3463149664131
 30
0.0
 10
100.9096138636614
 20
-134.3463149664131
 30
0.0
 10
100.9096138636614
 20
-134.3463149664131
 30
0.0
 10
101.2485954724887
 20
-134.1771580220112
 30
0.0
 10
101.2485954724887
 20
-134.1771580220112
 30
0.0
 10
101.2485954724887
 20
-134.1771580220112
 30
0.0
 10
101.5869093527465
 20
-134.3463149664131
 30
0.0
 10
101.5869093527465
 20
-134.3463149664131
 30
0.0
 10
101.5869093527465
 20
-134.3463149664131
 30
0.0
 10
101.7632982371353
 20
-134.6839585774403
 30
0.0
 10
101.7632982371353
 20
-134.6839585774403
 30
0.0
 10
101.7632982371353
 20
-134.6839585774403
 30
0.0
 10
110.2230855213081
 20
-134.6839585774403
 30
0.0
 10
110.2230855213081
 20
-134.6839585774403
 30
0.0
 10
110.2230855213081
 20
-134.6839585774403
 30
0.0
 10
110.2230855213081
 20
-135.7009463549636
 30
0.0
 10
110.2230855213081
 20
-135.7009463549636
 30
0.0
 10
110.2230855213081
 20
-135.7009463549636
 30
0.0
 10
80.2500632304281
 20
-135.7009463549636
 30
0.0
 10
80.2500632304281
 20
-135.7009463549636
 30
0.0
 10
80.2500632304281
 20
-135.7009463549636
 30
0.0
 10
80.25143906372634
 20
-135.1931227439794
 30
0.0
 10
80.25143906372634
 20
-135.1931227439794
 30
0.0
 10
80.25143906372634
 20
-135.1931227439794
 30
0.0
 10
74.93977003257163
 20
-135.5644919105532
 30
0.0
 10
74.93977003257163
 20
-135.5644919105532
 30
0.0
 10
74.6345467070252
 20
-135.5644919105532
 30
0.0
 10
74.38650865779762
 20
-135.317159410615
 30
0.0
 10
74.38650865779762
 20
-135.011230521803
 30
0.0
 10
74.38650865779762
 20
-135.011230521803
 30
0.0
 10
74.38650865779762
 20
-120.3430480254698
 30
0.0
 10
74.38650865779762
 20
-120.3430480254698
 30
0.0
 10
74.38650865779762
 20
-120.0371191366575
 30
0.0
 10
74.6345467070252
 20
-119.7890810811637
 30
0.0
 10
74.93977003257163
 20
-119.7890810811637
 30
0.0
 10
74.93977003257163
 20
-119.7890810811637
 30
0.0
 10
89.56491327056425
 20
-119.7890810811637
 30
0.0
 10
89.56491327056425
 20
-119.7890810811637
 30
0.0
 10
89.87084442197688
 20
-119.7890810811637
 30
0.0
 10
90.11817464533827
 20
-120.0371191366575
 30
0.0
 10
90.11817464533827
 20
-120.3430480254698
 30
0.0
 10
90.11817464533827
 20
-120.3430480254698
 30
0.0
 10
89.81362159755251
 20
-125.6860438574675
 30
0.0
 10
89.81362159755251
 20
-125.6860438574675
 30
0.0
 10
89.81362159755251
 20
-125.6860438574675
 30
0.0
 10
88.37908607859501
 20
-125.6860438574675
 30
0.0
 10
88.37908607859501
 20
-125.6860438574675
 30
0.0
 10
88.37908607859501
 20
-125.6860438574675
 30
0.0
 10
88.62920551665837
 20
-121.9601813583988
 30
0.0
 10
88.62920551665837
 20
-121.9601813583988
 30
0.0
 10
88.65333551604276
 20
-121.5202321918422
 30
0.0
 10
88.21098747177244
 20
-121.2229110808053
 30
0.0
 10
87.95621136716122
 20
-121.2229110808053
 30
0.0
 10
87.95621136716122
 20
-121.2229110808053
 30
0.0
 10
76.28131333167934
 20
-121.2229110808053
 30
0.0
 10
76.28131333167934
 20
-121.2229110808053
 30
0.0
 10
76.02636083818372
 20
-121.2229110808053
 30
0.0
 10
75.8194919545725
 20
-121.428933302976
 30
0.0
 10
75.8194919545725
 20
-121.6838858029123
 30
0.0
 10
75.8194919545725
 20
-121.6838858029123
 30
0.0
 10
75.8194919545725
 20
-133.6393835777011
 30
0.0
 10
75.8194919545725
 20
-133.6393835777011
 30
0.0
 10
75.85205334263068
 20
-133.9914910776133
 30
0.0
 10
76.13145333550258
 20
-134.1168682998043
 30
0.0
 10
76.57482443530236
 20
-134.0889635775887
 30
0.0
 10
77.0187247017553
 20
-134.0610588553739
 30
0.0
 10
78.51580771911709
 20
-133.9535674665116
 30
0.0
 10
80.16684295477344
 20
-133.838526633207
 30
0.0
 10
80.16684295477344
 20
-133.838526633207
 30
0.0
 10
88.89724606537564
 20
-134.6839585774403
 30
0.0
 10
88.89724606537564
 20
-134.6839585774403
 30
0.0
 10
88.89724606537564
 20
-134.6839585774403
 30
0.0
 10
98.71921664198713
 20
-134.6839585774403
 30
0.0
 10
98.71921664198713
 20
-134.6839585774403
 30
0.0
 10
98.71921664198713
 20
-134.6839585774403
 30
0.0
 10
98.87768192186462
 20
-134.3463149664131
 30
0.0
 10
98.87768192186462
 20
-134.3463149664131
 30
0.0
 10
98.87768192186462
 20
-134.3463149664131
 30
0.0
 10
99.21666607988308
 20
-134.1771580220112
 30
0.0
 10
99.21666607988308
 20
-134.1771580220112
 30
0.0
 10
99.21666607988308
 20
-134.1771580220112
 30
0.0
 10
99.55497996014087
 20
-134.3463149664131
 30
0.0
 10
99.55497996014087
 20
-134.3463149664131
 30
0.0
  0
POLYLINE
  5
43
330
1F
100
AcDbEntity
  8
_U+30EC_U+30A4_U+30E4_U+30FC 1
 62
     7
420
 16777215
370
    25
100
AcDb2dPolyline
 66
     1
 10
0.0
 20
0.0
 30
0.0
  0
VERTEX
  5
44
330
43
100
AcDbEntity
  8
_U+30EC_U+30A4_U+30E4_U+30FC 1
 62
     7
420
 16777215
370
    25
100
AcDbVertex
100
AcDb2dVertex
 10
82.70641955665012
 20
-135.1931227439794
 30
0.0
  0
VERTEX
  5
45
330
43
100
AcDbEntity
  8
_U+30EC_U+30A4_U+30E4_U+30FC 1
 62
     7
420
 16777215
370
    25
100
AcDbVertex
100
AcDb2dVertex
 10
109.6191299811608
 20
-135.1931227439794
 30
0.0
  0
SEQEND
  5
46
330
43
100
AcDbEntity
  8
_U+30EC_U+30A4_U+30E4_U+30FC 1
 62
     7
420
 16777215
370
    25
  0
SPLINE
  5
47
330
1F
100
AcDbEntity
  8
_U+30EC_U+30A4_U+30E4_U+30FC 1
 62
     7
420
 16777215
370
     9
100
AcDbSpline
210
0.0
220
0.0
230
1.0
 70
    11
 71
     3
 72
    17
 73
    13
 74
     0
 42
0.0000000001
 43
0.0000000001
 12
1.0
 22
0.0
 32
0.0
 13
1.0
 23
0.0
 33
0.0
 40
0.0
 40
0.0
 40
0.0
 40
0.0
 40
1.0
 40
1.0
 40
1.0
 40
2.0
 40
2.0
 40
2.0
 40
3.0
 40
3.0
 40
3.0
 40
4.0
 40
4.0
 40
4.0
 40
4.0
 10
70.4680666490498
 20
-119.5678894145525
 30
0.0
 10
70.4680666490498
 20
-119.5127855256773
 30
0.0
 10
70.42326387128307
 20
-119.4679827479109
 30
0.0
 10
70.36780542698995
 20
-119.4679827479109
 30
0.0
 10
70.31266626172999
 20
-119.4679827479109
 30
0.0
 10
70.26789876287211
 20
-119.5127855256773
 30
0.0
 10
70.26789876287211
 20
-119.5678894145525
 30
0.0
 10
70.26789876287211
 20
-119.6230285812053
 30
0.0
 10
70.31266626172999
 20
-119.6677960811942
 30
0.0
 10
70.36780542698995
 20
-119.6677960811942
 30
0.0
 10
70.42326387128307
 20
-119.6677960811942
 30
0.0
 10
70.4680666490498
 20
-119.6230285812053
 30
0.0
 10
70.4680666490498
 20
-119.5678894145525
 30
0.0
  0
SPLINE
  5
48
330
1F
100
AcDbEntity
  8
_U+30EC_U+30A4_U+30E4_U+30FC 1
 62
     7
420
 16777215
370
     9
100
AcDbSpline
210
0.0
220
0.0
230
1.0
 70
    11
 71
     3
 72
    17
 73
    13
 74
     0
 42
0.0000000001
 43
0.0000000001
 12
1.0
 22
0.0
 32
0.0
 13
1.0
 23
0.0
 33
0.0
 40
0.0
 40
0.0
 40
0.0
 40
0.0
 40
1.0
 40
1.0
 40
1.0
 40
2.0
 40
2.0
 40
2.0
 40
3.0
 40
3.0
 40
3.0
 40
4.0
 40
4.0
 40
4.0
 40
4.0
 10
70.4680666490498
 20
-135.56865468833
 30
0.0
 10
70.4680666490498
 20
-135.513515521677
 30
0.0
 10
70.42326387128307
 20
-135.4687480216884
 30
0.0
 10
70.36780542698995
 20
-135.4687480216884
 30
0.0
 10
70.31266626172999
 20
-135.4687480216884
 30
0.0
 10
70.26789876287211
 20
-135.513515521677
 30
0.0
 10
70.26789876287211
 20
-135.56865468833
 30
0.0
 10
70.26789876287211
 20
-135.623758577205
 30
0.0
 10
70.31266626172999
 20
-135.6685613549717
 30
0.0
 10
70.36780542698995
 20
-135.6685613549717
 30
0.0
 10
70.42326387128307
 20
-135.6685613549717
 30
0.0
 10
70.4680666490498
 20
-135.623758577205
 30
0.0
 10
70.4680666490498
 20
-135.56865468833
 30
0.0
  0
POLYLINE
  5
49
330
1F
100
AcDbEntity
  8
_U+30EC_U+30A4_U+30E4_U+30FC 1
 62
     7
420
 16777215
370
     9
100
AcDb2dPolyline
 66
     1
 10
0.0
 20
0.0
 30
0.0
  0
VERTEX
  5
4A
330
49
100
AcDbEntity
  8
_U+30EC_U+30A4_U+30E4_U+30FC 1
 62
     7
420
 16777215
370
     9
100
AcDbVertex
100
AcDb2dVertex
 10
70.36780542698995
 20
-119.5678894145525
 30
0.0
  0
VERTEX
  5
4B
330
49
100
AcDbEntity
  8
_U+30EC_U+30A4_U+30E4_U+30FC 1
 62
     7
420
 16777215
370
     9
100
AcDbVertex
100
AcDb2dVertex
 10
70.36780542698995
 20
-135.56865468833
 30
0.0
  0
SEQEND
  5
4C
330
49
100
AcDbEntity
  8
_U+30EC_U+30A4_U+30E4_U+30FC 1
 62
     7
420
 16777215
370
     9
  0
POLYLINE
  5
4D
330
1F
100
AcDbEntity
  8
_U+30EC_U+30A4_U+30E4_U+30FC 1
 62
     7
420
 16777215
370
     9
100
AcDb2dPolyline
 66
     1
 10
0.0
 20
0.0
 30
0.0
  0
VERTEX
  5
4E
330
4D
100
AcDbEntity
  8
_U+30EC_U+30A4_U+30E4_U+30FC 1
 62
     7
420
 16777215
370
     9
100
AcDbVertex
100
AcDb2dVertex
 10
71.8278115008532
 20
-119.5678894145525
 30
0.0
  0
VERTEX
  5
4F
330
4D
100
AcDbEntity
  8
_U+30EC_U+30A4_U+30E4_U+30FC 1
 62
     7
420
 16777215
370
     9
100
AcDbVertex
100
AcDb2dVertex
 10
69.36803323027404
 20
-119.5678894145525
 30
0.0
  0
SEQEND
  5
50
330
4D
100
AcDbEntity
  8
_U+30EC_U+30A4_U+30E4_U+30FC 1
 62
     7
420
 16777215
370
     9
  0
POLYLINE
  5
51
330
1F
100
AcDbEntity
  8
_U+30EC_U+30A4_U+30E4_U+30FC 1
 62
     7
420
 16777215
370
     9
100
AcDb2dPolyline
 66
     1
 10
0.0
 20
0.0
 30
0.0
  0
VERTEX
  5
52
330
51
100
AcDbEntity
  8
_U+30EC_U+30A4_U+30E4_U+30FC 1
 62
     7
420
 16777215
370
     9
100
AcDbVertex
100
AcDb2dVertex
 10
71.8278115008532
 20
-135.56865468833
 30
0.0
  0
VERTEX
  5
53
330
51
100
AcDbEntity
  8
_U+30EC_U+30A4_U+30E4_U+30FC 1
 62
     7
420
 16777215
370
     9
100
AcDbVertex
100
AcDb2dVertex
 10
69.36803323027404
 20
-135.56865468833
 30
0.0
  0
SEQEND
  5
54
330
51
100
AcDbEntity
  8
_U+30EC_U+30A4_U+30E4_U+30FC 1
 62
     7
420
 16777215
370
     9
  0
INSERT
  5
56
330
1F
100
AcDbEntity
  8
_U+30EC_U+30A4_U+30E4_U+30FC 1
100
AcDbBlockReference
  2
block 2
 10
0.0
 20
0.0
 30
0.0
  0
SPLINE
  5
5E
330
1F
100
AcDbEntity
  8
_U+30EC_U+30A4_U+30E4_U+30FC 1
 62
     7
420
 16777215
370
     9
100
AcDbSpline
210
0.0
220
0.0
230
1.0
 70
    11
 71
     3
 72
    17
 73
    13
 74
     0
 42
0.0000000001
 43
0.0000000001
 12
1.0
 22
0.0
 32
0.0
 13
1.0
 23
0.0
 33
0.0
 40
0.0
 40
0.0
 40
0.0
 40
0.0
 40
1.0
 40
1.0
 40
1.0
 40
2.0
 40
2.0
 40
2.0
 40
3.0
 40
3.0
 40
3.0
 40
4.0
 40
4.0
 40
4.0
 40
4.0
 10
70.40329487052898
 20
-135.56865468833
 30
0.0
 10
70.40329487052898
 20
-135.5879516327699
 30
0.0
 10
70.38741987093398
 20
-135.6037913549878
 30
0.0
 10
70.36780542698995
 20
-135.6037913549878
 30
0.0
 10
70.3485084830378
 20
-135.6037913549878
 30
0.0
 10
70.3326687612197
 20
-135.5879516327699
 30
0.0
 10
70.3326687612197
 20
-135.56865468833
 30
0.0
 10
70.3326687612197
 20
-135.5486521883354
 30
0.0
 10
70.3485084830378
 20
-135.5335180216723
 30
0.0
 10
70.36780542698995
 20
-135.5335180216723
 30
0.0
 10
70.38741987093398
 20
-135.5335180216723
 30
0.0
 10
70.40329487052898
 20
-135.5486521883354
 30
0.0
 10
70.40329487052898
 20
-135.56865468833
 30
0.0
  0
SPLINE
  5
5F
330
1F
100
AcDbEntity
  8
_U+30EC_U+30A4_U+30E4_U+30FC 1
 62
     7
420
 16777215
370
     9
100
AcDbSpline
210
0.0
220
0.0
230
1.0
 70
    11
 71
     3
 72
    17
 73
    13
 74
     0
 42
0.0000000001
 43
0.0000000001
 12
1.0
 22
0.0
 32
0.0
 13
1.0
 23
0.0
 33
0.0
 40
0.0
 40
0.0
 40
0.0
 40
0.0
 40
1.0
 40
1.0
 40
1.0
 40
2.0
 40
2.0
 40
2.0
 40
3.0
 40
3.0
 40
3.0
 40
4.0
 40
4.0
 40
4.0
 40
4.0
 10
94.4717345342697
 20
-125.5678633019415
 30
0.0
 10
94.4717345342697
 20
-125.6230024685943
 30
0.0
 10
94.51653731090447
 20
-125.6677699685832
 30
0.0
 10
94.57164119838754
 20
-125.6677699685832
 30
0.0
 10
94.62678036364748
 20
-125.6677699685832
 30
0.0
 10
94.67158314028225
 20
-125.6230024685943
 30
0.0
 10
94.67158314028225
 20
-125.5678633019415
 30
0.0
 10
94.67158314028225
 20
-125.5127594130663
 30
0.0
 10
94.62678036364748
 20
-125.4679566352996
 30
0.0
 10
94.57164119838754
 20
-125.4679566352996
 30
0.0
 10
94.51653731090447
 20
-125.4679566352996
 30
0.0
 10
94.4717345342697
 20
-125.5127594130663
 30
0.0
 10
94.4717345342697
 20
-125.5678633019415
 30
0.0
  0
SPLINE
  5
60
330
1F
100
AcDbEntity
  8
_U+30EC_U+30A4_U+30E4_U+30FC 1
 62
     7
420
 16777215
370
     9
100
AcDbSpline
210
0.0
220
0.0
230
1.0
 70
    11
 71
     3
 72
    17
 73
    13
 74
     0
 42
0.0000000001
 43
0.0000000001
 12
1.0
 22
0.0
 32
0.0
 13
1.0
 23
0.0
 33
0.0
 40
0.0
 40
0.0
 40
0.0
 40
0.0
 40
1.0
 40
1.0
 40
1.0
 40
2.0
 40
2.0
 40
2.0
 40
3.0
 40
3.0
 40
3.0
 40
4.0
 40
4.0
 40
4.0
 40
4.0
 10
94.4717345342697
 20
-119.5678894145525
 30
0.0
 10
94.4717345342697
 20
-119.6230285812053
 30
0.0
 10
94.51653731090447
 20
-119.6677960811942
 30
0.0
 10
94.57164119838754
 20
-119.6677960811942
 30
0.0
 10
94.62678036364748
 20
-119.6677960811942
 30
0.0
 10
94.67158314028225
 20
-119.6230285812053
 30
0.0
 10
94.67158314028225
 20
-119.5678894145525
 30
0.0
 10
94.67158314028225
 20
-119.5127855256773
 30
0.0
 10
94.62678036364748
 20
-119.4679827479109
 30
0.0
 10
94.57164119838754
 20
-119.4679827479109
 30
0.0
 10
94.51653731090447
 20
-119.4679827479109
 30
0.0
 10
94.4717345342697
 20
-119.5127855256773
 30
0.0
 10
94.4717345342697
 20
-119.5678894145525
 30
0.0
  0
POLYLINE
  5
61
330
1F
100
AcDbEntity
  8
_U+30EC_U+30A4_U+30E4_U+30FC 1
 62
     7
420
 16777215
370
     9
100
AcDb2dPolyline
 66
     1
 10
0.0
 20
0.0
 30
0.0
  0
VERTEX
  5
62
330
61
100
AcDbEntity
  8
_U+30EC_U+30A4_U+30E4_U+30FC 1
 62
     7
420
 16777215
370
     9
100
AcDbVertex
100
AcDb2dVertex
 10
94.57164119838754
 20
-125.5678633019415
 30
0.0
  0
VERTEX
  5
63
330
61
100
AcDbEntity
  8
_U+30EC_U+30A4_U+30E4_U+30FC 1
 62
     7
420
 16777215
370
     9
100
AcDbVertex
100
AcDb2dVertex
 10
94.57164119838754
 20
-119.5678894145525
 30
0.0
  0
SEQEND
  5
64
330
61
100
AcDbEntity
  8
_U+30EC_U+30A4_U+30E4_U+30FC 1
 62
     7
420
 16777215
370
     9
  0
POLYLINE
  5
65
330
1F
100
AcDbEntity
  8
_U+30EC_U+30A4_U+30E4_U+30FC 1
 62
     7
420
 16777215
370
     9
100
AcDb2dPolyline
 66
     1
 10
0.0
 20
0.0
 30
0.0
  0
VERTEX
  5
66
330
65
100
AcDbEntity
  8
_U+30EC_U+30A4_U+30E4_U+30FC 1
 62
     7
420
 16777215
370
     9
100
AcDbVertex
100
AcDb2dVertex
 10
93.11163512452428
 20
-125.5678633019415
 30
0.0
  0
VERTEX
  5
67
330
65
100
AcDbEntity
  8
_U+30EC_U+30A4_U+30E4_U+30FC 1
 62
     7
420
 16777215
370
     9
100
AcDbVertex
100
AcDb2dVertex
 10
95.57141339510345
 20
-125.5678633019415
 30
0.0
  0
SEQEND
  5
68
330
65
100
AcDbEntity
  8
_U+30EC_U+30A4_U+30E4_U+30FC 1
 62
     7
420
 16777215
370
     9
  0
POLYLINE
  5
69
330
1F
100
AcDbEntity
  8
_U+30EC_U+30A4_U+30E4_U+30FC 1
 62
     7
420
 16777215
370
     9
100
AcDb2dPolyline
 66
     1
 10
0.0
 20
0.0
 30
0.0
  0
VERTEX
  5
6A
330
69
100
AcDbEntity
  8
_U+30EC_U+30A4_U+30E4_U+30FC 1
 62
     7
420
 16777215
370
     9
100
AcDbVertex
100
AcDb2dVertex
 10
93.11163512452428
 20
-119.5678894145525
 30
0.0
  0
VERTEX
  5
6B
330
69
100
AcDbEntity
  8
_U+30EC_U+30A4_U+30E4_U+30FC 1
 62
     7
420
 16777215
370
     9
100
AcDbVertex
100
AcDb2dVertex
 10
95.57141339510345
 20
-119.5678894145525
 30
0.0
  0
SEQEND
  5
6C
330
69
100
AcDbEntity
  8
_U+30EC_U+30A4_U+30E4_U+30FC 1
 62
     7
420
 16777215
370
     9
  0
INSERT
  5
6E
330
1F
100
AcDbEntity
  8
_U+30EC_U+30A4_U+30E4_U+30FC 1
100
AcDbBlockReference
  2
block 3
 10
0.0
 20
0.0
 30
0.0
  0
SPLINE
  5
74
330
1F
100
AcDbEntity
  8
_U+30EC_U+30A4_U+30E4_U+30FC 1
 62
     7
420
 16777215
370
     9
100
AcDbSpline
210
0.0
220
0.0
230
1.0
 70
    11
 71
     3
 72
    17
 73
    13
 74
     0
 42
0.0000000001
 43
0.0000000001
 12
1.0
 22
0.0
 32
0.0
 13
1.0
 23
0.0
 33
0.0
 40
0.0
 40
0.0
 40
0.0
 40
0.0
 40
1.0
 40
1.0
 40
1.0
 40
2.0
 40
2.0
 40
2.0
 40
3.0
 40
3.0
 40
3.0
 40
4.0
 40
4.0
 40
4.0
 40
4.0
 10
94.53650453261729
 20
-119.5678894145525
 30
0.0
 10
94.53650453261729
 20
-119.548592470113
 30
0.0
 10
94.55237953221227
 20
-119.5327527478945
 30
0.0
 10
94.57164119838754
 20
-119.5327527478945
 30
0.0
 10
94.59093814233968
 20
-119.5327527478945
 30
0.0
 10
94.60681314193467
 20
-119.548592470113
 30
0.0
 10
94.60681314193467
 20
-119.5678894145525
 30
0.0
 10
94.60681314193467
 20
-119.5878919145475
 30
0.0
 10
94.59093814233968
 20
-119.6030260812102
 30
0.0
 10
94.57164119838754
 20
-119.6030260812102
 30
0.0
 10
94.55237953221227
 20
-119.6030260812102
 30
0.0
 10
94.53650453261729
 20
-119.5878919145475
 30
0.0
 10
94.53650453261729
 20
-119.5678894145525
 30
0.0
  0
SPLINE
  5
75
330
1F
100
AcDbEntity
  8
_U+30EC_U+30A4_U+30E4_U+30FC 1
 62
     7
420
 16777215
370
     9
100
AcDbSpline
210
0.0
220
0.0
230
1.0
 70
    11
 71
     3
 72
    17
 73
    13
 74
     0
 42
0.0000000001
 43
0.0000000001
 12
1.0
 22
0.0
 32
0.0
 13
1.0
 23
0.0
 33
0.0
 40
0.0
 40
0.0
 40
0.0
 40
0.0
 40
1.0
 40
1.0
 40
1.0
 40
2.0
 40
2.0
 40
2.0
 40
3.0
 40
3.0
 40
3.0
 40
4.0
 40
4.0
 40
4.0
 40
4.0
 10
114.1132718109501
 20
-135.8187388549341
 30
0.0
 10
114.1132718109501
 20
-135.8738780215871
 30
0.0
 10
114.1580745875849
 20
-135.9186807993539
 30
0.0
 10
114.2131784750679
 20
-135.9186807993539
 30
0.0
 10
114.2683176403279
 20
-135.9186807993539
 30
0.0
 10
114.3130851391858
 20
-135.8738780215871
 30
0.0
 10
114.3130851391858
 20
-135.8187388549341
 30
0.0
 10
114.3130851391858
 20
-135.7636349660592
 30
0.0
 10
114.2683176403279
 20
-135.7188321882924
 30
0.0
 10
114.2131784750679
 20
-135.7188321882924
 30
0.0
 10
114.1580745875849
 20
-135.7188321882924
 30
0.0
 10
114.1132718109501
 20
-135.7636349660592
 30
0.0
 10
114.1132718109501
 20
-135.8187388549341
 30
0.0
  0
SPLINE
  5
76
330
1F
100
AcDbEntity
  8
_U+30EC_U+30A4_U+30E4_U+30FC 1
 62
     7
420
 16777215
370
     9
100
AcDbSpline
210
0.0
220
0.0
230
1.0
 70
    11
 71
     3
 72
    17
 73
    13
 74
     0
 42
0.0000000001
 43
0.0000000001
 12
1.0
 22
0.0
 32
0.0
 13
1.0
 23
0.0
 33
0.0
 40
0.0
 40
0.0
 40
0.0
 40
0.0
 40
1.0
 40
1.0
 40
1.0
 40
2.0
 40
2.0
 40
2.0
 40
3.0
 40
3.0
 40
3.0
 40
4.0
 40
4.0
 40
4.0
 40
4.0
 10
114.1132718109501
 20
-134.8190019107397
 30
0.0
 10
114.1132718109501
 20
-134.8741057996146
 30
0.0
 10
114.1580745875849
 20
-134.9189085773813
 30
0.0
 10
114.2131784750679
 20
-134.9189085773813
 30
0.0
 10
114.2683176403279
 20
-134.9189085773813
 30
0.0
 10
114.3130851391858
 20
-134.8741057996146
 30
0.0
 10
114.3130851391858
 20
-134.8190019107397
 30
0.0
 10
114.3130851391858
 20
-134.7638627440866
 30
0.0
 10
114.2683176403279
 20
-134.719095244098
 30
0.0
 10
114.2131784750679
 20
-134.719095244098
 30
0.0
 10
114.1580745875849
 20
-134.719095244098
 30
0.0
 10
114.1132718109501
 20
-134.7638627440866
 30
0.0
 10
114.1132718109501
 20
-134.8190019107397
 30
0.0
  0
POLYLINE
  5
77
330
1F
100
AcDbEntity
  8
_U+30EC_U+30A4_U+30E4_U+30FC 1
 62
     7
420
 16777215
370
     9
100
AcDb2dPolyline
 66
     1
 10
0.0
 20
0.0
 30
0.0
  0
VERTEX
  5
78
330
77
100
AcDbEntity
  8
_U+30EC_U+30A4_U+30E4_U+30FC 1
 62
     7
420
 16777215
370
     9
100
AcDbVertex
100
AcDb2dVertex
 10
114.2131784750679
 20
-135.8187388549341
 30
0.0
  0
VERTEX
  5
79
330
77
100
AcDbEntity
  8
_U+30EC_U+30A4_U+30E4_U+30FC 1
 62
     7
420
 16777215
370
     9
100
AcDbVertex
100
AcDb2dVertex
 10
114.2131784750679
 20
-134.8190019107397
 30
0.0
  0
SEQEND
  5
7A
330
77
100
AcDbEntity
  8
_U+30EC_U+30A4_U+30E4_U+30FC 1
 62
     7
420
 16777215
370
     9
  0
POLYLINE
  5
7B
330
1F
100
AcDbEntity
  8
_U+30EC_U+30A4_U+30E4_U+30FC 1
 62
     7
420
 16777215
370
     9
100
AcDb2dPolyline
 66
     1
 10
0.0
 20
0.0
 30
0.0
  0
VERTEX
  5
7C
330
7B
100
AcDbEntity
  8
_U+30EC_U+30A4_U+30E4_U+30FC 1
 62
     7
420
 16777215
370
     9
100
AcDbVertex
100
AcDb2dVertex
 10
112.7531371234278
 20
-135.8187388549341
 30
0.0
  0
VERTEX
  5
7D
330
7B
100
AcDbEntity
  8
_U+30EC_U+30A4_U+30E4_U+30FC 1
 62
     7
420
 16777215
370
     9
100
AcDbVertex
100
AcDb2dVertex
 10
115.2129506717839
 20
-135.8187388549341
 30
0.0
  0
SEQEND
  5
7E
330
7B
100
AcDbEntity
  8
_U+30EC_U+30A4_U+30E4_U+30FC 1
 62
     7
420
 16777215
370
     9
  0
POLYLINE
  5
7F
330
1F
100
AcDbEntity
  8
_U+30EC_U+30A4_U+30E4_U+30FC 1
 62
     7
420
 16777215
370
     9
100
AcDb2dPolyline
 66
     1
 10
0.0
 20
0.0
 30
0.0
  0
VERTEX
  5
80
330
7F
100
AcDbEntity
  8
_U+30EC_U+30A4_U+30E4_U+30FC 1
 62
     7
420
 16777215
370
     9
100
AcDbVertex
100
AcDb2dVertex
 10
112.7531371234278
 20
-134.8190019107397
 30
0.0
  0
VERTEX
  5
81
330
7F
100
AcDbEntity
  8
_U+30EC_U+30A4_U+30E4_U+30FC 1
 62
     7
420
 16777215
370
     9
100
AcDbVertex
100
AcDb2dVertex
 10
115.2129506717839
 20
-134.8190019107397
 30
0.0
  0
SEQEND
  5
82
330
7F
100
AcDbEntity
  8
_U+30EC_U+30A4_U+30E4_U+30FC 1
 62
     7
420
 16777215
370
     9
  0
INSERT
  5
84
330
1F
100
AcDbEntity
  8
_U+30EC_U+30A4_U+30E4_U+30FC 1
100
AcDbBlockReference
  2
block 4
 10
0.0
 20
0.0
 30
0.0
  0
SPLINE
  5
89
330
1F
100
AcDbEntity
  8
_U+30EC_U+30A4_U+30E4_U+30FC 1
 62
     7
420
 16777215
370
     9
100
AcDbSpline
210
0.0
220
0.0
230
1.0
 70
    11
 71
     3
 72
    17
 73
    13
 74
     0
 42
0.0000000001
 43
0.0000000001
 12
1.0
 22
0.0
 32
0.0
 13
1.0
 23
0.0
 33
0.0
 40
0.0
 40
0.0
 40
0.0
 40
0.0
 40
1.0
 40
1.0
 40
1.0
 40
2.0
 40
2.0
 40
2.0
 40
3.0
 40
3.0
 40
3.0
 40
4.0
 40
4.0
 40
4.0
 40
4.0
 10
114.1780418092977
 20
-134.8190019107397
 30
0.0
 10
114.1780418092977
 20
-134.7997049662999
 30
0.0
 10
114.1938815311158
 20
-134.783865244082
 30
0.0
 10
114.2131784750679
 20
-134.783865244082
 30
0.0
 10
114.2324754190201
 20
-134.783865244082
 30
0.0
 10
114.2483151408382
 20
-134.7997049662999
 30
0.0
 10
114.2483151408382
 20
-134.8190019107397
 30
0.0
 10
114.2483151408382
 20
-134.8389691329569
 30
0.0
 10
114.2324754190201
 20
-134.8541385773974
 30
0.0
 10
114.2131784750679
 20
-134.8541385773974
 30
0.0
 10
114.1938815311158
 20
-134.8541385773974
 30
0.0
 10
114.1780418092977
 20
-134.8389691329569
 30
0.0
 10
114.1780418092977
 20
-134.8190019107397
 30
0.0
  0
SPLINE
  5
8A
330
1F
100
AcDbEntity
  8
_U+30EC_U+30A4_U+30E4_U+30FC 1
 62
     7
420
 16777215
370
     9
100
AcDbSpline
210
0.0
220
0.0
230
1.0
 70
    11
 71
     3
 72
    17
 73
    13
 74
     0
 42
0.0000000001
 43
0.0000000001
 12
1.0
 22
0.0
 32
0.0
 13
1.0
 23
0.0
 33
0.0
 40
0.0
 40
0.0
 40
0.0
 40
0.0
 40
1.0
 40
1.0
 40
1.0
 40
2.0
 40
2.0
 40
2.0
 40
3.0
 40
3.0
 40
3.0
 40
4.0
 40
4.0
 40
4.0
 40
4.0
 10
74.17893609256629
 20
-115.8568435821468
 30
0.0
 10
74.17893609256629
 20
-115.8017044154941
 30
0.0
 10
74.13448609257765
 20
-115.7569369155052
 30
0.0
 10
74.079027554531
 20
-115.7569369155052
 30
0.0
 10
74.02388838927105
 20
-115.7569369155052
 30
0.0
 10
73.97912089041317
 20
-115.8017044154941
 30
0.0
 10
73.97912089041317
 20
-115.8568435821468
 30
0.0
 10
73.97912089041317
 20
-115.9119474710221
 30
0.0
 10
74.02388838927105
 20
-115.9567502487885
 30
0.0
 10
74.079027554531
 20
-115.9567502487885
 30
0.0
 10
74.13448609257765
 20
-115.9567502487885
 30
0.0
 10
74.17893609256629
 20
-115.9119474710221
 30
0.0
 10
74.17893609256629
 20
-115.8568435821468
 30
0.0
  0
SPLINE
  5
8B
330
1F
100
AcDbEntity
  8
_U+30EC_U+30A4_U+30E4_U+30FC 1
 62
     7
420
 16777215
370
     9
100
AcDbSpline
210
0.0
220
0.0
230
1.0
 70
    11
 71
     3
 72
    17
 73
    13
 74
     0
 42
0.0000000001
 43
0.0000000001
 12
1.0
 22
0.0
 32
0.0
 13
1.0
 23
0.0
 33
0.0
 40
0.0
 40
0.0
 40
0.0
 40
0.0
 40
1.0
 40
1.0
 40
1.0
 40
2.0
 40
2.0
 40
2.0
 40
3.0
 40
3.0
 40
3.0
 40
4.0
 40
4.0
 40
4.0
 40
4.0
 10
90.17881942189975
 20
-115.8568435821468
 30
0.0
 10
90.17881942189975
 20
-115.8017044154941
 30
0.0
 10
90.13401664413303
 20
-115.7569369155052
 30
0.0
 10
90.07891047967331
 20
-115.7569369155052
 30
0.0
 10
90.02377131441337
 20
-115.7569369155052
 30
0.0
 10
89.97900381555547
 20
-115.8017044154941
 30
0.0
 10
89.97900381555547
 20
-115.8568435821468
 30
0.0
 10
89.97900381555547
 20
-115.9119474710221
 30
0.0
 10
90.02377131441337
 20
-115.9567502487885
 30
0.0
 10
90.07891047967331
 20
-115.9567502487885
 30
0.0
 10
90.13401664413303
 20
-115.9567502487885
 30
0.0
 10
90.17881942189975
 20
-115.9119474710221
 30
0.0
 10
90.17881942189975
 20
-115.8568435821468
 30
0.0
  0
POLYLINE
  5
8C
330
1F
100
AcDbEntity
  8
_U+30EC_U+30A4_U+30E4_U+30FC 1
 62
     7
420
 16777215
370
     9
100
AcDb2dPolyline
 66
     1
 10
0.0
 20
0.0
 30
0.0
  0
VERTEX
  5
8D
330
8C
100
AcDbEntity
  8
_U+30EC_U+30A4_U+30E4_U+30FC 1
 62
     7
420
 16777215
370
     9
100
AcDbVertex
100
AcDb2dVertex
 10
74.079027554531
 20
-115.8568435821468
 30
0.0
  0
VERTEX
  5
8E
330
8C
100
AcDbEntity
  8
_U+30EC_U+30A4_U+30E4_U+30FC 1
 62
     7
420
 16777215
370
     9
100
AcDbVertex
100
AcDb2dVertex
 10
90.07891047967331
 20
-115.8568435821468
 30
0.0
  0
SEQEND
  5
8F
330
8C
100
AcDbEntity
  8
_U+30EC_U+30A4_U+30E4_U+30FC 1
 62
     7
420
 16777215
370
     9
  0
POLYLINE
  5
90
330
1F
100
AcDbEntity
  8
_U+30EC_U+30A4_U+30E4_U+30FC 1
 62
     7
420
 16777215
370
     9
100
AcDb2dPolyline
 66
     1
 10
0.0
 20
0.0
 30
0.0
  0
VERTEX
  5
91
330
90
100
AcDbEntity
  8
_U+30EC_U+30A4_U+30E4_U+30FC 1
 62
     7
420
 16777215
370
     9
100
AcDbVertex
100
AcDb2dVertex
 10
74.079027554531
 20
-117.3168849706709
 30
0.0
  0
VERTEX
  5
92
330
90
100
AcDbEntity
  8
_U+30EC_U+30A4_U+30E4_U+30FC 1
 62
     7
420
 16777215
370
     9
100
AcDbVertex
100
AcDb2dVertex
 10
74.079027554531
 20
-114.8570713601746
 30
0.0
  0
SEQEND
  5
93
330
90
100
AcDbEntity
  8
_U+30EC_U+30A4_U+30E4_U+30FC 1
 62
     7
420
 16777215
370
     9
  0
POLYLINE
  5
94
330
1F
100
AcDbEntity
  8
_U+30EC_U+30A4_U+30E4_U+30FC 1
 62
     7
420
 16777215
370
     9
100
AcDb2dPolyline
 66
     1
 10
0.0
 20
0.0
 30
0.0
  0
VERTEX
  5
95
330
94
100
AcDbEntity
  8
_U+30EC_U+30A4_U+30E4_U+30FC 1
 62
     7
420
 16777215
370
     9
100
AcDbVertex
100
AcDb2dVertex
 10
90.07891047967331
 20
-117.3168849706709
 30
0.0
  0
VERTEX
  5
96
330
94
100
AcDbEntity
  8
_U+30EC_U+30A4_U+30E4_U+30FC 1
 62
     7
420
 16777215
370
     9
100
AcDbVertex
100
AcDb2dVertex
 10
90.07891047967331
 20
-114.8570713601746
 30
0.0
  0
SEQEND
  5
97
330
94
100
AcDbEntity
  8
_U+30EC_U+30A4_U+30E4_U+30FC 1
 62
     7
420
 16777215
370
     9
  0
INSERT
  5
99
330
1F
100
AcDbEntity
  8
_U+30EC_U+30A4_U+30E4_U+30FC 1
100
AcDbBlockReference
  2
block 5
 10
0.0
 20
0.0
 30
0.0
  0
SPLINE
  5
A1
330
1F
100
AcDbEntity
  8
_U+30EC_U+30A4_U+30E4_U+30FC 1
 62
     7
420
 16777215
370
     9
100
AcDbSpline
210
0.0
220
0.0
230
1.0
 70
    11
 71
     3
 72
    17
 73
    13
 74
     0
 42
0.0000000001
 43
0.0000000001
 12
1.0
 22
0.0
 32
0.0
 13
1.0
 23
0.0
 33
0.0
 40
0.0
 40
0.0
 40
0.0
 40
0.0
 40
1.0
 40
1.0
 40
1.0
 40
2.0
 40
2.0
 40
2.0
 40
3.0
 40
3.0
 40
3.0
 40
4.0
 40
4.0
 40
4.0
 40
4.0
 10
90.11404714544356
 20
-115.8568435821468
 30
0.0
 10
90.11404714544356
 20
-115.8761405265867
 30
0.0
 10
90.09887770138613
 20
-115.8919802488049
 30
0.0
 10
90.07891047967331
 20
-115.8919802488049
 30
0.0
 10
90.05961353572117
 20
-115.8919802488049
 30
0.0
 10
90.04377381390306
 20
-115.8761405265867
 30
0.0
 10
90.04377381390306
 20
-115.8568435821468
 30
0.0
 10
90.04377381390306
 20
-115.8375466377073
 30
0.0
 10
90.05961353572117
 20
-115.8217069154891
 30
0.0
 10
90.07891047967331
 20
-115.8217069154891
 30
0.0
 10
90.09887770138613
 20
-115.8217069154891
 30
0.0
 10
90.11404714544356
 20
-115.8375466377073
 30
0.0
 10
90.11404714544356
 20
-115.8568435821468
 30
0.0
  0
SPLINE
  5
A2
330
1F
100
AcDbEntity
  8
_U+30EC_U+30A4_U+30E4_U+30FC 1
 62
     7
420
 16777215
370
     9
100
AcDbSpline
210
0.0
220
0.0
230
1.0
 70
    11
 71
     3
 72
    17
 73
    13
 74
     0
 42
0.0000000001
 43
0.0000000001
 12
1.0
 22
0.0
 32
0.0
 13
1.0
 23
0.0
 33
0.0
 40
0.0
 40
0.0
 40
0.0
 40
0.0
 40
1.0
 40
1.0
 40
1.0
 40
2.0
 40
2.0
 40
2.0
 40
3.0
 40
3.0
 40
3.0
 40
4.0
 40
4.0
 40
4.0
 40
4.0
 10
100.2326333082751
 20
-131.0503827450154
 30
0.0
 10
100.2326333082751
 20
-130.9952788561398
 30
0.0
 10
100.1881833082861
 20
-130.9504760783738
 30
0.0
 10
100.132724112068
 20
-130.9504760783738
 30
0.0
 10
100.077620224585
 20
-130.9504760783738
 30
0.0
 10
100.0328174479502
 20
-130.9952788561398
 30
0.0
 10
100.0328174479502
 20
-131.0503827450154
 30
0.0
 10
100.0328174479502
 20
-131.1055219116678
 30
0.0
 10
100.077620224585
 20
-131.150289411657
 30
0.0
 10
100.132724112068
 20
-131.150289411657
 30
0.0
 10
100.1881833082861
 20
-131.150289411657
 30
0.0
 10
100.2326333082751
 20
-131.1055219116678
 30
0.0
 10
100.2326333082751
 20
-131.0503827450154
 30
0.0
  0
SPLINE
  5
A3
330
1F
100
AcDbEntity
  8
_U+30EC_U+30A4_U+30E4_U+30FC 1
 62
     7
420
 16777215
370
     9
100
AcDbSpline
210
0.0
220
0.0
230
1.0
 70
    11
 71
     3
 72
    17
 73
    13
 74
     0
 42
0.0000000001
 43
0.0000000001
 12
1.0
 22
0.0
 32
0.0
 13
1.0
 23
0.0
 33
0.0
 40
0.0
 40
0.0
 40
0.0
 40
0.0
 40
1.0
 40
1.0
 40
1.0
 40
2.0
 40
2.0
 40
2.0
 40
3.0
 40
3.0
 40
3.0
 40
4.0
 40
4.0
 40
4.0
 40
4.0
 10
110.2327163543958
 20
-131.0503827450154
 30
0.0
 10
110.2327163543958
 20
-130.9952788561398
 30
0.0
 10
110.1879488555379
 20
-130.9504760783738
 30
0.0
 10
110.1328096902779
 20
-130.9504760783738
 30
0.0
 10
110.0777058027949
 20
-130.9504760783738
 30
0.0
 10
110.0329030261601
 20
-130.9952788561398
 30
0.0
 10
110.0329030261601
 20
-131.0503827450154
 30
0.0
 10
110.0329030261601
 20
-131.1055219116678
 30
0.0
 10
110.0777058027949
 20
-131.150289411657
 30
0.0
 10
110.1328096902779
 20
-131.150289411657
 30
0.0
 10
110.1879488555379
 20
-131.150289411657
 30
0.0
 10
110.2327163543958
 20
-131.1055219116678
 30
0.0
 10
110.2327163543958
 20
-131.0503827450154
 30
0.0
  0
POLYLINE
  5
A4
330
1F
100
AcDbEntity
  8
_U+30EC_U+30A4_U+30E4_U+30FC 1
 62
     7
420
 16777215
370
     9
100
AcDb2dPolyline
 66
     1
 10
0.0
 20
0.0
 30
0.0
  0
VERTEX
  5
A5
330
A4
100
AcDbEntity
  8
_U+30EC_U+30A4_U+30E4_U+30FC 1
 62
     7
420
 16777215
370
     9
100
AcDbVertex
100
AcDb2dVertex
 10
100.132724112068
 20
-131.0503827450154
 30
0.0
  0
VERTEX
  5
A6
330
A4
100
AcDbEntity
  8
_U+30EC_U+30A4_U+30E4_U+30FC 1
 62
     7
420
 16777215
370
     9
100
AcDbVertex
100
AcDb2dVertex
 10
110.1328096902779
 20
-131.0503827450154
 30
0.0
  0
SEQEND
  5
A7
330
A4
100
AcDbEntity
  8
_U+30EC_U+30A4_U+30E4_U+30FC 1
 62
     7
420
 16777215
370
     9
  0
POLYLINE
  5
A8
330
1F
100
AcDbEntity
  8
_U+30EC_U+30A4_U+30E4_U+30FC 1
 62
     7
420
 16777215
370
     9
100
AcDb2dPolyline
 66
     1
 10
0.0
 20
0.0
 30
0.0
  0
VERTEX
  5
A9
330
A8
100
AcDbEntity
  8
_U+30EC_U+30A4_U+30E4_U+30FC 1
 62
     7
420
 16777215
370
     9
100
AcDbVertex
100
AcDb2dVertex
 10
100.132724112068
 20
-132.5104241335391
 30
0.0
  0
VERTEX
  5
AA
330
A8
100
AcDbEntity
  8
_U+30EC_U+30A4_U+30E4_U+30FC 1
 62
     7
420
 16777215
370
     9
100
AcDbVertex
100
AcDb2dVertex
 10
100.132724112068
 20
-130.0502930230433
 30
0.0
  0
SEQEND
  5
AB
330
A8
100
AcDbEntity
  8
_U+30EC_U+30A4_U+30E4_U+30FC 1
 62
     7
420
 16777215
370
     9
  0
POLYLINE
  5
AC
330
1F
100
AcDbEntity
  8
_U+30EC_U+30A4_U+30E4_U+30FC 1
 62
     7
420
 16777215
370
     9
100
AcDb2dPolyline
 66
     1
 10
0.0
 20
0.0
 30
0.0
  0
VERTEX
  5
AD
330
AC
100
AcDbEntity
  8
_U+30EC_U+30A4_U+30E4_U+30FC 1
 62
     7
420
 16777215
370
     9
100
AcDbVertex
100
AcDb2dVertex
 10
110.1328096902779
 20
-132.5104241335391
 30
0.0
  0
VERTEX
  5
AE
330
AC
100
AcDbEntity
  8
_U+30EC_U+30A4_U+30E4_U+30FC 1
 62
     7
420
 16777215
370
     9
100
AcDbVertex
100
AcDb2dVertex
 10
110.1328096902779
 20
-130.0502930230433
 30
0.0
  0
SEQEND
  5
AF
330
AC
100
AcDbEntity
  8
_U+30EC_U+30A4_U+30E4_U+30FC 1
 62
     7
420
 16777215
370
     9
  0
INSERT
  5
B1
330
1F
100
AcDbEntity
  8
_U+30EC_U+30A4_U+30E4_U+30FC 1
100
AcDbBlockReference
  2
block 6
 10
0.0
 20
0.0
 30
0.0
  0
SPLINE
  5
B9
330
1F
100
AcDbEntity
  8
_U+30EC_U+30A4_U+30E4_U+30FC 1
 62
     7
420
 16777215
370
     9
100
AcDbSpline
210
0.0
220
0.0
230
1.0
 70
    11
 71
     3
 72
    17
 73
    13
 74
     0
 42
0.0000000001
 43
0.0000000001
 12
1.0
 22
0.0
 32
0.0
 13
1.0
 23
0.0
 33
0.0
 40
0.0
 40
0.0
 40
0.0
 40
0.0
 40
1.0
 40
1.0
 40
1.0
 40
2.0
 40
2.0
 40
2.0
 40
3.0
 40
3.0
 40
3.0
 40
4.0
 40
4.0
 40
4.0
 40
4.0
 10
110.1679463560482
 20
-131.0503827450154
 30
0.0
 10
110.1679463560482
 20
-131.0696796894546
 30
0.0
 10
110.1527769119908
 20
-131.0855546894506
 30
0.0
 10
110.1328096902779
 20
-131.0855546894506
 30
0.0
 10
110.1135127463258
 20
-131.0855546894506
 30
0.0
 10
110.0976730245077
 20
-131.0696796894546
 30
0.0
 10
110.0976730245077
 20
-131.0503827450154
 30
0.0
 10
110.0976730245077
 20
-131.0311210783531
 30
0.0
 10
110.1135127463258
 20
-131.015246078357
 30
0.0
 10
110.1328096902779
 20
-131.015246078357
 30
0.0
 10
110.1527769119908
 20
-131.015246078357
 30
0.0
 10
110.1679463560482
 20
-131.0311210783531
 30
0.0
 10
110.1679463560482
 20
-131.0503827450154
 30
0.0
  0
SPLINE
  5
BA
330
1F
100
AcDbEntity
  8
_U+30EC_U+30A4_U+30E4_U+30FC 1
 62
     7
420
 16777215
370
     9
100
AcDbSpline
210
0.0
220
0.0
230
1.0
 70
    11
 71
     3
 72
    17
 73
    13
 74
     0
 42
0.0000000001
 43
0.0000000001
 12
1.0
 22
0.0
 32
0.0
 13
1.0
 23
0.0
 33
0.0
 40
0.0
 40
0.0
 40
0.0
 40
0.0
 40
1.0
 40
1.0
 40
1.0
 40
2.0
 40
2.0
 40
2.0
 40
3.0
 40
3.0
 40
3.0
 40
4.0
 40
4.0
 40
4.0
 40
4.0
 10
74.31175504859362
 20
-139.5466827428909
 30
0.0
 10
74.31175504859362
 20
-139.491578854016
 30
0.0
 10
74.26695227195887
 20
-139.4467760762493
 30
0.0
 10
74.21149560670702
 20
-139.4467760762493
 30
0.0
 10
74.15635831479436
 20
-139.4467760762493
 30
0.0
 10
74.11158894258918
 20
-139.491578854016
 30
0.0
 10
74.11158894258918
 20
-139.5466827428909
 30
0.0
 10
74.11158894258918
 20
-139.6024921873214
 30
0.0
 10
74.15635831479436
 20
-139.6472949650881
 30
0.0
 10
74.21149560670702
 20
-139.6472949650881
 30
0.0
 10
74.26695227195887
 20
-139.6472949650881
 30
0.0
 10
74.31175504859362
 20
-139.6024921873214
 30
0.0
 10
74.31175504859362
 20
-139.5466827428909
 30
0.0
  0
SPLINE
  5
BB
330
1F
100
AcDbEntity
  8
_U+30EC_U+30A4_U+30E4_U+30FC 1
 62
     7
420
 16777215
370
     9
100
AcDbSpline
210
0.0
220
0.0
230
1.0
 70
    11
 71
     3
 72
    17
 73
    13
 74
     0
 42
0.0000000001
 43
0.0000000001
 12
1.0
 22
0.0
 32
0.0
 13
1.0
 23
0.0
 33
0.0
 40
0.0
 40
0.0
 40
0.0
 40
0.0
 40
1.0
 40
1.0
 40
1.0
 40
2.0
 40
2.0
 40
2.0
 40
3.0
 40
3.0
 40
3.0
 40
4.0
 40
4.0
 40
4.0
 40
4.0
 10
80.31155239552605
 20
-139.5466827428909
 30
0.0
 10
80.31155239552605
 20
-139.491578854016
 30
0.0
 10
80.26674961889128
 20
-139.4467760762493
 30
0.0
 10
80.21129295363943
 20
-139.4467760762493
 30
0.0
 10
80.15618906615636
 20
-139.4467760762493
 30
0.0
 10
80.1113862895216
 20
-139.491578854016
 30
0.0
 10
80.1113862895216
 20
-139.5466827428909
 30
0.0
 10
80.1113862895216
 20
-139.6024921873214
 30
0.0
 10
80.15618906615636
 20
-139.6472949650881
 30
0.0
 10
80.21129295363943
 20
-139.6472949650881
 30
0.0
 10
80.26674961889128
 20
-139.6472949650881
 30
0.0
 10
80.31155239552605
 20
-139.6024921873214
 30
0.0
 10
80.31155239552605
 20
-139.5466827428909
 30
0.0
  0
SPLINE
  5
BC
330
1F
100
AcDbEntity
  8
_U+30EC_U+30A4_U+30E4_U+30FC 1
 62
     7
420
 16777215
370
     9
100
AcDbSpline
210
0.0
220
0.0
230
1.0
 70
    11
 71
     3
 72
    17
 73
    13
 74
     0
 42
0.0000000001
 43
0.0000000001
 12
1.0
 22
0.0
 32
0.0
 13
1.0
 23
0.0
 33
0.0
 40
0.0
 40
0.0
 40
0.0
 40
0.0
 40
1.0
 40
1.0
 40
1.0
 40
2.0
 40
2.0
 40
2.0
 40
3.0
 40
3.0
 40
3.0
 40
4.0
 40
4.0
 40
4.0
 40
4.0
 10
74.31175504859362
 20
-143.5471474641134
 30
0.0
 10
74.31175504859362
 20
-143.4920082974603
 30
0.0
 10
74.26695227195887
 20
-143.4472407974717
 30
0.0
 10
74.21149560670702
 20
-143.4472407974717
 30
0.0
 10
74.15635831479436
 20
-143.4472407974717
 30
0.0
 10
74.11158894258918
 20
-143.4920082974603
 30
0.0
 10
74.11158894258918
 20
-143.5471474641134
 30
0.0
 10
74.11158894258918
 20
-143.6022513529882
 30
0.0
 10
74.15635831479436
 20
-143.647054130755
 30
0.0
 10
74.21149560670702
 20
-143.647054130755
 30
0.0
 10
74.26695227195887
 20
-143.647054130755
 30
0.0
 10
74.31175504859362
 20
-143.6022513529882
 30
0.0
 10
74.31175504859362
 20
-143.5471474641134
 30
0.0
  0
SPLINE
  5
BD
330
1F
100
AcDbEntity
  8
_U+30EC_U+30A4_U+30E4_U+30FC 1
 62
     7
420
 16777215
370
     9
100
AcDbSpline
210
0.0
220
0.0
230
1.0
 70
    11
 71
     3
 72
    17
 73
    13
 74
     0
 42
0.0000000001
 43
0.0000000001
 12
1.0
 22
0.0
 32
0.0
 13
1.0
 23
0.0
 33
0.0
 40
0.0
 40
0.0
 40
0.0
 40
0.0
 40
1.0
 40
1.0
 40
1.0
 40
2.0
 40
2.0
 40
2.0
 40
3.0
 40
3.0
 40
3.0
 40
4.0
 40
4.0
 40
4.0
 40
4.0
 10
110.3112799635026
 20
-143.5471474641134
 30
0.0
 10
110.3112799635026
 20
-143.4920082974603
 30
0.0
 10
110.2664771868678
 20
-143.4472407974717
 30
0.0
 10
110.2113732993847
 20
-143.4472407974717
 30
0.0
 10
110.1562341341248
 20
-143.4472407974717
 30
0.0
 10
110.1114694169167
 20
-143.4920082974603
 30
0.0
 10
110.1114694169167
 20
-143.5471474641134
 30
0.0
 10
110.1114694169167
 20
-143.6022513529882
 30
0.0
 10
110.1562341341248
 20
-143.647054130755
 30
0.0
 10
110.2113732993847
 20
-143.647054130755
 30
0.0
 10
110.2664771868678
 20
-143.647054130755
 30
0.0
 10
110.3112799635026
 20
-143.6022513529882
 30
0.0
 10
110.3112799635026
 20
-143.5471474641134
 30
0.0
  0
POLYLINE
  5
BE
330
1F
100
AcDbEntity
  8
_U+30EC_U+30A4_U+30E4_U+30FC 1
 62
     7
420
 16777215
370
     9
100
AcDb2dPolyline
 66
     1
 10
0.0
 20
0.0
 30
0.0
  0
VERTEX
  5
BF
330
BE
100
AcDbEntity
  8
_U+30EC_U+30A4_U+30E4_U+30FC 1
 62
     7
420
 16777215
370
     9
100
AcDbVertex
100
AcDb2dVertex
 10
74.21149560670702
 20
-139.5466827428909
 30
0.0
  0
VERTEX
  5
C0
330
BE
100
AcDbEntity
  8
_U+30EC_U+30A4_U+30E4_U+30FC 1
 62
     7
420
 16777215
370
     9
100
AcDbVertex
100
AcDb2dVertex
 10
80.21146934252383
 20
-139.5466827428909
 30
0.0
  0
SEQEND
  5
C1
330
BE
100
AcDbEntity
  8
_U+30EC_U+30A4_U+30E4_U+30FC 1
 62
     7
420
 16777215
370
     9
  0
POLYLINE
  5
C2
330
1F
100
AcDbEntity
  8
_U+30EC_U+30A4_U+30E4_U+30FC 1
 62
     7
420
 16777215
370
     9
100
AcDb2dPolyline
 66
     1
 10
0.0
 20
0.0
 30
0.0
  0
VERTEX
  5
C3
330
C2
100
AcDbEntity
  8
_U+30EC_U+30A4_U+30E4_U+30FC 1
 62
     7
420
 16777215
370
     9
100
AcDbVertex
100
AcDb2dVertex
 10
74.21149560670702
 20
-138.0866766321448
 30
0.0
  0
VERTEX
  5
C4
330
C2
100
AcDbEntity
  8
_U+30EC_U+30A4_U+30E4_U+30FC 1
 62
     7
420
 16777215
370
     9
100
AcDbVertex
100
AcDb2dVertex
 10
74.21149560670702
 20
-140.547160520419
 30
0.0
  0
SEQEND
  5
C5
330
C2
100
AcDbEntity
  8
_U+30EC_U+30A4_U+30E4_U+30FC 1
 62
     7
420
 16777215
370
     9
  0
POLYLINE
  5
C6
330
1F
100
AcDbEntity
  8
_U+30EC_U+30A4_U+30E4_U+30FC 1
 62
     7
420
 16777215
370
     9
100
AcDb2dPolyline
 66
     1
 10
0.0
 20
0.0
 30
0.0
  0
VERTEX
  5
C7
330
C6
100
AcDbEntity
  8
_U+30EC_U+30A4_U+30E4_U+30FC 1
 62
     7
420
 16777215
370
     9
100
AcDbVertex
100
AcDb2dVertex
 10
80.21129295363943
 20
-137.2122816323639
 30
0.0
  0
VERTEX
  5
C8
330
C6
100
AcDbEntity
  8
_U+30EC_U+30A4_U+30E4_U+30FC 1
 62
     7
420
 16777215
370
     9
100
AcDbVertex
100
AcDb2dVertex
 10
80.21129295363943
 20
-140.547160520419
 30
0.0
  0
SEQEND
  5
C9
330
C6
100
AcDbEntity
  8
_U+30EC_U+30A4_U+30E4_U+30FC 1
 62
     7
420
 16777215
370
     9
  0
INSERT
  5
CB
330
1F
100
AcDbEntity
  8
_U+30EC_U+30A4_U+30E4_U+30FC 1
100
AcDbBlockReference
  2
block 7
 10
0.0
 20
0.0
 30
0.0
  0
SPLINE
  5
D1
330
1F
100
AcDbEntity
  8
_U+30EC_U+30A4_U+30E4_U+30FC 1
 62
     7
420
 16777215
370
     9
100
AcDbSpline
210
0.0
220
0.0
230
1.0
 70
    11
 71
     3
 72
    17
 73
    13
 74
     0
 42
0.0000000001
 43
0.0000000001
 12
1.0
 22
0.0
 32
0.0
 13
1.0
 23
0.0
 33
0.0
 40
0.0
 40
0.0
 40
0.0
 40
0.0
 40
1.0
 40
1.0
 40
1.0
 40
2.0
 40
2.0
 40
2.0
 40
3.0
 40
3.0
 40
3.0
 40
4.0
 40
4.0
 40
4.0
 40
4.0
 10
80.24678239717846
 20
-139.5466827428909
 30
0.0
 10
80.24678239717846
 20
-139.5666852428863
 30
0.0
 10
80.23094267536035
 20
-139.5825249651042
 30
0.0
 10
80.21129295363943
 20
-139.5825249651042
 30
0.0
 10
80.1919960096873
 20
-139.5825249651042
 30
0.0
 10
80.1761583132892
 20
-139.5666852428863
 30
0.0
 10
80.1761583132892
 20
-139.5466827428909
 30
0.0
 10
80.1761583132892
 20
-139.5273857984517
 30
0.0
 10
80.1919960096873
 20
-139.5115460762332
 30
0.0
 10
80.21129295363943
 20
-139.5115460762332
 30
0.0
 10
80.23094267536035
 20
-139.5115460762332
 30
0.0
 10
80.24678239717846
 20
-139.5273857984517
 30
0.0
 10
80.24678239717846
 20
-139.5466827428909
 30
0.0
  0
POLYLINE
  5
D2
330
1F
100
AcDbEntity
  8
_U+30EC_U+30A4_U+30E4_U+30FC 1
 62
     7
420
 16777215
370
     9
100
AcDb2dPolyline
 66
     1
 10
0.0
 20
0.0
 30
0.0
  0
VERTEX
  5
D3
330
D2
100
AcDbEntity
  8
_U+30EC_U+30A4_U+30E4_U+30FC 1
 62
     7
420
 16777215
370
     9
100
AcDbVertex
100
AcDb2dVertex
 10
74.21149560670702
 20
-138.0866766321448
 30
0.0
  0
VERTEX
  5
D4
330
D2
100
AcDbEntity
  8
_U+30EC_U+30A4_U+30E4_U+30FC 1
 62
     7
420
 16777215
370
     9
100
AcDbVertex
100
AcDb2dVertex
 10
74.21149560670702
 20
-144.5469196860852
 30
0.0
  0
SEQEND
  5
D5
330
D2
100
AcDbEntity
  8
_U+30EC_U+30A4_U+30E4_U+30FC 1
 62
     7
420
 16777215
370
     9
  0
POLYLINE
  5
D6
330
1F
100
AcDbEntity
  8
_U+30EC_U+30A4_U+30E4_U+30FC 1
 62
     7
420
 16777215
370
     9
100
AcDb2dPolyline
 66
     1
 10
0.0
 20
0.0
 30
0.0
  0
VERTEX
  5
D7
330
D6
100
AcDbEntity
  8
_U+30EC_U+30A4_U+30E4_U+30FC 1
 62
     7
420
 16777215
370
     9
100
AcDbVertex
100
AcDb2dVertex
 10
110.2113732993847
 20
-138.0866766321448
 30
0.0
  0
VERTEX
  5
D8
330
D6
100
AcDbEntity
  8
_U+30EC_U+30A4_U+30E4_U+30FC 1
 62
     7
420
 16777215
370
     9
100
AcDbVertex
100
AcDb2dVertex
 10
110.2113732993847
 20
-144.5469196860852
 30
0.0
  0
SEQEND
  5
D9
330
D6
100
AcDbEntity
  8
_U+30EC_U+30A4_U+30E4_U+30FC 1
 62
     7
420
 16777215
370
     9
  0
INSERT
  5
DB
330
1F
100
AcDbEntity
  8
_U+30EC_U+30A4_U+30E4_U+30FC 1
100
AcDbBlockReference
  2
block 8
 10
0.0
 20
0.0
 30
0.0
  0
SPLINE
  5
E3
330
1F
100
AcDbEntity
  8
_U+30EC_U+30A4_U+30E4_U+30FC 1
 62
     7
420
 16777215
370
    25
100
AcDbSpline
210
0.0
220
0.0
230
1.0
 70
     8
 71
     3
 72
    26
 73
    22
 74
     0
 42
0.0000000001
 43
0.0000000001
 12
1.0
 22
0.0
 32
0.0
 13
1.0
 23
0.0
 33
0.0
 40
0.0
 40
0.0
 40
0.0
 40
0.0
 40
1.0
 40
1.0
 40
1.0
 40
2.0
 40
2.0
 40
2.0
 40
3.0
 40
3.0
 40
3.0
 40
4.0
 40
4.0
 40
4.0
 40
5.0
 40
5.0
 40
5.0
 40
6.0
 40
6.0
 40
6.0
 40
7.0
 40
7.0
 40
7.0
 40
7.0
 10
80.25143906372634
 20
-135.1931227439794
 30
0.0
 10
80.25143906372634
 20
-135.1931227439794
 30
0.0
 10
74.93977003257163
 20
-135.5644919105532
 30
0.0
 10
74.93977003257163
 20
-135.5644919105532
 30
0.0
 10
74.6345467070252
 20
-135.5644919105532
 30
0.0
 10
74.38650865779762
 20
-135.317159410615
 30
0.0
 10
74.38650865779762
 20
-135.011230521803
 30
0.0
 10
74.38650865779762
 20
-135.011230521803
 30
0.0
 10
74.38650865779762
 20
-120.3430480254698
 30
0.0
 10
74.38650865779762
 20
-120.3430480254698
 30
0.0
 10
74.38650865779762
 20
-120.0371191366575
 30
0.0
 10
74.6345467070252
 20
-119.7890810811637
 30
0.0
 10
74.93977003257163
 20
-119.7890810811637
 30
0.0
 10
74.93977003257163
 20
-119.7890810811637
 30
0.0
 10
89.56491327056425
 20
-119.7890810811637
 30
0.0
 10
89.56491327056425
 20
-119.7890810811637
 30
0.0
 10
89.87084442197688
 20
-119.7890810811637
 30
0.0
 10
90.11817464533827
 20
-120.0371191366575
 30
0.0
 10
90.11817464533827
 20
-120.3430480254698
 30
0.0
 10
90.11817464533827
 20
-120.3430480254698
 30
0.0
 10
89.81362159755251
 20
-125.7721569130015
 30
0.0
 10
89.81362159755251
 20
-125.7721569130015
 30
0.0
  0
ENDSEC
  0
SECTION
  2
OBJECTS
  0
DICTIONARY
  5
C
330
0
100
AcDbDictionary
281
     1
  3
ACAD_GROUP
350
D
  3
ACAD_LAYOUT
350
1A
  3
ACAD_MATERIAL
350
3B
  3
ACAD_MLEADERSTYLE
350
E5
  3
ACAD_MLINESTYLE
350
17
  3
ACAD_PLOTSETTINGS
350
19
  3
ACAD_PLOTSTYLENAME
350
E
  3
ACAD_TABLESTYLE
350
E4
  3
ACAD_VISUALSTYLE
350
2A
  0
SUN
  5
3F
330
29
100
AcDbSun
 90
        1
290
     0
 63
     7
421
 16777215
 40
1.0
291
     1
 91
  2455826
 92
 54000000
292
     0
 70
     2
 71
   256
280
     1
  0
DICTIONARY
  5
D
102
{ACAD_REACTORS
330
C
102
}
330
C
100
AcDbDictionary
281
     1
  0
DICTIONARY
  5
1A
102
{ACAD_REACTORS
330
C
102
}
330
C
100
AcDbDictionary
281
     1
  3
Layout1
350
1E
  3
Layout2
350
26
  3
Model
350
22
  0
DICTIONARY
  5
3B
102
{ACAD_REACTORS
330
C
102
}
330
C
100
AcDbDictionary
281
     1
  3
ByBlock
350
3D
  3
ByLayer
350
3C
  3
Global
350
3E
  0
DICTIONARY
  5
E5
102
{ACAD_REACTORS
330
C
102
}
330
C
100
AcDbDictionary
281
     1
  0
DICTIONARY
  5
17
102
{ACAD_REACTORS
330
C
102
}
330
C
100
AcDbDictionary
281
     1
  3
Standard
350
18
  0
DICTIONARY
  5
19
102
{ACAD_REACTORS
330
C
102
}
330
C
100
AcDbDictionary
281
     1
  0
ACDBDICTIONARYWDFLT
  5
E
102
{ACAD_REACTORS
330
C
102
}
330
C
100
AcDbDictionary
281
     1
  3
Normal
350
F
100
AcDbDictionaryWithDefault
340
F
  0
DICTIONARY
  5
E4
102
{ACAD_REACTORS
330
C
102
}
330
C
100
AcDbDictionary
281
     1
  0
DICTIONARY
  5
2A
102
{ACAD_REACTORS
330
C
102
}
330
C
100
AcDbDictionary
281
     1
  3
2dWireframe
350
2F
  3
3D Hidden
350
31
  3
3dWireframe
350
30
  3
Basic
350
32
  3
Brighten
350
36
  3
ColorChange
350
3A
  3
Conceptual
350
34
  3
Dim
350
35
  3
Facepattern
350
39
  3
Flat
350
2B
  3
FlatWithEdges
350
2C
  3
Gouraud
350
2D
  3
GouraudWithEdges
350
2E
  3
Linepattern
350
38
  3
Realistic
350
33
  3
Thicken
350
37
  0
LAYOUT
  5
1E
102
{ACAD_REACTORS
330
1A
102
}
330
1A
100
AcDbPlotSettings
  1

  2
none_device
  4

  6

 40
0.0
 41
0.0
 42
0.0
 43
0.0
 44
0.0
 45
0.0
 46
0.0
 47
0.0
 48
0.0
 49
0.0
140
0.0
141
0.0
142
1.0
143
1.0
 70
   688
 72
     0
 73
     0
 74
     5
  7

 75
    16
 76
     0
 77
     2
 78
   300
147
1.0
148
0.0
149
0.0
100
AcDbLayout
  1
Layout1
 70
     1
 71
     1
 10
0.0
 20
0.0
 11
12.0
 21
9.0
 12
0.0
 22
0.0
 32
0.0
 14
1.000000000000000E+20
 24
1.000000000000000E+20
 34
1.000000000000000E+20
 15
-1.000000000000000E+20
 25
-1.000000000000000E+20
 35
-1.000000000000000E+20
146
0.0
 13
0.0
 23
0.0
 33
0.0
 16
1.0
 26
0.0
 36
0.0
 17
0.0
 27
1.0
 37
0.0
 76
     0
330
1B
  0
LAYOUT
  5
26
102
{ACAD_REACTORS
330
1A
102
}
330
1A
100
AcDbPlotSettings
  1

  2
none_device
  4

  6

 40
0.0
 41
0.0
 42
0.0
 43
0.0
 44
0.0
 45
0.0
 46
0.0
 47
0.0
 48
0.0
 49
0.0
140
0.0
141
0.0
142
1.0
143
1.0
 70
   688
 72
     0
 73
     0
 74
     5
  7

 75
    16
 76
     0
 77
     2
 78
   300
147
1.0
148
0.0
149
0.0
100
AcDbLayout
  1
Layout2
 70
     1
 71
     2
 10
0.0
 20
0.0
 11
0.0
 21
0.0
 12
0.0
 22
0.0
 32
0.0
 14
0.0
 24
0.0
 34
0.0
 15
0.0
 25
0.0
 35
0.0
146
0.0
 13
0.0
 23
0.0
 33
0.0
 16
1.0
 26
0.0
 36
0.0
 17
0.0
 27
1.0
 37
0.0
 76
     0
330
23
  0
LAYOUT
  5
22
102
{ACAD_REACTORS
330
1A
102
}
330
1A
100
AcDbPlotSettings
  1

  2
none_device
  4

  6

 40
0.0
 41
0.0
 42
0.0
 43
0.0
 44
0.0
 45
0.0
 46
0.0
 47
0.0
 48
0.0
 49
0.0
140
0.0
141
0.0
142
1.0
143
1.0
 70
  1712
 72
     0
 73
     0
 74
     0
  7

 75
     0
 76
     0
 77
     2
 78
   300
147
1.0
148
0.0
149
0.0
100
AcDbLayout
  1
Model
 70
     1
 71
     0
 10
0.0
 20
0.0
 11
12.0
 21
9.0
 12
0.0
 22
0.0
 32
0.0
 14
1.000000000000000E+20
 24
1.000000000000000E+20
 34
1.000000000000000E+20
 15
-1.000000000000000E+20
 25
-1.000000000000000E+20
 35
-1.000000000000000E+20
146
0.0
 13
0.0
 23
0.0
 33
0.0
 16
1.0
 26
0.0
 36
0.0
 17
0.0
 27
1.0
 37
0.0
 76
     0
330
1F
331
29
  0
MATERIAL
  5
3D
102
{ACAD_REACTORS
330
3B
102
}
330
3B
100
AcDbMaterial
  1
ByBlock
 72
     1
 94
      127
  0
MATERIAL
  5
3C
102
{ACAD_REACTORS
330
3B
102
}
330
3B
100
AcDbMaterial
  1
ByLayer
 72
     1
 94
      127
  0
MATERIAL
  5
3E
102
{ACAD_REACTORS
330
3B
102
}
330
3B
100
AcDbMaterial
  1
Global
 72
     1
 94
      127
  0
MLINESTYLE
  5
18
102
{ACAD_REACTORS
330
17
102
}
330
17
100
AcDbMlineStyle
  2
Standard
 70
     0
  3

 62
   256
 51
90.0
 52
90.0
 71
     2
 49
0.5
 62
   256
  6
BYLAYER
 49
-0.5
 62
   256
  6
BYLAYER
  0
ACDBPLACEHOLDER
  5
F
102
{ACAD_REACTORS
330
E
102
}
330
E
  0
VISUALSTYLE
  5
2F
102
{ACAD_REACTORS
330
2A
102
}
330
2A
100
AcDbVisualStyle
  2
2dWireframe
 70
     4
177
     2
291
     0
 71
     0
176
     1
 72
     2
176
     1
 73
     0
176
     1
 90
        0
176
     1
 40
-0.6
176
     1
 41
-30.0
176
     1
 62
     5
 63
     7
421
 16777215
176
     1
 74
     1
176
     1
 91
        4
176
     1
 64
     7
176
     1
 65
   257
176
     1
 75
     1
176
     1
175
     1
176
     1
 42
1.0
176
     1
 92
        0
176
     1
 66
   257
176
     1
 43
1.0
176
     1
 76
     1
176
     1
 77
     6
176
     1
 78
     2
176
     1
 67
     7
176
     1
 79
     5
176
     1
170
     0
176
     1
171
     0
176
     1
290
     0
176
     1
 93
        1
176
     1
 44
0.0
176
     1
173
     0
176
     1
  0
VISUALSTYLE
  5
31
102
{ACAD_REACTORS
330
2A
102
}
330
2A
100
AcDbVisualStyle
  2
3D Hidden
 70
     6
177
     2
291
     0
 71
     1
176
     1
 72
     2
176
     1
 73
     2
176
     1
 90
        0
176
     1
 40
-0.6
176
     1
 41
-30.0
176
     1
 62
     5
 63
     7
421
 16777215
176
     1
 74
     2
176
     1
 91
        2
176
     1
 64
     7
176
     1
 65
   257
176
     1
 75
     2
176
     1
175
     1
176
     1
 42
40.0
176
     1
 92
        0
176
     1
 66
   257
176
     1
 43
1.0
176
     1
 76
     1
176
     1
 77
     6
176
     1
 78
     2
176
     1
 67
     7
176
     1
 79
     3
176
     1
170
     0
176
     1
171
     0
176
     1
290
     0
176
     1
 93
        1
176
     1
 44
0.0
176
     1
173
     0
176
     1
  0
VISUALSTYLE
  5
30
102
{ACAD_REACTORS
330
2A
102
}
330
2A
100
AcDbVisualStyle
  2
3dWireframe
 70
     5
177
     2
291
     0
 71
     0
176
     1
 72
     2
176
     1
 73
     0
176
     1
 90
        0
176
     1
 40
-0.6
176
     1
 41
-30.0
176
     1
 62
     5
 63
     7
421
 16777215
176
     1
 74
     1
176
     1
 91
        4
176
     1
 64
     7
176
     1
 65
   257
176
     1
 75
     1
176
     1
175
     1
176
     1
 42
1.0
176
     1
 92
        0
176
     1
 66
   257
176
     1
 43
1.0
176
     1
 76
     1
176
     1
 77
     6
176
     1
 78
     2
176
     1
 67
     7
176
     1
 79
     5
176
     1
170
     0
176
     1
171
     0
176
     1
290
     0
176
     1
 93
        1
176
     1
 44
0.0
176
     1
173
     0
176
     1
  0
VISUALSTYLE
  5
32
102
{ACAD_REACTORS
330
2A
102
}
330
2A
100
AcDbVisualStyle
  2
Basic
 70
     7
177
     2
291
     1
 71
     1
176
     1
 72
     0
176
     1
 73
     1
176
     1
 90
        0
176
     1
 40
-0.6
176
     1
 41
-30.0
176
     1
 62
     5
 63
     7
421
 16777215
176
     1
 74
     0
176
     1
 91
        4
176
     1
 64
     7
176
     1
 65
   257
176
     1
 75
     1
176
     1
175
     1
176
     1
 42
1.0
176
     1
 92
        8
176
     1
 66
     7
176
     1
 43
1.0
176
     1
 76
     1
176
     1
 77
     6
176
     1
 78
     2
176
     1
 67
     7
176
     1
 79
     5
176
     1
170
     0
176
     1
171
     0
176
     1
290
     0
176
     1
 93
        1
176
     1
 44
0.0
176
     1
173
     0
176
     1
  0
VISUALSTYLE
  5
36
102
{ACAD_REACTORS
330
2A
102
}
330
2A
100
AcDbVisualStyle
  2
Brighten
 70
    12
177
     2
291
     1
 71
     2
176
     1
 72
     2
176
     1
 73
     0
176
     1
 90
        0
176
     1
 40
-0.6
176
     1
 41
-30.0
176
     1
 62
     5
 63
     7
421
 16777215
176
     1
 74
     1
176
     1
 91
        4
176
     1
 64
     7
176
     1
 65
   257
176
     1
 75
     1
176
     1
175
     1
176
     1
 42
1.0
176
     1
 92
        8
176
     1
 66
     7
176
     1
 43
1.0
176
     1
 76
     1
176
     1
 77
     6
176
     1
 78
     2
176
     1
 67
     7
176
     1
 79
     5
176
     1
170
     0
176
     1
171
     0
176
     1
290
     0
176
     1
 93
        1
176
     1
 44
50.0
176
     1
173
     0
176
     1
  0
VISUALSTYLE
  5
3A
102
{ACAD_REACTORS
330
2A
102
}
330
2A
100
AcDbVisualStyle
  2
ColorChange
 70
    16
177
     2
291
     1
 71
     2
176
     1
 72
     2
176
     1
 73
     3
176
     1
 90
        0
176
     1
 40
-0.6
176
     1
 41
-30.0
176
     1
 62
     5
 63
     8
421
  8421504
176
     1
 74
     1
176
     1
 91
        4
176
     1
 64
     7
176
     1
 65
   257
176
     1
 75
     1
176
     1
175
     1
176
     1
 42
1.0
176
     1
 92
        8
176
     1
 66
     8
424
  8421504
176
     1
 43
1.0
176
     1
 76
     1
176
     1
 77
     6
176
     1
 78
     2
176
     1
 67
     7
176
     1
 79
     5
176
     1
170
     0
176
     1
171
     0
176
     1
290
     0
176
     1
 93
        1
176
     1
 44
0.0
176
     1
173
     0
176
     1
  0
VISUALSTYLE
  5
34
102
{ACAD_REACTORS
330
2A
102
}
330
2A
100
AcDbVisualStyle
  2
Conceptual
 70
     9
177
     2
291
     0
 71
     3
176
     1
 72
     2
176
     1
 73
     0
176
     1
 90
        0
176
     1
 40
-0.6
176
     1
 41
-30.0
176
     1
 62
     5
 63
     7
421
 16777215
176
     1
 74
     2
176
     1
 91
        2
176
     1
 64
     7
176
     1
 65
   257
176
     1
 75
     1
176
     1
175
     1
176
     1
 42
40.0
176
     1
 92
        8
176
     1
 66
     7
176
     1
 43
1.0
176
     1
 76
     1
176
     1
 77
     6
176
     1
 78
     2
176
     1
 67
     7
176
     1
 79
     3
176
     1
170
     0
176
     1
171
     0
176
     1
290
     0
176
     1
 93
        1
176
     1
 44
0.0
176
     1
173
     0
176
     1
  0
VISUALSTYLE
  5
35
102
{ACAD_REACTORS
330
2A
102
}
330
2A
100
AcDbVisualStyle
  2
Dim
 70
    11
177
     2
291
     1
 71
     2
176
     1
 72
     2
176
     1
 73
     0
176
     1
 90
        0
176
     1
 40
-0.6
176
     1
 41
-30.0
176
     1
 62
     5
 63
     7
421
 16777215
176
     1
 74
     1
176
     1
 91
        4
176
     1
 64
     7
176
     1
 65
   257
176
     1
 75
     1
176
     1
175
     1
176
     1
 42
1.0
176
     1
 92
        8
176
     1
 66
     7
176
     1
 43
1.0
176
     1
 76
     1
176
     1
 77
     6
176
     1
 78
     2
176
     1
 67
     7
176
     1
 79
     5
176
     1
170
     0
176
     1
171
     0
176
     1
290
     0
176
     1
 93
        1
176
     1
 44
-50.0
176
     1
173
     0
176
     1
  0
VISUALSTYLE
  5
39
102
{ACAD_REACTORS
330
2A
102
}
330
2A
100
AcDbVisualStyle
  2
Facepattern
 70
    15
177
     2
291
     1
 71
     2
176
     1
 72
     2
176
     1
 73
     0
176
     1
 90
        0
176
     1
 40
-0.6
176
     1
 41
-30.0
176
     1
 62
     5
 63
     7
421
 16777215
176
     1
 74
     1
176
     1
 91
        4
176
     1
 64
     7
176
     1
 65
   257
176
     1
 75
     1
176
     1
175
     1
176
     1
 42
1.0
176
     1
 92
        8
176
     1
 66
     7
176
     1
 43
1.0
176
     1
 76
     1
176
     1
 77
     6
176
     1
 78
     2
176
     1
 67
     7
176
     1
 79
     5
176
     1
170
     0
176
     1
171
     0
176
     1
290
     0
176
     1
 93
        1
176
     1
 44
0.0
176
     1
173
     0
176
     1
  0
VISUALSTYLE
  5
2B
102
{ACAD_REACTORS
330
2A
102
}
330
2A
100
AcDbVisualStyle
  2
Flat
 70
     0
177
     2
291
     1
 71
     2
176
     1
 72
     1
176
     1
 73
     1
176
     1
 90
        2
176
     1
 40
-0.6
176
     1
 41
30.0
176
     1
 62
     5
 63
     7
421
 16777215
176
     1
 74
     0
176
     1
 91
        4
176
     1
 64
     7
176
     1
 65
   257
176
     1
 75
     1
176
     1
175
     1
176
     1
 42
1.0
176
     1
 92
        8
176
     1
 66
     7
176
     1
 43
1.0
176
     1
 76
     1
176
     1
 77
     6
176
     1
 78
     2
176
     1
 67
     7
176
     1
 79
     5
176
     1
170
     0
176
     1
171
     0
176
     1
290
     0
176
     1
 93
       13
176
     1
 44
0.0
176
     1
173
     0
176
     1
  0
VISUALSTYLE
  5
2C
102
{ACAD_REACTORS
330
2A
102
}
330
2A
100
AcDbVisualStyle
  2
FlatWithEdges
 70
     1
177
     2
291
     1
 71
     2
176
     1
 72
     1
176
     1
 73
     1
176
     1
 90
        2
176
     1
 40
-0.6
176
     1
 41
30.0
176
     1
 62
     5
 63
     7
421
 16777215
176
     1
 74
     1
176
     1
 91
        4
176
     1
 64
     7
176
     1
 65
   257
176
     1
 75
     1
176
     1
175
     1
176
     1
 42
1.0
176
     1
 92
        0
176
     1
 66
   257
176
     1
 43
1.0
176
     1
 76
     1
176
     1
 77
     6
176
     1
 78
     2
176
     1
 67
     7
176
     1
 79
     5
176
     1
170
     0
176
     1
171
     0
176
     1
290
     0
176
     1
 93
       13
176
     1
 44
0.0
176
     1
173
     0
176
     1
  0
VISUALSTYLE
  5
2D
102
{ACAD_REACTORS
330
2A
102
}
330
2A
100
AcDbVisualStyle
  2
Gouraud
 70
     2
177
     2
291
     1
 71
     2
176
     1
 72
     2
176
     1
 73
     1
176
     1
 90
        2
176
     1
 40
-0.6
176
     1
 41
30.0
176
     1
 62
     5
 63
     7
421
 16777215
176
     1
 74
     0
176
     1
 91
        4
176
     1
 64
     7
176
     1
 65
   257
176
     1
 75
     1
176
     1
175
     1
176
     1
 42
1.0
176
     1
 92
        0
176
     1
 66
     7
176
     1
 43
1.0
176
     1
 76
     1
176
     1
 77
     6
176
     1
 78
     2
176
     1
 67
     7
176
     1
 79
     5
176
     1
170
     0
176
     1
171
     0
176
     1
290
     0
176
     1
 93
       13
176
     1
 44
0.0
176
     1
173
     0
176
     1
  0
VISUALSTYLE
  5
2E
102
{ACAD_REACTORS
330
2A
102
}
330
2A
100
AcDbVisualStyle
  2
GouraudWithEdges
 70
     3
177
     2
291
     1
 71
     2
176
     1
 72
     2
176
     1
 73
     1
176
     1
 90
        2
176
     1
 40
-0.6
176
     1
 41
30.0
176
     1
 62
     5
 63
     7
421
 16777215
176
     1
 74
     1
176
     1
 91
        4
176
     1
 64
     7
176
     1
 65
   257
176
     1
 75
     1
176
     1
175
     1
176
     1
 42
1.0
176
     1
 92
        0
176
     1
 66
   257
176
     1
 43
1.0
176
     1
 76
     1
176
     1
 77
     6
176
     1
 78
     2
176
     1
 67
     7
176
     1
 79
     5
176
     1
170
     0
176
     1
171
     0
176
     1
290
     0
176
     1
 93
       13
176
     1
 44
0.0
176
     1
173
     0
176
     1
  0
VISUALSTYLE
  5
38
102
{ACAD_REACTORS
330
2A
102
}
330
2A
100
AcDbVisualStyle
  2
Linepattern
 70
    14
177
     2
291
     1
 71
     2
176
     1
 72
     2
176
     1
 73
     0
176
     1
 90
        0
176
     1
 40
-0.6
176
     1
 41
-30.0
176
     1
 62
     5
 63
     7
421
 16777215
176
     1
 74
     1
176
     1
 91
        4
176
     1
 64
     7
176
     1
 65
   257
176
     1
 75
     7
176
     1
175
     7
176
     1
 42
1.0
176
     1
 92
        8
176
     1
 66
     7
176
     1
 43
1.0
176
     1
 76
     1
176
     1
 77
     6
176
     1
 78
     2
176
     1
 67
     7
176
     1
 79
     5
176
     1
170
     0
176
     1
171
     0
176
     1
290
     0
176
     1
 93
        1
176
     1
 44
0.0
176
     1
173
     0
176
     1
  0
VISUALSTYLE
  5
33
102
{ACAD_REACTORS
330
2A
102
}
330
2A
100
AcDbVisualStyle
  2
Realistic
 70
     8
177
     2
291
     0
 71
     2
176
     1
 72
     2
176
     1
 73
     0
176
     1
 90
        0
176
     1
 40
-0.6
176
     1
 41
-30.0
176
     1
 62
     5
 63
     7
421
 16777215
176
     1
 74
     1
176
     1
 91
        0
176
     1
 64
     7
176
     1
 65
   257
176
     1
 75
     1
176
     1
175
     1
176
     1
 42
1.0
176
     1
 92
        8
176
     1
 66
     8
424
  7895160
176
     1
 43
1.0
176
     1
 76
     1
176
     1
 77
     6
176
     1
 78
     2
176
     1
 67
     7
176
     1
 79
     5
176
     1
170
     0
176
     1
171
     0
176
     1
290
     0
176
     1
 93
       13
176
     1
 44
0.0
176
     1
173
     0
176
     1
  0
VISUALSTYLE
  5
37
102
{ACAD_REACTORS
330
2A
102
}
330
2A
100
AcDbVisualStyle
  2
Thicken
 70
    13
177
     2
291
     1
 71
     2
176
     1
 72
     2
176
     1
 73
     0
176
     1
 90
        0
176
     1
 40
-0.6
176
     1
 41
-30.0
176
     1
 62
     5
 63
     7
421
 16777215
176
     1
 74
     1
176
     1
 91
        4
176
     1
 64
     7
176
     1
 65
   257
176
     1
 75
     1
176
     1
175
     1
176
     1
 42
1.0
176
     1
 92
       12
176
     1
 66
     7
176
     1
 43
1.0
176
     1
 76
     1
176
     1
 77
     6
176
     1
 78
     2
176
     1
 67
     7
176
     1
 79
     5
176
     1
170
     0
176
     1
171
     0
176
     1
290
     0
176
     1
 93
        1
176
     1
 44
0.0
176
     1
173
     0
176
     1
  0
ENDSEC
  0
EOF
