  0
SECTION
  2
HEADER
  9
$ACADVER
  1
AC1024
  9
$ACADMAINTVER
 70
     6
  9
$DWGCODEPAGE
  3
UNDEFINED
  9
$INSBASE
 10
0.0
 20
0.0
 30
0.0
  9
$EXTMIN
 10
1.000000000000000E+20
 20
1.000000000000000E+20
 30
1.000000000000000E+20
  9
$EXTMAX
 10
-1.000000000000000E+20
 20
-1.000000000000000E+20
 30
-1.000000000000000E+20
  9
$LIMMIN
 10
0.0
 20
0.0
  9
$LIMMAX
 10
12.0
 20
9.0
  9
$ORTHOMODE
 70
     0
  9
$REGENMODE
 70
     1
  9
$FILLMODE
 70
     1
  9
$QTEXTMODE
 70
     0
  9
$MIRRTEXT
 70
     1
  9
$LTSCALE
 40
1.0
  9
$ATTMODE
 70
     1
  9
$TEXTSIZE
 40
0.2
  9
$TRACEWID
 40
0.05
  9
$TEXTSTYLE
  7
Standard
  9
$CLAYER
  8
0
  9
$CELTYPE
  6
ByLayer
  9
$CECOLOR
 62
   256
  9
$CELTSCALE
 40
1.0
  9
$DISPSILH
 70
     0
  9
$DIMSCALE
 40
1.0
  9
$DIMASZ
 40
0.18
  9
$DIMEXO
 40
0.0625
  9
$DIMDLI
 40
0.38
  9
$DIMRND
 40
0.0
  9
$DIMDLE
 40
0.0
  9
$DIMEXE
 40
0.18
  9
$DIMTP
 40
0.0
  9
$DIMTM
 40
0.0
  9
$DIMTXT
 40
0.18
  9
$DIMCEN
 40
0.09
  9
$DIMTSZ
 40
0.0
  9
$DIMTOL
 70
     0
  9
$DIMLIM
 70
     0
  9
$DIMTIH
 70
     1
  9
$DIMTOH
 70
     1
  9
$DIMSE1
 70
     0
  9
$DIMSE2
 70
     0
  9
$DIMTAD
 70
     0
  9
$DIMZIN
 70
     0
  9
$DIMBLK
  1

  9
$DIMASO
 70
     1
  9
$DIMSHO
 70
     1
  9
$DIMPOST
  1

  9
$DIMAPOST
  1

  9
$DIMALT
 70
     0
  9
$DIMALTD
 70
     2
  9
$DIMALTF
 40
25.4
  9
$DIMLFAC
 40
1.0
  9
$DIMTOFL
 70
     0
  9
$DIMTVP
 40
0.0
  9
$DIMTIX
 70
     0
  9
$DIMSOXD
 70
     0
  9
$DIMSAH
 70
     0
  9
$DIMBLK1
  1

  9
$DIMBLK2
  1

  9
$DIMSTYLE
  2
Standard
  9
$DIMCLRD
 70
     0
  9
$DIMCLRE
 70
     0
  9
$DIMCLRT
 70
     0
  9
$DIMTFAC
 40
1.0
  9
$DIMGAP
 40
0.09
  9
$DIMJUST
 70
     0
  9
$DIMSD1
 70
     0
  9
$DIMSD2
 70
     0
  9
$DIMTOLJ
 70
     1
  9
$DIMTZIN
 70
     0
  9
$DIMALTZ
 70
     0
  9
$DIMALTTZ
 70
     0
  9
$DIMUPT
 70
     0
  9
$DIMDEC
 70
     4
  9
$DIMTDEC
 70
     4
  9
$DIMALTU
 70
     2
  9
$DIMALTTD
 70
     2
  9
$DIMTXSTY
  7
Standard
  9
$DIMAUNIT
 70
     0
  9
$DIMADEC
 70
     0
  9
$DIMALTRND
 40
0.0
  9
$DIMAZIN
 70
     0
  9
$DIMDSEP
 70
    46
  9
$DIMATFIT
 70
     3
  9
$DIMFRAC
 70
     0
  9
$DIMLDRBLK
  1

  9
$DIMLUNIT
 70
     2
  9
$DIMLWD
 70
    -2
  9
$DIMLWE
 70
    -2
  9
$DIMTMOVE
 70
     0
  9
$DIMFXL
 40
1.0
  9
$DIMFXLON
 70
     0
  9
$DIMJOGANG
 40
0.7853981633974483
  9
$DIMTFILL
 70
     0
  9
$DIMTFILLCLR
 70
     0
  9
$DIMARCSYM
 70
     0
  9
$DIMLTYPE
  6

  9
$DIMLTEX1
  6

  9
$DIMLTEX2
  6

  9
$DIMTXTDIRECTION
 70
     0
  9
$LUNITS
 70
     2
  9
$LUPREC
 70
     4
  9
$SKETCHINC
 40
0.1
  9
$FILLETRAD
 40
0.5
  9
$AUNITS
 70
     0
  9
$AUPREC
 70
     0
  9
$MENU
  1
.
  9
$ELEVATION
 40
0.0
  9
$PELEVATION
 40
0.0
  9
$THICKNESS
 40
0.0
  9
$LIMCHECK
 70
     0
  9
$CHAMFERA
 40
0.5
  9
$CHAMFERB
 40
0.5
  9
$CHAMFERC
 40
1.0
  9
$CHAMFERD
 40
0.0
  9
$SKPOLY
 70
     0
  9
$TDCREATE
 40
2457917.608807859
  9
$TDUCREATE
 40
2457917.23380787
  9
$TDUPDATE
 40
2457917.608807859
  9
$TDUUPDATE
 40
2457917.23380787
  9
$TDINDWG
 40
0.0000000116
  9
$TDUSRTIMER
 40
0.0000000116
  9
$USRTIMER
 70
     1
  9
$ANGBASE
 50
0.0
  9
$ANGDIR
 70
     0
  9
$PDMODE
 70
     0
  9
$PDSIZE
 40
0.0
  9
$PLINEWID
 40
0.0
  9
$SPLFRAME
 70
     0
  9
$SPLINETYPE
 70
     6
  9
$SPLINESEGS
 70
     8
  9
$HANDSEED
  5
E2
  9
$SURFTAB1
 70
     6
  9
$SURFTAB2
 70
     6
  9
$SURFTYPE
 70
     6
  9
$SURFU
 70
     6
  9
$SURFV
 70
     6
  9
$UCSBASE
  2

  9
$UCSNAME
  2

  9
$UCSORG
 10
0.0
 20
0.0
 30
0.0
  9
$UCSXDIR
 10
1.0
 20
0.0
 30
0.0
  9
$UCSYDIR
 10
0.0
 20
1.0
 30
0.0
  9
$UCSORTHOREF
  2

  9
$UCSORTHOVIEW
 70
     0
  9
$UCSORGTOP
 10
0.0
 20
0.0
 30
0.0
  9
$UCSORGBOTTOM
 10
0.0
 20
0.0
 30
0.0
  9
$UCSORGLEFT
 10
0.0
 20
0.0
 30
0.0
  9
$UCSORGRIGHT
 10
0.0
 20
0.0
 30
0.0
  9
$UCSORGFRONT
 10
0.0
 20
0.0
 30
0.0
  9
$UCSORGBACK
 10
0.0
 20
0.0
 30
0.0
  9
$PUCSBASE
  2

  9
$PUCSNAME
  2

  9
$PUCSORG
 10
0.0
 20
0.0
 30
0.0
  9
$PUCSXDIR
 10
1.0
 20
0.0
 30
0.0
  9
$PUCSYDIR
 10
0.0
 20
1.0
 30
0.0
  9
$PUCSORTHOREF
  2

  9
$PUCSORTHOVIEW
 70
     0
  9
$PUCSORGTOP
 10
0.0
 20
0.0
 30
0.0
  9
$PUCSORGBOTTOM
 10
0.0
 20
0.0
 30
0.0
  9
$PUCSORGLEFT
 10
0.0
 20
0.0
 30
0.0
  9
$PUCSORGRIGHT
 10
0.0
 20
0.0
 30
0.0
  9
$PUCSORGFRONT
 10
0.0
 20
0.0
 30
0.0
  9
$PUCSORGBACK
 10
0.0
 20
0.0
 30
0.0
  9
$USERI1
 70
     0
  9
$USERI2
 70
     0
  9
$USERI3
 70
     0
  9
$USERI4
 70
     0
  9
$USERI5
 70
     0
  9
$USERR1
 40
0.0
  9
$USERR2
 40
0.0
  9
$USERR3
 40
0.0
  9
$USERR4
 40
0.0
  9
$USERR5
 40
0.0
  9
$WORLDVIEW
 70
     1
  9
$SHADEDGE
 70
     3
  9
$SHADEDIF
 70
    70
  9
$TILEMODE
 70
     1
  9
$MAXACTVP
 70
    64
  9
$PINSBASE
 10
0.0
 20
0.0
 30
0.0
  9
$PLIMCHECK
 70
     0
  9
$PEXTMIN
 10
1.000000000000000E+20
 20
1.000000000000000E+20
 30
1.000000000000000E+20
  9
$PEXTMAX
 10
-1.000000000000000E+20
 20
-1.000000000000000E+20
 30
-1.000000000000000E+20
  9
$PLIMMIN
 10
0.0
 20
0.0
  9
$PLIMMAX
 10
12.0
 20
9.0
  9
$UNITMODE
 70
     0
  9
$VISRETAIN
 70
     1
  9
$PLINEGEN
 70
     0
  9
$PSLTSCALE
 70
     1
  9
$TREEDEPTH
 70
  3020
  9
$CMLSTYLE
  2
Standard
  9
$CMLJUST
 70
     0
  9
$CMLSCALE
 40
1.0
  9
$PROXYGRAPHICS
 70
     1
  9
$MEASUREMENT
 70
     0
  9
$CELWEIGHT
370
    -1
  9
$ENDCAPS
280
     0
  9
$JOINSTYLE
280
     0
  9
$LWDISPLAY
290
     1
  9
$INSUNITS
 70
     1
  9
$HYPERLINKBASE
  1

  9
$STYLESHEET
  1

  9
$XEDIT
290
     1
  9
$CEPSNTYPE
380
     0
  9
$PSTYLEMODE
290
     1
  9
$FINGERPRINTGUID
  2
{5198ABCD-CDF0-AD4D-F240-F5F51A07809D}
  9
$VERSIONGUID
  2
{FAEB1C32-E019-11D5-929B-00C0DF256EC4}
  9
$EXTNAMES
290
     1
  9
$PSVPSCALE
 40
0.0
  9
$OLESTARTUP
290
     0
  9
$SORTENTS
280
   127
  9
$INDEXCTL
280
     0
  9
$HIDETEXT
280
     1
  9
$XCLIPFRAME
280
     2
  9
$HALOGAP
280
     0
  9
$OBSCOLOR
 70
   257
  9
$OBSLTYPE
280
     0
  9
$INTERSECTIONDISPLAY
280
     0
  9
$INTERSECTIONCOLOR
 70
   257
  9
$DIMASSOC
280
     2
  9
$PROJECTNAME
  1

  9
$CAMERADISPLAY
290
     0
  9
$LENSLENGTH
 40
50.0
  9
$CAMERAHEIGHT
 40
0.0
  9
$STEPSPERSEC
 40
2.0
  9
$STEPSIZE
 40
6.0
  9
$3DDWFPREC
 40
2.0
  9
$PSOLWIDTH
 40
0.25
  9
$PSOLHEIGHT
 40
4.0
  9
$LOFTANG1
 40
1.570796326794897
  9
$LOFTANG2
 40
1.570796326794897
  9
$LOFTMAG1
 40
0.0
  9
$LOFTMAG2
 40
0.0
  9
$LOFTPARAM
 70
     7
  9
$LOFTNORMALS
280
     1
  9
$LATITUDE
 40
37.795
  9
$LONGITUDE
 40
-122.394
  9
$NORTHDIRECTION
 40
0.0
  9
$TIMEZONE
 70
 -8000
  9
$LIGHTGLYPHDISPLAY
280
     1
  9
$TILEMODELIGHTSYNCH
280
     1
  9
$CMATERIAL
347
3C
  9
$SOLIDHIST
280
     1
  9
$SHOWHIST
280
     1
  9
$DWFFRAME
280
     2
  9
$DGNFRAME
280
     2
  9
$REALWORLDSCALE
290
     1
  9
$INTERFERECOLOR
 62
   256
  9
$CSHADOW
280
     0
  9
$SHADOWPLANELOCATION
 40
0.0
  0
ENDSEC
  0
SECTION
  2
CLASSES
  0
CLASS
  1
ACDBDICTIONARYWDFLT
  2
AcDbDictionaryWithDefault
  3
ObjectDBX Classes
 90
        0
 91
        4
280
     0
281
     0
  0
CLASS
  1
VISUALSTYLE
  2
AcDbVisualStyle
  3
ObjectDBX Classes
 90
     4095
 91
        4
280
     0
281
     0
  0
CLASS
  1
MATERIAL
  2
AcDbMaterial
  3
ObjectDBX Classes
 90
     1153
 91
        4
280
     0
281
     0
  0
CLASS
  1
SUN
  2
AcDbSun
  3
SCENEOE
 90
     1024
 91
        4
280
     0
281
     0
  0
ENDSEC
  0
SECTION
  2
TABLES
  0
TABLE
  2
VPORT
  5
8
330
0
100
AcDbSymbolTable
 70
     1
  0
VPORT
  5
29
330
8
100
AcDbSymbolTableRecord
100
AcDbViewportTableRecord
  2
*Active
 70
     0
 10
0.0
 20
0.0
 11
1.0
 21
1.0
 12
0.0
 22
0.0
 13
0.0
 23
0.0
 14
0.5
 24
0.5
 15
0.5
 25
0.5
 16
0.0
 26
0.0
 36
1.0
 17
91.00082462281999
 27
-128.4993055234307
 37
0.0
 40
256.9986110468615
 41
0.7081814508812795
 42
50.0
 43
0.0
 44
0.0
 50
0.0
 51
0.0
 71
     0
 72
   100
 73
     1
 74
     3
 75
     0
 76
     0
 77
     0
 78
     0
281
     0
 65
     1
110
0.0
120
0.0
130
0.0
111
1.0
121
0.0
131
0.0
112
0.0
122
1.0
132
0.0
 79
     0
146
0.0
 60
     3
 61
     5
292
     1
282
     1
141
0.0
142
0.0
 63
   250
361
3F
  0
ENDTAB
  0
TABLE
  2
LTYPE
  5
5
330
0
100
AcDbSymbolTable
 70
     1
  0
LTYPE
  5
14
330
5
100
AcDbSymbolTableRecord
100
AcDbLinetypeTableRecord
  2
ByBlock
 70
     0
  3

 72
    65
 73
     0
 40
0.0
  0
LTYPE
  5
15
330
5
100
AcDbSymbolTableRecord
100
AcDbLinetypeTableRecord
  2
ByLayer
 70
     0
  3

 72
    65
 73
     0
 40
0.0
  0
LTYPE
  5
16
330
5
100
AcDbSymbolTableRecord
100
AcDbLinetypeTableRecord
  2
Continuous
 70
     0
  3
Solid line
 72
    65
 73
     0
 40
0.0
  0
ENDTAB
  0
TABLE
  2
LAYER
  5
2
330
0
100
AcDbSymbolTable
 70
     2
  0
LAYER
  5
10
330
2
100
AcDbSymbolTableRecord
100
AcDbLayerTableRecord
  2
0
 70
     0
 62
     7
  6
Continuous
370
    -3
390
F
347
3E
  0
LAYER
  5
40
330
2
100
AcDbSymbolTableRecord
100
AcDbLayerTableRecord
  2
_U+30EC_U+30A4_U+30E4_U+30FC 1
 70
     0
 62
     7
  6
Continuous
370
    -3
390
F
347
3E
  0
ENDTAB
  0
TABLE
  2
STYLE
  5
3
330
0
100
AcDbSymbolTable
 70
     1
  0
STYLE
  5
11
330
3
100
AcDbSymbolTableRecord
100
AcDbTextStyleTableRecord
  2
Standard
 70
     0
 40
0.0
 41
1.0
 50
0.0
 71
     0
 42
0.2
  3
txt
  4

  0
ENDTAB
  0
TABLE
  2
VIEW
  5
6
330
0
100
AcDbSymbolTable
 70
     0
  0
ENDTAB
  0
TABLE
  2
UCS
  5
7
330
0
100
AcDbSymbolTable
 70
     0
  0
ENDTAB
  0
TABLE
  2
APPID
  5
9
330
0
100
AcDbSymbolTable
 70
     1
  0
APPID
  5
12
330
9
100
AcDbSymbolTableRecord
100
AcDbRegAppTableRecord
  2
ACAD
 70
     0
  0
ENDTAB
  0
TABLE
  2
DIMSTYLE
  5
A
330
0
100
AcDbSymbolTable
 70
     1
100
AcDbDimStyleTable
  0
DIMSTYLE
105
27
330
A
100
AcDbSymbolTableRecord
100
AcDbDimStyleTableRecord
  2
Standard
 70
     0
178
     0
340
11
  0
ENDTAB
  0
TABLE
  2
BLOCK_RECORD
  5
1
330
0
100
AcDbSymbolTable
 70
     6
  0
BLOCK_RECORD
  5
1F
330
1
100
AcDbSymbolTableRecord
100
AcDbBlockTableRecord
  2
*Model_Space
340
22
 70
     0
280
     1
281
     0
  0
BLOCK_RECORD
  5
1B
330
1
100
AcDbSymbolTableRecord
100
AcDbBlockTableRecord
  2
*Paper_Space
340
1E
 70
     0
280
     1
281
     0
  0
BLOCK_RECORD
  5
23
330
1
100
AcDbSymbolTableRecord
100
AcDbBlockTableRecord
  2
*Paper_Space0
340
26
 70
     0
280
     1
281
     0
  0
BLOCK_RECORD
  5
41
330
1
100
AcDbSymbolTableRecord
100
AcDbBlockTableRecord
  2
block 2
340
0
102
{BLKREFS
331
42
102
}
 70
     0
280
     1
281
     0
  0
BLOCK_RECORD
  5
6C
330
1
100
AcDbSymbolTableRecord
100
AcDbBlockTableRecord
  2
block 3
340
0
102
{BLKREFS
331
6D
102
}
 70
     0
280
     1
281
     0
  0
BLOCK_RECORD
  5
8B
330
1
100
AcDbSymbolTableRecord
100
AcDbBlockTableRecord
  2
block 4
340
0
102
{BLKREFS
331
8C
102
}
 70
     0
280
     1
281
     0
  0
BLOCK_RECORD
  5
AA
330
1
100
AcDbSymbolTableRecord
100
AcDbBlockTableRecord
  2
block 5
340
0
102
{BLKREFS
331
AB
102
}
 70
     0
280
     1
281
     0
  0
BLOCK_RECORD
  5
CB
330
1
100
AcDbSymbolTableRecord
100
AcDbBlockTableRecord
  2
block 6
340
0
102
{BLKREFS
331
CC
102
}
 70
     0
280
     1
281
     0
  0
ENDTAB
  0
ENDSEC
  0
SECTION
  2
BLOCKS
  0
BLOCK
  5
20
330
1F
100
AcDbEntity
  8
0
100
AcDbBlockBegin
  2
*Model_Space
 70
     0
 10
0.0
 20
0.0
 30
0.0
  3
*Model_Space
  1

  0
ENDBLK
  5
21
330
1F
100
AcDbEntity
  8
0
100
AcDbBlockEnd
  0
BLOCK
  5
1C
330
1B
100
AcDbEntity
 67
     1
  8
0
100
AcDbBlockBegin
  2
*Paper_Space
 70
     0
 10
0.0
 20
0.0
 30
0.0
  3
*Paper_Space
  1

  0
ENDBLK
  5
1D
330
1B
100
AcDbEntity
 67
     1
  8
0
100
AcDbBlockEnd
  0
BLOCK
  5
24
330
23
100
AcDbEntity
  8
0
100
AcDbBlockBegin
  2
*Paper_Space0
 70
     0
 10
0.0
 20
0.0
 30
0.0
  3
*Paper_Space0
  1

  0
ENDBLK
  5
25
330
23
100
AcDbEntity
  8
0
100
AcDbBlockEnd
  0
BLOCK
  5
43
330
41
100
AcDbEntity
  8
0
100
AcDbBlockBegin
  2
block 2
 70
     0
 10
0.0
 20
0.0
 30
0.0
  3
block 2
  1

  0
POLYLINE
  5
45
330
41
100
AcDbEntity
  8
_U+30EC_U+30A4_U+30E4_U+30FC 1
370
     0
100
AcDb2dPolyline
 66
     1
 10
0.0
 20
0.0
 30
0.0
  0
VERTEX
  5
46
330
45
100
AcDbEntity
  8
_U+30EC_U+30A4_U+30E4_U+30FC 1
370
     0
100
AcDbVertex
100
AcDb2dVertex
 10
82.51020912650787
 20
-126.6289631844886
 30
0.0
  0
VERTEX
  5
47
330
45
100
AcDbEntity
  8
_U+30EC_U+30A4_U+30E4_U+30FC 1
370
     0
100
AcDbVertex
100
AcDb2dVertex
 10
82.85713024187253
 20
-126.6289631844886
 30
0.0
  0
VERTEX
  5
48
330
45
100
AcDbEntity
  8
_U+30EC_U+30A4_U+30E4_U+30FC 1
370
     0
100
AcDbVertex
100
AcDb2dVertex
 10
82.85713024187253
 20
-126.8463487096079
 30
0.0
  0
VERTEX
  5
49
330
45
100
AcDbEntity
  8
_U+30EC_U+30A4_U+30E4_U+30FC 1
370
     0
100
AcDbVertex
100
AcDb2dVertex
 10
82.51020912650787
 20
-126.8463487096079
 30
0.0
  0
VERTEX
  5
4A
330
45
100
AcDbEntity
  8
_U+30EC_U+30A4_U+30E4_U+30FC 1
370
     0
100
AcDbVertex
100
AcDb2dVertex
 10
82.51020912650787
 20
-127.5004000874825
 30
0.0
  0
VERTEX
  5
4B
330
45
100
AcDbEntity
  8
_U+30EC_U+30A4_U+30E4_U+30FC 1
370
     0
100
AcDbVertex
100
AcDb2dVertex
 10
82.28593341041811
 20
-127.5004000874825
 30
0.0
  0
VERTEX
  5
4C
330
45
100
AcDbEntity
  8
_U+30EC_U+30A4_U+30E4_U+30FC 1
370
     0
100
AcDbVertex
100
AcDb2dVertex
 10
81.31286619060928
 20
-126.8230943150824
 30
0.0
  0
VERTEX
  5
4D
330
45
100
AcDbEntity
  8
_U+30EC_U+30A4_U+30E4_U+30FC 1
370
     0
100
AcDbVertex
100
AcDb2dVertex
 10
81.31286619060928
 20
-126.6289631844886
 30
0.0
  0
VERTEX
  5
4E
330
45
100
AcDbEntity
  8
_U+30EC_U+30A4_U+30E4_U+30FC 1
370
     0
100
AcDbVertex
100
AcDb2dVertex
 10
82.31142711700895
 20
-126.6289631844886
 30
0.0
  0
VERTEX
  5
4F
330
45
100
AcDbEntity
  8
_U+30EC_U+30A4_U+30E4_U+30FC 1
370
     0
100
AcDbVertex
100
AcDb2dVertex
 10
82.31142711700895
 20
-126.4220852005993
 30
0.0
  0
VERTEX
  5
50
330
45
100
AcDbEntity
  8
_U+30EC_U+30A4_U+30E4_U+30FC 1
370
     0
100
AcDbVertex
100
AcDb2dVertex
 10
82.51020912650787
 20
-126.4220852005993
 30
0.0
  0
VERTEX
  5
51
330
45
100
AcDbEntity
  8
_U+30EC_U+30A4_U+30E4_U+30FC 1
370
     0
100
AcDbVertex
100
AcDb2dVertex
 10
82.51020912650787
 20
-126.6289631844886
 30
0.0
  0
SEQEND
  5
52
330
45
100
AcDbEntity
  8
_U+30EC_U+30A4_U+30E4_U+30FC 1
370
     0
  0
POLYLINE
  5
53
330
41
100
AcDbEntity
  8
_U+30EC_U+30A4_U+30E4_U+30FC 1
370
     0
100
AcDb2dPolyline
 66
     1
 10
0.0
 20
0.0
 30
0.0
  0
VERTEX
  5
54
330
53
100
AcDbEntity
  8
_U+30EC_U+30A4_U+30E4_U+30FC 1
370
     0
100
AcDbVertex
100
AcDb2dVertex
 10
81.65548093661738
 20
-126.8463487096079
 30
0.0
  0
VERTEX
  5
55
330
53
100
AcDbEntity
  8
_U+30EC_U+30A4_U+30E4_U+30FC 1
370
     0
100
AcDbVertex
100
AcDb2dVertex
 10
82.31142711700895
 20
-127.3021348423064
 30
0.0
  0
VERTEX
  5
56
330
53
100
AcDbEntity
  8
_U+30EC_U+30A4_U+30E4_U+30FC 1
370
     0
100
AcDbVertex
100
AcDb2dVertex
 10
82.31142711700895
 20
-126.8463487096079
 30
0.0
  0
VERTEX
  5
57
330
53
100
AcDbEntity
  8
_U+30EC_U+30A4_U+30E4_U+30FC 1
370
     0
100
AcDbVertex
100
AcDb2dVertex
 10
81.65548093661738
 20
-126.8463487096079
 30
0.0
  0
SEQEND
  5
58
330
53
100
AcDbEntity
  8
_U+30EC_U+30A4_U+30E4_U+30FC 1
370
     0
  0
HATCH
  5
59
330
41
100
AcDbEntity
  8
_U+30EC_U+30A4_U+30E4_U+30FC 1
 62
   179
420
  2234388
100
AcDbHatch
 10
0.0
 20
0.0
 30
0.0
210
0.0
220
0.0
230
1.0
  2
SOLID
 70
     1
 71
     0
 91
        2
 92
        1
 93
       11
 72
     1
 10
82.51020912650787
 20
-126.6289631844886
 11
82.85713024187253
 21
-126.6289631844886
 72
     1
 10
82.85713024187253
 20
-126.6289631844886
 11
82.85713024187253
 21
-126.8463487096079
 72
     1
 10
82.85713024187253
 20
-126.8463487096079
 11
82.51020912650787
 21
-126.8463487096079
 72
     1
 10
82.51020912650787
 20
-126.8463487096079
 11
82.51020912650787
 21
-127.5004000874825
 72
     1
 10
82.51020912650787
 20
-127.5004000874825
 11
82.28593341041811
 21
-127.5004000874825
 72
     1
 10
82.28593341041811
 20
-127.5004000874825
 11
81.31286619060928
 21
-126.8230943150824
 72
     1
 10
81.31286619060928
 20
-126.8230943150824
 11
81.31286619060928
 21
-126.6289631844886
 72
     1
 10
81.31286619060928
 20
-126.6289631844886
 11
82.31142711700895
 21
-126.6289631844886
 72
     1
 10
82.31142711700895
 20
-126.6289631844886
 11
82.31142711700895
 21
-126.4220852005993
 72
     1
 10
82.31142711700895
 20
-126.4220852005993
 11
82.51020912650787
 21
-126.4220852005993
 72
     1
 10
82.51020912650787
 20
-126.4220852005993
 11
82.51020912650787
 21
-126.6289631844886
 97
        0
 92
        1
 93
        3
 72
     1
 10
81.65548093661738
 20
-126.8463487096079
 11
82.31142711700895
 21
-127.3021348423064
 72
     1
 10
82.31142711700895
 20
-127.3021348423064
 11
82.31142711700895
 21
-126.8463487096079
 72
     1
 10
82.31142711700895
 20
-126.8463487096079
 11
81.65548093661738
 21
-126.8463487096079
 97
        0
 75
     2
 76
     1
 98
        0
  0
ENDBLK
  5
44
330
41
100
AcDbEntity
  8
0
100
AcDbBlockEnd
  0
BLOCK
  5
6E
330
6C
100
AcDbEntity
  8
0
100
AcDbBlockBegin
  2
block 3
 70
     0
 10
0.0
 20
0.0
 30
0.0
  3
block 3
  1

  0
SPLINE
  5
70
330
6C
100
AcDbEntity
  8
_U+30EC_U+30A4_U+30E4_U+30FC 1
370
     0
100
AcDbSpline
210
0.0
220
0.0
230
1.0
 70
    11
 71
     3
 72
    53
 73
    49
 74
     0
 42
0.0000000001
 43
0.0000000001
 12
1.0
 22
0.0
 32
0.0
 13
1.0
 23
0.0
 33
0.0
 40
0.0
 40
0.0
 40
0.0
 40
0.0
 40
1.0
 40
1.0
 40
1.0
 40
2.0
 40
2.0
 40
2.0
 40
3.0
 40
3.0
 40
3.0
 40
4.0
 40
4.0
 40
4.0
 40
5.0
 40
5.0
 40
5.0
 40
6.0
 40
6.0
 40
6.0
 40
7.0
 40
7.0
 40
7.0
 40
8.0
 40
8.0
 40
8.0
 40
9.0
 40
9.0
 40
9.0
 40
10.0
 40
10.0
 40
10.0
 40
11.0
 40
11.0
 40
11.0
 40
12.0
 40
12.0
 40
12.0
 40
13.0
 40
13.0
 40
13.0
 40
14.0
 40
14.0
 40
14.0
 40
15.0
 40
15.0
 40
15.0
 40
16.0
 40
16.0
 40
16.0
 40
16.0
 10
80.30620928981928
 20
-127.1558905389576
 30
0.0
 10
80.30620928981928
 20
-127.2339219516985
 30
0.0
 10
80.28932832194155
 20
-127.3352077589648
 30
0.0
 10
80.2257663102387
 20
-127.4364935662312
 30
0.0
 10
80.11586776425924
 20
-127.609609614365
 30
0.0
 10
79.98460962627121
 20
-127.630624696825
 30
0.0
 10
79.87677813758289
 20
-127.6497449767681
 30
0.0
 10
79.87677813758289
 20
-127.6497449767681
 30
0.0
 10
79.87677813758289
 20
-127.4280530822923
 30
0.0
 10
79.87677813758289
 20
-127.4280530822923
 30
0.0
 10
80.0755601470818
 20
-127.3732760640768
 30
0.0
 10
80.10518796825495
 20
-127.2466688049939
 30
0.0
 10
80.10518796825495
 20
-127.1538234816664
 30
0.0
 10
80.10518796825495
 20
-127.0144693692881
 30
0.0
 10
80.0057969635055
 20
-126.8625406583885
 30
0.0
 10
79.77308076347687
 20
-126.8625406583885
 30
0.0
 10
79.51711016892281
 20
-126.8625406583885
 30
0.0
 10
79.4473469853465
 20
-127.0420301331701
 30
0.0
 10
79.4473469853465
 20
-127.1622639656053
 30
0.0
 10
79.4473469853465
 20
-127.1939588440696
 30
0.0
 10
79.4473469853465
 20
-127.3352077589648
 30
0.0
 10
79.57636581126911
 20
-127.42391896771
 30
0.0
 10
79.57636581126911
 20
-127.42391896771
 30
0.0
 10
79.55724553132598
 20
-127.599102073135
 30
0.0
 10
79.55724553132598
 20
-127.599102073135
 30
0.0
 10
79.55724553132598
 20
-127.599102073135
 30
0.0
 10
78.7111300801486
 20
-127.4786959859255
 30
0.0
 10
78.7111300801486
 20
-127.4786959859255
 30
0.0
 10
78.7111300801486
 20
-127.4786959859255
 30
0.0
 10
78.7111300801486
 20
-126.7021714635502
 30
0.0
 10
78.7111300801486
 20
-126.7021714635502
 30
0.0
 10
78.7111300801486
 20
-126.7021714635502
 30
0.0
 10
78.90577797506522
 20
-126.7021714635502
 30
0.0
 10
78.90577797506522
 20
-126.7021714635502
 30
0.0
 10
78.90577797506522
 20
-126.7021714635502
 30
0.0
 10
78.90577797506522
 20
-127.3162597337959
 30
0.0
 10
78.90577797506522
 20
-127.3162597337959
 30
0.0
 10
78.90577797506522
 20
-127.3162597337959
 30
0.0
 10
79.32883570065391
 20
-127.3817165480157
 30
0.0
 10
79.32883570065391
 20
-127.3817165480157
 30
0.0
 10
79.29507376489846
 20
-127.3205661031525
 30
0.0
 10
79.25476614772103
 20
-127.238228321055
 30
0.0
 10
79.25476614772103
 20
-127.120061545911
 30
0.0
 10
79.25476614772103
 20
-126.8668470277451
 30
0.0
 10
79.44097355869879
 20
-126.630513477457
 30
0.0
 10
79.754132738308
 20
-126.630513477457
 30
0.0
 10
80.0714260324995
 20
-126.630513477457
 30
0.0
 10
80.30620928981928
 20
-126.8541001744497
 30
0.0
 10
80.30620928981928
 20
-127.1558905389576
 30
0.0
  0
HATCH
  5
71
330
6C
100
AcDbEntity
  8
_U+30EC_U+30A4_U+30E4_U+30FC 1
 62
   179
420
  2234388
100
AcDbHatch
 10
0.0
 20
0.0
 30
0.0
210
0.0
220
0.0
230
1.0
  2
SOLID
 70
     1
 71
     0
 91
        1
 92
        1
 93
        1
 72
     4
 94
        3
 73
     0
 74
     1
 95
       53
 96
       49
 40
0.0
 40
0.0
 40
0.0
 40
0.0
 40
1.0
 40
1.0
 40
1.0
 40
2.0
 40
2.0
 40
2.0
 40
3.0
 40
3.0
 40
3.0
 40
4.0
 40
4.0
 40
4.0
 40
5.0
 40
5.0
 40
5.0
 40
6.0
 40
6.0
 40
6.0
 40
7.0
 40
7.0
 40
7.0
 40
8.0
 40
8.0
 40
8.0
 40
9.0
 40
9.0
 40
9.0
 40
10.0
 40
10.0
 40
10.0
 40
11.0
 40
11.0
 40
11.0
 40
12.0
 40
12.0
 40
12.0
 40
13.0
 40
13.0
 40
13.0
 40
14.0
 40
14.0
 40
14.0
 40
15.0
 40
15.0
 40
15.0
 40
16.0
 40
16.0
 40
16.0
 40
16.0
 10
80.30620928981928
 20
-127.1558905389576
 10
80.30620928981928
 20
-127.2339219516985
 10
80.28932832194155
 20
-127.3352077589648
 10
80.2257663102387
 20
-127.4364935662312
 10
80.11586776425924
 20
-127.609609614365
 10
79.98460962627121
 20
-127.630624696825
 10
79.87677813758289
 20
-127.6497449767681
 10
79.87677813758289
 20
-127.6497449767681
 10
79.87677813758289
 20
-127.4280530822923
 10
79.87677813758289
 20
-127.4280530822923
 10
80.0755601470818
 20
-127.3732760640768
 10
80.10518796825495
 20
-127.2466688049939
 10
80.10518796825495
 20
-127.1538234816664
 10
80.10518796825495
 20
-127.0144693692881
 10
80.0057969635055
 20
-126.8625406583885
 10
79.77308076347687
 20
-126.8625406583885
 10
79.51711016892281
 20
-126.8625406583885
 10
79.4473469853465
 20
-127.0420301331701
 10
79.4473469853465
 20
-127.1622639656053
 10
79.4473469853465
 20
-127.1939588440696
 10
79.4473469853465
 20
-127.3352077589648
 10
79.57636581126911
 20
-127.42391896771
 10
79.57636581126911
 20
-127.42391896771
 10
79.55724553132598
 20
-127.599102073135
 10
79.55724553132598
 20
-127.599102073135
 10
79.55724553132598
 20
-127.599102073135
 10
78.7111300801486
 20
-127.4786959859255
 10
78.7111300801486
 20
-127.4786959859255
 10
78.7111300801486
 20
-127.4786959859255
 10
78.7111300801486
 20
-126.7021714635502
 10
78.7111300801486
 20
-126.7021714635502
 10
78.7111300801486
 20
-126.7021714635502
 10
78.90577797506522
 20
-126.7021714635502
 10
78.90577797506522
 20
-126.7021714635502
 10
78.90577797506522
 20
-126.7021714635502
 10
78.90577797506522
 20
-127.3162597337959
 10
78.90577797506522
 20
-127.3162597337959
 10
78.90577797506522
 20
-127.3162597337959
 10
79.32883570065391
 20
-127.3817165480157
 10
79.32883570065391
 20
-127.3817165480157
 10
79.29507376489846
 20
-127.3205661031525
 10
79.25476614772103
 20
-127.238228321055
 10
79.25476614772103
 20
-127.120061545911
 10
79.25476614772103
 20
-126.8668470277451
 10
79.44097355869879
 20
-126.630513477457
 10
79.754132738308
 20
-126.630513477457
 10
80.0714260324995
 20
-126.630513477457
 10
80.30620928981928
 20
-126.8541001744497
 10
80.30620928981928
 20
-127.1558905389576
 97
        0
 97
        0
 75
     2
 76
     1
 98
        0
  0
POLYLINE
  5
72
330
6C
100
AcDbEntity
  8
_U+30EC_U+30A4_U+30E4_U+30FC 1
370
     0
100
AcDb2dPolyline
 66
     1
 10
0.0
 20
0.0
 30
0.0
  0
VERTEX
  5
73
330
72
100
AcDbEntity
  8
_U+30EC_U+30A4_U+30E4_U+30FC 1
370
     0
100
AcDbVertex
100
AcDb2dVertex
 10
80.25539413141185
 20
-126.4036539397533
 30
0.0
  0
VERTEX
  5
74
330
72
100
AcDbEntity
  8
_U+30EC_U+30A4_U+30E4_U+30FC 1
370
     0
100
AcDbVertex
100
AcDb2dVertex
 10
80.00372990621435
 20
-126.4036539397533
 30
0.0
  0
VERTEX
  5
75
330
72
100
AcDbEntity
  8
_U+30EC_U+30A4_U+30E4_U+30FC 1
370
     0
100
AcDbVertex
100
AcDb2dVertex
 10
80.00372990621435
 20
-126.1525064788785
 30
0.0
  0
VERTEX
  5
76
330
72
100
AcDbEntity
  8
_U+30EC_U+30A4_U+30E4_U+30FC 1
370
     0
100
AcDbVertex
100
AcDb2dVertex
 10
80.25539413141185
 20
-126.1525064788785
 30
0.0
  0
VERTEX
  5
77
330
72
100
AcDbEntity
  8
_U+30EC_U+30A4_U+30E4_U+30FC 1
370
     0
100
AcDbVertex
100
AcDb2dVertex
 10
80.25539413141185
 20
-126.4036539397533
 30
0.0
  0
SEQEND
  5
78
330
72
100
AcDbEntity
  8
_U+30EC_U+30A4_U+30E4_U+30FC 1
370
     0
  0
HATCH
  5
79
330
6C
100
AcDbEntity
  8
_U+30EC_U+30A4_U+30E4_U+30FC 1
 62
   179
420
  2234388
100
AcDbHatch
 10
0.0
 20
0.0
 30
0.0
210
0.0
220
0.0
230
1.0
  2
SOLID
 70
     1
 71
     0
 91
        1
 92
        1
 93
        4
 72
     1
 10
80.25539413141185
 20
-126.4036539397533
 11
80.00372990621435
 21
-126.4036539397533
 72
     1
 10
80.00372990621435
 20
-126.4036539397533
 11
80.00372990621435
 21
-126.1525064788785
 72
     1
 10
80.00372990621435
 20
-126.1525064788785
 11
80.25539413141185
 21
-126.1525064788785
 72
     1
 10
80.25539413141185
 20
-126.1525064788785
 11
80.25539413141185
 21
-126.4036539397533
 97
        0
 75
     2
 76
     1
 98
        0
  0
SPLINE
  5
7A
330
6C
100
AcDbEntity
  8
_U+30EC_U+30A4_U+30E4_U+30FC 1
370
     0
100
AcDbSpline
210
0.0
220
0.0
230
1.0
 70
    11
 71
     3
 72
    62
 73
    58
 74
     0
 42
0.0000000001
 43
0.0000000001
 12
1.0
 22
0.0
 32
0.0
 13
1.0
 23
0.0
 33
0.0
 40
0.0
 40
0.0
 40
0.0
 40
0.0
 40
1.0
 40
1.0
 40
1.0
 40
2.0
 40
2.0
 40
2.0
 40
3.0
 40
3.0
 40
3.0
 40
4.0
 40
4.0
 40
4.0
 40
5.0
 40
5.0
 40
5.0
 40
6.0
 40
6.0
 40
6.0
 40
7.0
 40
7.0
 40
7.0
 40
8.0
 40
8.0
 40
8.0
 40
9.0
 40
9.0
 40
9.0
 40
10.0
 40
10.0
 40
10.0
 40
11.0
 40
11.0
 40
11.0
 40
12.0
 40
12.0
 40
12.0
 40
13.0
 40
13.0
 40
13.0
 40
14.0
 40
14.0
 40
14.0
 40
15.0
 40
15.0
 40
15.0
 40
16.0
 40
16.0
 40
16.0
 40
17.0
 40
17.0
 40
17.0
 40
18.0
 40
18.0
 40
18.0
 40
19.0
 40
19.0
 40
19.0
 40
19.0
 10
80.30620928981928
 20
-125.4271416244592
 30
0.0
 10
80.30620928981928
 20
-125.5220540050778
 30
0.0
 10
80.285021952585
 20
-125.7394395301971
 30
0.0
 10
80.09881454160724
 20
-125.8638074772146
 30
0.0
 10
79.98667668356237
 20
-125.9377047753732
 30
0.0
 10
79.8872856788129
 20
-125.9420111447298
 30
0.0
 10
79.80270858465002
 20
-125.9461452593121
 30
0.0
 10
79.80270858465002
 20
-125.9461452593121
 30
0.0
 10
79.80270858465002
 20
-125.7266926769017
 30
0.0
 10
79.80270858465002
 20
-125.7266926769017
 30
0.0
 10
79.87677813758289
 20
-125.7246256196105
 30
0.0
 10
80.11156139490267
 20
-125.7141180783805
 30
0.0
 10
80.11156139490267
 20
-125.4312757390415
 30
0.0
 10
80.11156139490267
 20
-125.2941609387286
 30
0.0
 10
80.04179821132637
 20
-125.142232227829
 30
0.0
 10
79.81321612588003
 20
-125.142232227829
 30
0.0
 10
79.69694415325286
 20
-125.142232227829
 30
0.0
 10
79.64819605213657
 20
-125.1801282781668
 30
0.0
 10
79.61650117367226
 20
-125.2118231566311
 30
0.0
 10
79.54243162073939
 20
-125.2857204547897
 30
0.0
 10
79.52985702221824
 20
-125.4018201726426
 30
0.0
 10
79.52985702221824
 20
-125.4565971908581
 30
0.0
 10
79.52985702221824
 20
-125.475545216027
 30
0.0
 10
79.53192407950938
 20
-125.5115464638478
 30
0.0
 10
79.53623044886595
 20
-125.5389349729555
 30
0.0
 10
79.53623044886595
 20
-125.5389349729555
 30
0.0
 10
79.34158255394934
 20
-125.5389349729555
 30
0.0
 10
79.34158255394934
 20
-125.5389349729555
 30
0.0
 10
79.34795598059704
 20
-125.5008666678435
 30
0.0
 10
79.35002303788819
 20
-125.4586642481492
 30
0.0
 10
79.35002303788819
 20
-125.4524630762758
 30
0.0
 10
79.35002303788819
 20
-125.387006262056
 30
0.0
 10
79.32883570065391
 20
-125.1885687621056
 30
0.0
 10
79.09181313126872
 20
-125.1885687621056
 30
0.0
 10
78.91421845900409
 20
-125.1885687621056
 30
0.0
 10
78.85926918601436
 20
-125.3194823905451
 30
0.0
 10
78.85926918601436
 20
-125.4292086817503
 30
0.0
 10
78.85926918601436
 20
-125.6929307411462
 30
0.0
 10
79.09181313126872
 20
-125.7013712250851
 30
0.0
 10
79.16381562691043
 20
-125.7056775944416
 30
0.0
 10
79.16381562691043
 20
-125.7056775944416
 30
0.0
 10
79.16381562691043
 20
-125.9082492089743
 30
0.0
 10
79.16381562691043
 20
-125.9082492089743
 30
0.0
 10
79.03893091557013
 20
-125.8998087250355
 30
0.0
 10
78.66238197903232
 20
-125.8722479611535
 30
0.0
 10
78.66238197903232
 20
-125.4164618284549
 30
0.0
 10
78.66238197903232
 20
-125.1928751314622
 30
0.0
 10
78.78933374766378
 20
-124.9522352118175
 30
0.0
 10
79.08561195939527
 20
-124.9522352118175
 30
0.0
 10
79.27164711559875
 20
-124.9522352118175
 30
0.0
 10
79.35415715247049
 20
-125.0473198472104
 30
0.0
 10
79.4156521068822
 20
-125.1463663424113
 30
0.0
 10
79.44304061598994
 20
-125.0852158975482
 30
0.0
 10
79.52348359557053
 20
-124.9038316202497
 30
0.0
 10
79.80064152735888
 20
-124.9038316202497
 30
0.0
 10
80.13912215878467
 20
-124.9038316202497
 30
0.0
 10
80.30620928981928
 20
-125.1506727117679
 30
0.0
 10
80.30620928981928
 20
-125.4271416244592
 30
0.0
  0
HATCH
  5
7B
330
6C
100
AcDbEntity
  8
_U+30EC_U+30A4_U+30E4_U+30FC 1
 62
   179
420
  2234388
100
AcDbHatch
 10
0.0
 20
0.0
 30
0.0
210
0.0
220
0.0
230
1.0
  2
SOLID
 70
     1
 71
     0
 91
        1
 92
        1
 93
        1
 72
     4
 94
        3
 73
     0
 74
     1
 95
       62
 96
       58
 40
0.0
 40
0.0
 40
0.0
 40
0.0
 40
1.0
 40
1.0
 40
1.0
 40
2.0
 40
2.0
 40
2.0
 40
3.0
 40
3.0
 40
3.0
 40
4.0
 40
4.0
 40
4.0
 40
5.0
 40
5.0
 40
5.0
 40
6.0
 40
6.0
 40
6.0
 40
7.0
 40
7.0
 40
7.0
 40
8.0
 40
8.0
 40
8.0
 40
9.0
 40
9.0
 40
9.0
 40
10.0
 40
10.0
 40
10.0
 40
11.0
 40
11.0
 40
11.0
 40
12.0
 40
12.0
 40
12.0
 40
13.0
 40
13.0
 40
13.0
 40
14.0
 40
14.0
 40
14.0
 40
15.0
 40
15.0
 40
15.0
 40
16.0
 40
16.0
 40
16.0
 40
17.0
 40
17.0
 40
17.0
 40
18.0
 40
18.0
 40
18.0
 40
19.0
 40
19.0
 40
19.0
 40
19.0
 10
80.30620928981928
 20
-125.4271416244592
 10
80.30620928981928
 20
-125.5220540050778
 10
80.285021952585
 20
-125.7394395301971
 10
80.09881454160724
 20
-125.8638074772146
 10
79.98667668356237
 20
-125.9377047753732
 10
79.8872856788129
 20
-125.9420111447298
 10
79.80270858465002
 20
-125.9461452593121
 10
79.80270858465002
 20
-125.9461452593121
 10
79.80270858465002
 20
-125.7266926769017
 10
79.80270858465002
 20
-125.7266926769017
 10
79.87677813758289
 20
-125.7246256196105
 10
80.11156139490267
 20
-125.7141180783805
 10
80.11156139490267
 20
-125.4312757390415
 10
80.11156139490267
 20
-125.2941609387286
 10
80.04179821132637
 20
-125.142232227829
 10
79.81321612588003
 20
-125.142232227829
 10
79.69694415325286
 20
-125.142232227829
 10
79.64819605213657
 20
-125.1801282781668
 10
79.61650117367226
 20
-125.2118231566311
 10
79.54243162073939
 20
-125.2857204547897
 10
79.52985702221824
 20
-125.4018201726426
 10
79.52985702221824
 20
-125.4565971908581
 10
79.52985702221824
 20
-125.475545216027
 10
79.53192407950938
 20
-125.5115464638478
 10
79.53623044886595
 20
-125.5389349729555
 10
79.53623044886595
 20
-125.5389349729555
 10
79.34158255394934
 20
-125.5389349729555
 10
79.34158255394934
 20
-125.5389349729555
 10
79.34795598059704
 20
-125.5008666678435
 10
79.35002303788819
 20
-125.4586642481492
 10
79.35002303788819
 20
-125.4524630762758
 10
79.35002303788819
 20
-125.387006262056
 10
79.32883570065391
 20
-125.1885687621056
 10
79.09181313126872
 20
-125.1885687621056
 10
78.91421845900409
 20
-125.1885687621056
 10
78.85926918601436
 20
-125.3194823905451
 10
78.85926918601436
 20
-125.4292086817503
 10
78.85926918601436
 20
-125.6929307411462
 10
79.09181313126872
 20
-125.7013712250851
 10
79.16381562691043
 20
-125.7056775944416
 10
79.16381562691043
 20
-125.7056775944416
 10
79.16381562691043
 20
-125.9082492089743
 10
79.16381562691043
 20
-125.9082492089743
 10
79.03893091557013
 20
-125.8998087250355
 10
78.66238197903232
 20
-125.8722479611535
 10
78.66238197903232
 20
-125.4164618284549
 10
78.66238197903232
 20
-125.1928751314622
 10
78.78933374766378
 20
-124.9522352118175
 10
79.08561195939527
 20
-124.9522352118175
 10
79.27164711559875
 20
-124.9522352118175
 10
79.35415715247049
 20
-125.0473198472104
 10
79.4156521068822
 20
-125.1463663424113
 10
79.44304061598994
 20
-125.0852158975482
 10
79.52348359557053
 20
-124.9038316202497
 10
79.80064152735888
 20
-124.9038316202497
 10
80.13912215878467
 20
-124.9038316202497
 10
80.30620928981928
 20
-125.1506727117679
 10
80.30620928981928
 20
-125.4271416244592
 97
        0
 97
        0
 75
     2
 76
     1
 98
        0
  0
ENDBLK
  5
6F
330
6C
100
AcDbEntity
  8
0
100
AcDbBlockEnd
  0
BLOCK
  5
8D
330
8B
100
AcDbEntity
  8
0
100
AcDbBlockBegin
  2
block 4
 70
     0
 10
0.0
 20
0.0
 30
0.0
  3
block 4
  1

  0
SPLINE
  5
8F
330
8B
100
AcDbEntity
  8
_U+30EC_U+30A4_U+30E4_U+30FC 1
370
     0
100
AcDbSpline
210
0.0
220
0.0
230
1.0
 70
    11
 71
     3
 72
    44
 73
    40
 74
     0
 42
0.0000000001
 43
0.0000000001
 12
1.0
 22
0.0
 32
0.0
 13
1.0
 23
0.0
 33
0.0
 40
0.0
 40
0.0
 40
0.0
 40
0.0
 40
1.0
 40
1.0
 40
1.0
 40
2.0
 40
2.0
 40
2.0
 40
3.0
 40
3.0
 40
3.0
 40
4.0
 40
4.0
 40
4.0
 40
5.0
 40
5.0
 40
5.0
 40
6.0
 40
6.0
 40
6.0
 40
7.0
 40
7.0
 40
7.0
 40
8.0
 40
8.0
 40
8.0
 40
9.0
 40
9.0
 40
9.0
 40
10.0
 40
10.0
 40
10.0
 40
11.0
 40
11.0
 40
11.0
 40
12.0
 40
12.0
 40
12.0
 40
13.0
 40
13.0
 40
13.0
 40
13.0
 10
82.2754258691881
 20
-134.5316677181032
 30
0.0
 10
82.43407251628385
 20
-134.7280381607625
 30
0.0
 10
82.50814206921672
 20
-134.8120984906026
 30
0.0
 10
82.6519748057259
 20
-134.8558512032652
 30
0.0
 10
82.6519748057259
 20
-134.8558512032652
 30
0.0
 10
82.6519748057259
 20
-134.1544297624683
 30
0.0
 10
82.6519748057259
 20
-134.1544297624683
 30
0.0
 10
82.6519748057259
 20
-134.1544297624683
 30
0.0
 10
82.85713024187253
 20
-134.1544297624683
 30
0.0
 10
82.85713024187253
 20
-134.1544297624683
 30
0.0
 10
82.85713024187253
 20
-134.1544297624683
 30
0.0
 10
82.85713024187253
 20
-135.0804714289035
 30
0.0
 10
82.85713024187253
 20
-135.0804714289035
 30
0.0
 10
82.49970158527786
 20
-135.0518771363759
 30
0.0
 10
82.42132566298842
 20
-134.9929660035781
 30
0.0
 10
82.12315264874005
 20
-134.6460448882135
 30
0.0
 10
81.92419838446688
 20
-134.4155680002503
 30
0.0
 10
81.8565022581817
 20
-134.3566568674525
 30
0.0
 10
81.71904294832024
 20
-134.3566568674525
 30
0.0
 10
81.60053166362765
 20
-134.3566568674525
 30
0.0
 10
81.46944578041389
 20
-134.4214246625752
 30
0.0
 10
81.46944578041389
 20
-134.598502570517
 30
0.0
 10
81.46944578041389
 20
-134.832769063514
 30
0.0
 10
81.69992266837711
 20
-134.8403482735816
 30
0.0
 10
81.81636689577856
 20
-134.8444823881639
 30
0.0
 10
81.81636689577856
 20
-134.8444823881639
 30
0.0
 10
81.81636689577856
 20
-135.0463649835995
 30
0.0
 10
81.81636689577856
 20
-135.0463649835995
 30
0.0
 10
81.6894151271471
 20
-135.038785773532
 30
0.0
 10
81.57727726910221
 20
-135.0291395061733
 30
0.0
 10
81.45876598440962
 20
-134.956792500983
 30
0.0
 10
81.29805228002272
 20
-134.8575737510078
 30
0.0
 10
81.264118089493
 20
-134.6901421104247
 30
0.0
 10
81.264118089493
 20
-134.5850666981246
 30
0.0
 10
81.264118089493
 20
-134.3356417849925
 30
0.0
 10
81.44825844317961
 20
-134.1489176096919
 30
0.0
 10
81.7211100056114
 20
-134.1489176096919
 30
0.0
 10
81.94969209105771
 20
-134.1489176096919
 30
0.0
 10
82.04908309580718
 20
-134.2536485124435
 30
0.0
 10
82.2754258691881
 20
-134.5316677181032
 30
0.0
  0
HATCH
  5
90
330
8B
100
AcDbEntity
  8
_U+30EC_U+30A4_U+30E4_U+30FC 1
 62
   179
420
  2234388
100
AcDbHatch
 10
0.0
 20
0.0
 30
0.0
210
0.0
220
0.0
230
1.0
  2
SOLID
 70
     1
 71
     0
 91
        1
 92
        1
 93
        1
 72
     4
 94
        3
 73
     0
 74
     1
 95
       44
 96
       40
 40
0.0
 40
0.0
 40
0.0
 40
0.0
 40
1.0
 40
1.0
 40
1.0
 40
2.0
 40
2.0
 40
2.0
 40
3.0
 40
3.0
 40
3.0
 40
4.0
 40
4.0
 40
4.0
 40
5.0
 40
5.0
 40
5.0
 40
6.0
 40
6.0
 40
6.0
 40
7.0
 40
7.0
 40
7.0
 40
8.0
 40
8.0
 40
8.0
 40
9.0
 40
9.0
 40
9.0
 40
10.0
 40
10.0
 40
10.0
 40
11.0
 40
11.0
 40
11.0
 40
12.0
 40
12.0
 40
12.0
 40
13.0
 40
13.0
 40
13.0
 40
13.0
 10
82.2754258691881
 20
-134.5316677181032
 10
82.43407251628385
 20
-134.7280381607625
 10
82.50814206921672
 20
-134.8120984906026
 10
82.6519748057259
 20
-134.8558512032652
 10
82.6519748057259
 20
-134.8558512032652
 10
82.6519748057259
 20
-134.1544297624683
 10
82.6519748057259
 20
-134.1544297624683
 10
82.6519748057259
 20
-134.1544297624683
 10
82.85713024187253
 20
-134.1544297624683
 10
82.85713024187253
 20
-134.1544297624683
 10
82.85713024187253
 20
-134.1544297624683
 10
82.85713024187253
 20
-135.0804714289035
 10
82.85713024187253
 20
-135.0804714289035
 10
82.49970158527786
 20
-135.0518771363759
 10
82.42132566298842
 20
-134.9929660035781
 10
82.12315264874005
 20
-134.6460448882135
 10
81.92419838446688
 20
-134.4155680002503
 10
81.8565022581817
 20
-134.3566568674525
 10
81.71904294832024
 20
-134.3566568674525
 10
81.60053166362765
 20
-134.3566568674525
 10
81.46944578041389
 20
-134.4214246625752
 10
81.46944578041389
 20
-134.598502570517
 10
81.46944578041389
 20
-134.832769063514
 10
81.69992266837711
 20
-134.8403482735816
 10
81.81636689577856
 20
-134.8444823881639
 10
81.81636689577856
 20
-134.8444823881639
 10
81.81636689577856
 20
-135.0463649835995
 10
81.81636689577856
 20
-135.0463649835995
 10
81.6894151271471
 20
-135.038785773532
 10
81.57727726910221
 20
-135.0291395061733
 10
81.45876598440962
 20
-134.956792500983
 10
81.29805228002272
 20
-134.8575737510078
 10
81.264118089493
 20
-134.6901421104247
 10
81.264118089493
 20
-134.5850666981246
 10
81.264118089493
 20
-134.3356417849925
 10
81.44825844317961
 20
-134.1489176096919
 10
81.7211100056114
 20
-134.1489176096919
 10
81.94969209105771
 20
-134.1489176096919
 10
82.04908309580718
 20
-134.2536485124435
 10
82.2754258691881
 20
-134.5316677181032
 97
        0
 97
        0
 75
     2
 76
     1
 98
        0
  0
POLYLINE
  5
91
330
8B
100
AcDbEntity
  8
_U+30EC_U+30A4_U+30E4_U+30FC 1
370
     0
100
AcDb2dPolyline
 66
     1
 10
0.0
 20
0.0
 30
0.0
  0
VERTEX
  5
92
330
91
100
AcDbEntity
  8
_U+30EC_U+30A4_U+30E4_U+30FC 1
370
     0
100
AcDbVertex
100
AcDb2dVertex
 10
82.85713024187253
 20
-133.9528916765812
 30
0.0
  0
VERTEX
  5
93
330
91
100
AcDbEntity
  8
_U+30EC_U+30A4_U+30E4_U+30FC 1
370
     0
100
AcDbVertex
100
AcDb2dVertex
 10
82.60546601667502
 20
-133.9528916765812
 30
0.0
  0
VERTEX
  5
94
330
91
100
AcDbEntity
  8
_U+30EC_U+30A4_U+30E4_U+30FC 1
370
     0
100
AcDbVertex
100
AcDb2dVertex
 10
82.60546601667502
 20
-133.7262043936518
 30
0.0
  0
VERTEX
  5
95
330
91
100
AcDbEntity
  8
_U+30EC_U+30A4_U+30E4_U+30FC 1
370
     0
100
AcDbVertex
100
AcDb2dVertex
 10
82.85713024187253
 20
-133.7262043936518
 30
0.0
  0
VERTEX
  5
96
330
91
100
AcDbEntity
  8
_U+30EC_U+30A4_U+30E4_U+30FC 1
370
     0
100
AcDbVertex
100
AcDb2dVertex
 10
82.85713024187253
 20
-133.9528916765812
 30
0.0
  0
SEQEND
  5
97
330
91
100
AcDbEntity
  8
_U+30EC_U+30A4_U+30E4_U+30FC 1
370
     0
  0
HATCH
  5
98
330
8B
100
AcDbEntity
  8
_U+30EC_U+30A4_U+30E4_U+30FC 1
 62
   179
420
  2234388
100
AcDbHatch
 10
0.0
 20
0.0
 30
0.0
210
0.0
220
0.0
230
1.0
  2
SOLID
 70
     1
 71
     0
 91
        1
 92
        1
 93
        4
 72
     1
 10
82.85713024187253
 20
-133.9528916765812
 11
82.60546601667502
 21
-133.9528916765812
 72
     1
 10
82.60546601667502
 20
-133.9528916765812
 11
82.60546601667502
 21
-133.7262043936518
 72
     1
 10
82.60546601667502
 20
-133.7262043936518
 11
82.85713024187253
 21
-133.7262043936518
 72
     1
 10
82.85713024187253
 20
-133.7262043936518
 11
82.85713024187253
 21
-133.9528916765812
 97
        0
 75
     2
 76
     1
 98
        0
  0
SPLINE
  5
99
330
8B
100
AcDbEntity
  8
_U+30EC_U+30A4_U+30E4_U+30FC 1
370
     0
100
AcDbSpline
210
0.0
220
0.0
230
1.0
 70
    11
 71
     3
 72
    53
 73
    49
 74
     0
 42
0.0000000001
 43
0.0000000001
 12
1.0
 22
0.0
 32
0.0
 13
1.0
 23
0.0
 33
0.0
 40
0.0
 40
0.0
 40
0.0
 40
0.0
 40
1.0
 40
1.0
 40
1.0
 40
2.0
 40
2.0
 40
2.0
 40
3.0
 40
3.0
 40
3.0
 40
4.0
 40
4.0
 40
4.0
 40
5.0
 40
5.0
 40
5.0
 40
6.0
 40
6.0
 40
6.0
 40
7.0
 40
7.0
 40
7.0
 40
8.0
 40
8.0
 40
8.0
 40
9.0
 40
9.0
 40
9.0
 40
10.0
 40
10.0
 40
10.0
 40
11.0
 40
11.0
 40
11.0
 40
12.0
 40
12.0
 40
12.0
 40
13.0
 40
13.0
 40
13.0
 40
14.0
 40
14.0
 40
14.0
 40
15.0
 40
15.0
 40
15.0
 40
16.0
 40
16.0
 40
16.0
 40
16.0
 10
82.90794540027996
 20
-133.0802489901674
 30
0.0
 10
82.90794540027996
 20
-133.1508734476151
 30
0.0
 10
82.89106443240223
 20
-133.2421684779742
 30
0.0
 10
82.82750242069937
 20
-133.3338080178818
 30
0.0
 10
82.71760387471991
 20
-133.4898708433637
 30
0.0
 10
82.58634573673189
 20
-133.509163378081
 30
0.0
 10
82.47851424804357
 20
-133.5260443459588
 30
0.0
 10
82.47851424804357
 20
-133.5260443459588
 30
0.0
 10
82.47851424804357
 20
-133.3262288078143
 30
0.0
 10
82.47851424804357
 20
-133.3262288078143
 30
0.0
 10
82.67729625754248
 20
-133.2766194328267
 30
0.0
 10
82.70692407871563
 20
-133.1622422627164
 30
0.0
 10
82.70692407871563
 20
-133.0785264424248
 30
0.0
 10
82.70692407871563
 20
-132.9524359476647
 30
0.0
 10
82.60753307396618
 20
-132.8153211473517
 30
0.0
 10
82.37481687393755
 20
-132.8153211473517
 30
0.0
 10
82.11884627938349
 20
-132.8153211473517
 30
0.0
 10
82.04908309580718
 20
-132.9772406351585
 30
0.0
 10
82.04908309580718
 20
-133.0861056524924
 30
0.0
 10
82.04908309580718
 20
-133.1146999450199
 30
0.0
 10
82.04908309580718
 20
-133.2421684779742
 30
0.0
 10
82.17810192172978
 20
-133.3224392027805
 30
0.0
 10
82.17810192172978
 20
-133.3224392027805
 30
0.0
 10
82.15898164178665
 20
-133.4805690855535
 30
0.0
 10
82.15898164178665
 20
-133.4805690855535
 30
0.0
 10
82.15898164178665
 20
-133.4805690855535
 30
0.0
 10
81.31286619060928
 20
-133.3717040682196
 30
0.0
 10
81.31286619060928
 20
-133.3717040682196
 30
0.0
 10
81.31286619060928
 20
-133.3717040682196
 30
0.0
 10
81.31286619060928
 20
-132.6706271369712
 30
0.0
 10
81.31286619060928
 20
-132.6706271369712
 30
0.0
 10
81.31286619060928
 20
-132.6706271369712
 30
0.0
 10
81.5075140855259
 20
-132.6706271369712
 30
0.0
 10
81.5075140855259
 20
-132.6706271369712
 30
0.0
 10
81.5075140855259
 20
-132.6706271369712
 30
0.0
 10
81.5075140855259
 20
-133.2249430005479
 30
0.0
 10
81.5075140855259
 20
-133.2249430005479
 30
0.0
 10
81.5075140855259
 20
-133.2249430005479
 30
0.0
 10
81.93057181111459
 20
-133.2841986428942
 30
0.0
 10
81.93057181111459
 20
-133.2841986428942
 30
0.0
 10
81.89680987535914
 20
-133.2287326055817
 30
0.0
 10
81.8565022581817
 20
-133.1546630526488
 30
0.0
 10
81.8565022581817
 20
-133.0478650926061
 30
0.0
 10
81.8565022581817
 20
-132.8191107523855
 30
0.0
 10
82.04270966915946
 20
-132.6058593418485
 30
0.0
 10
82.35586884876868
 20
-132.6058593418485
 30
0.0
 10
82.67316214296018
 20
-132.6058593418485
 30
0.0
 10
82.90794540027996
 20
-132.8077419372842
 30
0.0
 10
82.90794540027996
 20
-133.0802489901674
 30
0.0
  0
HATCH
  5
9A
330
8B
100
AcDbEntity
  8
_U+30EC_U+30A4_U+30E4_U+30FC 1
 62
   179
420
  2234388
100
AcDbHatch
 10
0.0
 20
0.0
 30
0.0
210
0.0
220
0.0
230
1.0
  2
SOLID
 70
     1
 71
     0
 91
        1
 92
        1
 93
        1
 72
     4
 94
        3
 73
     0
 74
     1
 95
       53
 96
       49
 40
0.0
 40
0.0
 40
0.0
 40
0.0
 40
1.0
 40
1.0
 40
1.0
 40
2.0
 40
2.0
 40
2.0
 40
3.0
 40
3.0
 40
3.0
 40
4.0
 40
4.0
 40
4.0
 40
5.0
 40
5.0
 40
5.0
 40
6.0
 40
6.0
 40
6.0
 40
7.0
 40
7.0
 40
7.0
 40
8.0
 40
8.0
 40
8.0
 40
9.0
 40
9.0
 40
9.0
 40
10.0
 40
10.0
 40
10.0
 40
11.0
 40
11.0
 40
11.0
 40
12.0
 40
12.0
 40
12.0
 40
13.0
 40
13.0
 40
13.0
 40
14.0
 40
14.0
 40
14.0
 40
15.0
 40
15.0
 40
15.0
 40
16.0
 40
16.0
 40
16.0
 40
16.0
 10
82.90794540027996
 20
-133.0802489901674
 10
82.90794540027996
 20
-133.1508734476151
 10
82.89106443240223
 20
-133.2421684779742
 10
82.82750242069937
 20
-133.3338080178818
 10
82.71760387471991
 20
-133.4898708433637
 10
82.58634573673189
 20
-133.509163378081
 10
82.47851424804357
 20
-133.5260443459588
 10
82.47851424804357
 20
-133.5260443459588
 10
82.47851424804357
 20
-133.3262288078143
 10
82.47851424804357
 20
-133.3262288078143
 10
82.67729625754248
 20
-133.2766194328267
 10
82.70692407871563
 20
-133.1622422627164
 10
82.70692407871563
 20
-133.0785264424248
 10
82.70692407871563
 20
-132.9524359476647
 10
82.60753307396618
 20
-132.8153211473517
 10
82.37481687393755
 20
-132.8153211473517
 10
82.11884627938349
 20
-132.8153211473517
 10
82.04908309580718
 20
-132.9772406351585
 10
82.04908309580718
 20
-133.0861056524924
 10
82.04908309580718
 20
-133.1146999450199
 10
82.04908309580718
 20
-133.2421684779742
 10
82.17810192172978
 20
-133.3224392027805
 10
82.17810192172978
 20
-133.3224392027805
 10
82.15898164178665
 20
-133.4805690855535
 10
82.15898164178665
 20
-133.4805690855535
 10
82.15898164178665
 20
-133.4805690855535
 10
81.31286619060928
 20
-133.3717040682196
 10
81.31286619060928
 20
-133.3717040682196
 10
81.31286619060928
 20
-133.3717040682196
 10
81.31286619060928
 20
-132.6706271369712
 10
81.31286619060928
 20
-132.6706271369712
 10
81.31286619060928
 20
-132.6706271369712
 10
81.5075140855259
 20
-132.6706271369712
 10
81.5075140855259
 20
-132.6706271369712
 10
81.5075140855259
 20
-132.6706271369712
 10
81.5075140855259
 20
-133.2249430005479
 10
81.5075140855259
 20
-133.2249430005479
 10
81.5075140855259
 20
-133.2249430005479
 10
81.93057181111459
 20
-133.2841986428942
 10
81.93057181111459
 20
-133.2841986428942
 10
81.89680987535914
 20
-133.2287326055817
 10
81.8565022581817
 20
-133.1546630526488
 10
81.8565022581817
 20
-133.0478650926061
 10
81.8565022581817
 20
-132.8191107523855
 10
82.04270966915946
 20
-132.6058593418485
 10
82.35586884876868
 20
-132.6058593418485
 10
82.67316214296018
 20
-132.6058593418485
 10
82.90794540027996
 20
-132.8077419372842
 10
82.90794540027996
 20
-133.0802489901674
 97
        0
 97
        0
 75
     2
 76
     1
 98
        0
  0
ENDBLK
  5
8E
330
8B
100
AcDbEntity
  8
0
100
AcDbBlockEnd
  0
BLOCK
  5
AC
330
AA
100
AcDbEntity
  8
0
100
AcDbBlockBegin
  2
block 5
 70
     0
 10
0.0
 20
0.0
 30
0.0
  3
block 5
  1

  0
SPLINE
  5
AE
330
AA
100
AcDbEntity
  8
_U+30EC_U+30A4_U+30E4_U+30FC 1
370
     0
100
AcDbSpline
210
0.0
220
0.0
230
1.0
 70
    11
 71
     3
 72
    44
 73
    40
 74
     0
 42
0.0000000001
 43
0.0000000001
 12
1.0
 22
0.0
 32
0.0
 13
1.0
 23
0.0
 33
0.0
 40
0.0
 40
0.0
 40
0.0
 40
0.0
 40
1.0
 40
1.0
 40
1.0
 40
2.0
 40
2.0
 40
2.0
 40
3.0
 40
3.0
 40
3.0
 40
4.0
 40
4.0
 40
4.0
 40
5.0
 40
5.0
 40
5.0
 40
6.0
 40
6.0
 40
6.0
 40
7.0
 40
7.0
 40
7.0
 40
8.0
 40
8.0
 40
8.0
 40
9.0
 40
9.0
 40
9.0
 40
10.0
 40
10.0
 40
10.0
 40
11.0
 40
11.0
 40
11.0
 40
12.0
 40
12.0
 40
12.0
 40
13.0
 40
13.0
 40
13.0
 40
13.0
 10
95.3340603060276
 20
-120.3867946747644
 30
0.0
 10
95.11667478090834
 20
-120.5454413218602
 30
0.0
 10
95.02400171235512
 20
-120.6195108747931
 30
0.0
 10
94.9754258660131
 20
-120.7633436113022
 30
0.0
 10
94.9754258660131
 20
-120.7633436113022
 30
0.0
 10
95.75195038838841
 20
-120.7633436113022
 30
0.0
 10
95.75195038838841
 20
-120.7633436113022
 30
0.0
 10
95.75195038838841
 20
-120.7633436113022
 30
0.0
 10
95.75195038838841
 20
-120.9684990474489
 30
0.0
 10
95.75195038838841
 20
-120.9684990474489
 30
0.0
 10
95.75195038838841
 20
-120.9684990474489
 30
0.0
 10
94.72634546242953
 20
-120.9684990474489
 30
0.0
 10
94.72634546242953
 20
-120.9684990474489
 30
0.0
 10
94.75804034089383
 20
-120.6110703908542
 30
0.0
 10
94.82349715511357
 20
-120.5326944685647
 30
0.0
 10
95.20762530171893
 20
-120.2345214543164
 30
0.0
 10
95.46290687717594
 20
-120.0355671900432
 30
0.0
 10
95.5283636913957
 20
-119.967871063758
 30
0.0
 10
95.5283636913957
 20
-119.8304117538966
 30
0.0
 10
95.5283636913957
 20
-119.711900469204
 30
0.0
 10
95.45636119575397
 20
-119.5808145859902
 30
0.0
 10
95.26033526264325
 20
-119.5808145859902
 30
0.0
 10
95.00057506305542
 20
-119.5808145859902
 30
0.0
 10
94.99230683389082
 20
-119.8112914739534
 30
0.0
 10
94.98817271930852
 20
-119.9277357013549
 30
0.0
 10
94.98817271930852
 20
-119.9277357013549
 30
0.0
 10
94.76424151276727
 20
-119.9277357013549
 30
0.0
 10
94.76424151276727
 20
-119.9277357013549
 30
0.0
 10
94.7728542514804
 20
-119.8007839327234
 30
0.0
 10
94.78318953793615
 20
-119.6886460746785
 30
0.0
 10
94.86346026274248
 20
-119.5701347899859
 30
0.0
 10
94.97335880872194
 20
-119.409421085599
 30
0.0
 10
95.1590494553769
 20
-119.3754868950693
 30
0.0
 10
95.27514917322983
 20
-119.3754868950693
 30
0.0
 10
95.55144583114686
 20
-119.3754868950693
 30
0.0
 10
95.75815156026185
 20
-119.5596272487559
 30
0.0
 10
95.75815156026185
 20
-119.8324788111877
 30
0.0
 10
95.75815156026185
 20
-120.061060896634
 30
0.0
 10
95.64205184240893
 20
-120.1604519013835
 30
0.0
 10
95.3340603060276
 20
-120.3867946747644
 30
0.0
  0
HATCH
  5
AF
330
AA
100
AcDbEntity
  8
_U+30EC_U+30A4_U+30E4_U+30FC 1
 62
   179
420
  2234388
100
AcDbHatch
 10
0.0
 20
0.0
 30
0.0
210
0.0
220
0.0
230
1.0
  2
SOLID
 70
     1
 71
     0
 91
        1
 92
        1
 93
        1
 72
     4
 94
        3
 73
     0
 74
     1
 95
       44
 96
       40
 40
0.0
 40
0.0
 40
0.0
 40
0.0
 40
1.0
 40
1.0
 40
1.0
 40
2.0
 40
2.0
 40
2.0
 40
3.0
 40
3.0
 40
3.0
 40
4.0
 40
4.0
 40
4.0
 40
5.0
 40
5.0
 40
5.0
 40
6.0
 40
6.0
 40
6.0
 40
7.0
 40
7.0
 40
7.0
 40
8.0
 40
8.0
 40
8.0
 40
9.0
 40
9.0
 40
9.0
 40
10.0
 40
10.0
 40
10.0
 40
11.0
 40
11.0
 40
11.0
 40
12.0
 40
12.0
 40
12.0
 40
13.0
 40
13.0
 40
13.0
 40
13.0
 10
95.3340603060276
 20
-120.3867946747644
 10
95.11667478090834
 20
-120.5454413218602
 10
95.02400171235512
 20
-120.6195108747931
 10
94.9754258660131
 20
-120.7633436113022
 10
94.9754258660131
 20
-120.7633436113022
 10
95.75195038838841
 20
-120.7633436113022
 10
95.75195038838841
 20
-120.7633436113022
 10
95.75195038838841
 20
-120.7633436113022
 10
95.75195038838841
 20
-120.9684990474489
 10
95.75195038838841
 20
-120.9684990474489
 10
95.75195038838841
 20
-120.9684990474489
 10
94.72634546242953
 20
-120.9684990474489
 10
94.72634546242953
 20
-120.9684990474489
 10
94.75804034089383
 20
-120.6110703908542
 10
94.82349715511357
 20
-120.5326944685647
 10
95.20762530171893
 20
-120.2345214543164
 10
95.46290687717594
 20
-120.0355671900432
 10
95.5283636913957
 20
-119.967871063758
 10
95.5283636913957
 20
-119.8304117538966
 10
95.5283636913957
 20
-119.711900469204
 10
95.45636119575397
 20
-119.5808145859902
 10
95.26033526264325
 20
-119.5808145859902
 10
95.00057506305542
 20
-119.5808145859902
 10
94.99230683389082
 20
-119.8112914739534
 10
94.98817271930852
 20
-119.9277357013549
 10
94.98817271930852
 20
-119.9277357013549
 10
94.76424151276727
 20
-119.9277357013549
 10
94.76424151276727
 20
-119.9277357013549
 10
94.7728542514804
 20
-119.8007839327234
 10
94.78318953793615
 20
-119.6886460746785
 10
94.86346026274248
 20
-119.5701347899859
 10
94.97335880872194
 20
-119.409421085599
 10
95.1590494553769
 20
-119.3754868950693
 10
95.27514917322983
 20
-119.3754868950693
 10
95.55144583114686
 20
-119.3754868950693
 10
95.75815156026185
 20
-119.5596272487559
 10
95.75815156026185
 20
-119.8324788111877
 10
95.75815156026185
 20
-120.061060896634
 10
95.64205184240893
 20
-120.1604519013835
 10
95.3340603060276
 20
-120.3867946747644
 97
        0
 97
        0
 75
     2
 76
     1
 98
        0
  0
SPLINE
  5
B0
330
AA
100
AcDbEntity
  8
_U+30EC_U+30A4_U+30E4_U+30FC 1
370
     0
100
AcDbSpline
210
0.0
220
0.0
230
1.0
 70
    11
 71
     3
 72
    29
 73
    25
 74
     0
 42
0.0000000001
 43
0.0000000001
 12
1.0
 22
0.0
 32
0.0
 13
1.0
 23
0.0
 33
0.0
 40
0.0
 40
0.0
 40
0.0
 40
0.0
 40
1.0
 40
1.0
 40
1.0
 40
2.0
 40
2.0
 40
2.0
 40
3.0
 40
3.0
 40
3.0
 40
4.0
 40
4.0
 40
4.0
 40
5.0
 40
5.0
 40
5.0
 40
6.0
 40
6.0
 40
6.0
 40
7.0
 40
7.0
 40
7.0
 40
8.0
 40
8.0
 40
8.0
 40
8.0
 10
96.81028372145715
 20
-120.7909043751842
 30
0.0
 10
96.70245223276883
 20
-121.0001939259132
 30
0.0
 10
96.5295084394093
 20
-121.0193142058563
 30
0.0
 10
96.41340872155638
 20
-121.0193142058563
 30
0.0
 10
96.25321178149225
 20
-121.0193142058563
 30
0.0
 10
96.11161835704848
 20
-120.9728054168054
 30
0.0
 10
96.01687823120412
 20
-120.7909043751842
 30
0.0
 10
95.91352536664662
 20
-120.5962564802676
 30
0.0
 10
95.89423283192923
 20
-120.3592339108824
 30
0.0
 10
95.89423283192923
 20
-120.1964531492044
 30
0.0
 10
95.89423283192923
 20
-120.0524481579209
 30
0.0
 10
95.91145830935547
 20
-119.8007839327234
 30
0.0
 10
96.01687823120412
 20
-119.6020019232245
 30
0.0
 10
96.12436521034391
 20
-119.3987412895948
 30
0.0
 10
96.28490665995656
 20
-119.3754868950693
 30
0.0
 10
96.41340872155638
 20
-119.3754868950693
 30
0.0
 10
96.57188311387787
 20
-119.3754868950693
 30
0.0
 10
96.71519908606426
 20
-119.419928626829
 30
0.0
 10
96.81028372145715
 20
-119.6020019232245
 30
0.0
 10
96.90950247143235
 20
-119.7944105060757
 30
0.0
 10
96.93258461118353
 20
-120.0228203367478
 30
0.0
 10
96.93258461118353
 20
-120.1964531492044
 30
0.0
 10
96.93258461118353
 20
-120.3676743948213
 30
0.0
 10
96.9115695287235
 20
-120.5983235375588
 30
0.0
 10
96.81028372145715
 20
-120.7909043751842
 30
0.0
  0
SPLINE
  5
B1
330
AA
100
AcDbEntity
  8
_U+30EC_U+30A4_U+30E4_U+30FC 1
370
     0
100
AcDbSpline
210
0.0
220
0.0
230
1.0
 70
    11
 71
     3
 72
    17
 73
    13
 74
     0
 42
0.0000000001
 43
0.0000000001
 12
1.0
 22
0.0
 32
0.0
 13
1.0
 23
0.0
 33
0.0
 40
0.0
 40
0.0
 40
0.0
 40
0.0
 40
1.0
 40
1.0
 40
1.0
 40
2.0
 40
2.0
 40
2.0
 40
3.0
 40
3.0
 40
3.0
 40
4.0
 40
4.0
 40
4.0
 40
4.0
 10
96.41340872155638
 20
-119.5680677326948
 30
0.0
 10
96.16432831797282
 20
-119.5680677326948
 30
0.0
 10
96.11816403847047
 20
-119.8515990911309
 30
0.0
 10
96.11816403847047
 20
-120.1964531492044
 30
0.0
 10
96.11816403847047
 20
-120.515813500687
 30
0.0
 10
96.15399303151706
 20
-120.8246663109397
 30
0.0
 10
96.41340872155638
 20
-120.8246663109397
 30
0.0
 10
96.66042206784878
 20
-120.8246663109397
 30
0.0
 10
96.70899791419082
 20
-120.543374264569
 30
0.0
 10
96.70899791419082
 20
-120.1964531492044
 30
0.0
 10
96.70899791419082
 20
-119.8769205429474
 30
0.0
 10
96.67075735430454
 20
-119.5680677326948
 30
0.0
 10
96.41340872155638
 20
-119.5680677326948
 30
0.0
  0
HATCH
  5
B2
330
AA
100
AcDbEntity
  8
_U+30EC_U+30A4_U+30E4_U+30FC 1
 62
   179
420
  2234388
100
AcDbHatch
 10
0.0
 20
0.0
 30
0.0
210
0.0
220
0.0
230
1.0
  2
SOLID
 70
     1
 71
     0
 91
        2
 92
        1
 93
        1
 72
     4
 94
        3
 73
     0
 74
     1
 95
       29
 96
       25
 40
0.0
 40
0.0
 40
0.0
 40
0.0
 40
1.0
 40
1.0
 40
1.0
 40
2.0
 40
2.0
 40
2.0
 40
3.0
 40
3.0
 40
3.0
 40
4.0
 40
4.0
 40
4.0
 40
5.0
 40
5.0
 40
5.0
 40
6.0
 40
6.0
 40
6.0
 40
7.0
 40
7.0
 40
7.0
 40
8.0
 40
8.0
 40
8.0
 40
8.0
 10
96.81028372145715
 20
-120.7909043751842
 10
96.70245223276883
 20
-121.0001939259132
 10
96.5295084394093
 20
-121.0193142058563
 10
96.41340872155638
 20
-121.0193142058563
 10
96.25321178149225
 20
-121.0193142058563
 10
96.11161835704848
 20
-120.9728054168054
 10
96.01687823120412
 20
-120.7909043751842
 10
95.91352536664662
 20
-120.5962564802676
 10
95.89423283192923
 20
-120.3592339108824
 10
95.89423283192923
 20
-120.1964531492044
 10
95.89423283192923
 20
-120.0524481579209
 10
95.91145830935547
 20
-119.8007839327234
 10
96.01687823120412
 20
-119.6020019232245
 10
96.12436521034391
 20
-119.3987412895948
 10
96.28490665995656
 20
-119.3754868950693
 10
96.41340872155638
 20
-119.3754868950693
 10
96.57188311387787
 20
-119.3754868950693
 10
96.71519908606426
 20
-119.419928626829
 10
96.81028372145715
 20
-119.6020019232245
 10
96.90950247143235
 20
-119.7944105060757
 10
96.93258461118353
 20
-120.0228203367478
 10
96.93258461118353
 20
-120.1964531492044
 10
96.93258461118353
 20
-120.3676743948213
 10
96.9115695287235
 20
-120.5983235375588
 10
96.81028372145715
 20
-120.7909043751842
 97
        0
 97
        0
 92
        1
 93
        1
 72
     4
 94
        3
 73
     0
 74
     1
 95
       17
 96
       13
 40
0.0
 40
0.0
 40
0.0
 40
0.0
 40
1.0
 40
1.0
 40
1.0
 40
2.0
 40
2.0
 40
2.0
 40
3.0
 40
3.0
 40
3.0
 40
4.0
 40
4.0
 40
4.0
 40
4.0
 10
96.41340872155638
 20
-119.5680677326948
 10
96.16432831797282
 20
-119.5680677326948
 10
96.11816403847047
 20
-119.8515990911309
 10
96.11816403847047
 20
-120.1964531492044
 10
96.11816403847047
 20
-120.515813500687
 10
96.15399303151706
 20
-120.8246663109397
 10
96.41340872155638
 20
-120.8246663109397
 10
96.66042206784878
 20
-120.8246663109397
 10
96.70899791419082
 20
-120.543374264569
 10
96.70899791419082
 20
-120.1964531492044
 10
96.70899791419082
 20
-119.8769205429474
 10
96.67075735430454
 20
-119.5680677326948
 10
96.41340872155638
 20
-119.5680677326948
 97
        0
 97
        0
 75
     2
 76
     1
 98
        0
  0
ENDBLK
  5
AD
330
AA
100
AcDbEntity
  8
0
100
AcDbBlockEnd
  0
BLOCK
  5
CD
330
CB
100
AcDbEntity
  8
0
100
AcDbBlockBegin
  2
block 6
 70
     0
 10
0.0
 20
0.0
 30
0.0
  3
block 6
  1

  0
SPLINE
  5
CF
330
CB
100
AcDbEntity
  8
_U+30EC_U+30A4_U+30E4_U+30FC 1
370
     0
100
AcDbSpline
210
0.0
220
0.0
230
1.0
 70
    11
 71
     3
 72
    26
 73
    22
 74
     0
 42
0.0000000001
 43
0.0000000001
 12
1.0
 22
0.0
 32
0.0
 13
1.0
 23
0.0
 33
0.0
 40
0.0
 40
0.0
 40
0.0
 40
0.0
 40
1.0
 40
1.0
 40
1.0
 40
2.0
 40
2.0
 40
2.0
 40
3.0
 40
3.0
 40
3.0
 40
4.0
 40
4.0
 40
4.0
 40
5.0
 40
5.0
 40
5.0
 40
6.0
 40
6.0
 40
6.0
 40
7.0
 40
7.0
 40
7.0
 40
7.0
 10
94.22577308842273
 20
-137.4231363588734
 30
0.0
 10
94.22577308842273
 20
-137.4231363588734
 30
0.0
 10
94.22577308842273
 20
-136.3186387463023
 30
0.0
 10
94.22577308842273
 20
-136.3186387463023
 30
0.0
 10
94.22577308842273
 20
-136.3186387463023
 30
0.0
 10
93.89642196003284
 20
-136.3186387463023
 30
0.0
 10
93.89642196003284
 20
-136.3186387463023
 30
0.0
 10
93.89642196003284
 20
-136.3186387463023
 30
0.0
 10
93.89642196003284
 20
-136.1704996404366
 30
0.0
 10
93.89642196003284
 20
-136.1704996404366
 30
0.0
 10
94.22784014571388
 20
-136.15568572985
 30
0.0
 10
94.27434893476475
 20
-135.9930772229462
 30
0.0
 10
94.30363224638937
 20
-135.8787000528359
 30
0.0
 10
94.30363224638937
 20
-135.8787000528359
 30
0.0
 10
94.44935978541544
 20
-135.8787000528359
 30
0.0
 10
94.44935978541544
 20
-135.8787000528359
 30
0.0
 10
94.44935978541544
 20
-135.8787000528359
 30
0.0
 10
94.44935978541544
 20
-137.4231363588734
 30
0.0
 10
94.44935978541544
 20
-137.4231363588734
 30
0.0
 10
94.44935978541544
 20
-137.4231363588734
 30
0.0
 10
94.22577308842273
 20
-137.4231363588734
 30
0.0
 10
94.22577308842273
 20
-137.4231363588734
 30
0.0
  0
HATCH
  5
D0
330
CB
100
AcDbEntity
  8
_U+30EC_U+30A4_U+30E4_U+30FC 1
 62
   179
420
  2234388
100
AcDbHatch
 10
0.0
 20
0.0
 30
0.0
210
0.0
220
0.0
230
1.0
  2
SOLID
 70
     1
 71
     0
 91
        1
 92
        1
 93
        1
 72
     4
 94
        3
 73
     0
 74
     1
 95
       26
 96
       22
 40
0.0
 40
0.0
 40
0.0
 40
0.0
 40
1.0
 40
1.0
 40
1.0
 40
2.0
 40
2.0
 40
2.0
 40
3.0
 40
3.0
 40
3.0
 40
4.0
 40
4.0
 40
4.0
 40
5.0
 40
5.0
 40
5.0
 40
6.0
 40
6.0
 40
6.0
 40
7.0
 40
7.0
 40
7.0
 40
7.0
 10
94.22577308842273
 20
-137.4231363588734
 10
94.22577308842273
 20
-137.4231363588734
 10
94.22577308842273
 20
-136.3186387463023
 10
94.22577308842273
 20
-136.3186387463023
 10
94.22577308842273
 20
-136.3186387463023
 10
93.89642196003284
 20
-136.3186387463023
 10
93.89642196003284
 20
-136.3186387463023
 10
93.89642196003284
 20
-136.3186387463023
 10
93.89642196003284
 20
-136.1704996404366
 10
93.89642196003284
 20
-136.1704996404366
 10
94.22784014571388
 20
-136.15568572985
 10
94.27434893476475
 20
-135.9930772229462
 10
94.30363224638937
 20
-135.8787000528359
 10
94.30363224638937
 20
-135.8787000528359
 10
94.44935978541544
 20
-135.8787000528359
 10
94.44935978541544
 20
-135.8787000528359
 10
94.44935978541544
 20
-135.8787000528359
 10
94.44935978541544
 20
-137.4231363588734
 10
94.44935978541544
 20
-137.4231363588734
 10
94.44935978541544
 20
-137.4231363588734
 10
94.22577308842273
 20
-137.4231363588734
 10
94.22577308842273
 20
-137.4231363588734
 97
        0
 97
        0
 75
     2
 76
     1
 98
        0
  0
SPLINE
  5
D1
330
CB
100
AcDbEntity
  8
_U+30EC_U+30A4_U+30E4_U+30FC 1
370
     0
100
AcDbSpline
210
0.0
220
0.0
230
1.0
 70
    11
 71
     3
 72
    32
 73
    28
 74
     0
 42
0.0000000001
 43
0.0000000001
 12
1.0
 22
0.0
 32
0.0
 13
1.0
 23
0.0
 33
0.0
 40
0.0
 40
0.0
 40
0.0
 40
0.0
 40
1.0
 40
1.0
 40
1.0
 40
2.0
 40
2.0
 40
2.0
 40
3.0
 40
3.0
 40
3.0
 40
4.0
 40
4.0
 40
4.0
 40
5.0
 40
5.0
 40
5.0
 40
6.0
 40
6.0
 40
6.0
 40
7.0
 40
7.0
 40
7.0
 40
8.0
 40
8.0
 40
8.0
 40
9.0
 40
9.0
 40
9.0
 40
9.0
 10
95.45084904297757
 20
-137.4737792625066
 30
0.0
 10
94.93580726793272
 20
-137.4737792625066
 30
0.0
 10
94.92753903876812
 20
-136.9194633989298
 30
0.0
 10
94.92753903876812
 20
-136.7058674788444
 30
0.0
 10
94.92753903876812
 20
-136.4753905908811
 30
0.0
 10
94.946487063937
 20
-135.8280571492027
 30
0.0
 10
95.48874509331532
 20
-135.8280571492027
 30
0.0
 10
95.66168888667487
 20
-135.8280571492027
 30
0.0
 10
95.90663517567613
 20
-135.8976480780047
 30
0.0
 10
95.94453122601386
 20
-136.2297552827828
 30
0.0
 10
95.94453122601386
 20
-136.2297552827828
 30
0.0
 10
95.73127981547691
 20
-136.2297552827828
 30
0.0
 10
95.73127981547691
 20
-136.2297552827828
 30
0.0
 10
95.72094452902115
 20
-136.1725666977277
 30
0.0
 10
95.68924965055686
 20
-136.0247721014105
 30
0.0
 10
95.48667803602417
 20
-136.0247721014105
 30
0.0
 10
95.19556746752056
 20
-136.0247721014105
 30
0.0
 10
95.15525985034313
 20
-136.3524006820577
 30
0.0
 10
95.1425129970477
 20
-136.5577283729786
 30
0.0
 10
95.23553057514945
 20
-136.4795247054635
 30
0.0
 10
95.30305444666035
 20
-136.4202690631172
 30
0.0
 10
95.48461097873302
 20
-136.4202690631172
 30
0.0
 10
95.66375594396601
 20
-136.4202690631172
 30
0.0
 10
95.96554630847389
 20
-136.5281005518055
 30
0.0
 10
95.96554630847389
 20
-136.9342773095164
 30
0.0
 10
95.96554630847389
 20
-137.2536376609991
 30
0.0
 10
95.7671088085235
 20
-137.4737792625066
 30
0.0
 10
95.45084904297757
 20
-137.4737792625066
 30
0.0
  0
SPLINE
  5
D2
330
CB
100
AcDbEntity
  8
_U+30EC_U+30A4_U+30E4_U+30FC 1
370
     0
100
AcDbSpline
210
0.0
220
0.0
230
1.0
 70
    11
 71
     3
 72
    17
 73
    13
 74
     0
 42
0.0000000001
 43
0.0000000001
 12
1.0
 22
0.0
 32
0.0
 13
1.0
 23
0.0
 33
0.0
 40
0.0
 40
0.0
 40
0.0
 40
0.0
 40
1.0
 40
1.0
 40
1.0
 40
2.0
 40
2.0
 40
2.0
 40
3.0
 40
3.0
 40
3.0
 40
4.0
 40
4.0
 40
4.0
 40
4.0
 10
95.46773001085529
 20
-136.6149169580338
 30
0.0
 10
95.2059027539763
 20
-136.6149169580338
 30
0.0
 10
95.16800670363855
 20
-136.8264458208281
 30
0.0
 10
95.16800670363855
 20
-136.9428900482296
 30
0.0
 10
95.16800670363855
 20
-137.1182454084288
 30
0.0
 10
95.26309133903145
 20
-137.2811984248811
 30
0.0
 10
95.44637041884674
 20
-137.2811984248811
 30
0.0
 10
95.56694876083048
 20
-137.2811984248811
 30
0.0
 10
95.74195961148118
 20
-137.2219427825348
 30
0.0
 10
95.74195961148118
 20
-136.9363443668076
 30
0.0
 10
95.74195961148118
 20
-136.7120686507178
 30
0.0
 10
95.60277775387709
 20
-136.6149169580338
 30
0.0
 10
95.46773001085529
 20
-136.6149169580338
 30
0.0
  0
HATCH
  5
D3
330
CB
100
AcDbEntity
  8
_U+30EC_U+30A4_U+30E4_U+30FC 1
 62
   179
420
  2234388
100
AcDbHatch
 10
0.0
 20
0.0
 30
0.0
210
0.0
220
0.0
230
1.0
  2
SOLID
 70
     1
 71
     0
 91
        2
 92
        1
 93
        1
 72
     4
 94
        3
 73
     0
 74
     1
 95
       32
 96
       28
 40
0.0
 40
0.0
 40
0.0
 40
0.0
 40
1.0
 40
1.0
 40
1.0
 40
2.0
 40
2.0
 40
2.0
 40
3.0
 40
3.0
 40
3.0
 40
4.0
 40
4.0
 40
4.0
 40
5.0
 40
5.0
 40
5.0
 40
6.0
 40
6.0
 40
6.0
 40
7.0
 40
7.0
 40
7.0
 40
8.0
 40
8.0
 40
8.0
 40
9.0
 40
9.0
 40
9.0
 40
9.0
 10
95.45084904297757
 20
-137.4737792625066
 10
94.93580726793272
 20
-137.4737792625066
 10
94.92753903876812
 20
-136.9194633989298
 10
94.92753903876812
 20
-136.7058674788444
 10
94.92753903876812
 20
-136.4753905908811
 10
94.946487063937
 20
-135.8280571492027
 10
95.48874509331532
 20
-135.8280571492027
 10
95.66168888667487
 20
-135.8280571492027
 10
95.90663517567613
 20
-135.8976480780047
 10
95.94453122601386
 20
-136.2297552827828
 10
95.94453122601386
 20
-136.2297552827828
 10
95.73127981547691
 20
-136.2297552827828
 10
95.73127981547691
 20
-136.2297552827828
 10
95.72094452902115
 20
-136.1725666977277
 10
95.68924965055686
 20
-136.0247721014105
 10
95.48667803602417
 20
-136.0247721014105
 10
95.19556746752056
 20
-136.0247721014105
 10
95.15525985034313
 20
-136.3524006820577
 10
95.1425129970477
 20
-136.5577283729786
 10
95.23553057514945
 20
-136.4795247054635
 10
95.30305444666035
 20
-136.4202690631172
 10
95.48461097873302
 20
-136.4202690631172
 10
95.66375594396601
 20
-136.4202690631172
 10
95.96554630847389
 20
-136.5281005518055
 10
95.96554630847389
 20
-136.9342773095164
 10
95.96554630847389
 20
-137.2536376609991
 10
95.7671088085235
 20
-137.4737792625066
 10
95.45084904297757
 20
-137.4737792625066
 97
        0
 97
        0
 92
        1
 93
        1
 72
     4
 94
        3
 73
     0
 74
     1
 95
       17
 96
       13
 40
0.0
 40
0.0
 40
0.0
 40
0.0
 40
1.0
 40
1.0
 40
1.0
 40
2.0
 40
2.0
 40
2.0
 40
3.0
 40
3.0
 40
3.0
 40
4.0
 40
4.0
 40
4.0
 40
4.0
 10
95.46773001085529
 20
-136.6149169580338
 10
95.2059027539763
 20
-136.6149169580338
 10
95.16800670363855
 20
-136.8264458208281
 10
95.16800670363855
 20
-136.9428900482296
 10
95.16800670363855
 20
-137.1182454084288
 10
95.26309133903145
 20
-137.2811984248811
 10
95.44637041884674
 20
-137.2811984248811
 10
95.56694876083048
 20
-137.2811984248811
 10
95.74195961148118
 20
-137.2219427825348
 10
95.74195961148118
 20
-136.9363443668076
 10
95.74195961148118
 20
-136.7120686507178
 10
95.60277775387709
 20
-136.6149169580338
 10
95.46773001085529
 20
-136.6149169580338
 97
        0
 97
        0
 75
     2
 76
     1
 98
        0
  0
POLYLINE
  5
D4
330
CB
100
AcDbEntity
  8
_U+30EC_U+30A4_U+30E4_U+30FC 1
370
     0
100
AcDb2dPolyline
 66
     1
 10
0.0
 20
0.0
 30
0.0
  0
VERTEX
  5
D5
330
D4
100
AcDbEntity
  8
_U+30EC_U+30A4_U+30E4_U+30FC 1
370
     0
100
AcDbVertex
100
AcDb2dVertex
 10
96.17983124765644
 20
-137.4231363588734
 30
0.0
  0
VERTEX
  5
D6
330
D4
100
AcDbEntity
  8
_U+30EC_U+30A4_U+30E4_U+30FC 1
370
     0
100
AcDbVertex
100
AcDb2dVertex
 10
96.17983124765644
 20
-137.1712998789016
 30
0.0
  0
VERTEX
  5
D7
330
D4
100
AcDbEntity
  8
_U+30EC_U+30A4_U+30E4_U+30FC 1
370
     0
100
AcDbVertex
100
AcDb2dVertex
 10
96.43097870853114
 20
-137.1712998789016
 30
0.0
  0
VERTEX
  5
D8
330
D4
100
AcDbEntity
  8
_U+30EC_U+30A4_U+30E4_U+30FC 1
370
     0
100
AcDbVertex
100
AcDb2dVertex
 10
96.43097870853114
 20
-137.4231363588734
 30
0.0
  0
VERTEX
  5
D9
330
D4
100
AcDbEntity
  8
_U+30EC_U+30A4_U+30E4_U+30FC 1
370
     0
100
AcDbVertex
100
AcDb2dVertex
 10
96.17983124765644
 20
-137.4231363588734
 30
0.0
  0
SEQEND
  5
DA
330
D4
100
AcDbEntity
  8
_U+30EC_U+30A4_U+30E4_U+30FC 1
370
     0
  0
HATCH
  5
DB
330
CB
100
AcDbEntity
  8
_U+30EC_U+30A4_U+30E4_U+30FC 1
 62
   179
420
  2234388
100
AcDbHatch
 10
0.0
 20
0.0
 30
0.0
210
0.0
220
0.0
230
1.0
  2
SOLID
 70
     1
 71
     0
 91
        1
 92
        1
 93
        4
 72
     1
 10
96.17983124765644
 20
-137.4231363588734
 11
96.17983124765644
 21
-137.1712998789016
 72
     1
 10
96.17983124765644
 20
-137.1712998789016
 11
96.43097870853114
 21
-137.1712998789016
 72
     1
 10
96.43097870853114
 20
-137.1712998789016
 11
96.43097870853114
 21
-137.4231363588734
 72
     1
 10
96.43097870853114
 20
-137.4231363588734
 11
96.17983124765644
 21
-137.4231363588734
 97
        0
 75
     2
 76
     1
 98
        0
  0
SPLINE
  5
DC
330
CB
100
AcDbEntity
  8
_U+30EC_U+30A4_U+30E4_U+30FC 1
370
     0
100
AcDbSpline
210
0.0
220
0.0
230
1.0
 70
    11
 71
     3
 72
    29
 73
    25
 74
     0
 42
0.0000000001
 43
0.0000000001
 12
1.0
 22
0.0
 32
0.0
 13
1.0
 23
0.0
 33
0.0
 40
0.0
 40
0.0
 40
0.0
 40
0.0
 40
1.0
 40
1.0
 40
1.0
 40
2.0
 40
2.0
 40
2.0
 40
3.0
 40
3.0
 40
3.0
 40
4.0
 40
4.0
 40
4.0
 40
5.0
 40
5.0
 40
5.0
 40
6.0
 40
6.0
 40
6.0
 40
7.0
 40
7.0
 40
7.0
 40
8.0
 40
8.0
 40
8.0
 40
8.0
 10
97.16478404688937
 20
-137.4737792625066
 30
0.0
 10
96.89882267542808
 20
-137.4737792625066
 30
0.0
 10
96.64560815726222
 20
-137.3363199526451
 30
0.0
 10
96.64560815726222
 20
-136.9873317799893
 30
0.0
 10
96.64560815726222
 20
-136.7313611854352
 30
0.0
 10
96.78720158170599
 20
-136.6359320404938
 30
0.0
 10
96.89262150355462
 20
-136.5746093408563
 30
0.0
 10
96.7682535565371
 20
-136.5153536985101
 30
0.0
 10
96.69211694631309
 20
-136.4013210379483
 30
0.0
 10
96.69211694631309
 20
-136.2404350787871
 30
0.0
 10
96.69211694631309
 20
-135.9655164590642
 30
0.0
 10
96.89055444626348
 20
-135.8301242064939
 30
0.0
 10
97.16478404688937
 20
-135.8301242064939
 30
0.0
 10
97.44762638622838
 20
-135.8301242064939
 30
0.0
 10
97.63745114746564
 20
-135.9737846882288
 30
0.0
 10
97.63745114746564
 20
-136.2404350787871
 30
0.0
 10
97.63745114746564
 20
-136.4013210379483
 30
0.0
 10
97.55924747995047
 20
-136.5153536985101
 30
0.0
 10
97.43487953293295
 20
-136.5746093408563
 30
0.0
 10
97.52341848690388
 20
-136.625596754038
 30
0.0
 10
97.68189287922536
 20
-136.720681389431
 30
0.0
 10
97.68189287922536
 20
-136.9828531558585
 30
0.0
 10
97.68189287922536
 20
-137.3573350351051
 30
0.0
 10
97.40318465446865
 20
-137.4737792625066
 30
0.0
 10
97.16478404688937
 20
-137.4737792625066
 30
0.0
  0
SPLINE
  5
DD
330
CB
100
AcDbEntity
  8
_U+30EC_U+30A4_U+30E4_U+30FC 1
370
     0
100
AcDbSpline
210
0.0
220
0.0
230
1.0
 70
    11
 71
     3
 72
    17
 73
    13
 74
     0
 42
0.0000000001
 43
0.0000000001
 12
1.0
 22
0.0
 32
0.0
 13
1.0
 23
0.0
 33
0.0
 40
0.0
 40
0.0
 40
0.0
 40
0.0
 40
1.0
 40
1.0
 40
1.0
 40
2.0
 40
2.0
 40
2.0
 40
3.0
 40
3.0
 40
3.0
 40
4.0
 40
4.0
 40
4.0
 40
4.0
 10
97.16478404688937
 20
-136.6824408295447
 30
0.0
 10
97.02146807470297
 20
-136.6824408295447
 30
0.0
 10
96.86953936380345
 20
-136.769257235773
 30
0.0
 10
96.86953936380345
 20
-136.9725178694027
 30
0.0
 10
96.86953936380345
 20
-137.1775010507751
 30
0.0
 10
96.99597436811212
 20
-137.2791313675899
 30
0.0
 10
97.16478404688937
 20
-137.2791313675899
 30
0.0
 10
97.35047469354433
 20
-137.2791313675899
 30
0.0
 10
97.4603732395238
 20
-137.1564859683151
 30
0.0
 10
97.4603732395238
 20
-136.9787190412762
 30
0.0
 10
97.4603732395238
 20
-136.7565103824776
 30
0.0
 10
97.29776473262001
 20
-136.6824408295447
 30
0.0
 10
97.16478404688937
 20
-136.6824408295447
 30
0.0
  0
SPLINE
  5
DE
330
CB
100
AcDbEntity
  8
_U+30EC_U+30A4_U+30E4_U+30FC 1
370
     0
100
AcDbSpline
210
0.0
220
0.0
230
1.0
 70
    11
 71
     3
 72
    17
 73
    13
 74
     0
 42
0.0000000001
 43
0.0000000001
 12
1.0
 22
0.0
 32
0.0
 13
1.0
 23
0.0
 33
0.0
 40
0.0
 40
0.0
 40
0.0
 40
0.0
 40
1.0
 40
1.0
 40
1.0
 40
2.0
 40
2.0
 40
2.0
 40
3.0
 40
3.0
 40
3.0
 40
4.0
 40
4.0
 40
4.0
 40
4.0
 10
97.16478404688937
 20
-136.0227050441193
 30
0.0
 10
97.00010848269442
 20
-136.0227050441193
 30
0.0
 10
96.9157036433058
 20
-136.1177896795122
 30
0.0
 10
96.9157036433058
 20
-136.2531819320826
 30
0.0
 10
96.9157036433058
 20
-136.3758273313574
 30
0.0
 10
96.98770613894752
 20
-136.49433861605
 30
0.0
 10
97.16478404688937
 20
-136.49433861605
 30
0.0
 10
97.34220646437973
 20
-136.49433861605
 30
0.0
 10
97.41386445047293
 20
-136.3758273313574
 30
0.0
 10
97.41386445047293
 20
-136.2531819320826
 30
0.0
 10
97.41386445047293
 20
-136.1177896795122
 30
0.0
 10
97.32739255379316
 20
-136.0227050441193
 30
0.0
 10
97.16478404688937
 20
-136.0227050441193
 30
0.0
  0
HATCH
  5
DF
330
CB
100
AcDbEntity
  8
_U+30EC_U+30A4_U+30E4_U+30FC 1
 62
   179
420
  2234388
100
AcDbHatch
 10
0.0
 20
0.0
 30
0.0
210
0.0
220
0.0
230
1.0
  2
SOLID
 70
     1
 71
     0
 91
        3
 92
        1
 93
        1
 72
     4
 94
        3
 73
     0
 74
     1
 95
       29
 96
       25
 40
0.0
 40
0.0
 40
0.0
 40
0.0
 40
1.0
 40
1.0
 40
1.0
 40
2.0
 40
2.0
 40
2.0
 40
3.0
 40
3.0
 40
3.0
 40
4.0
 40
4.0
 40
4.0
 40
5.0
 40
5.0
 40
5.0
 40
6.0
 40
6.0
 40
6.0
 40
7.0
 40
7.0
 40
7.0
 40
8.0
 40
8.0
 40
8.0
 40
8.0
 10
97.16478404688937
 20
-137.4737792625066
 10
96.89882267542808
 20
-137.4737792625066
 10
96.64560815726222
 20
-137.3363199526451
 10
96.64560815726222
 20
-136.9873317799893
 10
96.64560815726222
 20
-136.7313611854352
 10
96.78720158170599
 20
-136.6359320404938
 10
96.89262150355462
 20
-136.5746093408563
 10
96.7682535565371
 20
-136.5153536985101
 10
96.69211694631309
 20
-136.4013210379483
 10
96.69211694631309
 20
-136.2404350787871
 10
96.69211694631309
 20
-135.9655164590642
 10
96.89055444626348
 20
-135.8301242064939
 10
97.16478404688937
 20
-135.8301242064939
 10
97.44762638622838
 20
-135.8301242064939
 10
97.63745114746564
 20
-135.9737846882288
 10
97.63745114746564
 20
-136.2404350787871
 10
97.63745114746564
 20
-136.4013210379483
 10
97.55924747995047
 20
-136.5153536985101
 10
97.43487953293295
 20
-136.5746093408563
 10
97.52341848690388
 20
-136.625596754038
 10
97.68189287922536
 20
-136.720681389431
 10
97.68189287922536
 20
-136.9828531558585
 10
97.68189287922536
 20
-137.3573350351051
 10
97.40318465446865
 20
-137.4737792625066
 10
97.16478404688937
 20
-137.4737792625066
 97
        0
 97
        0
 92
        1
 93
        1
 72
     4
 94
        3
 73
     0
 74
     1
 95
       17
 96
       13
 40
0.0
 40
0.0
 40
0.0
 40
0.0
 40
1.0
 40
1.0
 40
1.0
 40
2.0
 40
2.0
 40
2.0
 40
3.0
 40
3.0
 40
3.0
 40
4.0
 40
4.0
 40
4.0
 40
4.0
 10
97.16478404688937
 20
-136.6824408295447
 10
97.02146807470297
 20
-136.6824408295447
 10
96.86953936380345
 20
-136.769257235773
 10
96.86953936380345
 20
-136.9725178694027
 10
96.86953936380345
 20
-137.1775010507751
 10
96.99597436811212
 20
-137.2791313675899
 10
97.16478404688937
 20
-137.2791313675899
 10
97.35047469354433
 20
-137.2791313675899
 10
97.4603732395238
 20
-137.1564859683151
 10
97.4603732395238
 20
-136.9787190412762
 10
97.4603732395238
 20
-136.7565103824776
 10
97.29776473262001
 20
-136.6824408295447
 10
97.16478404688937
 20
-136.6824408295447
 97
        0
 97
        0
 92
        1
 93
        1
 72
     4
 94
        3
 73
     0
 74
     1
 95
       17
 96
       13
 40
0.0
 40
0.0
 40
0.0
 40
0.0
 40
1.0
 40
1.0
 40
1.0
 40
2.0
 40
2.0
 40
2.0
 40
3.0
 40
3.0
 40
3.0
 40
4.0
 40
4.0
 40
4.0
 40
4.0
 10
97.16478404688937
 20
-136.0227050441193
 10
97.00010848269442
 20
-136.0227050441193
 10
96.9157036433058
 20
-136.1177896795122
 10
96.9157036433058
 20
-136.2531819320826
 10
96.9157036433058
 20
-136.3758273313574
 10
96.98770613894752
 20
-136.49433861605
 10
97.16478404688937
 20
-136.49433861605
 10
97.34220646437973
 20
-136.49433861605
 10
97.41386445047293
 20
-136.3758273313574
 10
97.41386445047293
 20
-136.2531819320826
 10
97.41386445047293
 20
-136.1177896795122
 10
97.32739255379316
 20
-136.0227050441193
 10
97.16478404688937
 20
-136.0227050441193
 97
        0
 97
        0
 75
     2
 76
     1
 98
        0
  0
ENDBLK
  5
CE
330
CB
100
AcDbEntity
  8
0
100
AcDbBlockEnd
  0
ENDSEC
  0
SECTION
  2
ENTITIES
  0
INSERT
  5
42
330
1F
100
AcDbEntity
  8
_U+30EC_U+30A4_U+30E4_U+30FC 1
100
AcDbBlockReference
  2
block 2
 10
0.0
 20
0.0
 30
0.0
  0
SPLINE
  5
5A
330
1F
100
AcDbEntity
  8
_U+30EC_U+30A4_U+30E4_U+30FC 1
 62
   179
420
  2234388
370
     9
100
AcDbSpline
210
0.0
220
0.0
230
1.0
 70
     8
 71
     3
 72
    38
 73
    34
 74
     0
 42
0.0000000001
 43
0.0000000001
 12
1.0
 22
0.0
 32
0.0
 13
1.0
 23
0.0
 33
0.0
 40
0.0
 40
0.0
 40
0.0
 40
0.0
 40
1.0
 40
1.0
 40
1.0
 40
2.0
 40
2.0
 40
2.0
 40
3.0
 40
3.0
 40
3.0
 40
4.0
 40
4.0
 40
4.0
 40
5.0
 40
5.0
 40
5.0
 40
6.0
 40
6.0
 40
6.0
 40
7.0
 40
7.0
 40
7.0
 40
8.0
 40
8.0
 40
8.0
 40
9.0
 40
9.0
 40
9.0
 40
10.0
 40
10.0
 40
10.0
 40
11.0
 40
11.0
 40
11.0
 40
11.0
 10
85.7453178124547
 20
-128.6629591345009
 30
0.0
 10
85.7453178124547
 20
-128.6629591345009
 30
0.0
 10
87.39173165934007
 20
-128.6629591345009
 30
0.0
 10
87.39173165934007
 20
-128.6629591345009
 30
0.0
 10
87.39173165934007
 20
-128.6629591345009
 30
0.0
 10
87.39173165934007
 20
-128.2509146901595
 30
0.0
 10
87.39173165934007
 20
-128.2509146901595
 30
0.0
 10
87.39173165934007
 20
-128.2509146901595
 30
0.0
 10
88.03837330950954
 20
-127.6046258014321
 30
0.0
 10
88.03837330950954
 20
-127.6046258014321
 30
0.0
 10
88.03837330950954
 20
-127.6046258014321
 30
0.0
 10
87.50920665634303
 20
-127.0751063571203
 30
0.0
 10
87.50920665634303
 20
-127.0751063571203
 30
0.0
 10
87.50920665634303
 20
-127.0751063571203
 30
0.0
 10
87.50920665634303
 20
-126.3108133017557
 30
0.0
 10
87.50920665634303
 20
-126.3108133017557
 30
0.0
 10
87.50920665634303
 20
-126.3108133017557
 30
0.0
 10
96.56360086979063
 20
-124.7236660799303
 30
0.0
 10
103.8544590171187
 20
-126.1936910795626
 30
0.0
 10
103.8544590171187
 20
-126.1936910795626
 30
0.0
 10
103.8544590171187
 20
-126.9576313571495
 30
0.0
 10
103.8544590171187
 20
-126.9576313571495
 30
0.0
 10
103.8544590171187
 20
-126.9576313571495
 30
0.0
 10
103.2667312543351
 20
-127.5453591347804
 30
0.0
 10
103.2667312543351
 20
-127.5453591347804
 30
0.0
 10
103.2667312543351
 20
-127.5453591347804
 30
0.0
 10
103.766617352693
 20
-128.0452452457666
 30
0.0
 10
103.766617352693
 20
-128.0452452457666
 30
0.0
 10
103.766617352693
 20
-128.0452452457666
 30
0.0
 10
103.766617352693
 20
-128.5451313567526
 30
0.0
 10
103.766617352693
 20
-128.5451313567526
 30
0.0
 10
103.766617352693
 20
-128.5451313567526
 30
0.0
 10
105.5597867513899
 20
-128.5451313567526
 30
0.0
 10
105.5597867513899
 20
-128.5451313567526
 30
0.0
  0
SPLINE
  5
5B
330
1F
100
AcDbEntity
  8
_U+30EC_U+30A4_U+30E4_U+30FC 1
 62
     7
420
 16777215
370
    25
100
AcDbSpline
210
0.0
220
0.0
230
1.0
 70
     8
 71
     3
 72
    14
 73
    10
 74
     0
 42
0.0000000001
 43
0.0000000001
 12
1.0
 22
0.0
 32
0.0
 13
1.0
 23
0.0
 33
0.0
 40
0.0
 40
0.0
 40
0.0
 40
0.0
 40
1.0
 40
1.0
 40
1.0
 40
2.0
 40
2.0
 40
2.0
 40
3.0
 40
3.0
 40
3.0
 40
3.0
 10
85.83351225464911
 20
-128.633325801175
 30
0.0
 10
85.83351225464911
 20
-128.633325801175
 30
0.0
 10
85.7453178124547
 20
-124.7825799688043
 30
0.0
 10
85.7453178124547
 20
-124.7825799688043
 30
0.0
 10
85.7453178124547
 20
-124.7825799688043
 30
0.0
 10
94.09450926611575
 20
-122.8424433026226
 30
0.0
 10
105.5597867513899
 20
-124.664752191056
 30
0.0
 10
105.5597867513899
 20
-124.664752191056
 30
0.0
 10
105.5597867513899
 20
-128.4273035790043
 30
0.0
 10
105.5597867513899
 20
-128.4273035790043
 30
0.0
  0
SPLINE
  5
5C
330
1F
100
AcDbEntity
  8
_U+30EC_U+30A4_U+30E4_U+30FC 1
 62
   179
420
  2234388
370
     9
100
AcDbSpline
210
0.0
220
0.0
230
1.0
 70
    11
 71
     3
 72
    17
 73
    13
 74
     0
 42
0.0000000001
 43
0.0000000001
 12
1.0
 22
0.0
 32
0.0
 13
1.0
 23
0.0
 33
0.0
 40
0.0
 40
0.0
 40
0.0
 40
0.0
 40
1.0
 40
1.0
 40
1.0
 40
2.0
 40
2.0
 40
2.0
 40
3.0
 40
3.0
 40
3.0
 40
4.0
 40
4.0
 40
4.0
 40
4.0
 10
83.32963886805649
 20
-124.865235802117
 30
0.0
 10
83.32963886805649
 20
-124.8101319132418
 30
0.0
 10
83.28483609028977
 20
-124.7653291354754
 30
0.0
 10
83.2297300988549
 20
-124.7653291354754
 30
0.0
 10
83.17459093359496
 20
-124.7653291354754
 30
0.0
 10
83.12982343473708
 20
-124.8101319132418
 30
0.0
 10
83.12982343473708
 20
-124.865235802117
 30
0.0
 10
83.12982343473708
 20
-124.9203749687698
 30
0.0
 10
83.17459093359496
 20
-124.9651424687586
 30
0.0
 10
83.2297300988549
 20
-124.9651424687586
 30
0.0
 10
83.28483609028977
 20
-124.9651424687586
 30
0.0
 10
83.32963886805649
 20
-124.9203749687698
 30
0.0
 10
83.32963886805649
 20
-124.865235802117
 30
0.0
  0
SPLINE
  5
5D
330
1F
100
AcDbEntity
  8
_U+30EC_U+30A4_U+30E4_U+30FC 1
 62
   179
420
  2234388
370
     9
100
AcDbSpline
210
0.0
220
0.0
230
1.0
 70
    11
 71
     3
 72
    17
 73
    13
 74
     0
 42
0.0000000001
 43
0.0000000001
 12
1.0
 22
0.0
 32
0.0
 13
1.0
 23
0.0
 33
0.0
 40
0.0
 40
0.0
 40
0.0
 40
0.0
 40
1.0
 40
1.0
 40
1.0
 40
2.0
 40
2.0
 40
2.0
 40
3.0
 40
3.0
 40
3.0
 40
4.0
 40
4.0
 40
4.0
 40
4.0
 10
83.32963886805649
 20
-128.8651713566724
 30
0.0
 10
83.32963886805649
 20
-128.8100674677975
 30
0.0
 10
83.28483609028977
 20
-128.7652646900308
 30
0.0
 10
83.2297300988549
 20
-128.7652646900308
 30
0.0
 10
83.17459093359496
 20
-128.7652646900308
 30
0.0
 10
83.12982343473708
 20
-128.8100674677975
 30
0.0
 10
83.12982343473708
 20
-128.8651713566724
 30
0.0
 10
83.12982343473708
 20
-128.9203105233255
 30
0.0
 10
83.17459093359496
 20
-128.9650780233141
 30
0.0
 10
83.2297300988549
 20
-128.9650780233141
 30
0.0
 10
83.28483609028977
 20
-128.9650780233141
 30
0.0
 10
83.32963886805649
 20
-128.9203105233255
 30
0.0
 10
83.32963886805649
 20
-128.8651713566724
 30
0.0
  0
SPLINE
  5
5E
330
1F
100
AcDbEntity
  8
_U+30EC_U+30A4_U+30E4_U+30FC 1
 62
   179
420
  2234388
370
     9
100
AcDbSpline
210
0.0
220
0.0
230
1.0
 70
    11
 71
     3
 72
    17
 73
    13
 74
     0
 42
0.0000000001
 43
0.0000000001
 12
1.0
 22
0.0
 32
0.0
 13
1.0
 23
0.0
 33
0.0
 40
0.0
 40
0.0
 40
0.0
 40
0.0
 40
1.0
 40
1.0
 40
1.0
 40
2.0
 40
2.0
 40
2.0
 40
3.0
 40
3.0
 40
3.0
 40
4.0
 40
4.0
 40
4.0
 40
4.0
 10
80.77231543932656
 20
-128.8651713566724
 30
0.0
 10
80.77231543932656
 20
-128.8100674677975
 30
0.0
 10
80.72754997981805
 20
-128.7652646900308
 30
0.0
 10
80.67240877520872
 20
-128.7652646900308
 30
0.0
 10
80.61730488772565
 20
-128.7652646900308
 30
0.0
 10
80.57250211109088
 20
-128.8100674677975
 30
0.0
 10
80.57250211109088
 20
-128.8651713566724
 30
0.0
 10
80.57250211109088
 20
-128.9203105233255
 30
0.0
 10
80.61730488772565
 20
-128.9650780233141
 30
0.0
 10
80.67240877520872
 20
-128.9650780233141
 30
0.0
 10
80.72754997981805
 20
-128.9650780233141
 30
0.0
 10
80.77231543932656
 20
-128.9203105233255
 30
0.0
 10
80.77231543932656
 20
-128.8651713566724
 30
0.0
  0
SPLINE
  5
5F
330
1F
100
AcDbEntity
  8
_U+30EC_U+30A4_U+30E4_U+30FC 1
 62
   179
420
  2234388
370
     9
100
AcDbSpline
210
0.0
220
0.0
230
1.0
 70
    11
 71
     3
 72
    17
 73
    13
 74
     0
 42
0.0000000001
 43
0.0000000001
 12
1.0
 22
0.0
 32
0.0
 13
1.0
 23
0.0
 33
0.0
 40
0.0
 40
0.0
 40
0.0
 40
0.0
 40
1.0
 40
1.0
 40
1.0
 40
2.0
 40
2.0
 40
2.0
 40
3.0
 40
3.0
 40
3.0
 40
4.0
 40
4.0
 40
4.0
 40
4.0
 10
80.77231543932656
 20
-123.7416385801759
 30
0.0
 10
80.77231543932656
 20
-123.6864994135228
 30
0.0
 10
80.72754997981805
 20
-123.6417319135339
 30
0.0
 10
80.67240877520872
 20
-123.6417319135339
 30
0.0
 10
80.61730488772565
 20
-123.6417319135339
 30
0.0
 10
80.57250211109088
 20
-123.6864994135228
 30
0.0
 10
80.57250211109088
 20
-123.7416385801759
 30
0.0
 10
80.57250211109088
 20
-123.7967424690508
 30
0.0
 10
80.61730488772565
 20
-123.8415452468175
 30
0.0
 10
80.67240877520872
 20
-123.8415452468175
 30
0.0
 10
80.72754997981805
 20
-123.8415452468175
 30
0.0
 10
80.77231543932656
 20
-123.7967424690508
 30
0.0
 10
80.77231543932656
 20
-123.7416385801759
 30
0.0
  0
POLYLINE
  5
60
330
1F
100
AcDbEntity
  8
_U+30EC_U+30A4_U+30E4_U+30FC 1
 62
   179
420
  2234388
370
     9
100
AcDb2dPolyline
 66
     1
 10
0.0
 20
0.0
 30
0.0
  0
VERTEX
  5
61
330
60
100
AcDbEntity
  8
_U+30EC_U+30A4_U+30E4_U+30FC 1
 62
   179
420
  2234388
370
     9
100
AcDbVertex
100
AcDb2dVertex
 10
83.2297300988549
 20
-124.865235802117
 30
0.0
  0
VERTEX
  5
62
330
60
100
AcDbEntity
  8
_U+30EC_U+30A4_U+30E4_U+30FC 1
 62
   179
420
  2234388
370
     9
100
AcDbVertex
100
AcDb2dVertex
 10
83.2297300988549
 20
-128.8651713566724
 30
0.0
  0
SEQEND
  5
63
330
60
100
AcDbEntity
  8
_U+30EC_U+30A4_U+30E4_U+30FC 1
 62
   179
420
  2234388
370
     9
  0
POLYLINE
  5
64
330
1F
100
AcDbEntity
  8
_U+30EC_U+30A4_U+30E4_U+30FC 1
 62
   179
420
  2234388
370
     9
100
AcDb2dPolyline
 66
     1
 10
0.0
 20
0.0
 30
0.0
  0
VERTEX
  5
65
330
64
100
AcDbEntity
  8
_U+30EC_U+30A4_U+30E4_U+30FC 1
 62
   179
420
  2234388
370
     9
100
AcDbVertex
100
AcDb2dVertex
 10
84.68973617271816
 20
-124.865235802117
 30
0.0
  0
VERTEX
  5
66
330
64
100
AcDbEntity
  8
_U+30EC_U+30A4_U+30E4_U+30FC 1
 62
   179
420
  2234388
370
     9
100
AcDbVertex
100
AcDb2dVertex
 10
82.229957902139
 20
-124.865235802117
 30
0.0
  0
SEQEND
  5
67
330
64
100
AcDbEntity
  8
_U+30EC_U+30A4_U+30E4_U+30FC 1
 62
   179
420
  2234388
370
     9
  0
POLYLINE
  5
68
330
1F
100
AcDbEntity
  8
_U+30EC_U+30A4_U+30E4_U+30FC 1
 62
   179
420
  2234388
370
     9
100
AcDb2dPolyline
 66
     1
 10
0.0
 20
0.0
 30
0.0
  0
VERTEX
  5
69
330
68
100
AcDbEntity
  8
_U+30EC_U+30A4_U+30E4_U+30FC 1
 62
   179
420
  2234388
370
     9
100
AcDbVertex
100
AcDb2dVertex
 10
84.68973617271816
 20
-128.8651713566724
 30
0.0
  0
VERTEX
  5
6A
330
68
100
AcDbEntity
  8
_U+30EC_U+30A4_U+30E4_U+30FC 1
 62
   179
420
  2234388
370
     9
100
AcDbVertex
100
AcDb2dVertex
 10
78.89028331361084
 20
-128.8651713566724
 30
0.0
  0
SEQEND
  5
6B
330
68
100
AcDbEntity
  8
_U+30EC_U+30A4_U+30E4_U+30FC 1
 62
   179
420
  2234388
370
     9
  0
INSERT
  5
6D
330
1F
100
AcDbEntity
  8
_U+30EC_U+30A4_U+30E4_U+30FC 1
100
AcDbBlockReference
  2
block 3
 10
0.0
 20
0.0
 30
0.0
  0
SPLINE
  5
7C
330
1F
100
AcDbEntity
  8
_U+30EC_U+30A4_U+30E4_U+30FC 1
 62
   179
420
  2234388
370
     9
100
AcDbSpline
210
0.0
220
0.0
230
1.0
 70
    11
 71
     3
 72
    17
 73
    13
 74
     0
 42
0.0000000001
 43
0.0000000001
 12
1.0
 22
0.0
 32
0.0
 13
1.0
 23
0.0
 33
0.0
 40
0.0
 40
0.0
 40
0.0
 40
0.0
 40
1.0
 40
1.0
 40
1.0
 40
2.0
 40
2.0
 40
2.0
 40
3.0
 40
3.0
 40
3.0
 40
4.0
 40
4.0
 40
4.0
 40
4.0
 10
83.26486676462517
 20
-128.8651713566724
 30
0.0
 10
83.26486676462517
 20
-128.8844683011123
 30
0.0
 10
83.24899176503017
 20
-128.9003080233302
 30
0.0
 10
83.2297300988549
 20
-128.9003080233302
 30
0.0
 10
83.21043315490277
 20
-128.9003080233302
 30
0.0
 10
83.19455815530777
 20
-128.8844683011123
 30
0.0
 10
83.19455815530777
 20
-128.8651713566724
 30
0.0
 10
83.19455815530777
 20
-128.8458744122333
 30
0.0
 10
83.21043315490277
 20
-128.8300346900147
 30
0.0
 10
83.2297300988549
 20
-128.8300346900147
 30
0.0
 10
83.24899176503017
 20
-128.8300346900147
 30
0.0
 10
83.26486676462517
 20
-128.8458744122333
 30
0.0
 10
83.26486676462517
 20
-128.8651713566724
 30
0.0
  0
SPLINE
  5
7D
330
1F
100
AcDbEntity
  8
_U+30EC_U+30A4_U+30E4_U+30FC 1
 62
   179
420
  2234388
370
     9
100
AcDbSpline
210
0.0
220
0.0
230
1.0
 70
    11
 71
     3
 72
    17
 73
    13
 74
     0
 42
0.0000000001
 43
0.0000000001
 12
1.0
 22
0.0
 32
0.0
 13
1.0
 23
0.0
 33
0.0
 40
0.0
 40
0.0
 40
0.0
 40
0.0
 40
1.0
 40
1.0
 40
1.0
 40
2.0
 40
2.0
 40
2.0
 40
3.0
 40
3.0
 40
3.0
 40
4.0
 40
4.0
 40
4.0
 40
4.0
 10
83.32963886805649
 20
-132.3319891335834
 30
0.0
 10
83.32963886805649
 20
-132.276849966931
 30
0.0
 10
83.28483609028977
 20
-132.2320824669418
 30
0.0
 10
83.2297300988549
 20
-132.2320824669418
 30
0.0
 10
83.17459093359496
 20
-132.2320824669418
 30
0.0
 10
83.12982343473708
 20
-132.276849966931
 30
0.0
 10
83.12982343473708
 20
-132.3319891335834
 30
0.0
 10
83.12982343473708
 20
-132.387093022459
 30
0.0
 10
83.17459093359496
 20
-132.431895800225
 30
0.0
 10
83.2297300988549
 20
-132.431895800225
 30
0.0
 10
83.28483609028977
 20
-132.431895800225
 30
0.0
 10
83.32963886805649
 20
-132.387093022459
 30
0.0
 10
83.32963886805649
 20
-132.3319891335834
 30
0.0
  0
SPLINE
  5
7E
330
1F
100
AcDbEntity
  8
_U+30EC_U+30A4_U+30E4_U+30FC 1
 62
   179
420
  2234388
370
     9
100
AcDbSpline
210
0.0
220
0.0
230
1.0
 70
    11
 71
     3
 72
    17
 73
    13
 74
     0
 42
0.0000000001
 43
0.0000000001
 12
1.0
 22
0.0
 32
0.0
 13
1.0
 23
0.0
 33
0.0
 40
0.0
 40
0.0
 40
0.0
 40
0.0
 40
1.0
 40
1.0
 40
1.0
 40
2.0
 40
2.0
 40
2.0
 40
3.0
 40
3.0
 40
3.0
 40
4.0
 40
4.0
 40
4.0
 40
4.0
 10
83.32963886805649
 20
-135.3319760772784
 30
0.0
 10
83.32963886805649
 20
-135.2768369106253
 30
0.0
 10
83.28483609028977
 20
-135.2320694106361
 30
0.0
 10
83.2297300988549
 20
-135.2320694106361
 30
0.0
 10
83.17459093359496
 20
-135.2320694106361
 30
0.0
 10
83.12982343473708
 20
-135.2768369106253
 30
0.0
 10
83.12982343473708
 20
-135.3319760772784
 30
0.0
 10
83.12982343473708
 20
-135.3870799661533
 30
0.0
 10
83.17459093359496
 20
-135.4318827439201
 30
0.0
 10
83.2297300988549
 20
-135.4318827439201
 30
0.0
 10
83.28483609028977
 20
-135.4318827439201
 30
0.0
 10
83.32963886805649
 20
-135.3870799661533
 30
0.0
 10
83.32963886805649
 20
-135.3319760772784
 30
0.0
  0
POLYLINE
  5
7F
330
1F
100
AcDbEntity
  8
_U+30EC_U+30A4_U+30E4_U+30FC 1
 62
   179
420
  2234388
370
     9
100
AcDb2dPolyline
 66
     1
 10
0.0
 20
0.0
 30
0.0
  0
VERTEX
  5
80
330
7F
100
AcDbEntity
  8
_U+30EC_U+30A4_U+30E4_U+30FC 1
 62
   179
420
  2234388
370
     9
100
AcDbVertex
100
AcDb2dVertex
 10
83.2297300988549
 20
-132.3319891335834
 30
0.0
  0
VERTEX
  5
81
330
7F
100
AcDbEntity
  8
_U+30EC_U+30A4_U+30E4_U+30FC 1
 62
   179
420
  2234388
370
     9
100
AcDbVertex
100
AcDb2dVertex
 10
83.2297300988549
 20
-135.3319760772784
 30
0.0
  0
SEQEND
  5
82
330
7F
100
AcDbEntity
  8
_U+30EC_U+30A4_U+30E4_U+30FC 1
 62
   179
420
  2234388
370
     9
  0
POLYLINE
  5
83
330
1F
100
AcDbEntity
  8
_U+30EC_U+30A4_U+30E4_U+30FC 1
 62
   179
420
  2234388
370
     9
100
AcDb2dPolyline
 66
     1
 10
0.0
 20
0.0
 30
0.0
  0
VERTEX
  5
84
330
83
100
AcDbEntity
  8
_U+30EC_U+30A4_U+30E4_U+30FC 1
 62
   179
420
  2234388
370
     9
100
AcDbVertex
100
AcDb2dVertex
 10
84.68973617271816
 20
-132.3319891335834
 30
0.0
  0
VERTEX
  5
85
330
83
100
AcDbEntity
  8
_U+30EC_U+30A4_U+30E4_U+30FC 1
 62
   179
420
  2234388
370
     9
100
AcDbVertex
100
AcDb2dVertex
 10
82.229957902139
 20
-132.3319891335834
 30
0.0
  0
SEQEND
  5
86
330
83
100
AcDbEntity
  8
_U+30EC_U+30A4_U+30E4_U+30FC 1
 62
   179
420
  2234388
370
     9
  0
POLYLINE
  5
87
330
1F
100
AcDbEntity
  8
_U+30EC_U+30A4_U+30E4_U+30FC 1
 62
   179
420
  2234388
370
     9
100
AcDb2dPolyline
 66
     1
 10
0.0
 20
0.0
 30
0.0
  0
VERTEX
  5
88
330
87
100
AcDbEntity
  8
_U+30EC_U+30A4_U+30E4_U+30FC 1
 62
   179
420
  2234388
370
     9
100
AcDbVertex
100
AcDb2dVertex
 10
84.68973617271816
 20
-135.3319760772784
 30
0.0
  0
VERTEX
  5
89
330
87
100
AcDbEntity
  8
_U+30EC_U+30A4_U+30E4_U+30FC 1
 62
   179
420
  2234388
370
     9
100
AcDbVertex
100
AcDb2dVertex
 10
82.229957902139
 20
-135.3319760772784
 30
0.0
  0
SEQEND
  5
8A
330
87
100
AcDbEntity
  8
_U+30EC_U+30A4_U+30E4_U+30FC 1
 62
   179
420
  2234388
370
     9
  0
INSERT
  5
8C
330
1F
100
AcDbEntity
  8
_U+30EC_U+30A4_U+30E4_U+30FC 1
100
AcDbBlockReference
  2
block 4
 10
0.0
 20
0.0
 30
0.0
  0
SPLINE
  5
9B
330
1F
100
AcDbEntity
  8
_U+30EC_U+30A4_U+30E4_U+30FC 1
 62
   179
420
  2234388
370
     9
100
AcDbSpline
210
0.0
220
0.0
230
1.0
 70
    11
 71
     3
 72
    17
 73
    13
 74
     0
 42
0.0000000001
 43
0.0000000001
 12
1.0
 22
0.0
 32
0.0
 13
1.0
 23
0.0
 33
0.0
 40
0.0
 40
0.0
 40
0.0
 40
0.0
 40
1.0
 40
1.0
 40
1.0
 40
2.0
 40
2.0
 40
2.0
 40
3.0
 40
3.0
 40
3.0
 40
4.0
 40
4.0
 40
4.0
 40
4.0
 10
83.26486676462517
 20
-135.3319760772784
 30
0.0
 10
83.26486676462517
 20
-135.3512730217176
 30
0.0
 10
83.24899176503017
 20
-135.3671127439361
 30
0.0
 10
83.2297300988549
 20
-135.3671127439361
 30
0.0
 10
83.21043315490277
 20
-135.3671127439361
 30
0.0
 10
83.19455815530777
 20
-135.3512730217176
 30
0.0
 10
83.19455815530777
 20
-135.3319760772784
 30
0.0
 10
83.19455815530777
 20
-135.3126791328386
 30
0.0
 10
83.21043315490277
 20
-135.29683941062
 30
0.0
 10
83.2297300988549
 20
-135.29683941062
 30
0.0
 10
83.24899176503017
 20
-135.29683941062
 30
0.0
 10
83.26486676462517
 20
-135.3126791328386
 30
0.0
 10
83.26486676462517
 20
-135.3319760772784
 30
0.0
  0
SPLINE
  5
9C
330
1F
100
AcDbEntity
  8
_U+30EC_U+30A4_U+30E4_U+30FC 1
 62
   179
420
  2234388
370
     9
100
AcDbSpline
210
0.0
220
0.0
230
1.0
 70
    11
 71
     3
 72
    17
 73
    13
 74
     0
 42
0.0000000001
 43
0.0000000001
 12
1.0
 22
0.0
 32
0.0
 13
1.0
 23
0.0
 33
0.0
 40
0.0
 40
0.0
 40
0.0
 40
0.0
 40
1.0
 40
1.0
 40
1.0
 40
2.0
 40
2.0
 40
2.0
 40
3.0
 40
3.0
 40
3.0
 40
4.0
 40
4.0
 40
4.0
 40
4.0
 10
85.92653975227579
 20
-121.3412680252202
 30
0.0
 10
85.92653975227579
 20
-121.2861288585675
 30
0.0
 10
85.88173697564102
 20
-121.2413613585786
 30
0.0
 10
85.82663308815795
 20
-121.2413613585786
 30
0.0
 10
85.771493922898
 20
-121.2413613585786
 30
0.0
 10
85.72672642404011
 20
-121.2861288585675
 30
0.0
 10
85.72672642404011
 20
-121.3412680252202
 30
0.0
 10
85.72672642404011
 20
-121.3963719140955
 30
0.0
 10
85.771493922898
 20
-121.4411746918619
 30
0.0
 10
85.82663308815795
 20
-121.4411746918619
 30
0.0
 10
85.88173697564102
 20
-121.4411746918619
 30
0.0
 10
85.92653975227579
 20
-121.3963719140955
 30
0.0
 10
85.92653975227579
 20
-121.3412680252202
 30
0.0
  0
SPLINE
  5
9D
330
1F
100
AcDbEntity
  8
_U+30EC_U+30A4_U+30E4_U+30FC 1
 62
   179
420
  2234388
370
     9
100
AcDbSpline
210
0.0
220
0.0
230
1.0
 70
    11
 71
     3
 72
    17
 73
    13
 74
     0
 42
0.0000000001
 43
0.0000000001
 12
1.0
 22
0.0
 32
0.0
 13
1.0
 23
0.0
 33
0.0
 40
0.0
 40
0.0
 40
0.0
 40
0.0
 40
1.0
 40
1.0
 40
1.0
 40
2.0
 40
2.0
 40
2.0
 40
3.0
 40
3.0
 40
3.0
 40
4.0
 40
4.0
 40
4.0
 40
4.0
 10
105.9266756309187
 20
-121.3412680252202
 30
0.0
 10
105.9266756309187
 20
-121.2861288585675
 30
0.0
 10
105.8819081320608
 20
-121.2413613585786
 30
0.0
 10
105.8267689668009
 20
-121.2413613585786
 30
0.0
 10
105.7716650793178
 20
-121.2413613585786
 30
0.0
 10
105.726862302683
 20
-121.2861288585675
 30
0.0
 10
105.726862302683
 20
-121.3412680252202
 30
0.0
 10
105.726862302683
 20
-121.3963719140955
 30
0.0
 10
105.7716650793178
 20
-121.4411746918619
 30
0.0
 10
105.8267689668009
 20
-121.4411746918619
 30
0.0
 10
105.8819081320608
 20
-121.4411746918619
 30
0.0
 10
105.9266756309187
 20
-121.3963719140955
 30
0.0
 10
105.9266756309187
 20
-121.3412680252202
 30
0.0
  0
POLYLINE
  5
9E
330
1F
100
AcDbEntity
  8
_U+30EC_U+30A4_U+30E4_U+30FC 1
 62
   179
420
  2234388
370
     9
100
AcDb2dPolyline
 66
     1
 10
0.0
 20
0.0
 30
0.0
  0
VERTEX
  5
9F
330
9E
100
AcDbEntity
  8
_U+30EC_U+30A4_U+30E4_U+30FC 1
 62
   179
420
  2234388
370
     9
100
AcDbVertex
100
AcDb2dVertex
 10
85.82663308815795
 20
-121.3412680252202
 30
0.0
  0
VERTEX
  5
A0
330
9E
100
AcDbEntity
  8
_U+30EC_U+30A4_U+30E4_U+30FC 1
 62
   179
420
  2234388
370
     9
100
AcDbVertex
100
AcDb2dVertex
 10
105.8267689668009
 20
-121.3412680252202
 30
0.0
  0
SEQEND
  5
A1
330
9E
100
AcDbEntity
  8
_U+30EC_U+30A4_U+30E4_U+30FC 1
 62
   179
420
  2234388
370
     9
  0
POLYLINE
  5
A2
330
1F
100
AcDbEntity
  8
_U+30EC_U+30A4_U+30E4_U+30FC 1
 62
   179
420
  2234388
370
     9
100
AcDb2dPolyline
 66
     1
 10
0.0
 20
0.0
 30
0.0
  0
VERTEX
  5
A3
330
A2
100
AcDbEntity
  8
_U+30EC_U+30A4_U+30E4_U+30FC 1
 62
   179
420
  2234388
370
     9
100
AcDbVertex
100
AcDb2dVertex
 10
85.82663308815795
 20
-122.8011330248554
 30
0.0
  0
VERTEX
  5
A4
330
A2
100
AcDbEntity
  8
_U+30EC_U+30A4_U+30E4_U+30FC 1
 62
   179
420
  2234388
370
     9
100
AcDbVertex
100
AcDb2dVertex
 10
85.82663308815795
 20
-120.3407902476925
 30
0.0
  0
SEQEND
  5
A5
330
A2
100
AcDbEntity
  8
_U+30EC_U+30A4_U+30E4_U+30FC 1
 62
   179
420
  2234388
370
     9
  0
POLYLINE
  5
A6
330
1F
100
AcDbEntity
  8
_U+30EC_U+30A4_U+30E4_U+30FC 1
 62
   179
420
  2234388
370
     9
100
AcDb2dPolyline
 66
     1
 10
0.0
 20
0.0
 30
0.0
  0
VERTEX
  5
A7
330
A6
100
AcDbEntity
  8
_U+30EC_U+30A4_U+30E4_U+30FC 1
 62
   179
420
  2234388
370
     9
100
AcDbVertex
100
AcDb2dVertex
 10
105.8267689668009
 20
-122.8011330248554
 30
0.0
  0
VERTEX
  5
A8
330
A6
100
AcDbEntity
  8
_U+30EC_U+30A4_U+30E4_U+30FC 1
 62
   179
420
  2234388
370
     9
100
AcDbVertex
100
AcDb2dVertex
 10
105.8267689668009
 20
-120.3407902476925
 30
0.0
  0
SEQEND
  5
A9
330
A6
100
AcDbEntity
  8
_U+30EC_U+30A4_U+30E4_U+30FC 1
 62
   179
420
  2234388
370
     9
  0
INSERT
  5
AB
330
1F
100
AcDbEntity
  8
_U+30EC_U+30A4_U+30E4_U+30FC 1
100
AcDbBlockReference
  2
block 5
 10
0.0
 20
0.0
 30
0.0
  0
SPLINE
  5
B3
330
1F
100
AcDbEntity
  8
_U+30EC_U+30A4_U+30E4_U+30FC 1
 62
   179
420
  2234388
370
     9
100
AcDbSpline
210
0.0
220
0.0
230
1.0
 70
    11
 71
     3
 72
    17
 73
    13
 74
     0
 42
0.0000000001
 43
0.0000000001
 12
1.0
 22
0.0
 32
0.0
 13
1.0
 23
0.0
 33
0.0
 40
0.0
 40
0.0
 40
0.0
 40
0.0
 40
1.0
 40
1.0
 40
1.0
 40
2.0
 40
2.0
 40
2.0
 40
3.0
 40
3.0
 40
3.0
 40
4.0
 40
4.0
 40
4.0
 40
4.0
 10
105.861940910348
 20
-121.3412680252202
 30
0.0
 10
105.861940910348
 20
-121.3605649696597
 30
0.0
 10
105.8467714662906
 20
-121.3764046918783
 30
0.0
 10
105.8267689668009
 20
-121.3764046918783
 30
0.0
 10
105.8075073006256
 20
-121.3764046918783
 30
0.0
 10
105.7916323010306
 20
-121.3605649696597
 30
0.0
 10
105.7916323010306
 20
-121.3412680252202
 30
0.0
 10
105.7916323010306
 20
-121.3212655252252
 30
0.0
 10
105.8075073006256
 20
-121.305425803007
 30
0.0
 10
105.8267689668009
 20
-121.305425803007
 30
0.0
 10
105.8467714662906
 20
-121.305425803007
 30
0.0
 10
105.861940910348
 20
-121.3212655252252
 30
0.0
 10
105.861940910348
 20
-121.3412680252202
 30
0.0
  0
SPLINE
  5
B4
330
1F
100
AcDbEntity
  8
_U+30EC_U+30A4_U+30E4_U+30FC 1
 62
   179
420
  2234388
370
     9
100
AcDbSpline
210
0.0
220
0.0
230
1.0
 70
    11
 71
     3
 72
    17
 73
    13
 74
     0
 42
0.0000000001
 43
0.0000000001
 12
1.0
 22
0.0
 32
0.0
 13
1.0
 23
0.0
 33
0.0
 40
0.0
 40
0.0
 40
0.0
 40
0.0
 40
1.0
 40
1.0
 40
1.0
 40
2.0
 40
2.0
 40
2.0
 40
3.0
 40
3.0
 40
3.0
 40
4.0
 40
4.0
 40
4.0
 40
4.0
 10
87.41861332532093
 20
-137.7958819099958
 30
0.0
 10
87.41861332532093
 20
-137.7407780211202
 30
0.0
 10
87.37381054868617
 20
-137.6959752433535
 30
0.0
 10
87.3187066612031
 20
-137.6959752433535
 30
0.0
 10
87.26356749594314
 20
-137.6959752433535
 30
0.0
 10
87.21879999708526
 20
-137.7407780211202
 30
0.0
 10
87.21879999708526
 20
-137.7958819099958
 30
0.0
 10
87.21879999708526
 20
-137.8510210766482
 30
0.0
 10
87.26356749594314
 20
-137.8957885766374
 30
0.0
 10
87.3187066612031
 20
-137.8957885766374
 30
0.0
 10
87.37381054868617
 20
-137.8957885766374
 30
0.0
 10
87.41861332532093
 20
-137.8510210766482
 30
0.0
 10
87.41861332532093
 20
-137.7958819099958
 30
0.0
  0
POLYLINE
  5
B5
330
1F
100
AcDbEntity
  8
_U+30EC_U+30A4_U+30E4_U+30FC 1
 62
   179
420
  2234388
370
     9
100
AcDb2dPolyline
 66
     1
 10
0.0
 20
0.0
 30
0.0
  0
VERTEX
  5
B6
330
B5
100
AcDbEntity
  8
_U+30EC_U+30A4_U+30E4_U+30FC 1
 62
   179
420
  2234388
370
     9
100
AcDbVertex
100
AcDb2dVertex
 10
87.3187066612031
 20
-138.7267566319851
 30
0.0
  0
VERTEX
  5
B7
330
B5
100
AcDbEntity
  8
_U+30EC_U+30A4_U+30E4_U+30FC 1
 62
   179
420
  2234388
370
     9
100
AcDbVertex
100
AcDb2dVertex
 10
87.3187066612031
 20
-136.2662727437115
 30
0.0
  0
SEQEND
  5
B8
330
B5
100
AcDbEntity
  8
_U+30EC_U+30A4_U+30E4_U+30FC 1
 62
   179
420
  2234388
370
     9
  0
POLYLINE
  5
B9
330
1F
100
AcDbEntity
  8
_U+30EC_U+30A4_U+30E4_U+30FC 1
 62
   179
420
  2234388
370
     9
100
AcDb2dPolyline
 66
     1
 10
0.0
 20
0.0
 30
0.0
  0
VERTEX
  5
BA
330
B9
100
AcDbEntity
  8
_U+30EC_U+30A4_U+30E4_U+30FC 1
 62
   179
420
  2234388
370
     9
100
AcDbVertex
100
AcDb2dVertex
 10
90.70798608843413
 20
-123.7416385801759
 30
0.0
  0
VERTEX
  5
BB
330
B9
100
AcDbEntity
  8
_U+30EC_U+30A4_U+30E4_U+30FC 1
 62
   179
420
  2234388
370
     9
100
AcDbVertex
100
AcDb2dVertex
 10
78.88993053583307
 20
-123.7416385801759
 30
0.0
  0
SEQEND
  5
BC
330
B9
100
AcDbEntity
  8
_U+30EC_U+30A4_U+30E4_U+30FC 1
 62
   179
420
  2234388
370
     9
  0
POLYLINE
  5
BD
330
1F
100
AcDbEntity
  8
_U+30EC_U+30A4_U+30E4_U+30FC 1
 62
   179
420
  2234388
370
     9
100
AcDb2dPolyline
 66
     1
 10
0.0
 20
0.0
 30
0.0
  0
VERTEX
  5
BE
330
BD
100
AcDbEntity
  8
_U+30EC_U+30A4_U+30E4_U+30FC 1
 62
   179
420
  2234388
370
     9
100
AcDbVertex
100
AcDb2dVertex
 10
80.67209127521681
 20
-123.8029513579382
 30
0.0
  0
VERTEX
  5
BF
330
BD
100
AcDbEntity
  8
_U+30EC_U+30A4_U+30E4_U+30FC 1
 62
   179
420
  2234388
370
     9
100
AcDbVertex
100
AcDb2dVertex
 10
80.67209127521681
 20
-128.8651713566724
 30
0.0
  0
SEQEND
  5
C0
330
BD
100
AcDbEntity
  8
_U+30EC_U+30A4_U+30E4_U+30FC 1
 62
   179
420
  2234388
370
     9
  0
SPLINE
  5
C1
330
1F
100
AcDbEntity
  8
_U+30EC_U+30A4_U+30E4_U+30FC 1
 62
   179
420
  2234388
370
     9
100
AcDbSpline
210
0.0
220
0.0
230
1.0
 70
    11
 71
     3
 72
    62
 73
    58
 74
     0
 42
0.0000000001
 43
0.0000000001
 12
1.0
 22
0.0
 32
0.0
 13
1.0
 23
0.0
 33
0.0
 40
0.0
 40
0.0
 40
0.0
 40
0.0
 40
1.0
 40
1.0
 40
1.0
 40
2.0
 40
2.0
 40
2.0
 40
3.0
 40
3.0
 40
3.0
 40
4.0
 40
4.0
 40
4.0
 40
5.0
 40
5.0
 40
5.0
 40
6.0
 40
6.0
 40
6.0
 40
7.0
 40
7.0
 40
7.0
 40
8.0
 40
8.0
 40
8.0
 40
9.0
 40
9.0
 40
9.0
 40
10.0
 40
10.0
 40
10.0
 40
11.0
 40
11.0
 40
11.0
 40
12.0
 40
12.0
 40
12.0
 40
13.0
 40
13.0
 40
13.0
 40
14.0
 40
14.0
 40
14.0
 40
15.0
 40
15.0
 40
15.0
 40
16.0
 40
16.0
 40
16.0
 40
17.0
 40
17.0
 40
17.0
 40
18.0
 40
18.0
 40
18.0
 40
19.0
 40
19.0
 40
19.0
 40
19.0
 10
87.42065943637984
 20
-133.5129480221774
 30
0.0
 10
87.42065943637984
 20
-133.5129480221774
 30
0.0
 10
88.03802053174076
 20
-132.8952341334429
 30
0.0
 10
88.03802053174076
 20
-132.8952341334429
 30
0.0
 10
88.03802053174076
 20
-132.8952341334429
 30
0.0
 10
88.302603858324
 20
-132.4835424668793
 30
0.0
 10
88.91996495368493
 20
-132.6895646890497
 30
0.0
 10
88.91996495368493
 20
-132.6895646890497
 30
0.0
 10
89.15495022546773
 20
-133.0719758000654
 30
0.0
 10
89.09635383807375
 20
-133.5715091332736
 30
0.0
 10
89.09635383807375
 20
-133.5715091332736
 30
0.0
 10
89.09635383807375
 20
-134.100675799808
 30
0.0
 10
89.09635383807375
 20
-134.100675799808
 30
0.0
 10
89.09635383807375
 20
-134.100675799808
 30
0.0
 10
95.44635367607177
 20
-134.100675799808
 30
0.0
 10
95.44635367607177
 20
-134.100675799808
 30
0.0
 10
95.44635367607177
 20
-134.100675799808
 30
0.0
 10
95.44635367607177
 20
-131.6312313559809
 30
0.0
 10
95.44635367607177
 20
-131.6312313559809
 30
0.0
 10
95.44635367607177
 20
-131.6312313559809
 30
0.0
 10
96.24010365582151
 20
-131.6312313559809
 30
0.0
 10
96.24010365582151
 20
-131.6312313559809
 30
0.0
 10
96.24010365582151
 20
-131.6312313559809
 30
0.0
 10
96.24010365582151
 20
-134.0421146887118
 30
0.0
 10
96.24010365582151
 20
-134.0421146887118
 30
0.0
 10
96.24010365582151
 20
-134.0421146887118
 30
0.0
 10
102.6197368263968
 20
-134.0421146887118
 30
0.0
 10
102.6197368263968
 20
-134.0421146887118
 30
0.0
 10
102.6197368263968
 20
-134.0421146887118
 30
0.0
 10
102.6197368263968
 20
-133.1009035778361
 30
0.0
 10
102.6197368263968
 20
-133.1009035778361
 30
0.0
 10
102.6197368263968
 20
-133.1009035778361
 30
0.0
 10
102.4723109968247
 20
-132.5424563557533
 30
0.0
 10
103.0310757047916
 20
-132.4835424668793
 30
0.0
 10
103.0310757047916
 20
-132.4835424668793
 30
0.0
 10
103.619156245344
 20
-132.5717369113017
 30
0.0
 10
104.2365173407049
 20
-133.3951202444288
 30
0.0
 10
104.2365173407049
 20
-133.3951202444288
 30
0.0
 10
103.6632534664412
 20
-133.9683841331744
 30
0.0
 10
103.6632534664412
 20
-133.9683841331744
 30
0.0
 10
103.6632534664412
 20
-133.9683841331744
 30
0.0
 10
104.1627867870304
 20
-134.4679174663832
 30
0.0
 10
104.1627867870304
 20
-134.4679174663832
 30
0.0
 10
104.1627867870304
 20
-134.4679174663832
 30
0.0
 10
104.1627867870304
 20
-135.1004480217805
 30
0.0
 10
104.1627867870304
 20
-135.1004480217805
 30
0.0
 10
104.1627867870304
 20
-135.1004480217805
 30
0.0
 10
87.33246499418541
 20
-135.1004480217805
 30
0.0
 10
87.33246499418541
 20
-135.1004480217805
 30
0.0
 10
87.33246499418541
 20
-135.1004480217805
 30
0.0
 10
87.33246499418541
 20
-134.5120146885944
 30
0.0
 10
87.33246499418541
 20
-134.5120146885944
 30
0.0
 10
87.33246499418541
 20
-134.5120146885944
 30
0.0
 10
87.83235109254338
 20
-134.0124813553856
 30
0.0
 10
87.83235109254338
 20
-134.0124813553856
 30
0.0
 10
87.83235109254338
 20
-134.0124813553856
 30
0.0
 10
87.42065943637984
 20
-133.5129480221774
 30
0.0
 10
87.42065943637984
 20
-133.5129480221774
 30
0.0
  0
SPLINE
  5
C2
330
1F
100
AcDbEntity
  8
_U+30EC_U+30A4_U+30E4_U+30FC 1
 62
   179
420
  2234388
370
     9
100
AcDbSpline
210
0.0
220
0.0
230
1.0
 70
    11
 71
     3
 72
    17
 73
    13
 74
     0
 42
0.0000000001
 43
0.0000000001
 12
1.0
 22
0.0
 32
0.0
 13
1.0
 23
0.0
 33
0.0
 40
0.0
 40
0.0
 40
0.0
 40
0.0
 40
1.0
 40
1.0
 40
1.0
 40
2.0
 40
2.0
 40
2.0
 40
3.0
 40
3.0
 40
3.0
 40
4.0
 40
4.0
 40
4.0
 40
4.0
 10
104.2186315078279
 20
-137.7958819099958
 30
0.0
 10
104.2186315078279
 20
-137.7407780211202
 30
0.0
 10
104.1738287311931
 20
-137.6959752433535
 30
0.0
 10
104.1186895659332
 20
-137.6959752433535
 30
0.0
 10
104.0635856784501
 20
-137.6959752433535
 30
0.0
 10
104.0187829018153
 20
-137.7407780211202
 30
0.0
 10
104.0187829018153
 20
-137.7958819099958
 30
0.0
 10
104.0187829018153
 20
-137.8510210766482
 30
0.0
 10
104.0635856784501
 20
-137.8957885766374
 30
0.0
 10
104.1186895659332
 20
-137.8957885766374
 30
0.0
 10
104.1738287311931
 20
-137.8957885766374
 30
0.0
 10
104.2186315078279
 20
-137.8510210766482
 30
0.0
 10
104.2186315078279
 20
-137.7958819099958
 30
0.0
  0
POLYLINE
  5
C3
330
1F
100
AcDbEntity
  8
_U+30EC_U+30A4_U+30E4_U+30FC 1
 62
   179
420
  2234388
370
     9
100
AcDb2dPolyline
 66
     1
 10
0.0
 20
0.0
 30
0.0
  0
VERTEX
  5
C4
330
C3
100
AcDbEntity
  8
_U+30EC_U+30A4_U+30E4_U+30FC 1
 62
   179
420
  2234388
370
     9
100
AcDbVertex
100
AcDb2dVertex
 10
87.3187066612031
 20
-137.7958819099958
 30
0.0
  0
VERTEX
  5
C5
330
C3
100
AcDbEntity
  8
_U+30EC_U+30A4_U+30E4_U+30FC 1
 62
   179
420
  2234388
370
     9
100
AcDbVertex
100
AcDb2dVertex
 10
104.1186895659332
 20
-137.7958819099958
 30
0.0
  0
SEQEND
  5
C6
330
C3
100
AcDbEntity
  8
_U+30EC_U+30A4_U+30E4_U+30FC 1
 62
   179
420
  2234388
370
     9
  0
POLYLINE
  5
C7
330
1F
100
AcDbEntity
  8
_U+30EC_U+30A4_U+30E4_U+30FC 1
 62
   179
420
  2234388
370
     9
100
AcDb2dPolyline
 66
     1
 10
0.0
 20
0.0
 30
0.0
  0
VERTEX
  5
C8
330
C7
100
AcDbEntity
  8
_U+30EC_U+30A4_U+30E4_U+30FC 1
 62
   179
420
  2234388
370
     9
100
AcDbVertex
100
AcDb2dVertex
 10
104.1186895659332
 20
-138.7267566319851
 30
0.0
  0
VERTEX
  5
C9
330
C7
100
AcDbEntity
  8
_U+30EC_U+30A4_U+30E4_U+30FC 1
 62
   179
420
  2234388
370
     9
100
AcDbVertex
100
AcDb2dVertex
 10
104.1186895659332
 20
-136.2662727437115
 30
0.0
  0
SEQEND
  5
CA
330
C7
100
AcDbEntity
  8
_U+30EC_U+30A4_U+30E4_U+30FC 1
 62
   179
420
  2234388
370
     9
  0
INSERT
  5
CC
330
1F
100
AcDbEntity
  8
_U+30EC_U+30A4_U+30E4_U+30FC 1
100
AcDbBlockReference
  2
block 6
 10
0.0
 20
0.0
 30
0.0
  0
ENDSEC
  0
SECTION
  2
OBJECTS
  0
DICTIONARY
  5
C
330
0
100
AcDbDictionary
281
     1
  3
ACAD_GROUP
350
D
  3
ACAD_LAYOUT
350
1A
  3
ACAD_MATERIAL
350
3B
  3
ACAD_MLEADERSTYLE
350
E1
  3
ACAD_MLINESTYLE
350
17
  3
ACAD_PLOTSETTINGS
350
19
  3
ACAD_PLOTSTYLENAME
350
E
  3
ACAD_TABLESTYLE
350
E0
  3
ACAD_VISUALSTYLE
350
2A
  0
SUN
  5
3F
330
29
100
AcDbSun
 90
        1
290
     0
 63
     7
421
 16777215
 40
1.0
291
     1
 91
  2455826
 92
 54000000
292
     0
 70
     2
 71
   256
280
     1
  0
DICTIONARY
  5
D
102
{ACAD_REACTORS
330
C
102
}
330
C
100
AcDbDictionary
281
     1
  0
DICTIONARY
  5
1A
102
{ACAD_REACTORS
330
C
102
}
330
C
100
AcDbDictionary
281
     1
  3
Layout1
350
1E
  3
Layout2
350
26
  3
Model
350
22
  0
DICTIONARY
  5
3B
102
{ACAD_REACTORS
330
C
102
}
330
C
100
AcDbDictionary
281
     1
  3
ByBlock
350
3D
  3
ByLayer
350
3C
  3
Global
350
3E
  0
DICTIONARY
  5
E1
102
{ACAD_REACTORS
330
C
102
}
330
C
100
AcDbDictionary
281
     1
  0
DICTIONARY
  5
17
102
{ACAD_REACTORS
330
C
102
}
330
C
100
AcDbDictionary
281
     1
  3
Standard
350
18
  0
DICTIONARY
  5
19
102
{ACAD_REACTORS
330
C
102
}
330
C
100
AcDbDictionary
281
     1
  0
ACDBDICTIONARYWDFLT
  5
E
102
{ACAD_REACTORS
330
C
102
}
330
C
100
AcDbDictionary
281
     1
  3
Normal
350
F
100
AcDbDictionaryWithDefault
340
F
  0
DICTIONARY
  5
E0
102
{ACAD_REACTORS
330
C
102
}
330
C
100
AcDbDictionary
281
     1
  0
DICTIONARY
  5
2A
102
{ACAD_REACTORS
330
C
102
}
330
C
100
AcDbDictionary
281
     1
  3
2dWireframe
350
2F
  3
3D Hidden
350
31
  3
3dWireframe
350
30
  3
Basic
350
32
  3
Brighten
350
36
  3
ColorChange
350
3A
  3
Conceptual
350
34
  3
Dim
350
35
  3
Facepattern
350
39
  3
Flat
350
2B
  3
FlatWithEdges
350
2C
  3
Gouraud
350
2D
  3
GouraudWithEdges
350
2E
  3
Linepattern
350
38
  3
Realistic
350
33
  3
Thicken
350
37
  0
LAYOUT
  5
1E
102
{ACAD_REACTORS
330
1A
102
}
330
1A
100
AcDbPlotSettings
  1

  2
none_device
  4

  6

 40
0.0
 41
0.0
 42
0.0
 43
0.0
 44
0.0
 45
0.0
 46
0.0
 47
0.0
 48
0.0
 49
0.0
140
0.0
141
0.0
142
1.0
143
1.0
 70
   688
 72
     0
 73
     0
 74
     5
  7

 75
    16
 76
     0
 77
     2
 78
   300
147
1.0
148
0.0
149
0.0
100
AcDbLayout
  1
Layout1
 70
     1
 71
     1
 10
0.0
 20
0.0
 11
12.0
 21
9.0
 12
0.0
 22
0.0
 32
0.0
 14
1.000000000000000E+20
 24
1.000000000000000E+20
 34
1.000000000000000E+20
 15
-1.000000000000000E+20
 25
-1.000000000000000E+20
 35
-1.000000000000000E+20
146
0.0
 13
0.0
 23
0.0
 33
0.0
 16
1.0
 26
0.0
 36
0.0
 17
0.0
 27
1.0
 37
0.0
 76
     0
330
1B
  0
LAYOUT
  5
26
102
{ACAD_REACTORS
330
1A
102
}
330
1A
100
AcDbPlotSettings
  1

  2
none_device
  4

  6

 40
0.0
 41
0.0
 42
0.0
 43
0.0
 44
0.0
 45
0.0
 46
0.0
 47
0.0
 48
0.0
 49
0.0
140
0.0
141
0.0
142
1.0
143
1.0
 70
   688
 72
     0
 73
     0
 74
     5
  7

 75
    16
 76
     0
 77
     2
 78
   300
147
1.0
148
0.0
149
0.0
100
AcDbLayout
  1
Layout2
 70
     1
 71
     2
 10
0.0
 20
0.0
 11
0.0
 21
0.0
 12
0.0
 22
0.0
 32
0.0
 14
0.0
 24
0.0
 34
0.0
 15
0.0
 25
0.0
 35
0.0
146
0.0
 13
0.0
 23
0.0
 33
0.0
 16
1.0
 26
0.0
 36
0.0
 17
0.0
 27
1.0
 37
0.0
 76
     0
330
23
  0
LAYOUT
  5
22
102
{ACAD_REACTORS
330
1A
102
}
330
1A
100
AcDbPlotSettings
  1

  2
none_device
  4

  6

 40
0.0
 41
0.0
 42
0.0
 43
0.0
 44
0.0
 45
0.0
 46
0.0
 47
0.0
 48
0.0
 49
0.0
140
0.0
141
0.0
142
1.0
143
1.0
 70
  1712
 72
     0
 73
     0
 74
     0
  7

 75
     0
 76
     0
 77
     2
 78
   300
147
1.0
148
0.0
149
0.0
100
AcDbLayout
  1
Model
 70
     1
 71
     0
 10
0.0
 20
0.0
 11
12.0
 21
9.0
 12
0.0
 22
0.0
 32
0.0
 14
1.000000000000000E+20
 24
1.000000000000000E+20
 34
1.000000000000000E+20
 15
-1.000000000000000E+20
 25
-1.000000000000000E+20
 35
-1.000000000000000E+20
146
0.0
 13
0.0
 23
0.0
 33
0.0
 16
1.0
 26
0.0
 36
0.0
 17
0.0
 27
1.0
 37
0.0
 76
     0
330
1F
331
29
  0
MATERIAL
  5
3D
102
{ACAD_REACTORS
330
3B
102
}
330
3B
100
AcDbMaterial
  1
ByBlock
 72
     1
 94
      127
  0
MATERIAL
  5
3C
102
{ACAD_REACTORS
330
3B
102
}
330
3B
100
AcDbMaterial
  1
ByLayer
 72
     1
 94
      127
  0
MATERIAL
  5
3E
102
{ACAD_REACTORS
330
3B
102
}
330
3B
100
AcDbMaterial
  1
Global
 72
     1
 94
      127
  0
MLINESTYLE
  5
18
102
{ACAD_REACTORS
330
17
102
}
330
17
100
AcDbMlineStyle
  2
Standard
 70
     0
  3

 62
   256
 51
90.0
 52
90.0
 71
     2
 49
0.5
 62
   256
  6
BYLAYER
 49
-0.5
 62
   256
  6
BYLAYER
  0
ACDBPLACEHOLDER
  5
F
102
{ACAD_REACTORS
330
E
102
}
330
E
  0
VISUALSTYLE
  5
2F
102
{ACAD_REACTORS
330
2A
102
}
330
2A
100
AcDbVisualStyle
  2
2dWireframe
 70
     4
177
     2
291
     0
 71
     0
176
     1
 72
     2
176
     1
 73
     0
176
     1
 90
        0
176
     1
 40
-0.6
176
     1
 41
-30.0
176
     1
 62
     5
 63
     7
421
 16777215
176
     1
 74
     1
176
     1
 91
        4
176
     1
 64
     7
176
     1
 65
   257
176
     1
 75
     1
176
     1
175
     1
176
     1
 42
1.0
176
     1
 92
        0
176
     1
 66
   257
176
     1
 43
1.0
176
     1
 76
     1
176
     1
 77
     6
176
     1
 78
     2
176
     1
 67
     7
176
     1
 79
     5
176
     1
170
     0
176
     1
171
     0
176
     1
290
     0
176
     1
 93
        1
176
     1
 44
0.0
176
     1
173
     0
176
     1
  0
VISUALSTYLE
  5
31
102
{ACAD_REACTORS
330
2A
102
}
330
2A
100
AcDbVisualStyle
  2
3D Hidden
 70
     6
177
     2
291
     0
 71
     1
176
     1
 72
     2
176
     1
 73
     2
176
     1
 90
        0
176
     1
 40
-0.6
176
     1
 41
-30.0
176
     1
 62
     5
 63
     7
421
 16777215
176
     1
 74
     2
176
     1
 91
        2
176
     1
 64
     7
176
     1
 65
   257
176
     1
 75
     2
176
     1
175
     1
176
     1
 42
40.0
176
     1
 92
        0
176
     1
 66
   257
176
     1
 43
1.0
176
     1
 76
     1
176
     1
 77
     6
176
     1
 78
     2
176
     1
 67
     7
176
     1
 79
     3
176
     1
170
     0
176
     1
171
     0
176
     1
290
     0
176
     1
 93
        1
176
     1
 44
0.0
176
     1
173
     0
176
     1
  0
VISUALSTYLE
  5
30
102
{ACAD_REACTORS
330
2A
102
}
330
2A
100
AcDbVisualStyle
  2
3dWireframe
 70
     5
177
     2
291
     0
 71
     0
176
     1
 72
     2
176
     1
 73
     0
176
     1
 90
        0
176
     1
 40
-0.6
176
     1
 41
-30.0
176
     1
 62
     5
 63
     7
421
 16777215
176
     1
 74
     1
176
     1
 91
        4
176
     1
 64
     7
176
     1
 65
   257
176
     1
 75
     1
176
     1
175
     1
176
     1
 42
1.0
176
     1
 92
        0
176
     1
 66
   257
176
     1
 43
1.0
176
     1
 76
     1
176
     1
 77
     6
176
     1
 78
     2
176
     1
 67
     7
176
     1
 79
     5
176
     1
170
     0
176
     1
171
     0
176
     1
290
     0
176
     1
 93
        1
176
     1
 44
0.0
176
     1
173
     0
176
     1
  0
VISUALSTYLE
  5
32
102
{ACAD_REACTORS
330
2A
102
}
330
2A
100
AcDbVisualStyle
  2
Basic
 70
     7
177
     2
291
     1
 71
     1
176
     1
 72
     0
176
     1
 73
     1
176
     1
 90
        0
176
     1
 40
-0.6
176
     1
 41
-30.0
176
     1
 62
     5
 63
     7
421
 16777215
176
     1
 74
     0
176
     1
 91
        4
176
     1
 64
     7
176
     1
 65
   257
176
     1
 75
     1
176
     1
175
     1
176
     1
 42
1.0
176
     1
 92
        8
176
     1
 66
     7
176
     1
 43
1.0
176
     1
 76
     1
176
     1
 77
     6
176
     1
 78
     2
176
     1
 67
     7
176
     1
 79
     5
176
     1
170
     0
176
     1
171
     0
176
     1
290
     0
176
     1
 93
        1
176
     1
 44
0.0
176
     1
173
     0
176
     1
  0
VISUALSTYLE
  5
36
102
{ACAD_REACTORS
330
2A
102
}
330
2A
100
AcDbVisualStyle
  2
Brighten
 70
    12
177
     2
291
     1
 71
     2
176
     1
 72
     2
176
     1
 73
     0
176
     1
 90
        0
176
     1
 40
-0.6
176
     1
 41
-30.0
176
     1
 62
     5
 63
     7
421
 16777215
176
     1
 74
     1
176
     1
 91
        4
176
     1
 64
     7
176
     1
 65
   257
176
     1
 75
     1
176
     1
175
     1
176
     1
 42
1.0
176
     1
 92
        8
176
     1
 66
     7
176
     1
 43
1.0
176
     1
 76
     1
176
     1
 77
     6
176
     1
 78
     2
176
     1
 67
     7
176
     1
 79
     5
176
     1
170
     0
176
     1
171
     0
176
     1
290
     0
176
     1
 93
        1
176
     1
 44
50.0
176
     1
173
     0
176
     1
  0
VISUALSTYLE
  5
3A
102
{ACAD_REACTORS
330
2A
102
}
330
2A
100
AcDbVisualStyle
  2
ColorChange
 70
    16
177
     2
291
     1
 71
     2
176
     1
 72
     2
176
     1
 73
     3
176
     1
 90
        0
176
     1
 40
-0.6
176
     1
 41
-30.0
176
     1
 62
     5
 63
     8
421
  8421504
176
     1
 74
     1
176
     1
 91
        4
176
     1
 64
     7
176
     1
 65
   257
176
     1
 75
     1
176
     1
175
     1
176
     1
 42
1.0
176
     1
 92
        8
176
     1
 66
     8
424
  8421504
176
     1
 43
1.0
176
     1
 76
     1
176
     1
 77
     6
176
     1
 78
     2
176
     1
 67
     7
176
     1
 79
     5
176
     1
170
     0
176
     1
171
     0
176
     1
290
     0
176
     1
 93
        1
176
     1
 44
0.0
176
     1
173
     0
176
     1
  0
VISUALSTYLE
  5
34
102
{ACAD_REACTORS
330
2A
102
}
330
2A
100
AcDbVisualStyle
  2
Conceptual
 70
     9
177
     2
291
     0
 71
     3
176
     1
 72
     2
176
     1
 73
     0
176
     1
 90
        0
176
     1
 40
-0.6
176
     1
 41
-30.0
176
     1
 62
     5
 63
     7
421
 16777215
176
     1
 74
     2
176
     1
 91
        2
176
     1
 64
     7
176
     1
 65
   257
176
     1
 75
     1
176
     1
175
     1
176
     1
 42
40.0
176
     1
 92
        8
176
     1
 66
     7
176
     1
 43
1.0
176
     1
 76
     1
176
     1
 77
     6
176
     1
 78
     2
176
     1
 67
     7
176
     1
 79
     3
176
     1
170
     0
176
     1
171
     0
176
     1
290
     0
176
     1
 93
        1
176
     1
 44
0.0
176
     1
173
     0
176
     1
  0
VISUALSTYLE
  5
35
102
{ACAD_REACTORS
330
2A
102
}
330
2A
100
AcDbVisualStyle
  2
Dim
 70
    11
177
     2
291
     1
 71
     2
176
     1
 72
     2
176
     1
 73
     0
176
     1
 90
        0
176
     1
 40
-0.6
176
     1
 41
-30.0
176
     1
 62
     5
 63
     7
421
 16777215
176
     1
 74
     1
176
     1
 91
        4
176
     1
 64
     7
176
     1
 65
   257
176
     1
 75
     1
176
     1
175
     1
176
     1
 42
1.0
176
     1
 92
        8
176
     1
 66
     7
176
     1
 43
1.0
176
     1
 76
     1
176
     1
 77
     6
176
     1
 78
     2
176
     1
 67
     7
176
     1
 79
     5
176
     1
170
     0
176
     1
171
     0
176
     1
290
     0
176
     1
 93
        1
176
     1
 44
-50.0
176
     1
173
     0
176
     1
  0
VISUALSTYLE
  5
39
102
{ACAD_REACTORS
330
2A
102
}
330
2A
100
AcDbVisualStyle
  2
Facepattern
 70
    15
177
     2
291
     1
 71
     2
176
     1
 72
     2
176
     1
 73
     0
176
     1
 90
        0
176
     1
 40
-0.6
176
     1
 41
-30.0
176
     1
 62
     5
 63
     7
421
 16777215
176
     1
 74
     1
176
     1
 91
        4
176
     1
 64
     7
176
     1
 65
   257
176
     1
 75
     1
176
     1
175
     1
176
     1
 42
1.0
176
     1
 92
        8
176
     1
 66
     7
176
     1
 43
1.0
176
     1
 76
     1
176
     1
 77
     6
176
     1
 78
     2
176
     1
 67
     7
176
     1
 79
     5
176
     1
170
     0
176
     1
171
     0
176
     1
290
     0
176
     1
 93
        1
176
     1
 44
0.0
176
     1
173
     0
176
     1
  0
VISUALSTYLE
  5
2B
102
{ACAD_REACTORS
330
2A
102
}
330
2A
100
AcDbVisualStyle
  2
Flat
 70
     0
177
     2
291
     1
 71
     2
176
     1
 72
     1
176
     1
 73
     1
176
     1
 90
        2
176
     1
 40
-0.6
176
     1
 41
30.0
176
     1
 62
     5
 63
     7
421
 16777215
176
     1
 74
     0
176
     1
 91
        4
176
     1
 64
     7
176
     1
 65
   257
176
     1
 75
     1
176
     1
175
     1
176
     1
 42
1.0
176
     1
 92
        8
176
     1
 66
     7
176
     1
 43
1.0
176
     1
 76
     1
176
     1
 77
     6
176
     1
 78
     2
176
     1
 67
     7
176
     1
 79
     5
176
     1
170
     0
176
     1
171
     0
176
     1
290
     0
176
     1
 93
       13
176
     1
 44
0.0
176
     1
173
     0
176
     1
  0
VISUALSTYLE
  5
2C
102
{ACAD_REACTORS
330
2A
102
}
330
2A
100
AcDbVisualStyle
  2
FlatWithEdges
 70
     1
177
     2
291
     1
 71
     2
176
     1
 72
     1
176
     1
 73
     1
176
     1
 90
        2
176
     1
 40
-0.6
176
     1
 41
30.0
176
     1
 62
     5
 63
     7
421
 16777215
176
     1
 74
     1
176
     1
 91
        4
176
     1
 64
     7
176
     1
 65
   257
176
     1
 75
     1
176
     1
175
     1
176
     1
 42
1.0
176
     1
 92
        0
176
     1
 66
   257
176
     1
 43
1.0
176
     1
 76
     1
176
     1
 77
     6
176
     1
 78
     2
176
     1
 67
     7
176
     1
 79
     5
176
     1
170
     0
176
     1
171
     0
176
     1
290
     0
176
     1
 93
       13
176
     1
 44
0.0
176
     1
173
     0
176
     1
  0
VISUALSTYLE
  5
2D
102
{ACAD_REACTORS
330
2A
102
}
330
2A
100
AcDbVisualStyle
  2
Gouraud
 70
     2
177
     2
291
     1
 71
     2
176
     1
 72
     2
176
     1
 73
     1
176
     1
 90
        2
176
     1
 40
-0.6
176
     1
 41
30.0
176
     1
 62
     5
 63
     7
421
 16777215
176
     1
 74
     0
176
     1
 91
        4
176
     1
 64
     7
176
     1
 65
   257
176
     1
 75
     1
176
     1
175
     1
176
     1
 42
1.0
176
     1
 92
        0
176
     1
 66
     7
176
     1
 43
1.0
176
     1
 76
     1
176
     1
 77
     6
176
     1
 78
     2
176
     1
 67
     7
176
     1
 79
     5
176
     1
170
     0
176
     1
171
     0
176
     1
290
     0
176
     1
 93
       13
176
     1
 44
0.0
176
     1
173
     0
176
     1
  0
VISUALSTYLE
  5
2E
102
{ACAD_REACTORS
330
2A
102
}
330
2A
100
AcDbVisualStyle
  2
GouraudWithEdges
 70
     3
177
     2
291
     1
 71
     2
176
     1
 72
     2
176
     1
 73
     1
176
     1
 90
        2
176
     1
 40
-0.6
176
     1
 41
30.0
176
     1
 62
     5
 63
     7
421
 16777215
176
     1
 74
     1
176
     1
 91
        4
176
     1
 64
     7
176
     1
 65
   257
176
     1
 75
     1
176
     1
175
     1
176
     1
 42
1.0
176
     1
 92
        0
176
     1
 66
   257
176
     1
 43
1.0
176
     1
 76
     1
176
     1
 77
     6
176
     1
 78
     2
176
     1
 67
     7
176
     1
 79
     5
176
     1
170
     0
176
     1
171
     0
176
     1
290
     0
176
     1
 93
       13
176
     1
 44
0.0
176
     1
173
     0
176
     1
  0
VISUALSTYLE
  5
38
102
{ACAD_REACTORS
330
2A
102
}
330
2A
100
AcDbVisualStyle
  2
Linepattern
 70
    14
177
     2
291
     1
 71
     2
176
     1
 72
     2
176
     1
 73
     0
176
     1
 90
        0
176
     1
 40
-0.6
176
     1
 41
-30.0
176
     1
 62
     5
 63
     7
421
 16777215
176
     1
 74
     1
176
     1
 91
        4
176
     1
 64
     7
176
     1
 65
   257
176
     1
 75
     7
176
     1
175
     7
176
     1
 42
1.0
176
     1
 92
        8
176
     1
 66
     7
176
     1
 43
1.0
176
     1
 76
     1
176
     1
 77
     6
176
     1
 78
     2
176
     1
 67
     7
176
     1
 79
     5
176
     1
170
     0
176
     1
171
     0
176
     1
290
     0
176
     1
 93
        1
176
     1
 44
0.0
176
     1
173
     0
176
     1
  0
VISUALSTYLE
  5
33
102
{ACAD_REACTORS
330
2A
102
}
330
2A
100
AcDbVisualStyle
  2
Realistic
 70
     8
177
     2
291
     0
 71
     2
176
     1
 72
     2
176
     1
 73
     0
176
     1
 90
        0
176
     1
 40
-0.6
176
     1
 41
-30.0
176
     1
 62
     5
 63
     7
421
 16777215
176
     1
 74
     1
176
     1
 91
        0
176
     1
 64
     7
176
     1
 65
   257
176
     1
 75
     1
176
     1
175
     1
176
     1
 42
1.0
176
     1
 92
        8
176
     1
 66
     8
424
  7895160
176
     1
 43
1.0
176
     1
 76
     1
176
     1
 77
     6
176
     1
 78
     2
176
     1
 67
     7
176
     1
 79
     5
176
     1
170
     0
176
     1
171
     0
176
     1
290
     0
176
     1
 93
       13
176
     1
 44
0.0
176
     1
173
     0
176
     1
  0
VISUALSTYLE
  5
37
102
{ACAD_REACTORS
330
2A
102
}
330
2A
100
AcDbVisualStyle
  2
Thicken
 70
    13
177
     2
291
     1
 71
     2
176
     1
 72
     2
176
     1
 73
     0
176
     1
 90
        0
176
     1
 40
-0.6
176
     1
 41
-30.0
176
     1
 62
     5
 63
     7
421
 16777215
176
     1
 74
     1
176
     1
 91
        4
176
     1
 64
     7
176
     1
 65
   257
176
     1
 75
     1
176
     1
175
     1
176
     1
 42
1.0
176
     1
 92
       12
176
     1
 66
     7
176
     1
 43
1.0
176
     1
 76
     1
176
     1
 77
     6
176
     1
 78
     2
176
     1
 67
     7
176
     1
 79
     5
176
     1
170
     0
176
     1
171
     0
176
     1
290
     0
176
     1
 93
        1
176
     1
 44
0.0
176
     1
173
     0
176
     1
  0
ENDSEC
  0
EOF
