  0
SECTION
  2
HEADER
  9
$ACADVER
  1
AC1024
  9
$ACADMAINTVER
 70
     6
  9
$DWGCODEPAGE
  3
UNDEFINED
  9
$INSBASE
 10
0.0
 20
0.0
 30
0.0
  9
$EXTMIN
 10
1.000000000000000E+20
 20
1.000000000000000E+20
 30
1.000000000000000E+20
  9
$EXTMAX
 10
-1.000000000000000E+20
 20
-1.000000000000000E+20
 30
-1.000000000000000E+20
  9
$LIMMIN
 10
0.0
 20
0.0
  9
$LIMMAX
 10
12.0
 20
9.0
  9
$ORTHOMODE
 70
     0
  9
$REGENMODE
 70
     1
  9
$FILLMODE
 70
     1
  9
$QTEXTMODE
 70
     0
  9
$MIRRTEXT
 70
     1
  9
$LTSCALE
 40
1.0
  9
$ATTMODE
 70
     1
  9
$TEXTSIZE
 40
0.2
  9
$TRACEWID
 40
0.05
  9
$TEXTSTYLE
  7
Standard
  9
$CLAYER
  8
0
  9
$CELTYPE
  6
ByLayer
  9
$CECOLOR
 62
   256
  9
$CELTSCALE
 40
1.0
  9
$DISPSILH
 70
     0
  9
$DIMSCALE
 40
1.0
  9
$DIMASZ
 40
0.18
  9
$DIMEXO
 40
0.0625
  9
$DIMDLI
 40
0.38
  9
$DIMRND
 40
0.0
  9
$DIMDLE
 40
0.0
  9
$DIMEXE
 40
0.18
  9
$DIMTP
 40
0.0
  9
$DIMTM
 40
0.0
  9
$DIMTXT
 40
0.18
  9
$DIMCEN
 40
0.09
  9
$DIMTSZ
 40
0.0
  9
$DIMTOL
 70
     0
  9
$DIMLIM
 70
     0
  9
$DIMTIH
 70
     1
  9
$DIMTOH
 70
     1
  9
$DIMSE1
 70
     0
  9
$DIMSE2
 70
     0
  9
$DIMTAD
 70
     0
  9
$DIMZIN
 70
     0
  9
$DIMBLK
  1

  9
$DIMASO
 70
     1
  9
$DIMSHO
 70
     1
  9
$DIMPOST
  1

  9
$DIMAPOST
  1

  9
$DIMALT
 70
     0
  9
$DIMALTD
 70
     2
  9
$DIMALTF
 40
25.4
  9
$DIMLFAC
 40
1.0
  9
$DIMTOFL
 70
     0
  9
$DIMTVP
 40
0.0
  9
$DIMTIX
 70
     0
  9
$DIMSOXD
 70
     0
  9
$DIMSAH
 70
     0
  9
$DIMBLK1
  1

  9
$DIMBLK2
  1

  9
$DIMSTYLE
  2
Standard
  9
$DIMCLRD
 70
     0
  9
$DIMCLRE
 70
     0
  9
$DIMCLRT
 70
     0
  9
$DIMTFAC
 40
1.0
  9
$DIMGAP
 40
0.09
  9
$DIMJUST
 70
     0
  9
$DIMSD1
 70
     0
  9
$DIMSD2
 70
     0
  9
$DIMTOLJ
 70
     1
  9
$DIMTZIN
 70
     0
  9
$DIMALTZ
 70
     0
  9
$DIMALTTZ
 70
     0
  9
$DIMUPT
 70
     0
  9
$DIMDEC
 70
     4
  9
$DIMTDEC
 70
     4
  9
$DIMALTU
 70
     2
  9
$DIMALTTD
 70
     2
  9
$DIMTXSTY
  7
Standard
  9
$DIMAUNIT
 70
     0
  9
$DIMADEC
 70
     0
  9
$DIMALTRND
 40
0.0
  9
$DIMAZIN
 70
     0
  9
$DIMDSEP
 70
    46
  9
$DIMATFIT
 70
     3
  9
$DIMFRAC
 70
     0
  9
$DIMLDRBLK
  1

  9
$DIMLUNIT
 70
     2
  9
$DIMLWD
 70
    -2
  9
$DIMLWE
 70
    -2
  9
$DIMTMOVE
 70
     0
  9
$DIMFXL
 40
1.0
  9
$DIMFXLON
 70
     0
  9
$DIMJOGANG
 40
0.7853981633974483
  9
$DIMTFILL
 70
     0
  9
$DIMTFILLCLR
 70
     0
  9
$DIMARCSYM
 70
     0
  9
$DIMLTYPE
  6

  9
$DIMLTEX1
  6

  9
$DIMLTEX2
  6

  9
$DIMTXTDIRECTION
 70
     0
  9
$LUNITS
 70
     2
  9
$LUPREC
 70
     4
  9
$SKETCHINC
 40
0.1
  9
$FILLETRAD
 40
0.5
  9
$AUNITS
 70
     0
  9
$AUPREC
 70
     0
  9
$MENU
  1
.
  9
$ELEVATION
 40
0.0
  9
$PELEVATION
 40
0.0
  9
$THICKNESS
 40
0.0
  9
$LIMCHECK
 70
     0
  9
$CHAMFERA
 40
0.5
  9
$CHAMFERB
 40
0.5
  9
$CHAMFERC
 40
1.0
  9
$CHAMFERD
 40
0.0
  9
$SKPOLY
 70
     0
  9
$TDCREATE
 40
2457917.608784711
  9
$TDUCREATE
 40
2457917.233784722
  9
$TDUPDATE
 40
2457917.608784711
  9
$TDUUPDATE
 40
2457917.233784722
  9
$TDINDWG
 40
0.0000000116
  9
$TDUSRTIMER
 40
0.0000000116
  9
$USRTIMER
 70
     1
  9
$ANGBASE
 50
0.0
  9
$ANGDIR
 70
     0
  9
$PDMODE
 70
     0
  9
$PDSIZE
 40
0.0
  9
$PLINEWID
 40
0.0
  9
$SPLFRAME
 70
     0
  9
$SPLINETYPE
 70
     6
  9
$SPLINESEGS
 70
     8
  9
$HANDSEED
  5
F2
  9
$SURFTAB1
 70
     6
  9
$SURFTAB2
 70
     6
  9
$SURFTYPE
 70
     6
  9
$SURFU
 70
     6
  9
$SURFV
 70
     6
  9
$UCSBASE
  2

  9
$UCSNAME
  2

  9
$UCSORG
 10
0.0
 20
0.0
 30
0.0
  9
$UCSXDIR
 10
1.0
 20
0.0
 30
0.0
  9
$UCSYDIR
 10
0.0
 20
1.0
 30
0.0
  9
$UCSORTHOREF
  2

  9
$UCSORTHOVIEW
 70
     0
  9
$UCSORGTOP
 10
0.0
 20
0.0
 30
0.0
  9
$UCSORGBOTTOM
 10
0.0
 20
0.0
 30
0.0
  9
$UCSORGLEFT
 10
0.0
 20
0.0
 30
0.0
  9
$UCSORGRIGHT
 10
0.0
 20
0.0
 30
0.0
  9
$UCSORGFRONT
 10
0.0
 20
0.0
 30
0.0
  9
$UCSORGBACK
 10
0.0
 20
0.0
 30
0.0
  9
$PUCSBASE
  2

  9
$PUCSNAME
  2

  9
$PUCSORG
 10
0.0
 20
0.0
 30
0.0
  9
$PUCSXDIR
 10
1.0
 20
0.0
 30
0.0
  9
$PUCSYDIR
 10
0.0
 20
1.0
 30
0.0
  9
$PUCSORTHOREF
  2

  9
$PUCSORTHOVIEW
 70
     0
  9
$PUCSORGTOP
 10
0.0
 20
0.0
 30
0.0
  9
$PUCSORGBOTTOM
 10
0.0
 20
0.0
 30
0.0
  9
$PUCSORGLEFT
 10
0.0
 20
0.0
 30
0.0
  9
$PUCSORGRIGHT
 10
0.0
 20
0.0
 30
0.0
  9
$PUCSORGFRONT
 10
0.0
 20
0.0
 30
0.0
  9
$PUCSORGBACK
 10
0.0
 20
0.0
 30
0.0
  9
$USERI1
 70
     0
  9
$USERI2
 70
     0
  9
$USERI3
 70
     0
  9
$USERI4
 70
     0
  9
$USERI5
 70
     0
  9
$USERR1
 40
0.0
  9
$USERR2
 40
0.0
  9
$USERR3
 40
0.0
  9
$USERR4
 40
0.0
  9
$USERR5
 40
0.0
  9
$WORLDVIEW
 70
     1
  9
$SHADEDGE
 70
     3
  9
$SHADEDIF
 70
    70
  9
$TILEMODE
 70
     1
  9
$MAXACTVP
 70
    64
  9
$PINSBASE
 10
0.0
 20
0.0
 30
0.0
  9
$PLIMCHECK
 70
     0
  9
$PEXTMIN
 10
1.000000000000000E+20
 20
1.000000000000000E+20
 30
1.000000000000000E+20
  9
$PEXTMAX
 10
-1.000000000000000E+20
 20
-1.000000000000000E+20
 30
-1.000000000000000E+20
  9
$PLIMMIN
 10
0.0
 20
0.0
  9
$PLIMMAX
 10
12.0
 20
9.0
  9
$UNITMODE
 70
     0
  9
$VISRETAIN
 70
     1
  9
$PLINEGEN
 70
     0
  9
$PSLTSCALE
 70
     1
  9
$TREEDEPTH
 70
  3020
  9
$CMLSTYLE
  2
Standard
  9
$CMLJUST
 70
     0
  9
$CMLSCALE
 40
1.0
  9
$PROXYGRAPHICS
 70
     1
  9
$MEASUREMENT
 70
     0
  9
$CELWEIGHT
370
    -1
  9
$ENDCAPS
280
     0
  9
$JOINSTYLE
280
     0
  9
$LWDISPLAY
290
     1
  9
$INSUNITS
 70
     1
  9
$HYPERLINKBASE
  1

  9
$STYLESHEET
  1

  9
$XEDIT
290
     1
  9
$CEPSNTYPE
380
     0
  9
$PSTYLEMODE
290
     1
  9
$FINGERPRINTGUID
  2
{4B444682-959B-B2F2-B8DC-3DAE4F7B049A}
  9
$VERSIONGUID
  2
{FAEB1C32-E019-11D5-929B-00C0DF256EC4}
  9
$EXTNAMES
290
     1
  9
$PSVPSCALE
 40
0.0
  9
$OLESTARTUP
290
     0
  9
$SORTENTS
280
   127
  9
$INDEXCTL
280
     0
  9
$HIDETEXT
280
     1
  9
$XCLIPFRAME
280
     2
  9
$HALOGAP
280
     0
  9
$OBSCOLOR
 70
   257
  9
$OBSLTYPE
280
     0
  9
$INTERSECTIONDISPLAY
280
     0
  9
$INTERSECTIONCOLOR
 70
   257
  9
$DIMASSOC
280
     2
  9
$PROJECTNAME
  1

  9
$CAMERADISPLAY
290
     0
  9
$LENSLENGTH
 40
50.0
  9
$CAMERAHEIGHT
 40
0.0
  9
$STEPSPERSEC
 40
2.0
  9
$STEPSIZE
 40
6.0
  9
$3DDWFPREC
 40
2.0
  9
$PSOLWIDTH
 40
0.25
  9
$PSOLHEIGHT
 40
4.0
  9
$LOFTANG1
 40
1.570796326794897
  9
$LOFTANG2
 40
1.570796326794897
  9
$LOFTMAG1
 40
0.0
  9
$LOFTMAG2
 40
0.0
  9
$LOFTPARAM
 70
     7
  9
$LOFTNORMALS
280
     1
  9
$LATITUDE
 40
37.795
  9
$LONGITUDE
 40
-122.394
  9
$NORTHDIRECTION
 40
0.0
  9
$TIMEZONE
 70
 -8000
  9
$LIGHTGLYPHDISPLAY
280
     1
  9
$TILEMODELIGHTSYNCH
280
     1
  9
$CMATERIAL
347
3C
  9
$SOLIDHIST
280
     1
  9
$SHOWHIST
280
     1
  9
$DWFFRAME
280
     2
  9
$DGNFRAME
280
     2
  9
$REALWORLDSCALE
290
     1
  9
$INTERFERECOLOR
 62
   256
  9
$CSHADOW
280
     0
  9
$SHADOWPLANELOCATION
 40
0.0
  0
ENDSEC
  0
SECTION
  2
CLASSES
  0
CLASS
  1
ACDBDICTIONARYWDFLT
  2
AcDbDictionaryWithDefault
  3
ObjectDBX Classes
 90
        0
 91
        4
280
     0
281
     0
  0
CLASS
  1
VISUALSTYLE
  2
AcDbVisualStyle
  3
ObjectDBX Classes
 90
     4095
 91
        4
280
     0
281
     0
  0
CLASS
  1
MATERIAL
  2
AcDbMaterial
  3
ObjectDBX Classes
 90
     1153
 91
        4
280
     0
281
     0
  0
CLASS
  1
SUN
  2
AcDbSun
  3
SCENEOE
 90
     1024
 91
        4
280
     0
281
     0
  0
ENDSEC
  0
SECTION
  2
TABLES
  0
TABLE
  2
VPORT
  5
8
330
0
100
AcDbSymbolTable
 70
     1
  0
VPORT
  5
29
330
8
100
AcDbSymbolTableRecord
100
AcDbViewportTableRecord
  2
*Active
 70
     0
 10
0.0
 20
0.0
 11
1.0
 21
1.0
 12
0.0
 22
0.0
 13
0.0
 23
0.0
 14
0.5
 24
0.5
 15
0.5
 25
0.5
 16
0.0
 26
0.0
 36
1.0
 17
91.00082462281999
 27
-128.4993055234307
 37
0.0
 40
256.9986110468615
 41
0.7081814508812795
 42
50.0
 43
0.0
 44
0.0
 50
0.0
 51
0.0
 71
     0
 72
   100
 73
     1
 74
     3
 75
     0
 76
     0
 77
     0
 78
     0
281
     0
 65
     1
110
0.0
120
0.0
130
0.0
111
1.0
121
0.0
131
0.0
112
0.0
122
1.0
132
0.0
 79
     0
146
0.0
 60
     3
 61
     5
292
     1
282
     1
141
0.0
142
0.0
 63
   250
361
3F
  0
ENDTAB
  0
TABLE
  2
LTYPE
  5
5
330
0
100
AcDbSymbolTable
 70
     1
  0
LTYPE
  5
14
330
5
100
AcDbSymbolTableRecord
100
AcDbLinetypeTableRecord
  2
ByBlock
 70
     0
  3

 72
    65
 73
     0
 40
0.0
  0
LTYPE
  5
15
330
5
100
AcDbSymbolTableRecord
100
AcDbLinetypeTableRecord
  2
ByLayer
 70
     0
  3

 72
    65
 73
     0
 40
0.0
  0
LTYPE
  5
16
330
5
100
AcDbSymbolTableRecord
100
AcDbLinetypeTableRecord
  2
Continuous
 70
     0
  3
Solid line
 72
    65
 73
     0
 40
0.0
  0
ENDTAB
  0
TABLE
  2
LAYER
  5
2
330
0
100
AcDbSymbolTable
 70
     2
  0
LAYER
  5
10
330
2
100
AcDbSymbolTableRecord
100
AcDbLayerTableRecord
  2
0
 70
     0
 62
     7
  6
Continuous
370
    -3
390
F
347
3E
  0
LAYER
  5
40
330
2
100
AcDbSymbolTableRecord
100
AcDbLayerTableRecord
  2
_U+30EC_U+30A4_U+30E4_U+30FC 1
 70
     0
 62
     7
  6
Continuous
370
    -3
390
F
347
3E
  0
ENDTAB
  0
TABLE
  2
STYLE
  5
3
330
0
100
AcDbSymbolTable
 70
     1
  0
STYLE
  5
11
330
3
100
AcDbSymbolTableRecord
100
AcDbTextStyleTableRecord
  2
Standard
 70
     0
 40
0.0
 41
1.0
 50
0.0
 71
     0
 42
0.2
  3
txt
  4

  0
ENDTAB
  0
TABLE
  2
VIEW
  5
6
330
0
100
AcDbSymbolTable
 70
     0
  0
ENDTAB
  0
TABLE
  2
UCS
  5
7
330
0
100
AcDbSymbolTable
 70
     0
  0
ENDTAB
  0
TABLE
  2
APPID
  5
9
330
0
100
AcDbSymbolTable
 70
     1
  0
APPID
  5
12
330
9
100
AcDbSymbolTableRecord
100
AcDbRegAppTableRecord
  2
ACAD
 70
     0
  0
ENDTAB
  0
TABLE
  2
DIMSTYLE
  5
A
330
0
100
AcDbSymbolTable
 70
     1
100
AcDbDimStyleTable
  0
DIMSTYLE
105
27
330
A
100
AcDbSymbolTableRecord
100
AcDbDimStyleTableRecord
  2
Standard
 70
     0
178
     0
340
11
  0
ENDTAB
  0
TABLE
  2
BLOCK_RECORD
  5
1
330
0
100
AcDbSymbolTable
 70
     6
  0
BLOCK_RECORD
  5
1F
330
1
100
AcDbSymbolTableRecord
100
AcDbBlockTableRecord
  2
*Model_Space
340
22
 70
     0
280
     1
281
     0
  0
BLOCK_RECORD
  5
1B
330
1
100
AcDbSymbolTableRecord
100
AcDbBlockTableRecord
  2
*Paper_Space
340
1E
 70
     0
280
     1
281
     0
  0
BLOCK_RECORD
  5
23
330
1
100
AcDbSymbolTableRecord
100
AcDbBlockTableRecord
  2
*Paper_Space0
340
26
 70
     0
280
     1
281
     0
  0
BLOCK_RECORD
  5
51
330
1
100
AcDbSymbolTableRecord
100
AcDbBlockTableRecord
  2
block 2
340
0
102
{BLKREFS
331
52
102
}
 70
     0
280
     1
281
     0
  0
BLOCK_RECORD
  5
79
330
1
100
AcDbSymbolTableRecord
100
AcDbBlockTableRecord
  2
block 3
340
0
102
{BLKREFS
331
7A
102
}
 70
     0
280
     1
281
     0
  0
BLOCK_RECORD
  5
99
330
1
100
AcDbSymbolTableRecord
100
AcDbBlockTableRecord
  2
block 4
340
0
102
{BLKREFS
331
9A
102
}
 70
     0
280
     1
281
     0
  0
BLOCK_RECORD
  5
B0
330
1
100
AcDbSymbolTableRecord
100
AcDbBlockTableRecord
  2
block 5
340
0
102
{BLKREFS
331
B1
102
}
 70
     0
280
     1
281
     0
  0
BLOCK_RECORD
  5
CD
330
1
100
AcDbSymbolTableRecord
100
AcDbBlockTableRecord
  2
block 6
340
0
102
{BLKREFS
331
CE
102
}
 70
     0
280
     1
281
     0
  0
ENDTAB
  0
ENDSEC
  0
SECTION
  2
BLOCKS
  0
BLOCK
  5
20
330
1F
100
AcDbEntity
  8
0
100
AcDbBlockBegin
  2
*Model_Space
 70
     0
 10
0.0
 20
0.0
 30
0.0
  3
*Model_Space
  1

  0
ENDBLK
  5
21
330
1F
100
AcDbEntity
  8
0
100
AcDbBlockEnd
  0
BLOCK
  5
1C
330
1B
100
AcDbEntity
 67
     1
  8
0
100
AcDbBlockBegin
  2
*Paper_Space
 70
     0
 10
0.0
 20
0.0
 30
0.0
  3
*Paper_Space
  1

  0
ENDBLK
  5
1D
330
1B
100
AcDbEntity
 67
     1
  8
0
100
AcDbBlockEnd
  0
BLOCK
  5
24
330
23
100
AcDbEntity
  8
0
100
AcDbBlockBegin
  2
*Paper_Space0
 70
     0
 10
0.0
 20
0.0
 30
0.0
  3
*Paper_Space0
  1

  0
ENDBLK
  5
25
330
23
100
AcDbEntity
  8
0
100
AcDbBlockEnd
  0
BLOCK
  5
53
330
51
100
AcDbEntity
  8
0
100
AcDbBlockBegin
  2
block 2
 70
     0
 10
0.0
 20
0.0
 30
0.0
  3
block 2
  1

  0
POLYLINE
  5
55
330
51
100
AcDbEntity
  8
_U+30EC_U+30A4_U+30E4_U+30FC 1
370
     0
100
AcDb2dPolyline
 66
     1
 10
0.0
 20
0.0
 30
0.0
  0
VERTEX
  5
56
330
55
100
AcDbEntity
  8
_U+30EC_U+30A4_U+30E4_U+30FC 1
370
     0
100
AcDbVertex
100
AcDb2dVertex
 10
85.19014890448372
 20
-126.2172742740012
 30
0.0
  0
VERTEX
  5
57
330
55
100
AcDbEntity
  8
_U+30EC_U+30A4_U+30E4_U+30FC 1
370
     0
100
AcDbVertex
100
AcDb2dVertex
 10
85.53707001984837
 20
-126.2172742740012
 30
0.0
  0
VERTEX
  5
58
330
55
100
AcDbEntity
  8
_U+30EC_U+30A4_U+30E4_U+30FC 1
370
     0
100
AcDbVertex
100
AcDb2dVertex
 10
85.53707001984837
 20
-126.4346597991205
 30
0.0
  0
VERTEX
  5
59
330
55
100
AcDbEntity
  8
_U+30EC_U+30A4_U+30E4_U+30FC 1
370
     0
100
AcDbVertex
100
AcDb2dVertex
 10
85.19014890448372
 20
-126.4346597991205
 30
0.0
  0
VERTEX
  5
5A
330
55
100
AcDbEntity
  8
_U+30EC_U+30A4_U+30E4_U+30FC 1
370
     0
100
AcDbVertex
100
AcDb2dVertex
 10
85.19014890448372
 20
-127.0887111769952
 30
0.0
  0
VERTEX
  5
5B
330
55
100
AcDbEntity
  8
_U+30EC_U+30A4_U+30E4_U+30FC 1
370
     0
100
AcDbVertex
100
AcDb2dVertex
 10
84.96587318839396
 20
-127.0887111769952
 30
0.0
  0
VERTEX
  5
5C
330
55
100
AcDbEntity
  8
_U+30EC_U+30A4_U+30E4_U+30FC 1
370
     0
100
AcDbVertex
100
AcDb2dVertex
 10
83.99280596858513
 20
-126.4114054045951
 30
0.0
  0
VERTEX
  5
5D
330
55
100
AcDbEntity
  8
_U+30EC_U+30A4_U+30E4_U+30FC 1
370
     0
100
AcDbVertex
100
AcDb2dVertex
 10
83.99280596858513
 20
-126.2172742740012
 30
0.0
  0
VERTEX
  5
5E
330
55
100
AcDbEntity
  8
_U+30EC_U+30A4_U+30E4_U+30FC 1
370
     0
100
AcDbVertex
100
AcDb2dVertex
 10
84.99136689498481
 20
-126.2172742740012
 30
0.0
  0
VERTEX
  5
5F
330
55
100
AcDbEntity
  8
_U+30EC_U+30A4_U+30E4_U+30FC 1
370
     0
100
AcDbVertex
100
AcDb2dVertex
 10
84.99136689498481
 20
-126.010396290112
 30
0.0
  0
VERTEX
  5
60
330
55
100
AcDbEntity
  8
_U+30EC_U+30A4_U+30E4_U+30FC 1
370
     0
100
AcDbVertex
100
AcDb2dVertex
 10
85.19014890448372
 20
-126.010396290112
 30
0.0
  0
VERTEX
  5
61
330
55
100
AcDbEntity
  8
_U+30EC_U+30A4_U+30E4_U+30FC 1
370
     0
100
AcDbVertex
100
AcDb2dVertex
 10
85.19014890448372
 20
-126.2172742740012
 30
0.0
  0
SEQEND
  5
62
330
55
100
AcDbEntity
  8
_U+30EC_U+30A4_U+30E4_U+30FC 1
370
     0
  0
POLYLINE
  5
63
330
51
100
AcDbEntity
  8
_U+30EC_U+30A4_U+30E4_U+30FC 1
370
     0
100
AcDb2dPolyline
 66
     1
 10
0.0
 20
0.0
 30
0.0
  0
VERTEX
  5
64
330
63
100
AcDbEntity
  8
_U+30EC_U+30A4_U+30E4_U+30FC 1
370
     0
100
AcDbVertex
100
AcDb2dVertex
 10
84.33542071459323
 20
-126.4346597991205
 30
0.0
  0
VERTEX
  5
65
330
63
100
AcDbEntity
  8
_U+30EC_U+30A4_U+30E4_U+30FC 1
370
     0
100
AcDbVertex
100
AcDb2dVertex
 10
84.99136689498481
 20
-126.8904459318191
 30
0.0
  0
VERTEX
  5
66
330
63
100
AcDbEntity
  8
_U+30EC_U+30A4_U+30E4_U+30FC 1
370
     0
100
AcDbVertex
100
AcDb2dVertex
 10
84.99136689498481
 20
-126.4346597991205
 30
0.0
  0
VERTEX
  5
67
330
63
100
AcDbEntity
  8
_U+30EC_U+30A4_U+30E4_U+30FC 1
370
     0
100
AcDbVertex
100
AcDb2dVertex
 10
84.33542071459323
 20
-126.4346597991205
 30
0.0
  0
SEQEND
  5
68
330
63
100
AcDbEntity
  8
_U+30EC_U+30A4_U+30E4_U+30FC 1
370
     0
  0
HATCH
  5
69
330
51
100
AcDbEntity
  8
_U+30EC_U+30A4_U+30E4_U+30FC 1
 62
   179
420
  2234388
100
AcDbHatch
 10
0.0
 20
0.0
 30
0.0
210
0.0
220
0.0
230
1.0
  2
SOLID
 70
     1
 71
     0
 91
        2
 92
        1
 93
       11
 72
     1
 10
85.19014890448372
 20
-126.2172742740012
 11
85.53707001984837
 21
-126.2172742740012
 72
     1
 10
85.53707001984837
 20
-126.2172742740012
 11
85.53707001984837
 21
-126.4346597991205
 72
     1
 10
85.53707001984837
 20
-126.4346597991205
 11
85.19014890448372
 21
-126.4346597991205
 72
     1
 10
85.19014890448372
 20
-126.4346597991205
 11
85.19014890448372
 21
-127.0887111769952
 72
     1
 10
85.19014890448372
 20
-127.0887111769952
 11
84.96587318839396
 21
-127.0887111769952
 72
     1
 10
84.96587318839396
 20
-127.0887111769952
 11
83.99280596858513
 21
-126.4114054045951
 72
     1
 10
83.99280596858513
 20
-126.4114054045951
 11
83.99280596858513
 21
-126.2172742740012
 72
     1
 10
83.99280596858513
 20
-126.2172742740012
 11
84.99136689498481
 21
-126.2172742740012
 72
     1
 10
84.99136689498481
 20
-126.2172742740012
 11
84.99136689498481
 21
-126.010396290112
 72
     1
 10
84.99136689498481
 20
-126.010396290112
 11
85.19014890448372
 21
-126.010396290112
 72
     1
 10
85.19014890448372
 20
-126.010396290112
 11
85.19014890448372
 21
-126.2172742740012
 97
        0
 92
        1
 93
        3
 72
     1
 10
84.33542071459323
 20
-126.4346597991205
 11
84.99136689498481
 21
-126.8904459318191
 72
     1
 10
84.99136689498481
 20
-126.8904459318191
 11
84.99136689498481
 21
-126.4346597991205
 72
     1
 10
84.99136689498481
 20
-126.4346597991205
 11
84.33542071459323
 21
-126.4346597991205
 97
        0
 75
     2
 76
     1
 98
        0
  0
ENDBLK
  5
54
330
51
100
AcDbEntity
  8
0
100
AcDbBlockEnd
  0
BLOCK
  5
7B
330
79
100
AcDbEntity
  8
0
100
AcDbBlockBegin
  2
block 3
 70
     0
 10
0.0
 20
0.0
 30
0.0
  3
block 3
  1

  0
SPLINE
  5
7D
330
79
100
AcDbEntity
  8
_U+30EC_U+30A4_U+30E4_U+30FC 1
370
     0
100
AcDbSpline
210
0.0
220
0.0
230
1.0
 70
    11
 71
     3
 72
    44
 73
    40
 74
     0
 42
0.0000000001
 43
0.0000000001
 12
1.0
 22
0.0
 32
0.0
 13
1.0
 23
0.0
 33
0.0
 40
0.0
 40
0.0
 40
0.0
 40
0.0
 40
1.0
 40
1.0
 40
1.0
 40
2.0
 40
2.0
 40
2.0
 40
3.0
 40
3.0
 40
3.0
 40
4.0
 40
4.0
 40
4.0
 40
5.0
 40
5.0
 40
5.0
 40
6.0
 40
6.0
 40
6.0
 40
7.0
 40
7.0
 40
7.0
 40
8.0
 40
8.0
 40
8.0
 40
9.0
 40
9.0
 40
9.0
 40
10.0
 40
10.0
 40
10.0
 40
11.0
 40
11.0
 40
11.0
 40
12.0
 40
12.0
 40
12.0
 40
13.0
 40
13.0
 40
13.0
 40
13.0
 10
84.95536564716394
 20
-134.4731010948539
 30
0.0
 10
85.1140122942597
 20
-134.6694715375132
 30
0.0
 10
85.18808184719256
 20
-134.7535318673533
 30
0.0
 10
85.33191458370175
 20
-134.797284580016
 30
0.0
 10
85.33191458370175
 20
-134.797284580016
 30
0.0
 10
85.33191458370175
 20
-134.0958631392191
 30
0.0
 10
85.33191458370175
 20
-134.0958631392191
 30
0.0
 10
85.33191458370175
 20
-134.0958631392191
 30
0.0
 10
85.53707001984837
 20
-134.0958631392191
 30
0.0
 10
85.53707001984837
 20
-134.0958631392191
 30
0.0
 10
85.53707001984837
 20
-134.0958631392191
 30
0.0
 10
85.53707001984837
 20
-135.0219048056543
 30
0.0
 10
85.53707001984837
 20
-135.0219048056543
 30
0.0
 10
85.17964136325371
 20
-134.9933105131267
 30
0.0
 10
85.10126544096427
 20
-134.9343993803289
 30
0.0
 10
84.80309242671589
 20
-134.5874782649643
 30
0.0
 10
84.60413816244272
 20
-134.357001377001
 30
0.0
 10
84.53644203615757
 20
-134.2980902442033
 30
0.0
 10
84.3989827262961
 20
-134.2980902442033
 30
0.0
 10
84.2804714416035
 20
-134.2980902442033
 30
0.0
 10
84.14938555838974
 20
-134.362858039326
 30
0.0
 10
84.14938555838974
 20
-134.5399359472678
 30
0.0
 10
84.14938555838974
 20
-134.7742024402648
 30
0.0
 10
84.37986244635296
 20
-134.7817816503323
 30
0.0
 10
84.4963066737544
 20
-134.7859157649146
 30
0.0
 10
84.4963066737544
 20
-134.7859157649146
 30
0.0
 10
84.4963066737544
 20
-134.9877983603503
 30
0.0
 10
84.4963066737544
 20
-134.9877983603503
 30
0.0
 10
84.36935490512295
 20
-134.9802191502827
 30
0.0
 10
84.25721704707806
 20
-134.970572882924
 30
0.0
 10
84.13870576238547
 20
-134.8982258777338
 30
0.0
 10
83.97799205799856
 20
-134.7990071277586
 30
0.0
 10
83.94405786746886
 20
-134.6315754871754
 30
0.0
 10
83.94405786746886
 20
-134.5265000748753
 30
0.0
 10
83.94405786746886
 20
-134.2770751617432
 30
0.0
 10
84.12819822115546
 20
-134.0903509864427
 30
0.0
 10
84.40104978358724
 20
-134.0903509864427
 30
0.0
 10
84.62963186903357
 20
-134.0903509864427
 30
0.0
 10
84.72902287378302
 20
-134.1950818891943
 30
0.0
 10
84.95536564716394
 20
-134.4731010948539
 30
0.0
  0
HATCH
  5
7E
330
79
100
AcDbEntity
  8
_U+30EC_U+30A4_U+30E4_U+30FC 1
 62
   179
420
  2234388
100
AcDbHatch
 10
0.0
 20
0.0
 30
0.0
210
0.0
220
0.0
230
1.0
  2
SOLID
 70
     1
 71
     0
 91
        1
 92
        1
 93
        1
 72
     4
 94
        3
 73
     0
 74
     1
 95
       44
 96
       40
 40
0.0
 40
0.0
 40
0.0
 40
0.0
 40
1.0
 40
1.0
 40
1.0
 40
2.0
 40
2.0
 40
2.0
 40
3.0
 40
3.0
 40
3.0
 40
4.0
 40
4.0
 40
4.0
 40
5.0
 40
5.0
 40
5.0
 40
6.0
 40
6.0
 40
6.0
 40
7.0
 40
7.0
 40
7.0
 40
8.0
 40
8.0
 40
8.0
 40
9.0
 40
9.0
 40
9.0
 40
10.0
 40
10.0
 40
10.0
 40
11.0
 40
11.0
 40
11.0
 40
12.0
 40
12.0
 40
12.0
 40
13.0
 40
13.0
 40
13.0
 40
13.0
 10
84.95536564716394
 20
-134.4731010948539
 10
85.1140122942597
 20
-134.6694715375132
 10
85.18808184719256
 20
-134.7535318673533
 10
85.33191458370175
 20
-134.797284580016
 10
85.33191458370175
 20
-134.797284580016
 10
85.33191458370175
 20
-134.0958631392191
 10
85.33191458370175
 20
-134.0958631392191
 10
85.33191458370175
 20
-134.0958631392191
 10
85.53707001984837
 20
-134.0958631392191
 10
85.53707001984837
 20
-134.0958631392191
 10
85.53707001984837
 20
-134.0958631392191
 10
85.53707001984837
 20
-135.0219048056543
 10
85.53707001984837
 20
-135.0219048056543
 10
85.17964136325371
 20
-134.9933105131267
 10
85.10126544096427
 20
-134.9343993803289
 10
84.80309242671589
 20
-134.5874782649643
 10
84.60413816244272
 20
-134.357001377001
 10
84.53644203615757
 20
-134.2980902442033
 10
84.3989827262961
 20
-134.2980902442033
 10
84.2804714416035
 20
-134.2980902442033
 10
84.14938555838974
 20
-134.362858039326
 10
84.14938555838974
 20
-134.5399359472678
 10
84.14938555838974
 20
-134.7742024402648
 10
84.37986244635296
 20
-134.7817816503323
 10
84.4963066737544
 20
-134.7859157649146
 10
84.4963066737544
 20
-134.7859157649146
 10
84.4963066737544
 20
-134.9877983603503
 10
84.4963066737544
 20
-134.9877983603503
 10
84.36935490512295
 20
-134.9802191502827
 10
84.25721704707806
 20
-134.970572882924
 10
84.13870576238547
 20
-134.8982258777338
 10
83.97799205799856
 20
-134.7990071277586
 10
83.94405786746886
 20
-134.6315754871754
 10
83.94405786746886
 20
-134.5265000748753
 10
83.94405786746886
 20
-134.2770751617432
 10
84.12819822115546
 20
-134.0903509864427
 10
84.40104978358724
 20
-134.0903509864427
 10
84.62963186903357
 20
-134.0903509864427
 10
84.72902287378302
 20
-134.1950818891943
 10
84.95536564716394
 20
-134.4731010948539
 97
        0
 97
        0
 75
     2
 76
     1
 98
        0
  0
POLYLINE
  5
7F
330
79
100
AcDbEntity
  8
_U+30EC_U+30A4_U+30E4_U+30FC 1
370
     0
100
AcDb2dPolyline
 66
     1
 10
0.0
 20
0.0
 30
0.0
  0
VERTEX
  5
80
330
7F
100
AcDbEntity
  8
_U+30EC_U+30A4_U+30E4_U+30FC 1
370
     0
100
AcDbVertex
100
AcDb2dVertex
 10
85.53707001984837
 20
-133.894325053332
 30
0.0
  0
VERTEX
  5
81
330
7F
100
AcDbEntity
  8
_U+30EC_U+30A4_U+30E4_U+30FC 1
370
     0
100
AcDbVertex
100
AcDb2dVertex
 10
85.28540579465087
 20
-133.894325053332
 30
0.0
  0
VERTEX
  5
82
330
7F
100
AcDbEntity
  8
_U+30EC_U+30A4_U+30E4_U+30FC 1
370
     0
100
AcDbVertex
100
AcDb2dVertex
 10
85.28540579465087
 20
-133.6676377704025
 30
0.0
  0
VERTEX
  5
83
330
7F
100
AcDbEntity
  8
_U+30EC_U+30A4_U+30E4_U+30FC 1
370
     0
100
AcDbVertex
100
AcDb2dVertex
 10
85.53707001984837
 20
-133.6676377704025
 30
0.0
  0
VERTEX
  5
84
330
7F
100
AcDbEntity
  8
_U+30EC_U+30A4_U+30E4_U+30FC 1
370
     0
100
AcDbVertex
100
AcDb2dVertex
 10
85.53707001984837
 20
-133.894325053332
 30
0.0
  0
SEQEND
  5
85
330
7F
100
AcDbEntity
  8
_U+30EC_U+30A4_U+30E4_U+30FC 1
370
     0
  0
HATCH
  5
86
330
79
100
AcDbEntity
  8
_U+30EC_U+30A4_U+30E4_U+30FC 1
 62
   179
420
  2234388
100
AcDbHatch
 10
0.0
 20
0.0
 30
0.0
210
0.0
220
0.0
230
1.0
  2
SOLID
 70
     1
 71
     0
 91
        1
 92
        1
 93
        4
 72
     1
 10
85.53707001984837
 20
-133.894325053332
 11
85.28540579465087
 21
-133.894325053332
 72
     1
 10
85.28540579465087
 20
-133.894325053332
 11
85.28540579465087
 21
-133.6676377704025
 72
     1
 10
85.28540579465087
 20
-133.6676377704025
 11
85.53707001984837
 21
-133.6676377704025
 72
     1
 10
85.53707001984837
 20
-133.6676377704025
 11
85.53707001984837
 21
-133.894325053332
 97
        0
 75
     2
 76
     1
 98
        0
  0
SPLINE
  5
87
330
79
100
AcDbEntity
  8
_U+30EC_U+30A4_U+30E4_U+30FC 1
370
     0
100
AcDbSpline
210
0.0
220
0.0
230
1.0
 70
    11
 71
     3
 72
    53
 73
    49
 74
     0
 42
0.0000000001
 43
0.0000000001
 12
1.0
 22
0.0
 32
0.0
 13
1.0
 23
0.0
 33
0.0
 40
0.0
 40
0.0
 40
0.0
 40
0.0
 40
1.0
 40
1.0
 40
1.0
 40
2.0
 40
2.0
 40
2.0
 40
3.0
 40
3.0
 40
3.0
 40
4.0
 40
4.0
 40
4.0
 40
5.0
 40
5.0
 40
5.0
 40
6.0
 40
6.0
 40
6.0
 40
7.0
 40
7.0
 40
7.0
 40
8.0
 40
8.0
 40
8.0
 40
9.0
 40
9.0
 40
9.0
 40
10.0
 40
10.0
 40
10.0
 40
11.0
 40
11.0
 40
11.0
 40
12.0
 40
12.0
 40
12.0
 40
13.0
 40
13.0
 40
13.0
 40
14.0
 40
14.0
 40
14.0
 40
15.0
 40
15.0
 40
15.0
 40
16.0
 40
16.0
 40
16.0
 40
16.0
 10
85.58788517825582
 20
-133.0216823669182
 30
0.0
 10
85.58788517825582
 20
-133.0923068243658
 30
0.0
 10
85.57100421037809
 20
-133.1836018547249
 30
0.0
 10
85.50744219867522
 20
-133.2752413946326
 30
0.0
 10
85.39754365269576
 20
-133.4313042201144
 30
0.0
 10
85.26628551470773
 20
-133.4505967548318
 30
0.0
 10
85.15845402601941
 20
-133.4674777227095
 30
0.0
 10
85.15845402601941
 20
-133.4674777227095
 30
0.0
 10
85.15845402601941
 20
-133.267662184565
 30
0.0
 10
85.15845402601941
 20
-133.267662184565
 30
0.0
 10
85.35723603551834
 20
-133.2180528095774
 30
0.0
 10
85.38686385669148
 20
-133.1036756394672
 30
0.0
 10
85.38686385669148
 20
-133.0199598191756
 30
0.0
 10
85.38686385669148
 20
-132.8938693244154
 30
0.0
 10
85.28747285194203
 20
-132.7567545241025
 30
0.0
 10
85.0547566519134
 20
-132.7567545241025
 30
0.0
 10
84.79878605735934
 20
-132.7567545241025
 30
0.0
 10
84.72902287378302
 20
-132.9186740119092
 30
0.0
 10
84.72902287378302
 20
-133.0275390292431
 30
0.0
 10
84.72902287378302
 20
-133.0561333217707
 30
0.0
 10
84.72902287378302
 20
-133.1836018547249
 30
0.0
 10
84.85804169970564
 20
-133.2638725795313
 30
0.0
 10
84.85804169970564
 20
-133.2638725795313
 30
0.0
 10
84.8389214197625
 20
-133.4220024623042
 30
0.0
 10
84.8389214197625
 20
-133.4220024623042
 30
0.0
 10
84.8389214197625
 20
-133.4220024623042
 30
0.0
 10
83.99280596858513
 20
-133.3131374449703
 30
0.0
 10
83.99280596858513
 20
-133.3131374449703
 30
0.0
 10
83.99280596858513
 20
-133.3131374449703
 30
0.0
 10
83.99280596858513
 20
-132.612060513722
 30
0.0
 10
83.99280596858513
 20
-132.612060513722
 30
0.0
 10
83.99280596858513
 20
-132.612060513722
 30
0.0
 10
84.18745386350174
 20
-132.612060513722
 30
0.0
 10
84.18745386350174
 20
-132.612060513722
 30
0.0
 10
84.18745386350174
 20
-132.612060513722
 30
0.0
 10
84.18745386350174
 20
-133.1663763772987
 30
0.0
 10
84.18745386350174
 20
-133.1663763772987
 30
0.0
 10
84.18745386350174
 20
-133.1663763772987
 30
0.0
 10
84.61051158909044
 20
-133.225632019645
 30
0.0
 10
84.61051158909044
 20
-133.225632019645
 30
0.0
 10
84.57674965333499
 20
-133.1701659823325
 30
0.0
 10
84.53644203615757
 20
-133.0960964293996
 30
0.0
 10
84.53644203615757
 20
-132.9892984693568
 30
0.0
 10
84.53644203615757
 20
-132.7605441291363
 30
0.0
 10
84.72264944713531
 20
-132.5472927185993
 30
0.0
 10
85.03580862674453
 20
-132.5472927185993
 30
0.0
 10
85.35310192093604
 20
-132.5472927185993
 30
0.0
 10
85.58788517825582
 20
-132.7491753140349
 30
0.0
 10
85.58788517825582
 20
-133.0216823669182
 30
0.0
  0
HATCH
  5
88
330
79
100
AcDbEntity
  8
_U+30EC_U+30A4_U+30E4_U+30FC 1
 62
   179
420
  2234388
100
AcDbHatch
 10
0.0
 20
0.0
 30
0.0
210
0.0
220
0.0
230
1.0
  2
SOLID
 70
     1
 71
     0
 91
        1
 92
        1
 93
        1
 72
     4
 94
        3
 73
     0
 74
     1
 95
       53
 96
       49
 40
0.0
 40
0.0
 40
0.0
 40
0.0
 40
1.0
 40
1.0
 40
1.0
 40
2.0
 40
2.0
 40
2.0
 40
3.0
 40
3.0
 40
3.0
 40
4.0
 40
4.0
 40
4.0
 40
5.0
 40
5.0
 40
5.0
 40
6.0
 40
6.0
 40
6.0
 40
7.0
 40
7.0
 40
7.0
 40
8.0
 40
8.0
 40
8.0
 40
9.0
 40
9.0
 40
9.0
 40
10.0
 40
10.0
 40
10.0
 40
11.0
 40
11.0
 40
11.0
 40
12.0
 40
12.0
 40
12.0
 40
13.0
 40
13.0
 40
13.0
 40
14.0
 40
14.0
 40
14.0
 40
15.0
 40
15.0
 40
15.0
 40
16.0
 40
16.0
 40
16.0
 40
16.0
 10
85.58788517825582
 20
-133.0216823669182
 10
85.58788517825582
 20
-133.0923068243658
 10
85.57100421037809
 20
-133.1836018547249
 10
85.50744219867522
 20
-133.2752413946326
 10
85.39754365269576
 20
-133.4313042201144
 10
85.26628551470773
 20
-133.4505967548318
 10
85.15845402601941
 20
-133.4674777227095
 10
85.15845402601941
 20
-133.4674777227095
 10
85.15845402601941
 20
-133.267662184565
 10
85.15845402601941
 20
-133.267662184565
 10
85.35723603551834
 20
-133.2180528095774
 10
85.38686385669148
 20
-133.1036756394672
 10
85.38686385669148
 20
-133.0199598191756
 10
85.38686385669148
 20
-132.8938693244154
 10
85.28747285194203
 20
-132.7567545241025
 10
85.0547566519134
 20
-132.7567545241025
 10
84.79878605735934
 20
-132.7567545241025
 10
84.72902287378302
 20
-132.9186740119092
 10
84.72902287378302
 20
-133.0275390292431
 10
84.72902287378302
 20
-133.0561333217707
 10
84.72902287378302
 20
-133.1836018547249
 10
84.85804169970564
 20
-133.2638725795313
 10
84.85804169970564
 20
-133.2638725795313
 10
84.8389214197625
 20
-133.4220024623042
 10
84.8389214197625
 20
-133.4220024623042
 10
84.8389214197625
 20
-133.4220024623042
 10
83.99280596858513
 20
-133.3131374449703
 10
83.99280596858513
 20
-133.3131374449703
 10
83.99280596858513
 20
-133.3131374449703
 10
83.99280596858513
 20
-132.612060513722
 10
83.99280596858513
 20
-132.612060513722
 10
83.99280596858513
 20
-132.612060513722
 10
84.18745386350174
 20
-132.612060513722
 10
84.18745386350174
 20
-132.612060513722
 10
84.18745386350174
 20
-132.612060513722
 10
84.18745386350174
 20
-133.1663763772987
 10
84.18745386350174
 20
-133.1663763772987
 10
84.18745386350174
 20
-133.1663763772987
 10
84.61051158909044
 20
-133.225632019645
 10
84.61051158909044
 20
-133.225632019645
 10
84.57674965333499
 20
-133.1701659823325
 10
84.53644203615757
 20
-133.0960964293996
 10
84.53644203615757
 20
-132.9892984693568
 10
84.53644203615757
 20
-132.7605441291363
 10
84.72264944713531
 20
-132.5472927185993
 10
85.03580862674453
 20
-132.5472927185993
 10
85.35310192093604
 20
-132.5472927185993
 10
85.58788517825582
 20
-132.7491753140349
 10
85.58788517825582
 20
-133.0216823669182
 97
        0
 97
        0
 75
     2
 76
     1
 98
        0
  0
ENDBLK
  5
7C
330
79
100
AcDbEntity
  8
0
100
AcDbBlockEnd
  0
BLOCK
  5
9B
330
99
100
AcDbEntity
  8
0
100
AcDbBlockBegin
  2
block 4
 70
     0
 10
0.0
 20
0.0
 30
0.0
  3
block 4
  1

  0
SPLINE
  5
9D
330
99
100
AcDbEntity
  8
_U+30EC_U+30A4_U+30E4_U+30FC 1
370
     0
100
AcDbSpline
210
0.0
220
0.0
230
1.0
 70
    11
 71
     3
 72
    26
 73
    22
 74
     0
 42
0.0000000001
 43
0.0000000001
 12
1.0
 22
0.0
 32
0.0
 13
1.0
 23
0.0
 33
0.0
 40
0.0
 40
0.0
 40
0.0
 40
0.0
 40
1.0
 40
1.0
 40
1.0
 40
2.0
 40
2.0
 40
2.0
 40
3.0
 40
3.0
 40
3.0
 40
4.0
 40
4.0
 40
4.0
 40
5.0
 40
5.0
 40
5.0
 40
6.0
 40
6.0
 40
6.0
 40
7.0
 40
7.0
 40
7.0
 40
7.0
 10
94.28433971167198
 20
-120.9388712262757
 30
0.0
 10
94.28433971167198
 20
-120.9388712262757
 30
0.0
 10
94.28433971167198
 20
-119.8345458684789
 30
0.0
 10
94.28433971167198
 20
-119.8345458684789
 30
0.0
 10
94.28433971167198
 20
-119.8345458684789
 30
0.0
 10
93.95498858328209
 20
-119.8345458684789
 30
0.0
 10
93.95498858328209
 20
-119.8345458684789
 30
0.0
 10
93.95498858328209
 20
-119.8345458684789
 30
0.0
 10
93.95498858328209
 20
-119.6865790173874
 30
0.0
 10
93.95498858328209
 20
-119.6865790173874
 30
0.0
 10
94.28640676896312
 20
-119.6717651068008
 30
0.0
 10
94.332915558014
 20
-119.5088120903485
 30
0.0
 10
94.36219886963862
 20
-119.3946071750125
 30
0.0
 10
94.36219886963862
 20
-119.3946071750125
 30
0.0
 10
94.50792640866469
 20
-119.3946071750125
 30
0.0
 10
94.50792640866469
 20
-119.3946071750125
 30
0.0
 10
94.50792640866469
 20
-119.3946071750125
 30
0.0
 10
94.50792640866469
 20
-120.9388712262757
 30
0.0
 10
94.50792640866469
 20
-120.9388712262757
 30
0.0
 10
94.50792640866469
 20
-120.9388712262757
 30
0.0
 10
94.28433971167198
 20
-120.9388712262757
 30
0.0
 10
94.28433971167198
 20
-120.9388712262757
 30
0.0
  0
HATCH
  5
9E
330
99
100
AcDbEntity
  8
_U+30EC_U+30A4_U+30E4_U+30FC 1
 62
   179
420
  2234388
100
AcDbHatch
 10
0.0
 20
0.0
 30
0.0
210
0.0
220
0.0
230
1.0
  2
SOLID
 70
     1
 71
     0
 91
        1
 92
        1
 93
        1
 72
     4
 94
        3
 73
     0
 74
     1
 95
       26
 96
       22
 40
0.0
 40
0.0
 40
0.0
 40
0.0
 40
1.0
 40
1.0
 40
1.0
 40
2.0
 40
2.0
 40
2.0
 40
3.0
 40
3.0
 40
3.0
 40
4.0
 40
4.0
 40
4.0
 40
5.0
 40
5.0
 40
5.0
 40
6.0
 40
6.0
 40
6.0
 40
7.0
 40
7.0
 40
7.0
 40
7.0
 10
94.28433971167198
 20
-120.9388712262757
 10
94.28433971167198
 20
-120.9388712262757
 10
94.28433971167198
 20
-119.8345458684789
 10
94.28433971167198
 20
-119.8345458684789
 10
94.28433971167198
 20
-119.8345458684789
 10
93.95498858328209
 20
-119.8345458684789
 10
93.95498858328209
 20
-119.8345458684789
 10
93.95498858328209
 20
-119.8345458684789
 10
93.95498858328209
 20
-119.6865790173874
 10
93.95498858328209
 20
-119.6865790173874
 10
94.28640676896312
 20
-119.6717651068008
 10
94.332915558014
 20
-119.5088120903485
 10
94.36219886963862
 20
-119.3946071750125
 10
94.36219886963862
 20
-119.3946071750125
 10
94.50792640866469
 20
-119.3946071750125
 10
94.50792640866469
 20
-119.3946071750125
 10
94.50792640866469
 20
-119.3946071750125
 10
94.50792640866469
 20
-120.9388712262757
 10
94.50792640866469
 20
-120.9388712262757
 10
94.50792640866469
 20
-120.9388712262757
 10
94.28433971167198
 20
-120.9388712262757
 10
94.28433971167198
 20
-120.9388712262757
 97
        0
 97
        0
 75
     2
 76
     1
 98
        0
  0
SPLINE
  5
9F
330
99
100
AcDbEntity
  8
_U+30EC_U+30A4_U+30E4_U+30FC 1
370
     0
100
AcDbSpline
210
0.0
220
0.0
230
1.0
 70
    11
 71
     3
 72
    62
 73
    58
 74
     0
 42
0.0000000001
 43
0.0000000001
 12
1.0
 22
0.0
 32
0.0
 13
1.0
 23
0.0
 33
0.0
 40
0.0
 40
0.0
 40
0.0
 40
0.0
 40
1.0
 40
1.0
 40
1.0
 40
2.0
 40
2.0
 40
2.0
 40
3.0
 40
3.0
 40
3.0
 40
4.0
 40
4.0
 40
4.0
 40
5.0
 40
5.0
 40
5.0
 40
6.0
 40
6.0
 40
6.0
 40
7.0
 40
7.0
 40
7.0
 40
8.0
 40
8.0
 40
8.0
 40
9.0
 40
9.0
 40
9.0
 40
10.0
 40
10.0
 40
10.0
 40
11.0
 40
11.0
 40
11.0
 40
12.0
 40
12.0
 40
12.0
 40
13.0
 40
13.0
 40
13.0
 40
14.0
 40
14.0
 40
14.0
 40
15.0
 40
15.0
 40
15.0
 40
16.0
 40
16.0
 40
16.0
 40
17.0
 40
17.0
 40
17.0
 40
18.0
 40
18.0
 40
18.0
 40
19.0
 40
19.0
 40
19.0
 40
19.0
 10
95.49666881293139
 20
-120.9896863846831
 30
0.0
 10
95.4015841775385
 20
-120.9896863846831
 30
0.0
 10
95.18419865241923
 20
-120.9684990474489
 30
0.0
 10
95.05983070540171
 20
-120.7822916364711
 30
0.0
 10
94.98610566201737
 20
-120.6701537784262
 30
0.0
 10
94.98162703788654
 20
-120.5707627736768
 30
0.0
 10
94.97749292330424
 20
-120.4861856795139
 30
0.0
 10
94.97749292330424
 20
-120.4861856795139
 30
0.0
 10
95.19694550571465
 20
-120.4861856795139
 30
0.0
 10
95.19694550571465
 20
-120.4861856795139
 30
0.0
 10
95.19901256300581
 20
-120.5602552324467
 30
0.0
 10
95.20969235901008
 20
-120.7950384897665
 30
0.0
 10
95.49253469834909
 20
-120.7950384897665
 30
0.0
 10
95.62964949866203
 20
-120.7950384897665
 30
0.0
 10
95.78157820956156
 20
-120.7252753061902
 30
0.0
 10
95.78157820956156
 20
-120.4966932207439
 30
0.0
 10
95.78157820956156
 20
-120.3804212481167
 30
0.0
 10
95.74333764967528
 20
-120.3316731470004
 30
0.0
 10
95.71164277121099
 20
-120.2999782685361
 30
0.0
 10
95.63791772782663
 20
-120.2259087156033
 30
0.0
 10
95.52181800997371
 20
-120.2133341170821
 30
0.0
 10
95.46704099175824
 20
-120.2133341170821
 30
0.0
 10
95.44809296658937
 20
-120.2133341170821
 30
0.0
 10
95.41226397354278
 20
-120.2154011743732
 30
0.0
 10
95.38470320966077
 20
-120.2197075437298
 30
0.0
 10
95.38470320966077
 20
-120.2197075437298
 30
0.0
 10
95.38470320966077
 20
-120.0250596488132
 30
0.0
 10
95.38470320966077
 20
-120.0250596488132
 30
0.0
 10
95.42259925999852
 20
-120.0314330754609
 30
0.0
 10
95.4649739344671
 20
-120.0335001327521
 30
0.0
 10
95.47117510634054
 20
-120.0335001327521
 30
0.0
 10
95.5366319205603
 20
-120.0335001327521
 30
0.0
 10
95.73506942051068
 20
-120.0123127955178
 30
0.0
 10
95.73506942051068
 20
-119.7752902261326
 30
0.0
 10
95.73506942051068
 20
-119.5976955538679
 30
0.0
 10
95.60415579207118
 20
-119.5427462808782
 30
0.0
 10
95.49460175564025
 20
-119.5427462808782
 30
0.0
 10
95.2307074414701
 20
-119.5427462808782
 30
0.0
 10
95.2224392123055
 20
-119.7752902261326
 30
0.0
 10
95.21796058817468
 20
-119.8472927217743
 30
0.0
 10
95.21796058817468
 20
-119.8472927217743
 30
0.0
 10
95.01538897364199
 20
-119.8472927217743
 30
0.0
 10
95.01538897364199
 20
-119.8472927217743
 30
0.0
 10
95.02400171235512
 20
-119.722408010434
 30
0.0
 10
95.05121796668858
 20
-119.3458590738962
 30
0.0
 10
95.50700409938715
 20
-119.3458590738962
 30
0.0
 10
95.73093530592838
 20
-119.3458590738962
 30
0.0
 10
95.97140297079882
 20
-119.4728108425276
 30
0.0
 10
95.97140297079882
 20
-119.7690890542591
 30
0.0
 10
95.97140297079882
 20
-119.9551242104626
 30
0.0
 10
95.87631833540593
 20
-120.0376342473344
 30
0.0
 10
95.77709958543073
 20
-120.0991292017461
 30
0.0
 10
95.83842228506818
 20
-120.1265177108538
 30
0.0
 10
96.01997881714084
 20
-120.2069606904344
 30
0.0
 10
96.01997881714084
 20
-120.4841186222227
 30
0.0
 10
96.01997881714084
 20
-120.8225992536485
 30
0.0
 10
95.77296547084843
 20
-120.9896863846831
 30
0.0
 10
95.49666881293139
 20
-120.9896863846831
 30
0.0
  0
HATCH
  5
A0
330
99
100
AcDbEntity
  8
_U+30EC_U+30A4_U+30E4_U+30FC 1
 62
   179
420
  2234388
100
AcDbHatch
 10
0.0
 20
0.0
 30
0.0
210
0.0
220
0.0
230
1.0
  2
SOLID
 70
     1
 71
     0
 91
        1
 92
        1
 93
        1
 72
     4
 94
        3
 73
     0
 74
     1
 95
       62
 96
       58
 40
0.0
 40
0.0
 40
0.0
 40
0.0
 40
1.0
 40
1.0
 40
1.0
 40
2.0
 40
2.0
 40
2.0
 40
3.0
 40
3.0
 40
3.0
 40
4.0
 40
4.0
 40
4.0
 40
5.0
 40
5.0
 40
5.0
 40
6.0
 40
6.0
 40
6.0
 40
7.0
 40
7.0
 40
7.0
 40
8.0
 40
8.0
 40
8.0
 40
9.0
 40
9.0
 40
9.0
 40
10.0
 40
10.0
 40
10.0
 40
11.0
 40
11.0
 40
11.0
 40
12.0
 40
12.0
 40
12.0
 40
13.0
 40
13.0
 40
13.0
 40
14.0
 40
14.0
 40
14.0
 40
15.0
 40
15.0
 40
15.0
 40
16.0
 40
16.0
 40
16.0
 40
17.0
 40
17.0
 40
17.0
 40
18.0
 40
18.0
 40
18.0
 40
19.0
 40
19.0
 40
19.0
 40
19.0
 10
95.49666881293139
 20
-120.9896863846831
 10
95.4015841775385
 20
-120.9896863846831
 10
95.18419865241923
 20
-120.9684990474489
 10
95.05983070540171
 20
-120.7822916364711
 10
94.98610566201737
 20
-120.6701537784262
 10
94.98162703788654
 20
-120.5707627736768
 10
94.97749292330424
 20
-120.4861856795139
 10
94.97749292330424
 20
-120.4861856795139
 10
95.19694550571465
 20
-120.4861856795139
 10
95.19694550571465
 20
-120.4861856795139
 10
95.19901256300581
 20
-120.5602552324467
 10
95.20969235901008
 20
-120.7950384897665
 10
95.49253469834909
 20
-120.7950384897665
 10
95.62964949866203
 20
-120.7950384897665
 10
95.78157820956156
 20
-120.7252753061902
 10
95.78157820956156
 20
-120.4966932207439
 10
95.78157820956156
 20
-120.3804212481167
 10
95.74333764967528
 20
-120.3316731470004
 10
95.71164277121099
 20
-120.2999782685361
 10
95.63791772782663
 20
-120.2259087156033
 10
95.52181800997371
 20
-120.2133341170821
 10
95.46704099175824
 20
-120.2133341170821
 10
95.44809296658937
 20
-120.2133341170821
 10
95.41226397354278
 20
-120.2154011743732
 10
95.38470320966077
 20
-120.2197075437298
 10
95.38470320966077
 20
-120.2197075437298
 10
95.38470320966077
 20
-120.0250596488132
 10
95.38470320966077
 20
-120.0250596488132
 10
95.42259925999852
 20
-120.0314330754609
 10
95.4649739344671
 20
-120.0335001327521
 10
95.47117510634054
 20
-120.0335001327521
 10
95.5366319205603
 20
-120.0335001327521
 10
95.73506942051068
 20
-120.0123127955178
 10
95.73506942051068
 20
-119.7752902261326
 10
95.73506942051068
 20
-119.5976955538679
 10
95.60415579207118
 20
-119.5427462808782
 10
95.49460175564025
 20
-119.5427462808782
 10
95.2307074414701
 20
-119.5427462808782
 10
95.2224392123055
 20
-119.7752902261326
 10
95.21796058817468
 20
-119.8472927217743
 10
95.21796058817468
 20
-119.8472927217743
 10
95.01538897364199
 20
-119.8472927217743
 10
95.01538897364199
 20
-119.8472927217743
 10
95.02400171235512
 20
-119.722408010434
 10
95.05121796668858
 20
-119.3458590738962
 10
95.50700409938715
 20
-119.3458590738962
 10
95.73093530592838
 20
-119.3458590738962
 10
95.97140297079882
 20
-119.4728108425276
 10
95.97140297079882
 20
-119.7690890542591
 10
95.97140297079882
 20
-119.9551242104626
 10
95.87631833540593
 20
-120.0376342473344
 10
95.77709958543073
 20
-120.0991292017461
 10
95.83842228506818
 20
-120.1265177108538
 10
96.01997881714084
 20
-120.2069606904344
 10
96.01997881714084
 20
-120.4841186222227
 10
96.01997881714084
 20
-120.8225992536485
 10
95.77296547084843
 20
-120.9896863846831
 10
95.49666881293139
 20
-120.9896863846831
 97
        0
 97
        0
 75
     2
 76
     1
 98
        0
  0
ENDBLK
  5
9C
330
99
100
AcDbEntity
  8
0
100
AcDbBlockEnd
  0
BLOCK
  5
B2
330
B0
100
AcDbEntity
  8
0
100
AcDbBlockBegin
  2
block 5
 70
     0
 10
0.0
 20
0.0
 30
0.0
  3
block 5
  1

  0
SPLINE
  5
B4
330
B0
100
AcDbEntity
  8
_U+30EC_U+30A4_U+30E4_U+30FC 1
370
     0
100
AcDbSpline
210
0.0
220
0.0
230
1.0
 70
    11
 71
     3
 72
    32
 73
    28
 74
     0
 42
0.0000000001
 43
0.0000000001
 12
1.0
 22
0.0
 32
0.0
 13
1.0
 23
0.0
 33
0.0
 40
0.0
 40
0.0
 40
0.0
 40
0.0
 40
1.0
 40
1.0
 40
1.0
 40
2.0
 40
2.0
 40
2.0
 40
3.0
 40
3.0
 40
3.0
 40
4.0
 40
4.0
 40
4.0
 40
5.0
 40
5.0
 40
5.0
 40
6.0
 40
6.0
 40
6.0
 40
7.0
 40
7.0
 40
7.0
 40
8.0
 40
8.0
 40
8.0
 40
9.0
 40
9.0
 40
9.0
 40
9.0
 10
94.02733558847234
 20
-137.3263291757379
 30
0.0
 10
93.85404728556426
 20
-137.3263291757379
 30
0.0
 10
93.60944550611153
 20
-137.2563937373873
 30
0.0
 10
93.57154945577378
 20
-136.9242865326092
 30
0.0
 10
93.57154945577378
 20
-136.9242865326092
 30
0.0
 10
93.78445635676222
 20
-136.9242865326092
 30
0.0
 10
93.78445635676222
 20
-136.9242865326092
 30
0.0
 10
93.7951361527665
 20
-136.9835421749555
 30
0.0
 10
93.8268310312308
 20
-137.1316812808213
 30
0.0
 10
94.02940264576348
 20
-137.1316812808213
 30
0.0
 10
94.3205132142671
 20
-137.1316812808213
 30
0.0
 10
94.35840926460484
 20
-136.8016411333343
 30
0.0
 10
94.37115611790027
 20
-136.5963134424134
 30
0.0
 10
94.2805501066382
 20
-136.6769286767683
 30
0.0
 10
94.2130262351273
 20
-136.7341172618234
 30
0.0
 10
94.03146970305464
 20
-136.7341172618234
 30
0.0
 10
93.85198022827312
 20
-136.7341172618234
 30
0.0
 10
93.55018986376524
 20
-136.6283528304263
 30
0.0
 10
93.55018986376524
 20
-136.2221760727153
 30
0.0
 10
93.55018986376524
 20
-135.9024712116841
 30
0.0
 10
93.74862736371563
 20
-135.6826741197252
 30
0.0
 10
94.06523163881009
 20
-135.6826741197252
 30
0.0
 10
94.57786184701526
 20
-135.6826741197252
 30
0.0
 10
94.58854164301954
 20
-136.2369899833019
 30
0.0
 10
94.58854164301954
 20
-136.4505859033873
 30
0.0
 10
94.58854164301954
 20
-136.6810627913506
 30
0.0
 10
94.56959361785066
 20
-137.3263291757379
 30
0.0
 10
94.02733558847234
 20
-137.3263291757379
 30
0.0
  0
SPLINE
  5
B5
330
B0
100
AcDbEntity
  8
_U+30EC_U+30A4_U+30E4_U+30FC 1
370
     0
100
AcDbSpline
210
0.0
220
0.0
230
1.0
 70
    11
 71
     3
 72
    17
 73
    13
 74
     0
 42
0.0000000001
 43
0.0000000001
 12
1.0
 22
0.0
 32
0.0
 13
1.0
 23
0.0
 33
0.0
 40
0.0
 40
0.0
 40
0.0
 40
0.0
 40
1.0
 40
1.0
 40
1.0
 40
2.0
 40
2.0
 40
2.0
 40
3.0
 40
3.0
 40
3.0
 40
4.0
 40
4.0
 40
4.0
 40
4.0
 10
94.06729869610123
 20
-135.8752549573506
 30
0.0
 10
93.94913192095717
 20
-135.8752549573506
 30
0.0
 10
93.77412107030648
 20
-135.9320990328573
 30
0.0
 10
93.77412107030648
 20
-136.2176974485845
 30
0.0
 10
93.77412107030648
 20
-136.4440402219654
 30
0.0
 10
93.91330292791056
 20
-136.5394693669068
 30
0.0
 10
94.04835067093236
 20
-136.5394693669068
 30
0.0
 10
94.30983341826283
 20
-136.5394693669068
 30
0.0
 10
94.3480739781491
 20
-136.3300075614036
 30
0.0
 10
94.3480739781491
 20
-136.2135633340022
 30
0.0
 10
94.3480739781491
 20
-136.0378634642544
 30
0.0
 10
94.2529893427562
 20
-135.8752549573506
 30
0.0
 10
94.06729869610123
 20
-135.8752549573506
 30
0.0
  0
HATCH
  5
B6
330
B0
100
AcDbEntity
  8
_U+30EC_U+30A4_U+30E4_U+30FC 1
 62
   179
420
  2234388
100
AcDbHatch
 10
0.0
 20
0.0
 30
0.0
210
0.0
220
0.0
230
1.0
  2
SOLID
 70
     1
 71
     0
 91
        2
 92
        1
 93
        1
 72
     4
 94
        3
 73
     0
 74
     1
 95
       32
 96
       28
 40
0.0
 40
0.0
 40
0.0
 40
0.0
 40
1.0
 40
1.0
 40
1.0
 40
2.0
 40
2.0
 40
2.0
 40
3.0
 40
3.0
 40
3.0
 40
4.0
 40
4.0
 40
4.0
 40
5.0
 40
5.0
 40
5.0
 40
6.0
 40
6.0
 40
6.0
 40
7.0
 40
7.0
 40
7.0
 40
8.0
 40
8.0
 40
8.0
 40
9.0
 40
9.0
 40
9.0
 40
9.0
 10
94.02733558847234
 20
-137.3263291757379
 10
93.85404728556426
 20
-137.3263291757379
 10
93.60944550611153
 20
-137.2563937373873
 10
93.57154945577378
 20
-136.9242865326092
 10
93.57154945577378
 20
-136.9242865326092
 10
93.78445635676222
 20
-136.9242865326092
 10
93.78445635676222
 20
-136.9242865326092
 10
93.7951361527665
 20
-136.9835421749555
 10
93.8268310312308
 20
-137.1316812808213
 10
94.02940264576348
 20
-137.1316812808213
 10
94.3205132142671
 20
-137.1316812808213
 10
94.35840926460484
 20
-136.8016411333343
 10
94.37115611790027
 20
-136.5963134424134
 10
94.2805501066382
 20
-136.6769286767683
 10
94.2130262351273
 20
-136.7341172618234
 10
94.03146970305464
 20
-136.7341172618234
 10
93.85198022827312
 20
-136.7341172618234
 10
93.55018986376524
 20
-136.6283528304263
 10
93.55018986376524
 20
-136.2221760727153
 10
93.55018986376524
 20
-135.9024712116841
 10
93.74862736371563
 20
-135.6826741197252
 10
94.06523163881009
 20
-135.6826741197252
 10
94.57786184701526
 20
-135.6826741197252
 10
94.58854164301954
 20
-136.2369899833019
 10
94.58854164301954
 20
-136.4505859033873
 10
94.58854164301954
 20
-136.6810627913506
 10
94.56959361785066
 20
-137.3263291757379
 10
94.02733558847234
 20
-137.3263291757379
 97
        0
 97
        0
 92
        1
 93
        1
 72
     4
 94
        3
 73
     0
 74
     1
 95
       17
 96
       13
 40
0.0
 40
0.0
 40
0.0
 40
0.0
 40
1.0
 40
1.0
 40
1.0
 40
2.0
 40
2.0
 40
2.0
 40
3.0
 40
3.0
 40
3.0
 40
4.0
 40
4.0
 40
4.0
 40
4.0
 10
94.06729869610123
 20
-135.8752549573506
 10
93.94913192095717
 20
-135.8752549573506
 10
93.77412107030648
 20
-135.9320990328573
 10
93.77412107030648
 20
-136.2176974485845
 10
93.77412107030648
 20
-136.4440402219654
 10
93.91330292791056
 20
-136.5394693669068
 10
94.04835067093236
 20
-136.5394693669068
 10
94.30983341826283
 20
-136.5394693669068
 10
94.3480739781491
 20
-136.3300075614036
 10
94.3480739781491
 20
-136.2135633340022
 10
94.3480739781491
 20
-136.0378634642544
 10
94.2529893427562
 20
-135.8752549573506
 10
94.06729869610123
 20
-135.8752549573506
 97
        0
 97
        0
 75
     2
 76
     1
 98
        0
  0
POLYLINE
  5
B7
330
B0
100
AcDbEntity
  8
_U+30EC_U+30A4_U+30E4_U+30FC 1
370
     0
100
AcDb2dPolyline
 66
     1
 10
0.0
 20
0.0
 30
0.0
  0
VERTEX
  5
B8
330
B7
100
AcDbEntity
  8
_U+30EC_U+30A4_U+30E4_U+30FC 1
370
     0
100
AcDbVertex
100
AcDb2dVertex
 10
94.80282658220207
 20
-137.2756862721047
 30
0.0
  0
VERTEX
  5
B9
330
B7
100
AcDbEntity
  8
_U+30EC_U+30A4_U+30E4_U+30FC 1
370
     0
100
AcDbVertex
100
AcDb2dVertex
 10
94.80282658220207
 20
-137.0238497921329
 30
0.0
  0
VERTEX
  5
BA
330
B7
100
AcDbEntity
  8
_U+30EC_U+30A4_U+30E4_U+30FC 1
370
     0
100
AcDbVertex
100
AcDb2dVertex
 10
95.05397404307679
 20
-137.0238497921329
 30
0.0
  0
VERTEX
  5
BB
330
B7
100
AcDbEntity
  8
_U+30EC_U+30A4_U+30E4_U+30FC 1
370
     0
100
AcDbVertex
100
AcDb2dVertex
 10
95.05397404307679
 20
-137.2756862721047
 30
0.0
  0
VERTEX
  5
BC
330
B7
100
AcDbEntity
  8
_U+30EC_U+30A4_U+30E4_U+30FC 1
370
     0
100
AcDbVertex
100
AcDb2dVertex
 10
94.80282658220207
 20
-137.2756862721047
 30
0.0
  0
SEQEND
  5
BD
330
B7
100
AcDbEntity
  8
_U+30EC_U+30A4_U+30E4_U+30FC 1
370
     0
  0
HATCH
  5
BE
330
B0
100
AcDbEntity
  8
_U+30EC_U+30A4_U+30E4_U+30FC 1
 62
   179
420
  2234388
100
AcDbHatch
 10
0.0
 20
0.0
 30
0.0
210
0.0
220
0.0
230
1.0
  2
SOLID
 70
     1
 71
     0
 91
        1
 92
        1
 93
        4
 72
     1
 10
94.80282658220207
 20
-137.2756862721047
 11
94.80282658220207
 21
-137.0238497921329
 72
     1
 10
94.80282658220207
 20
-137.0238497921329
 11
95.05397404307679
 21
-137.0238497921329
 72
     1
 10
95.05397404307679
 20
-137.0238497921329
 11
95.05397404307679
 21
-137.2756862721047
 72
     1
 10
95.05397404307679
 20
-137.2756862721047
 11
94.80282658220207
 21
-137.2756862721047
 97
        0
 75
     2
 76
     1
 98
        0
  0
SPLINE
  5
BF
330
B0
100
AcDbEntity
  8
_U+30EC_U+30A4_U+30E4_U+30FC 1
370
     0
100
AcDbSpline
210
0.0
220
0.0
230
1.0
 70
    11
 71
     3
 72
    29
 73
    25
 74
     0
 42
0.0000000001
 43
0.0000000001
 12
1.0
 22
0.0
 32
0.0
 13
1.0
 23
0.0
 33
0.0
 40
0.0
 40
0.0
 40
0.0
 40
0.0
 40
1.0
 40
1.0
 40
1.0
 40
2.0
 40
2.0
 40
2.0
 40
3.0
 40
3.0
 40
3.0
 40
4.0
 40
4.0
 40
4.0
 40
5.0
 40
5.0
 40
5.0
 40
6.0
 40
6.0
 40
6.0
 40
7.0
 40
7.0
 40
7.0
 40
8.0
 40
8.0
 40
8.0
 40
8.0
 10
95.787779381435
 20
-137.3263291757379
 30
0.0
 10
95.52181800997371
 20
-137.3263291757379
 30
0.0
 10
95.26860349180785
 20
-137.1888698658764
 30
0.0
 10
95.26860349180785
 20
-136.8398816932206
 30
0.0
 10
95.26860349180785
 20
-136.5839110986665
 30
0.0
 10
95.4098524067031
 20
-136.4884819537251
 30
0.0
 10
95.51561683810027
 20
-136.4271592540877
 30
0.0
 10
95.39090438153423
 20
-136.3679036117414
 30
0.0
 10
95.31511228085873
 20
-136.2538709511796
 30
0.0
 10
95.31511228085873
 20
-136.0929849920184
 30
0.0
 10
95.31511228085873
 20
-135.8180663722955
 30
0.0
 10
95.51320527126059
 20
-135.6826741197252
 30
0.0
 10
95.787779381435
 20
-135.6826741197252
 30
0.0
 10
96.07027721122549
 20
-135.6826741197252
 30
0.0
 10
96.26044648201128
 20
-135.8263346014601
 30
0.0
 10
96.26044648201128
 20
-136.0929849920184
 30
0.0
 10
96.26044648201128
 20
-136.2538709511796
 30
0.0
 10
96.1822428144961
 20
-136.3679036117414
 30
0.0
 10
96.05787486747859
 20
-136.4271592540877
 30
0.0
 10
96.14641382144951
 20
-136.4781466672694
 30
0.0
 10
96.30454370422248
 20
-136.5732313026623
 30
0.0
 10
96.30454370422248
 20
-136.8354030690898
 30
0.0
 10
96.30454370422248
 20
-137.2098849483364
 30
0.0
 10
96.0261799890143
 20
-137.3263291757379
 30
0.0
 10
95.787779381435
 20
-137.3263291757379
 30
0.0
  0
SPLINE
  5
C0
330
B0
100
AcDbEntity
  8
_U+30EC_U+30A4_U+30E4_U+30FC 1
370
     0
100
AcDbSpline
210
0.0
220
0.0
230
1.0
 70
    11
 71
     3
 72
    17
 73
    13
 74
     0
 42
0.0000000001
 43
0.0000000001
 12
1.0
 22
0.0
 32
0.0
 13
1.0
 23
0.0
 33
0.0
 40
0.0
 40
0.0
 40
0.0
 40
0.0
 40
1.0
 40
1.0
 40
1.0
 40
2.0
 40
2.0
 40
2.0
 40
3.0
 40
3.0
 40
3.0
 40
4.0
 40
4.0
 40
4.0
 40
4.0
 10
95.787779381435
 20
-136.534990742776
 30
0.0
 10
95.64411889970009
 20
-136.534990742776
 30
0.0
 10
95.49219018880056
 20
-136.6218071490043
 30
0.0
 10
95.49219018880056
 20
-136.825067782634
 30
0.0
 10
95.49219018880056
 20
-137.0300509640064
 30
0.0
 10
95.61896970265776
 20
-137.1316812808213
 30
0.0
 10
95.787779381435
 20
-137.1316812808213
 30
0.0
 10
95.97347002808998
 20
-137.1316812808213
 30
0.0
 10
96.08302406452091
 20
-137.0090358815464
 30
0.0
 10
96.08302406452091
 20
-136.8312689545075
 30
0.0
 10
96.08302406452091
 20
-136.6090602957088
 30
0.0
 10
95.92076006716565
 20
-136.534990742776
 30
0.0
 10
95.787779381435
 20
-136.534990742776
 30
0.0
  0
SPLINE
  5
C1
330
B0
100
AcDbEntity
  8
_U+30EC_U+30A4_U+30E4_U+30FC 1
370
     0
100
AcDbSpline
210
0.0
220
0.0
230
1.0
 70
    11
 71
     3
 72
    17
 73
    13
 74
     0
 42
0.0000000001
 43
0.0000000001
 12
1.0
 22
0.0
 32
0.0
 13
1.0
 23
0.0
 33
0.0
 40
0.0
 40
0.0
 40
0.0
 40
0.0
 40
1.0
 40
1.0
 40
1.0
 40
2.0
 40
2.0
 40
2.0
 40
3.0
 40
3.0
 40
3.0
 40
4.0
 40
4.0
 40
4.0
 40
4.0
 10
95.787779381435
 20
-135.8752549573506
 30
0.0
 10
95.62310381724006
 20
-135.8752549573506
 30
0.0
 10
95.53869897785144
 20
-135.9703395927435
 30
0.0
 10
95.53869897785144
 20
-136.1057318453138
 30
0.0
 10
95.53869897785144
 20
-136.2283772445888
 30
0.0
 10
95.61035696394464
 20
-136.3468885292813
 30
0.0
 10
95.787779381435
 20
-136.3468885292813
 30
0.0
 10
95.96485728937685
 20
-136.3468885292813
 30
0.0
 10
96.03651527547004
 20
-136.2283772445888
 30
0.0
 10
96.03651527547004
 20
-136.1057318453138
 30
0.0
 10
96.03651527547004
 20
-135.9703395927435
 30
0.0
 10
95.95004337879027
 20
-135.8752549573506
 30
0.0
 10
95.787779381435
 20
-135.8752549573506
 30
0.0
  0
HATCH
  5
C2
330
B0
100
AcDbEntity
  8
_U+30EC_U+30A4_U+30E4_U+30FC 1
 62
   179
420
  2234388
100
AcDbHatch
 10
0.0
 20
0.0
 30
0.0
210
0.0
220
0.0
230
1.0
  2
SOLID
 70
     1
 71
     0
 91
        3
 92
        1
 93
        1
 72
     4
 94
        3
 73
     0
 74
     1
 95
       29
 96
       25
 40
0.0
 40
0.0
 40
0.0
 40
0.0
 40
1.0
 40
1.0
 40
1.0
 40
2.0
 40
2.0
 40
2.0
 40
3.0
 40
3.0
 40
3.0
 40
4.0
 40
4.0
 40
4.0
 40
5.0
 40
5.0
 40
5.0
 40
6.0
 40
6.0
 40
6.0
 40
7.0
 40
7.0
 40
7.0
 40
8.0
 40
8.0
 40
8.0
 40
8.0
 10
95.787779381435
 20
-137.3263291757379
 10
95.52181800997371
 20
-137.3263291757379
 10
95.26860349180785
 20
-137.1888698658764
 10
95.26860349180785
 20
-136.8398816932206
 10
95.26860349180785
 20
-136.5839110986665
 10
95.4098524067031
 20
-136.4884819537251
 10
95.51561683810027
 20
-136.4271592540877
 10
95.39090438153423
 20
-136.3679036117414
 10
95.31511228085873
 20
-136.2538709511796
 10
95.31511228085873
 20
-136.0929849920184
 10
95.31511228085873
 20
-135.8180663722955
 10
95.51320527126059
 20
-135.6826741197252
 10
95.787779381435
 20
-135.6826741197252
 10
96.07027721122549
 20
-135.6826741197252
 10
96.26044648201128
 20
-135.8263346014601
 10
96.26044648201128
 20
-136.0929849920184
 10
96.26044648201128
 20
-136.2538709511796
 10
96.1822428144961
 20
-136.3679036117414
 10
96.05787486747859
 20
-136.4271592540877
 10
96.14641382144951
 20
-136.4781466672694
 10
96.30454370422248
 20
-136.5732313026623
 10
96.30454370422248
 20
-136.8354030690898
 10
96.30454370422248
 20
-137.2098849483364
 10
96.0261799890143
 20
-137.3263291757379
 10
95.787779381435
 20
-137.3263291757379
 97
        0
 97
        0
 92
        1
 93
        1
 72
     4
 94
        3
 73
     0
 74
     1
 95
       17
 96
       13
 40
0.0
 40
0.0
 40
0.0
 40
0.0
 40
1.0
 40
1.0
 40
1.0
 40
2.0
 40
2.0
 40
2.0
 40
3.0
 40
3.0
 40
3.0
 40
4.0
 40
4.0
 40
4.0
 40
4.0
 10
95.787779381435
 20
-136.534990742776
 10
95.64411889970009
 20
-136.534990742776
 10
95.49219018880056
 20
-136.6218071490043
 10
95.49219018880056
 20
-136.825067782634
 10
95.49219018880056
 20
-137.0300509640064
 10
95.61896970265776
 20
-137.1316812808213
 10
95.787779381435
 20
-137.1316812808213
 10
95.97347002808998
 20
-137.1316812808213
 10
96.08302406452091
 20
-137.0090358815464
 10
96.08302406452091
 20
-136.8312689545075
 10
96.08302406452091
 20
-136.6090602957088
 10
95.92076006716565
 20
-136.534990742776
 10
95.787779381435
 20
-136.534990742776
 97
        0
 97
        0
 92
        1
 93
        1
 72
     4
 94
        3
 73
     0
 74
     1
 95
       17
 96
       13
 40
0.0
 40
0.0
 40
0.0
 40
0.0
 40
1.0
 40
1.0
 40
1.0
 40
2.0
 40
2.0
 40
2.0
 40
3.0
 40
3.0
 40
3.0
 40
4.0
 40
4.0
 40
4.0
 40
4.0
 10
95.787779381435
 20
-135.8752549573506
 10
95.62310381724006
 20
-135.8752549573506
 10
95.53869897785144
 20
-135.9703395927435
 10
95.53869897785144
 20
-136.1057318453138
 10
95.53869897785144
 20
-136.2283772445888
 10
95.61035696394464
 20
-136.3468885292813
 10
95.787779381435
 20
-136.3468885292813
 10
95.96485728937685
 20
-136.3468885292813
 10
96.03651527547004
 20
-136.2283772445888
 10
96.03651527547004
 20
-136.1057318453138
 10
96.03651527547004
 20
-135.9703395927435
 10
95.95004337879027
 20
-135.8752549573506
 10
95.787779381435
 20
-135.8752549573506
 97
        0
 97
        0
 75
     2
 76
     1
 98
        0
  0
ENDBLK
  5
B3
330
B0
100
AcDbEntity
  8
0
100
AcDbBlockEnd
  0
BLOCK
  5
CF
330
CD
100
AcDbEntity
  8
0
100
AcDbBlockBegin
  2
block 6
 70
     0
 10
0.0
 20
0.0
 30
0.0
  3
block 6
  1

  0
POLYLINE
  5
D1
330
CD
100
AcDbEntity
  8
_U+30EC_U+30A4_U+30E4_U+30FC 1
370
     0
100
AcDb2dPolyline
 66
     1
 10
0.0
 20
0.0
 30
0.0
  0
VERTEX
  5
D2
330
D1
100
AcDbEntity
  8
_U+30EC_U+30A4_U+30E4_U+30FC 1
370
     0
100
AcDbVertex
100
AcDb2dVertex
 10
82.2754258691881
 20
-126.6639309036639
 30
0.0
  0
VERTEX
  5
D3
330
D1
100
AcDbEntity
  8
_U+30EC_U+30A4_U+30E4_U+30FC 1
370
     0
100
AcDbVertex
100
AcDb2dVertex
 10
82.62234698455275
 20
-126.6639309036639
 30
0.0
  0
VERTEX
  5
D4
330
D1
100
AcDbEntity
  8
_U+30EC_U+30A4_U+30E4_U+30FC 1
370
     0
100
AcDbVertex
100
AcDb2dVertex
 10
82.62234698455275
 20
-126.8813164287832
 30
0.0
  0
VERTEX
  5
D5
330
D1
100
AcDbEntity
  8
_U+30EC_U+30A4_U+30E4_U+30FC 1
370
     0
100
AcDbVertex
100
AcDb2dVertex
 10
82.2754258691881
 20
-126.8813164287832
 30
0.0
  0
VERTEX
  5
D6
330
D1
100
AcDbEntity
  8
_U+30EC_U+30A4_U+30E4_U+30FC 1
370
     0
100
AcDbVertex
100
AcDb2dVertex
 10
82.2754258691881
 20
-127.5353678066578
 30
0.0
  0
VERTEX
  5
D7
330
D1
100
AcDbEntity
  8
_U+30EC_U+30A4_U+30E4_U+30FC 1
370
     0
100
AcDbVertex
100
AcDb2dVertex
 10
82.05115015309833
 20
-127.5353678066578
 30
0.0
  0
VERTEX
  5
D8
330
D1
100
AcDbEntity
  8
_U+30EC_U+30A4_U+30E4_U+30FC 1
370
     0
100
AcDbVertex
100
AcDb2dVertex
 10
81.07791067851525
 20
-126.8580620342577
 30
0.0
  0
VERTEX
  5
D9
330
D1
100
AcDbEntity
  8
_U+30EC_U+30A4_U+30E4_U+30FC 1
370
     0
100
AcDbVertex
100
AcDb2dVertex
 10
81.07791067851525
 20
-126.6639309036639
 30
0.0
  0
VERTEX
  5
DA
330
D1
100
AcDbEntity
  8
_U+30EC_U+30A4_U+30E4_U+30FC 1
370
     0
100
AcDbVertex
100
AcDb2dVertex
 10
82.07664385968917
 20
-126.6639309036639
 30
0.0
  0
VERTEX
  5
DB
330
D1
100
AcDbEntity
  8
_U+30EC_U+30A4_U+30E4_U+30FC 1
370
     0
100
AcDbVertex
100
AcDb2dVertex
 10
82.07664385968917
 20
-126.4572251745489
 30
0.0
  0
VERTEX
  5
DC
330
D1
100
AcDbEntity
  8
_U+30EC_U+30A4_U+30E4_U+30FC 1
370
     0
100
AcDbVertex
100
AcDb2dVertex
 10
82.2754258691881
 20
-126.4572251745489
 30
0.0
  0
VERTEX
  5
DD
330
D1
100
AcDbEntity
  8
_U+30EC_U+30A4_U+30E4_U+30FC 1
370
     0
100
AcDbVertex
100
AcDb2dVertex
 10
82.2754258691881
 20
-126.6639309036639
 30
0.0
  0
SEQEND
  5
DE
330
D1
100
AcDbEntity
  8
_U+30EC_U+30A4_U+30E4_U+30FC 1
370
     0
  0
POLYLINE
  5
DF
330
CD
100
AcDbEntity
  8
_U+30EC_U+30A4_U+30E4_U+30FC 1
370
     0
100
AcDb2dPolyline
 66
     1
 10
0.0
 20
0.0
 30
0.0
  0
VERTEX
  5
E0
330
DF
100
AcDbEntity
  8
_U+30EC_U+30A4_U+30E4_U+30FC 1
370
     0
100
AcDbVertex
100
AcDb2dVertex
 10
81.4206976792976
 20
-126.8813164287832
 30
0.0
  0
VERTEX
  5
E1
330
DF
100
AcDbEntity
  8
_U+30EC_U+30A4_U+30E4_U+30FC 1
370
     0
100
AcDbVertex
100
AcDb2dVertex
 10
82.07664385968917
 20
-127.3371025614817
 30
0.0
  0
VERTEX
  5
E2
330
DF
100
AcDbEntity
  8
_U+30EC_U+30A4_U+30E4_U+30FC 1
370
     0
100
AcDbVertex
100
AcDb2dVertex
 10
82.07664385968917
 20
-126.8813164287832
 30
0.0
  0
VERTEX
  5
E3
330
DF
100
AcDbEntity
  8
_U+30EC_U+30A4_U+30E4_U+30FC 1
370
     0
100
AcDbVertex
100
AcDb2dVertex
 10
81.4206976792976
 20
-126.8813164287832
 30
0.0
  0
SEQEND
  5
E4
330
DF
100
AcDbEntity
  8
_U+30EC_U+30A4_U+30E4_U+30FC 1
370
     0
  0
HATCH
  5
E5
330
CD
100
AcDbEntity
  8
_U+30EC_U+30A4_U+30E4_U+30FC 1
 62
   179
420
  2234388
100
AcDbHatch
 10
0.0
 20
0.0
 30
0.0
210
0.0
220
0.0
230
1.0
  2
SOLID
 70
     1
 71
     0
 91
        2
 92
        1
 93
       11
 72
     1
 10
82.2754258691881
 20
-126.6639309036639
 11
82.62234698455275
 21
-126.6639309036639
 72
     1
 10
82.62234698455275
 20
-126.6639309036639
 11
82.62234698455275
 21
-126.8813164287832
 72
     1
 10
82.62234698455275
 20
-126.8813164287832
 11
82.2754258691881
 21
-126.8813164287832
 72
     1
 10
82.2754258691881
 20
-126.8813164287832
 11
82.2754258691881
 21
-127.5353678066578
 72
     1
 10
82.2754258691881
 20
-127.5353678066578
 11
82.05115015309833
 21
-127.5353678066578
 72
     1
 10
82.05115015309833
 20
-127.5353678066578
 11
81.07791067851525
 21
-126.8580620342577
 72
     1
 10
81.07791067851525
 20
-126.8580620342577
 11
81.07791067851525
 21
-126.6639309036639
 72
     1
 10
81.07791067851525
 20
-126.6639309036639
 11
82.07664385968917
 21
-126.6639309036639
 72
     1
 10
82.07664385968917
 20
-126.6639309036639
 11
82.07664385968917
 21
-126.4572251745489
 72
     1
 10
82.07664385968917
 20
-126.4572251745489
 11
82.2754258691881
 21
-126.4572251745489
 72
     1
 10
82.2754258691881
 20
-126.4572251745489
 11
82.2754258691881
 21
-126.6639309036639
 97
        0
 92
        1
 93
        3
 72
     1
 10
81.4206976792976
 20
-126.8813164287832
 11
82.07664385968917
 21
-127.3371025614817
 72
     1
 10
82.07664385968917
 20
-127.3371025614817
 11
82.07664385968917
 21
-126.8813164287832
 72
     1
 10
82.07664385968917
 20
-126.8813164287832
 11
81.4206976792976
 21
-126.8813164287832
 97
        0
 75
     2
 76
     1
 98
        0
  0
POLYLINE
  5
E6
330
CD
100
AcDbEntity
  8
_U+30EC_U+30A4_U+30E4_U+30FC 1
370
     0
100
AcDb2dPolyline
 66
     1
 10
0.0
 20
0.0
 30
0.0
  0
VERTEX
  5
E7
330
E6
100
AcDbEntity
  8
_U+30EC_U+30A4_U+30E4_U+30FC 1
370
     0
100
AcDbVertex
100
AcDb2dVertex
 10
82.62234698455275
 20
-126.2620605153095
 30
0.0
  0
VERTEX
  5
E8
330
E6
100
AcDbEntity
  8
_U+30EC_U+30A4_U+30E4_U+30FC 1
370
     0
100
AcDbVertex
100
AcDb2dVertex
 10
82.37051050458099
 20
-126.2620605153095
 30
0.0
  0
VERTEX
  5
E9
330
E6
100
AcDbEntity
  8
_U+30EC_U+30A4_U+30E4_U+30FC 1
370
     0
100
AcDbVertex
100
AcDb2dVertex
 10
82.37051050458099
 20
-126.0109130544348
 30
0.0
  0
VERTEX
  5
EA
330
E6
100
AcDbEntity
  8
_U+30EC_U+30A4_U+30E4_U+30FC 1
370
     0
100
AcDbVertex
100
AcDb2dVertex
 10
82.62234698455275
 20
-126.0109130544348
 30
0.0
  0
VERTEX
  5
EB
330
E6
100
AcDbEntity
  8
_U+30EC_U+30A4_U+30E4_U+30FC 1
370
     0
100
AcDbVertex
100
AcDb2dVertex
 10
82.62234698455275
 20
-126.2620605153095
 30
0.0
  0
SEQEND
  5
EC
330
E6
100
AcDbEntity
  8
_U+30EC_U+30A4_U+30E4_U+30FC 1
370
     0
  0
HATCH
  5
ED
330
CD
100
AcDbEntity
  8
_U+30EC_U+30A4_U+30E4_U+30FC 1
 62
   179
420
  2234388
100
AcDbHatch
 10
0.0
 20
0.0
 30
0.0
210
0.0
220
0.0
230
1.0
  2
SOLID
 70
     1
 71
     0
 91
        1
 92
        1
 93
        4
 72
     1
 10
82.62234698455275
 20
-126.2620605153095
 11
82.37051050458099
 21
-126.2620605153095
 72
     1
 10
82.37051050458099
 20
-126.2620605153095
 11
82.37051050458099
 21
-126.0109130544348
 72
     1
 10
82.37051050458099
 20
-126.0109130544348
 11
82.62234698455275
 21
-126.0109130544348
 72
     1
 10
82.62234698455275
 20
-126.0109130544348
 11
82.62234698455275
 21
-126.2620605153095
 97
        0
 75
     2
 76
     1
 98
        0
  0
SPLINE
  5
EE
330
CD
100
AcDbEntity
  8
_U+30EC_U+30A4_U+30E4_U+30FC 1
370
     0
100
AcDbSpline
210
0.0
220
0.0
230
1.0
 70
    11
 71
     3
 72
    53
 73
    49
 74
     0
 42
0.0000000001
 43
0.0000000001
 12
1.0
 22
0.0
 32
0.0
 13
1.0
 23
0.0
 33
0.0
 40
0.0
 40
0.0
 40
0.0
 40
0.0
 40
1.0
 40
1.0
 40
1.0
 40
2.0
 40
2.0
 40
2.0
 40
3.0
 40
3.0
 40
3.0
 40
4.0
 40
4.0
 40
4.0
 40
5.0
 40
5.0
 40
5.0
 40
6.0
 40
6.0
 40
6.0
 40
7.0
 40
7.0
 40
7.0
 40
8.0
 40
8.0
 40
8.0
 40
9.0
 40
9.0
 40
9.0
 40
10.0
 40
10.0
 40
10.0
 40
11.0
 40
11.0
 40
11.0
 40
12.0
 40
12.0
 40
12.0
 40
13.0
 40
13.0
 40
13.0
 40
14.0
 40
14.0
 40
14.0
 40
15.0
 40
15.0
 40
15.0
 40
16.0
 40
16.0
 40
16.0
 40
16.0
 10
82.67298988818592
 20
-125.2960557412454
 30
0.0
 10
82.67298988818592
 20
-125.3740871539864
 30
0.0
 10
82.6561089203082
 20
-125.4753729612527
 30
0.0
 10
82.5927191633796
 20
-125.576658768519
 30
0.0
 10
82.48282061740014
 20
-125.7497748166528
 30
0.0
 10
82.35156247941211
 20
-125.7707898991129
 30
0.0
 10
82.24373099072379
 20
-125.7897379242817
 30
0.0
 10
82.24373099072379
 20
-125.7897379242817
 30
0.0
 10
82.24373099072379
 20
-125.5682182845802
 30
0.0
 10
82.24373099072379
 20
-125.5682182845802
 30
0.0
 10
82.4425130002227
 20
-125.5134412663647
 30
0.0
 10
82.47214082139585
 20
-125.3866617525075
 30
0.0
 10
82.47214082139585
 20
-125.2939886839543
 30
0.0
 10
82.47214082139585
 20
-125.1546345715759
 30
0.0
 10
82.37257756187213
 20
-125.0027058606764
 30
0.0
 10
82.14003361661777
 20
-125.0027058606764
 30
0.0
 10
81.88406302206371
 20
-125.0027058606764
 30
0.0
 10
81.81412758371314
 20
-125.1820230806837
 30
0.0
 10
81.81412758371314
 20
-125.3022569131189
 30
0.0
 10
81.81412758371314
 20
-125.3339517915832
 30
0.0
 10
81.81412758371314
 20
-125.4753729612527
 30
0.0
 10
81.94331866441
 20
-125.5640841699979
 30
0.0
 10
81.94331866441
 20
-125.5640841699979
 30
0.0
 10
81.92437063924113
 20
-125.7390950206486
 30
0.0
 10
81.92437063924113
 20
-125.7390950206486
 30
0.0
 10
81.92437063924113
 20
-125.7390950206486
 30
0.0
 10
81.07791067851525
 20
-125.6188611882133
 30
0.0
 10
81.07791067851525
 20
-125.6188611882133
 30
0.0
 10
81.07791067851525
 20
-125.6188611882133
 30
0.0
 10
81.07791067851525
 20
-124.842336665838
 30
0.0
 10
81.07791067851525
 20
-124.842336665838
 30
0.0
 10
81.07791067851525
 20
-124.842336665838
 30
0.0
 10
81.27255857343187
 20
-124.842336665838
 30
0.0
 10
81.27255857343187
 20
-124.842336665838
 30
0.0
 10
81.27255857343187
 20
-124.842336665838
 30
0.0
 10
81.27255857343187
 20
-125.4564249360838
 30
0.0
 10
81.27255857343187
 20
-125.4564249360838
 30
0.0
 10
81.27255857343187
 20
-125.4564249360838
 30
0.0
 10
81.69561629902054
 20
-125.5217094955293
 30
0.0
 10
81.69561629902054
 20
-125.5217094955293
 30
0.0
 10
81.66185436326509
 20
-125.4605590506661
 30
0.0
 10
81.62154674608767
 20
-125.3783935233429
 30
0.0
 10
81.62154674608767
 20
-125.2602267481988
 30
0.0
 10
81.62154674608767
 20
-125.007012230033
 30
0.0
 10
81.80792641183969
 20
-124.7706786797448
 30
0.0
 10
82.1210855914489
 20
-124.7706786797448
 30
0.0
 10
82.4383788856404
 20
-124.7706786797448
 30
0.0
 10
82.67298988818592
 20
-124.9942653767375
 30
0.0
 10
82.67298988818592
 20
-125.2960557412454
 30
0.0
  0
HATCH
  5
EF
330
CD
100
AcDbEntity
  8
_U+30EC_U+30A4_U+30E4_U+30FC 1
 62
   179
420
  2234388
100
AcDbHatch
 10
0.0
 20
0.0
 30
0.0
210
0.0
220
0.0
230
1.0
  2
SOLID
 70
     1
 71
     0
 91
        1
 92
        1
 93
        1
 72
     4
 94
        3
 73
     0
 74
     1
 95
       53
 96
       49
 40
0.0
 40
0.0
 40
0.0
 40
0.0
 40
1.0
 40
1.0
 40
1.0
 40
2.0
 40
2.0
 40
2.0
 40
3.0
 40
3.0
 40
3.0
 40
4.0
 40
4.0
 40
4.0
 40
5.0
 40
5.0
 40
5.0
 40
6.0
 40
6.0
 40
6.0
 40
7.0
 40
7.0
 40
7.0
 40
8.0
 40
8.0
 40
8.0
 40
9.0
 40
9.0
 40
9.0
 40
10.0
 40
10.0
 40
10.0
 40
11.0
 40
11.0
 40
11.0
 40
12.0
 40
12.0
 40
12.0
 40
13.0
 40
13.0
 40
13.0
 40
14.0
 40
14.0
 40
14.0
 40
15.0
 40
15.0
 40
15.0
 40
16.0
 40
16.0
 40
16.0
 40
16.0
 10
82.67298988818592
 20
-125.2960557412454
 10
82.67298988818592
 20
-125.3740871539864
 10
82.6561089203082
 20
-125.4753729612527
 10
82.5927191633796
 20
-125.576658768519
 10
82.48282061740014
 20
-125.7497748166528
 10
82.35156247941211
 20
-125.7707898991129
 10
82.24373099072379
 20
-125.7897379242817
 10
82.24373099072379
 20
-125.7897379242817
 10
82.24373099072379
 20
-125.5682182845802
 10
82.24373099072379
 20
-125.5682182845802
 10
82.4425130002227
 20
-125.5134412663647
 10
82.47214082139585
 20
-125.3866617525075
 10
82.47214082139585
 20
-125.2939886839543
 10
82.47214082139585
 20
-125.1546345715759
 10
82.37257756187213
 20
-125.0027058606764
 10
82.14003361661777
 20
-125.0027058606764
 10
81.88406302206371
 20
-125.0027058606764
 10
81.81412758371314
 20
-125.1820230806837
 10
81.81412758371314
 20
-125.3022569131189
 10
81.81412758371314
 20
-125.3339517915832
 10
81.81412758371314
 20
-125.4753729612527
 10
81.94331866441
 20
-125.5640841699979
 10
81.94331866441
 20
-125.5640841699979
 10
81.92437063924113
 20
-125.7390950206486
 10
81.92437063924113
 20
-125.7390950206486
 10
81.92437063924113
 20
-125.7390950206486
 10
81.07791067851525
 20
-125.6188611882133
 10
81.07791067851525
 20
-125.6188611882133
 10
81.07791067851525
 20
-125.6188611882133
 10
81.07791067851525
 20
-124.842336665838
 10
81.07791067851525
 20
-124.842336665838
 10
81.07791067851525
 20
-124.842336665838
 10
81.27255857343187
 20
-124.842336665838
 10
81.27255857343187
 20
-124.842336665838
 10
81.27255857343187
 20
-124.842336665838
 10
81.27255857343187
 20
-125.4564249360838
 10
81.27255857343187
 20
-125.4564249360838
 10
81.27255857343187
 20
-125.4564249360838
 10
81.69561629902054
 20
-125.5217094955293
 10
81.69561629902054
 20
-125.5217094955293
 10
81.66185436326509
 20
-125.4605590506661
 10
81.62154674608767
 20
-125.3783935233429
 10
81.62154674608767
 20
-125.2602267481988
 10
81.62154674608767
 20
-125.007012230033
 10
81.80792641183969
 20
-124.7706786797448
 10
82.1210855914489
 20
-124.7706786797448
 10
82.4383788856404
 20
-124.7706786797448
 10
82.67298988818592
 20
-124.9942653767375
 10
82.67298988818592
 20
-125.2960557412454
 97
        0
 97
        0
 75
     2
 76
     1
 98
        0
  0
ENDBLK
  5
D0
330
CD
100
AcDbEntity
  8
0
100
AcDbBlockEnd
  0
ENDSEC
  0
SECTION
  2
ENTITIES
  0
SPLINE
  5
41
330
1F
100
AcDbEntity
  8
_U+30EC_U+30A4_U+30E4_U+30FC 1
 62
   179
420
  2234388
370
     9
100
AcDbSpline
210
0.0
220
0.0
230
1.0
 70
     8
 71
     3
 72
    38
 73
    34
 74
     0
 42
0.0000000001
 43
0.0000000001
 12
1.0
 22
0.0
 32
0.0
 13
1.0
 23
0.0
 33
0.0
 40
0.0
 40
0.0
 40
0.0
 40
0.0
 40
1.0
 40
1.0
 40
1.0
 40
2.0
 40
2.0
 40
2.0
 40
3.0
 40
3.0
 40
3.0
 40
4.0
 40
4.0
 40
4.0
 40
5.0
 40
5.0
 40
5.0
 40
6.0
 40
6.0
 40
6.0
 40
7.0
 40
7.0
 40
7.0
 40
8.0
 40
8.0
 40
8.0
 40
9.0
 40
9.0
 40
9.0
 40
10.0
 40
10.0
 40
10.0
 40
11.0
 40
11.0
 40
11.0
 40
11.0
 10
88.47176079845289
 20
-128.3990460790113
 30
0.0
 10
88.47176079845289
 20
-128.3990460790113
 30
0.0
 10
90.01516353685518
 20
-128.3990460790113
 30
0.0
 10
90.01516353685518
 20
-128.3990460790113
 30
0.0
 10
90.01516353685518
 20
-128.3990460790113
 30
0.0
 10
90.01516353685518
 20
-128.0021710791106
 30
0.0
 10
90.01516353685518
 20
-128.0021710791106
 30
0.0
 10
90.01516353685518
 20
-128.0021710791106
 30
0.0
 10
90.50023296892448
 20
-127.6052960792098
 30
0.0
 10
90.50023296892448
 20
-127.6052960792098
 30
0.0
 10
90.50023296892448
 20
-127.6052960792098
 30
0.0
 10
89.99311492630659
 20
-127.098178023781
 30
0.0
 10
89.99311492630659
 20
-127.098178023781
 30
0.0
 10
89.99311492630659
 20
-127.098178023781
 30
0.0
 10
89.99311492630659
 20
-125.9297780240731
 30
0.0
 10
89.99311492630659
 20
-125.9297780240731
 30
0.0
 10
89.99311492630659
 20
-125.9297780240731
 30
0.0
 10
93.80752455121511
 20
-124.8714446910044
 30
0.0
 10
99.80474662043545
 20
-125.7974863574395
 30
0.0
 10
99.80474662043545
 20
-125.7974863574395
 30
0.0
 10
99.80474662043545
 20
-126.8556433016194
 30
0.0
 10
99.80474662043545
 20
-126.8556433016194
 30
0.0
 10
99.80474662043545
 20
-126.8556433016194
 30
0.0
 10
99.31967718836616
 20
-127.3407127459426
 30
0.0
 10
99.31967718836616
 20
-127.3407127459426
 30
0.0
 10
99.31967718836616
 20
-127.3407127459426
 30
0.0
 10
99.80474662043545
 20
-127.8257821902658
 30
0.0
 10
99.80474662043545
 20
-127.8257821902658
 30
0.0
 10
99.80474662043545
 20
-127.8257821902658
 30
0.0
 10
99.80474662043545
 20
-128.3549488568001
 30
0.0
 10
99.80474662043545
 20
-128.3549488568001
 30
0.0
 10
99.80474662043545
 20
-128.3549488568001
 30
0.0
 10
101.4363438010322
 20
-128.3549488568001
 30
0.0
 10
101.4363438010322
 20
-128.3549488568001
 30
0.0
  0
SPLINE
  5
42
330
1F
100
AcDbEntity
  8
_U+30EC_U+30A4_U+30E4_U+30FC 1
 62
   179
420
  2234388
370
     9
100
AcDbSpline
210
0.0
220
0.0
230
1.0
 70
    11
 71
     3
 72
    50
 73
    46
 74
     0
 42
0.0000000001
 43
0.0000000001
 12
1.0
 22
0.0
 32
0.0
 13
1.0
 23
0.0
 33
0.0
 40
0.0
 40
0.0
 40
0.0
 40
0.0
 40
1.0
 40
1.0
 40
1.0
 40
2.0
 40
2.0
 40
2.0
 40
3.0
 40
3.0
 40
3.0
 40
4.0
 40
4.0
 40
4.0
 40
5.0
 40
5.0
 40
5.0
 40
6.0
 40
6.0
 40
6.0
 40
7.0
 40
7.0
 40
7.0
 40
8.0
 40
8.0
 40
8.0
 40
9.0
 40
9.0
 40
9.0
 40
10.0
 40
10.0
 40
10.0
 40
11.0
 40
11.0
 40
11.0
 40
12.0
 40
12.0
 40
12.0
 40
13.0
 40
13.0
 40
13.0
 40
14.0
 40
14.0
 40
14.0
 40
15.0
 40
15.0
 40
15.0
 40
15.0
 10
90.0592607579524
 20
-133.4254591333105
 30
0.0
 10
90.0592607579524
 20
-133.4254591333105
 30
0.0
 10
90.83096212715354
 20
-132.2568827447138
 30
0.0
 10
91.33808016977144
 20
-132.4332716335586
 30
0.0
 10
91.33808016977144
 20
-132.4332716335586
 30
0.0
 10
91.71290654909771
 20
-132.6096605224034
 30
0.0
 10
91.71290654909771
 20
-133.2049730222545
 30
0.0
 10
91.71290654909771
 20
-133.2049730222545
 30
0.0
 10
91.71290654909771
 20
-133.9987230220561
 30
0.0
 10
91.71290654909771
 20
-133.9987230220561
 30
0.0
 10
91.71290654909771
 20
-133.9987230220561
 30
0.0
 10
98.15110082929014
 20
-133.9987230220561
 30
0.0
 10
98.15110082929014
 20
-133.9987230220561
 30
0.0
 10
98.15110082929014
 20
-133.9987230220561
 30
0.0
 10
98.15110082929014
 20
-133.1608758000434
 30
0.0
 10
98.15110082929014
 20
-133.1608758000434
 30
0.0
 10
98.15110082929014
 20
-133.1608758000434
 30
0.0
 10
98.12905221874153
 20
-132.4773688557698
 30
0.0
 10
98.4156841558734
 20
-132.4553202446642
 30
0.0
 10
98.4156841558734
 20
-132.4553202446642
 30
0.0
 10
98.81255914574827
 20
-131.970250800341
 30
0.0
 10
99.84884384153266
 20
-133.2931674666769
 30
0.0
 10
99.84884384153266
 20
-133.2931674666769
 30
0.0
 10
99.22806080181459
 20
-133.8140438554352
 30
0.0
 10
99.22806080181459
 20
-133.8140438554352
 30
0.0
 10
99.22806080181459
 20
-133.8140438554352
 30
0.0
 10
99.16533691452592
 20
-133.8664313554225
 30
0.0
 10
99.16533691452592
 20
-133.8664313554225
 30
0.0
 10
99.16533691452592
 20
-133.8664313554225
 30
0.0
 10
99.80474662043545
 20
-134.2853549664289
 30
0.0
 10
99.80474662043545
 20
-134.2853549664289
 30
0.0
 10
99.80474662043545
 20
-134.2853549664289
 30
0.0
 10
99.80474662043545
 20
-134.9247646884913
 30
0.0
 10
99.80474662043545
 20
-134.9247646884913
 30
0.0
 10
99.80474662043545
 20
-134.9247646884913
 30
0.0
 10
89.97106631575798
 20
-135.0791049662305
 30
0.0
 10
89.97106631575798
 20
-135.0791049662305
 30
0.0
 10
89.97106631575798
 20
-135.0791049662305
 30
0.0
 10
89.97106631575798
 20
-134.4176466330625
 30
0.0
 10
89.97106631575798
 20
-134.4176466330625
 30
0.0
 10
89.97106631575798
 20
-134.4176466330625
 30
0.0
 10
90.6325246322161
 20
-133.9987230220561
 30
0.0
 10
90.6325246322161
 20
-133.9987230220561
 30
0.0
 10
90.6325246322161
 20
-133.9987230220561
 30
0.0
 10
90.0592607579524
 20
-133.4254591333105
 30
0.0
 10
90.0592607579524
 20
-133.4254591333105
 30
0.0
  0
SPLINE
  5
43
330
1F
100
AcDbEntity
  8
_U+30EC_U+30A4_U+30E4_U+30FC 1
 62
   179
420
  2234388
370
     9
100
AcDbSpline
210
0.0
220
0.0
230
1.0
 70
    11
 71
     3
 72
    17
 73
    13
 74
     0
 42
0.0000000001
 43
0.0000000001
 12
1.0
 22
0.0
 32
0.0
 13
1.0
 23
0.0
 33
0.0
 40
0.0
 40
0.0
 40
0.0
 40
0.0
 40
1.0
 40
1.0
 40
1.0
 40
2.0
 40
2.0
 40
2.0
 40
3.0
 40
3.0
 40
3.0
 40
4.0
 40
4.0
 40
4.0
 40
4.0
 10
86.00990113903795
 20
-124.4538969133309
 30
0.0
 10
86.00990113903795
 20
-124.398793024456
 30
0.0
 10
85.96513364018006
 20
-124.3539902466892
 30
0.0
 10
85.90999447492011
 20
-124.3539902466892
 30
0.0
 10
85.85418503189949
 20
-124.3539902466892
 30
0.0
 10
85.8094175330416
 20
-124.398793024456
 30
0.0
 10
85.8094175330416
 20
-124.4538969133309
 30
0.0
 10
85.8094175330416
 20
-124.509036079984
 30
0.0
 10
85.85418503189949
 20
-124.5538035799725
 30
0.0
 10
85.90999447492011
 20
-124.5538035799725
 30
0.0
 10
85.96513364018006
 20
-124.5538035799725
 30
0.0
 10
86.00990113903795
 20
-124.509036079984
 30
0.0
 10
86.00990113903795
 20
-124.4538969133309
 30
0.0
  0
SPLINE
  5
44
330
1F
100
AcDbEntity
  8
_U+30EC_U+30A4_U+30E4_U+30FC 1
 62
   179
420
  2234388
370
     9
100
AcDbSpline
210
0.0
220
0.0
230
1.0
 70
    11
 71
     3
 72
    17
 73
    13
 74
     0
 42
0.0000000001
 43
0.0000000001
 12
1.0
 22
0.0
 32
0.0
 13
1.0
 23
0.0
 33
0.0
 40
0.0
 40
0.0
 40
0.0
 40
0.0
 40
1.0
 40
1.0
 40
1.0
 40
2.0
 40
2.0
 40
2.0
 40
3.0
 40
3.0
 40
3.0
 40
4.0
 40
4.0
 40
4.0
 40
4.0
 10
86.00990113903795
 20
-128.4534796901089
 30
0.0
 10
86.00990113903795
 20
-128.3983758012336
 30
0.0
 10
85.96513364018006
 20
-128.3535730234672
 30
0.0
 10
85.90999447492011
 20
-128.3535730234672
 30
0.0
 10
85.85418503189949
 20
-128.3535730234672
 30
0.0
 10
85.8094175330416
 20
-128.3983758012336
 30
0.0
 10
85.8094175330416
 20
-128.4534796901089
 30
0.0
 10
85.8094175330416
 20
-128.5086188567616
 30
0.0
 10
85.85418503189949
 20
-128.5533863567505
 30
0.0
 10
85.90999447492011
 20
-128.5533863567505
 30
0.0
 10
85.96513364018006
 20
-128.5533863567505
 30
0.0
 10
86.00990113903795
 20
-128.5086188567616
 30
0.0
 10
86.00990113903795
 20
-128.4534796901089
 30
0.0
  0
POLYLINE
  5
45
330
1F
100
AcDbEntity
  8
_U+30EC_U+30A4_U+30E4_U+30FC 1
 62
   179
420
  2234388
370
     9
100
AcDb2dPolyline
 66
     1
 10
0.0
 20
0.0
 30
0.0
  0
VERTEX
  5
46
330
45
100
AcDbEntity
  8
_U+30EC_U+30A4_U+30E4_U+30FC 1
 62
   179
420
  2234388
370
     9
100
AcDbVertex
100
AcDb2dVertex
 10
85.90999447492011
 20
-124.4538969133309
 30
0.0
  0
VERTEX
  5
47
330
45
100
AcDbEntity
  8
_U+30EC_U+30A4_U+30E4_U+30FC 1
 62
   179
420
  2234388
370
     9
100
AcDbVertex
100
AcDb2dVertex
 10
85.90999447492011
 20
-128.4534796901089
 30
0.0
  0
SEQEND
  5
48
330
45
100
AcDbEntity
  8
_U+30EC_U+30A4_U+30E4_U+30FC 1
 62
   179
420
  2234388
370
     9
  0
POLYLINE
  5
49
330
1F
100
AcDbEntity
  8
_U+30EC_U+30A4_U+30E4_U+30FC 1
 62
   179
420
  2234388
370
     9
100
AcDb2dPolyline
 66
     1
 10
0.0
 20
0.0
 30
0.0
  0
VERTEX
  5
4A
330
49
100
AcDbEntity
  8
_U+30EC_U+30A4_U+30E4_U+30FC 1
 62
   179
420
  2234388
370
     9
100
AcDbVertex
100
AcDb2dVertex
 10
87.36933027102269
 20
-124.4538969133309
 30
0.0
  0
VERTEX
  5
4B
330
49
100
AcDbEntity
  8
_U+30EC_U+30A4_U+30E4_U+30FC 1
 62
   179
420
  2234388
370
     9
100
AcDbVertex
100
AcDb2dVertex
 10
84.90955200044353
 20
-124.4538969133309
 30
0.0
  0
SEQEND
  5
4C
330
49
100
AcDbEntity
  8
_U+30EC_U+30A4_U+30E4_U+30FC 1
 62
   179
420
  2234388
370
     9
  0
POLYLINE
  5
4D
330
1F
100
AcDbEntity
  8
_U+30EC_U+30A4_U+30E4_U+30FC 1
 62
   179
420
  2234388
370
     9
100
AcDb2dPolyline
 66
     1
 10
0.0
 20
0.0
 30
0.0
  0
VERTEX
  5
4E
330
4D
100
AcDbEntity
  8
_U+30EC_U+30A4_U+30E4_U+30FC 1
 62
   179
420
  2234388
370
     9
100
AcDbVertex
100
AcDb2dVertex
 10
87.36933027102269
 20
-128.4534796901089
 30
0.0
  0
VERTEX
  5
4F
330
4D
100
AcDbEntity
  8
_U+30EC_U+30A4_U+30E4_U+30FC 1
 62
   179
420
  2234388
370
     9
100
AcDbVertex
100
AcDb2dVertex
 10
81.83823346768828
 20
-128.4534796901089
 30
0.0
  0
SEQEND
  5
50
330
4D
100
AcDbEntity
  8
_U+30EC_U+30A4_U+30E4_U+30FC 1
 62
   179
420
  2234388
370
     9
  0
INSERT
  5
52
330
1F
100
AcDbEntity
  8
_U+30EC_U+30A4_U+30E4_U+30FC 1
100
AcDbBlockReference
  2
block 2
 10
0.0
 20
0.0
 30
0.0
  0
SPLINE
  5
6A
330
1F
100
AcDbEntity
  8
_U+30EC_U+30A4_U+30E4_U+30FC 1
 62
   179
420
  2234388
370
     9
100
AcDbSpline
210
0.0
220
0.0
230
1.0
 70
    11
 71
     3
 72
    17
 73
    13
 74
     0
 42
0.0000000001
 43
0.0000000001
 12
1.0
 22
0.0
 32
0.0
 13
1.0
 23
0.0
 33
0.0
 40
0.0
 40
0.0
 40
0.0
 40
0.0
 40
1.0
 40
1.0
 40
1.0
 40
2.0
 40
2.0
 40
2.0
 40
3.0
 40
3.0
 40
3.0
 40
4.0
 40
4.0
 40
4.0
 40
4.0
 10
85.94513331184699
 20
-128.4534796901089
 30
0.0
 10
85.94513331184699
 20
-128.4727766345484
 30
0.0
 10
85.92929141887225
 20
-128.4886163567666
 30
0.0
 10
85.90999447492011
 20
-128.4886163567666
 30
0.0
 10
85.8900272532073
 20
-128.4886163567666
 30
0.0
 10
85.87418753138918
 20
-128.4727766345484
 30
0.0
 10
85.87418753138918
 20
-128.4534796901089
 30
0.0
 10
85.87418753138918
 20
-128.4341827456694
 30
0.0
 10
85.8900272532073
 20
-128.4183430234508
 30
0.0
 10
85.90999447492011
 20
-128.4183430234508
 30
0.0
 10
85.92929141887225
 20
-128.4183430234508
 30
0.0
 10
85.94513331184699
 20
-128.4341827456694
 30
0.0
 10
85.94513331184699
 20
-128.4534796901089
 30
0.0
  0
SPLINE
  5
6B
330
1F
100
AcDbEntity
  8
_U+30EC_U+30A4_U+30E4_U+30FC 1
 62
   179
420
  2234388
370
     9
100
AcDbSpline
210
0.0
220
0.0
230
1.0
 70
    11
 71
     3
 72
    17
 73
    13
 74
     0
 42
0.0000000001
 43
0.0000000001
 12
1.0
 22
0.0
 32
0.0
 13
1.0
 23
0.0
 33
0.0
 40
0.0
 40
0.0
 40
0.0
 40
0.0
 40
1.0
 40
1.0
 40
1.0
 40
2.0
 40
2.0
 40
2.0
 40
3.0
 40
3.0
 40
3.0
 40
4.0
 40
4.0
 40
4.0
 40
4.0
 10
86.00990113903795
 20
-132.2878919113722
 30
0.0
 10
86.00990113903795
 20
-132.2327527447198
 30
0.0
 10
85.96513364018006
 20
-132.1879852447306
 30
0.0
 10
85.90999447492011
 20
-132.1879852447306
 30
0.0
 10
85.85418503189949
 20
-132.1879852447306
 30
0.0
 10
85.8094175330416
 20
-132.2327527447198
 30
0.0
 10
85.8094175330416
 20
-132.2878919113722
 30
0.0
 10
85.8094175330416
 20
-132.3429958002478
 30
0.0
 10
85.85418503189949
 20
-132.3877985780139
 30
0.0
 10
85.90999447492011
 20
-132.3877985780139
 30
0.0
 10
85.96513364018006
 20
-132.3877985780139
 30
0.0
 10
86.00990113903795
 20
-132.3429958002478
 30
0.0
 10
86.00990113903795
 20
-132.2878919113722
 30
0.0
  0
SPLINE
  5
6C
330
1F
100
AcDbEntity
  8
_U+30EC_U+30A4_U+30E4_U+30FC 1
 62
   179
420
  2234388
370
     9
100
AcDbSpline
210
0.0
220
0.0
230
1.0
 70
    11
 71
     3
 72
    17
 73
    13
 74
     0
 42
0.0000000001
 43
0.0000000001
 12
1.0
 22
0.0
 32
0.0
 13
1.0
 23
0.0
 33
0.0
 40
0.0
 40
0.0
 40
0.0
 40
0.0
 40
1.0
 40
1.0
 40
1.0
 40
2.0
 40
2.0
 40
2.0
 40
3.0
 40
3.0
 40
3.0
 40
4.0
 40
4.0
 40
4.0
 40
4.0
 10
86.00990113903795
 20
-135.2878788550672
 30
0.0
 10
86.00990113903795
 20
-135.2327396884141
 30
0.0
 10
85.96513364018006
 20
-135.1879721884249
 30
0.0
 10
85.90999447492011
 20
-135.1879721884249
 30
0.0
 10
85.85418503189949
 20
-135.1879721884249
 30
0.0
 10
85.8094175330416
 20
-135.2327396884141
 30
0.0
 10
85.8094175330416
 20
-135.2878788550672
 30
0.0
 10
85.8094175330416
 20
-135.3429827439421
 30
0.0
 10
85.85418503189949
 20
-135.3877855217088
 30
0.0
 10
85.90999447492011
 20
-135.3877855217088
 30
0.0
 10
85.96513364018006
 20
-135.3877855217088
 30
0.0
 10
86.00990113903795
 20
-135.3429827439421
 30
0.0
 10
86.00990113903795
 20
-135.2878788550672
 30
0.0
  0
POLYLINE
  5
6D
330
1F
100
AcDbEntity
  8
_U+30EC_U+30A4_U+30E4_U+30FC 1
 62
   179
420
  2234388
370
     9
100
AcDb2dPolyline
 66
     1
 10
0.0
 20
0.0
 30
0.0
  0
VERTEX
  5
6E
330
6D
100
AcDbEntity
  8
_U+30EC_U+30A4_U+30E4_U+30FC 1
 62
   179
420
  2234388
370
     9
100
AcDbVertex
100
AcDb2dVertex
 10
85.90999447492011
 20
-132.2878919113722
 30
0.0
  0
VERTEX
  5
6F
330
6D
100
AcDbEntity
  8
_U+30EC_U+30A4_U+30E4_U+30FC 1
 62
   179
420
  2234388
370
     9
100
AcDbVertex
100
AcDb2dVertex
 10
85.90999447492011
 20
-135.2878788550672
 30
0.0
  0
SEQEND
  5
70
330
6D
100
AcDbEntity
  8
_U+30EC_U+30A4_U+30E4_U+30FC 1
 62
   179
420
  2234388
370
     9
  0
POLYLINE
  5
71
330
1F
100
AcDbEntity
  8
_U+30EC_U+30A4_U+30E4_U+30FC 1
 62
   179
420
  2234388
370
     9
100
AcDb2dPolyline
 66
     1
 10
0.0
 20
0.0
 30
0.0
  0
VERTEX
  5
72
330
71
100
AcDbEntity
  8
_U+30EC_U+30A4_U+30E4_U+30FC 1
 62
   179
420
  2234388
370
     9
100
AcDbVertex
100
AcDb2dVertex
 10
87.36933027102269
 20
-132.2878919113722
 30
0.0
  0
VERTEX
  5
73
330
71
100
AcDbEntity
  8
_U+30EC_U+30A4_U+30E4_U+30FC 1
 62
   179
420
  2234388
370
     9
100
AcDbVertex
100
AcDb2dVertex
 10
84.90955200044353
 20
-132.2878919113722
 30
0.0
  0
SEQEND
  5
74
330
71
100
AcDbEntity
  8
_U+30EC_U+30A4_U+30E4_U+30FC 1
 62
   179
420
  2234388
370
     9
  0
POLYLINE
  5
75
330
1F
100
AcDbEntity
  8
_U+30EC_U+30A4_U+30E4_U+30FC 1
 62
   179
420
  2234388
370
     9
100
AcDb2dPolyline
 66
     1
 10
0.0
 20
0.0
 30
0.0
  0
VERTEX
  5
76
330
75
100
AcDbEntity
  8
_U+30EC_U+30A4_U+30E4_U+30FC 1
 62
   179
420
  2234388
370
     9
100
AcDbVertex
100
AcDb2dVertex
 10
87.36933027102269
 20
-135.2878788550672
 30
0.0
  0
VERTEX
  5
77
330
75
100
AcDbEntity
  8
_U+30EC_U+30A4_U+30E4_U+30FC 1
 62
   179
420
  2234388
370
     9
100
AcDbVertex
100
AcDb2dVertex
 10
84.90955200044353
 20
-135.2878788550672
 30
0.0
  0
SEQEND
  5
78
330
75
100
AcDbEntity
  8
_U+30EC_U+30A4_U+30E4_U+30FC 1
 62
   179
420
  2234388
370
     9
  0
INSERT
  5
7A
330
1F
100
AcDbEntity
  8
_U+30EC_U+30A4_U+30E4_U+30FC 1
100
AcDbBlockReference
  2
block 3
 10
0.0
 20
0.0
 30
0.0
  0
SPLINE
  5
89
330
1F
100
AcDbEntity
  8
_U+30EC_U+30A4_U+30E4_U+30FC 1
 62
   179
420
  2234388
370
     9
100
AcDbSpline
210
0.0
220
0.0
230
1.0
 70
    11
 71
     3
 72
    17
 73
    13
 74
     0
 42
0.0000000001
 43
0.0000000001
 12
1.0
 22
0.0
 32
0.0
 13
1.0
 23
0.0
 33
0.0
 40
0.0
 40
0.0
 40
0.0
 40
0.0
 40
1.0
 40
1.0
 40
1.0
 40
2.0
 40
2.0
 40
2.0
 40
3.0
 40
3.0
 40
3.0
 40
4.0
 40
4.0
 40
4.0
 40
4.0
 10
85.94513331184699
 20
-135.2878788550672
 30
0.0
 10
85.94513331184699
 20
-135.3071757995064
 30
0.0
 10
85.92929141887225
 20
-135.3230155217249
 30
0.0
 10
85.90999447492011
 20
-135.3230155217249
 30
0.0
 10
85.8900272532073
 20
-135.3230155217249
 30
0.0
 10
85.87418753138918
 20
-135.3071757995064
 30
0.0
 10
85.87418753138918
 20
-135.2878788550672
 30
0.0
 10
85.87418753138918
 20
-135.2685819106274
 30
0.0
 10
85.8900272532073
 20
-135.2527421884088
 30
0.0
 10
85.90999447492011
 20
-135.2527421884088
 30
0.0
 10
85.92929141887225
 20
-135.2527421884088
 30
0.0
 10
85.94513331184699
 20
-135.2685819106274
 30
0.0
 10
85.94513331184699
 20
-135.2878788550672
 30
0.0
  0
SPLINE
  5
8A
330
1F
100
AcDbEntity
  8
_U+30EC_U+30A4_U+30E4_U+30FC 1
 62
     7
420
 16777215
370
    25
100
AcDbSpline
210
0.0
220
0.0
230
1.0
 70
     8
 71
     3
 72
    14
 73
    10
 74
     0
 42
0.0000000001
 43
0.0000000001
 12
1.0
 22
0.0
 32
0.0
 13
1.0
 23
0.0
 33
0.0
 40
0.0
 40
0.0
 40
0.0
 40
0.0
 40
1.0
 40
1.0
 40
1.0
 40
2.0
 40
2.0
 40
2.0
 40
3.0
 40
3.0
 40
3.0
 40
3.0
 10
88.51585801955011
 20
-128.3108516345889
 30
0.0
 10
88.51585801955011
 20
-128.3108516345889
 30
0.0
 10
88.51585801955011
 20
-124.4745696911036
 30
0.0
 10
88.51585801955011
 20
-124.4745696911036
 30
0.0
 10
88.51585801955011
 20
-124.4745696911036
 30
0.0
 10
93.49884400353466
 20
-123.1518294136565
 30
0.0
 10
101.4363438010322
 20
-124.4745696911036
 30
0.0
 10
101.4363438010322
 20
-124.4745696911036
 30
0.0
 10
101.4363438010322
 20
-128.2667544123777
 30
0.0
 10
101.4363438010322
 20
-128.2667544123777
 30
0.0
  0
SPLINE
  5
8B
330
1F
100
AcDbEntity
  8
_U+30EC_U+30A4_U+30E4_U+30FC 1
 62
   179
420
  2234388
370
     9
100
AcDbSpline
210
0.0
220
0.0
230
1.0
 70
    11
 71
     3
 72
    17
 73
    13
 74
     0
 42
0.0000000001
 43
0.0000000001
 12
1.0
 22
0.0
 32
0.0
 13
1.0
 23
0.0
 33
0.0
 40
0.0
 40
0.0
 40
0.0
 40
0.0
 40
1.0
 40
1.0
 40
1.0
 40
2.0
 40
2.0
 40
2.0
 40
3.0
 40
3.0
 40
3.0
 40
4.0
 40
4.0
 40
4.0
 40
4.0
 10
88.51860968614658
 20
-121.3116346918944
 30
0.0
 10
88.51860968614658
 20
-121.2564955252413
 30
0.0
 10
88.47384442232612
 20
-121.2117280252527
 30
0.0
 10
88.41803274426806
 20
-121.2117280252527
 30
0.0
 10
88.3628935790081
 20
-121.2117280252527
 30
0.0
 10
88.31812608015022
 20
-121.2564955252413
 30
0.0
 10
88.31812608015022
 20
-121.3116346918944
 30
0.0
 10
88.31812608015022
 20
-121.3667385807693
 30
0.0
 10
88.3628935790081
 20
-121.411541358536
 30
0.0
 10
88.41803274426806
 20
-121.411541358536
 30
0.0
 10
88.47384442232612
 20
-121.411541358536
 30
0.0
 10
88.51860968614658
 20
-121.3667385807693
 30
0.0
 10
88.51860968614658
 20
-121.3116346918944
 30
0.0
  0
SPLINE
  5
8C
330
1F
100
AcDbEntity
  8
_U+30EC_U+30A4_U+30E4_U+30FC 1
 62
   179
420
  2234388
370
     9
100
AcDbSpline
210
0.0
220
0.0
230
1.0
 70
    11
 71
     3
 72
    17
 73
    13
 74
     0
 42
0.0000000001
 43
0.0000000001
 12
1.0
 22
0.0
 32
0.0
 13
1.0
 23
0.0
 33
0.0
 40
0.0
 40
0.0
 40
0.0
 40
0.0
 40
1.0
 40
1.0
 40
1.0
 40
2.0
 40
2.0
 40
2.0
 40
3.0
 40
3.0
 40
3.0
 40
4.0
 40
4.0
 40
4.0
 40
4.0
 10
101.518364632273
 20
-121.3116346918944
 30
0.0
 10
101.518364632273
 20
-121.2564955252413
 30
0.0
 10
101.4735618556382
 20
-121.2117280252527
 30
0.0
 10
101.4184579681551
 20
-121.2117280252527
 30
0.0
 10
101.3633188028952
 20
-121.2117280252527
 30
0.0
 10
101.3185160262604
 20
-121.2564955252413
 30
0.0
 10
101.3185160262604
 20
-121.3116346918944
 30
0.0
 10
101.3185160262604
 20
-121.3667385807693
 30
0.0
 10
101.3633188028952
 20
-121.411541358536
 30
0.0
 10
101.4184579681551
 20
-121.411541358536
 30
0.0
 10
101.4735618556382
 20
-121.411541358536
 30
0.0
 10
101.518364632273
 20
-121.3667385807693
 30
0.0
 10
101.518364632273
 20
-121.3116346918944
 30
0.0
  0
POLYLINE
  5
8D
330
1F
100
AcDbEntity
  8
_U+30EC_U+30A4_U+30E4_U+30FC 1
 62
   179
420
  2234388
370
     9
100
AcDb2dPolyline
 66
     1
 10
0.0
 20
0.0
 30
0.0
  0
VERTEX
  5
8E
330
8D
100
AcDbEntity
  8
_U+30EC_U+30A4_U+30E4_U+30FC 1
 62
   179
420
  2234388
370
     9
100
AcDbVertex
100
AcDb2dVertex
 10
88.41803274426806
 20
-121.3116346918944
 30
0.0
  0
VERTEX
  5
8F
330
8D
100
AcDbEntity
  8
_U+30EC_U+30A4_U+30E4_U+30FC 1
 62
   179
420
  2234388
370
     9
100
AcDbVertex
100
AcDb2dVertex
 10
101.4184579681551
 20
-121.3116346918944
 30
0.0
  0
SEQEND
  5
90
330
8D
100
AcDbEntity
  8
_U+30EC_U+30A4_U+30E4_U+30FC 1
 62
   179
420
  2234388
370
     9
  0
POLYLINE
  5
91
330
1F
100
AcDbEntity
  8
_U+30EC_U+30A4_U+30E4_U+30FC 1
 62
   179
420
  2234388
370
     9
100
AcDb2dPolyline
 66
     1
 10
0.0
 20
0.0
 30
0.0
  0
VERTEX
  5
92
330
91
100
AcDbEntity
  8
_U+30EC_U+30A4_U+30E4_U+30FC 1
 62
   179
420
  2234388
370
     9
100
AcDbVertex
100
AcDb2dVertex
 10
88.41803274426806
 20
-122.7714996915295
 30
0.0
  0
VERTEX
  5
93
330
91
100
AcDbEntity
  8
_U+30EC_U+30A4_U+30E4_U+30FC 1
 62
   179
420
  2234388
370
     9
100
AcDbVertex
100
AcDb2dVertex
 10
88.41803274426806
 20
-120.3111921921444
 30
0.0
  0
SEQEND
  5
94
330
91
100
AcDbEntity
  8
_U+30EC_U+30A4_U+30E4_U+30FC 1
 62
   179
420
  2234388
370
     9
  0
POLYLINE
  5
95
330
1F
100
AcDbEntity
  8
_U+30EC_U+30A4_U+30E4_U+30FC 1
 62
   179
420
  2234388
370
     9
100
AcDb2dPolyline
 66
     1
 10
0.0
 20
0.0
 30
0.0
  0
VERTEX
  5
96
330
95
100
AcDbEntity
  8
_U+30EC_U+30A4_U+30E4_U+30FC 1
 62
   179
420
  2234388
370
     9
100
AcDbVertex
100
AcDb2dVertex
 10
101.4184579681551
 20
-122.7714996915295
 30
0.0
  0
VERTEX
  5
97
330
95
100
AcDbEntity
  8
_U+30EC_U+30A4_U+30E4_U+30FC 1
 62
   179
420
  2234388
370
     9
100
AcDbVertex
100
AcDb2dVertex
 10
101.4184579681551
 20
-120.3111921921444
 30
0.0
  0
SEQEND
  5
98
330
95
100
AcDbEntity
  8
_U+30EC_U+30A4_U+30E4_U+30FC 1
 62
   179
420
  2234388
370
     9
  0
INSERT
  5
9A
330
1F
100
AcDbEntity
  8
_U+30EC_U+30A4_U+30E4_U+30FC 1
100
AcDbBlockReference
  2
block 4
 10
0.0
 20
0.0
 30
0.0
  0
SPLINE
  5
A1
330
1F
100
AcDbEntity
  8
_U+30EC_U+30A4_U+30E4_U+30FC 1
 62
   179
420
  2234388
370
     9
100
AcDbSpline
210
0.0
220
0.0
230
1.0
 70
    11
 71
     3
 72
    17
 73
    13
 74
     0
 42
0.0000000001
 43
0.0000000001
 12
1.0
 22
0.0
 32
0.0
 13
1.0
 23
0.0
 33
0.0
 40
0.0
 40
0.0
 40
0.0
 40
0.0
 40
1.0
 40
1.0
 40
1.0
 40
2.0
 40
2.0
 40
2.0
 40
3.0
 40
3.0
 40
3.0
 40
4.0
 40
4.0
 40
4.0
 40
4.0
 10
101.4535971968585
 20
-121.3116346918944
 30
0.0
 10
101.4535971968585
 20
-121.3309316363339
 30
0.0
 10
101.4377221968631
 20
-121.3467713585521
 30
0.0
 10
101.4184579681551
 20
-121.3467713585521
 30
0.0
 10
101.3984554686654
 20
-121.3467713585521
 30
0.0
 10
101.383286024608
 20
-121.3309316363339
 30
0.0
 10
101.383286024608
 20
-121.3116346918944
 30
0.0
 10
101.383286024608
 20
-121.2916321918993
 30
0.0
 10
101.3984554686654
 20
-121.2757924696811
 30
0.0
 10
101.4184579681551
 20
-121.2757924696811
 30
0.0
 10
101.4377221968631
 20
-121.2757924696811
 30
0.0
 10
101.4535971968585
 20
-121.2916321918993
 30
0.0
 10
101.4535971968585
 20
-121.3116346918944
 30
0.0
  0
SPLINE
  5
A2
330
1F
100
AcDbEntity
  8
_U+30EC_U+30A4_U+30E4_U+30FC 1
 62
   179
420
  2234388
370
     9
100
AcDbSpline
210
0.0
220
0.0
230
1.0
 70
    11
 71
     3
 72
    17
 73
    13
 74
     0
 42
0.0000000001
 43
0.0000000001
 12
1.0
 22
0.0
 32
0.0
 13
1.0
 23
0.0
 33
0.0
 40
0.0
 40
0.0
 40
0.0
 40
0.0
 40
1.0
 40
1.0
 40
1.0
 40
2.0
 40
2.0
 40
2.0
 40
3.0
 40
3.0
 40
3.0
 40
4.0
 40
4.0
 40
4.0
 40
4.0
 10
90.12815825619468
 20
-137.6484560766992
 30
0.0
 10
90.12815825619468
 20
-137.5933169100461
 30
0.0
 10
90.08339075733679
 20
-137.5485494100575
 30
0.0
 10
90.02758131431617
 20
-137.5485494100575
 30
0.0
 10
89.97244442195132
 20
-137.5485494100575
 30
0.0
 10
89.92767465019833
 20
-137.5933169100461
 30
0.0
 10
89.92767465019833
 20
-137.6484560766992
 30
0.0
 10
89.92767465019833
 20
-137.7035599655741
 30
0.0
 10
89.97244442195132
 20
-137.7483627433408
 30
0.0
 10
90.02758131431617
 20
-137.7483627433408
 30
0.0
 10
90.08339075733679
 20
-137.7483627433408
 30
0.0
 10
90.12815825619468
 20
-137.7035599655741
 30
0.0
 10
90.12815825619468
 20
-137.6484560766992
 30
0.0
  0
SPLINE
  5
A3
330
1F
100
AcDbEntity
  8
_U+30EC_U+30A4_U+30E4_U+30FC 1
 62
   179
420
  2234388
370
     9
100
AcDbSpline
210
0.0
220
0.0
230
1.0
 70
    11
 71
     3
 72
    17
 73
    13
 74
     0
 42
0.0000000001
 43
0.0000000001
 12
1.0
 22
0.0
 32
0.0
 13
1.0
 23
0.0
 33
0.0
 40
0.0
 40
0.0
 40
0.0
 40
0.0
 40
1.0
 40
1.0
 40
1.0
 40
2.0
 40
2.0
 40
2.0
 40
3.0
 40
3.0
 40
3.0
 40
4.0
 40
4.0
 40
4.0
 40
4.0
 10
99.92740745063945
 20
-137.6484560766992
 30
0.0
 10
99.92740745063945
 20
-137.5933169100461
 30
0.0
 10
99.88260467400468
 20
-137.5485494100575
 30
0.0
 10
99.82750078652161
 20
-137.5485494100575
 30
0.0
 10
99.77236162126167
 20
-137.5485494100575
 30
0.0
 10
99.72759412240377
 20
-137.5933169100461
 30
0.0
 10
99.72759412240377
 20
-137.6484560766992
 30
0.0
 10
99.72759412240377
 20
-137.7035599655741
 30
0.0
 10
99.77236162126167
 20
-137.7483627433408
 30
0.0
 10
99.82750078652161
 20
-137.7483627433408
 30
0.0
 10
99.88260467400468
 20
-137.7483627433408
 30
0.0
 10
99.92740745063945
 20
-137.7035599655741
 30
0.0
 10
99.92740745063945
 20
-137.6484560766992
 30
0.0
  0
POLYLINE
  5
A4
330
1F
100
AcDbEntity
  8
_U+30EC_U+30A4_U+30E4_U+30FC 1
 62
   179
420
  2234388
370
     9
100
AcDb2dPolyline
 66
     1
 10
0.0
 20
0.0
 30
0.0
  0
VERTEX
  5
A5
330
A4
100
AcDbEntity
  8
_U+30EC_U+30A4_U+30E4_U+30FC 1
 62
   179
420
  2234388
370
     9
100
AcDbVertex
100
AcDb2dVertex
 10
90.02758131431617
 20
-137.6484560766992
 30
0.0
  0
VERTEX
  5
A6
330
A4
100
AcDbEntity
  8
_U+30EC_U+30A4_U+30E4_U+30FC 1
 62
   179
420
  2234388
370
     9
100
AcDbVertex
100
AcDb2dVertex
 10
99.82750078652161
 20
-137.6484560766992
 30
0.0
  0
SEQEND
  5
A7
330
A4
100
AcDbEntity
  8
_U+30EC_U+30A4_U+30E4_U+30FC 1
 62
   179
420
  2234388
370
     9
  0
POLYLINE
  5
A8
330
1F
100
AcDbEntity
  8
_U+30EC_U+30A4_U+30E4_U+30FC 1
 62
   179
420
  2234388
370
     9
100
AcDb2dPolyline
 66
     1
 10
0.0
 20
0.0
 30
0.0
  0
VERTEX
  5
A9
330
A8
100
AcDbEntity
  8
_U+30EC_U+30A4_U+30E4_U+30FC 1
 62
   179
420
  2234388
370
     9
100
AcDbVertex
100
AcDb2dVertex
 10
90.02758131431617
 20
-138.579295520911
 30
0.0
  0
VERTEX
  5
AA
330
A8
100
AcDbEntity
  8
_U+30EC_U+30A4_U+30E4_U+30FC 1
 62
   179
420
  2234388
370
     9
100
AcDbVertex
100
AcDb2dVertex
 10
90.02758131431617
 20
-136.1188116326367
 30
0.0
  0
SEQEND
  5
AB
330
A8
100
AcDbEntity
  8
_U+30EC_U+30A4_U+30E4_U+30FC 1
 62
   179
420
  2234388
370
     9
  0
POLYLINE
  5
AC
330
1F
100
AcDbEntity
  8
_U+30EC_U+30A4_U+30E4_U+30FC 1
 62
   179
420
  2234388
370
     9
100
AcDb2dPolyline
 66
     1
 10
0.0
 20
0.0
 30
0.0
  0
VERTEX
  5
AD
330
AC
100
AcDbEntity
  8
_U+30EC_U+30A4_U+30E4_U+30FC 1
 62
   179
420
  2234388
370
     9
100
AcDbVertex
100
AcDb2dVertex
 10
99.82750078652161
 20
-138.579295520911
 30
0.0
  0
VERTEX
  5
AE
330
AC
100
AcDbEntity
  8
_U+30EC_U+30A4_U+30E4_U+30FC 1
 62
   179
420
  2234388
370
     9
100
AcDbVertex
100
AcDb2dVertex
 10
99.82750078652161
 20
-136.1188116326367
 30
0.0
  0
SEQEND
  5
AF
330
AC
100
AcDbEntity
  8
_U+30EC_U+30A4_U+30E4_U+30FC 1
 62
   179
420
  2234388
370
     9
  0
INSERT
  5
B1
330
1F
100
AcDbEntity
  8
_U+30EC_U+30A4_U+30E4_U+30FC 1
100
AcDbBlockReference
  2
block 5
 10
0.0
 20
0.0
 30
0.0
  0
SPLINE
  5
C3
330
1F
100
AcDbEntity
  8
_U+30EC_U+30A4_U+30E4_U+30FC 1
 62
   179
420
  2234388
370
     9
100
AcDbSpline
210
0.0
220
0.0
230
1.0
 70
    11
 71
     3
 72
    17
 73
    13
 74
     0
 42
0.0000000001
 43
0.0000000001
 12
1.0
 22
0.0
 32
0.0
 13
1.0
 23
0.0
 33
0.0
 40
0.0
 40
0.0
 40
0.0
 40
0.0
 40
1.0
 40
1.0
 40
1.0
 40
2.0
 40
2.0
 40
2.0
 40
3.0
 40
3.0
 40
3.0
 40
4.0
 40
4.0
 40
4.0
 40
4.0
 10
83.1435817677194
 20
-123.8866655245838
 30
0.0
 10
83.1435817677194
 20
-123.8315616357089
 30
0.0
 10
83.09881426886152
 20
-123.7867588579422
 30
0.0
 10
83.04367510360157
 20
-123.7867588579422
 30
0.0
 10
82.98821843834972
 20
-123.7867588579422
 30
0.0
 10
82.94341566171495
 20
-123.8315616357089
 30
0.0
 10
82.94341566171495
 20
-123.8866655245838
 30
0.0
 10
82.94341566171495
 20
-123.9418046912369
 30
0.0
 10
82.98821843834972
 20
-123.9865721912254
 30
0.0
 10
83.04367510360157
 20
-123.9865721912254
 30
0.0
 10
83.09881426886152
 20
-123.9865721912254
 30
0.0
 10
83.1435817677194
 20
-123.9418046912369
 30
0.0
 10
83.1435817677194
 20
-123.8866655245838
 30
0.0
  0
SPLINE
  5
C4
330
1F
100
AcDbEntity
  8
_U+30EC_U+30A4_U+30E4_U+30FC 1
 62
   179
420
  2234388
370
     9
100
AcDbSpline
210
0.0
220
0.0
230
1.0
 70
    11
 71
     3
 72
    17
 73
    13
 74
     0
 42
0.0000000001
 43
0.0000000001
 12
1.0
 22
0.0
 32
0.0
 13
1.0
 23
0.0
 33
0.0
 40
0.0
 40
0.0
 40
0.0
 40
0.0
 40
1.0
 40
1.0
 40
1.0
 40
2.0
 40
2.0
 40
2.0
 40
3.0
 40
3.0
 40
3.0
 40
4.0
 40
4.0
 40
4.0
 40
4.0
 10
83.1435817677194
 20
-128.4534796901089
 30
0.0
 10
83.1435817677194
 20
-128.3983758012336
 30
0.0
 10
83.09881426886152
 20
-128.3535730234672
 30
0.0
 10
83.04367510360157
 20
-128.3535730234672
 30
0.0
 10
82.98821843834972
 20
-128.3535730234672
 30
0.0
 10
82.94341566171495
 20
-128.3983758012336
 30
0.0
 10
82.94341566171495
 20
-128.4534796901089
 30
0.0
 10
82.94341566171495
 20
-128.5086188567616
 30
0.0
 10
82.98821843834972
 20
-128.5533863567505
 30
0.0
 10
83.04367510360157
 20
-128.5533863567505
 30
0.0
 10
83.09881426886152
 20
-128.5533863567505
 30
0.0
 10
83.1435817677194
 20
-128.5086188567616
 30
0.0
 10
83.1435817677194
 20
-128.4534796901089
 30
0.0
  0
POLYLINE
  5
C5
330
1F
100
AcDbEntity
  8
_U+30EC_U+30A4_U+30E4_U+30FC 1
 62
   179
420
  2234388
370
     9
100
AcDb2dPolyline
 66
     1
 10
0.0
 20
0.0
 30
0.0
  0
VERTEX
  5
C6
330
C5
100
AcDbEntity
  8
_U+30EC_U+30A4_U+30E4_U+30FC 1
 62
   179
420
  2234388
370
     9
100
AcDbVertex
100
AcDb2dVertex
 10
83.04162899254266
 20
-123.8866655245838
 30
0.0
  0
VERTEX
  5
C7
330
C5
100
AcDbEntity
  8
_U+30EC_U+30A4_U+30E4_U+30FC 1
 62
   179
420
  2234388
370
     9
100
AcDbVertex
100
AcDb2dVertex
 10
83.04162899254266
 20
-128.3866635790144
 30
0.0
  0
SEQEND
  5
C8
330
C5
100
AcDbEntity
  8
_U+30EC_U+30A4_U+30E4_U+30FC 1
 62
   179
420
  2234388
370
     9
  0
POLYLINE
  5
C9
330
1F
100
AcDbEntity
  8
_U+30EC_U+30A4_U+30E4_U+30FC 1
 62
   179
420
  2234388
370
     9
100
AcDb2dPolyline
 66
     1
 10
0.0
 20
0.0
 30
0.0
  0
VERTEX
  5
CA
330
C9
100
AcDbEntity
  8
_U+30EC_U+30A4_U+30E4_U+30FC 1
 62
   179
420
  2234388
370
     9
100
AcDbVertex
100
AcDb2dVertex
 10
88.98198328543603
 20
-123.8866655245838
 30
0.0
  0
VERTEX
  5
CB
330
C9
100
AcDbEntity
  8
_U+30EC_U+30A4_U+30E4_U+30FC 1
 62
   179
420
  2234388
370
     9
100
AcDbVertex
100
AcDb2dVertex
 10
81.83823346768828
 20
-123.8866655245838
 30
0.0
  0
SEQEND
  5
CC
330
C9
100
AcDbEntity
  8
_U+30EC_U+30A4_U+30E4_U+30FC 1
 62
   179
420
  2234388
370
     9
  0
INSERT
  5
CE
330
1F
100
AcDbEntity
  8
_U+30EC_U+30A4_U+30E4_U+30FC 1
100
AcDbBlockReference
  2
block 6
 10
0.0
 20
0.0
 30
0.0
  0
ENDSEC
  0
SECTION
  2
OBJECTS
  0
DICTIONARY
  5
C
330
0
100
AcDbDictionary
281
     1
  3
ACAD_GROUP
350
D
  3
ACAD_LAYOUT
350
1A
  3
ACAD_MATERIAL
350
3B
  3
ACAD_MLEADERSTYLE
350
F1
  3
ACAD_MLINESTYLE
350
17
  3
ACAD_PLOTSETTINGS
350
19
  3
ACAD_PLOTSTYLENAME
350
E
  3
ACAD_TABLESTYLE
350
F0
  3
ACAD_VISUALSTYLE
350
2A
  0
SUN
  5
3F
330
29
100
AcDbSun
 90
        1
290
     0
 63
     7
421
 16777215
 40
1.0
291
     1
 91
  2455826
 92
 54000000
292
     0
 70
     2
 71
   256
280
     1
  0
DICTIONARY
  5
D
102
{ACAD_REACTORS
330
C
102
}
330
C
100
AcDbDictionary
281
     1
  0
DICTIONARY
  5
1A
102
{ACAD_REACTORS
330
C
102
}
330
C
100
AcDbDictionary
281
     1
  3
Layout1
350
1E
  3
Layout2
350
26
  3
Model
350
22
  0
DICTIONARY
  5
3B
102
{ACAD_REACTORS
330
C
102
}
330
C
100
AcDbDictionary
281
     1
  3
ByBlock
350
3D
  3
ByLayer
350
3C
  3
Global
350
3E
  0
DICTIONARY
  5
F1
102
{ACAD_REACTORS
330
C
102
}
330
C
100
AcDbDictionary
281
     1
  0
DICTIONARY
  5
17
102
{ACAD_REACTORS
330
C
102
}
330
C
100
AcDbDictionary
281
     1
  3
Standard
350
18
  0
DICTIONARY
  5
19
102
{ACAD_REACTORS
330
C
102
}
330
C
100
AcDbDictionary
281
     1
  0
ACDBDICTIONARYWDFLT
  5
E
102
{ACAD_REACTORS
330
C
102
}
330
C
100
AcDbDictionary
281
     1
  3
Normal
350
F
100
AcDbDictionaryWithDefault
340
F
  0
DICTIONARY
  5
F0
102
{ACAD_REACTORS
330
C
102
}
330
C
100
AcDbDictionary
281
     1
  0
DICTIONARY
  5
2A
102
{ACAD_REACTORS
330
C
102
}
330
C
100
AcDbDictionary
281
     1
  3
2dWireframe
350
2F
  3
3D Hidden
350
31
  3
3dWireframe
350
30
  3
Basic
350
32
  3
Brighten
350
36
  3
ColorChange
350
3A
  3
Conceptual
350
34
  3
Dim
350
35
  3
Facepattern
350
39
  3
Flat
350
2B
  3
FlatWithEdges
350
2C
  3
Gouraud
350
2D
  3
GouraudWithEdges
350
2E
  3
Linepattern
350
38
  3
Realistic
350
33
  3
Thicken
350
37
  0
LAYOUT
  5
1E
102
{ACAD_REACTORS
330
1A
102
}
330
1A
100
AcDbPlotSettings
  1

  2
none_device
  4

  6

 40
0.0
 41
0.0
 42
0.0
 43
0.0
 44
0.0
 45
0.0
 46
0.0
 47
0.0
 48
0.0
 49
0.0
140
0.0
141
0.0
142
1.0
143
1.0
 70
   688
 72
     0
 73
     0
 74
     5
  7

 75
    16
 76
     0
 77
     2
 78
   300
147
1.0
148
0.0
149
0.0
100
AcDbLayout
  1
Layout1
 70
     1
 71
     1
 10
0.0
 20
0.0
 11
12.0
 21
9.0
 12
0.0
 22
0.0
 32
0.0
 14
1.000000000000000E+20
 24
1.000000000000000E+20
 34
1.000000000000000E+20
 15
-1.000000000000000E+20
 25
-1.000000000000000E+20
 35
-1.000000000000000E+20
146
0.0
 13
0.0
 23
0.0
 33
0.0
 16
1.0
 26
0.0
 36
0.0
 17
0.0
 27
1.0
 37
0.0
 76
     0
330
1B
  0
LAYOUT
  5
26
102
{ACAD_REACTORS
330
1A
102
}
330
1A
100
AcDbPlotSettings
  1

  2
none_device
  4

  6

 40
0.0
 41
0.0
 42
0.0
 43
0.0
 44
0.0
 45
0.0
 46
0.0
 47
0.0
 48
0.0
 49
0.0
140
0.0
141
0.0
142
1.0
143
1.0
 70
   688
 72
     0
 73
     0
 74
     5
  7

 75
    16
 76
     0
 77
     2
 78
   300
147
1.0
148
0.0
149
0.0
100
AcDbLayout
  1
Layout2
 70
     1
 71
     2
 10
0.0
 20
0.0
 11
0.0
 21
0.0
 12
0.0
 22
0.0
 32
0.0
 14
0.0
 24
0.0
 34
0.0
 15
0.0
 25
0.0
 35
0.0
146
0.0
 13
0.0
 23
0.0
 33
0.0
 16
1.0
 26
0.0
 36
0.0
 17
0.0
 27
1.0
 37
0.0
 76
     0
330
23
  0
LAYOUT
  5
22
102
{ACAD_REACTORS
330
1A
102
}
330
1A
100
AcDbPlotSettings
  1

  2
none_device
  4

  6

 40
0.0
 41
0.0
 42
0.0
 43
0.0
 44
0.0
 45
0.0
 46
0.0
 47
0.0
 48
0.0
 49
0.0
140
0.0
141
0.0
142
1.0
143
1.0
 70
  1712
 72
     0
 73
     0
 74
     0
  7

 75
     0
 76
     0
 77
     2
 78
   300
147
1.0
148
0.0
149
0.0
100
AcDbLayout
  1
Model
 70
     1
 71
     0
 10
0.0
 20
0.0
 11
12.0
 21
9.0
 12
0.0
 22
0.0
 32
0.0
 14
1.000000000000000E+20
 24
1.000000000000000E+20
 34
1.000000000000000E+20
 15
-1.000000000000000E+20
 25
-1.000000000000000E+20
 35
-1.000000000000000E+20
146
0.0
 13
0.0
 23
0.0
 33
0.0
 16
1.0
 26
0.0
 36
0.0
 17
0.0
 27
1.0
 37
0.0
 76
     0
330
1F
331
29
  0
MATERIAL
  5
3D
102
{ACAD_REACTORS
330
3B
102
}
330
3B
100
AcDbMaterial
  1
ByBlock
 72
     1
 94
      127
  0
MATERIAL
  5
3C
102
{ACAD_REACTORS
330
3B
102
}
330
3B
100
AcDbMaterial
  1
ByLayer
 72
     1
 94
      127
  0
MATERIAL
  5
3E
102
{ACAD_REACTORS
330
3B
102
}
330
3B
100
AcDbMaterial
  1
Global
 72
     1
 94
      127
  0
MLINESTYLE
  5
18
102
{ACAD_REACTORS
330
17
102
}
330
17
100
AcDbMlineStyle
  2
Standard
 70
     0
  3

 62
   256
 51
90.0
 52
90.0
 71
     2
 49
0.5
 62
   256
  6
BYLAYER
 49
-0.5
 62
   256
  6
BYLAYER
  0
ACDBPLACEHOLDER
  5
F
102
{ACAD_REACTORS
330
E
102
}
330
E
  0
VISUALSTYLE
  5
2F
102
{ACAD_REACTORS
330
2A
102
}
330
2A
100
AcDbVisualStyle
  2
2dWireframe
 70
     4
177
     2
291
     0
 71
     0
176
     1
 72
     2
176
     1
 73
     0
176
     1
 90
        0
176
     1
 40
-0.6
176
     1
 41
-30.0
176
     1
 62
     5
 63
     7
421
 16777215
176
     1
 74
     1
176
     1
 91
        4
176
     1
 64
     7
176
     1
 65
   257
176
     1
 75
     1
176
     1
175
     1
176
     1
 42
1.0
176
     1
 92
        0
176
     1
 66
   257
176
     1
 43
1.0
176
     1
 76
     1
176
     1
 77
     6
176
     1
 78
     2
176
     1
 67
     7
176
     1
 79
     5
176
     1
170
     0
176
     1
171
     0
176
     1
290
     0
176
     1
 93
        1
176
     1
 44
0.0
176
     1
173
     0
176
     1
  0
VISUALSTYLE
  5
31
102
{ACAD_REACTORS
330
2A
102
}
330
2A
100
AcDbVisualStyle
  2
3D Hidden
 70
     6
177
     2
291
     0
 71
     1
176
     1
 72
     2
176
     1
 73
     2
176
     1
 90
        0
176
     1
 40
-0.6
176
     1
 41
-30.0
176
     1
 62
     5
 63
     7
421
 16777215
176
     1
 74
     2
176
     1
 91
        2
176
     1
 64
     7
176
     1
 65
   257
176
     1
 75
     2
176
     1
175
     1
176
     1
 42
40.0
176
     1
 92
        0
176
     1
 66
   257
176
     1
 43
1.0
176
     1
 76
     1
176
     1
 77
     6
176
     1
 78
     2
176
     1
 67
     7
176
     1
 79
     3
176
     1
170
     0
176
     1
171
     0
176
     1
290
     0
176
     1
 93
        1
176
     1
 44
0.0
176
     1
173
     0
176
     1
  0
VISUALSTYLE
  5
30
102
{ACAD_REACTORS
330
2A
102
}
330
2A
100
AcDbVisualStyle
  2
3dWireframe
 70
     5
177
     2
291
     0
 71
     0
176
     1
 72
     2
176
     1
 73
     0
176
     1
 90
        0
176
     1
 40
-0.6
176
     1
 41
-30.0
176
     1
 62
     5
 63
     7
421
 16777215
176
     1
 74
     1
176
     1
 91
        4
176
     1
 64
     7
176
     1
 65
   257
176
     1
 75
     1
176
     1
175
     1
176
     1
 42
1.0
176
     1
 92
        0
176
     1
 66
   257
176
     1
 43
1.0
176
     1
 76
     1
176
     1
 77
     6
176
     1
 78
     2
176
     1
 67
     7
176
     1
 79
     5
176
     1
170
     0
176
     1
171
     0
176
     1
290
     0
176
     1
 93
        1
176
     1
 44
0.0
176
     1
173
     0
176
     1
  0
VISUALSTYLE
  5
32
102
{ACAD_REACTORS
330
2A
102
}
330
2A
100
AcDbVisualStyle
  2
Basic
 70
     7
177
     2
291
     1
 71
     1
176
     1
 72
     0
176
     1
 73
     1
176
     1
 90
        0
176
     1
 40
-0.6
176
     1
 41
-30.0
176
     1
 62
     5
 63
     7
421
 16777215
176
     1
 74
     0
176
     1
 91
        4
176
     1
 64
     7
176
     1
 65
   257
176
     1
 75
     1
176
     1
175
     1
176
     1
 42
1.0
176
     1
 92
        8
176
     1
 66
     7
176
     1
 43
1.0
176
     1
 76
     1
176
     1
 77
     6
176
     1
 78
     2
176
     1
 67
     7
176
     1
 79
     5
176
     1
170
     0
176
     1
171
     0
176
     1
290
     0
176
     1
 93
        1
176
     1
 44
0.0
176
     1
173
     0
176
     1
  0
VISUALSTYLE
  5
36
102
{ACAD_REACTORS
330
2A
102
}
330
2A
100
AcDbVisualStyle
  2
Brighten
 70
    12
177
     2
291
     1
 71
     2
176
     1
 72
     2
176
     1
 73
     0
176
     1
 90
        0
176
     1
 40
-0.6
176
     1
 41
-30.0
176
     1
 62
     5
 63
     7
421
 16777215
176
     1
 74
     1
176
     1
 91
        4
176
     1
 64
     7
176
     1
 65
   257
176
     1
 75
     1
176
     1
175
     1
176
     1
 42
1.0
176
     1
 92
        8
176
     1
 66
     7
176
     1
 43
1.0
176
     1
 76
     1
176
     1
 77
     6
176
     1
 78
     2
176
     1
 67
     7
176
     1
 79
     5
176
     1
170
     0
176
     1
171
     0
176
     1
290
     0
176
     1
 93
        1
176
     1
 44
50.0
176
     1
173
     0
176
     1
  0
VISUALSTYLE
  5
3A
102
{ACAD_REACTORS
330
2A
102
}
330
2A
100
AcDbVisualStyle
  2
ColorChange
 70
    16
177
     2
291
     1
 71
     2
176
     1
 72
     2
176
     1
 73
     3
176
     1
 90
        0
176
     1
 40
-0.6
176
     1
 41
-30.0
176
     1
 62
     5
 63
     8
421
  8421504
176
     1
 74
     1
176
     1
 91
        4
176
     1
 64
     7
176
     1
 65
   257
176
     1
 75
     1
176
     1
175
     1
176
     1
 42
1.0
176
     1
 92
        8
176
     1
 66
     8
424
  8421504
176
     1
 43
1.0
176
     1
 76
     1
176
     1
 77
     6
176
     1
 78
     2
176
     1
 67
     7
176
     1
 79
     5
176
     1
170
     0
176
     1
171
     0
176
     1
290
     0
176
     1
 93
        1
176
     1
 44
0.0
176
     1
173
     0
176
     1
  0
VISUALSTYLE
  5
34
102
{ACAD_REACTORS
330
2A
102
}
330
2A
100
AcDbVisualStyle
  2
Conceptual
 70
     9
177
     2
291
     0
 71
     3
176
     1
 72
     2
176
     1
 73
     0
176
     1
 90
        0
176
     1
 40
-0.6
176
     1
 41
-30.0
176
     1
 62
     5
 63
     7
421
 16777215
176
     1
 74
     2
176
     1
 91
        2
176
     1
 64
     7
176
     1
 65
   257
176
     1
 75
     1
176
     1
175
     1
176
     1
 42
40.0
176
     1
 92
        8
176
     1
 66
     7
176
     1
 43
1.0
176
     1
 76
     1
176
     1
 77
     6
176
     1
 78
     2
176
     1
 67
     7
176
     1
 79
     3
176
     1
170
     0
176
     1
171
     0
176
     1
290
     0
176
     1
 93
        1
176
     1
 44
0.0
176
     1
173
     0
176
     1
  0
VISUALSTYLE
  5
35
102
{ACAD_REACTORS
330
2A
102
}
330
2A
100
AcDbVisualStyle
  2
Dim
 70
    11
177
     2
291
     1
 71
     2
176
     1
 72
     2
176
     1
 73
     0
176
     1
 90
        0
176
     1
 40
-0.6
176
     1
 41
-30.0
176
     1
 62
     5
 63
     7
421
 16777215
176
     1
 74
     1
176
     1
 91
        4
176
     1
 64
     7
176
     1
 65
   257
176
     1
 75
     1
176
     1
175
     1
176
     1
 42
1.0
176
     1
 92
        8
176
     1
 66
     7
176
     1
 43
1.0
176
     1
 76
     1
176
     1
 77
     6
176
     1
 78
     2
176
     1
 67
     7
176
     1
 79
     5
176
     1
170
     0
176
     1
171
     0
176
     1
290
     0
176
     1
 93
        1
176
     1
 44
-50.0
176
     1
173
     0
176
     1
  0
VISUALSTYLE
  5
39
102
{ACAD_REACTORS
330
2A
102
}
330
2A
100
AcDbVisualStyle
  2
Facepattern
 70
    15
177
     2
291
     1
 71
     2
176
     1
 72
     2
176
     1
 73
     0
176
     1
 90
        0
176
     1
 40
-0.6
176
     1
 41
-30.0
176
     1
 62
     5
 63
     7
421
 16777215
176
     1
 74
     1
176
     1
 91
        4
176
     1
 64
     7
176
     1
 65
   257
176
     1
 75
     1
176
     1
175
     1
176
     1
 42
1.0
176
     1
 92
        8
176
     1
 66
     7
176
     1
 43
1.0
176
     1
 76
     1
176
     1
 77
     6
176
     1
 78
     2
176
     1
 67
     7
176
     1
 79
     5
176
     1
170
     0
176
     1
171
     0
176
     1
290
     0
176
     1
 93
        1
176
     1
 44
0.0
176
     1
173
     0
176
     1
  0
VISUALSTYLE
  5
2B
102
{ACAD_REACTORS
330
2A
102
}
330
2A
100
AcDbVisualStyle
  2
Flat
 70
     0
177
     2
291
     1
 71
     2
176
     1
 72
     1
176
     1
 73
     1
176
     1
 90
        2
176
     1
 40
-0.6
176
     1
 41
30.0
176
     1
 62
     5
 63
     7
421
 16777215
176
     1
 74
     0
176
     1
 91
        4
176
     1
 64
     7
176
     1
 65
   257
176
     1
 75
     1
176
     1
175
     1
176
     1
 42
1.0
176
     1
 92
        8
176
     1
 66
     7
176
     1
 43
1.0
176
     1
 76
     1
176
     1
 77
     6
176
     1
 78
     2
176
     1
 67
     7
176
     1
 79
     5
176
     1
170
     0
176
     1
171
     0
176
     1
290
     0
176
     1
 93
       13
176
     1
 44
0.0
176
     1
173
     0
176
     1
  0
VISUALSTYLE
  5
2C
102
{ACAD_REACTORS
330
2A
102
}
330
2A
100
AcDbVisualStyle
  2
FlatWithEdges
 70
     1
177
     2
291
     1
 71
     2
176
     1
 72
     1
176
     1
 73
     1
176
     1
 90
        2
176
     1
 40
-0.6
176
     1
 41
30.0
176
     1
 62
     5
 63
     7
421
 16777215
176
     1
 74
     1
176
     1
 91
        4
176
     1
 64
     7
176
     1
 65
   257
176
     1
 75
     1
176
     1
175
     1
176
     1
 42
1.0
176
     1
 92
        0
176
     1
 66
   257
176
     1
 43
1.0
176
     1
 76
     1
176
     1
 77
     6
176
     1
 78
     2
176
     1
 67
     7
176
     1
 79
     5
176
     1
170
     0
176
     1
171
     0
176
     1
290
     0
176
     1
 93
       13
176
     1
 44
0.0
176
     1
173
     0
176
     1
  0
VISUALSTYLE
  5
2D
102
{ACAD_REACTORS
330
2A
102
}
330
2A
100
AcDbVisualStyle
  2
Gouraud
 70
     2
177
     2
291
     1
 71
     2
176
     1
 72
     2
176
     1
 73
     1
176
     1
 90
        2
176
     1
 40
-0.6
176
     1
 41
30.0
176
     1
 62
     5
 63
     7
421
 16777215
176
     1
 74
     0
176
     1
 91
        4
176
     1
 64
     7
176
     1
 65
   257
176
     1
 75
     1
176
     1
175
     1
176
     1
 42
1.0
176
     1
 92
        0
176
     1
 66
     7
176
     1
 43
1.0
176
     1
 76
     1
176
     1
 77
     6
176
     1
 78
     2
176
     1
 67
     7
176
     1
 79
     5
176
     1
170
     0
176
     1
171
     0
176
     1
290
     0
176
     1
 93
       13
176
     1
 44
0.0
176
     1
173
     0
176
     1
  0
VISUALSTYLE
  5
2E
102
{ACAD_REACTORS
330
2A
102
}
330
2A
100
AcDbVisualStyle
  2
GouraudWithEdges
 70
     3
177
     2
291
     1
 71
     2
176
     1
 72
     2
176
     1
 73
     1
176
     1
 90
        2
176
     1
 40
-0.6
176
     1
 41
30.0
176
     1
 62
     5
 63
     7
421
 16777215
176
     1
 74
     1
176
     1
 91
        4
176
     1
 64
     7
176
     1
 65
   257
176
     1
 75
     1
176
     1
175
     1
176
     1
 42
1.0
176
     1
 92
        0
176
     1
 66
   257
176
     1
 43
1.0
176
     1
 76
     1
176
     1
 77
     6
176
     1
 78
     2
176
     1
 67
     7
176
     1
 79
     5
176
     1
170
     0
176
     1
171
     0
176
     1
290
     0
176
     1
 93
       13
176
     1
 44
0.0
176
     1
173
     0
176
     1
  0
VISUALSTYLE
  5
38
102
{ACAD_REACTORS
330
2A
102
}
330
2A
100
AcDbVisualStyle
  2
Linepattern
 70
    14
177
     2
291
     1
 71
     2
176
     1
 72
     2
176
     1
 73
     0
176
     1
 90
        0
176
     1
 40
-0.6
176
     1
 41
-30.0
176
     1
 62
     5
 63
     7
421
 16777215
176
     1
 74
     1
176
     1
 91
        4
176
     1
 64
     7
176
     1
 65
   257
176
     1
 75
     7
176
     1
175
     7
176
     1
 42
1.0
176
     1
 92
        8
176
     1
 66
     7
176
     1
 43
1.0
176
     1
 76
     1
176
     1
 77
     6
176
     1
 78
     2
176
     1
 67
     7
176
     1
 79
     5
176
     1
170
     0
176
     1
171
     0
176
     1
290
     0
176
     1
 93
        1
176
     1
 44
0.0
176
     1
173
     0
176
     1
  0
VISUALSTYLE
  5
33
102
{ACAD_REACTORS
330
2A
102
}
330
2A
100
AcDbVisualStyle
  2
Realistic
 70
     8
177
     2
291
     0
 71
     2
176
     1
 72
     2
176
     1
 73
     0
176
     1
 90
        0
176
     1
 40
-0.6
176
     1
 41
-30.0
176
     1
 62
     5
 63
     7
421
 16777215
176
     1
 74
     1
176
     1
 91
        0
176
     1
 64
     7
176
     1
 65
   257
176
     1
 75
     1
176
     1
175
     1
176
     1
 42
1.0
176
     1
 92
        8
176
     1
 66
     8
424
  7895160
176
     1
 43
1.0
176
     1
 76
     1
176
     1
 77
     6
176
     1
 78
     2
176
     1
 67
     7
176
     1
 79
     5
176
     1
170
     0
176
     1
171
     0
176
     1
290
     0
176
     1
 93
       13
176
     1
 44
0.0
176
     1
173
     0
176
     1
  0
VISUALSTYLE
  5
37
102
{ACAD_REACTORS
330
2A
102
}
330
2A
100
AcDbVisualStyle
  2
Thicken
 70
    13
177
     2
291
     1
 71
     2
176
     1
 72
     2
176
     1
 73
     0
176
     1
 90
        0
176
     1
 40
-0.6
176
     1
 41
-30.0
176
     1
 62
     5
 63
     7
421
 16777215
176
     1
 74
     1
176
     1
 91
        4
176
     1
 64
     7
176
     1
 65
   257
176
     1
 75
     1
176
     1
175
     1
176
     1
 42
1.0
176
     1
 92
       12
176
     1
 66
     7
176
     1
 43
1.0
176
     1
 76
     1
176
     1
 77
     6
176
     1
 78
     2
176
     1
 67
     7
176
     1
 79
     5
176
     1
170
     0
176
     1
171
     0
176
     1
290
     0
176
     1
 93
        1
176
     1
 44
0.0
176
     1
173
     0
176
     1
  0
ENDSEC
  0
EOF
