  0
SECTION
  2
HEADER
  9
$ACADVER
  1
AC1024
  9
$ACADMAINTVER
 70
   226
  9
$DWGCODEPAGE
  3
ANSI_932
  9
$INSBASE
 10
0.0
 20
0.0
 30
0.0
  9
$EXTMIN
 10
1.000000000000000E+20
 20
1.000000000000000E+20
 30
1.000000000000000E+20
  9
$EXTMAX
 10
-1.000000000000000E+20
 20
-1.000000000000000E+20
 30
-1.000000000000000E+20
  9
$LIMMIN
 10
0.0
 20
0.0
  9
$LIMMAX
 10
12.0
 20
9.0
  9
$ORTHOMODE
 70
     0
  9
$REGENMODE
 70
     1
  9
$FILLMODE
 70
     1
  9
$QTEXTMODE
 70
     0
  9
$MIRRTEXT
 70
     0
  9
$LTSCALE
 40
1.0
  9
$ATTMODE
 70
     1
  9
$TEXTSIZE
 40
0.2
  9
$TRACEWID
 40
0.05
  9
$TEXTSTYLE
  7
Standard
  9
$CLAYER
  8
0
  9
$CELTYPE
  6
ByLayer
  9
$CECOLOR
 62
   256
  9
$CELTSCALE
 40
1.0
  9
$DISPSILH
 70
     0
  9
$DIMSCALE
 40
1.0
  9
$DIMASZ
 40
0.18
  9
$DIMEXO
 40
0.0625
  9
$DIMDLI
 40
0.38
  9
$DIMRND
 40
0.0
  9
$DIMDLE
 40
0.0
  9
$DIMEXE
 40
0.18
  9
$DIMTP
 40
0.0
  9
$DIMTM
 40
0.0
  9
$DIMTXT
 40
0.18
  9
$DIMCEN
 40
0.09
  9
$DIMTSZ
 40
0.0
  9
$DIMTOL
 70
     0
  9
$DIMLIM
 70
     0
  9
$DIMTIH
 70
     1
  9
$DIMTOH
 70
     1
  9
$DIMSE1
 70
     0
  9
$DIMSE2
 70
     0
  9
$DIMTAD
 70
     0
  9
$DIMZIN
 70
     0
  9
$DIMBLK
  1

  9
$DIMASO
 70
     1
  9
$DIMSHO
 70
     1
  9
$DIMPOST
  1

  9
$DIMAPOST
  1

  9
$DIMALT
 70
     0
  9
$DIMALTD
 70
     2
  9
$DIMALTF
 40
25.4
  9
$DIMLFAC
 40
1.0
  9
$DIMTOFL
 70
     0
  9
$DIMTVP
 40
0.0
  9
$DIMTIX
 70
     0
  9
$DIMSOXD
 70
     0
  9
$DIMSAH
 70
     0
  9
$DIMBLK1
  1

  9
$DIMBLK2
  1

  9
$DIMSTYLE
  2
Standard
  9
$DIMCLRD
 70
     0
  9
$DIMCLRE
 70
     0
  9
$DIMCLRT
 70
     0
  9
$DIMTFAC
 40
1.0
  9
$DIMGAP
 40
0.09
  9
$DIMJUST
 70
     0
  9
$DIMSD1
 70
     0
  9
$DIMSD2
 70
     0
  9
$DIMTOLJ
 70
     1
  9
$DIMTZIN
 70
     0
  9
$DIMALTZ
 70
     0
  9
$DIMALTTZ
 70
     0
  9
$DIMUPT
 70
     0
  9
$DIMDEC
 70
     4
  9
$DIMTDEC
 70
     4
  9
$DIMALTU
 70
     2
  9
$DIMALTTD
 70
     2
  9
$DIMTXSTY
  7
Standard
  9
$DIMAUNIT
 70
     0
  9
$DIMADEC
 70
     0
  9
$DIMALTRND
 40
0.0
  9
$DIMAZIN
 70
     0
  9
$DIMDSEP
 70
    46
  9
$DIMATFIT
 70
     3
  9
$DIMFRAC
 70
     0
  9
$DIMLDRBLK
  1

  9
$DIMLUNIT
 70
     2
  9
$DIMLWD
 70
    -2
  9
$DIMLWE
 70
    -2
  9
$DIMTMOVE
 70
     0
  9
$DIMFXL
 40
1.0
  9
$DIMFXLON
 70
     0
  9
$DIMJOGANG
 40
0.7853981633974483
  9
$DIMTFILL
 70
     0
  9
$DIMTFILLCLR
 70
     0
  9
$DIMARCSYM
 70
     0
  9
$DIMLTYPE
  6

  9
$DIMLTEX1
  6

  9
$DIMLTEX2
  6

  9
$DIMTXTDIRECTION
 70
     0
  9
$LUNITS
 70
     2
  9
$LUPREC
 70
     4
  9
$SKETCHINC
 40
0.1
  9
$FILLETRAD
 40
0.0
  9
$AUNITS
 70
     0
  9
$AUPREC
 70
     0
  9
$MENU
  1
.
  9
$ELEVATION
 40
0.0
  9
$PELEVATION
 40
0.0
  9
$THICKNESS
 40
0.0
  9
$LIMCHECK
 70
     0
  9
$CHAMFERA
 40
0.0
  9
$CHAMFERB
 40
0.0
  9
$CHAMFERC
 40
0.0
  9
$CHAMFERD
 40
0.0
  9
$SKPOLY
 70
     0
  9
$TDCREATE
 40
2459569.489467593
  9
$TDUCREATE
 40
2459569.114467592
  9
$TDUPDATE
 40
2459569.489467593
  9
$TDUUPDATE
 40
2459569.114467592
  9
$TDINDWG
 40
0.0000000000
  9
$TDUSRTIMER
 40
0.0000000000
  9
$USRTIMER
 70
     1
  9
$ANGBASE
 50
0.0
  9
$ANGDIR
 70
     0
  9
$PDMODE
 70
     0
  9
$PDSIZE
 40
0.0
  9
$PLINEWID
 40
0.0
  9
$SPLFRAME
 70
     0
  9
$SPLINETYPE
 70
     6
  9
$SPLINESEGS
 70
     8
  9
$HANDSEED
  5
189
  9
$SURFTAB1
 70
     6
  9
$SURFTAB2
 70
     6
  9
$SURFTYPE
 70
     6
  9
$SURFU
 70
     6
  9
$SURFV
 70
     6
  9
$UCSBASE
  2

  9
$UCSNAME
  2

  9
$UCSORG
 10
0.0
 20
0.0
 30
0.0
  9
$UCSXDIR
 10
1.0
 20
0.0
 30
0.0
  9
$UCSYDIR
 10
0.0
 20
1.0
 30
0.0
  9
$UCSORTHOREF
  2

  9
$UCSORTHOVIEW
 70
     0
  9
$UCSORGTOP
 10
0.0
 20
0.0
 30
0.0
  9
$UCSORGBOTTOM
 10
0.0
 20
0.0
 30
0.0
  9
$UCSORGLEFT
 10
0.0
 20
0.0
 30
0.0
  9
$UCSORGRIGHT
 10
0.0
 20
0.0
 30
0.0
  9
$UCSORGFRONT
 10
0.0
 20
0.0
 30
0.0
  9
$UCSORGBACK
 10
0.0
 20
0.0
 30
0.0
  9
$PUCSBASE
  2

  9
$PUCSNAME
  2

  9
$PUCSORG
 10
0.0
 20
0.0
 30
0.0
  9
$PUCSXDIR
 10
1.0
 20
0.0
 30
0.0
  9
$PUCSYDIR
 10
0.0
 20
1.0
 30
0.0
  9
$PUCSORTHOREF
  2

  9
$PUCSORTHOVIEW
 70
     0
  9
$PUCSORGTOP
 10
0.0
 20
0.0
 30
0.0
  9
$PUCSORGBOTTOM
 10
0.0
 20
0.0
 30
0.0
  9
$PUCSORGLEFT
 10
0.0
 20
0.0
 30
0.0
  9
$PUCSORGRIGHT
 10
0.0
 20
0.0
 30
0.0
  9
$PUCSORGFRONT
 10
0.0
 20
0.0
 30
0.0
  9
$PUCSORGBACK
 10
0.0
 20
0.0
 30
0.0
  9
$USERI1
 70
     0
  9
$USERI2
 70
     0
  9
$USERI3
 70
     0
  9
$USERI4
 70
     0
  9
$USERI5
 70
     0
  9
$USERR1
 40
0.0
  9
$USERR2
 40
0.0
  9
$USERR3
 40
0.0
  9
$USERR4
 40
0.0
  9
$USERR5
 40
0.0
  9
$WORLDVIEW
 70
     1
  9
$SHADEDGE
 70
     3
  9
$SHADEDIF
 70
    70
  9
$TILEMODE
 70
     1
  9
$MAXACTVP
 70
    64
  9
$PINSBASE
 10
0.0
 20
0.0
 30
0.0
  9
$PLIMCHECK
 70
     0
  9
$PEXTMIN
 10
1.000000000000000E+20
 20
1.000000000000000E+20
 30
1.000000000000000E+20
  9
$PEXTMAX
 10
-1.000000000000000E+20
 20
-1.000000000000000E+20
 30
-1.000000000000000E+20
  9
$PLIMMIN
 10
0.0
 20
0.0
  9
$PLIMMAX
 10
12.0
 20
9.0
  9
$UNITMODE
 70
     0
  9
$VISRETAIN
 70
     1
  9
$PLINEGEN
 70
     0
  9
$PSLTSCALE
 70
     1
  9
$TREEDEPTH
 70
  3020
  9
$CMLSTYLE
  2
Standard
  9
$CMLJUST
 70
     0
  9
$CMLSCALE
 40
1.0
  9
$PROXYGRAPHICS
 70
     1
  9
$MEASUREMENT
 70
     0
  9
$CELWEIGHT
370
    -1
  9
$ENDCAPS
280
     0
  9
$JOINSTYLE
280
     0
  9
$LWDISPLAY
290
     1
  9
$INSUNITS
 70
     4
  9
$HYPERLINKBASE
  1

  9
$STYLESHEET
  1

  9
$XEDIT
290
     1
  9
$CEPSNTYPE
380
     0
  9
$PSTYLEMODE
290
     1
  9
$FINGERPRINTGUID
  2
{576BCAA4-1153-A34D-BD16-F419C4D1506F}
  9
$VERSIONGUID
  2
{C6163B20-1589-AA4A-8251-C06236A9FDD3}
  9
$EXTNAMES
290
     1
  9
$PSVPSCALE
 40
0.0
  9
$OLESTARTUP
290
     0
  9
$SORTENTS
280
   127
  9
$INDEXCTL
280
     0
  9
$HIDETEXT
280
     1
  9
$XCLIPFRAME
280
     2
  9
$HALOGAP
280
     0
  9
$OBSCOLOR
 70
   257
  9
$OBSLTYPE
280
     0
  9
$INTERSECTIONDISPLAY
280
     0
  9
$INTERSECTIONCOLOR
 70
   257
  9
$DIMASSOC
280
     2
  9
$PROJECTNAME
  1

  9
$CAMERADISPLAY
290
     0
  9
$LENSLENGTH
 40
50.0
  9
$CAMERAHEIGHT
 40
0.0
  9
$STEPSPERSEC
 40
2.0
  9
$STEPSIZE
 40
6.0
  9
$3DDWFPREC
 40
2.0
  9
$PSOLWIDTH
 40
0.25
  9
$PSOLHEIGHT
 40
4.0
  9
$LOFTANG1
 40
1.570796326794896
  9
$LOFTANG2
 40
1.570796326794896
  9
$LOFTMAG1
 40
0.0
  9
$LOFTMAG2
 40
0.0
  9
$LOFTPARAM
 70
     7
  9
$LOFTNORMALS
280
     1
  9
$LATITUDE
 40
37.795
  9
$LONGITUDE
 40
-122.394
  9
$NORTHDIRECTION
 40
0.0
  9
$TIMEZONE
 70
 -8000
  9
$LIGHTGLYPHDISPLAY
280
     1
  9
$TILEMODELIGHTSYNCH
280
     1
  9
$CMATERIAL
347
11
  9
$SOLIDHIST
280
     0
  9
$SHOWHIST
280
     1
  9
$DWFFRAME
280
     2
  9
$DGNFRAME
280
     0
  9
$REALWORLDSCALE
290
     1
  9
$INTERFERECOLOR
 62
     1
  9
$INTERFEREOBJVS
345
33
  9
$INTERFEREVPVS
346
30
  9
$CSHADOW
280
     0
  9
$SHADOWPLANELOCATION
 40
0.0
  0
ENDSEC
  0
SECTION
  2
CLASSES
  0
CLASS
  1
ACDBDICTIONARYWDFLT
  2
AcDbDictionaryWithDefault
  3
ObjectDBX Classes
 90
        0
 91
        1
280
     0
281
     0
  0
CLASS
  1
MATERIAL
  2
AcDbMaterial
  3
ObjectDBX Classes
 90
     1153
 91
        3
280
     0
281
     0
  0
CLASS
  1
VISUALSTYLE
  2
AcDbVisualStyle
  3
ObjectDBX Classes
 90
     4095
 91
       24
280
     0
281
     0
  0
CLASS
  1
SCALE
  2
AcDbScale
  3
ObjectDBX Classes
 90
     1153
 91
       17
280
     0
281
     0
  0
CLASS
  1
TABLESTYLE
  2
AcDbTableStyle
  3
ObjectDBX Classes
 90
     4095
 91
        1
280
     0
281
     0
  0
CLASS
  1
MLEADERSTYLE
  2
AcDbMLeaderStyle
  3
ACDB_MLEADERSTYLE_CLASS
 90
     4095
 91
        1
280
     0
281
     0
  0
CLASS
  1
ACDBSECTIONVIEWSTYLE
  2
AcDbSectionViewStyle
  3
ObjectDBX Classes
 90
     1025
 91
        1
280
     0
281
     0
  0
CLASS
  1
ACDBDETAILVIEWSTYLE
  2
AcDbDetailViewStyle
  3
ObjectDBX Classes
 90
     1025
 91
        1
280
     0
281
     0
  0
CLASS
  1
DICTIONARYVAR
  2
AcDbDictionaryVar
  3
ObjectDBX Classes
 90
        0
 91
        5
280
     0
281
     0
  0
CLASS
  1
CELLSTYLEMAP
  2
AcDbCellStyleMap
  3
ObjectDBX Classes
 90
     1152
 91
        1
280
     0
281
     0
  0
ENDSEC
  0
SECTION
  2
TABLES
  0
TABLE
  2
VPORT
  5
8
330
0
100
AcDbSymbolTable
 70
     1
  0
VPORT
  5
57
330
8
100
AcDbSymbolTableRecord
100
AcDbViewportTableRecord
  2
*Active
 70
     0
 10
0.0
 20
0.0
 11
1.0
 21
1.0
 12
0.0
 22
0.0
 13
0.0
 23
0.0
 14
1.0
 24
1.0
 15
0.0
 25
0.0
 16
0.0
 26
0.0
 36
1.0
 17
104.9999999737534
 27
-148.4999999628701
 37
0.0
 40
302.939999924255
 41
0.7070707070707534
 42
50.0
 43
0.0
 44
0.0
 50
0.0
 51
0.0
 71
     0
 72
   100
 73
     1
 74
     0
 75
     1
 76
     0
 77
     0
 78
     0
281
     0
 65
     1
110
0.0
120
0.0
130
0.0
111
1.0
121
0.0
131
0.0
112
0.0
122
1.0
132
0.0
 79
     0
146
0.0
 60
     3
 61
     5
292
     1
282
     1
141
0.0
142
0.0
 63
   250
421
  3355443
  0
ENDTAB
  0
TABLE
  2
LTYPE
  5
5
330
0
100
AcDbSymbolTable
 70
     1
  0
LTYPE
  5
5B
330
5
100
AcDbSymbolTableRecord
100
AcDbLinetypeTableRecord
  2
ByBlock
 70
     0
  3

 72
    65
 73
     0
 40
0.0
  0
LTYPE
  5
5C
330
5
100
AcDbSymbolTableRecord
100
AcDbLinetypeTableRecord
  2
ByLayer
 70
     0
  3

 72
    65
 73
     0
 40
0.0
  0
LTYPE
  5
5D
330
5
100
AcDbSymbolTableRecord
100
AcDbLinetypeTableRecord
  2
Continuous
 70
     0
  3
Solid line
 72
    65
 73
     0
 40
0.0
  0
ENDTAB
  0
TABLE
  2
LAYER
  5
2
330
0
100
AcDbSymbolTable
 70
     2
  0
LAYER
  5
54
330
2
100
AcDbSymbolTableRecord
100
AcDbLayerTableRecord
  2
0
 70
     0
 62
     7
  6
Continuous
370
    -3
390
F
347
21
  0
LAYER
  5
78
330
2
100
AcDbSymbolTableRecord
100
AcDbLayerTableRecord
  2
レイヤー 1
 70
     0
 62
     7
  6
Continuous
370
     0
390
F
347
21
  0
ENDTAB
  0
TABLE
  2
STYLE
  5
3
330
0
100
AcDbSymbolTable
 70
     2
  0
STYLE
  5
55
330
3
100
AcDbSymbolTableRecord
100
AcDbTextStyleTableRecord
  2
Standard
 70
     0
 40
0.0
 41
1.0
 50
0.0
 71
     0
 42
0.2
  3
txt
  4

  0
STYLE
  5
5A
330
3
100
AcDbSymbolTableRecord
100
AcDbTextStyleTableRecord
  2
Annotative
 70
     0
 40
0.0
 41
1.0
 50
0.0
 71
     0
 42
0.2
  3
txt
  4

1001
AcadAnnotative
1000
AnnotativeData
1002
{
1070
     1
1070
     1
1002
}
  0
ENDTAB
  0
TABLE
  2
VIEW
  5
6
330
0
100
AcDbSymbolTable
 70
     0
  0
ENDTAB
  0
TABLE
  2
UCS
  5
7
330
0
100
AcDbSymbolTable
 70
     0
  0
ENDTAB
  0
TABLE
  2
APPID
  5
9
330
0
100
AcDbSymbolTable
 70
     2
  0
APPID
  5
56
330
9
100
AcDbSymbolTableRecord
100
AcDbRegAppTableRecord
  2
ACAD
 70
     0
  0
APPID
  5
5E
330
9
100
AcDbSymbolTableRecord
100
AcDbRegAppTableRecord
  2
AcadAnnotative
 70
     0
  0
ENDTAB
  0
TABLE
  2
DIMSTYLE
  5
A
330
0
100
AcDbSymbolTable
 70
     2
100
AcDbDimStyleTable
 71
     0
  0
DIMSTYLE
105
58
330
A
100
AcDbSymbolTableRecord
100
AcDbDimStyleTableRecord
  2
Standard
 70
     0
340
55
  0
DIMSTYLE
105
59
330
A
100
AcDbSymbolTableRecord
100
AcDbDimStyleTableRecord
  2
Annotative
 70
     0
340
55
1001
AcadAnnotative
1000
AnnotativeData
1002
{
1070
     1
1070
     1
1002
}
  0
ENDTAB
  0
TABLE
  2
BLOCK_RECORD
  5
1
330
0
100
AcDbSymbolTable
 70
    22
  0
BLOCK_RECORD
  5
70
330
1
100
AcDbSymbolTableRecord
100
AcDbBlockTableRecord
  2
*Model_Space
340
73
 70
     0
280
     1
281
     0
  0
BLOCK_RECORD
  5
6C
330
1
100
AcDbSymbolTableRecord
100
AcDbBlockTableRecord
  2
*Paper_Space
340
6F
 70
     0
280
     1
281
     0
  0
BLOCK_RECORD
  5
74
330
1
100
AcDbSymbolTableRecord
100
AcDbBlockTableRecord
  2
*Paper_Space0
340
77
 70
     0
280
     1
281
     0
  0
BLOCK_RECORD
  5
82
330
1
100
AcDbSymbolTableRecord
100
AcDbBlockTableRecord
  2
Block_0
340
0
102
{BLKREFS
331
83
102
}
 70
     0
280
     1
281
     0
  0
BLOCK_RECORD
  5
86
330
1
100
AcDbSymbolTableRecord
100
AcDbBlockTableRecord
  2
Block_1
340
0
102
{BLKREFS
331
87
102
}
 70
     0
280
     1
281
     0
  0
BLOCK_RECORD
  5
9A
330
1
100
AcDbSymbolTableRecord
100
AcDbBlockTableRecord
  2
Block_2
340
0
102
{BLKREFS
331
9B
102
}
 70
     0
280
     1
281
     0
  0
BLOCK_RECORD
  5
9E
330
1
100
AcDbSymbolTableRecord
100
AcDbBlockTableRecord
  2
Block_3
340
0
102
{BLKREFS
331
9F
102
}
 70
     0
280
     1
281
     0
  0
BLOCK_RECORD
  5
B1
330
1
100
AcDbSymbolTableRecord
100
AcDbBlockTableRecord
  2
Block_4
340
0
102
{BLKREFS
331
B2
102
}
 70
     0
280
     1
281
     0
  0
BLOCK_RECORD
  5
B5
330
1
100
AcDbSymbolTableRecord
100
AcDbBlockTableRecord
  2
Block_5
340
0
102
{BLKREFS
331
B6
102
}
 70
     0
280
     1
281
     0
  0
BLOCK_RECORD
  5
C6
330
1
100
AcDbSymbolTableRecord
100
AcDbBlockTableRecord
  2
Block_6
340
0
102
{BLKREFS
331
C7
102
}
 70
     0
280
     1
281
     0
  0
BLOCK_RECORD
  5
CA
330
1
100
AcDbSymbolTableRecord
100
AcDbBlockTableRecord
  2
Block_7
340
0
102
{BLKREFS
331
CB
102
}
 70
     0
280
     1
281
     0
  0
BLOCK_RECORD
  5
D6
330
1
100
AcDbSymbolTableRecord
100
AcDbBlockTableRecord
  2
Block_8
340
0
102
{BLKREFS
331
D7
102
}
 70
     0
280
     1
281
     0
  0
BLOCK_RECORD
  5
DA
330
1
100
AcDbSymbolTableRecord
100
AcDbBlockTableRecord
  2
Block_9
340
0
102
{BLKREFS
331
DB
102
}
 70
     0
280
     1
281
     0
  0
BLOCK_RECORD
  5
E4
330
1
100
AcDbSymbolTableRecord
100
AcDbBlockTableRecord
  2
Block_10
340
0
102
{BLKREFS
331
E5
102
}
 70
     0
280
     1
281
     0
  0
BLOCK_RECORD
  5
E8
330
1
100
AcDbSymbolTableRecord
100
AcDbBlockTableRecord
  2
Block_11
340
0
102
{BLKREFS
331
E9
102
}
 70
     0
280
     1
281
     0
  0
BLOCK_RECORD
  5
F9
330
1
100
AcDbSymbolTableRecord
100
AcDbBlockTableRecord
  2
Block_12
340
0
102
{BLKREFS
331
FA
102
}
 70
     0
280
     1
281
     0
  0
BLOCK_RECORD
  5
FD
330
1
100
AcDbSymbolTableRecord
100
AcDbBlockTableRecord
  2
Block_13
340
0
102
{BLKREFS
331
FE
102
}
 70
     0
280
     1
281
     0
  0
BLOCK_RECORD
  5
10B
330
1
100
AcDbSymbolTableRecord
100
AcDbBlockTableRecord
  2
Block_14
340
0
102
{BLKREFS
331
10C
102
}
 70
     0
280
     1
281
     0
  0
BLOCK_RECORD
  5
10F
330
1
100
AcDbSymbolTableRecord
100
AcDbBlockTableRecord
  2
Block_15
340
0
102
{BLKREFS
331
110
102
}
 70
     0
280
     1
281
     0
  0
BLOCK_RECORD
  5
11D
330
1
100
AcDbSymbolTableRecord
100
AcDbBlockTableRecord
  2
Block_16
340
0
102
{BLKREFS
331
11E
102
}
 70
     0
280
     1
281
     0
  0
BLOCK_RECORD
  5
121
330
1
100
AcDbSymbolTableRecord
100
AcDbBlockTableRecord
  2
Block_17
340
0
102
{BLKREFS
331
122
102
}
 70
     0
280
     1
281
     0
  0
BLOCK_RECORD
  5
12F
330
1
100
AcDbSymbolTableRecord
100
AcDbBlockTableRecord
  2
Block_18
340
0
102
{BLKREFS
331
130
102
}
 70
     0
280
     1
281
     0
  0
BLOCK_RECORD
  5
133
330
1
100
AcDbSymbolTableRecord
100
AcDbBlockTableRecord
  2
Block_19
340
0
102
{BLKREFS
331
134
102
}
 70
     0
280
     1
281
     0
  0
BLOCK_RECORD
  5
140
330
1
100
AcDbSymbolTableRecord
100
AcDbBlockTableRecord
  2
Block_20
340
0
102
{BLKREFS
331
141
102
}
 70
     0
280
     1
281
     0
  0
ENDTAB
  0
ENDSEC
  0
SECTION
  2
BLOCKS
  0
BLOCK
  5
71
330
70
100
AcDbEntity
  8
0
100
AcDbBlockBegin
  2
*Model_Space
 70
     0
 10
0.0
 20
0.0
 30
0.0
  3
*Model_Space
  1

  0
ENDBLK
  5
72
330
70
100
AcDbEntity
  8
0
100
AcDbBlockEnd
  0
BLOCK
  5
6D
330
6C
100
AcDbEntity
 67
     1
  8
0
100
AcDbBlockBegin
  2
*Paper_Space
 70
     0
 10
0.0
 20
0.0
 30
0.0
  3
*Paper_Space
  1

  0
ENDBLK
  5
6E
330
6C
100
AcDbEntity
 67
     1
  8
0
100
AcDbBlockEnd
  0
BLOCK
  5
75
330
74
100
AcDbEntity
 67
     1
  8
0
100
AcDbBlockBegin
  2
*Paper_Space0
 70
     0
 10
0.0
 20
0.0
 30
0.0
  3
*Paper_Space0
  1

  0
ENDBLK
  5
76
330
74
100
AcDbEntity
 67
     1
  8
0
100
AcDbBlockEnd
  0
BLOCK
  5
84
330
82
100
AcDbEntity
  8
0
100
AcDbBlockBegin
  2
Block_0
 70
     0
 10
0.0
 20
0.0
 30
0.0
  3
Block_0
  1

  0
INSERT
  5
87
330
82
100
AcDbEntity
  8
レイヤー 1
100
AcDbBlockReference
  2
Block_1
 10
0.0
 20
0.0
 30
0.0
  0
ENDBLK
  5
85
330
82
100
AcDbEntity
  8
0
100
AcDbBlockEnd
  0
BLOCK
  5
88
330
86
100
AcDbEntity
  8
0
100
AcDbBlockBegin
  2
Block_1
 70
     0
 10
0.0
 20
0.0
 30
0.0
  3
Block_1
  1

  0
SPLINE
  5
8A
330
86
100
AcDbEntity
  8
レイヤー 1
100
AcDbSpline
210
0.0
220
0.0
230
1.0
 70
     9
 71
     3
 72
    77
 73
    73
 74
     0
 42
0.0000000001
 43
0.0000000001
 40
0.0
 40
0.0
 40
0.0
 40
0.0
 40
1.0
 40
1.0
 40
1.0
 40
2.0
 40
2.0
 40
2.0
 40
3.0
 40
3.0
 40
3.0
 40
4.0
 40
4.0
 40
4.0
 40
5.0
 40
5.0
 40
5.0
 40
6.0
 40
6.0
 40
6.0
 40
7.0
 40
7.0
 40
7.0
 40
8.0
 40
8.0
 40
8.0
 40
9.0
 40
9.0
 40
9.0
 40
10.0
 40
10.0
 40
10.0
 40
11.0
 40
11.0
 40
11.0
 40
12.0
 40
12.0
 40
12.0
 40
13.0
 40
13.0
 40
13.0
 40
14.0
 40
14.0
 40
14.0
 40
15.0
 40
15.0
 40
15.0
 40
16.0
 40
16.0
 40
16.0
 40
17.0
 40
17.0
 40
17.0
 40
18.0
 40
18.0
 40
18.0
 40
19.0
 40
19.0
 40
19.0
 40
20.0
 40
20.0
 40
20.0
 40
21.0
 40
21.0
 40
21.0
 40
22.0
 40
22.0
 40
22.0
 40
23.0
 40
23.0
 40
23.0
 40
24.0
 40
24.0
 40
24.0
 40
24.0
 10
103.6095241711462
 20
-145.6662163264307
 30
0.0
 10
103.3008436156678
 20
-145.4674343169317
 30
0.0
 10
103.131689427342
 20
-145.2643459380762
 30
0.0
 10
102.9370415324254
 20
-144.8919311161208
 30
0.0
 10
102.9370415324254
 20
-144.8919311161208
 30
0.0
 10
102.9370415324254
 20
-145.1036322336894
 30
0.0
 10
102.9370415324254
 20
-145.1036322336894
 30
0.0
 10
102.9370415324254
 20
-145.1394612267359
 30
0.0
 10
102.9370415324254
 20
-145.1627156212614
 30
0.0
 10
102.9391085897166
 20
-145.3532294015957
 30
0.0
 10
102.9391085897166
 20
-145.3976711333554
 30
0.0
 10
102.94530976159
 20
-145.5900797162066
 30
0.0
 10
102.94530976159
 20
-145.6281480213186
 30
0.0
 10
102.94530976159
 20
-145.7826605538321
 30
0.0
 10
102.9263617364212
 20
-145.8651705907038
 30
0.0
 10
102.6831379951625
 20
-145.8651705907038
 30
0.0
 10
102.6300835246897
 20
-145.8651705907038
 30
0.0
 10
102.5921874743519
 20
-145.8608642213473
 30
0.0
 10
102.5604925958876
 20
-145.8587971640561
 30
0.0
 10
102.5604925958876
 20
-145.8587971640561
 30
0.0
 10
102.4736761896593
 20
-145.6281480213186
 30
0.0
 10
102.4736761896593
 20
-145.6281480213186
 30
0.0
 10
102.5432671184614
 20
-145.6514024158441
 30
0.0
 10
102.661778403154
 20
-145.6620822118483
 30
0.0
 10
102.668324084576
 20
-145.6620822118483
 30
0.0
 10
102.7296467842134
 20
-145.6620822118483
 30
0.0
 10
102.737915013378
 20
-145.6324543906752
 30
0.0
 10
102.737915013378
 20
-145.592319028272
 30
0.0
 10
102.737915013378
 20
-145.592319028272
 30
0.0
 10
102.737915013378
 20
-144.4371785120678
 30
0.0
 10
102.737915013378
 20
-144.4371785120678
 30
0.0
 10
102.737915013378
 20
-144.2678520689677
 30
0.0
 10
102.737915013378
 20
-144.2361571905034
 30
0.0
 10
102.7296467842134
 20
-143.9548651441328
 30
0.0
 10
102.7296467842134
 20
-143.9548651441328
 30
0.0
 10
102.9370415324254
 20
-143.9717461120105
 30
0.0
 10
102.9370415324254
 20
-143.9717461120105
 30
0.0
 10
102.951855443012
 20
-143.9738131693017
 30
0.0
 10
103.0111110853583
 20
-143.9801865959494
 30
0.0
 10
103.0111110853583
 20
-144.0098144171225
 30
0.0
 10
103.0111110853583
 20
-144.0310017543568
 30
0.0
 10
102.9790716973455
 20
-144.0458156649434
 30
0.0
 10
102.94530976159
 20
-144.06062957553
 30
0.0
 10
102.9370415324254
 20
-144.2764648076809
 30
0.0
 10
102.9370415324254
 20
-144.3419216219006
 30
0.0
 10
102.9370415324254
 20
-144.4328721427112
 30
0.0
 10
102.9494438761723
 20
-144.4752468171798
 30
0.0
 10
102.9708034681809
 20
-144.5472493128215
 30
0.0
 10
103.027992053236
 20
-144.6740288266787
 30
0.0
 10
103.1399576565066
 20
-144.6001315285201
 30
0.0
 10
103.2901638196636
 20
-144.4773138744709
 30
0.0
 10
103.4214219576516
 20
-144.3017862594975
 30
0.0
 10
103.4214219576516
 20
-144.3017862594975
 30
0.0
 10
103.6074571138551
 20
-144.4371785120678
 30
0.0
 10
103.6074571138551
 20
-144.4371785120678
 30
0.0
 10
103.6264051390239
 20
-144.4499253653632
 30
0.0
 10
103.6329508204459
 20
-144.4604329065932
 30
0.0
 10
103.6329508204459
 20
-144.4711127025975
 30
0.0
 10
103.6329508204459
 20
-144.5048746383529
 30
0.0
 10
103.586442031395
 20
-144.5005682689964
 30
0.0
 10
103.558881267513
 20
-144.4985012117052
 30
0.0
 10
103.531320503631
 20
-144.5217556062306
 30
0.0
 10
103.510305421171
 20
-144.5386365741084
 30
0.0
 10
103.3177245835456
 20
-144.7015895905607
 30
0.0
 10
103.2670816799124
 20
-144.7439642650293
 30
0.0
 10
103.2054144707264
 20
-144.788405996789
 30
0.0
 10
103.1144639499158
 20
-144.8433552697787
 30
0.0
 10
103.3387396660056
 20
-145.2283446902554
 30
0.0
 10
103.5609483248042
 20
-145.3616698855346
 30
0.0
 10
103.7810899263116
 20
-145.4949950808137
 30
0.0
 10
103.7810899263116
 20
-145.4949950808137
 30
0.0
 10
103.6095241711462
 20
-145.6662163264307
 30
0.0
 10
103.6095241711462
 20
-145.6662163264307
 30
0.0
  0
SPLINE
  5
8B
330
86
100
AcDbEntity
  8
レイヤー 1
100
AcDbSpline
210
0.0
220
0.0
230
1.0
 70
     9
 71
     3
 72
    38
 73
    34
 74
     0
 42
0.0000000001
 43
0.0000000001
 40
0.0
 40
0.0
 40
0.0
 40
0.0
 40
1.0
 40
1.0
 40
1.0
 40
2.0
 40
2.0
 40
2.0
 40
3.0
 40
3.0
 40
3.0
 40
4.0
 40
4.0
 40
4.0
 40
5.0
 40
5.0
 40
5.0
 40
6.0
 40
6.0
 40
6.0
 40
7.0
 40
7.0
 40
7.0
 40
8.0
 40
8.0
 40
8.0
 40
9.0
 40
9.0
 40
9.0
 40
10.0
 40
10.0
 40
10.0
 40
11.0
 40
11.0
 40
11.0
 40
11.0
 10
102.3930609553045
 20
-145.2834662180194
 30
0.0
 10
102.2304524484007
 20
-145.5098089914003
 30
0.0
 10
102.0991943104127
 20
-145.5880126589155
 30
0.0
 10
102.0209906428975
 20
-145.6365885052575
 30
0.0
 10
102.0209906428975
 20
-145.6365885052575
 30
0.0
 10
101.8514919450232
 20
-145.4695013742229
 30
0.0
 10
101.8514919450232
 20
-145.4695013742229
 30
0.0
 10
102.2111599136833
 20
-145.3044813004794
 30
0.0
 10
102.4226887764776
 20
-144.9343057905893
 30
0.0
 10
102.4819444188239
 20
-144.6170124963978
 30
0.0
 10
102.4819444188239
 20
-144.6170124963978
 30
0.0
 10
102.2218397096876
 20
-144.6170124963978
 30
0.0
 10
102.2218397096876
 20
-144.6170124963978
 30
0.0
 10
102.158449952759
 20
-144.6170124963978
 30
0.0
 10
102.0209906428975
 20
-144.6359605215667
 30
0.0
 10
101.9510552045469
 20
-144.646640317571
 30
0.0
 10
101.9510552045469
 20
-144.646640317571
 30
0.0
 10
101.9510552045469
 20
-144.4266709708378
 30
0.0
 10
101.9510552045469
 20
-144.4266709708378
 30
0.0
 10
102.0041096750198
 20
-144.4392455693589
 30
0.0
 10
102.1436360421724
 20
-144.4414848814243
 30
0.0
 10
102.2028916845187
 20
-144.4414848814243
 30
0.0
 10
102.2028916845187
 20
-144.4414848814243
 30
0.0
 10
102.4292344578996
 20
-144.4414848814243
 30
0.0
 10
102.4292344578996
 20
-144.4414848814243
 30
0.0
 10
102.4440483684862
 20
-144.4414848814243
 30
0.0
 10
102.5456786853011
 20
-144.4392455693589
 30
0.0
 10
102.6493760594071
 20
-144.4328721427112
 30
0.0
 10
102.6493760594071
 20
-144.4328721427112
 30
0.0
 10
102.7296467842134
 20
-144.5176214916484
 30
0.0
 10
102.7296467842134
 20
-144.5176214916484
 30
0.0
 10
102.6514431166982
 20
-144.7820325701413
 30
0.0
 10
102.5646267104699
 20
-145.0443765913431
 30
0.0
 10
102.3930609553045
 20
-145.2834662180194
 30
0.0
  0
HATCH
  5
8C
330
86
100
AcDbEntity
  8
レイヤー 1
 62
   250
420
  2299925
440
 33554687
100
AcDbHatch
 10
0.0
 20
0.0
 30
0.0
210
0.0
220
0.0
230
1.0
  2
SOLID
 70
     1
 71
     1
 91
        2
 92
        1
 93
        1
 72
     4
 94
        3
 73
     0
 74
     0
 95
       77
 96
       73
 40
0.0
 40
0.0
 40
0.0
 40
0.0
 40
1.0
 40
1.0
 40
1.0
 40
2.0
 40
2.0
 40
2.0
 40
3.0
 40
3.0
 40
3.0
 40
4.0
 40
4.0
 40
4.0
 40
5.0
 40
5.0
 40
5.0
 40
6.0
 40
6.0
 40
6.0
 40
7.0
 40
7.0
 40
7.0
 40
8.0
 40
8.0
 40
8.0
 40
9.0
 40
9.0
 40
9.0
 40
10.0
 40
10.0
 40
10.0
 40
11.0
 40
11.0
 40
11.0
 40
12.0
 40
12.0
 40
12.0
 40
13.0
 40
13.0
 40
13.0
 40
14.0
 40
14.0
 40
14.0
 40
15.0
 40
15.0
 40
15.0
 40
16.0
 40
16.0
 40
16.0
 40
17.0
 40
17.0
 40
17.0
 40
18.0
 40
18.0
 40
18.0
 40
19.0
 40
19.0
 40
19.0
 40
20.0
 40
20.0
 40
20.0
 40
21.0
 40
21.0
 40
21.0
 40
22.0
 40
22.0
 40
22.0
 40
23.0
 40
23.0
 40
23.0
 40
24.0
 40
24.0
 40
24.0
 40
24.0
 10
103.6095241711462
 20
-145.6662163264307
 10
103.3008436156678
 20
-145.4674343169317
 10
103.131689427342
 20
-145.2643459380762
 10
102.9370415324254
 20
-144.8919311161208
 10
102.9370415324254
 20
-144.8919311161208
 10
102.9370415324254
 20
-145.1036322336894
 10
102.9370415324254
 20
-145.1036322336894
 10
102.9370415324254
 20
-145.1394612267359
 10
102.9370415324254
 20
-145.1627156212614
 10
102.9391085897166
 20
-145.3532294015957
 10
102.9391085897166
 20
-145.3976711333554
 10
102.94530976159
 20
-145.5900797162066
 10
102.94530976159
 20
-145.6281480213186
 10
102.94530976159
 20
-145.7826605538321
 10
102.9263617364212
 20
-145.8651705907038
 10
102.6831379951625
 20
-145.8651705907038
 10
102.6300835246897
 20
-145.8651705907038
 10
102.5921874743519
 20
-145.8608642213473
 10
102.5604925958876
 20
-145.8587971640561
 10
102.5604925958876
 20
-145.8587971640561
 10
102.4736761896593
 20
-145.6281480213186
 10
102.4736761896593
 20
-145.6281480213186
 10
102.5432671184614
 20
-145.6514024158441
 10
102.661778403154
 20
-145.6620822118483
 10
102.668324084576
 20
-145.6620822118483
 10
102.7296467842134
 20
-145.6620822118483
 10
102.737915013378
 20
-145.6324543906752
 10
102.737915013378
 20
-145.592319028272
 10
102.737915013378
 20
-145.592319028272
 10
102.737915013378
 20
-144.4371785120678
 10
102.737915013378
 20
-144.4371785120678
 10
102.737915013378
 20
-144.2678520689677
 10
102.737915013378
 20
-144.2361571905034
 10
102.7296467842134
 20
-143.9548651441328
 10
102.7296467842134
 20
-143.9548651441328
 10
102.9370415324254
 20
-143.9717461120105
 10
102.9370415324254
 20
-143.9717461120105
 10
102.951855443012
 20
-143.9738131693017
 10
103.0111110853583
 20
-143.9801865959494
 10
103.0111110853583
 20
-144.0098144171225
 10
103.0111110853583
 20
-144.0310017543568
 10
102.9790716973455
 20
-144.0458156649434
 10
102.94530976159
 20
-144.06062957553
 10
102.9370415324254
 20
-144.2764648076809
 10
102.9370415324254
 20
-144.3419216219006
 10
102.9370415324254
 20
-144.4328721427112
 10
102.9494438761723
 20
-144.4752468171798
 10
102.9708034681809
 20
-144.5472493128215
 10
103.027992053236
 20
-144.6740288266787
 10
103.1399576565066
 20
-144.6001315285201
 10
103.2901638196636
 20
-144.4773138744709
 10
103.4214219576516
 20
-144.3017862594975
 10
103.4214219576516
 20
-144.3017862594975
 10
103.6074571138551
 20
-144.4371785120678
 10
103.6074571138551
 20
-144.4371785120678
 10
103.6264051390239
 20
-144.4499253653632
 10
103.6329508204459
 20
-144.4604329065932
 10
103.6329508204459
 20
-144.4711127025975
 10
103.6329508204459
 20
-144.5048746383529
 10
103.586442031395
 20
-144.5005682689964
 10
103.558881267513
 20
-144.4985012117052
 10
103.531320503631
 20
-144.5217556062306
 10
103.510305421171
 20
-144.5386365741084
 10
103.3177245835456
 20
-144.7015895905607
 10
103.2670816799124
 20
-144.7439642650293
 10
103.2054144707264
 20
-144.788405996789
 10
103.1144639499158
 20
-144.8433552697787
 10
103.3387396660056
 20
-145.2283446902554
 10
103.5609483248042
 20
-145.3616698855346
 10
103.7810899263116
 20
-145.4949950808137
 10
103.7810899263116
 20
-145.4949950808137
 10
103.6095241711462
 20
-145.6662163264307
 10
103.6095241711462
 20
-145.6662163264307
 97
        0
 97
        1
330
8A
 92
        1
 93
        1
 72
     4
 94
        3
 73
     0
 74
     0
 95
       38
 96
       34
 40
0.0
 40
0.0
 40
0.0
 40
0.0
 40
1.0
 40
1.0
 40
1.0
 40
2.0
 40
2.0
 40
2.0
 40
3.0
 40
3.0
 40
3.0
 40
4.0
 40
4.0
 40
4.0
 40
5.0
 40
5.0
 40
5.0
 40
6.0
 40
6.0
 40
6.0
 40
7.0
 40
7.0
 40
7.0
 40
8.0
 40
8.0
 40
8.0
 40
9.0
 40
9.0
 40
9.0
 40
10.0
 40
10.0
 40
10.0
 40
11.0
 40
11.0
 40
11.0
 40
11.0
 10
102.3930609553045
 20
-145.2834662180194
 10
102.2304524484007
 20
-145.5098089914003
 10
102.0991943104127
 20
-145.5880126589155
 10
102.0209906428975
 20
-145.6365885052575
 10
102.0209906428975
 20
-145.6365885052575
 10
101.8514919450232
 20
-145.4695013742229
 10
101.8514919450232
 20
-145.4695013742229
 10
102.2111599136833
 20
-145.3044813004794
 10
102.4226887764776
 20
-144.9343057905893
 10
102.4819444188239
 20
-144.6170124963978
 10
102.4819444188239
 20
-144.6170124963978
 10
102.2218397096876
 20
-144.6170124963978
 10
102.2218397096876
 20
-144.6170124963978
 10
102.158449952759
 20
-144.6170124963978
 10
102.0209906428975
 20
-144.6359605215667
 10
101.9510552045469
 20
-144.646640317571
 10
101.9510552045469
 20
-144.646640317571
 10
101.9510552045469
 20
-144.4266709708378
 10
101.9510552045469
 20
-144.4266709708378
 10
102.0041096750198
 20
-144.4392455693589
 10
102.1436360421724
 20
-144.4414848814243
 10
102.2028916845187
 20
-144.4414848814243
 10
102.2028916845187
 20
-144.4414848814243
 10
102.4292344578996
 20
-144.4414848814243
 10
102.4292344578996
 20
-144.4414848814243
 10
102.4440483684862
 20
-144.4414848814243
 10
102.5456786853011
 20
-144.4392455693589
 10
102.6493760594071
 20
-144.4328721427112
 10
102.6493760594071
 20
-144.4328721427112
 10
102.7296467842134
 20
-144.5176214916484
 10
102.7296467842134
 20
-144.5176214916484
 10
102.6514431166982
 20
-144.7820325701413
 10
102.5646267104699
 20
-145.0443765913431
 10
102.3930609553045
 20
-145.2834662180194
 97
        0
 97
        1
330
8B
 75
     2
 76
     1
 98
        1
 10
0.0
 20
0.0
450
        0
451
        0
460
0.0
461
0.0
452
        0
462
0.0
453
        0
470

  0
SPLINE
  5
8D
330
86
100
AcDbEntity
  8
レイヤー 1
100
AcDbSpline
210
0.0
220
0.0
230
1.0
 70
     9
 71
     3
 72
    14
 73
    10
 74
     0
 42
0.0000000001
 43
0.0000000001
 40
0.0
 40
0.0
 40
0.0
 40
0.0
 40
1.0
 40
1.0
 40
1.0
 40
2.0
 40
2.0
 40
2.0
 40
3.0
 40
3.0
 40
3.0
 40
3.0
 10
105.3010660544039
 20
-144.940679217237
 30
0.0
 10
105.3561875821679
 20
-145.1480739654491
 30
0.0
 10
105.4047634285099
 20
-145.2283446902554
 30
0.0
 10
105.4385253642653
 20
-145.2855332753105
 30
0.0
 10
105.5125949171982
 20
-145.1565144493879
 30
0.0
 10
105.5487684197933
 20
-145.0380031646953
 30
0.0
 10
105.5759846741268
 20
-144.940679217237
 30
0.0
 10
105.5759846741268
 20
-144.940679217237
 30
0.0
 10
105.3010660544039
 20
-144.940679217237
 30
0.0
 10
105.3010660544039
 20
-144.940679217237
 30
0.0
  0
SPLINE
  5
8E
330
86
100
AcDbEntity
  8
レイヤー 1
100
AcDbSpline
210
0.0
220
0.0
230
1.0
 70
     9
 71
     3
 72
    92
 73
    88
 74
     0
 42
0.0000000001
 43
0.0000000001
 40
0.0
 40
0.0
 40
0.0
 40
0.0
 40
1.0
 40
1.0
 40
1.0
 40
2.0
 40
2.0
 40
2.0
 40
3.0
 40
3.0
 40
3.0
 40
4.0
 40
4.0
 40
4.0
 40
5.0
 40
5.0
 40
5.0
 40
6.0
 40
6.0
 40
6.0
 40
7.0
 40
7.0
 40
7.0
 40
8.0
 40
8.0
 40
8.0
 40
9.0
 40
9.0
 40
9.0
 40
10.0
 40
10.0
 40
10.0
 40
11.0
 40
11.0
 40
11.0
 40
12.0
 40
12.0
 40
12.0
 40
13.0
 40
13.0
 40
13.0
 40
14.0
 40
14.0
 40
14.0
 40
15.0
 40
15.0
 40
15.0
 40
16.0
 40
16.0
 40
16.0
 40
17.0
 40
17.0
 40
17.0
 40
18.0
 40
18.0
 40
18.0
 40
19.0
 40
19.0
 40
19.0
 40
20.0
 40
20.0
 40
20.0
 40
21.0
 40
21.0
 40
21.0
 40
22.0
 40
22.0
 40
22.0
 40
23.0
 40
23.0
 40
23.0
 40
24.0
 40
24.0
 40
24.0
 40
25.0
 40
25.0
 40
25.0
 40
26.0
 40
26.0
 40
26.0
 40
27.0
 40
27.0
 40
27.0
 40
28.0
 40
28.0
 40
28.0
 40
29.0
 40
29.0
 40
29.0
 40
29.0
 10
105.8023274475077
 20
-145.8651705907038
 30
0.0
 10
105.7430718051614
 20
-145.8355427695307
 30
0.0
 10
105.5887315274222
 20
-145.7594061593066
 30
0.0
 10
105.4385253642653
 20
-145.602826569502
 30
0.0
 10
105.3837483460499
 20
-145.6641492691395
 30
0.0
 10
105.2483560934796
 20
-145.8059149483575
 30
0.0
 10
105.0854030770272
 20
-145.8820515585815
 30
0.0
 10
105.0854030770272
 20
-145.8820515585815
 30
0.0
 10
104.8969563539841
 20
-145.7425251914289
 30
0.0
 10
104.8969563539841
 20
-145.7425251914289
 30
0.0
 10
104.9775715883389
 20
-145.7170314848381
 30
0.0
 10
105.1401800952427
 20
-145.6620822118483
 30
0.0
 10
105.3179470222816
 20
-145.4589938329929
 30
0.0
 10
105.2779839146527
 20
-145.4018052479377
 30
0.0
 10
105.2228623868887
 20
-145.3151610964837
 30
0.0
 10
105.1529269485381
 20
-145.0972588070416
 30
0.0
 10
105.0388942879764
 20
-145.4906887114572
 30
0.0
 10
104.8631944182286
 20
-145.6896429757303
 30
0.0
 10
104.7067870831983
 20
-145.8312364001741
 30
0.0
 10
104.7067870831983
 20
-145.8312364001741
 30
0.0
 10
104.516273302864
 20
-145.7190985421292
 30
0.0
 10
104.516273302864
 20
-145.7190985421292
 30
0.0
 10
104.9879068747947
 20
-145.3658040001169
 30
0.0
 10
105.0220133200986
 20
-144.8009805953101
 30
0.0
 10
105.0368272306852
 20
-144.5408758861738
 30
0.0
 10
104.9689588496258
 20
-144.5408758861738
 30
0.0
 10
104.8545816795155
 20
-144.5472493128215
 30
0.0
 10
104.8080728904646
 20
-144.5513834274038
 30
0.0
 10
104.8080728904646
 20
-144.5513834274038
 30
0.0
 10
104.8080728904646
 20
-144.3610419018438
 30
0.0
 10
104.8080728904646
 20
-144.3610419018438
 30
0.0
 10
104.8693955901021
 20
-144.3694823857826
 30
0.0
 10
104.8907551821106
 20
-144.3715494430738
 30
0.0
 10
105.0430284025587
 20
-144.3779228697215
 30
0.0
 10
105.0450954598498
 20
-144.2764648076809
 30
0.0
 10
105.0450954598498
 20
-144.1155788485197
 30
0.0
 10
105.019601753259
 20
-143.9569322014239
 30
0.0
 10
105.019601753259
 20
-143.9569322014239
 30
0.0
 10
105.2631700040661
 20
-143.9760524813671
 30
0.0
 10
105.2631700040661
 20
-143.9760524813671
 30
0.0
 10
105.2800509719439
 20
-143.9781195386582
 30
0.0
 10
105.2989989971127
 20
-143.9801865959494
 30
0.0
 10
105.2989989971127
 20
-143.9993068758925
 30
0.0
 10
105.2989989971127
 20
-144.022561270418
 30
0.0
 10
105.2800509719439
 20
-144.0310017543568
 30
0.0
 10
105.2438774693487
 20
-144.0458156649434
 30
0.0
 10
105.2418104120576
 20
-144.1007649379331
 30
0.0
 10
105.2397433547664
 20
-144.1155788485197
 30
0.0
 10
105.2376762974753
 20
-144.24046355986
 30
0.0
 10
105.2376762974753
 20
-144.24046355986
 30
0.0
 10
105.2356092401841
 20
-144.3799899270126
 30
0.0
 10
105.2356092401841
 20
-144.3799899270126
 30
0.0
 10
105.2356092401841
 20
-144.3799899270126
 30
0.0
 10
105.5274088277848
 20
-144.3799899270126
 30
0.0
 10
105.5274088277848
 20
-144.3799899270126
 30
0.0
 10
105.5928656420045
 20
-144.3799899270126
 30
0.0
 10
105.8150743008031
 20
-144.3694823857826
 30
0.0
 10
105.8912109110272
 20
-144.3610419018438
 30
0.0
 10
105.8912109110272
 20
-144.3610419018438
 30
0.0
 10
105.8912109110272
 20
-144.5513834274038
 30
0.0
 10
105.8912109110272
 20
-144.5513834274038
 30
0.0
 10
105.7792453077565
 20
-144.5408758861738
 30
0.0
 10
105.6397189406039
 20
-144.5408758861738
 30
0.0
 10
105.5274088277848
 20
-144.5408758861738
 30
0.0
 10
105.5274088277848
 20
-144.5408758861738
 30
0.0
 10
105.2290635587622
 20
-144.5408758861738
 30
0.0
 10
105.2290635587622
 20
-144.5408758861738
 30
0.0
 10
105.226996501471
 20
-144.5958251591635
 30
0.0
 10
105.2207953295976
 20
-144.684708622683
 30
0.0
 10
105.2121825908844
 20
-144.760845232907
 30
0.0
 10
105.2121825908844
 20
-144.760845232907
 30
0.0
 10
105.4385253642653
 20
-144.760845232907
 30
0.0
 10
105.4385253642653
 20
-144.760845232907
 30
0.0
 10
105.4850341533162
 20
-144.760845232907
 30
0.0
 10
105.6924289015283
 20
-144.7565388635504
 30
0.0
 10
105.7348035759968
 20
-144.7544718062593
 30
0.0
 10
105.7348035759968
 20
-144.7544718062593
 30
0.0
 10
105.8023274475077
 20
-144.8242349898356
 30
0.0
 10
105.8023274475077
 20
-144.8242349898356
 30
0.0
 10
105.7454833720011
 20
-145.0950194949762
 30
0.0
 10
105.6586669657728
 20
-145.2919067019583
 30
0.0
 10
105.5635823303799
 20
-145.4398735530497
 30
0.0
 10
105.7134439839883
 20
-145.5859456016243
 30
0.0
 10
105.8701958285672
 20
-145.6577758424918
 30
0.0
 10
105.9421983242089
 20
-145.6896429757303
 30
0.0
 10
105.9421983242089
 20
-145.6896429757303
 30
0.0
 10
105.8023274475077
 20
-145.8651705907038
 30
0.0
 10
105.8023274475077
 20
-145.8651705907038
 30
0.0
  0
SPLINE
  5
8F
330
86
100
AcDbEntity
  8
レイヤー 1
100
AcDbSpline
210
0.0
220
0.0
230
1.0
 70
     9
 71
     3
 72
    98
 73
    94
 74
     0
 42
0.0000000001
 43
0.0000000001
 40
0.0
 40
0.0
 40
0.0
 40
0.0
 40
1.0
 40
1.0
 40
1.0
 40
2.0
 40
2.0
 40
2.0
 40
3.0
 40
3.0
 40
3.0
 40
4.0
 40
4.0
 40
4.0
 40
5.0
 40
5.0
 40
5.0
 40
6.0
 40
6.0
 40
6.0
 40
7.0
 40
7.0
 40
7.0
 40
8.0
 40
8.0
 40
8.0
 40
9.0
 40
9.0
 40
9.0
 40
10.0
 40
10.0
 40
10.0
 40
11.0
 40
11.0
 40
11.0
 40
12.0
 40
12.0
 40
12.0
 40
13.0
 40
13.0
 40
13.0
 40
14.0
 40
14.0
 40
14.0
 40
15.0
 40
15.0
 40
15.0
 40
16.0
 40
16.0
 40
16.0
 40
17.0
 40
17.0
 40
17.0
 40
18.0
 40
18.0
 40
18.0
 40
19.0
 40
19.0
 40
19.0
 40
20.0
 40
20.0
 40
20.0
 40
21.0
 40
21.0
 40
21.0
 40
22.0
 40
22.0
 40
22.0
 40
23.0
 40
23.0
 40
23.0
 40
24.0
 40
24.0
 40
24.0
 40
25.0
 40
25.0
 40
25.0
 40
26.0
 40
26.0
 40
26.0
 40
27.0
 40
27.0
 40
27.0
 40
28.0
 40
28.0
 40
28.0
 40
29.0
 40
29.0
 40
29.0
 40
30.0
 40
30.0
 40
30.0
 40
31.0
 40
31.0
 40
31.0
 40
31.0
 10
104.7574299868315
 20
-144.9723740957013
 30
0.0
 10
104.6261718488434
 20
-145.0421372792776
 30
0.0
 10
104.5627820919148
 20
-145.0696980431596
 30
0.0
 10
104.5076605641508
 20
-145.0950194949762
 30
0.0
 10
104.5076605641508
 20
-145.0950194949762
 30
0.0
 10
104.5076605641508
 20
-145.2452256581331
 30
0.0
 10
104.5076605641508
 20
-145.2452256581331
 30
0.0
 10
104.5076605641508
 20
-145.308787669836
 30
0.0
 10
104.5121391882817
 20
-145.5943860855632
 30
0.0
 10
104.5121391882817
 20
-145.6536417279095
 30
0.0
 10
104.5121391882817
 20
-145.8250352283007
 30
0.0
 10
104.467697456522
 20
-145.8841186158727
 30
0.0
 10
104.1479925954908
 20
-145.8693047052861
 30
0.0
 10
104.1479925954908
 20
-145.8693047052861
 30
0.0
 10
104.0508409028067
 20
-145.6662163264307
 30
0.0
 10
104.0508409028067
 20
-145.6662163264307
 30
0.0
 10
104.082535781271
 20
-145.6725897530784
 30
0.0
 10
104.165218072917
 20
-145.6853366063738
 30
0.0
 10
104.2306748871368
 20
-145.6853366063738
 30
0.0
 10
104.3088785546519
 20
-145.6853366063738
 30
0.0
 10
104.3088785546519
 20
-145.6536417279095
 30
0.0
 10
104.3088785546519
 20
-145.5711316910377
 30
0.0
 10
104.3088785546519
 20
-145.5711316910377
 30
0.0
 10
104.3088785546519
 20
-145.177529531848
 30
0.0
 10
104.3088785546519
 20
-145.177529531848
 30
0.0
 10
104.2265407725545
 20
-145.2071573530211
 30
0.0
 10
104.1776204166639
 20
-145.2242105756731
 30
0.0
 10
104.1080294878619
 20
-145.2452256581331
 30
0.0
 10
104.1014838064399
 20
-145.270719364724
 30
0.0
 10
104.0952826345664
 20
-145.2981078738317
 30
0.0
 10
104.0763346093976
 20
-145.2981078738317
 30
0.0
 10
104.061520698811
 20
-145.2981078738317
 30
0.0
 10
104.054975017389
 20
-145.2855332753105
 30
0.0
 10
104.0508409028067
 20
-145.2748534793063
 30
0.0
 10
104.0508409028067
 20
-145.2748534793063
 30
0.0
 10
103.9829725217473
 20
-145.0485107059253
 30
0.0
 10
103.9829725217473
 20
-145.0485107059253
 30
0.0
 10
104.1566053342039
 20
-145.006308286231
 30
0.0
 10
104.2327419444279
 20
-144.9830538917056
 30
0.0
 10
104.3088785546519
 20
-144.9596272424059
 30
0.0
 10
104.3088785546519
 20
-144.9596272424059
 30
0.0
 10
104.3088785546519
 20
-144.5429429434649
 30
0.0
 10
104.3088785546519
 20
-144.5429429434649
 30
0.0
 10
104.3088785546519
 20
-144.5429429434649
 30
0.0
 10
104.2623697656011
 20
-144.5429429434649
 30
0.0
 10
104.2623697656011
 20
-144.5429429434649
 30
0.0
 10
104.1800319835036
 20
-144.5429429434649
 30
0.0
 10
104.082535781271
 20
-144.5429429434649
 30
0.0
 10
104.0084662283381
 20
-144.5556897967604
 30
0.0
 10
104.0084662283381
 20
-144.5556897967604
 30
0.0
 10
104.0084662283381
 20
-144.365176016426
 30
0.0
 10
104.0084662283381
 20
-144.365176016426
 30
0.0
 10
104.110096545153
 20
-144.382229239078
 30
0.0
 10
104.2516899695968
 20
-144.3842962963692
 30
0.0
 10
104.2623697656011
 20
-144.3842962963692
 30
0.0
 10
104.2623697656011
 20
-144.3842962963692
 30
0.0
 10
104.3088785546519
 20
-144.3842962963692
 30
0.0
 10
104.3088785546519
 20
-144.3842962963692
 30
0.0
 10
104.3088785546519
 20
-144.1875813441614
 30
0.0
 10
104.3047444400696
 20
-144.0542561488823
 30
0.0
 10
104.3006103254873
 20
-143.9676119974282
 30
0.0
 10
104.3006103254873
 20
-143.9676119974282
 30
0.0
 10
104.5290201561594
 20
-143.984492965306
 30
0.0
 10
104.5290201561594
 20
-143.984492965306
 30
0.0
 10
104.5352213280328
 20
-143.984492965306
 30
0.0
 10
104.5607150346237
 20
-143.9886270798882
 30
0.0
 10
104.5607150346237
 20
-144.0077473598314
 30
0.0
 10
104.5607150346237
 20
-144.0266953850002
 30
0.0
 10
104.5393554426151
 20
-144.0373751810045
 30
0.0
 10
104.5142062455728
 20
-144.0501220343
 30
0.0
 10
104.5121391882817
 20
-144.0923244539943
 30
0.0
 10
104.5055935068597
 20
-144.1558864656971
 30
0.0
 10
104.5055935068597
 20
-144.2277167065646
 30
0.0
 10
104.5055935068597
 20
-144.2277167065646
 30
0.0
 10
104.5055935068597
 20
-144.382229239078
 30
0.0
 10
104.5055935068597
 20
-144.382229239078
 30
0.0
 10
104.5183403601551
 20
-144.3842962963692
 30
0.0
 10
104.6495984981431
 20
-144.382229239078
 30
0.0
 10
104.744683133536
 20
-144.365176016426
 30
0.0
 10
104.744683133536
 20
-144.365176016426
 30
0.0
 10
104.744683133536
 20
-144.5556897967604
 30
0.0
 10
104.744683133536
 20
-144.5556897967604
 30
0.0
 10
104.668546523312
 20
-144.5429429434649
 30
0.0
 10
104.5669162064971
 20
-144.5429429434649
 30
0.0
 10
104.5076605641508
 20
-144.5429429434649
 30
0.0
 10
104.5076605641508
 20
-144.5429429434649
 30
0.0
 10
104.5076605641508
 20
-144.8962374854773
 30
0.0
 10
104.5076605641508
 20
-144.8962374854773
 30
0.0
 10
104.64098575943
 20
-144.8497286964264
 30
0.0
 10
104.7129882550717
 20
-144.8221679325444
 30
0.0
 10
104.772243897418
 20
-144.798913538019
 30
0.0
 10
104.772243897418
 20
-144.798913538019
 30
0.0
 10
104.7574299868315
 20
-144.9723740957013
 30
0.0
 10
104.7574299868315
 20
-144.9723740957013
 30
0.0
  0
HATCH
  5
90
330
86
100
AcDbEntity
  8
レイヤー 1
 62
   250
420
  2299925
440
 33554687
100
AcDbHatch
 10
0.0
 20
0.0
 30
0.0
210
0.0
220
0.0
230
1.0
  2
SOLID
 70
     1
 71
     1
 91
        3
 92
        1
 93
        1
 72
     4
 94
        3
 73
     0
 74
     0
 95
       14
 96
       10
 40
0.0
 40
0.0
 40
0.0
 40
0.0
 40
1.0
 40
1.0
 40
1.0
 40
2.0
 40
2.0
 40
2.0
 40
3.0
 40
3.0
 40
3.0
 40
3.0
 10
105.3010660544039
 20
-144.940679217237
 10
105.3561875821679
 20
-145.1480739654491
 10
105.4047634285099
 20
-145.2283446902554
 10
105.4385253642653
 20
-145.2855332753105
 10
105.5125949171982
 20
-145.1565144493879
 10
105.5487684197933
 20
-145.0380031646953
 10
105.5759846741268
 20
-144.940679217237
 10
105.5759846741268
 20
-144.940679217237
 10
105.3010660544039
 20
-144.940679217237
 10
105.3010660544039
 20
-144.940679217237
 97
        0
 97
        1
330
8D
 92
        1
 93
        1
 72
     4
 94
        3
 73
     0
 74
     0
 95
       92
 96
       88
 40
0.0
 40
0.0
 40
0.0
 40
0.0
 40
1.0
 40
1.0
 40
1.0
 40
2.0
 40
2.0
 40
2.0
 40
3.0
 40
3.0
 40
3.0
 40
4.0
 40
4.0
 40
4.0
 40
5.0
 40
5.0
 40
5.0
 40
6.0
 40
6.0
 40
6.0
 40
7.0
 40
7.0
 40
7.0
 40
8.0
 40
8.0
 40
8.0
 40
9.0
 40
9.0
 40
9.0
 40
10.0
 40
10.0
 40
10.0
 40
11.0
 40
11.0
 40
11.0
 40
12.0
 40
12.0
 40
12.0
 40
13.0
 40
13.0
 40
13.0
 40
14.0
 40
14.0
 40
14.0
 40
15.0
 40
15.0
 40
15.0
 40
16.0
 40
16.0
 40
16.0
 40
17.0
 40
17.0
 40
17.0
 40
18.0
 40
18.0
 40
18.0
 40
19.0
 40
19.0
 40
19.0
 40
20.0
 40
20.0
 40
20.0
 40
21.0
 40
21.0
 40
21.0
 40
22.0
 40
22.0
 40
22.0
 40
23.0
 40
23.0
 40
23.0
 40
24.0
 40
24.0
 40
24.0
 40
25.0
 40
25.0
 40
25.0
 40
26.0
 40
26.0
 40
26.0
 40
27.0
 40
27.0
 40
27.0
 40
28.0
 40
28.0
 40
28.0
 40
29.0
 40
29.0
 40
29.0
 40
29.0
 10
105.8023274475077
 20
-145.8651705907038
 10
105.7430718051614
 20
-145.8355427695307
 10
105.5887315274222
 20
-145.7594061593066
 10
105.4385253642653
 20
-145.602826569502
 10
105.3837483460499
 20
-145.6641492691395
 10
105.2483560934796
 20
-145.8059149483575
 10
105.0854030770272
 20
-145.8820515585815
 10
105.0854030770272
 20
-145.8820515585815
 10
104.8969563539841
 20
-145.7425251914289
 10
104.8969563539841
 20
-145.7425251914289
 10
104.9775715883389
 20
-145.7170314848381
 10
105.1401800952427
 20
-145.6620822118483
 10
105.3179470222816
 20
-145.4589938329929
 10
105.2779839146527
 20
-145.4018052479377
 10
105.2228623868887
 20
-145.3151610964837
 10
105.1529269485381
 20
-145.0972588070416
 10
105.0388942879764
 20
-145.4906887114572
 10
104.8631944182286
 20
-145.6896429757303
 10
104.7067870831983
 20
-145.8312364001741
 10
104.7067870831983
 20
-145.8312364001741
 10
104.516273302864
 20
-145.7190985421292
 10
104.516273302864
 20
-145.7190985421292
 10
104.9879068747947
 20
-145.3658040001169
 10
105.0220133200986
 20
-144.8009805953101
 10
105.0368272306852
 20
-144.5408758861738
 10
104.9689588496258
 20
-144.5408758861738
 10
104.8545816795155
 20
-144.5472493128215
 10
104.8080728904646
 20
-144.5513834274038
 10
104.8080728904646
 20
-144.5513834274038
 10
104.8080728904646
 20
-144.3610419018438
 10
104.8080728904646
 20
-144.3610419018438
 10
104.8693955901021
 20
-144.3694823857826
 10
104.8907551821106
 20
-144.3715494430738
 10
105.0430284025587
 20
-144.3779228697215
 10
105.0450954598498
 20
-144.2764648076809
 10
105.0450954598498
 20
-144.1155788485197
 10
105.019601753259
 20
-143.9569322014239
 10
105.019601753259
 20
-143.9569322014239
 10
105.2631700040661
 20
-143.9760524813671
 10
105.2631700040661
 20
-143.9760524813671
 10
105.2800509719439
 20
-143.9781195386582
 10
105.2989989971127
 20
-143.9801865959494
 10
105.2989989971127
 20
-143.9993068758925
 10
105.2989989971127
 20
-144.022561270418
 10
105.2800509719439
 20
-144.0310017543568
 10
105.2438774693487
 20
-144.0458156649434
 10
105.2418104120576
 20
-144.1007649379331
 10
105.2397433547664
 20
-144.1155788485197
 10
105.2376762974753
 20
-144.24046355986
 10
105.2376762974753
 20
-144.24046355986
 10
105.2356092401841
 20
-144.3799899270126
 10
105.2356092401841
 20
-144.3799899270126
 10
105.2356092401841
 20
-144.3799899270126
 10
105.5274088277848
 20
-144.3799899270126
 10
105.5274088277848
 20
-144.3799899270126
 10
105.5928656420045
 20
-144.3799899270126
 10
105.8150743008031
 20
-144.3694823857826
 10
105.8912109110272
 20
-144.3610419018438
 10
105.8912109110272
 20
-144.3610419018438
 10
105.8912109110272
 20
-144.5513834274038
 10
105.8912109110272
 20
-144.5513834274038
 10
105.7792453077565
 20
-144.5408758861738
 10
105.6397189406039
 20
-144.5408758861738
 10
105.5274088277848
 20
-144.5408758861738
 10
105.5274088277848
 20
-144.5408758861738
 10
105.2290635587622
 20
-144.5408758861738
 10
105.2290635587622
 20
-144.5408758861738
 10
105.226996501471
 20
-144.5958251591635
 10
105.2207953295976
 20
-144.684708622683
 10
105.2121825908844
 20
-144.760845232907
 10
105.2121825908844
 20
-144.760845232907
 10
105.4385253642653
 20
-144.760845232907
 10
105.4385253642653
 20
-144.760845232907
 10
105.4850341533162
 20
-144.760845232907
 10
105.6924289015283
 20
-144.7565388635504
 10
105.7348035759968
 20
-144.7544718062593
 10
105.7348035759968
 20
-144.7544718062593
 10
105.8023274475077
 20
-144.8242349898356
 10
105.8023274475077
 20
-144.8242349898356
 10
105.7454833720011
 20
-145.0950194949762
 10
105.6586669657728
 20
-145.2919067019583
 10
105.5635823303799
 20
-145.4398735530497
 10
105.7134439839883
 20
-145.5859456016243
 10
105.8701958285672
 20
-145.6577758424918
 10
105.9421983242089
 20
-145.6896429757303
 10
105.9421983242089
 20
-145.6896429757303
 10
105.8023274475077
 20
-145.8651705907038
 10
105.8023274475077
 20
-145.8651705907038
 97
        0
 97
        1
330
8E
 92
        1
 93
        1
 72
     4
 94
        3
 73
     0
 74
     0
 95
       98
 96
       94
 40
0.0
 40
0.0
 40
0.0
 40
0.0
 40
1.0
 40
1.0
 40
1.0
 40
2.0
 40
2.0
 40
2.0
 40
3.0
 40
3.0
 40
3.0
 40
4.0
 40
4.0
 40
4.0
 40
5.0
 40
5.0
 40
5.0
 40
6.0
 40
6.0
 40
6.0
 40
7.0
 40
7.0
 40
7.0
 40
8.0
 40
8.0
 40
8.0
 40
9.0
 40
9.0
 40
9.0
 40
10.0
 40
10.0
 40
10.0
 40
11.0
 40
11.0
 40
11.0
 40
12.0
 40
12.0
 40
12.0
 40
13.0
 40
13.0
 40
13.0
 40
14.0
 40
14.0
 40
14.0
 40
15.0
 40
15.0
 40
15.0
 40
16.0
 40
16.0
 40
16.0
 40
17.0
 40
17.0
 40
17.0
 40
18.0
 40
18.0
 40
18.0
 40
19.0
 40
19.0
 40
19.0
 40
20.0
 40
20.0
 40
20.0
 40
21.0
 40
21.0
 40
21.0
 40
22.0
 40
22.0
 40
22.0
 40
23.0
 40
23.0
 40
23.0
 40
24.0
 40
24.0
 40
24.0
 40
25.0
 40
25.0
 40
25.0
 40
26.0
 40
26.0
 40
26.0
 40
27.0
 40
27.0
 40
27.0
 40
28.0
 40
28.0
 40
28.0
 40
29.0
 40
29.0
 40
29.0
 40
30.0
 40
30.0
 40
30.0
 40
31.0
 40
31.0
 40
31.0
 40
31.0
 10
104.7574299868315
 20
-144.9723740957013
 10
104.6261718488434
 20
-145.0421372792776
 10
104.5627820919148
 20
-145.0696980431596
 10
104.5076605641508
 20
-145.0950194949762
 10
104.5076605641508
 20
-145.0950194949762
 10
104.5076605641508
 20
-145.2452256581331
 10
104.5076605641508
 20
-145.2452256581331
 10
104.5076605641508
 20
-145.308787669836
 10
104.5121391882817
 20
-145.5943860855632
 10
104.5121391882817
 20
-145.6536417279095
 10
104.5121391882817
 20
-145.8250352283007
 10
104.467697456522
 20
-145.8841186158727
 10
104.1479925954908
 20
-145.8693047052861
 10
104.1479925954908
 20
-145.8693047052861
 10
104.0508409028067
 20
-145.6662163264307
 10
104.0508409028067
 20
-145.6662163264307
 10
104.082535781271
 20
-145.6725897530784
 10
104.165218072917
 20
-145.6853366063738
 10
104.2306748871368
 20
-145.6853366063738
 10
104.3088785546519
 20
-145.6853366063738
 10
104.3088785546519
 20
-145.6536417279095
 10
104.3088785546519
 20
-145.5711316910377
 10
104.3088785546519
 20
-145.5711316910377
 10
104.3088785546519
 20
-145.177529531848
 10
104.3088785546519
 20
-145.177529531848
 10
104.2265407725545
 20
-145.2071573530211
 10
104.1776204166639
 20
-145.2242105756731
 10
104.1080294878619
 20
-145.2452256581331
 10
104.1014838064399
 20
-145.270719364724
 10
104.0952826345664
 20
-145.2981078738317
 10
104.0763346093976
 20
-145.2981078738317
 10
104.061520698811
 20
-145.2981078738317
 10
104.054975017389
 20
-145.2855332753105
 10
104.0508409028067
 20
-145.2748534793063
 10
104.0508409028067
 20
-145.2748534793063
 10
103.9829725217473
 20
-145.0485107059253
 10
103.9829725217473
 20
-145.0485107059253
 10
104.1566053342039
 20
-145.006308286231
 10
104.2327419444279
 20
-144.9830538917056
 10
104.3088785546519
 20
-144.9596272424059
 10
104.3088785546519
 20
-144.9596272424059
 10
104.3088785546519
 20
-144.5429429434649
 10
104.3088785546519
 20
-144.5429429434649
 10
104.3088785546519
 20
-144.5429429434649
 10
104.2623697656011
 20
-144.5429429434649
 10
104.2623697656011
 20
-144.5429429434649
 10
104.1800319835036
 20
-144.5429429434649
 10
104.082535781271
 20
-144.5429429434649
 10
104.0084662283381
 20
-144.5556897967604
 10
104.0084662283381
 20
-144.5556897967604
 10
104.0084662283381
 20
-144.365176016426
 10
104.0084662283381
 20
-144.365176016426
 10
104.110096545153
 20
-144.382229239078
 10
104.2516899695968
 20
-144.3842962963692
 10
104.2623697656011
 20
-144.3842962963692
 10
104.2623697656011
 20
-144.3842962963692
 10
104.3088785546519
 20
-144.3842962963692
 10
104.3088785546519
 20
-144.3842962963692
 10
104.3088785546519
 20
-144.1875813441614
 10
104.3047444400696
 20
-144.0542561488823
 10
104.3006103254873
 20
-143.9676119974282
 10
104.3006103254873
 20
-143.9676119974282
 10
104.5290201561594
 20
-143.984492965306
 10
104.5290201561594
 20
-143.984492965306
 10
104.5352213280328
 20
-143.984492965306
 10
104.5607150346237
 20
-143.9886270798882
 10
104.5607150346237
 20
-144.0077473598314
 10
104.5607150346237
 20
-144.0266953850002
 10
104.5393554426151
 20
-144.0373751810045
 10
104.5142062455728
 20
-144.0501220343
 10
104.5121391882817
 20
-144.0923244539943
 10
104.5055935068597
 20
-144.1558864656971
 10
104.5055935068597
 20
-144.2277167065646
 10
104.5055935068597
 20
-144.2277167065646
 10
104.5055935068597
 20
-144.382229239078
 10
104.5055935068597
 20
-144.382229239078
 10
104.5183403601551
 20
-144.3842962963692
 10
104.6495984981431
 20
-144.382229239078
 10
104.744683133536
 20
-144.365176016426
 10
104.744683133536
 20
-144.365176016426
 10
104.744683133536
 20
-144.5556897967604
 10
104.744683133536
 20
-144.5556897967604
 10
104.668546523312
 20
-144.5429429434649
 10
104.5669162064971
 20
-144.5429429434649
 10
104.5076605641508
 20
-144.5429429434649
 10
104.5076605641508
 20
-144.5429429434649
 10
104.5076605641508
 20
-144.8962374854773
 10
104.5076605641508
 20
-144.8962374854773
 10
104.64098575943
 20
-144.8497286964264
 10
104.7129882550717
 20
-144.8221679325444
 10
104.772243897418
 20
-144.798913538019
 10
104.772243897418
 20
-144.798913538019
 10
104.7574299868315
 20
-144.9723740957013
 10
104.7574299868315
 20
-144.9723740957013
 97
        0
 97
        1
330
8F
 75
     2
 76
     1
 98
        1
 10
0.0
 20
0.0
450
        0
451
        0
460
0.0
461
0.0
452
        0
462
0.0
453
        0
470

  0
SPLINE
  5
91
330
86
100
AcDbEntity
  8
レイヤー 1
100
AcDbSpline
210
0.0
220
0.0
230
1.0
 70
     9
 71
     3
 72
   119
 73
   115
 74
     0
 42
0.0000000001
 43
0.0000000001
 40
0.0
 40
0.0
 40
0.0
 40
0.0
 40
1.0
 40
1.0
 40
1.0
 40
2.0
 40
2.0
 40
2.0
 40
3.0
 40
3.0
 40
3.0
 40
4.0
 40
4.0
 40
4.0
 40
5.0
 40
5.0
 40
5.0
 40
6.0
 40
6.0
 40
6.0
 40
7.0
 40
7.0
 40
7.0
 40
8.0
 40
8.0
 40
8.0
 40
9.0
 40
9.0
 40
9.0
 40
10.0
 40
10.0
 40
10.0
 40
11.0
 40
11.0
 40
11.0
 40
12.0
 40
12.0
 40
12.0
 40
13.0
 40
13.0
 40
13.0
 40
14.0
 40
14.0
 40
14.0
 40
15.0
 40
15.0
 40
15.0
 40
16.0
 40
16.0
 40
16.0
 40
17.0
 40
17.0
 40
17.0
 40
18.0
 40
18.0
 40
18.0
 40
19.0
 40
19.0
 40
19.0
 40
20.0
 40
20.0
 40
20.0
 40
21.0
 40
21.0
 40
21.0
 40
22.0
 40
22.0
 40
22.0
 40
23.0
 40
23.0
 40
23.0
 40
24.0
 40
24.0
 40
24.0
 40
25.0
 40
25.0
 40
25.0
 40
26.0
 40
26.0
 40
26.0
 40
27.0
 40
27.0
 40
27.0
 40
28.0
 40
28.0
 40
28.0
 40
29.0
 40
29.0
 40
29.0
 40
30.0
 40
30.0
 40
30.0
 40
31.0
 40
31.0
 40
31.0
 40
32.0
 40
32.0
 40
32.0
 40
33.0
 40
33.0
 40
33.0
 40
34.0
 40
34.0
 40
34.0
 40
35.0
 40
35.0
 40
35.0
 40
36.0
 40
36.0
 40
36.0
 40
37.0
 40
37.0
 40
37.0
 40
38.0
 40
38.0
 40
38.0
 40
38.0
 10
107.1214545088099
 20
-144.7777262007847
 30
0.0
 10
107.178643093865
 20
-144.875050148243
 30
0.0
 10
107.2971543785576
 20
-145.0655639285773
 30
0.0
 10
107.4494275990057
 20
-145.2304117475466
 30
0.0
 10
107.4494275990057
 20
-145.2304117475466
 30
0.0
 10
107.3415961103174
 20
-145.3764837961211
 30
0.0
 10
107.3415961103174
 20
-145.3764837961211
 30
0.0
 10
107.1745089792827
 20
-145.3003471858971
 30
0.0
 10
106.992263428113
 20
-145.2410915435508
 30
0.0
 10
106.8082953292007
 20
-145.2410915435508
 30
0.0
 10
106.6601562233349
 20
-145.2410915435508
 30
0.0
 10
106.4720540098403
 20
-145.3151610964837
 30
0.0
 10
106.4720540098403
 20
-145.4526204063451
 30
0.0
 10
106.4720540098403
 20
-145.630387333384
 30
0.0
 10
106.6856499299258
 20
-145.640894874614
 30
0.0
 10
106.7766004507364
 20
-145.640894874614
 30
0.0
 10
106.812429443783
 20
-145.640894874614
 30
0.0
 10
107.047384955877
 20
-145.640894874614
 30
0.0
 10
107.2906086971357
 20
-145.5752658056201
 30
0.0
 10
107.2906086971357
 20
-145.5752658056201
 30
0.0
 10
107.2906086971357
 20
-145.7911010377709
 30
0.0
 10
107.2906086971357
 20
-145.7911010377709
 30
0.0
 10
107.2210177683336
 20
-145.7954074071275
 30
0.0
 10
106.9119927033067
 20
-145.8164224895876
 30
0.0
 10
106.8486029463781
 20
-145.8164224895876
 30
0.0
 10
106.7449055722721
 20
-145.8164224895876
 30
0.0
 10
106.5333767094778
 20
-145.8059149483575
 30
0.0
 10
106.4276122780806
 20
-145.7339124527158
 30
0.0
 10
106.3218478466834
 20
-145.6600151545572
 30
0.0
 10
106.2753390576325
 20
-145.5478772965123
 30
0.0
 10
106.2753390576325
 20
-145.4483140369886
 30
0.0
 10
106.2753390576325
 20
-145.3509900895303
 30
0.0
 10
106.3218478466834
 20
-145.2559054541374
 30
0.0
 10
106.3745578076077
 20
-145.2093966650865
 30
0.0
 10
106.461374213836
 20
-145.1310207427971
 30
0.0
 10
106.6412081981661
 20
-145.0740044125162
 30
0.0
 10
106.818975125205
 20
-145.0740044125162
 30
0.0
 10
106.9395534671887
 20
-145.0740044125162
 30
0.0
 10
107.0284369307081
 20
-145.0972588070416
 30
0.0
 10
107.130067247523
 20
-145.1246473161494
 30
0.0
 10
107.0684000383371
 20
-145.0295626807565
 30
0.0
 10
106.9839951989484
 20
-144.8983045427685
 30
0.0
 10
106.9478216963533
 20
-144.836981843131
 30
0.0
 10
106.6498209368792
 20
-144.9279323639416
 30
0.0
 10
106.4634412711272
 20
-144.9723740957013
 30
0.0
 10
106.1823214795308
 20
-144.9766804650579
 30
0.0
 10
106.1823214795308
 20
-144.9766804650579
 30
0.0
 10
106.1103189838891
 20
-144.7904730540801
 30
0.0
 10
106.1103189838891
 20
-144.7904730540801
 30
0.0
 10
106.1547607156488
 20
-144.7947794234367
 30
0.0
 10
106.1799099126911
 20
-144.7968464807279
 30
0.0
 10
106.2350314404551
 20
-144.7968464807279
 30
0.0
 10
106.3177137321011
 20
-144.7968464807279
 30
0.0
 10
106.4803222390049
 20
-144.788405996789
 30
0.0
 10
106.6794487580523
 20
-144.7418972077381
 30
0.0
 10
106.7597194828587
 20
-144.722776927795
 30
0.0
 10
106.8103623864918
 20
-144.7036566478518
 30
0.0
 10
106.8592827423824
 20
-144.684708622683
 30
0.0
 10
106.8420572649561
 20
-144.6530137442187
 30
0.0
 10
106.7703992788629
 20
-144.5069416956441
 30
0.0
 10
106.7555853682764
 20
-144.4795531865364
 30
0.0
 10
106.620193115706
 20
-144.5176214916484
 30
0.0
 10
106.4655083284183
 20
-144.5598239113427
 30
0.0
 10
106.1885226514043
 20
-144.5830783058681
 30
0.0
 10
106.1885226514043
 20
-144.5830783058681
 30
0.0
 10
106.1082519265979
 20
-144.4118570602512
 30
0.0
 10
106.1082519265979
 20
-144.4118570602512
 30
0.0
 10
106.1482150342268
 20
-144.4159911748335
 30
0.0
 10
106.1609618875222
 20
-144.4159911748335
 30
0.0
 10
106.1947238232777
 20
-144.4159911748335
 30
0.0
 10
106.3494086105654
 20
-144.4159911748335
 30
0.0
 10
106.544056505482
 20
-144.3886026657258
 30
0.0
 10
106.6877169872169
 20
-144.3334811379617
 30
0.0
 10
106.6391411408749
 20
-144.2340901332123
 30
0.0
 10
106.5905652945329
 20
-144.1346991284628
 30
0.0
 10
106.544056505482
 20
-144.0353081237134
 30
0.0
 10
106.544056505482
 20
-144.0353081237134
 30
0.0
 10
106.7511067441455
 20
-144.0118814744137
 30
0.0
 10
106.7511067441455
 20
-144.0118814744137
 30
0.0
 10
106.7852131894495
 20
-144.0077473598314
 30
0.0
 10
106.7893473040318
 20
-144.0056803025402
 30
0.0
 10
106.7955484759053
 20
-144.0056803025402
 30
0.0
 10
106.8296549212092
 20
-144.0056803025402
 30
0.0
 10
106.8358560930827
 20
-144.0182549010614
 30
0.0
 10
106.8358560930827
 20
-144.0394422382957
 30
0.0
 10
106.8358560930827
 20
-144.0542561488823
 30
0.0
 10
106.8317219785004
 20
-144.06062957553
 30
0.0
 10
106.8272433543696
 20
-144.0649359448865
 30
0.0
 10
106.8231092397873
 20
-144.0690700594688
 30
0.0
 10
106.8020941573272
 20
-144.0923244539943
 30
0.0
 10
106.7976155331964
 20
-144.0966308233508
 30
0.0
 10
106.8251762970784
 20
-144.1855142868703
 30
0.0
 10
106.839990207665
 20
-144.2213432799169
 30
0.0
 10
106.8654839142558
 20
-144.278531864972
 30
0.0
 10
106.971248345653
 20
-144.2425306171512
 30
0.0
 10
107.1321343048142
 20
-144.1855142868703
 30
0.0
 10
107.2737277292579
 20
-144.0775105434077
 30
0.0
 10
107.2737277292579
 20
-144.0775105434077
 30
0.0
 10
107.3309163143131
 20
-144.2552774704466
 30
0.0
 10
107.3309163143131
 20
-144.2552774704466
 30
0.0
 10
107.1679632978608
 20
-144.3398545646095
 30
0.0
 10
107.0029432241173
 20
-144.3948038375992
 30
0.0
 10
106.922672499311
 20
-144.4223646014812
 30
0.0
 10
106.9395534671887
 20
-144.4540594799455
 30
0.0
 10
107.0115559628304
 20
-144.6001315285201
 30
0.0
 10
107.026369873417
 20
-144.6275200376278
 30
0.0
 10
107.1469482154007
 20
-144.5853176179335
 30
0.0
 10
107.3457302248997
 20
-144.5005682689964
 30
0.0
 10
107.4918022734743
 20
-144.4011772642469
 30
0.0
 10
107.4918022734743
 20
-144.4011772642469
 30
0.0
 10
107.5383110625251
 20
-144.5958251591635
 30
0.0
 10
107.5383110625251
 20
-144.5958251591635
 30
0.0
 10
107.3753580460728
 20
-144.6762681387441
 30
0.0
 10
107.2823404679711
 20
-144.7184705584384
 30
0.0
 10
107.1214545088099
 20
-144.7777262007847
 30
0.0
  0
HATCH
  5
92
330
86
100
AcDbEntity
  8
レイヤー 1
 62
   250
420
  2299925
440
 33554687
100
AcDbHatch
 10
0.0
 20
0.0
 30
0.0
210
0.0
220
0.0
230
1.0
  2
SOLID
 70
     1
 71
     1
 91
        1
 92
        1
 93
        1
 72
     4
 94
        3
 73
     0
 74
     0
 95
      119
 96
      115
 40
0.0
 40
0.0
 40
0.0
 40
0.0
 40
1.0
 40
1.0
 40
1.0
 40
2.0
 40
2.0
 40
2.0
 40
3.0
 40
3.0
 40
3.0
 40
4.0
 40
4.0
 40
4.0
 40
5.0
 40
5.0
 40
5.0
 40
6.0
 40
6.0
 40
6.0
 40
7.0
 40
7.0
 40
7.0
 40
8.0
 40
8.0
 40
8.0
 40
9.0
 40
9.0
 40
9.0
 40
10.0
 40
10.0
 40
10.0
 40
11.0
 40
11.0
 40
11.0
 40
12.0
 40
12.0
 40
12.0
 40
13.0
 40
13.0
 40
13.0
 40
14.0
 40
14.0
 40
14.0
 40
15.0
 40
15.0
 40
15.0
 40
16.0
 40
16.0
 40
16.0
 40
17.0
 40
17.0
 40
17.0
 40
18.0
 40
18.0
 40
18.0
 40
19.0
 40
19.0
 40
19.0
 40
20.0
 40
20.0
 40
20.0
 40
21.0
 40
21.0
 40
21.0
 40
22.0
 40
22.0
 40
22.0
 40
23.0
 40
23.0
 40
23.0
 40
24.0
 40
24.0
 40
24.0
 40
25.0
 40
25.0
 40
25.0
 40
26.0
 40
26.0
 40
26.0
 40
27.0
 40
27.0
 40
27.0
 40
28.0
 40
28.0
 40
28.0
 40
29.0
 40
29.0
 40
29.0
 40
30.0
 40
30.0
 40
30.0
 40
31.0
 40
31.0
 40
31.0
 40
32.0
 40
32.0
 40
32.0
 40
33.0
 40
33.0
 40
33.0
 40
34.0
 40
34.0
 40
34.0
 40
35.0
 40
35.0
 40
35.0
 40
36.0
 40
36.0
 40
36.0
 40
37.0
 40
37.0
 40
37.0
 40
38.0
 40
38.0
 40
38.0
 40
38.0
 10
107.1214545088099
 20
-144.7777262007847
 10
107.178643093865
 20
-144.875050148243
 10
107.2971543785576
 20
-145.0655639285773
 10
107.4494275990057
 20
-145.2304117475466
 10
107.4494275990057
 20
-145.2304117475466
 10
107.3415961103174
 20
-145.3764837961211
 10
107.3415961103174
 20
-145.3764837961211
 10
107.1745089792827
 20
-145.3003471858971
 10
106.992263428113
 20
-145.2410915435508
 10
106.8082953292007
 20
-145.2410915435508
 10
106.6601562233349
 20
-145.2410915435508
 10
106.4720540098403
 20
-145.3151610964837
 10
106.4720540098403
 20
-145.4526204063451
 10
106.4720540098403
 20
-145.630387333384
 10
106.6856499299258
 20
-145.640894874614
 10
106.7766004507364
 20
-145.640894874614
 10
106.812429443783
 20
-145.640894874614
 10
107.047384955877
 20
-145.640894874614
 10
107.2906086971357
 20
-145.5752658056201
 10
107.2906086971357
 20
-145.5752658056201
 10
107.2906086971357
 20
-145.7911010377709
 10
107.2906086971357
 20
-145.7911010377709
 10
107.2210177683336
 20
-145.7954074071275
 10
106.9119927033067
 20
-145.8164224895876
 10
106.8486029463781
 20
-145.8164224895876
 10
106.7449055722721
 20
-145.8164224895876
 10
106.5333767094778
 20
-145.8059149483575
 10
106.4276122780806
 20
-145.7339124527158
 10
106.3218478466834
 20
-145.6600151545572
 10
106.2753390576325
 20
-145.5478772965123
 10
106.2753390576325
 20
-145.4483140369886
 10
106.2753390576325
 20
-145.3509900895303
 10
106.3218478466834
 20
-145.2559054541374
 10
106.3745578076077
 20
-145.2093966650865
 10
106.461374213836
 20
-145.1310207427971
 10
106.6412081981661
 20
-145.0740044125162
 10
106.818975125205
 20
-145.0740044125162
 10
106.9395534671887
 20
-145.0740044125162
 10
107.0284369307081
 20
-145.0972588070416
 10
107.130067247523
 20
-145.1246473161494
 10
107.0684000383371
 20
-145.0295626807565
 10
106.9839951989484
 20
-144.8983045427685
 10
106.9478216963533
 20
-144.836981843131
 10
106.6498209368792
 20
-144.9279323639416
 10
106.4634412711272
 20
-144.9723740957013
 10
106.1823214795308
 20
-144.9766804650579
 10
106.1823214795308
 20
-144.9766804650579
 10
106.1103189838891
 20
-144.7904730540801
 10
106.1103189838891
 20
-144.7904730540801
 10
106.1547607156488
 20
-144.7947794234367
 10
106.1799099126911
 20
-144.7968464807279
 10
106.2350314404551
 20
-144.7968464807279
 10
106.3177137321011
 20
-144.7968464807279
 10
106.4803222390049
 20
-144.788405996789
 10
106.6794487580523
 20
-144.7418972077381
 10
106.7597194828587
 20
-144.722776927795
 10
106.8103623864918
 20
-144.7036566478518
 10
106.8592827423824
 20
-144.684708622683
 10
106.8420572649561
 20
-144.6530137442187
 10
106.7703992788629
 20
-144.5069416956441
 10
106.7555853682764
 20
-144.4795531865364
 10
106.620193115706
 20
-144.5176214916484
 10
106.4655083284183
 20
-144.5598239113427
 10
106.1885226514043
 20
-144.5830783058681
 10
106.1885226514043
 20
-144.5830783058681
 10
106.1082519265979
 20
-144.4118570602512
 10
106.1082519265979
 20
-144.4118570602512
 10
106.1482150342268
 20
-144.4159911748335
 10
106.1609618875222
 20
-144.4159911748335
 10
106.1947238232777
 20
-144.4159911748335
 10
106.3494086105654
 20
-144.4159911748335
 10
106.544056505482
 20
-144.3886026657258
 10
106.6877169872169
 20
-144.3334811379617
 10
106.6391411408749
 20
-144.2340901332123
 10
106.5905652945329
 20
-144.1346991284628
 10
106.544056505482
 20
-144.0353081237134
 10
106.544056505482
 20
-144.0353081237134
 10
106.7511067441455
 20
-144.0118814744137
 10
106.7511067441455
 20
-144.0118814744137
 10
106.7852131894495
 20
-144.0077473598314
 10
106.7893473040318
 20
-144.0056803025402
 10
106.7955484759053
 20
-144.0056803025402
 10
106.8296549212092
 20
-144.0056803025402
 10
106.8358560930827
 20
-144.0182549010614
 10
106.8358560930827
 20
-144.0394422382957
 10
106.8358560930827
 20
-144.0542561488823
 10
106.8317219785004
 20
-144.06062957553
 10
106.8272433543696
 20
-144.0649359448865
 10
106.8231092397873
 20
-144.0690700594688
 10
106.8020941573272
 20
-144.0923244539943
 10
106.7976155331964
 20
-144.0966308233508
 10
106.8251762970784
 20
-144.1855142868703
 10
106.839990207665
 20
-144.2213432799169
 10
106.8654839142558
 20
-144.278531864972
 10
106.971248345653
 20
-144.2425306171512
 10
107.1321343048142
 20
-144.1855142868703
 10
107.2737277292579
 20
-144.0775105434077
 10
107.2737277292579
 20
-144.0775105434077
 10
107.3309163143131
 20
-144.2552774704466
 10
107.3309163143131
 20
-144.2552774704466
 10
107.1679632978608
 20
-144.3398545646095
 10
107.0029432241173
 20
-144.3948038375992
 10
106.922672499311
 20
-144.4223646014812
 10
106.9395534671887
 20
-144.4540594799455
 10
107.0115559628304
 20
-144.6001315285201
 10
107.026369873417
 20
-144.6275200376278
 10
107.1469482154007
 20
-144.5853176179335
 10
107.3457302248997
 20
-144.5005682689964
 10
107.4918022734743
 20
-144.4011772642469
 10
107.4918022734743
 20
-144.4011772642469
 10
107.5383110625251
 20
-144.5958251591635
 10
107.5383110625251
 20
-144.5958251591635
 10
107.3753580460728
 20
-144.6762681387441
 10
107.2823404679711
 20
-144.7184705584384
 10
107.1214545088099
 20
-144.7777262007847
 97
        0
 97
        1
330
91
 75
     2
 76
     1
 98
        1
 10
0.0
 20
0.0
450
        0
451
        0
460
0.0
461
0.0
452
        0
462
0.0
453
        0
470

  0
SPLINE
  5
93
330
86
100
AcDbEntity
  8
レイヤー 1
100
AcDbSpline
210
0.0
220
0.0
230
1.0
 70
     9
 71
     3
 72
    32
 73
    28
 74
     0
 42
0.0000000001
 43
0.0000000001
 40
0.0
 40
0.0
 40
0.0
 40
0.0
 40
1.0
 40
1.0
 40
1.0
 40
2.0
 40
2.0
 40
2.0
 40
3.0
 40
3.0
 40
3.0
 40
4.0
 40
4.0
 40
4.0
 40
5.0
 40
5.0
 40
5.0
 40
6.0
 40
6.0
 40
6.0
 40
7.0
 40
7.0
 40
7.0
 40
8.0
 40
8.0
 40
8.0
 40
9.0
 40
9.0
 40
9.0
 40
9.0
 10
109.4451714136109
 20
-145.856730106765
 30
0.0
 10
108.8846543781608
 20
-145.5182494753392
 30
0.0
 10
108.8443467609833
 20
-145.0211221968176
 30
0.0
 10
108.8295328503968
 20
-144.8412882124876
 30
0.0
 10
108.7682101507593
 20
-144.8412882124876
 30
0.0
 10
108.6562445474887
 20
-144.8497286964264
 30
0.0
 10
108.5907877332689
 20
-144.8538628110087
 30
0.0
 10
108.5907877332689
 20
-144.8538628110087
 30
0.0
 10
108.5907877332689
 20
-144.6359605215667
 30
0.0
 10
108.5907877332689
 20
-144.6359605215667
 30
0.0
 10
108.6372965223198
 20
-144.6402668909232
 30
0.0
 10
108.7027533365396
 20
-144.646640317571
 30
0.0
 10
108.819197563941
 20
-144.646640317571
 30
0.0
 10
108.9397759059248
 20
-144.646640317571
 30
0.0
 10
108.9862846949756
 20
-144.6402668909232
 30
0.0
 10
109.0414062227396
 20
-144.6318264069844
 30
0.0
 10
109.0369275986088
 20
-144.6888427372653
 30
0.0
 10
109.0348605413177
 20
-144.7270832971516
 30
0.0
 10
109.0348605413177
 20
-144.7820325701413
 30
0.0
 10
109.0348605413177
 20
-144.8983045427685
 30
0.0
 10
109.0348605413177
 20
-145.1394612267359
 30
0.0
 10
109.2381211749474
 20
-145.3976711333554
 30
0.0
 10
109.3480197209269
 20
-145.537197500508
 30
0.0
 10
109.508905680088
 20
-145.6365885052575
 30
0.0
 10
109.6294840220718
 20
-145.7065239436081
 30
0.0
 10
109.6294840220718
 20
-145.7065239436081
 30
0.0
 10
109.4451714136109
 20
-145.856730106765
 30
0.0
 10
109.4451714136109
 20
-145.856730106765
 30
0.0
  0
SPLINE
  5
94
330
86
100
AcDbEntity
  8
レイヤー 1
100
AcDbSpline
210
0.0
220
0.0
230
1.0
 70
     9
 71
     3
 72
    68
 73
    64
 74
     0
 42
0.0000000001
 43
0.0000000001
 40
0.0
 40
0.0
 40
0.0
 40
0.0
 40
1.0
 40
1.0
 40
1.0
 40
2.0
 40
2.0
 40
2.0
 40
3.0
 40
3.0
 40
3.0
 40
4.0
 40
4.0
 40
4.0
 40
5.0
 40
5.0
 40
5.0
 40
6.0
 40
6.0
 40
6.0
 40
7.0
 40
7.0
 40
7.0
 40
8.0
 40
8.0
 40
8.0
 40
9.0
 40
9.0
 40
9.0
 40
10.0
 40
10.0
 40
10.0
 40
11.0
 40
11.0
 40
11.0
 40
12.0
 40
12.0
 40
12.0
 40
13.0
 40
13.0
 40
13.0
 40
14.0
 40
14.0
 40
14.0
 40
15.0
 40
15.0
 40
15.0
 40
16.0
 40
16.0
 40
16.0
 40
17.0
 40
17.0
 40
17.0
 40
18.0
 40
18.0
 40
18.0
 40
19.0
 40
19.0
 40
19.0
 40
20.0
 40
20.0
 40
20.0
 40
21.0
 40
21.0
 40
21.0
 40
21.0
 10
109.3838487139735
 20
-144.7270832971516
 30
0.0
 10
109.3859157712646
 20
-144.7036566478518
 30
0.0
 10
109.3924614526866
 20
-144.6381998336321
 30
0.0
 10
109.3924614526866
 20
-144.5894517325158
 30
0.0
 10
109.3924614526866
 20
-144.5598239113427
 30
0.0
 10
109.3859157712646
 20
-144.4244316587723
 30
0.0
 10
109.3883273381043
 20
-144.3970431496646
 30
0.0
 10
109.3883273381043
 20
-144.3970431496646
 30
0.0
 10
108.0319932455614
 20
-144.3970431496646
 30
0.0
 10
108.0319932455614
 20
-144.3970431496646
 30
0.0
 10
108.0319932455614
 20
-144.4202975441901
 30
0.0
 10
108.0364718696922
 20
-144.6530137442187
 30
0.0
 10
108.0364718696922
 20
-144.6593871708664
 30
0.0
 10
108.0364718696922
 20
-144.6867756799741
 30
0.0
 10
108.0385389269834
 20
-144.7058959599173
 30
0.0
 10
108.0406059842746
 20
-144.7355237810904
 30
0.0
 10
108.0406059842746
 20
-144.7355237810904
 30
0.0
 10
107.8056504721805
 20
-144.7355237810904
 30
0.0
 10
107.8056504721805
 20
-144.7355237810904
 30
0.0
 10
107.8101290963113
 20
-144.6974554759784
 30
0.0
 10
107.8121961536025
 20
-144.6783351960353
 30
0.0
 10
107.8142632108936
 20
-144.6254529803367
 30
0.0
 10
107.8163302681848
 20
-144.5112480650006
 30
0.0
 10
107.8163302681848
 20
-144.4244316587723
 30
0.0
 10
107.8163302681848
 20
-144.2869723489109
 30
0.0
 10
107.8163302681848
 20
-144.2657850116766
 30
0.0
 10
107.8163302681848
 20
-144.2468369865077
 30
0.0
 10
107.8142632108936
 20
-144.2044623120391
 30
0.0
 10
107.8903998211176
 20
-144.2065293693303
 30
0.0
 10
108.3072563748329
 20
-144.2172091653346
 30
0.0
 10
108.3389512532972
 20
-144.2172091653346
 30
0.0
 10
108.3389512532972
 20
-144.2172091653346
 30
0.0
 10
108.5949218478512
 20
-144.2172091653346
 30
0.0
 10
108.5949218478512
 20
-144.2172091653346
 30
0.0
 10
108.5907877332689
 20
-144.0521890915911
 30
0.0
 10
108.5907877332689
 20
-144.033068811648
 30
0.0
 10
108.5863091091381
 20
-143.9633056280717
 30
0.0
 10
108.5863091091381
 20
-143.9633056280717
 30
0.0
 10
108.8253987358145
 20
-143.9865600225971
 30
0.0
 10
108.8253987358145
 20
-143.9865600225971
 30
0.0
 10
108.8488253851141
 20
-143.9886270798882
 30
0.0
 10
108.867773410283
 20
-144.0056803025402
 30
0.0
 10
108.867773410283
 20
-144.022561270418
 30
0.0
 10
108.867773410283
 20
-144.0458156649434
 30
0.0
 10
108.8550265569876
 20
-144.0501220343
 30
0.0
 10
108.812651882519
 20
-144.07113711676
 30
0.0
 10
108.8085177679367
 20
-144.1135117912286
 30
0.0
 10
108.8064507106456
 20
-144.1727674335749
 30
0.0
 10
108.8064507106456
 20
-144.2172091653346
 30
0.0
 10
108.8064507106456
 20
-144.2172091653346
 30
0.0
 10
109.1047959796682
 20
-144.2172091653346
 30
0.0
 10
109.1047959796682
 20
-144.2172091653346
 30
0.0
 10
109.1258110621283
 20
-144.2172091653346
 30
0.0
 10
109.426223388442
 20
-144.2065293693303
 30
0.0
 10
109.6039903154809
 20
-144.1980888853914
 30
0.0
 10
109.5977891436075
 20
-144.2468369865077
 30
0.0
 10
109.5977891436075
 20
-144.289039406202
 30
0.0
 10
109.5977891436075
 20
-144.3377875073183
 30
0.0
 10
109.5977891436075
 20
-144.4499253653632
 30
0.0
 10
109.6019232581898
 20
-144.6170124963978
 30
0.0
 10
109.6126030541941
 20
-144.7270832971516
 30
0.0
 10
109.6126030541941
 20
-144.7270832971516
 30
0.0
 10
109.3838487139735
 20
-144.7270832971516
 30
0.0
 10
109.3838487139735
 20
-144.7270832971516
 30
0.0
  0
SPLINE
  5
95
330
86
100
AcDbEntity
  8
レイヤー 1
100
AcDbSpline
210
0.0
220
0.0
230
1.0
 70
     9
 71
     3
 72
    26
 73
    22
 74
     0
 42
0.0000000001
 43
0.0000000001
 40
0.0
 40
0.0
 40
0.0
 40
0.0
 40
1.0
 40
1.0
 40
1.0
 40
2.0
 40
2.0
 40
2.0
 40
3.0
 40
3.0
 40
3.0
 40
4.0
 40
4.0
 40
4.0
 40
5.0
 40
5.0
 40
5.0
 40
6.0
 40
6.0
 40
6.0
 40
7.0
 40
7.0
 40
7.0
 40
7.0
 10
108.5525471733827
 20
-144.940679217237
 30
0.0
 10
108.5504801160915
 20
-144.9427462745282
 30
0.0
 10
108.5167181803361
 20
-144.9491197011759
 30
0.0
 10
108.5146511230449
 20
-144.9491197011759
 30
0.0
 10
108.4319688313989
 20
-145.2791598486628
 30
0.0
 10
108.2562689616512
 20
-145.6832695490826
 30
0.0
 10
107.9434542915905
 20
-145.8693047052861
 30
0.0
 10
107.9434542915905
 20
-145.8693047052861
 30
0.0
 10
107.7570746258385
 20
-145.7170314848381
 30
0.0
 10
107.7570746258385
 20
-145.7170314848381
 30
0.0
 10
108.2225070258957
 20
-145.488621654166
 30
0.0
 10
108.3027777507021
 20
-144.9554931278236
 30
0.0
 10
108.3303385145841
 20
-144.771352774137
 30
0.0
 10
108.3303385145841
 20
-144.771352774137
 30
0.0
 10
108.5484130588004
 20
-144.8709160336607
 30
0.0
 10
108.5484130588004
 20
-144.8709160336607
 30
0.0
 10
108.5694281412604
 20
-144.8814235748907
 30
0.0
 10
108.5821749945558
 20
-144.8898640588296
 30
0.0
 10
108.5821749945558
 20
-144.9089843387727
 30
0.0
 10
108.5821749945558
 20
-144.9343057905893
 30
0.0
 10
108.563226969387
 20
-144.9386121599459
 30
0.0
 10
108.5525471733827
 20
-144.940679217237
 30
0.0
  0
HATCH
  5
96
330
86
100
AcDbEntity
  8
レイヤー 1
 62
   250
420
  2299925
440
 33554687
100
AcDbHatch
 10
0.0
 20
0.0
 30
0.0
210
0.0
220
0.0
230
1.0
  2
SOLID
 70
     1
 71
     1
 91
        3
 92
        1
 93
        1
 72
     4
 94
        3
 73
     0
 74
     0
 95
       32
 96
       28
 40
0.0
 40
0.0
 40
0.0
 40
0.0
 40
1.0
 40
1.0
 40
1.0
 40
2.0
 40
2.0
 40
2.0
 40
3.0
 40
3.0
 40
3.0
 40
4.0
 40
4.0
 40
4.0
 40
5.0
 40
5.0
 40
5.0
 40
6.0
 40
6.0
 40
6.0
 40
7.0
 40
7.0
 40
7.0
 40
8.0
 40
8.0
 40
8.0
 40
9.0
 40
9.0
 40
9.0
 40
9.0
 10
109.4451714136109
 20
-145.856730106765
 10
108.8846543781608
 20
-145.5182494753392
 10
108.8443467609833
 20
-145.0211221968176
 10
108.8295328503968
 20
-144.8412882124876
 10
108.7682101507593
 20
-144.8412882124876
 10
108.6562445474887
 20
-144.8497286964264
 10
108.5907877332689
 20
-144.8538628110087
 10
108.5907877332689
 20
-144.8538628110087
 10
108.5907877332689
 20
-144.6359605215667
 10
108.5907877332689
 20
-144.6359605215667
 10
108.6372965223198
 20
-144.6402668909232
 10
108.7027533365396
 20
-144.646640317571
 10
108.819197563941
 20
-144.646640317571
 10
108.9397759059248
 20
-144.646640317571
 10
108.9862846949756
 20
-144.6402668909232
 10
109.0414062227396
 20
-144.6318264069844
 10
109.0369275986088
 20
-144.6888427372653
 10
109.0348605413177
 20
-144.7270832971516
 10
109.0348605413177
 20
-144.7820325701413
 10
109.0348605413177
 20
-144.8983045427685
 10
109.0348605413177
 20
-145.1394612267359
 10
109.2381211749474
 20
-145.3976711333554
 10
109.3480197209269
 20
-145.537197500508
 10
109.508905680088
 20
-145.6365885052575
 10
109.6294840220718
 20
-145.7065239436081
 10
109.6294840220718
 20
-145.7065239436081
 10
109.4451714136109
 20
-145.856730106765
 10
109.4451714136109
 20
-145.856730106765
 97
        0
 97
        1
330
93
 92
        1
 93
        1
 72
     4
 94
        3
 73
     0
 74
     0
 95
       68
 96
       64
 40
0.0
 40
0.0
 40
0.0
 40
0.0
 40
1.0
 40
1.0
 40
1.0
 40
2.0
 40
2.0
 40
2.0
 40
3.0
 40
3.0
 40
3.0
 40
4.0
 40
4.0
 40
4.0
 40
5.0
 40
5.0
 40
5.0
 40
6.0
 40
6.0
 40
6.0
 40
7.0
 40
7.0
 40
7.0
 40
8.0
 40
8.0
 40
8.0
 40
9.0
 40
9.0
 40
9.0
 40
10.0
 40
10.0
 40
10.0
 40
11.0
 40
11.0
 40
11.0
 40
12.0
 40
12.0
 40
12.0
 40
13.0
 40
13.0
 40
13.0
 40
14.0
 40
14.0
 40
14.0
 40
15.0
 40
15.0
 40
15.0
 40
16.0
 40
16.0
 40
16.0
 40
17.0
 40
17.0
 40
17.0
 40
18.0
 40
18.0
 40
18.0
 40
19.0
 40
19.0
 40
19.0
 40
20.0
 40
20.0
 40
20.0
 40
21.0
 40
21.0
 40
21.0
 40
21.0
 10
109.3838487139735
 20
-144.7270832971516
 10
109.3859157712646
 20
-144.7036566478518
 10
109.3924614526866
 20
-144.6381998336321
 10
109.3924614526866
 20
-144.5894517325158
 10
109.3924614526866
 20
-144.5598239113427
 10
109.3859157712646
 20
-144.4244316587723
 10
109.3883273381043
 20
-144.3970431496646
 10
109.3883273381043
 20
-144.3970431496646
 10
108.0319932455614
 20
-144.3970431496646
 10
108.0319932455614
 20
-144.3970431496646
 10
108.0319932455614
 20
-144.4202975441901
 10
108.0364718696922
 20
-144.6530137442187
 10
108.0364718696922
 20
-144.6593871708664
 10
108.0364718696922
 20
-144.6867756799741
 10
108.0385389269834
 20
-144.7058959599173
 10
108.0406059842746
 20
-144.7355237810904
 10
108.0406059842746
 20
-144.7355237810904
 10
107.8056504721805
 20
-144.7355237810904
 10
107.8056504721805
 20
-144.7355237810904
 10
107.8101290963113
 20
-144.6974554759784
 10
107.8121961536025
 20
-144.6783351960353
 10
107.8142632108936
 20
-144.6254529803367
 10
107.8163302681848
 20
-144.5112480650006
 10
107.8163302681848
 20
-144.4244316587723
 10
107.8163302681848
 20
-144.2869723489109
 10
107.8163302681848
 20
-144.2657850116766
 10
107.8163302681848
 20
-144.2468369865077
 10
107.8142632108936
 20
-144.2044623120391
 10
107.8903998211176
 20
-144.2065293693303
 10
108.3072563748329
 20
-144.2172091653346
 10
108.3389512532972
 20
-144.2172091653346
 10
108.3389512532972
 20
-144.2172091653346
 10
108.5949218478512
 20
-144.2172091653346
 10
108.5949218478512
 20
-144.2172091653346
 10
108.5907877332689
 20
-144.0521890915911
 10
108.5907877332689
 20
-144.033068811648
 10
108.5863091091381
 20
-143.9633056280717
 10
108.5863091091381
 20
-143.9633056280717
 10
108.8253987358145
 20
-143.9865600225971
 10
108.8253987358145
 20
-143.9865600225971
 10
108.8488253851141
 20
-143.9886270798882
 10
108.867773410283
 20
-144.0056803025402
 10
108.867773410283
 20
-144.022561270418
 10
108.867773410283
 20
-144.0458156649434
 10
108.8550265569876
 20
-144.0501220343
 10
108.812651882519
 20
-144.07113711676
 10
108.8085177679367
 20
-144.1135117912286
 10
108.8064507106456
 20
-144.1727674335749
 10
108.8064507106456
 20
-144.2172091653346
 10
108.8064507106456
 20
-144.2172091653346
 10
109.1047959796682
 20
-144.2172091653346
 10
109.1047959796682
 20
-144.2172091653346
 10
109.1258110621283
 20
-144.2172091653346
 10
109.426223388442
 20
-144.2065293693303
 10
109.6039903154809
 20
-144.1980888853914
 10
109.5977891436075
 20
-144.2468369865077
 10
109.5977891436075
 20
-144.289039406202
 10
109.5977891436075
 20
-144.3377875073183
 10
109.5977891436075
 20
-144.4499253653632
 10
109.6019232581898
 20
-144.6170124963978
 10
109.6126030541941
 20
-144.7270832971516
 10
109.6126030541941
 20
-144.7270832971516
 10
109.3838487139735
 20
-144.7270832971516
 10
109.3838487139735
 20
-144.7270832971516
 97
        0
 97
        1
330
94
 92
        1
 93
        1
 72
     4
 94
        3
 73
     0
 74
     0
 95
       26
 96
       22
 40
0.0
 40
0.0
 40
0.0
 40
0.0
 40
1.0
 40
1.0
 40
1.0
 40
2.0
 40
2.0
 40
2.0
 40
3.0
 40
3.0
 40
3.0
 40
4.0
 40
4.0
 40
4.0
 40
5.0
 40
5.0
 40
5.0
 40
6.0
 40
6.0
 40
6.0
 40
7.0
 40
7.0
 40
7.0
 40
7.0
 10
108.5525471733827
 20
-144.940679217237
 10
108.5504801160915
 20
-144.9427462745282
 10
108.5167181803361
 20
-144.9491197011759
 10
108.5146511230449
 20
-144.9491197011759
 10
108.4319688313989
 20
-145.2791598486628
 10
108.2562689616512
 20
-145.6832695490826
 10
107.9434542915905
 20
-145.8693047052861
 10
107.9434542915905
 20
-145.8693047052861
 10
107.7570746258385
 20
-145.7170314848381
 10
107.7570746258385
 20
-145.7170314848381
 10
108.2225070258957
 20
-145.488621654166
 10
108.3027777507021
 20
-144.9554931278236
 10
108.3303385145841
 20
-144.771352774137
 10
108.3303385145841
 20
-144.771352774137
 10
108.5484130588004
 20
-144.8709160336607
 10
108.5484130588004
 20
-144.8709160336607
 10
108.5694281412604
 20
-144.8814235748907
 10
108.5821749945558
 20
-144.8898640588296
 10
108.5821749945558
 20
-144.9089843387727
 10
108.5821749945558
 20
-144.9343057905893
 10
108.563226969387
 20
-144.9386121599459
 10
108.5525471733827
 20
-144.940679217237
 97
        0
 97
        1
330
95
 75
     2
 76
     1
 98
        1
 10
0.0
 20
0.0
450
        0
451
        0
460
0.0
461
0.0
452
        0
462
0.0
453
        0
470

  0
ENDBLK
  5
89
330
86
100
AcDbEntity
  8
0
100
AcDbBlockEnd
  0
BLOCK
  5
9C
330
9A
100
AcDbEntity
  8
0
100
AcDbBlockBegin
  2
Block_2
 70
     0
 10
0.0
 20
0.0
 30
0.0
  3
Block_2
  1

  0
INSERT
  5
9F
330
9A
100
AcDbEntity
  8
レイヤー 1
100
AcDbBlockReference
  2
Block_3
 10
0.0
 20
0.0
 30
0.0
  0
ENDBLK
  5
9D
330
9A
100
AcDbEntity
  8
0
100
AcDbBlockEnd
  0
BLOCK
  5
A0
330
9E
100
AcDbEntity
  8
0
100
AcDbBlockBegin
  2
Block_3
 70
     0
 10
0.0
 20
0.0
 30
0.0
  3
Block_3
  1

  0
SPLINE
  5
A2
330
9E
100
AcDbEntity
  8
レイヤー 1
100
AcDbSpline
210
0.0
220
0.0
230
1.0
 70
     9
 71
     3
 72
    44
 73
    40
 74
     0
 42
0.0000000001
 43
0.0000000001
 40
0.0
 40
0.0
 40
0.0
 40
0.0
 40
1.0
 40
1.0
 40
1.0
 40
2.0
 40
2.0
 40
2.0
 40
3.0
 40
3.0
 40
3.0
 40
4.0
 40
4.0
 40
4.0
 40
5.0
 40
5.0
 40
5.0
 40
6.0
 40
6.0
 40
6.0
 40
7.0
 40
7.0
 40
7.0
 40
8.0
 40
8.0
 40
8.0
 40
9.0
 40
9.0
 40
9.0
 40
10.0
 40
10.0
 40
10.0
 40
11.0
 40
11.0
 40
11.0
 40
12.0
 40
12.0
 40
12.0
 40
13.0
 40
13.0
 40
13.0
 40
13.0
 10
96.31281193338708
 20
-147.0652696029906
 30
0.0
 10
96.47163083525711
 20
-147.2831718924326
 30
0.0
 10
96.54570038818997
 20
-147.3763617253087
 30
0.0
 10
96.68936086992488
 20
-147.4249375716507
 30
0.0
 10
96.68936086992488
 20
-147.4249375716507
 30
0.0
 10
96.68936086992488
 20
-146.6465182467585
 30
0.0
 10
96.68936086992488
 20
-146.6465182467585
 30
0.0
 10
96.68936086992488
 20
-146.6465182467585
 30
0.0
 10
96.89468856084578
 20
-146.6465182467585
 30
0.0
 10
96.89468856084578
 20
-146.6465182467585
 30
0.0
 10
96.89468856084578
 20
-146.6465182467585
 30
0.0
 10
96.89468856084578
 20
-147.674534739557
 30
0.0
 10
96.89468856084578
 20
-147.674534739557
 30
0.0
 10
96.53708764947685
 20
-147.6428398610927
 30
0.0
 10
96.45888398196168
 20
-147.577383046873
 30
0.0
 10
96.16053871293903
 20
-147.1922213716221
 30
0.0
 10
95.96175670344011
 20
-146.936250777068
 30
0.0
 10
95.8938883223807
 20
-146.8707939628482
 30
0.0
 10
95.75642901251923
 20
-146.8707939628482
 30
0.0
 10
95.63791772782662
 20
-146.8707939628482
 30
0.0
 10
95.50700409938714
 20
-146.9426242037157
 30
0.0
 10
95.50700409938714
 20
-147.1393391559235
 30
0.0
 10
95.50700409938714
 20
-147.3996161198341
 30
0.0
 10
95.73748098735036
 20
-147.408056603773
 30
0.0
 10
95.8539252147518
 20
-147.4123629731295
 30
0.0
 10
95.8539252147518
 20
-147.4123629731295
 30
0.0
 10
95.8539252147518
 20
-147.636466434445
 30
0.0
 10
95.8539252147518
 20
-147.636466434445
 30
0.0
 10
95.72680119134608
 20
-147.6280259505062
 30
0.0
 10
95.61483558807546
 20
-147.6175184092762
 30
0.0
 10
95.49632430338286
 20
-147.5370754296956
 30
0.0
 10
95.3354383442217
 20
-147.4271768837161
 30
0.0
 10
95.30167640846626
 20
-147.2409694727384
 30
0.0
 10
95.30167640846626
 20
-147.1245252453369
 30
0.0
 10
95.30167640846626
 20
-146.8473673135485
 30
0.0
 10
95.4856445073786
 20
-146.6401448201108
 30
0.0
 10
95.75849606981037
 20
-146.6401448201108
 30
0.0
 10
95.98725041003097
 20
-146.6401448201108
 30
0.0
 10
96.08646916000616
 20
-146.756416792738
 30
0.0
 10
96.31281193338708
 20
-147.0652696029906
 30
0.0
  0
HATCH
  5
A3
330
9E
100
AcDbEntity
  8
レイヤー 1
 62
   250
420
  2299925
440
 33554687
100
AcDbHatch
 10
0.0
 20
0.0
 30
0.0
210
0.0
220
0.0
230
1.0
  2
SOLID
 70
     1
 71
     1
 91
        1
 92
        1
 93
        1
 72
     4
 94
        3
 73
     0
 74
     0
 95
       44
 96
       40
 40
0.0
 40
0.0
 40
0.0
 40
0.0
 40
1.0
 40
1.0
 40
1.0
 40
2.0
 40
2.0
 40
2.0
 40
3.0
 40
3.0
 40
3.0
 40
4.0
 40
4.0
 40
4.0
 40
5.0
 40
5.0
 40
5.0
 40
6.0
 40
6.0
 40
6.0
 40
7.0
 40
7.0
 40
7.0
 40
8.0
 40
8.0
 40
8.0
 40
9.0
 40
9.0
 40
9.0
 40
10.0
 40
10.0
 40
10.0
 40
11.0
 40
11.0
 40
11.0
 40
12.0
 40
12.0
 40
12.0
 40
13.0
 40
13.0
 40
13.0
 40
13.0
 10
96.31281193338708
 20
-147.0652696029906
 10
96.47163083525711
 20
-147.2831718924326
 10
96.54570038818997
 20
-147.3763617253087
 10
96.68936086992488
 20
-147.4249375716507
 10
96.68936086992488
 20
-147.4249375716507
 10
96.68936086992488
 20
-146.6465182467585
 10
96.68936086992488
 20
-146.6465182467585
 10
96.68936086992488
 20
-146.6465182467585
 10
96.89468856084578
 20
-146.6465182467585
 10
96.89468856084578
 20
-146.6465182467585
 10
96.89468856084578
 20
-146.6465182467585
 10
96.89468856084578
 20
-147.674534739557
 10
96.89468856084578
 20
-147.674534739557
 10
96.53708764947685
 20
-147.6428398610927
 10
96.45888398196168
 20
-147.577383046873
 10
96.16053871293903
 20
-147.1922213716221
 10
95.96175670344011
 20
-146.936250777068
 10
95.8938883223807
 20
-146.8707939628482
 10
95.75642901251923
 20
-146.8707939628482
 10
95.63791772782662
 20
-146.8707939628482
 10
95.50700409938714
 20
-146.9426242037157
 10
95.50700409938714
 20
-147.1393391559235
 10
95.50700409938714
 20
-147.3996161198341
 10
95.73748098735036
 20
-147.408056603773
 10
95.8539252147518
 20
-147.4123629731295
 10
95.8539252147518
 20
-147.4123629731295
 10
95.8539252147518
 20
-147.636466434445
 10
95.8539252147518
 20
-147.636466434445
 10
95.72680119134608
 20
-147.6280259505062
 10
95.61483558807546
 20
-147.6175184092762
 10
95.49632430338286
 20
-147.5370754296956
 10
95.3354383442217
 20
-147.4271768837161
 10
95.30167640846626
 20
-147.2409694727384
 10
95.30167640846626
 20
-147.1245252453369
 10
95.30167640846626
 20
-146.8473673135485
 10
95.4856445073786
 20
-146.6401448201108
 10
95.75849606981037
 20
-146.6401448201108
 10
95.98725041003097
 20
-146.6401448201108
 10
96.08646916000616
 20
-146.756416792738
 10
96.31281193338708
 20
-147.0652696029906
 97
        0
 97
        1
330
A2
 75
     2
 76
     1
 98
        1
 10
0.0
 20
0.0
450
        0
451
        0
460
0.0
461
0.0
452
        0
462
0.0
453
        0
470

  0
SPLINE
  5
A4
330
9E
100
AcDbEntity
  8
レイヤー 1
100
AcDbSpline
210
0.0
220
0.0
230
1.0
 70
     9
 71
     3
 72
    17
 73
    13
 74
     0
 42
0.0000000001
 43
0.0000000001
 40
0.0
 40
0.0
 40
0.0
 40
0.0
 40
1.0
 40
1.0
 40
1.0
 40
2.0
 40
2.0
 40
2.0
 40
3.0
 40
3.0
 40
3.0
 40
4.0
 40
4.0
 40
4.0
 40
4.0
 10
96.15433754106559
 20
-145.9816148181053
 30
0.0
 10
96.15433754106559
 20
-146.1254475546144
 30
0.0
 10
96.24115394729388
 20
-146.2777207750625
 30
0.0
 10
96.44407007137509
 20
-146.2777207750625
 30
0.0
 10
96.649397762296
 20
-146.2777207750625
 30
0.0
 10
96.75068356956233
 20
-146.150769006431
 30
0.0
 10
96.75068356956233
 20
-145.9816148181053
 30
0.0
 10
96.75068356956233
 20
-145.7954074071275
 30
0.0
 10
96.62803817028745
 20
-145.6853366063738
 30
0.0
 10
96.45027124324855
 20
-145.6853366063738
 30
0.0
 10
96.22840709399845
 20
-145.6853366063738
 30
0.0
 10
96.15433754106559
 20
-145.8482896228261
 30
0.0
 10
96.15433754106559
 20
-145.9816148181053
 30
0.0
  0
SPLINE
  5
A5
330
9E
100
AcDbEntity
  8
レイヤー 1
100
AcDbSpline
210
0.0
220
0.0
230
1.0
 70
     9
 71
     3
 72
    17
 73
    13
 74
     0
 42
0.0000000001
 43
0.0000000001
 40
0.0
 40
0.0
 40
0.0
 40
0.0
 40
1.0
 40
1.0
 40
1.0
 40
2.0
 40
2.0
 40
2.0
 40
3.0
 40
3.0
 40
3.0
 40
4.0
 40
4.0
 40
4.0
 40
4.0
 10
95.49425724609172
 20
-145.9816148181053
 30
0.0
 10
95.49425724609172
 20
-146.1466348918488
 30
0.0
 10
95.58934188148461
 20
-146.2312119860116
 30
0.0
 10
95.72473413405493
 20
-146.2312119860116
 30
0.0
 10
95.84737953332982
 20
-146.2312119860116
 30
0.0
 10
95.96589081802241
 20
-146.1592094903699
 30
0.0
 10
95.96589081802241
 20
-145.9816148181053
 30
0.0
 10
95.96589081802241
 20
-145.8038478910664
 30
0.0
 10
95.84737953332982
 20
-145.7320176501989
 30
0.0
 10
95.72473413405493
 20
-145.7320176501989
 30
0.0
 10
95.58934188148461
 20
-145.7320176501989
 30
0.0
 10
95.49425724609172
 20
-145.8186618016529
 30
0.0
 10
95.49425724609172
 20
-145.9816148181053
 30
0.0
  0
SPLINE
  5
A6
330
9E
100
AcDbEntity
  8
レイヤー 1
100
AcDbSpline
210
0.0
220
0.0
230
1.0
 70
     9
 71
     3
 72
    29
 73
    25
 74
     0
 42
0.0000000001
 43
0.0000000001
 40
0.0
 40
0.0
 40
0.0
 40
0.0
 40
1.0
 40
1.0
 40
1.0
 40
2.0
 40
2.0
 40
2.0
 40
3.0
 40
3.0
 40
3.0
 40
4.0
 40
4.0
 40
4.0
 40
5.0
 40
5.0
 40
5.0
 40
6.0
 40
6.0
 40
6.0
 40
7.0
 40
7.0
 40
7.0
 40
8.0
 40
8.0
 40
8.0
 40
8.0
 10
96.94533146447895
 20
-145.9816148181053
 30
0.0
 10
96.94533146447895
 20
-146.2480929538893
 30
0.0
 10
96.80787215461748
 20
-146.5019964911522
 30
0.0
 10
96.45888398196168
 20
-146.5019964911522
 30
0.0
 10
96.20291338740761
 20
-146.5019964911522
 30
0.0
 10
96.10782875201472
 20
-146.3602308119342
 30
0.0
 10
96.04650605237727
 20
-146.254466380537
 30
0.0
 10
95.98725041003097
 20
-146.3793510918774
 30
0.0
 10
95.87287323992068
 20
-146.4554877021014
 30
0.0
 10
95.7119872807595
 20
-146.4554877021014
 30
0.0
 10
95.43706866103658
 20
-146.4554877021014
 30
0.0
 10
95.30167640846626
 20
-146.2565334378282
 30
0.0
 10
95.30167640846626
 20
-145.9816148181053
 30
0.0
 10
95.30167640846626
 20
-145.6980834596692
 30
0.0
 10
95.4456813997497
 20
-145.5077419341092
 30
0.0
 10
95.7119872807595
 20
-145.5077419341092
 30
0.0
 10
95.87287323992068
 20
-145.5077419341092
 30
0.0
 10
95.98725041003097
 20
-145.5859456016243
 30
0.0
 10
96.04650605237727
 20
-145.7108303129647
 30
0.0
 10
96.09714895601044
 20
-145.6219468494452
 30
0.0
 10
96.19223359140335
 20
-145.4633002023494
 30
0.0
 10
96.45474986737937
 20
-145.4633002023494
 30
0.0
 10
96.82923174662604
 20
-145.4633002023494
 30
0.0
 10
96.94533146447895
 20
-145.7425251914289
 30
0.0
 10
96.94533146447895
 20
-145.9816148181053
 30
0.0
  0
HATCH
  5
A7
330
9E
100
AcDbEntity
  8
レイヤー 1
 62
   250
420
  2299925
440
 33554687
100
AcDbHatch
 10
0.0
 20
0.0
 30
0.0
210
0.0
220
0.0
230
1.0
  2
SOLID
 70
     1
 71
     1
 91
        3
 92
        1
 93
        1
 72
     4
 94
        3
 73
     0
 74
     0
 95
       17
 96
       13
 40
0.0
 40
0.0
 40
0.0
 40
0.0
 40
1.0
 40
1.0
 40
1.0
 40
2.0
 40
2.0
 40
2.0
 40
3.0
 40
3.0
 40
3.0
 40
4.0
 40
4.0
 40
4.0
 40
4.0
 10
96.15433754106559
 20
-145.9816148181053
 10
96.15433754106559
 20
-146.1254475546144
 10
96.24115394729388
 20
-146.2777207750625
 10
96.44407007137509
 20
-146.2777207750625
 10
96.649397762296
 20
-146.2777207750625
 10
96.75068356956233
 20
-146.150769006431
 10
96.75068356956233
 20
-145.9816148181053
 10
96.75068356956233
 20
-145.7954074071275
 10
96.62803817028745
 20
-145.6853366063738
 10
96.45027124324855
 20
-145.6853366063738
 10
96.22840709399845
 20
-145.6853366063738
 10
96.15433754106559
 20
-145.8482896228261
 10
96.15433754106559
 20
-145.9816148181053
 97
        0
 97
        1
330
A4
 92
        1
 93
        1
 72
     4
 94
        3
 73
     0
 74
     0
 95
       17
 96
       13
 40
0.0
 40
0.0
 40
0.0
 40
0.0
 40
1.0
 40
1.0
 40
1.0
 40
2.0
 40
2.0
 40
2.0
 40
3.0
 40
3.0
 40
3.0
 40
4.0
 40
4.0
 40
4.0
 40
4.0
 10
95.49425724609172
 20
-145.9816148181053
 10
95.49425724609172
 20
-146.1466348918488
 10
95.58934188148461
 20
-146.2312119860116
 10
95.72473413405493
 20
-146.2312119860116
 10
95.84737953332982
 20
-146.2312119860116
 10
95.96589081802241
 20
-146.1592094903699
 10
95.96589081802241
 20
-145.9816148181053
 10
95.96589081802241
 20
-145.8038478910664
 10
95.84737953332982
 20
-145.7320176501989
 10
95.72473413405493
 20
-145.7320176501989
 10
95.58934188148461
 20
-145.7320176501989
 10
95.49425724609172
 20
-145.8186618016529
 10
95.49425724609172
 20
-145.9816148181053
 97
        0
 97
        1
330
A5
 92
        1
 93
        1
 72
     4
 94
        3
 73
     0
 74
     0
 95
       29
 96
       25
 40
0.0
 40
0.0
 40
0.0
 40
0.0
 40
1.0
 40
1.0
 40
1.0
 40
2.0
 40
2.0
 40
2.0
 40
3.0
 40
3.0
 40
3.0
 40
4.0
 40
4.0
 40
4.0
 40
5.0
 40
5.0
 40
5.0
 40
6.0
 40
6.0
 40
6.0
 40
7.0
 40
7.0
 40
7.0
 40
8.0
 40
8.0
 40
8.0
 40
8.0
 10
96.94533146447895
 20
-145.9816148181053
 10
96.94533146447895
 20
-146.2480929538893
 10
96.80787215461748
 20
-146.5019964911522
 10
96.45888398196168
 20
-146.5019964911522
 10
96.20291338740761
 20
-146.5019964911522
 10
96.10782875201472
 20
-146.3602308119342
 10
96.04650605237727
 20
-146.254466380537
 10
95.98725041003097
 20
-146.3793510918774
 10
95.87287323992068
 20
-146.4554877021014
 10
95.7119872807595
 20
-146.4554877021014
 10
95.43706866103658
 20
-146.4554877021014
 10
95.30167640846626
 20
-146.2565334378282
 10
95.30167640846626
 20
-145.9816148181053
 10
95.30167640846626
 20
-145.6980834596692
 10
95.4456813997497
 20
-145.5077419341092
 10
95.7119872807595
 20
-145.5077419341092
 10
95.87287323992068
 20
-145.5077419341092
 10
95.98725041003097
 20
-145.5859456016243
 10
96.04650605237727
 20
-145.7108303129647
 10
96.09714895601044
 20
-145.6219468494452
 10
96.19223359140335
 20
-145.4633002023494
 10
96.45474986737937
 20
-145.4633002023494
 10
96.82923174662604
 20
-145.4633002023494
 10
96.94533146447895
 20
-145.7425251914289
 10
96.94533146447895
 20
-145.9816148181053
 97
        0
 97
        1
330
A6
 75
     2
 76
     1
 98
        1
 10
0.0
 20
0.0
450
        0
451
        0
460
0.0
461
0.0
452
        0
462
0.0
453
        0
470

  0
SPLINE
  5
A8
330
9E
100
AcDbEntity
  8
レイヤー 1
100
AcDbSpline
210
0.0
220
0.0
230
1.0
 70
    11
 71
     3
 72
    17
 73
    13
 74
     0
 42
0.0000000001
 43
0.0000000001
 40
0.0
 40
0.0
 40
0.0
 40
0.0
 40
1.0
 40
1.0
 40
1.0
 40
2.0
 40
2.0
 40
2.0
 40
3.0
 40
3.0
 40
3.0
 40
4.0
 40
4.0
 40
4.0
 40
4.0
 10
96.89468856084578
 20
-145.2447088938103
 30
0.0
 10
96.89468856084578
 20
-145.2447088938103
 30
0.0
 10
96.64285208087401
 20
-145.2447088938103
 30
0.0
 10
96.64285208087401
 20
-145.2447088938103
 30
0.0
 10
96.64285208087401
 20
-145.2447088938103
 30
0.0
 10
96.64285208087401
 20
-144.9930446686128
 30
0.0
 10
96.64285208087401
 20
-144.9930446686128
 30
0.0
 10
96.64285208087401
 20
-144.9930446686128
 30
0.0
 10
96.89468856084578
 20
-144.9930446686128
 30
0.0
 10
96.89468856084578
 20
-144.9930446686128
 30
0.0
 10
96.89468856084578
 20
-144.9930446686128
 30
0.0
 10
96.89468856084578
 20
-145.2447088938103
 30
0.0
 10
96.89468856084578
 20
-145.2447088938103
 30
0.0
  0
HATCH
  5
A9
330
9E
100
AcDbEntity
  8
レイヤー 1
 62
   250
420
  2299925
440
 33554687
100
AcDbHatch
 10
0.0
 20
0.0
 30
0.0
210
0.0
220
0.0
230
1.0
  2
SOLID
 70
     1
 71
     1
 91
        1
 92
        1
 93
        1
 72
     4
 94
        3
 73
     0
 74
     0
 95
       17
 96
       13
 40
0.0
 40
0.0
 40
0.0
 40
0.0
 40
1.0
 40
1.0
 40
1.0
 40
2.0
 40
2.0
 40
2.0
 40
3.0
 40
3.0
 40
3.0
 40
4.0
 40
4.0
 40
4.0
 40
4.0
 10
96.89468856084578
 20
-145.2447088938103
 10
96.89468856084578
 20
-145.2447088938103
 10
96.64285208087401
 20
-145.2447088938103
 10
96.64285208087401
 20
-145.2447088938103
 10
96.64285208087401
 20
-145.2447088938103
 10
96.64285208087401
 20
-144.9930446686128
 10
96.64285208087401
 20
-144.9930446686128
 10
96.64285208087401
 20
-144.9930446686128
 10
96.89468856084578
 20
-144.9930446686128
 10
96.89468856084578
 20
-144.9930446686128
 10
96.89468856084578
 20
-144.9930446686128
 10
96.89468856084578
 20
-145.2447088938103
 10
96.89468856084578
 20
-145.2447088938103
 97
        0
 97
        1
330
A8
 75
     2
 76
     1
 98
        1
 10
0.0
 20
0.0
450
        0
451
        0
460
0.0
461
0.0
452
        0
462
0.0
453
        0
470

  0
SPLINE
  5
AA
330
9E
100
AcDbEntity
  8
レイヤー 1
100
AcDbSpline
210
0.0
220
0.0
230
1.0
 70
     9
 71
     3
 72
    53
 73
    49
 74
     0
 42
0.0000000001
 43
0.0000000001
 40
0.0
 40
0.0
 40
0.0
 40
0.0
 40
1.0
 40
1.0
 40
1.0
 40
2.0
 40
2.0
 40
2.0
 40
3.0
 40
3.0
 40
3.0
 40
4.0
 40
4.0
 40
4.0
 40
5.0
 40
5.0
 40
5.0
 40
6.0
 40
6.0
 40
6.0
 40
7.0
 40
7.0
 40
7.0
 40
8.0
 40
8.0
 40
8.0
 40
9.0
 40
9.0
 40
9.0
 40
10.0
 40
10.0
 40
10.0
 40
11.0
 40
11.0
 40
11.0
 40
12.0
 40
12.0
 40
12.0
 40
13.0
 40
13.0
 40
13.0
 40
14.0
 40
14.0
 40
14.0
 40
15.0
 40
15.0
 40
15.0
 40
16.0
 40
16.0
 40
16.0
 40
16.0
 10
96.94533146447895
 20
-144.2756035338095
 30
0.0
 10
96.94533146447895
 20
-144.353979456099
 30
0.0
 10
96.92845049660123
 20
-144.4554375181396
 30
0.0
 10
96.86506073967263
 20
-144.5570678349545
 30
0.0
 10
96.75516219369315
 20
-144.7305283926368
 30
0.0
 10
96.62390405570514
 20
-144.7517157298711
 30
0.0
 10
96.51607256701682
 20
-144.77066375504
 30
0.0
 10
96.51607256701682
 20
-144.77066375504
 30
0.0
 10
96.51607256701682
 20
-144.5486273510156
 30
0.0
 10
96.51607256701682
 20
-144.5486273510156
 30
0.0
 10
96.71485457651574
 20
-144.4935058232516
 30
0.0
 10
96.74448239768889
 20
-144.3665540546201
 30
0.0
 10
96.74448239768889
 20
-144.2735364765184
 30
0.0
 10
96.74448239768889
 20
-144.1340101093658
 30
0.0
 10
96.64491913816517
 20
-143.9815646341435
 30
0.0
 10
96.41237519291081
 20
-143.9815646341435
 30
0.0
 10
96.15640459835674
 20
-143.9815646341435
 30
0.0
 10
96.08646916000616
 20
-144.1613986184735
 30
0.0
 10
96.08646916000616
 20
-144.2819769604573
 30
0.0
 10
96.08646916000616
 20
-144.3136718389216
 30
0.0
 10
96.08646916000616
 20
-144.4554375181396
 30
0.0
 10
96.21566024070304
 20
-144.544320981659
 30
0.0
 10
96.21566024070304
 20
-144.544320981659
 30
0.0
 10
96.19671221553417
 20
-144.7198485966325
 30
0.0
 10
96.19671221553417
 20
-144.7198485966325
 30
0.0
 10
96.19671221553417
 20
-144.7198485966325
 30
0.0
 10
95.35025225480827
 20
-144.5992702546488
 30
0.0
 10
95.35025225480827
 20
-144.5992702546488
 30
0.0
 10
95.35025225480827
 20
-144.5992702546488
 30
0.0
 10
95.35025225480827
 20
-143.8208509297566
 30
0.0
 10
95.35025225480827
 20
-143.8208509297566
 30
0.0
 10
95.35025225480827
 20
-143.8208509297566
 30
0.0
 10
95.5449001497249
 20
-143.8208509297566
 30
0.0
 10
95.5449001497249
 20
-143.8208509297566
 30
0.0
 10
95.5449001497249
 20
-143.8208509297566
 30
0.0
 10
95.5449001497249
 20
-144.4364894929707
 30
0.0
 10
95.5449001497249
 20
-144.4364894929707
 30
0.0
 10
95.5449001497249
 20
-144.4364894929707
 30
0.0
 10
95.96795787531357
 20
-144.5019463071905
 30
0.0
 10
95.96795787531357
 20
-144.5019463071905
 30
0.0
 10
95.93419593955813
 20
-144.440623607553
 30
0.0
 10
95.8938883223807
 20
-144.3581135706813
 30
0.0
 10
95.8938883223807
 20
-144.2397745407629
 30
0.0
 10
95.8938883223807
 20
-143.9858710035001
 30
0.0
 10
96.08026798813272
 20
-143.7488484341149
 30
0.0
 10
96.39342716774192
 20
-143.7488484341149
 30
0.0
 10
96.71072046193344
 20
-143.7488484341149
 30
0.0
 10
96.94533146447895
 20
-143.9731241502046
 30
0.0
 10
96.94533146447895
 20
-144.2756035338095
 30
0.0
  0
HATCH
  5
AB
330
9E
100
AcDbEntity
  8
レイヤー 1
 62
   250
420
  2299925
440
 33554687
100
AcDbHatch
 10
0.0
 20
0.0
 30
0.0
210
0.0
220
0.0
230
1.0
  2
SOLID
 70
     1
 71
     1
 91
        1
 92
        1
 93
        1
 72
     4
 94
        3
 73
     0
 74
     0
 95
       53
 96
       49
 40
0.0
 40
0.0
 40
0.0
 40
0.0
 40
1.0
 40
1.0
 40
1.0
 40
2.0
 40
2.0
 40
2.0
 40
3.0
 40
3.0
 40
3.0
 40
4.0
 40
4.0
 40
4.0
 40
5.0
 40
5.0
 40
5.0
 40
6.0
 40
6.0
 40
6.0
 40
7.0
 40
7.0
 40
7.0
 40
8.0
 40
8.0
 40
8.0
 40
9.0
 40
9.0
 40
9.0
 40
10.0
 40
10.0
 40
10.0
 40
11.0
 40
11.0
 40
11.0
 40
12.0
 40
12.0
 40
12.0
 40
13.0
 40
13.0
 40
13.0
 40
14.0
 40
14.0
 40
14.0
 40
15.0
 40
15.0
 40
15.0
 40
16.0
 40
16.0
 40
16.0
 40
16.0
 10
96.94533146447895
 20
-144.2756035338095
 10
96.94533146447895
 20
-144.353979456099
 10
96.92845049660123
 20
-144.4554375181396
 10
96.86506073967263
 20
-144.5570678349545
 10
96.75516219369315
 20
-144.7305283926368
 10
96.62390405570514
 20
-144.7517157298711
 10
96.51607256701682
 20
-144.77066375504
 10
96.51607256701682
 20
-144.77066375504
 10
96.51607256701682
 20
-144.5486273510156
 10
96.51607256701682
 20
-144.5486273510156
 10
96.71485457651574
 20
-144.4935058232516
 10
96.74448239768889
 20
-144.3665540546201
 10
96.74448239768889
 20
-144.2735364765184
 10
96.74448239768889
 20
-144.1340101093658
 10
96.64491913816517
 20
-143.9815646341435
 10
96.41237519291081
 20
-143.9815646341435
 10
96.15640459835674
 20
-143.9815646341435
 10
96.08646916000616
 20
-144.1613986184735
 10
96.08646916000616
 20
-144.2819769604573
 10
96.08646916000616
 20
-144.3136718389216
 10
96.08646916000616
 20
-144.4554375181396
 10
96.21566024070304
 20
-144.544320981659
 10
96.21566024070304
 20
-144.544320981659
 10
96.19671221553417
 20
-144.7198485966325
 10
96.19671221553417
 20
-144.7198485966325
 10
96.19671221553417
 20
-144.7198485966325
 10
95.35025225480827
 20
-144.5992702546488
 10
95.35025225480827
 20
-144.5992702546488
 10
95.35025225480827
 20
-144.5992702546488
 10
95.35025225480827
 20
-143.8208509297566
 10
95.35025225480827
 20
-143.8208509297566
 10
95.35025225480827
 20
-143.8208509297566
 10
95.5449001497249
 20
-143.8208509297566
 10
95.5449001497249
 20
-143.8208509297566
 10
95.5449001497249
 20
-143.8208509297566
 10
95.5449001497249
 20
-144.4364894929707
 10
95.5449001497249
 20
-144.4364894929707
 10
95.5449001497249
 20
-144.4364894929707
 10
95.96795787531357
 20
-144.5019463071905
 10
95.96795787531357
 20
-144.5019463071905
 10
95.93419593955813
 20
-144.440623607553
 10
95.8938883223807
 20
-144.3581135706813
 10
95.8938883223807
 20
-144.2397745407629
 10
95.8938883223807
 20
-143.9858710035001
 10
96.08026798813272
 20
-143.7488484341149
 10
96.39342716774192
 20
-143.7488484341149
 10
96.71072046193344
 20
-143.7488484341149
 10
96.94533146447895
 20
-143.9731241502046
 10
96.94533146447895
 20
-144.2756035338095
 97
        0
 97
        1
330
AA
 75
     2
 76
     1
 98
        1
 10
0.0
 20
0.0
450
        0
451
        0
460
0.0
461
0.0
452
        0
462
0.0
453
        0
470

  0
ENDBLK
  5
A1
330
9E
100
AcDbEntity
  8
0
100
AcDbBlockEnd
  0
BLOCK
  5
B3
330
B1
100
AcDbEntity
  8
0
100
AcDbBlockBegin
  2
Block_4
 70
     0
 10
0.0
 20
0.0
 30
0.0
  3
Block_4
  1

  0
INSERT
  5
B6
330
B1
100
AcDbEntity
  8
レイヤー 1
100
AcDbBlockReference
  2
Block_5
 10
0.0
 20
0.0
 30
0.0
  0
ENDBLK
  5
B4
330
B1
100
AcDbEntity
  8
0
100
AcDbBlockEnd
  0
BLOCK
  5
B7
330
B5
100
AcDbEntity
  8
0
100
AcDbBlockBegin
  2
Block_5
 70
     0
 10
0.0
 20
0.0
 30
0.0
  3
Block_5
  1

  0
SPLINE
  5
B9
330
B5
100
AcDbEntity
  8
レイヤー 1
100
AcDbSpline
210
0.0
220
0.0
230
1.0
 70
     9
 71
     3
 72
    62
 73
    58
 74
     0
 42
0.0000000001
 43
0.0000000001
 40
0.0
 40
0.0
 40
0.0
 40
0.0
 40
1.0
 40
1.0
 40
1.0
 40
2.0
 40
2.0
 40
2.0
 40
3.0
 40
3.0
 40
3.0
 40
4.0
 40
4.0
 40
4.0
 40
5.0
 40
5.0
 40
5.0
 40
6.0
 40
6.0
 40
6.0
 40
7.0
 40
7.0
 40
7.0
 40
8.0
 40
8.0
 40
8.0
 40
9.0
 40
9.0
 40
9.0
 40
10.0
 40
10.0
 40
10.0
 40
11.0
 40
11.0
 40
11.0
 40
12.0
 40
12.0
 40
12.0
 40
13.0
 40
13.0
 40
13.0
 40
14.0
 40
14.0
 40
14.0
 40
15.0
 40
15.0
 40
15.0
 40
16.0
 40
16.0
 40
16.0
 40
17.0
 40
17.0
 40
17.0
 40
18.0
 40
18.0
 40
18.0
 40
19.0
 40
19.0
 40
19.0
 40
19.0
 10
93.95429956418503
 20
-151.1797471410245
 30
0.0
 10
93.95429956418503
 20
-151.2751762859659
 30
0.0
 10
93.93328448172502
 20
-151.4929063206337
 30
0.0
 10
93.74724932552153
 20
-151.6176187771997
 30
0.0
 10
93.63493921270238
 20
-151.6916883301326
 30
0.0
 10
93.53572046272718
 20
-151.6961669542635
 30
0.0
 10
93.45097111379002
 20
-151.7003010688457
 30
0.0
 10
93.45097111379002
 20
-151.7003010688457
 30
0.0
 10
93.45097111379002
 20
-151.4801594673383
 30
0.0
 10
93.45097111379002
 20
-151.4801594673383
 30
0.0
 10
93.52504066672292
 20
-151.4780924100471
 30
0.0
 10
93.75965166926842
 20
-151.4674126140429
 30
0.0
 10
93.75965166926842
 20
-151.1842257651553
 30
0.0
 10
93.75965166926842
 20
-151.0464219457453
 30
0.0
 10
93.69006074046637
 20
-150.8941487252973
 30
0.0
 10
93.46165090979431
 20
-150.8941487252973
 30
0.0
 10
93.34520668239287
 20
-150.8941487252973
 30
0.0
 10
93.29663083605085
 20
-150.9323892851836
 30
0.0
 10
93.26493595758654
 20
-150.9640841636479
 30
0.0
 10
93.19086640465368
 20
-151.0381537165807
 30
0.0
 10
93.17811955135825
 20
-151.1545979439822
 30
0.0
 10
93.17811955135825
 20
-151.2093749621977
 30
0.0
 10
93.17811955135825
 20
-151.2283229873665
 30
0.0
 10
93.18018660864941
 20
-151.2644964899616
 30
0.0
 10
93.18432072323171
 20
-151.2920572538436
 30
0.0
 10
93.18432072323171
 20
-151.2920572538436
 30
0.0
 10
92.98967282831508
 20
-151.2920572538436
 30
0.0
 10
92.98967282831508
 20
-151.2920572538436
 30
0.0
 10
92.99621850973705
 20
-151.2538166939574
 30
0.0
 10
92.9982855670282
 20
-151.2114420194888
 30
0.0
 10
92.9982855670282
 20
-151.2052408476153
 30
0.0
 10
92.9982855670282
 20
-151.1397840333956
 30
0.0
 10
92.97692597501967
 20
-150.9406575143481
 30
0.0
 10
92.74024791518298
 20
-150.9406575143481
 30
0.0
 10
92.5624809881441
 20
-150.9406575143481
 30
0.0
 10
92.50735946038011
 20
-151.0719156523362
 30
0.0
 10
92.50735946038011
 20
-151.1818141983156
 30
0.0
 10
92.50735946038011
 20
-151.4463975315828
 30
0.0
 10
92.74024791518298
 20
-151.455010270296
 30
0.0
 10
92.8119059012762
 20
-151.4591443848783
 30
0.0
 10
92.8119059012762
 20
-151.4591443848783
 30
0.0
 10
92.8119059012762
 20
-151.6620605089595
 30
0.0
 10
92.8119059012762
 20
-151.6620605089595
 30
0.0
 10
92.68719344471014
 20
-151.6537922797949
 30
0.0
 10
92.31064450817234
 20
-151.6262315159129
 30
0.0
 10
92.31064450817234
 20
-151.1694118545688
 30
0.0
 10
92.31064450817234
 20
-150.945136138479
 30
0.0
 10
92.43776853157806
 20
-150.7039794545115
 30
0.0
 10
92.73370223376103
 20
-150.7039794545115
 30
0.0
 10
92.92008189951303
 20
-150.7039794545115
 30
0.0
 10
93.00241968161051
 20
-150.7990640899044
 30
0.0
 10
93.06374238124796
 20
-150.8986273494281
 30
0.0
 10
93.09130314512996
 20
-150.8369601402421
 30
0.0
 10
93.17157386993628
 20
-150.655059098621
 30
0.0
 10
93.4489040564989
 20
-150.655059098621
 30
0.0
 10
93.78721243315043
 20
-150.655059098621
 30
0.0
 10
93.95429956418503
 20
-150.9027614640104
 30
0.0
 10
93.95429956418503
 20
-151.1797471410245
 30
0.0
  0
HATCH
  5
BA
330
B5
100
AcDbEntity
  8
レイヤー 1
 62
   250
420
  2299925
440
 33554687
100
AcDbHatch
 10
0.0
 20
0.0
 30
0.0
210
0.0
220
0.0
230
1.0
  2
SOLID
 70
     1
 71
     1
 91
        1
 92
        1
 93
        1
 72
     4
 94
        3
 73
     0
 74
     0
 95
       62
 96
       58
 40
0.0
 40
0.0
 40
0.0
 40
0.0
 40
1.0
 40
1.0
 40
1.0
 40
2.0
 40
2.0
 40
2.0
 40
3.0
 40
3.0
 40
3.0
 40
4.0
 40
4.0
 40
4.0
 40
5.0
 40
5.0
 40
5.0
 40
6.0
 40
6.0
 40
6.0
 40
7.0
 40
7.0
 40
7.0
 40
8.0
 40
8.0
 40
8.0
 40
9.0
 40
9.0
 40
9.0
 40
10.0
 40
10.0
 40
10.0
 40
11.0
 40
11.0
 40
11.0
 40
12.0
 40
12.0
 40
12.0
 40
13.0
 40
13.0
 40
13.0
 40
14.0
 40
14.0
 40
14.0
 40
15.0
 40
15.0
 40
15.0
 40
16.0
 40
16.0
 40
16.0
 40
17.0
 40
17.0
 40
17.0
 40
18.0
 40
18.0
 40
18.0
 40
19.0
 40
19.0
 40
19.0
 40
19.0
 10
93.95429956418503
 20
-151.1797471410245
 10
93.95429956418503
 20
-151.2751762859659
 10
93.93328448172502
 20
-151.4929063206337
 10
93.74724932552153
 20
-151.6176187771997
 10
93.63493921270238
 20
-151.6916883301326
 10
93.53572046272718
 20
-151.6961669542635
 10
93.45097111379002
 20
-151.7003010688457
 10
93.45097111379002
 20
-151.7003010688457
 10
93.45097111379002
 20
-151.4801594673383
 10
93.45097111379002
 20
-151.4801594673383
 10
93.52504066672292
 20
-151.4780924100471
 10
93.75965166926842
 20
-151.4674126140429
 10
93.75965166926842
 20
-151.1842257651553
 10
93.75965166926842
 20
-151.0464219457453
 10
93.69006074046637
 20
-150.8941487252973
 10
93.46165090979431
 20
-150.8941487252973
 10
93.34520668239287
 20
-150.8941487252973
 10
93.29663083605085
 20
-150.9323892851836
 10
93.26493595758654
 20
-150.9640841636479
 10
93.19086640465368
 20
-151.0381537165807
 10
93.17811955135825
 20
-151.1545979439822
 10
93.17811955135825
 20
-151.2093749621977
 10
93.17811955135825
 20
-151.2283229873665
 10
93.18018660864941
 20
-151.2644964899616
 10
93.18432072323171
 20
-151.2920572538436
 10
93.18432072323171
 20
-151.2920572538436
 10
92.98967282831508
 20
-151.2920572538436
 10
92.98967282831508
 20
-151.2920572538436
 10
92.99621850973705
 20
-151.2538166939574
 10
92.9982855670282
 20
-151.2114420194888
 10
92.9982855670282
 20
-151.2052408476153
 10
92.9982855670282
 20
-151.1397840333956
 10
92.97692597501967
 20
-150.9406575143481
 10
92.74024791518298
 20
-150.9406575143481
 10
92.5624809881441
 20
-150.9406575143481
 10
92.50735946038011
 20
-151.0719156523362
 10
92.50735946038011
 20
-151.1818141983156
 10
92.50735946038011
 20
-151.4463975315828
 10
92.74024791518298
 20
-151.455010270296
 10
92.8119059012762
 20
-151.4591443848783
 10
92.8119059012762
 20
-151.4591443848783
 10
92.8119059012762
 20
-151.6620605089595
 10
92.8119059012762
 20
-151.6620605089595
 10
92.68719344471014
 20
-151.6537922797949
 10
92.31064450817234
 20
-151.6262315159129
 10
92.31064450817234
 20
-151.1694118545688
 10
92.31064450817234
 20
-150.945136138479
 10
92.43776853157806
 20
-150.7039794545115
 10
92.73370223376103
 20
-150.7039794545115
 10
92.92008189951303
 20
-150.7039794545115
 10
93.00241968161051
 20
-150.7990640899044
 10
93.06374238124796
 20
-150.8986273494281
 10
93.09130314512996
 20
-150.8369601402421
 10
93.17157386993628
 20
-150.655059098621
 10
93.4489040564989
 20
-150.655059098621
 10
93.78721243315043
 20
-150.655059098621
 10
93.95429956418503
 20
-150.9027614640104
 10
93.95429956418503
 20
-151.1797471410245
 97
        0
 97
        1
330
B9
 75
     2
 76
     1
 98
        1
 10
0.0
 20
0.0
450
        0
451
        0
460
0.0
461
0.0
452
        0
462
0.0
453
        0
470

  0
SPLINE
  5
BB
330
B5
100
AcDbEntity
  8
レイヤー 1
100
AcDbSpline
210
0.0
220
0.0
230
1.0
 70
     9
 71
     3
 72
    17
 73
    13
 74
     0
 42
0.0000000001
 43
0.0000000001
 40
0.0
 40
0.0
 40
0.0
 40
0.0
 40
1.0
 40
1.0
 40
1.0
 40
2.0
 40
2.0
 40
2.0
 40
3.0
 40
3.0
 40
3.0
 40
4.0
 40
4.0
 40
4.0
 40
4.0
 10
93.16330564077167
 20
-149.9946342940986
 30
0.0
 10
93.16330564077167
 20
-150.1382947758335
 30
0.0
 10
93.25012204699998
 20
-150.2905679962815
 30
0.0
 10
93.45303817108119
 20
-150.2905679962815
 30
0.0
 10
93.65836586200208
 20
-150.2905679962815
 30
0.0
 10
93.75965166926842
 20
-150.1637884824243
 30
0.0
 10
93.75965166926842
 20
-149.9946342940986
 30
0.0
 10
93.75965166926842
 20
-149.8082546283465
 30
0.0
 10
93.63700626999353
 20
-149.6983560823671
 30
0.0
 10
93.45923934295463
 20
-149.6983560823671
 30
0.0
 10
93.23737519370455
 20
-149.6983560823671
 30
0.0
 10
93.16330564077167
 20
-149.8613090988194
 30
0.0
 10
93.16330564077167
 20
-149.9946342940986
 30
0.0
  0
SPLINE
  5
BC
330
B5
100
AcDbEntity
  8
レイヤー 1
100
AcDbSpline
210
0.0
220
0.0
230
1.0
 70
     9
 71
     3
 72
    17
 73
    13
 74
     0
 42
0.0000000001
 43
0.0000000001
 40
0.0
 40
0.0
 40
0.0
 40
0.0
 40
1.0
 40
1.0
 40
1.0
 40
2.0
 40
2.0
 40
2.0
 40
3.0
 40
3.0
 40
3.0
 40
4.0
 40
4.0
 40
4.0
 40
4.0
 10
92.50322534579781
 20
-149.9946342940986
 30
0.0
 10
92.50322534579781
 20
-150.159654367842
 30
0.0
 10
92.5983099811907
 20
-150.2440592072306
 30
0.0
 10
92.73370223376103
 20
-150.2440592072306
 30
0.0
 10
92.85634763303592
 20
-150.2440592072306
 30
0.0
 10
92.97485891772851
 20
-150.1720567115889
 30
0.0
 10
92.97485891772851
 20
-149.9946342940986
 30
0.0
 10
92.97485891772851
 20
-149.8168673670597
 30
0.0
 10
92.85634763303592
 20
-149.7448648714179
 30
0.0
 10
92.73370223376103
 20
-149.7448648714179
 30
0.0
 10
92.5983099811907
 20
-149.7448648714179
 30
0.0
 10
92.50322534579781
 20
-149.8316812776462
 30
0.0
 10
92.50322534579781
 20
-149.9946342940986
 30
0.0
  0
SPLINE
  5
BD
330
B5
100
AcDbEntity
  8
レイヤー 1
100
AcDbSpline
210
0.0
220
0.0
230
1.0
 70
     9
 71
     3
 72
    29
 73
    25
 74
     0
 42
0.0000000001
 43
0.0000000001
 40
0.0
 40
0.0
 40
0.0
 40
0.0
 40
1.0
 40
1.0
 40
1.0
 40
2.0
 40
2.0
 40
2.0
 40
3.0
 40
3.0
 40
3.0
 40
4.0
 40
4.0
 40
4.0
 40
5.0
 40
5.0
 40
5.0
 40
6.0
 40
6.0
 40
6.0
 40
7.0
 40
7.0
 40
7.0
 40
8.0
 40
8.0
 40
8.0
 40
8.0
 10
93.95429956418503
 20
-149.9946342940986
 30
0.0
 10
93.95429956418503
 20
-150.2609401751084
 30
0.0
 10
93.81684025432356
 20
-150.5148437123713
 30
0.0
 10
93.46785208166776
 20
-150.5148437123713
 30
0.0
 10
93.21188148711369
 20
-150.5148437123713
 30
0.0
 10
93.1167968517208
 20
-150.3732502879275
 30
0.0
 10
93.05547415208335
 20
-150.2674858565303
 30
0.0
 10
92.99621850973705
 20
-150.3921983130964
 30
0.0
 10
92.88184133962676
 20
-150.4683349233204
 30
0.0
 10
92.7209553804656
 20
-150.4683349233204
 30
0.0
 10
92.44603676074266
 20
-150.4683349233204
 30
0.0
 10
92.31064450817234
 20
-150.2695529138215
 30
0.0
 10
92.31064450817234
 20
-149.9946342940986
 30
0.0
 10
92.31064450817234
 20
-149.7111029356625
 30
0.0
 10
92.45464949945578
 20
-149.5205891553282
 30
0.0
 10
92.7209553804656
 20
-149.5205891553282
 30
0.0
 10
92.88184133962676
 20
-149.5205891553282
 30
0.0
 10
92.99621850973705
 20
-149.5987928228433
 30
0.0
 10
93.05547415208335
 20
-149.7238497889579
 30
0.0
 10
93.10611705571652
 20
-149.6349663254385
 30
0.0
 10
93.20120169110943
 20
-149.4761474235684
 30
0.0
 10
93.46371796708545
 20
-149.4761474235684
 30
0.0
 10
93.83819984633211
 20
-149.4761474235684
 30
0.0
 10
93.95429956418503
 20
-149.7555446674222
 30
0.0
 10
93.95429956418503
 20
-149.9946342940986
 30
0.0
  0
HATCH
  5
BE
330
B5
100
AcDbEntity
  8
レイヤー 1
 62
   250
420
  2299925
440
 33554687
100
AcDbHatch
 10
0.0
 20
0.0
 30
0.0
210
0.0
220
0.0
230
1.0
  2
SOLID
 70
     1
 71
     1
 91
        3
 92
        1
 93
        1
 72
     4
 94
        3
 73
     0
 74
     0
 95
       17
 96
       13
 40
0.0
 40
0.0
 40
0.0
 40
0.0
 40
1.0
 40
1.0
 40
1.0
 40
2.0
 40
2.0
 40
2.0
 40
3.0
 40
3.0
 40
3.0
 40
4.0
 40
4.0
 40
4.0
 40
4.0
 10
93.16330564077167
 20
-149.9946342940986
 10
93.16330564077167
 20
-150.1382947758335
 10
93.25012204699998
 20
-150.2905679962815
 10
93.45303817108119
 20
-150.2905679962815
 10
93.65836586200208
 20
-150.2905679962815
 10
93.75965166926842
 20
-150.1637884824243
 10
93.75965166926842
 20
-149.9946342940986
 10
93.75965166926842
 20
-149.8082546283465
 10
93.63700626999353
 20
-149.6983560823671
 10
93.45923934295463
 20
-149.6983560823671
 10
93.23737519370455
 20
-149.6983560823671
 10
93.16330564077167
 20
-149.8613090988194
 10
93.16330564077167
 20
-149.9946342940986
 97
        0
 97
        1
330
BB
 92
        1
 93
        1
 72
     4
 94
        3
 73
     0
 74
     0
 95
       17
 96
       13
 40
0.0
 40
0.0
 40
0.0
 40
0.0
 40
1.0
 40
1.0
 40
1.0
 40
2.0
 40
2.0
 40
2.0
 40
3.0
 40
3.0
 40
3.0
 40
4.0
 40
4.0
 40
4.0
 40
4.0
 10
92.50322534579781
 20
-149.9946342940986
 10
92.50322534579781
 20
-150.159654367842
 10
92.5983099811907
 20
-150.2440592072306
 10
92.73370223376103
 20
-150.2440592072306
 10
92.85634763303592
 20
-150.2440592072306
 10
92.97485891772851
 20
-150.1720567115889
 10
92.97485891772851
 20
-149.9946342940986
 10
92.97485891772851
 20
-149.8168673670597
 10
92.85634763303592
 20
-149.7448648714179
 10
92.73370223376103
 20
-149.7448648714179
 10
92.5983099811907
 20
-149.7448648714179
 10
92.50322534579781
 20
-149.8316812776462
 10
92.50322534579781
 20
-149.9946342940986
 97
        0
 97
        1
330
BC
 92
        1
 93
        1
 72
     4
 94
        3
 73
     0
 74
     0
 95
       29
 96
       25
 40
0.0
 40
0.0
 40
0.0
 40
0.0
 40
1.0
 40
1.0
 40
1.0
 40
2.0
 40
2.0
 40
2.0
 40
3.0
 40
3.0
 40
3.0
 40
4.0
 40
4.0
 40
4.0
 40
5.0
 40
5.0
 40
5.0
 40
6.0
 40
6.0
 40
6.0
 40
7.0
 40
7.0
 40
7.0
 40
8.0
 40
8.0
 40
8.0
 40
8.0
 10
93.95429956418503
 20
-149.9946342940986
 10
93.95429956418503
 20
-150.2609401751084
 10
93.81684025432356
 20
-150.5148437123713
 10
93.46785208166776
 20
-150.5148437123713
 10
93.21188148711369
 20
-150.5148437123713
 10
93.1167968517208
 20
-150.3732502879275
 10
93.05547415208335
 20
-150.2674858565303
 10
92.99621850973705
 20
-150.3921983130964
 10
92.88184133962676
 20
-150.4683349233204
 10
92.7209553804656
 20
-150.4683349233204
 10
92.44603676074266
 20
-150.4683349233204
 10
92.31064450817234
 20
-150.2695529138215
 10
92.31064450817234
 20
-149.9946342940986
 10
92.31064450817234
 20
-149.7111029356625
 10
92.45464949945578
 20
-149.5205891553282
 10
92.7209553804656
 20
-149.5205891553282
 10
92.88184133962676
 20
-149.5205891553282
 10
92.99621850973705
 20
-149.5987928228433
 10
93.05547415208335
 20
-149.7238497889579
 10
93.10611705571652
 20
-149.6349663254385
 10
93.20120169110943
 20
-149.4761474235684
 10
93.46371796708545
 20
-149.4761474235684
 10
93.83819984633211
 20
-149.4761474235684
 10
93.95429956418503
 20
-149.7555446674222
 10
93.95429956418503
 20
-149.9946342940986
 97
        0
 97
        1
330
BD
 75
     2
 76
     1
 98
        1
 10
0.0
 20
0.0
450
        0
451
        0
460
0.0
461
0.0
452
        0
462
0.0
453
        0
470

  0
SPLINE
  5
BF
330
B5
100
AcDbEntity
  8
レイヤー 1
100
AcDbSpline
210
0.0
220
0.0
230
1.0
 70
    11
 71
     3
 72
    17
 73
    13
 74
     0
 42
0.0000000001
 43
0.0000000001
 40
0.0
 40
0.0
 40
0.0
 40
0.0
 40
1.0
 40
1.0
 40
1.0
 40
2.0
 40
2.0
 40
2.0
 40
3.0
 40
3.0
 40
3.0
 40
4.0
 40
4.0
 40
4.0
 40
4.0
 10
93.90365666055187
 20
-149.2577283698036
 30
0.0
 10
93.90365666055187
 20
-149.2577283698036
 30
0.0
 10
93.6518201805801
 20
-149.2577283698036
 30
0.0
 10
93.6518201805801
 20
-149.2577283698036
 30
0.0
 10
93.6518201805801
 20
-149.2577283698036
 30
0.0
 10
93.6518201805801
 20
-149.0058918898318
 30
0.0
 10
93.6518201805801
 20
-149.0058918898318
 30
0.0
 10
93.6518201805801
 20
-149.0058918898318
 30
0.0
 10
93.90365666055187
 20
-149.0058918898318
 30
0.0
 10
93.90365666055187
 20
-149.0058918898318
 30
0.0
 10
93.90365666055187
 20
-149.0058918898318
 30
0.0
 10
93.90365666055187
 20
-149.2577283698036
 30
0.0
 10
93.90365666055187
 20
-149.2577283698036
 30
0.0
  0
HATCH
  5
C0
330
B5
100
AcDbEntity
  8
レイヤー 1
 62
   250
420
  2299925
440
 33554687
100
AcDbHatch
 10
0.0
 20
0.0
 30
0.0
210
0.0
220
0.0
230
1.0
  2
SOLID
 70
     1
 71
     1
 91
        1
 92
        1
 93
        1
 72
     4
 94
        3
 73
     0
 74
     0
 95
       17
 96
       13
 40
0.0
 40
0.0
 40
0.0
 40
0.0
 40
1.0
 40
1.0
 40
1.0
 40
2.0
 40
2.0
 40
2.0
 40
3.0
 40
3.0
 40
3.0
 40
4.0
 40
4.0
 40
4.0
 40
4.0
 10
93.90365666055187
 20
-149.2577283698036
 10
93.90365666055187
 20
-149.2577283698036
 10
93.6518201805801
 20
-149.2577283698036
 10
93.6518201805801
 20
-149.2577283698036
 10
93.6518201805801
 20
-149.2577283698036
 10
93.6518201805801
 20
-149.0058918898318
 10
93.6518201805801
 20
-149.0058918898318
 10
93.6518201805801
 20
-149.0058918898318
 10
93.90365666055187
 20
-149.0058918898318
 10
93.90365666055187
 20
-149.0058918898318
 10
93.90365666055187
 20
-149.0058918898318
 10
93.90365666055187
 20
-149.2577283698036
 10
93.90365666055187
 20
-149.2577283698036
 97
        0
 97
        1
330
BF
 75
     2
 76
     1
 98
        1
 10
0.0
 20
0.0
450
        0
451
        0
460
0.0
461
0.0
452
        0
462
0.0
453
        0
470

  0
SPLINE
  5
C1
330
B5
100
AcDbEntity
  8
レイヤー 1
100
AcDbSpline
210
0.0
220
0.0
230
1.0
 70
     9
 71
     3
 72
    53
 73
    49
 74
     0
 42
0.0000000001
 43
0.0000000001
 40
0.0
 40
0.0
 40
0.0
 40
0.0
 40
1.0
 40
1.0
 40
1.0
 40
2.0
 40
2.0
 40
2.0
 40
3.0
 40
3.0
 40
3.0
 40
4.0
 40
4.0
 40
4.0
 40
5.0
 40
5.0
 40
5.0
 40
6.0
 40
6.0
 40
6.0
 40
7.0
 40
7.0
 40
7.0
 40
8.0
 40
8.0
 40
8.0
 40
9.0
 40
9.0
 40
9.0
 40
10.0
 40
10.0
 40
10.0
 40
11.0
 40
11.0
 40
11.0
 40
12.0
 40
12.0
 40
12.0
 40
13.0
 40
13.0
 40
13.0
 40
14.0
 40
14.0
 40
14.0
 40
15.0
 40
15.0
 40
15.0
 40
16.0
 40
16.0
 40
16.0
 40
16.0
 10
93.95429956418503
 20
-148.2884507550286
 30
0.0
 10
93.95429956418503
 20
-148.366826677318
 30
0.0
 10
93.93741859630731
 20
-148.4682847393586
 30
0.0
 10
93.87402883937872
 20
-148.5699150561735
 30
0.0
 10
93.76413029339925
 20
-148.7433756138558
 30
0.0
 10
93.63287215541124
 20
-148.7645629510901
 30
0.0
 10
93.52504066672292
 20
-148.783510976259
 30
0.0
 10
93.52504066672292
 20
-148.783510976259
 30
0.0
 10
93.52504066672292
 20
-148.5614745722346
 30
0.0
 10
93.52504066672292
 20
-148.5614745722346
 30
0.0
 10
93.72382267622183
 20
-148.5063530444706
 30
0.0
 10
93.75345049739499
 20
-148.3794012758392
 30
0.0
 10
93.75345049739499
 20
-148.2863836977374
 30
0.0
 10
93.75345049739499
 20
-148.1468573305848
 30
0.0
 10
93.65388723787125
 20
-147.9944118553625
 30
0.0
 10
93.42134329261689
 20
-147.9944118553625
 30
0.0
 10
93.16537269806282
 20
-147.9944118553625
 30
0.0
 10
93.09543725971225
 20
-148.1742458396925
 30
0.0
 10
93.09543725971225
 20
-148.2948241816763
 30
0.0
 10
93.09543725971225
 20
-148.3265190601406
 30
0.0
 10
93.09543725971225
 20
-148.4682847393586
 30
0.0
 10
93.22462834040912
 20
-148.5571682028781
 30
0.0
 10
93.22462834040912
 20
-148.5571682028781
 30
0.0
 10
93.20568031524024
 20
-148.7326958178515
 30
0.0
 10
93.20568031524024
 20
-148.7326958178515
 30
0.0
 10
93.20568031524024
 20
-148.7326958178515
 30
0.0
 10
92.35922035451435
 20
-148.6121174758678
 30
0.0
 10
92.35922035451435
 20
-148.6121174758678
 30
0.0
 10
92.35922035451435
 20
-148.6121174758678
 30
0.0
 10
92.35922035451435
 20
-147.8336981509756
 30
0.0
 10
92.35922035451435
 20
-147.8336981509756
 30
0.0
 10
92.35922035451435
 20
-147.8336981509756
 30
0.0
 10
92.55386824943098
 20
-147.8336981509756
 30
0.0
 10
92.55386824943098
 20
-147.8336981509756
 30
0.0
 10
92.55386824943098
 20
-147.8336981509756
 30
0.0
 10
92.55386824943098
 20
-148.4493367141897
 30
0.0
 10
92.55386824943098
 20
-148.4493367141897
 30
0.0
 10
92.55386824943098
 20
-148.4493367141897
 30
0.0
 10
92.97692597501967
 20
-148.5147935284095
 30
0.0
 10
92.97692597501967
 20
-148.5147935284095
 30
0.0
 10
92.94316403926421
 20
-148.453470828772
 30
0.0
 10
92.90285642208678
 20
-148.3709607919003
 30
0.0
 10
92.90285642208678
 20
-148.252621761982
 30
0.0
 10
92.90285642208678
 20
-147.9987182247191
 30
0.0
 10
93.08923608783882
 20
-147.7616956553339
 30
0.0
 10
93.40239526744801
 20
-147.7616956553339
 30
0.0
 10
93.71968856163952
 20
-147.7616956553339
 30
0.0
 10
93.95429956418503
 20
-147.9859713714236
 30
0.0
 10
93.95429956418503
 20
-148.2884507550286
 30
0.0
  0
HATCH
  5
C2
330
B5
100
AcDbEntity
  8
レイヤー 1
 62
   250
420
  2299925
440
 33554687
100
AcDbHatch
 10
0.0
 20
0.0
 30
0.0
210
0.0
220
0.0
230
1.0
  2
SOLID
 70
     1
 71
     1
 91
        1
 92
        1
 93
        1
 72
     4
 94
        3
 73
     0
 74
     0
 95
       53
 96
       49
 40
0.0
 40
0.0
 40
0.0
 40
0.0
 40
1.0
 40
1.0
 40
1.0
 40
2.0
 40
2.0
 40
2.0
 40
3.0
 40
3.0
 40
3.0
 40
4.0
 40
4.0
 40
4.0
 40
5.0
 40
5.0
 40
5.0
 40
6.0
 40
6.0
 40
6.0
 40
7.0
 40
7.0
 40
7.0
 40
8.0
 40
8.0
 40
8.0
 40
9.0
 40
9.0
 40
9.0
 40
10.0
 40
10.0
 40
10.0
 40
11.0
 40
11.0
 40
11.0
 40
12.0
 40
12.0
 40
12.0
 40
13.0
 40
13.0
 40
13.0
 40
14.0
 40
14.0
 40
14.0
 40
15.0
 40
15.0
 40
15.0
 40
16.0
 40
16.0
 40
16.0
 40
16.0
 10
93.95429956418503
 20
-148.2884507550286
 10
93.95429956418503
 20
-148.366826677318
 10
93.93741859630731
 20
-148.4682847393586
 10
93.87402883937872
 20
-148.5699150561735
 10
93.76413029339925
 20
-148.7433756138558
 10
93.63287215541124
 20
-148.7645629510901
 10
93.52504066672292
 20
-148.783510976259
 10
93.52504066672292
 20
-148.783510976259
 10
93.52504066672292
 20
-148.5614745722346
 10
93.52504066672292
 20
-148.5614745722346
 10
93.72382267622183
 20
-148.5063530444706
 10
93.75345049739499
 20
-148.3794012758392
 10
93.75345049739499
 20
-148.2863836977374
 10
93.75345049739499
 20
-148.1468573305848
 10
93.65388723787125
 20
-147.9944118553625
 10
93.42134329261689
 20
-147.9944118553625
 10
93.16537269806282
 20
-147.9944118553625
 10
93.09543725971225
 20
-148.1742458396925
 10
93.09543725971225
 20
-148.2948241816763
 10
93.09543725971225
 20
-148.3265190601406
 10
93.09543725971225
 20
-148.4682847393586
 10
93.22462834040912
 20
-148.5571682028781
 10
93.22462834040912
 20
-148.5571682028781
 10
93.20568031524024
 20
-148.7326958178515
 10
93.20568031524024
 20
-148.7326958178515
 10
93.20568031524024
 20
-148.7326958178515
 10
92.35922035451435
 20
-148.6121174758678
 10
92.35922035451435
 20
-148.6121174758678
 10
92.35922035451435
 20
-148.6121174758678
 10
92.35922035451435
 20
-147.8336981509756
 10
92.35922035451435
 20
-147.8336981509756
 10
92.35922035451435
 20
-147.8336981509756
 10
92.55386824943098
 20
-147.8336981509756
 10
92.55386824943098
 20
-147.8336981509756
 10
92.55386824943098
 20
-147.8336981509756
 10
92.55386824943098
 20
-148.4493367141897
 10
92.55386824943098
 20
-148.4493367141897
 10
92.55386824943098
 20
-148.4493367141897
 10
92.97692597501967
 20
-148.5147935284095
 10
92.97692597501967
 20
-148.5147935284095
 10
92.94316403926421
 20
-148.453470828772
 10
92.90285642208678
 20
-148.3709607919003
 10
92.90285642208678
 20
-148.252621761982
 10
92.90285642208678
 20
-147.9987182247191
 10
93.08923608783882
 20
-147.7616956553339
 10
93.40239526744801
 20
-147.7616956553339
 10
93.71968856163952
 20
-147.7616956553339
 10
93.95429956418503
 20
-147.9859713714236
 10
93.95429956418503
 20
-148.2884507550286
 97
        0
 97
        1
330
C1
 75
     2
 76
     1
 98
        1
 10
0.0
 20
0.0
450
        0
451
        0
460
0.0
461
0.0
452
        0
462
0.0
453
        0
470

  0
ENDBLK
  5
B8
330
B5
100
AcDbEntity
  8
0
100
AcDbBlockEnd
  0
BLOCK
  5
C8
330
C6
100
AcDbEntity
  8
0
100
AcDbBlockBegin
  2
Block_6
 70
     0
 10
0.0
 20
0.0
 30
0.0
  3
Block_6
  1

  0
INSERT
  5
CB
330
C6
100
AcDbEntity
  8
レイヤー 1
100
AcDbBlockReference
  2
Block_7
 10
0.0
 20
0.0
 30
0.0
  0
ENDBLK
  5
C9
330
C6
100
AcDbEntity
  8
0
100
AcDbBlockEnd
  0
BLOCK
  5
CC
330
CA
100
AcDbEntity
  8
0
100
AcDbBlockBegin
  2
Block_7
 70
     0
 10
0.0
 20
0.0
 30
0.0
  3
Block_7
  1

  0
SPLINE
  5
CE
330
CA
100
AcDbEntity
  8
レイヤー 1
100
AcDbSpline
210
0.0
220
0.0
230
1.0
 70
    11
 71
     3
 72
    26
 73
    22
 74
     0
 42
0.0000000001
 43
0.0000000001
 40
0.0
 40
0.0
 40
0.0
 40
0.0
 40
1.0
 40
1.0
 40
1.0
 40
2.0
 40
2.0
 40
2.0
 40
3.0
 40
3.0
 40
3.0
 40
4.0
 40
4.0
 40
4.0
 40
5.0
 40
5.0
 40
5.0
 40
6.0
 40
6.0
 40
6.0
 40
7.0
 40
7.0
 40
7.0
 40
7.0
 10
104.0902872461128
 20
-131.3420260630846
 30
0.0
 10
104.0902872461128
 20
-131.3420260630846
 30
0.0
 10
104.0902872461128
 20
-130.2377007052878
 30
0.0
 10
104.0902872461128
 20
-130.2377007052878
 30
0.0
 10
104.0902872461128
 20
-130.2377007052878
 30
0.0
 10
103.7602470986259
 20
-130.2377007052878
 30
0.0
 10
103.7602470986259
 20
-130.2377007052878
 30
0.0
 10
103.7602470986259
 20
-130.2377007052878
 30
0.0
 10
103.7602470986259
 20
-130.0897338541963
 30
0.0
 10
103.7602470986259
 20
-130.0897338541963
 30
0.0
 10
104.092354303404
 20
-130.0749199436097
 30
0.0
 10
104.1388630924549
 20
-129.9119669271574
 30
0.0
 10
104.168490913628
 20
-129.7977620118214
 30
0.0
 10
104.168490913628
 20
-129.7977620118214
 30
0.0
 10
104.3145629622026
 20
-129.7977620118214
 30
0.0
 10
104.3145629622026
 20
-129.7977620118214
 30
0.0
 10
104.3145629622026
 20
-129.7977620118214
 30
0.0
 10
104.3145629622026
 20
-131.3420260630846
 30
0.0
 10
104.3145629622026
 20
-131.3420260630846
 30
0.0
 10
104.3145629622026
 20
-131.3420260630846
 30
0.0
 10
104.0902872461128
 20
-131.3420260630846
 30
0.0
 10
104.0902872461128
 20
-131.3420260630846
 30
0.0
  0
HATCH
  5
CF
330
CA
100
AcDbEntity
  8
レイヤー 1
 62
   250
420
  2299925
440
 33554687
100
AcDbHatch
 10
0.0
 20
0.0
 30
0.0
210
0.0
220
0.0
230
1.0
  2
SOLID
 70
     1
 71
     1
 91
        1
 92
        1
 93
        1
 72
     4
 94
        3
 73
     0
 74
     0
 95
       26
 96
       22
 40
0.0
 40
0.0
 40
0.0
 40
0.0
 40
1.0
 40
1.0
 40
1.0
 40
2.0
 40
2.0
 40
2.0
 40
3.0
 40
3.0
 40
3.0
 40
4.0
 40
4.0
 40
4.0
 40
5.0
 40
5.0
 40
5.0
 40
6.0
 40
6.0
 40
6.0
 40
7.0
 40
7.0
 40
7.0
 40
7.0
 10
104.0902872461128
 20
-131.3420260630846
 10
104.0902872461128
 20
-131.3420260630846
 10
104.0902872461128
 20
-130.2377007052878
 10
104.0902872461128
 20
-130.2377007052878
 10
104.0902872461128
 20
-130.2377007052878
 10
103.7602470986259
 20
-130.2377007052878
 10
103.7602470986259
 20
-130.2377007052878
 10
103.7602470986259
 20
-130.2377007052878
 10
103.7602470986259
 20
-130.0897338541963
 10
103.7602470986259
 20
-130.0897338541963
 10
104.092354303404
 20
-130.0749199436097
 10
104.1388630924549
 20
-129.9119669271574
 10
104.168490913628
 20
-129.7977620118214
 10
104.168490913628
 20
-129.7977620118214
 10
104.3145629622026
 20
-129.7977620118214
 10
104.3145629622026
 20
-129.7977620118214
 10
104.3145629622026
 20
-129.7977620118214
 10
104.3145629622026
 20
-131.3420260630846
 10
104.3145629622026
 20
-131.3420260630846
 10
104.3145629622026
 20
-131.3420260630846
 10
104.0902872461128
 20
-131.3420260630846
 10
104.0902872461128
 20
-131.3420260630846
 97
        0
 97
        1
330
CE
 75
     2
 76
     1
 98
        1
 10
0.0
 20
0.0
450
        0
451
        0
460
0.0
461
0.0
452
        0
462
0.0
453
        0
470

  0
SPLINE
  5
D0
330
CA
100
AcDbEntity
  8
レイヤー 1
100
AcDbSpline
210
0.0
220
0.0
230
1.0
 70
     9
 71
     3
 72
    62
 73
    58
 74
     0
 42
0.0000000001
 43
0.0000000001
 40
0.0
 40
0.0
 40
0.0
 40
0.0
 40
1.0
 40
1.0
 40
1.0
 40
2.0
 40
2.0
 40
2.0
 40
3.0
 40
3.0
 40
3.0
 40
4.0
 40
4.0
 40
4.0
 40
5.0
 40
5.0
 40
5.0
 40
6.0
 40
6.0
 40
6.0
 40
7.0
 40
7.0
 40
7.0
 40
8.0
 40
8.0
 40
8.0
 40
9.0
 40
9.0
 40
9.0
 40
10.0
 40
10.0
 40
10.0
 40
11.0
 40
11.0
 40
11.0
 40
12.0
 40
12.0
 40
12.0
 40
13.0
 40
13.0
 40
13.0
 40
14.0
 40
14.0
 40
14.0
 40
15.0
 40
15.0
 40
15.0
 40
16.0
 40
16.0
 40
16.0
 40
17.0
 40
17.0
 40
17.0
 40
18.0
 40
18.0
 40
18.0
 40
19.0
 40
19.0
 40
19.0
 40
19.0
 10
105.3074394810516
 20
-131.392841221492
 30
0.0
 10
105.2120103361102
 20
-131.392841221492
 30
0.0
 10
104.9942803014424
 20
-131.3716538842578
 30
0.0
 10
104.8692233353278
 20
-131.18544647328
 30
0.0
 10
104.7954982919435
 20
-131.0733086152351
 30
0.0
 10
104.7910196678126
 20
-130.9739176104857
 30
0.0
 10
104.7868855532303
 20
-130.8893405163228
 30
0.0
 10
104.7868855532303
 20
-130.8893405163228
 30
0.0
 10
105.0070271547378
 20
-130.8893405163228
 30
0.0
 10
105.0070271547378
 20
-130.8893405163228
 30
0.0
 10
105.0090942120289
 20
-130.9634100692556
 30
0.0
 10
105.0194294984847
 20
-131.1981933265754
 30
0.0
 10
105.3029608569208
 20
-131.1981933265754
 30
0.0
 10
105.4404201667822
 20
-131.1981933265754
 30
0.0
 10
105.5932101515531
 20
-131.1284301429991
 30
0.0
 10
105.5932101515531
 20
-130.8998480575528
 30
0.0
 10
105.5932101515531
 20
-130.7835760849256
 30
0.0
 10
105.5549695916668
 20
-130.7348279838093
 30
0.0
 10
105.5232747132025
 20
-130.703133105345
 30
0.0
 10
105.4490329054954
 20
-130.6290635524122
 30
0.0
 10
105.3325886780939
 20
-130.616488953891
 30
0.0
 10
105.2778116598784
 20
-130.616488953891
 30
0.0
 10
105.258519125161
 20
-130.616488953891
 30
0.0
 10
105.2226901321144
 20
-130.6185560111821
 30
0.0
 10
105.1951293682324
 20
-130.6226901257645
 30
0.0
 10
105.1951293682324
 20
-130.6226901257645
 30
0.0
 10
105.1951293682324
 20
-130.4280422308478
 30
0.0
 10
105.1951293682324
 20
-130.4280422308478
 30
0.0
 10
105.2333699281187
 20
-130.4344156574956
 30
0.0
 10
105.2754000930388
 20
-130.436654969561
 30
0.0
 10
105.2819457744607
 20
-130.436654969561
 30
0.0
 10
105.3474025886805
 20
-130.436654969561
 30
0.0
 10
105.5463568529537
 20
-130.4154676323266
 30
0.0
 10
105.5463568529537
 20
-130.1784450629415
 30
0.0
 10
105.5463568529537
 20
-130.0008503906769
 30
0.0
 10
105.4152709697399
 20
-129.9457288629129
 30
0.0
 10
105.3050279142119
 20
-129.9457288629129
 30
0.0
 10
105.0407890904933
 20
-129.9457288629129
 30
0.0
 10
105.0321763517801
 20
-130.1784450629415
 30
0.0
 10
105.0280422371978
 20
-130.2504475585832
 30
0.0
 10
105.0280422371978
 20
-130.2504475585832
 30
0.0
 10
104.8247816035681
 20
-130.2504475585832
 30
0.0
 10
104.8247816035681
 20
-130.2504475585832
 30
0.0
 10
104.8333943422812
 20
-130.1255628472429
 30
0.0
 10
104.8609551061632
 20
-129.7490139107051
 30
0.0
 10
105.3177747675073
 20
-129.7490139107051
 30
0.0
 10
105.5422227383714
 20
-129.7490139107051
 30
0.0
 10
105.7833794223389
 20
-129.8759656793365
 30
0.0
 10
105.7833794223389
 20
-130.1720716362938
 30
0.0
 10
105.7833794223389
 20
-130.3582790472715
 30
0.0
 10
105.688294786946
 20
-130.4407890841433
 30
0.0
 10
105.5887315274222
 20
-130.5021117837807
 30
0.0
 10
105.6500542270597
 20
-130.5296725476627
 30
0.0
 10
105.8319552686809
 20
-130.6101155272433
 30
0.0
 10
105.8319552686809
 20
-130.8872734590316
 30
0.0
 10
105.8319552686809
 20
-131.2257540904574
 30
0.0
 10
105.5845974128399
 20
-131.392841221492
 30
0.0
 10
105.3074394810516
 20
-131.392841221492
 30
0.0
  0
HATCH
  5
D1
330
CA
100
AcDbEntity
  8
レイヤー 1
 62
   250
420
  2299925
440
 33554687
100
AcDbHatch
 10
0.0
 20
0.0
 30
0.0
210
0.0
220
0.0
230
1.0
  2
SOLID
 70
     1
 71
     1
 91
        1
 92
        1
 93
        1
 72
     4
 94
        3
 73
     0
 74
     0
 95
       62
 96
       58
 40
0.0
 40
0.0
 40
0.0
 40
0.0
 40
1.0
 40
1.0
 40
1.0
 40
2.0
 40
2.0
 40
2.0
 40
3.0
 40
3.0
 40
3.0
 40
4.0
 40
4.0
 40
4.0
 40
5.0
 40
5.0
 40
5.0
 40
6.0
 40
6.0
 40
6.0
 40
7.0
 40
7.0
 40
7.0
 40
8.0
 40
8.0
 40
8.0
 40
9.0
 40
9.0
 40
9.0
 40
10.0
 40
10.0
 40
10.0
 40
11.0
 40
11.0
 40
11.0
 40
12.0
 40
12.0
 40
12.0
 40
13.0
 40
13.0
 40
13.0
 40
14.0
 40
14.0
 40
14.0
 40
15.0
 40
15.0
 40
15.0
 40
16.0
 40
16.0
 40
16.0
 40
17.0
 40
17.0
 40
17.0
 40
18.0
 40
18.0
 40
18.0
 40
19.0
 40
19.0
 40
19.0
 40
19.0
 10
105.3074394810516
 20
-131.392841221492
 10
105.2120103361102
 20
-131.392841221492
 10
104.9942803014424
 20
-131.3716538842578
 10
104.8692233353278
 20
-131.18544647328
 10
104.7954982919435
 20
-131.0733086152351
 10
104.7910196678126
 20
-130.9739176104857
 10
104.7868855532303
 20
-130.8893405163228
 10
104.7868855532303
 20
-130.8893405163228
 10
105.0070271547378
 20
-130.8893405163228
 10
105.0070271547378
 20
-130.8893405163228
 10
105.0090942120289
 20
-130.9634100692556
 10
105.0194294984847
 20
-131.1981933265754
 10
105.3029608569208
 20
-131.1981933265754
 10
105.4404201667822
 20
-131.1981933265754
 10
105.5932101515531
 20
-131.1284301429991
 10
105.5932101515531
 20
-130.8998480575528
 10
105.5932101515531
 20
-130.7835760849256
 10
105.5549695916668
 20
-130.7348279838093
 10
105.5232747132025
 20
-130.703133105345
 10
105.4490329054954
 20
-130.6290635524122
 10
105.3325886780939
 20
-130.616488953891
 10
105.2778116598784
 20
-130.616488953891
 10
105.258519125161
 20
-130.616488953891
 10
105.2226901321144
 20
-130.6185560111821
 10
105.1951293682324
 20
-130.6226901257645
 10
105.1951293682324
 20
-130.6226901257645
 10
105.1951293682324
 20
-130.4280422308478
 10
105.1951293682324
 20
-130.4280422308478
 10
105.2333699281187
 20
-130.4344156574956
 10
105.2754000930388
 20
-130.436654969561
 10
105.2819457744607
 20
-130.436654969561
 10
105.3474025886805
 20
-130.436654969561
 10
105.5463568529537
 20
-130.4154676323266
 10
105.5463568529537
 20
-130.1784450629415
 10
105.5463568529537
 20
-130.0008503906769
 10
105.4152709697399
 20
-129.9457288629129
 10
105.3050279142119
 20
-129.9457288629129
 10
105.0407890904933
 20
-129.9457288629129
 10
105.0321763517801
 20
-130.1784450629415
 10
105.0280422371978
 20
-130.2504475585832
 10
105.0280422371978
 20
-130.2504475585832
 10
104.8247816035681
 20
-130.2504475585832
 10
104.8247816035681
 20
-130.2504475585832
 10
104.8333943422812
 20
-130.1255628472429
 10
104.8609551061632
 20
-129.7490139107051
 10
105.3177747675073
 20
-129.7490139107051
 10
105.5422227383714
 20
-129.7490139107051
 10
105.7833794223389
 20
-129.8759656793365
 10
105.7833794223389
 20
-130.1720716362938
 10
105.7833794223389
 20
-130.3582790472715
 10
105.688294786946
 20
-130.4407890841433
 10
105.5887315274222
 20
-130.5021117837807
 10
105.6500542270597
 20
-130.5296725476627
 10
105.8319552686809
 20
-130.6101155272433
 10
105.8319552686809
 20
-130.8872734590316
 10
105.8319552686809
 20
-131.2257540904574
 10
105.5845974128399
 20
-131.392841221492
 10
105.3074394810516
 20
-131.392841221492
 97
        0
 97
        1
330
D0
 75
     2
 76
     1
 98
        1
 10
0.0
 20
0.0
450
        0
451
        0
460
0.0
461
0.0
452
        0
462
0.0
453
        0
470

  0
SPLINE
  5
D2
330
CA
100
AcDbEntity
  8
レイヤー 1
100
AcDbSpline
210
0.0
220
0.0
230
1.0
 70
    11
 71
     3
 72
    17
 73
    13
 74
     0
 42
0.0000000001
 43
0.0000000001
 40
0.0
 40
0.0
 40
0.0
 40
0.0
 40
1.0
 40
1.0
 40
1.0
 40
2.0
 40
2.0
 40
2.0
 40
3.0
 40
3.0
 40
3.0
 40
4.0
 40
4.0
 40
4.0
 40
4.0
 10
106.0527858892854
 20
-131.3420260630846
 30
0.0
 10
106.0527858892854
 20
-131.3420260630846
 30
0.0
 10
106.0527858892854
 20
-131.0903618378871
 30
0.0
 10
106.0527858892854
 20
-131.0903618378871
 30
0.0
 10
106.0527858892854
 20
-131.0903618378871
 30
0.0
 10
106.3046223692572
 20
-131.0903618378871
 30
0.0
 10
106.3046223692572
 20
-131.0903618378871
 30
0.0
 10
106.3046223692572
 20
-131.0903618378871
 30
0.0
 10
106.3046223692572
 20
-131.3420260630846
 30
0.0
 10
106.3046223692572
 20
-131.3420260630846
 30
0.0
 10
106.3046223692572
 20
-131.3420260630846
 30
0.0
 10
106.0527858892854
 20
-131.3420260630846
 30
0.0
 10
106.0527858892854
 20
-131.3420260630846
 30
0.0
  0
HATCH
  5
D3
330
CA
100
AcDbEntity
  8
レイヤー 1
 62
   250
420
  2299925
440
 33554687
100
AcDbHatch
 10
0.0
 20
0.0
 30
0.0
210
0.0
220
0.0
230
1.0
  2
SOLID
 70
     1
 71
     1
 91
        1
 92
        1
 93
        1
 72
     4
 94
        3
 73
     0
 74
     0
 95
       17
 96
       13
 40
0.0
 40
0.0
 40
0.0
 40
0.0
 40
1.0
 40
1.0
 40
1.0
 40
2.0
 40
2.0
 40
2.0
 40
3.0
 40
3.0
 40
3.0
 40
4.0
 40
4.0
 40
4.0
 40
4.0
 10
106.0527858892854
 20
-131.3420260630846
 10
106.0527858892854
 20
-131.3420260630846
 10
106.0527858892854
 20
-131.0903618378871
 10
106.0527858892854
 20
-131.0903618378871
 10
106.0527858892854
 20
-131.0903618378871
 10
106.3046223692572
 20
-131.0903618378871
 10
106.3046223692572
 20
-131.0903618378871
 10
106.3046223692572
 20
-131.0903618378871
 10
106.3046223692572
 20
-131.3420260630846
 10
106.3046223692572
 20
-131.3420260630846
 10
106.3046223692572
 20
-131.3420260630846
 10
106.0527858892854
 20
-131.3420260630846
 10
106.0527858892854
 20
-131.3420260630846
 97
        0
 97
        1
330
D2
 75
     2
 76
     1
 98
        1
 10
0.0
 20
0.0
450
        0
451
        0
460
0.0
461
0.0
452
        0
462
0.0
453
        0
470

  0
SPLINE
  5
D4
330
CA
100
AcDbEntity
  8
レイヤー 1
100
AcDbSpline
210
0.0
220
0.0
230
1.0
 70
     9
 71
     3
 72
    26
 73
    22
 74
     0
 42
0.0000000001
 43
0.0000000001
 40
0.0
 40
0.0
 40
0.0
 40
0.0
 40
1.0
 40
1.0
 40
1.0
 40
2.0
 40
2.0
 40
2.0
 40
3.0
 40
3.0
 40
3.0
 40
4.0
 40
4.0
 40
4.0
 40
5.0
 40
5.0
 40
5.0
 40
6.0
 40
6.0
 40
6.0
 40
7.0
 40
7.0
 40
7.0
 40
7.0
 10
106.9519558109356
 20
-131.3420260630846
 30
0.0
 10
106.9519558109356
 20
-131.3420260630846
 30
0.0
 10
106.7149332415504
 20
-131.3420260630846
 30
0.0
 10
106.7149332415504
 20
-131.3420260630846
 30
0.0
 10
106.7404269481413
 20
-131.033173252832
 30
0.0
 10
106.9330077857667
 20
-130.5148586370761
 30
0.0
 10
107.3391845434777
 20
-130.0092908746157
 30
0.0
 10
107.3391845434777
 20
-130.0092908746157
 30
0.0
 10
106.5013373214649
 20
-130.0092908746157
 30
0.0
 10
106.5013373214649
 20
-130.0092908746157
 30
0.0
 10
106.5013373214649
 20
-130.0092908746157
 30
0.0
 10
106.5013373214649
 20
-129.7977620118214
 30
0.0
 10
106.5013373214649
 20
-129.7977620118214
 30
0.0
 10
106.5013373214649
 20
-129.7977620118214
 30
0.0
 10
107.5762071128629
 20
-129.7977620118214
 30
0.0
 10
107.5762071128629
 20
-129.7977620118214
 30
0.0
 10
107.5762071128629
 20
-129.7977620118214
 30
0.0
 10
107.5762071128629
 20
-130.0092908746157
 30
0.0
 10
107.5762071128629
 20
-130.0092908746157
 30
0.0
 10
107.2523681372494
 20
-130.2990234049252
 30
0.0
 10
106.9857177466911
 20
-130.8914075736139
 30
0.0
 10
106.9519558109356
 20
-131.3420260630846
 30
0.0
  0
HATCH
  5
D5
330
CA
100
AcDbEntity
  8
レイヤー 1
 62
   250
420
  2299925
440
 33554687
100
AcDbHatch
 10
0.0
 20
0.0
 30
0.0
210
0.0
220
0.0
230
1.0
  2
SOLID
 70
     1
 71
     1
 91
        1
 92
        1
 93
        1
 72
     4
 94
        3
 73
     0
 74
     0
 95
       26
 96
       22
 40
0.0
 40
0.0
 40
0.0
 40
0.0
 40
1.0
 40
1.0
 40
1.0
 40
2.0
 40
2.0
 40
2.0
 40
3.0
 40
3.0
 40
3.0
 40
4.0
 40
4.0
 40
4.0
 40
5.0
 40
5.0
 40
5.0
 40
6.0
 40
6.0
 40
6.0
 40
7.0
 40
7.0
 40
7.0
 40
7.0
 10
106.9519558109356
 20
-131.3420260630846
 10
106.9519558109356
 20
-131.3420260630846
 10
106.7149332415504
 20
-131.3420260630846
 10
106.7149332415504
 20
-131.3420260630846
 10
106.7404269481413
 20
-131.033173252832
 10
106.9330077857667
 20
-130.5148586370761
 10
107.3391845434777
 20
-130.0092908746157
 10
107.3391845434777
 20
-130.0092908746157
 10
106.5013373214649
 20
-130.0092908746157
 10
106.5013373214649
 20
-130.0092908746157
 10
106.5013373214649
 20
-130.0092908746157
 10
106.5013373214649
 20
-129.7977620118214
 10
106.5013373214649
 20
-129.7977620118214
 10
106.5013373214649
 20
-129.7977620118214
 10
107.5762071128629
 20
-129.7977620118214
 10
107.5762071128629
 20
-129.7977620118214
 10
107.5762071128629
 20
-129.7977620118214
 10
107.5762071128629
 20
-130.0092908746157
 10
107.5762071128629
 20
-130.0092908746157
 10
107.2523681372494
 20
-130.2990234049252
 10
106.9857177466911
 20
-130.8914075736139
 10
106.9519558109356
 20
-131.3420260630846
 97
        0
 97
        1
330
D4
 75
     2
 76
     1
 98
        1
 10
0.0
 20
0.0
450
        0
451
        0
460
0.0
461
0.0
452
        0
462
0.0
453
        0
470

  0
ENDBLK
  5
CD
330
CA
100
AcDbEntity
  8
0
100
AcDbBlockEnd
  0
BLOCK
  5
D8
330
D6
100
AcDbEntity
  8
0
100
AcDbBlockBegin
  2
Block_8
 70
     0
 10
0.0
 20
0.0
 30
0.0
  3
Block_8
  1

  0
INSERT
  5
DB
330
D6
100
AcDbEntity
  8
レイヤー 1
100
AcDbBlockReference
  2
Block_9
 10
0.0
 20
0.0
 30
0.0
  0
INSERT
  5
E5
330
D6
100
AcDbEntity
  8
レイヤー 1
100
AcDbBlockReference
  2
Block_10
 10
0.0
 20
0.0
 30
0.0
  0
ENDBLK
  5
D9
330
D6
100
AcDbEntity
  8
0
100
AcDbBlockEnd
  0
BLOCK
  5
DC
330
DA
100
AcDbEntity
  8
0
100
AcDbBlockBegin
  2
Block_9
 70
     0
 10
0.0
 20
0.0
 30
0.0
  3
Block_9
  1

  0
SPLINE
  5
DE
330
DA
100
AcDbEntity
  8
レイヤー 1
 62
   250
420
  2299925
370
     9
100
AcDbSpline
210
0.0
220
0.0
230
1.0
 70
     9
 71
     3
 72
    17
 73
    13
 74
     0
 42
0.0000000001
 43
0.0000000001
 40
0.0
 40
0.0
 40
0.0
 40
0.0
 40
1.0
 40
1.0
 40
1.0
 40
2.0
 40
2.0
 40
2.0
 40
3.0
 40
3.0
 40
3.0
 40
4.0
 40
4.0
 40
4.0
 40
4.0
 10
100.4115785476121
 20
-166.7566679015026
 30
0.0
 10
100.4115785476121
 20
-166.7177565136064
 30
0.0
 10
100.3798991031753
 20
-166.6867473477309
 30
0.0
 10
100.341305214296
 20
-166.6867473477309
 30
0.0
 10
100.3027113254169
 20
-166.6867473477309
 30
0.0
 10
100.2717021587582
 20
-166.7177565136064
 30
0.0
 10
100.2717021587582
 20
-166.7566679015026
 30
0.0
 10
100.2717021587582
 20
-166.7956145671757
 30
0.0
 10
100.3027113254169
 20
-166.8266237330512
 30
0.0
 10
100.341305214296
 20
-166.8266237330512
 30
0.0
 10
100.3798991031753
 20
-166.8266237330512
 30
0.0
 10
100.4115785476121
 20
-166.7956145671757
 30
0.0
 10
100.4115785476121
 20
-166.7566679015026
 30
0.0
  0
SPLINE
  5
DF
330
DA
100
AcDbEntity
  8
レイヤー 1
 62
   250
420
  2299925
370
     9
100
AcDbSpline
210
0.0
220
0.0
230
1.0
 70
     9
 71
     3
 72
    17
 73
    13
 74
     0
 42
0.0000000001
 43
0.0000000001
 40
0.0
 40
0.0
 40
0.0
 40
0.0
 40
1.0
 40
1.0
 40
1.0
 40
2.0
 40
2.0
 40
2.0
 40
3.0
 40
3.0
 40
3.0
 40
4.0
 40
4.0
 40
4.0
 40
4.0
 10
115.2122178792548
 20
-166.7566679015026
 30
0.0
 10
115.2122178792548
 20
-166.7177565136064
 30
0.0
 10
115.180539367485
 20
-166.6867473477309
 30
0.0
 10
115.1419445477143
 20
-166.6867473477309
 30
0.0
 10
115.10335065981
 20
-166.6867473477309
 30
0.0
 10
115.0716712161744
 20
-166.7177565136064
 30
0.0
 10
115.0716712161744
 20
-166.7566679015026
 30
0.0
 10
115.0716712161744
 20
-166.7956145671757
 30
0.0
 10
115.10335065981
 20
-166.8266237330512
 30
0.0
 10
115.1419445477143
 20
-166.8266237330512
 30
0.0
 10
115.180539367485
 20
-166.8266237330512
 30
0.0
 10
115.2122178792548
 20
-166.7956145671757
 30
0.0
 10
115.2122178792548
 20
-166.7566679015026
 30
0.0
  0
LINE
  5
E0
330
DA
100
AcDbEntity
  8
レイヤー 1
 62
   250
420
  2299925
370
     9
100
AcDbLine
 10
110.1648154798492
 20
-166.7566679015026
 30
0.0
 11
115.1605359361289
 21
-166.7566679015026
 31
0.0
  0
LINE
  5
E1
330
DA
100
AcDbEntity
  8
レイヤー 1
 62
   250
420
  2299925
370
     9
100
AcDbLine
 10
100.2996068711843
 20
-166.7566679015026
 30
0.0
 11
105.0202571478025
 21
-166.7566679015026
 31
0.0
  0
LINE
  5
E2
330
DA
100
AcDbEntity
  8
レイヤー 1
 62
   250
420
  2299925
370
     9
100
AcDbLine
 10
100.341305214296
 20
-167.7784887087671
 30
0.0
 11
100.341305214296
 21
-157.9792297110598
 31
0.0
  0
LINE
  5
E3
330
DA
100
AcDbEntity
  8
レイヤー 1
 62
   250
420
  2299925
370
     9
100
AcDbLine
 10
115.1419445477143
 20
-167.7784887087671
 30
0.0
 11
115.1419445477143
 21
-166.0566509749171
 31
0.0
  0
ENDBLK
  5
DD
330
DA
100
AcDbEntity
  8
0
100
AcDbBlockEnd
  0
BLOCK
  5
E6
330
E4
100
AcDbEntity
  8
0
100
AcDbBlockBegin
  2
Block_10
 70
     0
 10
0.0
 20
0.0
 30
0.0
  3
Block_10
  1

  0
INSERT
  5
E9
330
E4
100
AcDbEntity
  8
レイヤー 1
100
AcDbBlockReference
  2
Block_11
 10
0.0
 20
0.0
 30
0.0
  0
ENDBLK
  5
E7
330
E4
100
AcDbEntity
  8
0
100
AcDbBlockEnd
  0
BLOCK
  5
EA
330
E8
100
AcDbEntity
  8
0
100
AcDbBlockBegin
  2
Block_11
 70
     0
 10
0.0
 20
0.0
 30
0.0
  3
Block_11
  1

  0
SPLINE
  5
EC
330
E8
100
AcDbEntity
  8
レイヤー 1
100
AcDbSpline
210
0.0
220
0.0
230
1.0
 70
    11
 71
     3
 72
    26
 73
    22
 74
     0
 42
0.0000000001
 43
0.0000000001
 40
0.0
 40
0.0
 40
0.0
 40
0.0
 40
1.0
 40
1.0
 40
1.0
 40
2.0
 40
2.0
 40
2.0
 40
3.0
 40
3.0
 40
3.0
 40
4.0
 40
4.0
 40
4.0
 40
5.0
 40
5.0
 40
5.0
 40
6.0
 40
6.0
 40
6.0
 40
7.0
 40
7.0
 40
7.0
 40
7.0
 10
106.1427028814504
 20
-167.4640244807034
 30
0.0
 10
106.1427028814504
 20
-167.4640244807034
 30
0.0
 10
106.1427028814504
 20
-166.3595268681323
 30
0.0
 10
106.1427028814504
 20
-166.3595268681323
 30
0.0
 10
106.1427028814504
 20
-166.3595268681323
 30
0.0
 10
105.8126627339635
 20
-166.3595268681323
 30
0.0
 10
105.8126627339635
 20
-166.3595268681323
 30
0.0
 10
105.8126627339635
 20
-166.3595268681323
 30
0.0
 10
105.8126627339635
 20
-166.2117322718151
 30
0.0
 10
105.8126627339635
 20
-166.2117322718151
 30
0.0
 10
106.1447699387416
 20
-166.1969183612285
 30
0.0
 10
106.1912787277924
 20
-166.0339653447762
 30
0.0
 10
106.2209065489656
 20
-165.9195881746659
 30
0.0
 10
106.2209065489656
 20
-165.9195881746659
 30
0.0
 10
106.3669785975402
 20
-165.9195881746659
 30
0.0
 10
106.3669785975402
 20
-165.9195881746659
 30
0.0
 10
106.3669785975402
 20
-165.9195881746659
 30
0.0
 10
106.3669785975402
 20
-167.4640244807034
 30
0.0
 10
106.3669785975402
 20
-167.4640244807034
 30
0.0
 10
106.3669785975402
 20
-167.4640244807034
 30
0.0
 10
106.1427028814504
 20
-167.4640244807034
 30
0.0
 10
106.1427028814504
 20
-167.4640244807034
 30
0.0
  0
HATCH
  5
ED
330
E8
100
AcDbEntity
  8
レイヤー 1
 62
   250
420
  2299925
440
 33554687
100
AcDbHatch
 10
0.0
 20
0.0
 30
0.0
210
0.0
220
0.0
230
1.0
  2
SOLID
 70
     1
 71
     1
 91
        1
 92
        1
 93
        1
 72
     4
 94
        3
 73
     0
 74
     0
 95
       26
 96
       22
 40
0.0
 40
0.0
 40
0.0
 40
0.0
 40
1.0
 40
1.0
 40
1.0
 40
2.0
 40
2.0
 40
2.0
 40
3.0
 40
3.0
 40
3.0
 40
4.0
 40
4.0
 40
4.0
 40
5.0
 40
5.0
 40
5.0
 40
6.0
 40
6.0
 40
6.0
 40
7.0
 40
7.0
 40
7.0
 40
7.0
 10
106.1427028814504
 20
-167.4640244807034
 10
106.1427028814504
 20
-167.4640244807034
 10
106.1427028814504
 20
-166.3595268681323
 10
106.1427028814504
 20
-166.3595268681323
 10
106.1427028814504
 20
-166.3595268681323
 10
105.8126627339635
 20
-166.3595268681323
 10
105.8126627339635
 20
-166.3595268681323
 10
105.8126627339635
 20
-166.3595268681323
 10
105.8126627339635
 20
-166.2117322718151
 10
105.8126627339635
 20
-166.2117322718151
 10
106.1447699387416
 20
-166.1969183612285
 10
106.1912787277924
 20
-166.0339653447762
 10
106.2209065489656
 20
-165.9195881746659
 10
106.2209065489656
 20
-165.9195881746659
 10
106.3669785975402
 20
-165.9195881746659
 10
106.3669785975402
 20
-165.9195881746659
 10
106.3669785975402
 20
-165.9195881746659
 10
106.3669785975402
 20
-167.4640244807034
 10
106.3669785975402
 20
-167.4640244807034
 10
106.3669785975402
 20
-167.4640244807034
 10
106.1427028814504
 20
-167.4640244807034
 10
106.1427028814504
 20
-167.4640244807034
 97
        0
 97
        1
330
EC
 75
     2
 76
     1
 98
        1
 10
0.0
 20
0.0
450
        0
451
        0
460
0.0
461
0.0
452
        0
462
0.0
453
        0
470

  0
SPLINE
  5
EE
330
E8
100
AcDbEntity
  8
レイヤー 1
100
AcDbSpline
210
0.0
220
0.0
230
1.0
 70
     9
 71
     3
 72
    17
 73
    13
 74
     0
 42
0.0000000001
 43
0.0000000001
 40
0.0
 40
0.0
 40
0.0
 40
0.0
 40
1.0
 40
1.0
 40
1.0
 40
2.0
 40
2.0
 40
2.0
 40
3.0
 40
3.0
 40
3.0
 40
4.0
 40
4.0
 40
4.0
 40
4.0
 10
107.3681233455538
 20
-166.0635931659494
 30
0.0
 10
107.2031032718103
 20
-166.0635931659494
 30
0.0
 10
107.1183539228732
 20
-166.1586778013423
 30
0.0
 10
107.1183539228732
 20
-166.2940700539126
 30
0.0
 10
107.1183539228732
 20
-166.4167154531875
 30
0.0
 10
107.1903564185149
 20
-166.5352267378801
 30
0.0
 10
107.3681233455538
 20
-166.5352267378801
 30
0.0
 10
107.5458902725927
 20
-166.5352267378801
 30
0.0
 10
107.6178927682344
 20
-166.4167154531875
 30
0.0
 10
107.6178927682344
 20
-166.2940700539126
 30
0.0
 10
107.6178927682344
 20
-166.1586778013423
 30
0.0
 10
107.5310763620061
 20
-166.0635931659494
 30
0.0
 10
107.3681233455538
 20
-166.0635931659494
 30
0.0
  0
SPLINE
  5
EF
330
E8
100
AcDbEntity
  8
レイヤー 1
100
AcDbSpline
210
0.0
220
0.0
230
1.0
 70
     9
 71
     3
 72
    17
 73
    13
 74
     0
 42
0.0000000001
 43
0.0000000001
 40
0.0
 40
0.0
 40
0.0
 40
0.0
 40
1.0
 40
1.0
 40
1.0
 40
2.0
 40
2.0
 40
2.0
 40
3.0
 40
3.0
 40
3.0
 40
4.0
 40
4.0
 40
4.0
 40
4.0
 10
107.3681233455538
 20
-166.7236734609232
 30
0.0
 10
107.2244628638189
 20
-166.7236734609232
 30
0.0
 10
107.0718451338223
 20
-166.810145357603
 30
0.0
 10
107.0718451338223
 20
-167.0134059912327
 30
0.0
 10
107.0718451338223
 20
-167.2183891726051
 30
0.0
 10
107.198969157228
 20
-167.32001948942
 30
0.0
 10
107.3681233455538
 20
-167.32001948942
 30
0.0
 10
107.5541585017573
 20
-167.32001948942
 30
0.0
 10
107.6644015572853
 20
-167.1973740901451
 30
0.0
 10
107.6644015572853
 20
-167.0196071631062
 30
0.0
 10
107.6644015572853
 20
-166.7973985043076
 30
0.0
 10
107.501448540833
 20
-166.7236734609232
 30
0.0
 10
107.3681233455538
 20
-166.7236734609232
 30
0.0
  0
SPLINE
  5
F0
330
E8
100
AcDbEntity
  8
レイヤー 1
100
AcDbSpline
210
0.0
220
0.0
230
1.0
 70
     9
 71
     3
 72
    29
 73
    25
 74
     0
 42
0.0000000001
 43
0.0000000001
 40
0.0
 40
0.0
 40
0.0
 40
0.0
 40
1.0
 40
1.0
 40
1.0
 40
2.0
 40
2.0
 40
2.0
 40
3.0
 40
3.0
 40
3.0
 40
4.0
 40
4.0
 40
4.0
 40
5.0
 40
5.0
 40
5.0
 40
6.0
 40
6.0
 40
6.0
 40
7.0
 40
7.0
 40
7.0
 40
8.0
 40
8.0
 40
8.0
 40
8.0
 10
107.3681233455538
 20
-167.5146673843366
 30
0.0
 10
107.1014729549955
 20
-167.5146673843366
 30
0.0
 10
106.8475694177325
 20
-167.3772080744751
 30
0.0
 10
106.8475694177325
 20
-167.0282199018193
 30
0.0
 10
106.8475694177325
 20
-166.7722493072652
 30
0.0
 10
106.9895073517248
 20
-166.6768201623238
 30
0.0
 10
107.095271783122
 20
-166.6154974626864
 30
0.0
 10
106.9705593265559
 20
-166.5562418203401
 30
0.0
 10
106.8944227163319
 20
-166.4422091597783
 30
0.0
 10
106.8944227163319
 20
-166.2813232006172
 30
0.0
 10
106.8944227163319
 20
-166.0064045808942
 30
0.0
 10
107.0932047258309
 20
-165.8710123283239
 30
0.0
 10
107.3681233455538
 20
-165.8710123283239
 30
0.0
 10
107.6516547039898
 20
-165.8710123283239
 30
0.0
 10
107.8421684843242
 20
-166.0146728100588
 30
0.0
 10
107.8421684843242
 20
-166.2813232006172
 30
0.0
 10
107.8421684843242
 20
-166.4422091597783
 30
0.0
 10
107.7636203072605
 20
-166.5562418203401
 30
0.0
 10
107.6389078506944
 20
-166.6154974626864
 30
0.0
 10
107.7277913142139
 20
-166.6664848758681
 30
0.0
 10
107.8866102160839
 20
-166.761569511261
 30
0.0
 10
107.8866102160839
 20
-167.024085787237
 30
0.0
 10
107.8866102160839
 20
-167.3982231569352
 30
0.0
 10
107.6072129722301
 20
-167.5146673843366
 30
0.0
 10
107.3681233455538
 20
-167.5146673843366
 30
0.0
  0
HATCH
  5
F1
330
E8
100
AcDbEntity
  8
レイヤー 1
 62
   250
420
  2299925
440
 33554687
100
AcDbHatch
 10
0.0
 20
0.0
 30
0.0
210
0.0
220
0.0
230
1.0
  2
SOLID
 70
     1
 71
     1
 91
        3
 92
        1
 93
        1
 72
     4
 94
        3
 73
     0
 74
     0
 95
       17
 96
       13
 40
0.0
 40
0.0
 40
0.0
 40
0.0
 40
1.0
 40
1.0
 40
1.0
 40
2.0
 40
2.0
 40
2.0
 40
3.0
 40
3.0
 40
3.0
 40
4.0
 40
4.0
 40
4.0
 40
4.0
 10
107.3681233455538
 20
-166.0635931659494
 10
107.2031032718103
 20
-166.0635931659494
 10
107.1183539228732
 20
-166.1586778013423
 10
107.1183539228732
 20
-166.2940700539126
 10
107.1183539228732
 20
-166.4167154531875
 10
107.1903564185149
 20
-166.5352267378801
 10
107.3681233455538
 20
-166.5352267378801
 10
107.5458902725927
 20
-166.5352267378801
 10
107.6178927682344
 20
-166.4167154531875
 10
107.6178927682344
 20
-166.2940700539126
 10
107.6178927682344
 20
-166.1586778013423
 10
107.5310763620061
 20
-166.0635931659494
 10
107.3681233455538
 20
-166.0635931659494
 97
        0
 97
        1
330
EE
 92
        1
 93
        1
 72
     4
 94
        3
 73
     0
 74
     0
 95
       17
 96
       13
 40
0.0
 40
0.0
 40
0.0
 40
0.0
 40
1.0
 40
1.0
 40
1.0
 40
2.0
 40
2.0
 40
2.0
 40
3.0
 40
3.0
 40
3.0
 40
4.0
 40
4.0
 40
4.0
 40
4.0
 10
107.3681233455538
 20
-166.7236734609232
 10
107.2244628638189
 20
-166.7236734609232
 10
107.0718451338223
 20
-166.810145357603
 10
107.0718451338223
 20
-167.0134059912327
 10
107.0718451338223
 20
-167.2183891726051
 10
107.198969157228
 20
-167.32001948942
 10
107.3681233455538
 20
-167.32001948942
 10
107.5541585017573
 20
-167.32001948942
 10
107.6644015572853
 20
-167.1973740901451
 10
107.6644015572853
 20
-167.0196071631062
 10
107.6644015572853
 20
-166.7973985043076
 10
107.501448540833
 20
-166.7236734609232
 10
107.3681233455538
 20
-166.7236734609232
 97
        0
 97
        1
330
EF
 92
        1
 93
        1
 72
     4
 94
        3
 73
     0
 74
     0
 95
       29
 96
       25
 40
0.0
 40
0.0
 40
0.0
 40
0.0
 40
1.0
 40
1.0
 40
1.0
 40
2.0
 40
2.0
 40
2.0
 40
3.0
 40
3.0
 40
3.0
 40
4.0
 40
4.0
 40
4.0
 40
5.0
 40
5.0
 40
5.0
 40
6.0
 40
6.0
 40
6.0
 40
7.0
 40
7.0
 40
7.0
 40
8.0
 40
8.0
 40
8.0
 40
8.0
 10
107.3681233455538
 20
-167.5146673843366
 10
107.1014729549955
 20
-167.5146673843366
 10
106.8475694177325
 20
-167.3772080744751
 10
106.8475694177325
 20
-167.0282199018193
 10
106.8475694177325
 20
-166.7722493072652
 10
106.9895073517248
 20
-166.6768201623238
 10
107.095271783122
 20
-166.6154974626864
 10
106.9705593265559
 20
-166.5562418203401
 10
106.8944227163319
 20
-166.4422091597783
 10
106.8944227163319
 20
-166.2813232006172
 10
106.8944227163319
 20
-166.0064045808942
 10
107.0932047258309
 20
-165.8710123283239
 10
107.3681233455538
 20
-165.8710123283239
 10
107.6516547039898
 20
-165.8710123283239
 10
107.8421684843242
 20
-166.0146728100588
 10
107.8421684843242
 20
-166.2813232006172
 10
107.8421684843242
 20
-166.4422091597783
 10
107.7636203072605
 20
-166.5562418203401
 10
107.6389078506944
 20
-166.6154974626864
 10
107.7277913142139
 20
-166.6664848758681
 10
107.8866102160839
 20
-166.761569511261
 10
107.8866102160839
 20
-167.024085787237
 10
107.8866102160839
 20
-167.3982231569352
 10
107.6072129722301
 20
-167.5146673843366
 10
107.3681233455538
 20
-167.5146673843366
 97
        0
 97
        1
330
F0
 75
     2
 76
     1
 98
        1
 10
0.0
 20
0.0
450
        0
451
        0
460
0.0
461
0.0
452
        0
462
0.0
453
        0
470

  0
SPLINE
  5
F2
330
E8
100
AcDbEntity
  8
レイヤー 1
100
AcDbSpline
210
0.0
220
0.0
230
1.0
 70
    11
 71
     3
 72
    17
 73
    13
 74
     0
 42
0.0000000001
 43
0.0000000001
 40
0.0
 40
0.0
 40
0.0
 40
0.0
 40
1.0
 40
1.0
 40
1.0
 40
2.0
 40
2.0
 40
2.0
 40
3.0
 40
3.0
 40
3.0
 40
4.0
 40
4.0
 40
4.0
 40
4.0
 10
108.1050292698487
 20
-167.4640244807034
 30
0.0
 10
108.1050292698487
 20
-167.4640244807034
 30
0.0
 10
108.1050292698487
 20
-167.2121880007317
 30
0.0
 10
108.1050292698487
 20
-167.2121880007317
 30
0.0
 10
108.1050292698487
 20
-167.2121880007317
 30
0.0
 10
108.3568657498205
 20
-167.2121880007317
 30
0.0
 10
108.3568657498205
 20
-167.2121880007317
 30
0.0
 10
108.3568657498205
 20
-167.2121880007317
 30
0.0
 10
108.3568657498205
 20
-167.4640244807034
 30
0.0
 10
108.3568657498205
 20
-167.4640244807034
 30
0.0
 10
108.3568657498205
 20
-167.4640244807034
 30
0.0
 10
108.1050292698487
 20
-167.4640244807034
 30
0.0
 10
108.1050292698487
 20
-167.4640244807034
 30
0.0
  0
HATCH
  5
F3
330
E8
100
AcDbEntity
  8
レイヤー 1
 62
   250
420
  2299925
440
 33554687
100
AcDbHatch
 10
0.0
 20
0.0
 30
0.0
210
0.0
220
0.0
230
1.0
  2
SOLID
 70
     1
 71
     1
 91
        1
 92
        1
 93
        1
 72
     4
 94
        3
 73
     0
 74
     0
 95
       17
 96
       13
 40
0.0
 40
0.0
 40
0.0
 40
0.0
 40
1.0
 40
1.0
 40
1.0
 40
2.0
 40
2.0
 40
2.0
 40
3.0
 40
3.0
 40
3.0
 40
4.0
 40
4.0
 40
4.0
 40
4.0
 10
108.1050292698487
 20
-167.4640244807034
 10
108.1050292698487
 20
-167.4640244807034
 10
108.1050292698487
 20
-167.2121880007317
 10
108.1050292698487
 20
-167.2121880007317
 10
108.1050292698487
 20
-167.2121880007317
 10
108.3568657498205
 20
-167.2121880007317
 10
108.3568657498205
 20
-167.2121880007317
 10
108.3568657498205
 20
-167.2121880007317
 10
108.3568657498205
 20
-167.4640244807034
 10
108.3568657498205
 20
-167.4640244807034
 10
108.3568657498205
 20
-167.4640244807034
 10
108.1050292698487
 20
-167.4640244807034
 10
108.1050292698487
 20
-167.4640244807034
 97
        0
 97
        1
330
F2
 75
     2
 76
     1
 98
        1
 10
0.0
 20
0.0
450
        0
451
        0
460
0.0
461
0.0
452
        0
462
0.0
453
        0
470

  0
SPLINE
  5
F4
330
E8
100
AcDbEntity
  8
レイヤー 1
100
AcDbSpline
210
0.0
220
0.0
230
1.0
 70
     9
 71
     3
 72
    26
 73
    22
 74
     0
 42
0.0000000001
 43
0.0000000001
 40
0.0
 40
0.0
 40
0.0
 40
0.0
 40
1.0
 40
1.0
 40
1.0
 40
2.0
 40
2.0
 40
2.0
 40
3.0
 40
3.0
 40
3.0
 40
4.0
 40
4.0
 40
4.0
 40
5.0
 40
5.0
 40
5.0
 40
6.0
 40
6.0
 40
6.0
 40
7.0
 40
7.0
 40
7.0
 40
7.0
 10
109.0041991914989
 20
-167.4640244807034
 30
0.0
 10
109.0041991914989
 20
-167.4640244807034
 30
0.0
 10
108.7671766221137
 20
-167.4640244807034
 30
0.0
 10
108.7671766221137
 20
-167.4640244807034
 30
0.0
 10
108.7926703287046
 20
-167.1549994156765
 30
0.0
 10
108.9852511663301
 20
-166.6368570546949
 30
0.0
 10
109.391427924041
 20
-166.1311170374603
 30
0.0
 10
109.391427924041
 20
-166.1311170374603
 30
0.0
 10
108.5535807020282
 20
-166.1311170374603
 30
0.0
 10
108.5535807020282
 20
-166.1311170374603
 30
0.0
 10
108.5535807020282
 20
-166.1311170374603
 30
0.0
 10
108.5535807020282
 20
-165.9195881746659
 30
0.0
 10
108.5535807020282
 20
-165.9195881746659
 30
0.0
 10
108.5535807020282
 20
-165.9195881746659
 30
0.0
 10
109.6284504934262
 20
-165.9195881746659
 30
0.0
 10
109.6284504934262
 20
-165.9195881746659
 30
0.0
 10
109.6284504934262
 20
-165.9195881746659
 30
0.0
 10
109.6284504934262
 20
-166.1311170374603
 30
0.0
 10
109.6284504934262
 20
-166.1311170374603
 30
0.0
 10
109.3046115178127
 20
-166.4208495677698
 30
0.0
 10
109.0379611272544
 20
-167.0134059912327
 30
0.0
 10
109.0041991914989
 20
-167.4640244807034
 30
0.0
  0
HATCH
  5
F5
330
E8
100
AcDbEntity
  8
レイヤー 1
 62
   250
420
  2299925
440
 33554687
100
AcDbHatch
 10
0.0
 20
0.0
 30
0.0
210
0.0
220
0.0
230
1.0
  2
SOLID
 70
     1
 71
     1
 91
        1
 92
        1
 93
        1
 72
     4
 94
        3
 73
     0
 74
     0
 95
       26
 96
       22
 40
0.0
 40
0.0
 40
0.0
 40
0.0
 40
1.0
 40
1.0
 40
1.0
 40
2.0
 40
2.0
 40
2.0
 40
3.0
 40
3.0
 40
3.0
 40
4.0
 40
4.0
 40
4.0
 40
5.0
 40
5.0
 40
5.0
 40
6.0
 40
6.0
 40
6.0
 40
7.0
 40
7.0
 40
7.0
 40
7.0
 10
109.0041991914989
 20
-167.4640244807034
 10
109.0041991914989
 20
-167.4640244807034
 10
108.7671766221137
 20
-167.4640244807034
 10
108.7671766221137
 20
-167.4640244807034
 10
108.7926703287046
 20
-167.1549994156765
 10
108.9852511663301
 20
-166.6368570546949
 10
109.391427924041
 20
-166.1311170374603
 10
109.391427924041
 20
-166.1311170374603
 10
108.5535807020282
 20
-166.1311170374603
 10
108.5535807020282
 20
-166.1311170374603
 10
108.5535807020282
 20
-166.1311170374603
 10
108.5535807020282
 20
-165.9195881746659
 10
108.5535807020282
 20
-165.9195881746659
 10
108.5535807020282
 20
-165.9195881746659
 10
109.6284504934262
 20
-165.9195881746659
 10
109.6284504934262
 20
-165.9195881746659
 10
109.6284504934262
 20
-165.9195881746659
 10
109.6284504934262
 20
-166.1311170374603
 10
109.6284504934262
 20
-166.1311170374603
 10
109.3046115178127
 20
-166.4208495677698
 10
109.0379611272544
 20
-167.0134059912327
 10
109.0041991914989
 20
-167.4640244807034
 97
        0
 97
        1
330
F4
 75
     2
 76
     1
 98
        1
 10
0.0
 20
0.0
450
        0
451
        0
460
0.0
461
0.0
452
        0
462
0.0
453
        0
470

  0
ENDBLK
  5
EB
330
E8
100
AcDbEntity
  8
0
100
AcDbBlockEnd
  0
BLOCK
  5
FB
330
F9
100
AcDbEntity
  8
0
100
AcDbBlockBegin
  2
Block_12
 70
     0
 10
0.0
 20
0.0
 30
0.0
  3
Block_12
  1

  0
INSERT
  5
FE
330
F9
100
AcDbEntity
  8
レイヤー 1
100
AcDbBlockReference
  2
Block_13
 10
0.0
 20
0.0
 30
0.0
  0
ENDBLK
  5
FC
330
F9
100
AcDbEntity
  8
0
100
AcDbBlockEnd
  0
BLOCK
  5
FF
330
FD
100
AcDbEntity
  8
0
100
AcDbBlockBegin
  2
Block_13
 70
     0
 10
0.0
 20
0.0
 30
0.0
  3
Block_13
  1

  0
SPLINE
  5
101
330
FD
100
AcDbEntity
  8
レイヤー 1
100
AcDbSpline
210
0.0
220
0.0
230
1.0
 70
     9
 71
     3
 72
    17
 73
    13
 74
     0
 42
0.0000000001
 43
0.0000000001
 40
0.0
 40
0.0
 40
0.0
 40
0.0
 40
1.0
 40
1.0
 40
1.0
 40
2.0
 40
2.0
 40
2.0
 40
3.0
 40
3.0
 40
3.0
 40
4.0
 40
4.0
 40
4.0
 40
4.0
 10
116.7511854091802
 20
-138.7384738151418
 30
0.0
 10
116.7511854091802
 20
-138.8823065516509
 30
0.0
 10
116.8380018154085
 20
-139.034579772099
 30
0.0
 10
117.0409179394898
 20
-139.034579772099
 30
0.0
 10
117.2462456304106
 20
-139.034579772099
 30
0.0
 10
117.347531437677
 20
-138.9076280034675
 30
0.0
 10
117.347531437677
 20
-138.7384738151418
 30
0.0
 10
117.347531437677
 20
-138.552266404164
 30
0.0
 10
117.2248860384021
 20
-138.4421956034103
 30
0.0
 10
117.0471191113632
 20
-138.4421956034103
 30
0.0
 10
116.8252549621131
 20
-138.4421956034103
 30
0.0
 10
116.7511854091802
 20
-138.6051486198626
 30
0.0
 10
116.7511854091802
 20
-138.7384738151418
 30
0.0
  0
SPLINE
  5
102
330
FD
100
AcDbEntity
  8
レイヤー 1
100
AcDbSpline
210
0.0
220
0.0
230
1.0
 70
     9
 71
     3
 72
    17
 73
    13
 74
     0
 42
0.0000000001
 43
0.0000000001
 40
0.0
 40
0.0
 40
0.0
 40
0.0
 40
1.0
 40
1.0
 40
1.0
 40
2.0
 40
2.0
 40
2.0
 40
3.0
 40
3.0
 40
3.0
 40
4.0
 40
4.0
 40
4.0
 40
4.0
 10
116.0911051142064
 20
-138.7384738151418
 30
0.0
 10
116.0911051142064
 20
-138.9034938888852
 30
0.0
 10
116.1861897495993
 20
-138.9880709830481
 30
0.0
 10
116.3215820021696
 20
-138.9880709830481
 30
0.0
 10
116.4442274014445
 20
-138.9880709830481
 30
0.0
 10
116.5627386861371
 20
-138.9160684874064
 30
0.0
 10
116.5627386861371
 20
-138.7384738151418
 30
0.0
 10
116.5627386861371
 20
-138.5607068881029
 30
0.0
 10
116.4442274014445
 20
-138.4888766472354
 30
0.0
 10
116.3215820021696
 20
-138.4888766472354
 30
0.0
 10
116.1861897495993
 20
-138.4888766472354
 30
0.0
 10
116.0911051142064
 20
-138.5755207986894
 30
0.0
 10
116.0911051142064
 20
-138.7384738151418
 30
0.0
  0
SPLINE
  5
103
330
FD
100
AcDbEntity
  8
レイヤー 1
100
AcDbSpline
210
0.0
220
0.0
230
1.0
 70
     9
 71
     3
 72
    29
 73
    25
 74
     0
 42
0.0000000001
 43
0.0000000001
 40
0.0
 40
0.0
 40
0.0
 40
0.0
 40
1.0
 40
1.0
 40
1.0
 40
2.0
 40
2.0
 40
2.0
 40
3.0
 40
3.0
 40
3.0
 40
4.0
 40
4.0
 40
4.0
 40
5.0
 40
5.0
 40
5.0
 40
6.0
 40
6.0
 40
6.0
 40
7.0
 40
7.0
 40
7.0
 40
8.0
 40
8.0
 40
8.0
 40
8.0
 10
117.5421793325936
 20
-138.7384738151418
 30
0.0
 10
117.5421793325936
 20
-139.0049519509258
 30
0.0
 10
117.4047200227321
 20
-139.2588554881887
 30
0.0
 10
117.0557318500763
 20
-139.2588554881887
 30
0.0
 10
116.7997612555223
 20
-139.2588554881887
 30
0.0
 10
116.7046766201294
 20
-139.1170898089707
 30
0.0
 10
116.6433539204919
 20
-139.0113253775735
 30
0.0
 10
116.5840982781456
 20
-139.1362100889139
 30
0.0
 10
116.4697211080353
 20
-139.2123466991379
 30
0.0
 10
116.3088351488742
 20
-139.2123466991379
 30
0.0
 10
116.0339165291512
 20
-139.2123466991379
 30
0.0
 10
115.8985242765809
 20
-139.0133924348647
 30
0.0
 10
115.8985242765809
 20
-138.7384738151418
 30
0.0
 10
115.8985242765809
 20
-138.4549424567057
 30
0.0
 10
116.0425292678644
 20
-138.2646009311456
 30
0.0
 10
116.3088351488742
 20
-138.2646009311456
 30
0.0
 10
116.4697211080353
 20
-138.2646009311456
 30
0.0
 10
116.5840982781456
 20
-138.3428045986608
 30
0.0
 10
116.6433539204919
 20
-138.4676893100011
 30
0.0
 10
116.6939968241251
 20
-138.3788058464817
 30
0.0
 10
116.789081459518
 20
-138.2201591993859
 30
0.0
 10
117.051597735494
 20
-138.2201591993859
 30
0.0
 10
117.4260796147407
 20
-138.2201591993859
 30
0.0
 10
117.5421793325936
 20
-138.4993841884654
 30
0.0
 10
117.5421793325936
 20
-138.7384738151418
 30
0.0
  0
HATCH
  5
104
330
FD
100
AcDbEntity
  8
レイヤー 1
 62
   250
420
  2299925
440
 33554687
100
AcDbHatch
 10
0.0
 20
0.0
 30
0.0
210
0.0
220
0.0
230
1.0
  2
SOLID
 70
     1
 71
     1
 91
        3
 92
        1
 93
        1
 72
     4
 94
        3
 73
     0
 74
     0
 95
       17
 96
       13
 40
0.0
 40
0.0
 40
0.0
 40
0.0
 40
1.0
 40
1.0
 40
1.0
 40
2.0
 40
2.0
 40
2.0
 40
3.0
 40
3.0
 40
3.0
 40
4.0
 40
4.0
 40
4.0
 40
4.0
 10
116.7511854091802
 20
-138.7384738151418
 10
116.7511854091802
 20
-138.8823065516509
 10
116.8380018154085
 20
-139.034579772099
 10
117.0409179394898
 20
-139.034579772099
 10
117.2462456304106
 20
-139.034579772099
 10
117.347531437677
 20
-138.9076280034675
 10
117.347531437677
 20
-138.7384738151418
 10
117.347531437677
 20
-138.552266404164
 10
117.2248860384021
 20
-138.4421956034103
 10
117.0471191113632
 20
-138.4421956034103
 10
116.8252549621131
 20
-138.4421956034103
 10
116.7511854091802
 20
-138.6051486198626
 10
116.7511854091802
 20
-138.7384738151418
 97
        0
 97
        1
330
101
 92
        1
 93
        1
 72
     4
 94
        3
 73
     0
 74
     0
 95
       17
 96
       13
 40
0.0
 40
0.0
 40
0.0
 40
0.0
 40
1.0
 40
1.0
 40
1.0
 40
2.0
 40
2.0
 40
2.0
 40
3.0
 40
3.0
 40
3.0
 40
4.0
 40
4.0
 40
4.0
 40
4.0
 10
116.0911051142064
 20
-138.7384738151418
 10
116.0911051142064
 20
-138.9034938888852
 10
116.1861897495993
 20
-138.9880709830481
 10
116.3215820021696
 20
-138.9880709830481
 10
116.4442274014445
 20
-138.9880709830481
 10
116.5627386861371
 20
-138.9160684874064
 10
116.5627386861371
 20
-138.7384738151418
 10
116.5627386861371
 20
-138.5607068881029
 10
116.4442274014445
 20
-138.4888766472354
 10
116.3215820021696
 20
-138.4888766472354
 10
116.1861897495993
 20
-138.4888766472354
 10
116.0911051142064
 20
-138.5755207986894
 10
116.0911051142064
 20
-138.7384738151418
 97
        0
 97
        1
330
102
 92
        1
 93
        1
 72
     4
 94
        3
 73
     0
 74
     0
 95
       29
 96
       25
 40
0.0
 40
0.0
 40
0.0
 40
0.0
 40
1.0
 40
1.0
 40
1.0
 40
2.0
 40
2.0
 40
2.0
 40
3.0
 40
3.0
 40
3.0
 40
4.0
 40
4.0
 40
4.0
 40
5.0
 40
5.0
 40
5.0
 40
6.0
 40
6.0
 40
6.0
 40
7.0
 40
7.0
 40
7.0
 40
8.0
 40
8.0
 40
8.0
 40
8.0
 10
117.5421793325936
 20
-138.7384738151418
 10
117.5421793325936
 20
-139.0049519509258
 10
117.4047200227321
 20
-139.2588554881887
 10
117.0557318500763
 20
-139.2588554881887
 10
116.7997612555223
 20
-139.2588554881887
 10
116.7046766201294
 20
-139.1170898089707
 10
116.6433539204919
 20
-139.0113253775735
 10
116.5840982781456
 20
-139.1362100889139
 10
116.4697211080353
 20
-139.2123466991379
 10
116.3088351488742
 20
-139.2123466991379
 10
116.0339165291512
 20
-139.2123466991379
 10
115.8985242765809
 20
-139.0133924348647
 10
115.8985242765809
 20
-138.7384738151418
 10
115.8985242765809
 20
-138.4549424567057
 10
116.0425292678644
 20
-138.2646009311456
 10
116.3088351488742
 20
-138.2646009311456
 10
116.4697211080353
 20
-138.2646009311456
 10
116.5840982781456
 20
-138.3428045986608
 10
116.6433539204919
 20
-138.4676893100011
 10
116.6939968241251
 20
-138.3788058464817
 10
116.789081459518
 20
-138.2201591993859
 10
117.051597735494
 20
-138.2201591993859
 10
117.4260796147407
 20
-138.2201591993859
 10
117.5421793325936
 20
-138.4993841884654
 10
117.5421793325936
 20
-138.7384738151418
 97
        0
 97
        1
330
103
 75
     2
 76
     1
 98
        1
 10
0.0
 20
0.0
450
        0
451
        0
460
0.0
461
0.0
452
        0
462
0.0
453
        0
470

  0
SPLINE
  5
105
330
FD
100
AcDbEntity
  8
レイヤー 1
100
AcDbSpline
210
0.0
220
0.0
230
1.0
 70
    11
 71
     3
 72
    17
 73
    13
 74
     0
 42
0.0000000001
 43
0.0000000001
 40
0.0
 40
0.0
 40
0.0
 40
0.0
 40
1.0
 40
1.0
 40
1.0
 40
2.0
 40
2.0
 40
2.0
 40
3.0
 40
3.0
 40
3.0
 40
4.0
 40
4.0
 40
4.0
 40
4.0
 10
117.4915364289604
 20
-138.0015678908468
 30
0.0
 10
117.4915364289604
 20
-138.0015678908468
 30
0.0
 10
117.2396999489887
 20
-138.0015678908468
 30
0.0
 10
117.2396999489887
 20
-138.0015678908468
 30
0.0
 10
117.2396999489887
 20
-138.0015678908468
 30
0.0
 10
117.2396999489887
 20
-137.7499036656493
 30
0.0
 10
117.2396999489887
 20
-137.7499036656493
 30
0.0
 10
117.2396999489887
 20
-137.7499036656493
 30
0.0
 10
117.4915364289604
 20
-137.7499036656493
 30
0.0
 10
117.4915364289604
 20
-137.7499036656493
 30
0.0
 10
117.4915364289604
 20
-137.7499036656493
 30
0.0
 10
117.4915364289604
 20
-138.0015678908468
 30
0.0
 10
117.4915364289604
 20
-138.0015678908468
 30
0.0
  0
HATCH
  5
106
330
FD
100
AcDbEntity
  8
レイヤー 1
 62
   250
420
  2299925
440
 33554687
100
AcDbHatch
 10
0.0
 20
0.0
 30
0.0
210
0.0
220
0.0
230
1.0
  2
SOLID
 70
     1
 71
     1
 91
        1
 92
        1
 93
        1
 72
     4
 94
        3
 73
     0
 74
     0
 95
       17
 96
       13
 40
0.0
 40
0.0
 40
0.0
 40
0.0
 40
1.0
 40
1.0
 40
1.0
 40
2.0
 40
2.0
 40
2.0
 40
3.0
 40
3.0
 40
3.0
 40
4.0
 40
4.0
 40
4.0
 40
4.0
 10
117.4915364289604
 20
-138.0015678908468
 10
117.4915364289604
 20
-138.0015678908468
 10
117.2396999489887
 20
-138.0015678908468
 10
117.2396999489887
 20
-138.0015678908468
 10
117.2396999489887
 20
-138.0015678908468
 10
117.2396999489887
 20
-137.7499036656493
 10
117.2396999489887
 20
-137.7499036656493
 10
117.2396999489887
 20
-137.7499036656493
 10
117.4915364289604
 20
-137.7499036656493
 10
117.4915364289604
 20
-137.7499036656493
 10
117.4915364289604
 20
-137.7499036656493
 10
117.4915364289604
 20
-138.0015678908468
 10
117.4915364289604
 20
-138.0015678908468
 97
        0
 97
        1
330
105
 75
     2
 76
     1
 98
        1
 10
0.0
 20
0.0
450
        0
451
        0
460
0.0
461
0.0
452
        0
462
0.0
453
        0
470

  0
SPLINE
  5
107
330
FD
100
AcDbEntity
  8
レイヤー 1
100
AcDbSpline
210
0.0
220
0.0
230
1.0
 70
     9
 71
     3
 72
    53
 73
    49
 74
     0
 42
0.0000000001
 43
0.0000000001
 40
0.0
 40
0.0
 40
0.0
 40
0.0
 40
1.0
 40
1.0
 40
1.0
 40
2.0
 40
2.0
 40
2.0
 40
3.0
 40
3.0
 40
3.0
 40
4.0
 40
4.0
 40
4.0
 40
5.0
 40
5.0
 40
5.0
 40
6.0
 40
6.0
 40
6.0
 40
7.0
 40
7.0
 40
7.0
 40
8.0
 40
8.0
 40
8.0
 40
9.0
 40
9.0
 40
9.0
 40
10.0
 40
10.0
 40
10.0
 40
11.0
 40
11.0
 40
11.0
 40
12.0
 40
12.0
 40
12.0
 40
13.0
 40
13.0
 40
13.0
 40
14.0
 40
14.0
 40
14.0
 40
15.0
 40
15.0
 40
15.0
 40
16.0
 40
16.0
 40
16.0
 40
16.0
 10
117.5421793325936
 20
-137.032462530846
 30
0.0
 10
117.5421793325936
 20
-137.1108384531355
 30
0.0
 10
117.5252983647159
 20
-137.2122965151761
 30
0.0
 10
117.4619086077873
 20
-137.313926831991
 30
0.0
 10
117.3520100618078
 20
-137.4873873896733
 30
0.0
 10
117.2207519238198
 20
-137.5085747269076
 30
0.0
 10
117.1129204351315
 20
-137.5275227520764
 30
0.0
 10
117.1129204351315
 20
-137.5275227520764
 30
0.0
 10
117.1129204351315
 20
-137.3054863480521
 30
0.0
 10
117.1129204351315
 20
-137.3054863480521
 30
0.0
 10
117.3117024446304
 20
-137.2503648202881
 30
0.0
 10
117.3413302658035
 20
-137.1234130516566
 30
0.0
 10
117.3413302658035
 20
-137.0303954735549
 30
0.0
 10
117.3413302658035
 20
-136.890696851628
 30
0.0
 10
117.2417670062798
 20
-136.73842363118
 30
0.0
 10
117.0092230610255
 20
-136.73842363118
 30
0.0
 10
116.7532524664714
 20
-136.73842363118
 30
0.0
 10
116.6833170281208
 20
-136.91825761551
 30
0.0
 10
116.6833170281208
 20
-137.0388359574937
 30
0.0
 10
116.6833170281208
 20
-137.070530835958
 30
0.0
 10
116.6833170281208
 20
-137.2122965151761
 30
0.0
 10
116.8125081088177
 20
-137.3011799786955
 30
0.0
 10
116.8125081088177
 20
-137.3011799786955
 30
0.0
 10
116.7935600836488
 20
-137.476707593669
 30
0.0
 10
116.7935600836488
 20
-137.476707593669
 30
0.0
 10
116.7935600836488
 20
-137.476707593669
 30
0.0
 10
115.9471001229229
 20
-137.3561292516852
 30
0.0
 10
115.9471001229229
 20
-137.3561292516852
 30
0.0
 10
115.9471001229229
 20
-137.3561292516852
 30
0.0
 10
115.9471001229229
 20
-136.5777099267931
 30
0.0
 10
115.9471001229229
 20
-136.5777099267931
 30
0.0
 10
115.9471001229229
 20
-136.5777099267931
 30
0.0
 10
116.1417480178396
 20
-136.5777099267931
 30
0.0
 10
116.1417480178396
 20
-136.5777099267931
 30
0.0
 10
116.1417480178396
 20
-136.5777099267931
 30
0.0
 10
116.1417480178396
 20
-137.1933484900072
 30
0.0
 10
116.1417480178396
 20
-137.1933484900072
 30
0.0
 10
116.1417480178396
 20
-137.1933484900072
 30
0.0
 10
116.5648057434282
 20
-137.2588053042269
 30
0.0
 10
116.5648057434282
 20
-137.2588053042269
 30
0.0
 10
116.5310438076728
 20
-137.1974826045895
 30
0.0
 10
116.4907361904954
 20
-137.1149725677178
 30
0.0
 10
116.4907361904954
 20
-136.9966335377994
 30
0.0
 10
116.4907361904954
 20
-136.7427300005365
 30
0.0
 10
116.6771158562474
 20
-136.5057074311513
 30
0.0
 10
116.9902750358566
 20
-136.5057074311513
 30
0.0
 10
117.3075683300481
 20
-136.5057074311513
 30
0.0
 10
117.5421793325936
 20
-136.7299831472411
 30
0.0
 10
117.5421793325936
 20
-137.032462530846
 30
0.0
  0
HATCH
  5
108
330
FD
100
AcDbEntity
  8
レイヤー 1
 62
   250
420
  2299925
440
 33554687
100
AcDbHatch
 10
0.0
 20
0.0
 30
0.0
210
0.0
220
0.0
230
1.0
  2
SOLID
 70
     1
 71
     1
 91
        1
 92
        1
 93
        1
 72
     4
 94
        3
 73
     0
 74
     0
 95
       53
 96
       49
 40
0.0
 40
0.0
 40
0.0
 40
0.0
 40
1.0
 40
1.0
 40
1.0
 40
2.0
 40
2.0
 40
2.0
 40
3.0
 40
3.0
 40
3.0
 40
4.0
 40
4.0
 40
4.0
 40
5.0
 40
5.0
 40
5.0
 40
6.0
 40
6.0
 40
6.0
 40
7.0
 40
7.0
 40
7.0
 40
8.0
 40
8.0
 40
8.0
 40
9.0
 40
9.0
 40
9.0
 40
10.0
 40
10.0
 40
10.0
 40
11.0
 40
11.0
 40
11.0
 40
12.0
 40
12.0
 40
12.0
 40
13.0
 40
13.0
 40
13.0
 40
14.0
 40
14.0
 40
14.0
 40
15.0
 40
15.0
 40
15.0
 40
16.0
 40
16.0
 40
16.0
 40
16.0
 10
117.5421793325936
 20
-137.032462530846
 10
117.5421793325936
 20
-137.1108384531355
 10
117.5252983647159
 20
-137.2122965151761
 10
117.4619086077873
 20
-137.313926831991
 10
117.3520100618078
 20
-137.4873873896733
 10
117.2207519238198
 20
-137.5085747269076
 10
117.1129204351315
 20
-137.5275227520764
 10
117.1129204351315
 20
-137.5275227520764
 10
117.1129204351315
 20
-137.3054863480521
 10
117.1129204351315
 20
-137.3054863480521
 10
117.3117024446304
 20
-137.2503648202881
 10
117.3413302658035
 20
-137.1234130516566
 10
117.3413302658035
 20
-137.0303954735549
 10
117.3413302658035
 20
-136.890696851628
 10
117.2417670062798
 20
-136.73842363118
 10
117.0092230610255
 20
-136.73842363118
 10
116.7532524664714
 20
-136.73842363118
 10
116.6833170281208
 20
-136.91825761551
 10
116.6833170281208
 20
-137.0388359574937
 10
116.6833170281208
 20
-137.070530835958
 10
116.6833170281208
 20
-137.2122965151761
 10
116.8125081088177
 20
-137.3011799786955
 10
116.8125081088177
 20
-137.3011799786955
 10
116.7935600836488
 20
-137.476707593669
 10
116.7935600836488
 20
-137.476707593669
 10
116.7935600836488
 20
-137.476707593669
 10
115.9471001229229
 20
-137.3561292516852
 10
115.9471001229229
 20
-137.3561292516852
 10
115.9471001229229
 20
-137.3561292516852
 10
115.9471001229229
 20
-136.5777099267931
 10
115.9471001229229
 20
-136.5777099267931
 10
115.9471001229229
 20
-136.5777099267931
 10
116.1417480178396
 20
-136.5777099267931
 10
116.1417480178396
 20
-136.5777099267931
 10
116.1417480178396
 20
-136.5777099267931
 10
116.1417480178396
 20
-137.1933484900072
 10
116.1417480178396
 20
-137.1933484900072
 10
116.1417480178396
 20
-137.1933484900072
 10
116.5648057434282
 20
-137.2588053042269
 10
116.5648057434282
 20
-137.2588053042269
 10
116.5310438076728
 20
-137.1974826045895
 10
116.4907361904954
 20
-137.1149725677178
 10
116.4907361904954
 20
-136.9966335377994
 10
116.4907361904954
 20
-136.7427300005365
 10
116.6771158562474
 20
-136.5057074311513
 10
116.9902750358566
 20
-136.5057074311513
 10
117.3075683300481
 20
-136.5057074311513
 10
117.5421793325936
 20
-136.7299831472411
 10
117.5421793325936
 20
-137.032462530846
 97
        0
 97
        1
330
107
 75
     2
 76
     1
 98
        1
 10
0.0
 20
0.0
450
        0
451
        0
460
0.0
461
0.0
452
        0
462
0.0
453
        0
470

  0
ENDBLK
  5
100
330
FD
100
AcDbEntity
  8
0
100
AcDbBlockEnd
  0
BLOCK
  5
10D
330
10B
100
AcDbEntity
  8
0
100
AcDbBlockBegin
  2
Block_14
 70
     0
 10
0.0
 20
0.0
 30
0.0
  3
Block_14
  1

  0
INSERT
  5
110
330
10B
100
AcDbEntity
  8
レイヤー 1
100
AcDbBlockReference
  2
Block_15
 10
0.0
 20
0.0
 30
0.0
  0
ENDBLK
  5
10E
330
10B
100
AcDbEntity
  8
0
100
AcDbBlockEnd
  0
BLOCK
  5
111
330
10F
100
AcDbEntity
  8
0
100
AcDbBlockBegin
  2
Block_15
 70
     0
 10
0.0
 20
0.0
 30
0.0
  3
Block_15
  1

  0
SPLINE
  5
113
330
10F
100
AcDbEntity
  8
レイヤー 1
100
AcDbSpline
210
0.0
220
0.0
230
1.0
 70
    11
 71
     3
 72
    26
 73
    22
 74
     0
 42
0.0000000001
 43
0.0000000001
 40
0.0
 40
0.0
 40
0.0
 40
0.0
 40
1.0
 40
1.0
 40
1.0
 40
2.0
 40
2.0
 40
2.0
 40
3.0
 40
3.0
 40
3.0
 40
4.0
 40
4.0
 40
4.0
 40
5.0
 40
5.0
 40
5.0
 40
6.0
 40
6.0
 40
6.0
 40
7.0
 40
7.0
 40
7.0
 40
7.0
 10
117.4922254480575
 20
-147.1558756142527
 30
0.0
 10
117.4922254480575
 20
-147.1558756142527
 30
0.0
 10
116.3880723450349
 20
-147.1558756142527
 30
0.0
 10
116.3880723450349
 20
-147.1558756142527
 30
0.0
 10
116.3880723450349
 20
-147.1558756142527
 30
0.0
 10
116.3880723450349
 20
-147.4859157617396
 30
0.0
 10
116.3880723450349
 20
-147.4859157617396
 30
0.0
 10
116.3880723450349
 20
-147.4859157617396
 30
0.0
 10
116.2399332391692
 20
-147.4859157617396
 30
0.0
 10
116.2399332391692
 20
-147.4859157617396
 30
0.0
 10
116.2251193285826
 20
-147.1538085569615
 30
0.0
 10
116.0621663121303
 20
-147.1072997679106
 30
0.0
 10
115.94778914202
 20
-147.0776719467375
 30
0.0
 10
115.94778914202
 20
-147.0776719467375
 30
0.0
 10
115.94778914202
 20
-146.9315998981629
 30
0.0
 10
115.94778914202
 20
-146.9315998981629
 30
0.0
 10
115.94778914202
 20
-146.9315998981629
 30
0.0
 10
117.4922254480575
 20
-146.9315998981629
 30
0.0
 10
117.4922254480575
 20
-146.9315998981629
 30
0.0
 10
117.4922254480575
 20
-146.9315998981629
 30
0.0
 10
117.4922254480575
 20
-147.1558756142527
 30
0.0
 10
117.4922254480575
 20
-147.1558756142527
 30
0.0
  0
HATCH
  5
114
330
10F
100
AcDbEntity
  8
レイヤー 1
 62
   250
420
  2299925
440
 33554687
100
AcDbHatch
 10
0.0
 20
0.0
 30
0.0
210
0.0
220
0.0
230
1.0
  2
SOLID
 70
     1
 71
     1
 91
        1
 92
        1
 93
        1
 72
     4
 94
        3
 73
     0
 74
     0
 95
       26
 96
       22
 40
0.0
 40
0.0
 40
0.0
 40
0.0
 40
1.0
 40
1.0
 40
1.0
 40
2.0
 40
2.0
 40
2.0
 40
3.0
 40
3.0
 40
3.0
 40
4.0
 40
4.0
 40
4.0
 40
5.0
 40
5.0
 40
5.0
 40
6.0
 40
6.0
 40
6.0
 40
7.0
 40
7.0
 40
7.0
 40
7.0
 10
117.4922254480575
 20
-147.1558756142527
 10
117.4922254480575
 20
-147.1558756142527
 10
116.3880723450349
 20
-147.1558756142527
 10
116.3880723450349
 20
-147.1558756142527
 10
116.3880723450349
 20
-147.1558756142527
 10
116.3880723450349
 20
-147.4859157617396
 10
116.3880723450349
 20
-147.4859157617396
 10
116.3880723450349
 20
-147.4859157617396
 10
116.2399332391692
 20
-147.4859157617396
 10
116.2399332391692
 20
-147.4859157617396
 10
116.2251193285826
 20
-147.1538085569615
 10
116.0621663121303
 20
-147.1072997679106
 10
115.94778914202
 20
-147.0776719467375
 10
115.94778914202
 20
-147.0776719467375
 10
115.94778914202
 20
-146.9315998981629
 10
115.94778914202
 20
-146.9315998981629
 10
115.94778914202
 20
-146.9315998981629
 10
117.4922254480575
 20
-146.9315998981629
 10
117.4922254480575
 20
-146.9315998981629
 10
117.4922254480575
 20
-146.9315998981629
 10
117.4922254480575
 20
-147.1558756142527
 10
117.4922254480575
 20
-147.1558756142527
 97
        0
 97
        1
330
113
 75
     2
 76
     1
 98
        1
 10
0.0
 20
0.0
450
        0
451
        0
460
0.0
461
0.0
452
        0
462
0.0
453
        0
470

  0
SPLINE
  5
115
330
10F
100
AcDbEntity
  8
レイヤー 1
100
AcDbSpline
210
0.0
220
0.0
230
1.0
 70
    11
 71
     3
 72
    26
 73
    22
 74
     0
 42
0.0000000001
 43
0.0000000001
 40
0.0
 40
0.0
 40
0.0
 40
0.0
 40
1.0
 40
1.0
 40
1.0
 40
2.0
 40
2.0
 40
2.0
 40
3.0
 40
3.0
 40
3.0
 40
4.0
 40
4.0
 40
4.0
 40
5.0
 40
5.0
 40
5.0
 40
6.0
 40
6.0
 40
6.0
 40
7.0
 40
7.0
 40
7.0
 40
7.0
 10
117.4922254480575
 20
-145.9790309964913
 30
0.0
 10
117.4922254480575
 20
-145.9790309964913
 30
0.0
 10
116.3880723450349
 20
-145.9790309964913
 30
0.0
 10
116.3880723450349
 20
-145.9790309964913
 30
0.0
 10
116.3880723450349
 20
-145.9790309964913
 30
0.0
 10
116.3880723450349
 20
-146.3090711439783
 30
0.0
 10
116.3880723450349
 20
-146.3090711439783
 30
0.0
 10
116.3880723450349
 20
-146.3090711439783
 30
0.0
 10
116.2399332391692
 20
-146.3090711439783
 30
0.0
 10
116.2399332391692
 20
-146.3090711439783
 30
0.0
 10
116.2251193285826
 20
-145.9769639392002
 30
0.0
 10
116.0621663121303
 20
-145.9304551501493
 30
0.0
 10
115.94778914202
 20
-145.9008273289762
 30
0.0
 10
115.94778914202
 20
-145.9008273289762
 30
0.0
 10
115.94778914202
 20
-145.7547552804016
 30
0.0
 10
115.94778914202
 20
-145.7547552804016
 30
0.0
 10
115.94778914202
 20
-145.7547552804016
 30
0.0
 10
117.4922254480575
 20
-145.7547552804016
 30
0.0
 10
117.4922254480575
 20
-145.7547552804016
 30
0.0
 10
117.4922254480575
 20
-145.7547552804016
 30
0.0
 10
117.4922254480575
 20
-145.9790309964913
 30
0.0
 10
117.4922254480575
 20
-145.9790309964913
 30
0.0
  0
HATCH
  5
116
330
10F
100
AcDbEntity
  8
レイヤー 1
 62
   250
420
  2299925
440
 33554687
100
AcDbHatch
 10
0.0
 20
0.0
 30
0.0
210
0.0
220
0.0
230
1.0
  2
SOLID
 70
     1
 71
     1
 91
        1
 92
        1
 93
        1
 72
     4
 94
        3
 73
     0
 74
     0
 95
       26
 96
       22
 40
0.0
 40
0.0
 40
0.0
 40
0.0
 40
1.0
 40
1.0
 40
1.0
 40
2.0
 40
2.0
 40
2.0
 40
3.0
 40
3.0
 40
3.0
 40
4.0
 40
4.0
 40
4.0
 40
5.0
 40
5.0
 40
5.0
 40
6.0
 40
6.0
 40
6.0
 40
7.0
 40
7.0
 40
7.0
 40
7.0
 10
117.4922254480575
 20
-145.9790309964913
 10
117.4922254480575
 20
-145.9790309964913
 10
116.3880723450349
 20
-145.9790309964913
 10
116.3880723450349
 20
-145.9790309964913
 10
116.3880723450349
 20
-145.9790309964913
 10
116.3880723450349
 20
-146.3090711439783
 10
116.3880723450349
 20
-146.3090711439783
 10
116.3880723450349
 20
-146.3090711439783
 10
116.2399332391692
 20
-146.3090711439783
 10
116.2399332391692
 20
-146.3090711439783
 10
116.2251193285826
 20
-145.9769639392002
 10
116.0621663121303
 20
-145.9304551501493
 10
115.94778914202
 20
-145.9008273289762
 10
115.94778914202
 20
-145.9008273289762
 10
115.94778914202
 20
-145.7547552804016
 10
115.94778914202
 20
-145.7547552804016
 10
115.94778914202
 20
-145.7547552804016
 10
117.4922254480575
 20
-145.7547552804016
 10
117.4922254480575
 20
-145.7547552804016
 10
117.4922254480575
 20
-145.7547552804016
 10
117.4922254480575
 20
-145.9790309964913
 10
117.4922254480575
 20
-145.9790309964913
 97
        0
 97
        1
330
115
 75
     2
 76
     1
 98
        1
 10
0.0
 20
0.0
450
        0
451
        0
460
0.0
461
0.0
452
        0
462
0.0
453
        0
470

  0
SPLINE
  5
117
330
10F
100
AcDbEntity
  8
レイヤー 1
100
AcDbSpline
210
0.0
220
0.0
230
1.0
 70
    11
 71
     3
 72
    17
 73
    13
 74
     0
 42
0.0000000001
 43
0.0000000001
 40
0.0
 40
0.0
 40
0.0
 40
0.0
 40
1.0
 40
1.0
 40
1.0
 40
2.0
 40
2.0
 40
2.0
 40
3.0
 40
3.0
 40
3.0
 40
4.0
 40
4.0
 40
4.0
 40
4.0
 10
117.4922254480575
 20
-145.1935492258544
 30
0.0
 10
117.4922254480575
 20
-145.1935492258544
 30
0.0
 10
117.2403889680857
 20
-145.1935492258544
 30
0.0
 10
117.2403889680857
 20
-145.1935492258544
 30
0.0
 10
117.2403889680857
 20
-145.1935492258544
 30
0.0
 10
117.2403889680857
 20
-144.9418850006569
 30
0.0
 10
117.2403889680857
 20
-144.9418850006569
 30
0.0
 10
117.2403889680857
 20
-144.9418850006569
 30
0.0
 10
117.4922254480575
 20
-144.9418850006569
 30
0.0
 10
117.4922254480575
 20
-144.9418850006569
 30
0.0
 10
117.4922254480575
 20
-144.9418850006569
 30
0.0
 10
117.4922254480575
 20
-145.1935492258544
 30
0.0
 10
117.4922254480575
 20
-145.1935492258544
 30
0.0
  0
HATCH
  5
118
330
10F
100
AcDbEntity
  8
レイヤー 1
 62
   250
420
  2299925
440
 33554687
100
AcDbHatch
 10
0.0
 20
0.0
 30
0.0
210
0.0
220
0.0
230
1.0
  2
SOLID
 70
     1
 71
     1
 91
        1
 92
        1
 93
        1
 72
     4
 94
        3
 73
     0
 74
     0
 95
       17
 96
       13
 40
0.0
 40
0.0
 40
0.0
 40
0.0
 40
1.0
 40
1.0
 40
1.0
 40
2.0
 40
2.0
 40
2.0
 40
3.0
 40
3.0
 40
3.0
 40
4.0
 40
4.0
 40
4.0
 40
4.0
 10
117.4922254480575
 20
-145.1935492258544
 10
117.4922254480575
 20
-145.1935492258544
 10
117.2403889680857
 20
-145.1935492258544
 10
117.2403889680857
 20
-145.1935492258544
 10
117.2403889680857
 20
-145.1935492258544
 10
117.2403889680857
 20
-144.9418850006569
 10
117.2403889680857
 20
-144.9418850006569
 10
117.2403889680857
 20
-144.9418850006569
 10
117.4922254480575
 20
-144.9418850006569
 10
117.4922254480575
 20
-144.9418850006569
 10
117.4922254480575
 20
-144.9418850006569
 10
117.4922254480575
 20
-145.1935492258544
 10
117.4922254480575
 20
-145.1935492258544
 97
        0
 97
        1
330
117
 75
     2
 76
     1
 98
        1
 10
0.0
 20
0.0
450
        0
451
        0
460
0.0
461
0.0
452
        0
462
0.0
453
        0
470

  0
SPLINE
  5
119
330
10F
100
AcDbEntity
  8
レイヤー 1
100
AcDbSpline
210
0.0
220
0.0
230
1.0
 70
     9
 71
     3
 72
    44
 73
    40
 74
     0
 42
0.0000000001
 43
0.0000000001
 40
0.0
 40
0.0
 40
0.0
 40
0.0
 40
1.0
 40
1.0
 40
1.0
 40
2.0
 40
2.0
 40
2.0
 40
3.0
 40
3.0
 40
3.0
 40
4.0
 40
4.0
 40
4.0
 40
5.0
 40
5.0
 40
5.0
 40
6.0
 40
6.0
 40
6.0
 40
7.0
 40
7.0
 40
7.0
 40
8.0
 40
8.0
 40
8.0
 40
9.0
 40
9.0
 40
9.0
 40
10.0
 40
10.0
 40
10.0
 40
11.0
 40
11.0
 40
11.0
 40
12.0
 40
12.0
 40
12.0
 40
13.0
 40
13.0
 40
13.0
 40
13.0
 10
116.9103488205988
 20
-144.1123060078087
 30
0.0
 10
117.0691677224688
 20
-144.3302082972508
 30
0.0
 10
117.1432372754017
 20
-144.4233981301268
 30
0.0
 10
117.2868977571366
 20
-144.4719739764688
 30
0.0
 10
117.2868977571366
 20
-144.4719739764688
 30
0.0
 10
117.2868977571366
 20
-143.6935546515766
 30
0.0
 10
117.2868977571366
 20
-143.6935546515766
 30
0.0
 10
117.2868977571366
 20
-143.6935546515766
 30
0.0
 10
117.4922254480575
 20
-143.6935546515766
 30
0.0
 10
117.4922254480575
 20
-143.6935546515766
 30
0.0
 10
117.4922254480575
 20
-143.6935546515766
 30
0.0
 10
117.4922254480575
 20
-144.7215711443751
 30
0.0
 10
117.4922254480575
 20
-144.7215711443751
 30
0.0
 10
117.1346245366885
 20
-144.6898762659109
 30
0.0
 10
117.0564208691734
 20
-144.6242471969168
 30
0.0
 10
116.7580756001507
 20
-144.2392577764401
 30
0.0
 10
116.5592935906518
 20
-143.9832871818861
 30
0.0
 10
116.4914252095924
 20
-143.9178303676663
 30
0.0
 10
116.3539658997309
 20
-143.9178303676663
 30
0.0
 10
116.2354546150383
 20
-143.9178303676663
 30
0.0
 10
116.1045409865988
 20
-143.9896606085338
 30
0.0
 10
116.1045409865988
 20
-144.1863755607416
 30
0.0
 10
116.1045409865988
 20
-144.4466525246522
 30
0.0
 10
116.3350178745621
 20
-144.4550930085911
 30
0.0
 10
116.4514621019635
 20
-144.4593993779476
 30
0.0
 10
116.4514621019635
 20
-144.4593993779476
 30
0.0
 10
116.4514621019635
 20
-144.6835028392631
 30
0.0
 10
116.4514621019635
 20
-144.6835028392631
 30
0.0
 10
116.3243380785578
 20
-144.6750623553243
 30
0.0
 10
116.2123724752872
 20
-144.6645548140943
 30
0.0
 10
116.0938611905946
 20
-144.5841118345137
 30
0.0
 10
115.9329752314334
 20
-144.4742132885342
 30
0.0
 10
115.899213295678
 20
-144.2880058775565
 30
0.0
 10
115.899213295678
 20
-144.171561650155
 30
0.0
 10
115.899213295678
 20
-143.8944037183667
 30
0.0
 10
116.0831813945903
 20
-143.6871812249289
 30
0.0
 10
116.3560329570221
 20
-143.6871812249289
 30
0.0
 10
116.5847872972427
 20
-143.6871812249289
 30
0.0
 10
116.6840060472179
 20
-143.803453197556
 30
0.0
 10
116.9103488205988
 20
-144.1123060078087
 30
0.0
  0
HATCH
  5
11A
330
10F
100
AcDbEntity
  8
レイヤー 1
 62
   250
420
  2299925
440
 33554687
100
AcDbHatch
 10
0.0
 20
0.0
 30
0.0
210
0.0
220
0.0
230
1.0
  2
SOLID
 70
     1
 71
     1
 91
        1
 92
        1
 93
        1
 72
     4
 94
        3
 73
     0
 74
     0
 95
       44
 96
       40
 40
0.0
 40
0.0
 40
0.0
 40
0.0
 40
1.0
 40
1.0
 40
1.0
 40
2.0
 40
2.0
 40
2.0
 40
3.0
 40
3.0
 40
3.0
 40
4.0
 40
4.0
 40
4.0
 40
5.0
 40
5.0
 40
5.0
 40
6.0
 40
6.0
 40
6.0
 40
7.0
 40
7.0
 40
7.0
 40
8.0
 40
8.0
 40
8.0
 40
9.0
 40
9.0
 40
9.0
 40
10.0
 40
10.0
 40
10.0
 40
11.0
 40
11.0
 40
11.0
 40
12.0
 40
12.0
 40
12.0
 40
13.0
 40
13.0
 40
13.0
 40
13.0
 10
116.9103488205988
 20
-144.1123060078087
 10
117.0691677224688
 20
-144.3302082972508
 10
117.1432372754017
 20
-144.4233981301268
 10
117.2868977571366
 20
-144.4719739764688
 10
117.2868977571366
 20
-144.4719739764688
 10
117.2868977571366
 20
-143.6935546515766
 10
117.2868977571366
 20
-143.6935546515766
 10
117.2868977571366
 20
-143.6935546515766
 10
117.4922254480575
 20
-143.6935546515766
 10
117.4922254480575
 20
-143.6935546515766
 10
117.4922254480575
 20
-143.6935546515766
 10
117.4922254480575
 20
-144.7215711443751
 10
117.4922254480575
 20
-144.7215711443751
 10
117.1346245366885
 20
-144.6898762659109
 10
117.0564208691734
 20
-144.6242471969168
 10
116.7580756001507
 20
-144.2392577764401
 10
116.5592935906518
 20
-143.9832871818861
 10
116.4914252095924
 20
-143.9178303676663
 10
116.3539658997309
 20
-143.9178303676663
 10
116.2354546150383
 20
-143.9178303676663
 10
116.1045409865988
 20
-143.9896606085338
 10
116.1045409865988
 20
-144.1863755607416
 10
116.1045409865988
 20
-144.4466525246522
 10
116.3350178745621
 20
-144.4550930085911
 10
116.4514621019635
 20
-144.4593993779476
 10
116.4514621019635
 20
-144.4593993779476
 10
116.4514621019635
 20
-144.6835028392631
 10
116.4514621019635
 20
-144.6835028392631
 10
116.3243380785578
 20
-144.6750623553243
 10
116.2123724752872
 20
-144.6645548140943
 10
116.0938611905946
 20
-144.5841118345137
 10
115.9329752314334
 20
-144.4742132885342
 10
115.899213295678
 20
-144.2880058775565
 10
115.899213295678
 20
-144.171561650155
 10
115.899213295678
 20
-143.8944037183667
 10
116.0831813945903
 20
-143.6871812249289
 10
116.3560329570221
 20
-143.6871812249289
 10
116.5847872972427
 20
-143.6871812249289
 10
116.6840060472179
 20
-143.803453197556
 10
116.9103488205988
 20
-144.1123060078087
 97
        0
 97
        1
330
119
 75
     2
 76
     1
 98
        1
 10
0.0
 20
0.0
450
        0
451
        0
460
0.0
461
0.0
452
        0
462
0.0
453
        0
470

  0
ENDBLK
  5
112
330
10F
100
AcDbEntity
  8
0
100
AcDbBlockEnd
  0
BLOCK
  5
11F
330
11D
100
AcDbEntity
  8
0
100
AcDbBlockBegin
  2
Block_16
 70
     0
 10
0.0
 20
0.0
 30
0.0
  3
Block_16
  1

  0
INSERT
  5
122
330
11D
100
AcDbEntity
  8
レイヤー 1
100
AcDbBlockReference
  2
Block_17
 10
0.0
 20
0.0
 30
0.0
  0
ENDBLK
  5
120
330
11D
100
AcDbEntity
  8
0
100
AcDbBlockEnd
  0
BLOCK
  5
123
330
121
100
AcDbEntity
  8
0
100
AcDbBlockBegin
  2
Block_17
 70
     0
 10
0.0
 20
0.0
 30
0.0
  3
Block_17
  1

  0
SPLINE
  5
125
330
121
100
AcDbEntity
  8
レイヤー 1
100
AcDbSpline
210
0.0
220
0.0
230
1.0
 70
     9
 71
     3
 72
    26
 73
    22
 74
     0
 42
0.0000000001
 43
0.0000000001
 40
0.0
 40
0.0
 40
0.0
 40
0.0
 40
1.0
 40
1.0
 40
1.0
 40
2.0
 40
2.0
 40
2.0
 40
3.0
 40
3.0
 40
3.0
 40
4.0
 40
4.0
 40
4.0
 40
5.0
 40
5.0
 40
5.0
 40
6.0
 40
6.0
 40
6.0
 40
7.0
 40
7.0
 40
7.0
 40
7.0
 10
117.4922254480575
 20
-153.9351345101273
 30
0.0
 10
117.4922254480575
 20
-153.9351345101273
 30
0.0
 10
117.4922254480575
 20
-154.171812569964
 30
0.0
 10
117.4922254480575
 20
-154.171812569964
 30
0.0
 10
117.1832003830306
 20
-154.1466633729216
 30
0.0
 10
116.665058022049
 20
-153.9540825352962
 30
0.0
 10
116.1593180048143
 20
-153.5479057775852
 30
0.0
 10
116.1593180048143
 20
-153.5479057775852
 30
0.0
 10
116.1593180048143
 20
-154.385752999598
 30
0.0
 10
116.1593180048143
 20
-154.385752999598
 30
0.0
 10
116.1593180048143
 20
-154.385752999598
 30
0.0
 10
115.94778914202
 20
-154.385752999598
 30
0.0
 10
115.94778914202
 20
-154.385752999598
 30
0.0
 10
115.94778914202
 20
-154.385752999598
 30
0.0
 10
115.94778914202
 20
-153.3108832082
 30
0.0
 10
115.94778914202
 20
-153.3108832082
 30
0.0
 10
115.94778914202
 20
-153.3108832082
 30
0.0
 10
116.1593180048143
 20
-153.3108832082
 30
0.0
 10
116.1593180048143
 20
-153.3108832082
 30
0.0
 10
116.4493950446724
 20
-153.6347221838135
 30
0.0
 10
117.0416069585868
 20
-153.9010280648233
 30
0.0
 10
117.4922254480575
 20
-153.9351345101273
 30
0.0
  0
HATCH
  5
126
330
121
100
AcDbEntity
  8
レイヤー 1
 62
   250
420
  2299925
440
 33554687
100
AcDbHatch
 10
0.0
 20
0.0
 30
0.0
210
0.0
220
0.0
230
1.0
  2
SOLID
 70
     1
 71
     1
 91
        1
 92
        1
 93
        1
 72
     4
 94
        3
 73
     0
 74
     0
 95
       26
 96
       22
 40
0.0
 40
0.0
 40
0.0
 40
0.0
 40
1.0
 40
1.0
 40
1.0
 40
2.0
 40
2.0
 40
2.0
 40
3.0
 40
3.0
 40
3.0
 40
4.0
 40
4.0
 40
4.0
 40
5.0
 40
5.0
 40
5.0
 40
6.0
 40
6.0
 40
6.0
 40
7.0
 40
7.0
 40
7.0
 40
7.0
 10
117.4922254480575
 20
-153.9351345101273
 10
117.4922254480575
 20
-153.9351345101273
 10
117.4922254480575
 20
-154.171812569964
 10
117.4922254480575
 20
-154.171812569964
 10
117.1832003830306
 20
-154.1466633729216
 10
116.665058022049
 20
-153.9540825352962
 10
116.1593180048143
 20
-153.5479057775852
 10
116.1593180048143
 20
-153.5479057775852
 10
116.1593180048143
 20
-154.385752999598
 10
116.1593180048143
 20
-154.385752999598
 10
116.1593180048143
 20
-154.385752999598
 10
115.94778914202
 20
-154.385752999598
 10
115.94778914202
 20
-154.385752999598
 10
115.94778914202
 20
-154.385752999598
 10
115.94778914202
 20
-153.3108832082
 10
115.94778914202
 20
-153.3108832082
 10
115.94778914202
 20
-153.3108832082
 10
116.1593180048143
 20
-153.3108832082
 10
116.1593180048143
 20
-153.3108832082
 10
116.4493950446724
 20
-153.6347221838135
 10
117.0416069585868
 20
-153.9010280648233
 10
117.4922254480575
 20
-153.9351345101273
 97
        0
 97
        1
330
125
 75
     2
 76
     1
 98
        1
 10
0.0
 20
0.0
450
        0
451
        0
460
0.0
461
0.0
452
        0
462
0.0
453
        0
470

  0
SPLINE
  5
127
330
121
100
AcDbEntity
  8
レイヤー 1
100
AcDbSpline
210
0.0
220
0.0
230
1.0
 70
    11
 71
     3
 72
    17
 73
    13
 74
     0
 42
0.0000000001
 43
0.0000000001
 40
0.0
 40
0.0
 40
0.0
 40
0.0
 40
1.0
 40
1.0
 40
1.0
 40
2.0
 40
2.0
 40
2.0
 40
3.0
 40
3.0
 40
3.0
 40
4.0
 40
4.0
 40
4.0
 40
4.0
 10
117.4922254480575
 20
-153.1093451223129
 30
0.0
 10
117.4922254480575
 20
-153.1093451223129
 30
0.0
 10
117.2403889680857
 20
-153.1093451223129
 30
0.0
 10
117.2403889680857
 20
-153.1093451223129
 30
0.0
 10
117.2403889680857
 20
-153.1093451223129
 30
0.0
 10
117.2403889680857
 20
-152.8575086423411
 30
0.0
 10
117.2403889680857
 20
-152.8575086423411
 30
0.0
 10
117.2403889680857
 20
-152.8575086423411
 30
0.0
 10
117.4922254480575
 20
-152.8575086423411
 30
0.0
 10
117.4922254480575
 20
-152.8575086423411
 30
0.0
 10
117.4922254480575
 20
-152.8575086423411
 30
0.0
 10
117.4922254480575
 20
-153.1093451223129
 30
0.0
 10
117.4922254480575
 20
-153.1093451223129
 30
0.0
  0
HATCH
  5
128
330
121
100
AcDbEntity
  8
レイヤー 1
 62
   250
420
  2299925
440
 33554687
100
AcDbHatch
 10
0.0
 20
0.0
 30
0.0
210
0.0
220
0.0
230
1.0
  2
SOLID
 70
     1
 71
     1
 91
        1
 92
        1
 93
        1
 72
     4
 94
        3
 73
     0
 74
     0
 95
       17
 96
       13
 40
0.0
 40
0.0
 40
0.0
 40
0.0
 40
1.0
 40
1.0
 40
1.0
 40
2.0
 40
2.0
 40
2.0
 40
3.0
 40
3.0
 40
3.0
 40
4.0
 40
4.0
 40
4.0
 40
4.0
 10
117.4922254480575
 20
-153.1093451223129
 10
117.4922254480575
 20
-153.1093451223129
 10
117.2403889680857
 20
-153.1093451223129
 10
117.2403889680857
 20
-153.1093451223129
 10
117.2403889680857
 20
-153.1093451223129
 10
117.2403889680857
 20
-152.8575086423411
 10
117.2403889680857
 20
-152.8575086423411
 10
117.2403889680857
 20
-152.8575086423411
 10
117.4922254480575
 20
-152.8575086423411
 10
117.4922254480575
 20
-152.8575086423411
 10
117.4922254480575
 20
-152.8575086423411
 10
117.4922254480575
 20
-153.1093451223129
 10
117.4922254480575
 20
-153.1093451223129
 97
        0
 97
        1
330
127
 75
     2
 76
     1
 98
        1
 10
0.0
 20
0.0
450
        0
451
        0
460
0.0
461
0.0
452
        0
462
0.0
453
        0
470

  0
SPLINE
  5
129
330
121
100
AcDbEntity
  8
レイヤー 1
100
AcDbSpline
210
0.0
220
0.0
230
1.0
 70
    11
 71
     3
 72
    14
 73
    10
 74
     0
 42
0.0000000001
 43
0.0000000001
 40
0.0
 40
0.0
 40
0.0
 40
0.0
 40
1.0
 40
1.0
 40
1.0
 40
2.0
 40
2.0
 40
2.0
 40
3.0
 40
3.0
 40
3.0
 40
3.0
 10
116.2905761428023
 20
-152.006914567033
 30
0.0
 10
116.2905761428023
 20
-152.006914567033
 30
0.0
 10
116.9465223231939
 20
-152.4637342283771
 30
0.0
 10
116.9465223231939
 20
-152.4637342283771
 30
0.0
 10
116.9465223231939
 20
-152.4637342283771
 30
0.0
 10
116.9465223231939
 20
-152.006914567033
 30
0.0
 10
116.9465223231939
 20
-152.006914567033
 30
0.0
 10
116.9465223231939
 20
-152.006914567033
 30
0.0
 10
116.2905761428023
 20
-152.006914567033
 30
0.0
 10
116.2905761428023
 20
-152.006914567033
 30
0.0
  0
SPLINE
  5
12A
330
121
100
AcDbEntity
  8
レイヤー 1
100
AcDbSpline
210
0.0
220
0.0
230
1.0
 70
    11
 71
     3
 72
    38
 73
    34
 74
     0
 42
0.0000000001
 43
0.0000000001
 40
0.0
 40
0.0
 40
0.0
 40
0.0
 40
1.0
 40
1.0
 40
1.0
 40
2.0
 40
2.0
 40
2.0
 40
3.0
 40
3.0
 40
3.0
 40
4.0
 40
4.0
 40
4.0
 40
5.0
 40
5.0
 40
5.0
 40
6.0
 40
6.0
 40
6.0
 40
7.0
 40
7.0
 40
7.0
 40
8.0
 40
8.0
 40
8.0
 40
9.0
 40
9.0
 40
9.0
 40
10.0
 40
10.0
 40
10.0
 40
11.0
 40
11.0
 40
11.0
 40
11.0
 10
117.1453043326928
 20
-151.7891845323652
 30
0.0
 10
117.1453043326928
 20
-151.7891845323652
 30
0.0
 10
117.4922254480575
 20
-151.7891845323652
 30
0.0
 10
117.4922254480575
 20
-151.7891845323652
 30
0.0
 10
117.4922254480575
 20
-151.7891845323652
 30
0.0
 10
117.4922254480575
 20
-152.006914567033
 30
0.0
 10
117.4922254480575
 20
-152.006914567033
 30
0.0
 10
117.4922254480575
 20
-152.006914567033
 30
0.0
 10
117.1453043326928
 20
-152.006914567033
 30
0.0
 10
117.1453043326928
 20
-152.006914567033
 30
0.0
 10
117.1453043326928
 20
-152.006914567033
 30
0.0
 10
117.1453043326928
 20
-152.6628607474245
 30
0.0
 10
117.1453043326928
 20
-152.6628607474245
 30
0.0
 10
117.1453043326928
 20
-152.6628607474245
 30
0.0
 10
116.921028616603
 20
-152.6628607474245
 30
0.0
 10
116.921028616603
 20
-152.6628607474245
 30
0.0
 10
116.921028616603
 20
-152.6628607474245
 30
0.0
 10
115.94778914202
 20
-151.9838324272818
 30
0.0
 10
115.94778914202
 20
-151.9838324272818
 30
0.0
 10
115.94778914202
 20
-151.9838324272818
 30
0.0
 10
115.94778914202
 20
-151.7891845323652
 30
0.0
 10
115.94778914202
 20
-151.7891845323652
 30
0.0
 10
115.94778914202
 20
-151.7891845323652
 30
0.0
 10
116.9465223231939
 20
-151.7891845323652
 30
0.0
 10
116.9465223231939
 20
-151.7891845323652
 30
0.0
 10
116.9465223231939
 20
-151.7891845323652
 30
0.0
 10
116.9465223231939
 20
-151.5817897841531
 30
0.0
 10
116.9465223231939
 20
-151.5817897841531
 30
0.0
 10
116.9465223231939
 20
-151.5817897841531
 30
0.0
 10
117.1453043326928
 20
-151.5817897841531
 30
0.0
 10
117.1453043326928
 20
-151.5817897841531
 30
0.0
 10
117.1453043326928
 20
-151.5817897841531
 30
0.0
 10
117.1453043326928
 20
-151.7891845323652
 30
0.0
 10
117.1453043326928
 20
-151.7891845323652
 30
0.0
  0
HATCH
  5
12B
330
121
100
AcDbEntity
  8
レイヤー 1
 62
   250
420
  2299925
440
 33554687
100
AcDbHatch
 10
0.0
 20
0.0
 30
0.0
210
0.0
220
0.0
230
1.0
  2
SOLID
 70
     1
 71
     1
 91
        2
 92
        1
 93
        1
 72
     4
 94
        3
 73
     0
 74
     0
 95
       14
 96
       10
 40
0.0
 40
0.0
 40
0.0
 40
0.0
 40
1.0
 40
1.0
 40
1.0
 40
2.0
 40
2.0
 40
2.0
 40
3.0
 40
3.0
 40
3.0
 40
3.0
 10
116.2905761428023
 20
-152.006914567033
 10
116.2905761428023
 20
-152.006914567033
 10
116.9465223231939
 20
-152.4637342283771
 10
116.9465223231939
 20
-152.4637342283771
 10
116.9465223231939
 20
-152.4637342283771
 10
116.9465223231939
 20
-152.006914567033
 10
116.9465223231939
 20
-152.006914567033
 10
116.9465223231939
 20
-152.006914567033
 10
116.2905761428023
 20
-152.006914567033
 10
116.2905761428023
 20
-152.006914567033
 97
        0
 97
        1
330
129
 92
        1
 93
        1
 72
     4
 94
        3
 73
     0
 74
     0
 95
       38
 96
       34
 40
0.0
 40
0.0
 40
0.0
 40
0.0
 40
1.0
 40
1.0
 40
1.0
 40
2.0
 40
2.0
 40
2.0
 40
3.0
 40
3.0
 40
3.0
 40
4.0
 40
4.0
 40
4.0
 40
5.0
 40
5.0
 40
5.0
 40
6.0
 40
6.0
 40
6.0
 40
7.0
 40
7.0
 40
7.0
 40
8.0
 40
8.0
 40
8.0
 40
9.0
 40
9.0
 40
9.0
 40
10.0
 40
10.0
 40
10.0
 40
11.0
 40
11.0
 40
11.0
 40
11.0
 10
117.1453043326928
 20
-151.7891845323652
 10
117.1453043326928
 20
-151.7891845323652
 10
117.4922254480575
 20
-151.7891845323652
 10
117.4922254480575
 20
-151.7891845323652
 10
117.4922254480575
 20
-151.7891845323652
 10
117.4922254480575
 20
-152.006914567033
 10
117.4922254480575
 20
-152.006914567033
 10
117.4922254480575
 20
-152.006914567033
 10
117.1453043326928
 20
-152.006914567033
 10
117.1453043326928
 20
-152.006914567033
 10
117.1453043326928
 20
-152.006914567033
 10
117.1453043326928
 20
-152.6628607474245
 10
117.1453043326928
 20
-152.6628607474245
 10
117.1453043326928
 20
-152.6628607474245
 10
116.921028616603
 20
-152.6628607474245
 10
116.921028616603
 20
-152.6628607474245
 10
116.921028616603
 20
-152.6628607474245
 10
115.94778914202
 20
-151.9838324272818
 10
115.94778914202
 20
-151.9838324272818
 10
115.94778914202
 20
-151.9838324272818
 10
115.94778914202
 20
-151.7891845323652
 10
115.94778914202
 20
-151.7891845323652
 10
115.94778914202
 20
-151.7891845323652
 10
116.9465223231939
 20
-151.7891845323652
 10
116.9465223231939
 20
-151.7891845323652
 10
116.9465223231939
 20
-151.7891845323652
 10
116.9465223231939
 20
-151.5817897841531
 10
116.9465223231939
 20
-151.5817897841531
 10
116.9465223231939
 20
-151.5817897841531
 10
117.1453043326928
 20
-151.5817897841531
 10
117.1453043326928
 20
-151.5817897841531
 10
117.1453043326928
 20
-151.5817897841531
 10
117.1453043326928
 20
-151.7891845323652
 10
117.1453043326928
 20
-151.7891845323652
 97
        0
 97
        1
330
12A
 75
     2
 76
     1
 98
        1
 10
0.0
 20
0.0
450
        0
451
        0
460
0.0
461
0.0
452
        0
462
0.0
453
        0
470

  0
ENDBLK
  5
124
330
121
100
AcDbEntity
  8
0
100
AcDbBlockEnd
  0
BLOCK
  5
131
330
12F
100
AcDbEntity
  8
0
100
AcDbBlockBegin
  2
Block_18
 70
     0
 10
0.0
 20
0.0
 30
0.0
  3
Block_18
  1

  0
INSERT
  5
134
330
12F
100
AcDbEntity
  8
レイヤー 1
100
AcDbBlockReference
  2
Block_19
 10
0.0
 20
0.0
 30
0.0
  0
ENDBLK
  5
132
330
12F
100
AcDbEntity
  8
0
100
AcDbBlockEnd
  0
BLOCK
  5
135
330
133
100
AcDbEntity
  8
0
100
AcDbBlockBegin
  2
Block_19
 70
     0
 10
0.0
 20
0.0
 30
0.0
  3
Block_19
  1

  0
SPLINE
  5
137
330
133
100
AcDbEntity
  8
レイヤー 1
100
AcDbSpline
210
0.0
220
0.0
230
1.0
 70
    11
 71
     3
 72
    26
 73
    22
 74
     0
 42
0.0000000001
 43
0.0000000001
 40
0.0
 40
0.0
 40
0.0
 40
0.0
 40
1.0
 40
1.0
 40
1.0
 40
2.0
 40
2.0
 40
2.0
 40
3.0
 40
3.0
 40
3.0
 40
4.0
 40
4.0
 40
4.0
 40
5.0
 40
5.0
 40
5.0
 40
6.0
 40
6.0
 40
6.0
 40
7.0
 40
7.0
 40
7.0
 40
7.0
 10
117.4922254480575
 20
-161.9797769777342
 30
0.0
 10
117.4922254480575
 20
-161.9797769777342
 30
0.0
 10
116.3880723450349
 20
-161.9797769777342
 30
0.0
 10
116.3880723450349
 20
-161.9797769777342
 30
0.0
 10
116.3880723450349
 20
-161.9797769777342
 30
0.0
 10
116.3880723450349
 20
-162.3098171252211
 30
0.0
 10
116.3880723450349
 20
-162.3098171252211
 30
0.0
 10
116.3880723450349
 20
-162.3098171252211
 30
0.0
 10
116.2399332391692
 20
-162.3098171252211
 30
0.0
 10
116.2399332391692
 20
-162.3098171252211
 30
0.0
 10
116.2251193285826
 20
-161.9777099204431
 30
0.0
 10
116.0621663121303
 20
-161.9312011313922
 30
0.0
 10
115.94778914202
 20
-161.901573310219
 30
0.0
 10
115.94778914202
 20
-161.901573310219
 30
0.0
 10
115.94778914202
 20
-161.7555012616444
 30
0.0
 10
115.94778914202
 20
-161.7555012616444
 30
0.0
 10
115.94778914202
 20
-161.7555012616444
 30
0.0
 10
117.4922254480575
 20
-161.7555012616444
 30
0.0
 10
117.4922254480575
 20
-161.7555012616444
 30
0.0
 10
117.4922254480575
 20
-161.7555012616444
 30
0.0
 10
117.4922254480575
 20
-161.9797769777342
 30
0.0
 10
117.4922254480575
 20
-161.9797769777342
 30
0.0
  0
HATCH
  5
138
330
133
100
AcDbEntity
  8
レイヤー 1
 62
   250
420
  2299925
440
 33554687
100
AcDbHatch
 10
0.0
 20
0.0
 30
0.0
210
0.0
220
0.0
230
1.0
  2
SOLID
 70
     1
 71
     1
 91
        1
 92
        1
 93
        1
 72
     4
 94
        3
 73
     0
 74
     0
 95
       26
 96
       22
 40
0.0
 40
0.0
 40
0.0
 40
0.0
 40
1.0
 40
1.0
 40
1.0
 40
2.0
 40
2.0
 40
2.0
 40
3.0
 40
3.0
 40
3.0
 40
4.0
 40
4.0
 40
4.0
 40
5.0
 40
5.0
 40
5.0
 40
6.0
 40
6.0
 40
6.0
 40
7.0
 40
7.0
 40
7.0
 40
7.0
 10
117.4922254480575
 20
-161.9797769777342
 10
117.4922254480575
 20
-161.9797769777342
 10
116.3880723450349
 20
-161.9797769777342
 10
116.3880723450349
 20
-161.9797769777342
 10
116.3880723450349
 20
-161.9797769777342
 10
116.3880723450349
 20
-162.3098171252211
 10
116.3880723450349
 20
-162.3098171252211
 10
116.3880723450349
 20
-162.3098171252211
 10
116.2399332391692
 20
-162.3098171252211
 10
116.2399332391692
 20
-162.3098171252211
 10
116.2251193285826
 20
-161.9777099204431
 10
116.0621663121303
 20
-161.9312011313922
 10
115.94778914202
 20
-161.901573310219
 10
115.94778914202
 20
-161.901573310219
 10
115.94778914202
 20
-161.7555012616444
 10
115.94778914202
 20
-161.7555012616444
 10
115.94778914202
 20
-161.7555012616444
 10
117.4922254480575
 20
-161.7555012616444
 10
117.4922254480575
 20
-161.7555012616444
 10
117.4922254480575
 20
-161.7555012616444
 10
117.4922254480575
 20
-161.9797769777342
 10
117.4922254480575
 20
-161.9797769777342
 97
        0
 97
        1
330
137
 75
     2
 76
     1
 98
        1
 10
0.0
 20
0.0
450
        0
451
        0
460
0.0
461
0.0
452
        0
462
0.0
453
        0
470

  0
SPLINE
  5
139
330
133
100
AcDbEntity
  8
レイヤー 1
100
AcDbSpline
210
0.0
220
0.0
230
1.0
 70
    11
 71
     3
 72
    26
 73
    22
 74
     0
 42
0.0000000001
 43
0.0000000001
 40
0.0
 40
0.0
 40
0.0
 40
0.0
 40
1.0
 40
1.0
 40
1.0
 40
2.0
 40
2.0
 40
2.0
 40
3.0
 40
3.0
 40
3.0
 40
4.0
 40
4.0
 40
4.0
 40
5.0
 40
5.0
 40
5.0
 40
6.0
 40
6.0
 40
6.0
 40
7.0
 40
7.0
 40
7.0
 40
7.0
 10
117.4922254480575
 20
-160.8029323599729
 30
0.0
 10
117.4922254480575
 20
-160.8029323599729
 30
0.0
 10
116.3880723450349
 20
-160.8029323599729
 30
0.0
 10
116.3880723450349
 20
-160.8029323599729
 30
0.0
 10
116.3880723450349
 20
-160.8029323599729
 30
0.0
 10
116.3880723450349
 20
-161.1329725074598
 30
0.0
 10
116.3880723450349
 20
-161.1329725074598
 30
0.0
 10
116.3880723450349
 20
-161.1329725074598
 30
0.0
 10
116.2399332391692
 20
-161.1329725074598
 30
0.0
 10
116.2399332391692
 20
-161.1329725074598
 30
0.0
 10
116.2251193285826
 20
-160.8008653026817
 30
0.0
 10
116.0621663121303
 20
-160.7543565136308
 30
0.0
 10
115.94778914202
 20
-160.7247286924577
 30
0.0
 10
115.94778914202
 20
-160.7247286924577
 30
0.0
 10
115.94778914202
 20
-160.5786566438831
 30
0.0
 10
115.94778914202
 20
-160.5786566438831
 30
0.0
 10
115.94778914202
 20
-160.5786566438831
 30
0.0
 10
117.4922254480575
 20
-160.5786566438831
 30
0.0
 10
117.4922254480575
 20
-160.5786566438831
 30
0.0
 10
117.4922254480575
 20
-160.5786566438831
 30
0.0
 10
117.4922254480575
 20
-160.8029323599729
 30
0.0
 10
117.4922254480575
 20
-160.8029323599729
 30
0.0
  0
HATCH
  5
13A
330
133
100
AcDbEntity
  8
レイヤー 1
 62
   250
420
  2299925
440
 33554687
100
AcDbHatch
 10
0.0
 20
0.0
 30
0.0
210
0.0
220
0.0
230
1.0
  2
SOLID
 70
     1
 71
     1
 91
        1
 92
        1
 93
        1
 72
     4
 94
        3
 73
     0
 74
     0
 95
       26
 96
       22
 40
0.0
 40
0.0
 40
0.0
 40
0.0
 40
1.0
 40
1.0
 40
1.0
 40
2.0
 40
2.0
 40
2.0
 40
3.0
 40
3.0
 40
3.0
 40
4.0
 40
4.0
 40
4.0
 40
5.0
 40
5.0
 40
5.0
 40
6.0
 40
6.0
 40
6.0
 40
7.0
 40
7.0
 40
7.0
 40
7.0
 10
117.4922254480575
 20
-160.8029323599729
 10
117.4922254480575
 20
-160.8029323599729
 10
116.3880723450349
 20
-160.8029323599729
 10
116.3880723450349
 20
-160.8029323599729
 10
116.3880723450349
 20
-160.8029323599729
 10
116.3880723450349
 20
-161.1329725074598
 10
116.3880723450349
 20
-161.1329725074598
 10
116.3880723450349
 20
-161.1329725074598
 10
116.2399332391692
 20
-161.1329725074598
 10
116.2399332391692
 20
-161.1329725074598
 10
116.2251193285826
 20
-160.8008653026817
 10
116.0621663121303
 20
-160.7543565136308
 10
115.94778914202
 20
-160.7247286924577
 10
115.94778914202
 20
-160.7247286924577
 10
115.94778914202
 20
-160.5786566438831
 10
115.94778914202
 20
-160.5786566438831
 10
115.94778914202
 20
-160.5786566438831
 10
117.4922254480575
 20
-160.5786566438831
 10
117.4922254480575
 20
-160.5786566438831
 10
117.4922254480575
 20
-160.5786566438831
 10
117.4922254480575
 20
-160.8029323599729
 10
117.4922254480575
 20
-160.8029323599729
 97
        0
 97
        1
330
139
 75
     2
 76
     1
 98
        1
 10
0.0
 20
0.0
450
        0
451
        0
460
0.0
461
0.0
452
        0
462
0.0
453
        0
470

  0
SPLINE
  5
13B
330
133
100
AcDbEntity
  8
レイヤー 1
100
AcDbSpline
210
0.0
220
0.0
230
1.0
 70
    11
 71
     3
 72
    17
 73
    13
 74
     0
 42
0.0000000001
 43
0.0000000001
 40
0.0
 40
0.0
 40
0.0
 40
0.0
 40
1.0
 40
1.0
 40
1.0
 40
2.0
 40
2.0
 40
2.0
 40
3.0
 40
3.0
 40
3.0
 40
4.0
 40
4.0
 40
4.0
 40
4.0
 10
117.4922254480575
 20
-160.0174505893359
 30
0.0
 10
117.4922254480575
 20
-160.0174505893359
 30
0.0
 10
117.2403889680857
 20
-160.0174505893359
 30
0.0
 10
117.2403889680857
 20
-160.0174505893359
 30
0.0
 10
117.2403889680857
 20
-160.0174505893359
 30
0.0
 10
117.2403889680857
 20
-159.7656141093641
 30
0.0
 10
117.2403889680857
 20
-159.7656141093641
 30
0.0
 10
117.2403889680857
 20
-159.7656141093641
 30
0.0
 10
117.4922254480575
 20
-159.7656141093641
 30
0.0
 10
117.4922254480575
 20
-159.7656141093641
 30
0.0
 10
117.4922254480575
 20
-159.7656141093641
 30
0.0
 10
117.4922254480575
 20
-160.0174505893359
 30
0.0
 10
117.4922254480575
 20
-160.0174505893359
 30
0.0
  0
HATCH
  5
13C
330
133
100
AcDbEntity
  8
レイヤー 1
 62
   250
420
  2299925
440
 33554687
100
AcDbHatch
 10
0.0
 20
0.0
 30
0.0
210
0.0
220
0.0
230
1.0
  2
SOLID
 70
     1
 71
     1
 91
        1
 92
        1
 93
        1
 72
     4
 94
        3
 73
     0
 74
     0
 95
       17
 96
       13
 40
0.0
 40
0.0
 40
0.0
 40
0.0
 40
1.0
 40
1.0
 40
1.0
 40
2.0
 40
2.0
 40
2.0
 40
3.0
 40
3.0
 40
3.0
 40
4.0
 40
4.0
 40
4.0
 40
4.0
 10
117.4922254480575
 20
-160.0174505893359
 10
117.4922254480575
 20
-160.0174505893359
 10
117.2403889680857
 20
-160.0174505893359
 10
117.2403889680857
 20
-160.0174505893359
 10
117.2403889680857
 20
-160.0174505893359
 10
117.2403889680857
 20
-159.7656141093641
 10
117.2403889680857
 20
-159.7656141093641
 10
117.2403889680857
 20
-159.7656141093641
 10
117.4922254480575
 20
-159.7656141093641
 10
117.4922254480575
 20
-159.7656141093641
 10
117.4922254480575
 20
-159.7656141093641
 10
117.4922254480575
 20
-160.0174505893359
 10
117.4922254480575
 20
-160.0174505893359
 97
        0
 97
        1
330
13B
 75
     2
 76
     1
 98
        1
 10
0.0
 20
0.0
450
        0
451
        0
460
0.0
461
0.0
452
        0
462
0.0
453
        0
470

  0
SPLINE
  5
13D
330
133
100
AcDbEntity
  8
レイヤー 1
100
AcDbSpline
210
0.0
220
0.0
230
1.0
 70
    11
 71
     3
 72
    14
 73
    10
 74
     0
 42
0.0000000001
 43
0.0000000001
 40
0.0
 40
0.0
 40
0.0
 40
0.0
 40
1.0
 40
1.0
 40
1.0
 40
2.0
 40
2.0
 40
2.0
 40
3.0
 40
3.0
 40
3.0
 40
3.0
 10
116.2905761428023
 20
-158.915020034056
 30
0.0
 10
116.2905761428023
 20
-158.915020034056
 30
0.0
 10
116.9465223231939
 20
-159.3721842049486
 30
0.0
 10
116.9465223231939
 20
-159.3721842049486
 30
0.0
 10
116.9465223231939
 20
-159.3721842049486
 30
0.0
 10
116.9465223231939
 20
-158.915020034056
 30
0.0
 10
116.9465223231939
 20
-158.915020034056
 30
0.0
 10
116.9465223231939
 20
-158.915020034056
 30
0.0
 10
116.2905761428023
 20
-158.915020034056
 30
0.0
 10
116.2905761428023
 20
-158.915020034056
 30
0.0
  0
SPLINE
  5
13E
330
133
100
AcDbEntity
  8
レイヤー 1
100
AcDbSpline
210
0.0
220
0.0
230
1.0
 70
    11
 71
     3
 72
    38
 73
    34
 74
     0
 42
0.0000000001
 43
0.0000000001
 40
0.0
 40
0.0
 40
0.0
 40
0.0
 40
1.0
 40
1.0
 40
1.0
 40
2.0
 40
2.0
 40
2.0
 40
3.0
 40
3.0
 40
3.0
 40
4.0
 40
4.0
 40
4.0
 40
5.0
 40
5.0
 40
5.0
 40
6.0
 40
6.0
 40
6.0
 40
7.0
 40
7.0
 40
7.0
 40
8.0
 40
8.0
 40
8.0
 40
9.0
 40
9.0
 40
9.0
 40
10.0
 40
10.0
 40
10.0
 40
11.0
 40
11.0
 40
11.0
 40
11.0
 10
117.1453043326928
 20
-158.6972899993881
 30
0.0
 10
117.1453043326928
 20
-158.6972899993881
 30
0.0
 10
117.4922254480575
 20
-158.6972899993881
 30
0.0
 10
117.4922254480575
 20
-158.6972899993881
 30
0.0
 10
117.4922254480575
 20
-158.6972899993881
 30
0.0
 10
117.4922254480575
 20
-158.915020034056
 30
0.0
 10
117.4922254480575
 20
-158.915020034056
 30
0.0
 10
117.4922254480575
 20
-158.915020034056
 30
0.0
 10
117.1453043326928
 20
-158.915020034056
 30
0.0
 10
117.1453043326928
 20
-158.915020034056
 30
0.0
 10
117.1453043326928
 20
-158.915020034056
 30
0.0
 10
117.1453043326928
 20
-159.5709662144475
 30
0.0
 10
117.1453043326928
 20
-159.5709662144475
 30
0.0
 10
117.1453043326928
 20
-159.5709662144475
 30
0.0
 10
116.921028616603
 20
-159.5709662144475
 30
0.0
 10
116.921028616603
 20
-159.5709662144475
 30
0.0
 10
116.921028616603
 20
-159.5709662144475
 30
0.0
 10
115.94778914202
 20
-158.8919378943048
 30
0.0
 10
115.94778914202
 20
-158.8919378943048
 30
0.0
 10
115.94778914202
 20
-158.8919378943048
 30
0.0
 10
115.94778914202
 20
-158.6972899993881
 30
0.0
 10
115.94778914202
 20
-158.6972899993881
 30
0.0
 10
115.94778914202
 20
-158.6972899993881
 30
0.0
 10
116.9465223231939
 20
-158.6972899993881
 30
0.0
 10
116.9465223231939
 20
-158.6972899993881
 30
0.0
 10
116.9465223231939
 20
-158.6972899993881
 30
0.0
 10
116.9465223231939
 20
-158.4898952511761
 30
0.0
 10
116.9465223231939
 20
-158.4898952511761
 30
0.0
 10
116.9465223231939
 20
-158.4898952511761
 30
0.0
 10
117.1453043326928
 20
-158.4898952511761
 30
0.0
 10
117.1453043326928
 20
-158.4898952511761
 30
0.0
 10
117.1453043326928
 20
-158.4898952511761
 30
0.0
 10
117.1453043326928
 20
-158.6972899993881
 30
0.0
 10
117.1453043326928
 20
-158.6972899993881
 30
0.0
  0
HATCH
  5
13F
330
133
100
AcDbEntity
  8
レイヤー 1
 62
   250
420
  2299925
440
 33554687
100
AcDbHatch
 10
0.0
 20
0.0
 30
0.0
210
0.0
220
0.0
230
1.0
  2
SOLID
 70
     1
 71
     1
 91
        2
 92
        1
 93
        1
 72
     4
 94
        3
 73
     0
 74
     0
 95
       14
 96
       10
 40
0.0
 40
0.0
 40
0.0
 40
0.0
 40
1.0
 40
1.0
 40
1.0
 40
2.0
 40
2.0
 40
2.0
 40
3.0
 40
3.0
 40
3.0
 40
3.0
 10
116.2905761428023
 20
-158.915020034056
 10
116.2905761428023
 20
-158.915020034056
 10
116.9465223231939
 20
-159.3721842049486
 10
116.9465223231939
 20
-159.3721842049486
 10
116.9465223231939
 20
-159.3721842049486
 10
116.9465223231939
 20
-158.915020034056
 10
116.9465223231939
 20
-158.915020034056
 10
116.9465223231939
 20
-158.915020034056
 10
116.2905761428023
 20
-158.915020034056
 10
116.2905761428023
 20
-158.915020034056
 97
        0
 97
        1
330
13D
 92
        1
 93
        1
 72
     4
 94
        3
 73
     0
 74
     0
 95
       38
 96
       34
 40
0.0
 40
0.0
 40
0.0
 40
0.0
 40
1.0
 40
1.0
 40
1.0
 40
2.0
 40
2.0
 40
2.0
 40
3.0
 40
3.0
 40
3.0
 40
4.0
 40
4.0
 40
4.0
 40
5.0
 40
5.0
 40
5.0
 40
6.0
 40
6.0
 40
6.0
 40
7.0
 40
7.0
 40
7.0
 40
8.0
 40
8.0
 40
8.0
 40
9.0
 40
9.0
 40
9.0
 40
10.0
 40
10.0
 40
10.0
 40
11.0
 40
11.0
 40
11.0
 40
11.0
 10
117.1453043326928
 20
-158.6972899993881
 10
117.1453043326928
 20
-158.6972899993881
 10
117.4922254480575
 20
-158.6972899993881
 10
117.4922254480575
 20
-158.6972899993881
 10
117.4922254480575
 20
-158.6972899993881
 10
117.4922254480575
 20
-158.915020034056
 10
117.4922254480575
 20
-158.915020034056
 10
117.4922254480575
 20
-158.915020034056
 10
117.1453043326928
 20
-158.915020034056
 10
117.1453043326928
 20
-158.915020034056
 10
117.1453043326928
 20
-158.915020034056
 10
117.1453043326928
 20
-159.5709662144475
 10
117.1453043326928
 20
-159.5709662144475
 10
117.1453043326928
 20
-159.5709662144475
 10
116.921028616603
 20
-159.5709662144475
 10
116.921028616603
 20
-159.5709662144475
 10
116.921028616603
 20
-159.5709662144475
 10
115.94778914202
 20
-158.8919378943048
 10
115.94778914202
 20
-158.8919378943048
 10
115.94778914202
 20
-158.8919378943048
 10
115.94778914202
 20
-158.6972899993881
 10
115.94778914202
 20
-158.6972899993881
 10
115.94778914202
 20
-158.6972899993881
 10
116.9465223231939
 20
-158.6972899993881
 10
116.9465223231939
 20
-158.6972899993881
 10
116.9465223231939
 20
-158.6972899993881
 10
116.9465223231939
 20
-158.4898952511761
 10
116.9465223231939
 20
-158.4898952511761
 10
116.9465223231939
 20
-158.4898952511761
 10
117.1453043326928
 20
-158.4898952511761
 10
117.1453043326928
 20
-158.4898952511761
 10
117.1453043326928
 20
-158.4898952511761
 10
117.1453043326928
 20
-158.6972899993881
 10
117.1453043326928
 20
-158.6972899993881
 97
        0
 97
        1
330
13E
 75
     2
 76
     1
 98
        1
 10
0.0
 20
0.0
450
        0
451
        0
460
0.0
461
0.0
452
        0
462
0.0
453
        0
470

  0
ENDBLK
  5
136
330
133
100
AcDbEntity
  8
0
100
AcDbBlockEnd
  0
BLOCK
  5
142
330
140
100
AcDbEntity
  8
0
100
AcDbBlockBegin
  2
Block_20
 70
     0
 10
0.0
 20
0.0
 30
0.0
  3
Block_20
  1

  0
SPLINE
  5
144
330
140
100
AcDbEntity
  8
レイヤー 1
 62
   250
420
  2299925
370
    25
100
AcDbSpline
210
0.0
220
0.0
230
1.0
 70
    11
 71
     3
 72
    80
 73
    76
 74
     0
 42
0.0000000001
 43
0.0000000001
 40
0.0
 40
0.0
 40
0.0
 40
0.0
 40
1.0
 40
1.0
 40
1.0
 40
2.0
 40
2.0
 40
2.0
 40
3.0
 40
3.0
 40
3.0
 40
4.0
 40
4.0
 40
4.0
 40
5.0
 40
5.0
 40
5.0
 40
6.0
 40
6.0
 40
6.0
 40
7.0
 40
7.0
 40
7.0
 40
8.0
 40
8.0
 40
8.0
 40
9.0
 40
9.0
 40
9.0
 40
10.0
 40
10.0
 40
10.0
 40
11.0
 40
11.0
 40
11.0
 40
12.0
 40
12.0
 40
12.0
 40
13.0
 40
13.0
 40
13.0
 40
14.0
 40
14.0
 40
14.0
 40
15.0
 40
15.0
 40
15.0
 40
16.0
 40
16.0
 40
16.0
 40
17.0
 40
17.0
 40
17.0
 40
18.0
 40
18.0
 40
18.0
 40
19.0
 40
19.0
 40
19.0
 40
20.0
 40
20.0
 40
20.0
 40
21.0
 40
21.0
 40
21.0
 40
22.0
 40
22.0
 40
22.0
 40
23.0
 40
23.0
 40
23.0
 40
24.0
 40
24.0
 40
24.0
 40
25.0
 40
25.0
 40
25.0
 40
25.0
 10
101.1684639421109
 20
-134.5205641532623
 30
0.0
 10
101.1684639421109
 20
-134.5205641532623
 30
0.0
 10
100.3302688488885
 20
-134.5205641532623
 30
0.0
 10
100.3302688488885
 20
-134.5205641532623
 30
0.0
 10
100.3302688488885
 20
-134.5205641532623
 30
0.0
 10
100.3302688488885
 20
-156.8428433617943
 30
0.0
 10
100.3302688488885
 20
-156.8428433617943
 30
0.0
 10
100.3302688488885
 20
-156.8428433617943
 30
0.0
 10
112.10902766487
 20
-157.7692620641252
 30
0.0
 10
113.1677918961049
 20
-157.8133772404261
 30
0.0
 10
114.2265561273386
 20
-157.8574924167283
 30
0.0
 10
114.2044985391882
 20
-159.1588901176209
 30
0.0
 10
114.2044985391882
 20
-159.2691780583745
 30
0.0
 10
114.2044985391882
 20
-159.3794659991281
 30
0.0
 10
114.2044985391882
 20
-164.5409416263975
 30
0.0
 10
114.2044985391882
 20
-164.695344743452
 30
0.0
 10
114.2044985391882
 20
-164.8497478605078
 30
0.0
 10
114.3368440680929
 20
-165.0262085657127
 30
0.0
 10
114.5133047732985
 20
-164.8938630368087
 30
0.0
 10
114.6897654785047
 20
-164.7615175079046
 30
0.0
 10
115.1419460355937
 20
-164.3093369508144
 30
0.0
 10
115.1419460355937
 20
-164.0005307167041
 30
0.0
 10
115.1419460355937
 20
-163.6917244825938
 30
0.0
 10
115.1419460355937
 20
-159.4456387635807
 30
0.0
 10
115.1419460355937
 20
-158.9162566479633
 30
0.0
 10
115.1419460355937
 20
-157.806427280239
 30
0.0
 10
114.0805159053577
 20
-156.882904373042
 30
0.0
 10
113.1898494842554
 20
-156.8097569795692
 30
0.0
 10
112.6165879687965
 20
-156.7626769677482
 30
0.0
 10
101.3118382650908
 20
-155.9384822476151
 30
0.0
 10
101.3118382650908
 20
-155.9384822476151
 30
0.0
 10
101.3118382650908
 20
-155.9384822476151
 30
0.0
 10
101.3118382650908
 20
-151.2953599418873
 30
0.0
 10
101.3118382650908
 20
-150.9424385314761
 30
0.0
 10
101.3118382650908
 20
-150.5895171210648
 30
0.0
 10
101.664759675502
 20
-150.0821925935978
 30
0.0
 10
102.2382569674207
 20
-150.0821925935978
 30
0.0
 10
102.8117542593394
 20
-150.0821925935978
 30
0.0
 10
110.1128159372296
 20
-150.0821925935978
 30
0.0
 10
110.5098525239417
 20
-150.0821925935978
 30
0.0
 10
110.9068891106551
 20
-150.0821925935978
 30
0.0
 10
111.1826019448914
 20
-149.6961848009602
 30
0.0
 10
111.1826019448914
 20
-149.2550330379459
 30
0.0
 10
111.1826019448914
 20
-148.8138812749316
 30
0.0
 10
111.1826019448914
 20
-142.1855760356392
 30
0.0
 10
111.1826019448914
 20
-141.8547122133784
 30
0.0
 10
111.1826019448914
 20
-141.5238483911176
 30
0.0
 10
110.7855723758257
 20
-141.2150421570073
 30
0.0
 10
110.4657373476408
 20
-141.2150421570073
 30
0.0
 10
110.1459023194559
 20
-141.2150421570073
 30
0.0
 10
109.4290307045563
 20
-141.2150421570073
 30
0.0
 10
109.4290307045563
 20
-141.2150421570073
 30
0.0
 10
109.4290307045563
 20
-141.2150421570073
 30
0.0
 10
109.4290307045563
 20
-142.1855760356392
 30
0.0
 10
109.4290307045563
 20
-142.1855760356392
 30
0.0
 10
109.4290307045563
 20
-142.1855760356392
 30
0.0
 10
109.6054914097625
 20
-142.1855760356392
 30
0.0
 10
109.7929809090434
 20
-142.1855760356392
 30
0.0
 10
109.9804704083242
 20
-142.1855760356392
 30
0.0
 10
110.2341326720577
 20
-142.2848351823169
 30
0.0
 10
110.2341326720577
 20
-142.5605550342009
 30
0.0
 10
110.2341326720577
 20
-142.8362748860848
 30
0.0
 10
110.2341326720577
 20
-149.1006299208914
 30
0.0
 10
110.2341326720577
 20
-149.1006299208914
 30
0.0
 10
110.2341326720577
 20
-149.1006299208914
 30
0.0
 10
101.5765293228995
 20
-149.1006299208914
 30
0.0
 10
101.5765293228995
 20
-149.1006299208914
 30
0.0
 10
101.5765293228995
 20
-149.1006299208914
 30
0.0
 10
101.2787518828645
 20
-138.7004771078253
 30
0.0
 10
101.2787518828645
 20
-138.7004771078253
 30
0.0
 10
101.0250896191313
 20
-138.6563619315231
 30
0.0
 10
101.0361116518798
 20
-138.292411727036
 30
0.0
 10
101.256694294714
 20
-138.2482965507351
 30
0.0
 10
101.256694294714
 20
-138.2482965507351
 30
0.0
 10
101.1684639421109
 20
-134.5205641532623
 30
0.0
 10
101.1684639421109
 20
-134.5205641532623
 30
0.0
  0
HATCH
  5
145
330
140
100
AcDbEntity
  8
レイヤー 1
 62
     9
420
 13158858
440
 33554687
100
AcDbHatch
 10
0.0
 20
0.0
 30
0.0
210
0.0
220
0.0
230
1.0
  2
SOLID
 70
     1
 71
     1
 91
        1
 92
        1
 93
        1
 72
     4
 94
        3
 73
     0
 74
     0
 95
       80
 96
       76
 40
0.0
 40
0.0
 40
0.0
 40
0.0
 40
1.0
 40
1.0
 40
1.0
 40
2.0
 40
2.0
 40
2.0
 40
3.0
 40
3.0
 40
3.0
 40
4.0
 40
4.0
 40
4.0
 40
5.0
 40
5.0
 40
5.0
 40
6.0
 40
6.0
 40
6.0
 40
7.0
 40
7.0
 40
7.0
 40
8.0
 40
8.0
 40
8.0
 40
9.0
 40
9.0
 40
9.0
 40
10.0
 40
10.0
 40
10.0
 40
11.0
 40
11.0
 40
11.0
 40
12.0
 40
12.0
 40
12.0
 40
13.0
 40
13.0
 40
13.0
 40
14.0
 40
14.0
 40
14.0
 40
15.0
 40
15.0
 40
15.0
 40
16.0
 40
16.0
 40
16.0
 40
17.0
 40
17.0
 40
17.0
 40
18.0
 40
18.0
 40
18.0
 40
19.0
 40
19.0
 40
19.0
 40
20.0
 40
20.0
 40
20.0
 40
21.0
 40
21.0
 40
21.0
 40
22.0
 40
22.0
 40
22.0
 40
23.0
 40
23.0
 40
23.0
 40
24.0
 40
24.0
 40
24.0
 40
25.0
 40
25.0
 40
25.0
 40
25.0
 10
101.1684639421109
 20
-134.5205641532623
 10
101.1684639421109
 20
-134.5205641532623
 10
100.3302688488885
 20
-134.5205641532623
 10
100.3302688488885
 20
-134.5205641532623
 10
100.3302688488885
 20
-134.5205641532623
 10
100.3302688488885
 20
-156.8428433617943
 10
100.3302688488885
 20
-156.8428433617943
 10
100.3302688488885
 20
-156.8428433617943
 10
112.10902766487
 20
-157.7692620641252
 10
113.1677918961049
 20
-157.8133772404261
 10
114.2265561273386
 20
-157.8574924167283
 10
114.2044985391882
 20
-159.1588901176209
 10
114.2044985391882
 20
-159.2691780583745
 10
114.2044985391882
 20
-159.3794659991281
 10
114.2044985391882
 20
-164.5409416263975
 10
114.2044985391882
 20
-164.695344743452
 10
114.2044985391882
 20
-164.8497478605078
 10
114.3368440680929
 20
-165.0262085657127
 10
114.5133047732985
 20
-164.8938630368087
 10
114.6897654785047
 20
-164.7615175079046
 10
115.1419460355937
 20
-164.3093369508144
 10
115.1419460355937
 20
-164.0005307167041
 10
115.1419460355937
 20
-163.6917244825938
 10
115.1419460355937
 20
-159.4456387635807
 10
115.1419460355937
 20
-158.9162566479633
 10
115.1419460355937
 20
-157.806427280239
 10
114.0805159053577
 20
-156.882904373042
 10
113.1898494842554
 20
-156.8097569795692
 10
112.6165879687965
 20
-156.7626769677482
 10
101.3118382650908
 20
-155.9384822476151
 10
101.3118382650908
 20
-155.9384822476151
 10
101.3118382650908
 20
-155.9384822476151
 10
101.3118382650908
 20
-151.2953599418873
 10
101.3118382650908
 20
-150.9424385314761
 10
101.3118382650908
 20
-150.5895171210648
 10
101.664759675502
 20
-150.0821925935978
 10
102.2382569674207
 20
-150.0821925935978
 10
102.8117542593394
 20
-150.0821925935978
 10
110.1128159372296
 20
-150.0821925935978
 10
110.5098525239417
 20
-150.0821925935978
 10
110.9068891106551
 20
-150.0821925935978
 10
111.1826019448914
 20
-149.6961848009602
 10
111.1826019448914
 20
-149.2550330379459
 10
111.1826019448914
 20
-148.8138812749316
 10
111.1826019448914
 20
-142.1855760356392
 10
111.1826019448914
 20
-141.8547122133784
 10
111.1826019448914
 20
-141.5238483911176
 10
110.7855723758257
 20
-141.2150421570073
 10
110.4657373476408
 20
-141.2150421570073
 10
110.1459023194559
 20
-141.2150421570073
 10
109.4290307045563
 20
-141.2150421570073
 10
109.4290307045563
 20
-141.2150421570073
 10
109.4290307045563
 20
-141.2150421570073
 10
109.4290307045563
 20
-142.1855760356392
 10
109.4290307045563
 20
-142.1855760356392
 10
109.4290307045563
 20
-142.1855760356392
 10
109.6054914097625
 20
-142.1855760356392
 10
109.7929809090434
 20
-142.1855760356392
 10
109.9804704083242
 20
-142.1855760356392
 10
110.2341326720577
 20
-142.2848351823169
 10
110.2341326720577
 20
-142.5605550342009
 10
110.2341326720577
 20
-142.8362748860848
 10
110.2341326720577
 20
-149.1006299208914
 10
110.2341326720577
 20
-149.1006299208914
 10
110.2341326720577
 20
-149.1006299208914
 10
101.5765293228995
 20
-149.1006299208914
 10
101.5765293228995
 20
-149.1006299208914
 10
101.5765293228995
 20
-149.1006299208914
 10
101.2787518828645
 20
-138.7004771078253
 10
101.2787518828645
 20
-138.7004771078253
 10
101.0250896191313
 20
-138.6563619315231
 10
101.0361116518798
 20
-138.292411727036
 10
101.256694294714
 20
-138.2482965507351
 10
101.256694294714
 20
-138.2482965507351
 10
101.1684639421109
 20
-134.5205641532623
 10
101.1684639421109
 20
-134.5205641532623
 97
        0
 97
        1
330
144
 75
     2
 76
     1
 98
        1
 10
0.0
 20
0.0
450
        0
451
        0
460
0.0
461
0.0
452
        0
462
0.0
453
        0
470

  0
LINE
  5
146
330
140
100
AcDbEntity
  8
レイヤー 1
 62
   250
420
  2299925
370
    25
100
AcDbLine
 10
106.285824393079
 20
-149.1006299208914
 30
0.0
 11
106.285824393079
 21
-150.0821925935978
 31
0.0
  0
LINE
  5
147
330
140
100
AcDbEntity
  8
レイヤー 1
 62
   250
420
  2299925
370
    25
100
AcDbLine
 10
108.6533388545892
 20
-149.1006299208914
 30
0.0
 11
108.6533388545892
 21
-150.0821925935978
 31
0.0
  0
ENDBLK
  5
143
330
140
100
AcDbEntity
  8
0
100
AcDbBlockEnd
  0
ENDSEC
  0
SECTION
  2
ENTITIES
  0
SPLINE
  5
79
330
70
100
AcDbEntity
  8
レイヤー 1
 62
   250
420
  2299925
370
     9
100
AcDbSpline
210
0.0
220
0.0
230
1.0
 70
     9
 71
     3
 72
    17
 73
    13
 74
     0
 42
0.0000000001
 43
0.0000000001
 40
0.0
 40
0.0
 40
0.0
 40
0.0
 40
1.0
 40
1.0
 40
1.0
 40
2.0
 40
2.0
 40
2.0
 40
3.0
 40
3.0
 40
3.0
 40
4.0
 40
4.0
 40
4.0
 40
4.0
 10
100.3980847333898
 20
-132.1174799887456
 30
0.0
 10
100.3980847333898
 20
-132.0785686008491
 30
0.0
 10
100.3663700111756
 20
-132.0475594349735
 30
0.0
 10
100.3277761222962
 20
-132.0475594349735
 30
0.0
 10
100.289217511195
 20
-132.0475594349735
 30
0.0
 10
100.2575027889804
 20
-132.0785686008491
 30
0.0
 10
100.2575027889804
 20
-132.1174799887456
 30
0.0
 10
100.2575027889804
 20
-132.1564266544184
 30
0.0
 10
100.289217511195
 20
-132.1874336870129
 30
0.0
 10
100.3277761222962
 20
-132.1874336870129
 30
0.0
 10
100.3663700111756
 20
-132.1874336870129
 30
0.0
 10
100.3980847333898
 20
-132.1564266544184
 30
0.0
 10
100.3980847333898
 20
-132.1174799887456
 30
0.0
  0
SPLINE
  5
7A
330
70
100
AcDbEntity
  8
レイヤー 1
 62
   250
420
  2299925
370
     9
100
AcDbSpline
210
0.0
220
0.0
230
1.0
 70
     9
 71
     3
 72
    17
 73
    13
 74
     0
 42
0.0000000001
 43
0.0000000001
 40
0.0
 40
0.0
 40
0.0
 40
0.0
 40
1.0
 40
1.0
 40
1.0
 40
2.0
 40
2.0
 40
2.0
 40
3.0
 40
3.0
 40
3.0
 40
4.0
 40
4.0
 40
4.0
 40
4.0
 10
111.2778569324543
 20
-132.1174799887456
 30
0.0
 10
111.2778569324543
 20
-132.0785686008491
 30
0.0
 10
111.246530265795
 20
-132.0475594349735
 30
0.0
 10
111.2075835991382
 20
-132.0475594349735
 30
0.0
 10
111.1689897102592
 20
-132.0475594349735
 30
0.0
 10
111.1380158213777
 20
-132.0785686008491
 30
0.0
 10
111.1380158213777
 20
-132.1174799887456
 30
0.0
 10
111.1380158213777
 20
-132.1564266544184
 30
0.0
 10
111.1689897102592
 20
-132.1874336870129
 30
0.0
 10
111.2075835991382
 20
-132.1874336870129
 30
0.0
 10
111.246530265795
 20
-132.1874336870129
 30
0.0
 10
111.2778569324543
 20
-132.1564266544184
 30
0.0
 10
111.2778569324543
 20
-132.1174799887456
 30
0.0
  0
SPLINE
  5
7B
330
70
100
AcDbEntity
  8
レイヤー 1
 62
   250
420
  2299925
370
     9
100
AcDbSpline
210
0.0
220
0.0
230
1.0
 70
     9
 71
     3
 72
    17
 73
    13
 74
     0
 42
0.0000000001
 43
0.0000000001
 40
0.0
 40
0.0
 40
0.0
 40
0.0
 40
1.0
 40
1.0
 40
1.0
 40
2.0
 40
2.0
 40
2.0
 40
3.0
 40
3.0
 40
3.0
 40
4.0
 40
4.0
 40
4.0
 40
4.0
 10
117.8962147914863
 20
-134.5205641458853
 30
0.0
 10
117.8962147914863
 20
-134.481970257981
 30
0.0
 10
117.8648881256189
 20
-134.450959026029
 30
0.0
 10
117.8262942377146
 20
-134.450959026029
 30
0.0
 10
117.7873828498184
 20
-134.450959026029
 30
0.0
 10
117.7563746848766
 20
-134.481970257981
 30
0.0
 10
117.7563746848766
 20
-134.5205641458853
 30
0.0
 10
117.7563746848766
 20
-134.5591227560127
 30
0.0
 10
117.7873828498184
 20
-134.5908374774258
 30
0.0
 10
117.8262942377146
 20
-134.5908374774258
 30
0.0
 10
117.8648881256189
 20
-134.5908374774258
 30
0.0
 10
117.8962147914863
 20
-134.5591227560127
 30
0.0
 10
117.8962147914863
 20
-134.5205641458853
 30
0.0
  0
SPLINE
  5
7C
330
70
100
AcDbEntity
  8
レイヤー 1
 62
   250
420
  2299925
370
     9
100
AcDbSpline
210
0.0
220
0.0
230
1.0
 70
     9
 71
     3
 72
    17
 73
    13
 74
     0
 42
0.0000000001
 43
0.0000000001
 40
0.0
 40
0.0
 40
0.0
 40
0.0
 40
1.0
 40
1.0
 40
1.0
 40
2.0
 40
2.0
 40
2.0
 40
3.0
 40
3.0
 40
3.0
 40
4.0
 40
4.0
 40
4.0
 40
4.0
 10
117.8962147914863
 20
-141.2309127389421
 30
0.0
 10
117.8962147914863
 20
-141.1920013510459
 30
0.0
 10
117.8648881256189
 20
-141.1606394074016
 30
0.0
 10
117.8262942377146
 20
-141.1606394074016
 30
0.0
 10
117.7873828498184
 20
-141.1606394074016
 30
0.0
 10
117.7563746848766
 20
-141.1920013510459
 30
0.0
 10
117.7563746848766
 20
-141.2309127389421
 30
0.0
 10
117.7563746848766
 20
-141.2695066268464
 30
0.0
 10
117.7873828498184
 20
-141.3005157927219
 30
0.0
 10
117.8262942377146
 20
-141.3005157927219
 30
0.0
 10
117.8648881256189
 20
-141.3005157927219
 30
0.0
 10
117.8962147914863
 20
-141.2695066268464
 30
0.0
 10
117.8962147914863
 20
-141.2309127389421
 30
0.0
  0
SPLINE
  5
7D
330
70
100
AcDbEntity
  8
レイヤー 1
 62
   250
420
  2299925
370
     9
100
AcDbSpline
210
0.0
220
0.0
230
1.0
 70
    11
 71
     3
 72
    17
 73
    13
 74
     0
 42
0.0000000001
 43
0.0000000001
 40
0.0
 40
0.0
 40
0.0
 40
0.0
 40
1.0
 40
1.0
 40
1.0
 40
2.0
 40
2.0
 40
2.0
 40
3.0
 40
3.0
 40
3.0
 40
4.0
 40
4.0
 40
4.0
 40
4.0
 10
117.8962147914863
 20
-150.0821925335951
 30
0.0
 10
117.8962147914863
 20
-150.0435986456908
 30
0.0
 10
117.8648881256189
 20
-150.0122719798234
 30
0.0
 10
117.8262942377146
 20
-150.0122719798234
 30
0.0
 10
117.7873828498184
 20
-150.0122719798234
 30
0.0
 10
117.7563746848766
 20
-150.0435986456908
 30
0.0
 10
117.7563746848766
 20
-150.0821925335951
 30
0.0
 10
117.7563746848766
 20
-150.1207864214994
 30
0.0
 10
117.7873828498184
 20
-150.1524658651356
 30
0.0
 10
117.8262942377146
 20
-150.1524658651356
 30
0.0
 10
117.8648881256189
 20
-150.1524658651356
 30
0.0
 10
117.8962147914863
 20
-150.1207864214994
 30
0.0
 10
117.8962147914863
 20
-150.0821925335951
 30
0.0
  0
SPLINE
  5
7E
330
70
100
AcDbEntity
  8
レイヤー 1
 62
   250
420
  2299925
370
     9
100
AcDbSpline
210
0.0
220
0.0
230
1.0
 70
     9
 71
     3
 72
    17
 73
    13
 74
     0
 42
0.0000000001
 43
0.0000000001
 40
0.0
 40
0.0
 40
0.0
 40
0.0
 40
1.0
 40
1.0
 40
1.0
 40
2.0
 40
2.0
 40
2.0
 40
3.0
 40
3.0
 40
3.0
 40
4.0
 40
4.0
 40
4.0
 40
4.0
 10
117.8962147914863
 20
-155.8846116647891
 30
0.0
 10
117.8962147914863
 20
-155.8460177768848
 30
0.0
 10
117.8648881256189
 20
-155.8150086110092
 30
0.0
 10
117.8262942377146
 20
-155.8150086110092
 30
0.0
 10
117.7873828498184
 20
-155.8150086110092
 30
0.0
 10
117.7563746848766
 20
-155.8460177768848
 30
0.0
 10
117.7563746848766
 20
-155.8846116647891
 30
0.0
 10
117.7563746848766
 20
-155.923875830454
 30
0.0
 10
117.7873828498184
 20
-155.9548849963296
 30
0.0
 10
117.8262942377146
 20
-155.9548849963296
 30
0.0
 10
117.8648881256189
 20
-155.9548849963296
 30
0.0
 10
117.8962147914863
 20
-155.923875830454
 30
0.0
 10
117.8962147914863
 20
-155.8846116647891
 30
0.0
  0
SPLINE
  5
7F
330
70
100
AcDbEntity
  8
レイヤー 1
 62
   250
420
  2299925
370
     9
100
AcDbSpline
210
0.0
220
0.0
230
1.0
 70
    11
 71
     3
 72
    17
 73
    13
 74
     0
 42
0.0000000001
 43
0.0000000001
 40
0.0
 40
0.0
 40
0.0
 40
0.0
 40
1.0
 40
1.0
 40
1.0
 40
2.0
 40
2.0
 40
2.0
 40
3.0
 40
3.0
 40
3.0
 40
4.0
 40
4.0
 40
4.0
 40
4.0
 10
117.8962147914863
 20
-164.9703655912684
 30
0.0
 10
117.8962147914863
 20
-164.9317717033641
 30
0.0
 10
117.8648881256189
 20
-164.9007625374886
 30
0.0
 10
117.8262942377146
 20
-164.9007625374886
 30
0.0
 10
117.7873828498184
 20
-164.9007625374886
 30
0.0
 10
117.7563746848766
 20
-164.9317717033641
 30
0.0
 10
117.7563746848766
 20
-164.9703655912684
 30
0.0
 10
117.7563746848766
 20
-165.0089594791727
 30
0.0
 10
117.7873828498184
 20
-165.0406389228089
 30
0.0
 10
117.8262942377146
 20
-165.0406389228089
 30
0.0
 10
117.8648881256189
 20
-165.0406389228089
 30
0.0
 10
117.8962147914863
 20
-165.0089594791727
 30
0.0
 10
117.8962147914863
 20
-164.9703655912684
 30
0.0
  0
SPLINE
  5
80
330
70
100
AcDbEntity
  8
レイヤー 1
 62
   250
420
  2299925
370
     9
100
AcDbSpline
210
0.0
220
0.0
230
1.0
 70
    11
 71
     3
 72
    17
 73
    13
 74
     0
 42
0.0000000001
 43
0.0000000001
 40
0.0
 40
0.0
 40
0.0
 40
0.0
 40
1.0
 40
1.0
 40
1.0
 40
2.0
 40
2.0
 40
2.0
 40
3.0
 40
3.0
 40
3.0
 40
4.0
 40
4.0
 40
4.0
 40
4.0
 10
97.56326615757409
 20
-156.920896289196
 30
0.0
 10
97.56326615757409
 20
-156.8823024012917
 30
0.0
 10
97.53193949091542
 20
-156.8512932354162
 30
0.0
 10
97.49334560203609
 20
-156.8512932354162
 30
0.0
 10
97.45475171315675
 20
-156.8512932354162
 30
0.0
 10
97.42307226872032
 20
-156.8823024012917
 30
0.0
 10
97.42307226872032
 20
-156.920896289196
 30
0.0
 10
97.42307226872032
 20
-156.9594901771002
 30
0.0
 10
97.45475171315675
 20
-156.9911696207365
 30
0.0
 10
97.49334560203609
 20
-156.9911696207365
 30
0.0
 10
97.53193949091542
 20
-156.9911696207365
 30
0.0
 10
97.56326615757409
 20
-156.9594901771002
 30
0.0
 10
97.56326615757409
 20
-156.920896289196
 30
0.0
  0
SPLINE
  5
81
330
70
100
AcDbEntity
  8
レイヤー 1
 62
   250
420
  2299925
370
     9
100
AcDbSpline
210
0.0
220
0.0
230
1.0
 70
     9
 71
     3
 72
    17
 73
    13
 74
     0
 42
0.0000000001
 43
0.0000000001
 40
0.0
 40
0.0
 40
0.0
 40
0.0
 40
1.0
 40
1.0
 40
1.0
 40
2.0
 40
2.0
 40
2.0
 40
3.0
 40
3.0
 40
3.0
 40
4.0
 40
4.0
 40
4.0
 40
4.0
 10
97.56326615757409
 20
-134.4967892862509
 30
0.0
 10
97.56326615757409
 20
-134.4581953983466
 30
0.0
 10
97.53193949091542
 20
-134.4271841663946
 30
0.0
 10
97.49334560203609
 20
-134.4271841663946
 30
0.0
 10
97.45475171315675
 20
-134.4271841663946
 30
0.0
 10
97.42307226872032
 20
-134.4581953983466
 30
0.0
 10
97.42307226872032
 20
-134.4967892862509
 30
0.0
 10
97.42307226872032
 20
-134.5353478963787
 30
0.0
 10
97.45475171315675
 20
-134.5670626177914
 30
0.0
 10
97.49334560203609
 20
-134.5670626177914
 30
0.0
 10
97.53193949091542
 20
-134.5670626177914
 30
0.0
 10
97.56326615757409
 20
-134.5353478963787
 30
0.0
 10
97.56326615757409
 20
-134.4967892862509
 30
0.0
  0
INSERT
  5
83
330
70
100
AcDbEntity
  8
レイヤー 1
100
AcDbBlockReference
  2
Block_0
 10
0.0
 20
0.0
 30
0.0
  0
LINE
  5
97
330
70
100
AcDbEntity
  8
レイヤー 1
 62
   250
420
  2299925
370
     9
100
AcDbLine
 10
97.49334560203609
 20
-156.9208963779917
 30
0.0
 11
97.49334560203609
 21
-134.4967892862509
 31
0.0
  0
LINE
  5
98
330
70
100
AcDbEntity
  8
レイヤー 1
 62
   250
420
  2299925
370
     9
100
AcDbLine
 10
98.88067949057818
 20
-156.920896289196
 30
0.0
 11
96.79329337998879
 21
-156.920896289196
 31
0.0
  0
LINE
  5
99
330
70
100
AcDbEntity
  8
レイヤー 1
 62
   250
420
  2299925
370
     9
100
AcDbLine
 10
98.88067949057818
 20
-134.4967892862509
 30
0.0
 11
96.79329337998879
 21
-134.4967892862509
 31
0.0
  0
INSERT
  5
9B
330
70
100
AcDbEntity
  8
レイヤー 1
100
AcDbBlockReference
  2
Block_2
 10
0.0
 20
0.0
 30
0.0
  0
SPLINE
  5
AC
330
70
100
AcDbEntity
  8
レイヤー 1
 62
   250
420
  2299925
370
     9
100
AcDbSpline
210
0.0
220
0.0
230
1.0
 70
    11
 71
     3
 72
    17
 73
    13
 74
     0
 42
0.0000000001
 43
0.0000000001
 40
0.0
 40
0.0
 40
0.0
 40
0.0
 40
1.0
 40
1.0
 40
1.0
 40
2.0
 40
2.0
 40
2.0
 40
3.0
 40
3.0
 40
3.0
 40
4.0
 40
4.0
 40
4.0
 40
4.0
 10
94.57223964024189
 20
-164.946590731634
 30
0.0
 10
94.57223964024189
 20
-164.9079968437297
 30
0.0
 10
94.54091297358322
 20
-164.8769876778541
 30
0.0
 10
94.50231908470387
 20
-164.8769876778541
 30
0.0
 10
94.46372519582453
 20
-164.8769876778541
 30
0.0
 10
94.4320457513881
 20
-164.9079968437297
 30
0.0
 10
94.4320457513881
 20
-164.946590731634
 30
0.0
 10
94.4320457513881
 20
-164.9851846195383
 30
0.0
 10
94.46372519582453
 20
-165.0168640631745
 30
0.0
 10
94.50231908470387
 20
-165.0168640631745
 30
0.0
 10
94.54091297358322
 20
-165.0168640631745
 30
0.0
 10
94.57223964024189
 20
-164.9851846195383
 30
0.0
 10
94.57223964024189
 20
-164.946590731634
 30
0.0
  0
SPLINE
  5
AD
330
70
100
AcDbEntity
  8
レイヤー 1
 62
   250
420
  2299925
370
     9
100
AcDbSpline
210
0.0
220
0.0
230
1.0
 70
     9
 71
     3
 72
    17
 73
    13
 74
     0
 42
0.0000000001
 43
0.0000000001
 40
0.0
 40
0.0
 40
0.0
 40
0.0
 40
1.0
 40
1.0
 40
1.0
 40
2.0
 40
2.0
 40
2.0
 40
3.0
 40
3.0
 40
3.0
 40
4.0
 40
4.0
 40
4.0
 40
4.0
 10
94.57223964024189
 20
-134.4967892862509
 30
0.0
 10
94.57223964024189
 20
-134.4581953983466
 30
0.0
 10
94.54091297358322
 20
-134.4271841663946
 30
0.0
 10
94.50231908470387
 20
-134.4271841663946
 30
0.0
 10
94.46372519582453
 20
-134.4271841663946
 30
0.0
 10
94.4320457513881
 20
-134.4581953983466
 30
0.0
 10
94.4320457513881
 20
-134.4967892862509
 30
0.0
 10
94.4320457513881
 20
-134.5353478963787
 30
0.0
 10
94.46372519582453
 20
-134.5670626177914
 30
0.0
 10
94.50231908470387
 20
-134.5670626177914
 30
0.0
 10
94.54091297358322
 20
-134.5670626177914
 30
0.0
 10
94.57223964024189
 20
-134.5353478963787
 30
0.0
 10
94.57223964024189
 20
-134.4967892862509
 30
0.0
  0
LINE
  5
AE
330
70
100
AcDbEntity
  8
レイヤー 1
 62
   250
420
  2299925
370
     9
100
AcDbLine
 10
94.50231908470387
 20
-164.946590731634
 30
0.0
 11
94.50231908470387
 21
-134.4967892862509
 31
0.0
  0
LINE
  5
AF
330
70
100
AcDbEntity
  8
レイヤー 1
 62
   250
420
  2299925
370
     9
100
AcDbLine
 10
113.089065119983
 20
-164.946590731634
 30
0.0
 11
93.80226686265656
 21
-164.946590731634
 31
0.0
  0
LINE
  5
B0
330
70
100
AcDbEntity
  8
レイヤー 1
 62
   250
420
  2299925
370
     9
100
AcDbLine
 10
95.88965297324596
 20
-134.4967892862509
 30
0.0
 11
93.80226686265656
 21
-134.4967892862509
 31
0.0
  0
INSERT
  5
B2
330
70
100
AcDbEntity
  8
レイヤー 1
100
AcDbBlockReference
  2
Block_4
 10
0.0
 20
0.0
 30
0.0
  0
LINE
  5
C3
330
70
100
AcDbEntity
  8
レイヤー 1
 62
   250
420
  2299925
370
     9
100
AcDbLine
 10
100.3277761222962
 20
-133.1396535737789
 30
0.0
 11
100.3277761222962
 21
-131.4174630621598
 31
0.0
  0
LINE
  5
C4
330
70
100
AcDbEntity
  8
レイヤー 1
 62
   250
420
  2299925
370
     9
100
AcDbLine
 10
111.2075836389717
 20
-132.1174799887456
 30
0.0
 11
100.3277761222962
 21
-132.1174799887456
 31
0.0
  0
LINE
  5
C5
330
70
100
AcDbEntity
  8
レイヤー 1
 62
   250
420
  2299925
370
     9
100
AcDbLine
 10
111.2075835991382
 20
-140.8299102420644
 30
0.0
 11
111.2075835991382
 21
-131.4174630621598
 31
0.0
  0
INSERT
  5
C7
330
70
100
AcDbEntity
  8
レイヤー 1
100
AcDbBlockReference
  2
Block_6
 10
0.0
 20
0.0
 30
0.0
  0
INSERT
  5
D7
330
70
100
AcDbEntity
  8
レイヤー 1
100
AcDbBlockReference
  2
Block_8
 10
0.0
 20
0.0
 30
0.0
  0
LINE
  5
F6
330
70
100
AcDbEntity
  8
レイヤー 1
 62
   250
420
  2299925
370
     9
100
AcDbLine
 10
117.8262942377146
 20
-134.5205641458853
 30
0.0
 11
117.8262942377146
 21
-141.230912731834
 31
0.0
  0
LINE
  5
F7
330
70
100
AcDbEntity
  8
レイヤー 1
 62
   250
420
  2299925
370
     9
100
AcDbLine
 10
101.7022750804954
 20
-134.5205641458853
 30
0.0
 11
118.5259936643082
 21
-134.5205641458853
 31
0.0
  0
LINE
  5
F8
330
70
100
AcDbEntity
  8
レイヤー 1
 62
   250
420
  2299925
370
     9
100
AcDbLine
 10
111.3855535140867
 20
-141.2309127389421
 30
0.0
 11
118.5259936643082
 21
-141.2309127389421
 31
0.0
  0
INSERT
  5
FA
330
70
100
AcDbEntity
  8
レイヤー 1
100
AcDbBlockReference
  2
Block_12
 10
0.0
 20
0.0
 30
0.0
  0
LINE
  5
109
330
70
100
AcDbEntity
  8
レイヤー 1
 62
   250
420
  2299925
370
     9
100
AcDbLine
 10
117.8262942377146
 20
-141.230912731834
 30
0.0
 11
117.8262942377146
 21
-150.0821925935978
 31
0.0
  0
LINE
  5
10A
330
70
100
AcDbEntity
  8
レイヤー 1
 62
   250
420
  2299925
370
     9
100
AcDbLine
 10
111.2865355848494
 20
-150.0821925335951
 30
0.0
 11
118.5259936643082
 21
-150.0821925335951
 31
0.0
  0
INSERT
  5
10C
330
70
100
AcDbEntity
  8
レイヤー 1
100
AcDbBlockReference
  2
Block_14
 10
0.0
 20
0.0
 30
0.0
  0
LINE
  5
11B
330
70
100
AcDbEntity
  8
レイヤー 1
 62
   250
420
  2299925
370
     9
100
AcDbLine
 10
117.8262942377146
 20
-150.0821925935978
 30
0.0
 11
117.8262942377146
 21
-155.8846116560286
 31
0.0
  0
LINE
  5
11C
330
70
100
AcDbEntity
  8
レイヤー 1
 62
   250
420
  2299925
370
     9
100
AcDbLine
 10
105.2765072515659
 20
-155.8846116647891
 30
0.0
 11
118.5259936643082
 21
-155.8846116647891
 31
0.0
  0
INSERT
  5
11E
330
70
100
AcDbEntity
  8
レイヤー 1
100
AcDbBlockReference
  2
Block_16
 10
0.0
 20
0.0
 30
0.0
  0
LINE
  5
12C
330
70
100
AcDbEntity
  8
レイヤー 1
 62
   250
420
  2299925
370
     9
100
AcDbLine
 10
117.8262942377146
 20
-157.9706196587357
 30
0.0
 11
117.8262942377146
 21
-155.8846116560286
 31
0.0
  0
LINE
  5
12D
330
70
100
AcDbEntity
  8
レイヤー 1
 62
   250
420
  2299925
370
     9
100
AcDbLine
 10
117.8262942377146
 20
-157.9706196587357
 30
0.0
 11
117.8262942377146
 21
-164.9703655912684
 31
0.0
  0
LINE
  5
12E
330
70
100
AcDbEntity
  8
レイヤー 1
 62
   250
420
  2299925
370
     9
100
AcDbLine
 10
115.7544304016833
 20
-164.9703655912684
 30
0.0
 11
118.5259936643082
 21
-164.9703655912684
 31
0.0
  0
INSERT
  5
130
330
70
100
AcDbEntity
  8
レイヤー 1
100
AcDbBlockReference
  2
Block_18
 10
0.0
 20
0.0
 30
0.0
  0
INSERT
  5
141
330
70
100
AcDbEntity
  8
レイヤー 1
100
AcDbBlockReference
  2
Block_20
 10
0.0
 20
0.0
 30
0.0
  0
LWPOLYLINE
  5
148
330
70
100
AcDbEntity
  8
レイヤー 1
 62
   250
420
  2299925
370
    25
100
AcDbPolyline
 90
        4
 70
     1
 43
0.0
 10
108.6533382495177
 20
-150.0821924292228
 10
106.2830252529973
 20
-150.0821924292228
 10
106.2830252529973
 20
-149.1295125383048
 10
108.6533382495177
 20
-149.1295125383048
  0
LINE
  5
149
330
70
100
AcDbEntity
  8
レイヤー 1
 62
   250
420
  2299925
370
     9
100
AcDbLine
 10
107.4681823563287
 20
-149.6058526481388
 30
0.0
 11
107.4681823563287
 21
-146.5942401691586
 31
0.0
  0
ENDSEC
  0
SECTION
  2
OBJECTS
  0
DICTIONARY
  5
C
330
0
100
AcDbDictionary
281
     1
  3
ACAD_COLOR
350
63
  3
ACAD_DETAILVIEWSTYLE
350
6A
  3
ACAD_GROUP
350
D
  3
ACAD_LAYOUT
350
62
  3
ACAD_MATERIAL
350
10
  3
ACAD_MLEADERSTYLE
350
66
  3
ACAD_MLINESTYLE
350
5F
  3
ACAD_PLOTSETTINGS
350
61
  3
ACAD_PLOTSTYLENAME
350
E
  3
ACAD_SCALELIST
350
42
  3
ACAD_SECTIONVIEWSTYLE
350
68
  3
ACAD_TABLESTYLE
350
64
  3
ACAD_VISUALSTYLE
350
29
  3
ACDB_RECOMPOSE_DATA
350
152
  3
AcDbVariableDictionary
350
14A
  0
DICTIONARY
  5
63
102
{ACAD_REACTORS
330
C
102
}
330
C
100
AcDbDictionary
281
     1
  0
DICTIONARY
  5
6A
102
{ACAD_REACTORS
330
C
102
}
330
C
100
AcDbDictionary
281
     1
  3
Imperial24
350
6B
  0
DICTIONARY
  5
D
102
{ACAD_REACTORS
330
C
102
}
330
C
100
AcDbDictionary
281
     1
  0
DICTIONARY
  5
62
102
{ACAD_REACTORS
330
C
102
}
330
C
100
AcDbDictionary
281
     1
  3
Layout1
350
6F
  3
Layout2
350
77
  3
Model
350
73
  0
DICTIONARY
  5
10
102
{ACAD_REACTORS
330
C
102
}
330
C
100
AcDbDictionary
281
     1
  3
ByBlock
350
19
  3
ByLayer
350
11
  3
Global
350
21
  0
DICTIONARY
  5
66
102
{ACAD_REACTORS
330
C
102
}
330
C
100
AcDbDictionary
281
     1
  3
Standard
350
67
  0
DICTIONARY
  5
5F
102
{ACAD_REACTORS
330
C
102
}
330
C
100
AcDbDictionary
281
     1
  3
Standard
350
60
  0
DICTIONARY
  5
61
102
{ACAD_REACTORS
330
C
102
}
330
C
100
AcDbDictionary
281
     1
  0
ACDBDICTIONARYWDFLT
  5
E
102
{ACAD_REACTORS
330
C
102
}
330
C
100
AcDbDictionary
281
     1
  3
Normal
350
F
100
AcDbDictionaryWithDefault
340
F
  0
DICTIONARY
  5
42
102
{ACAD_REACTORS
330
C
102
}
330
C
100
AcDbDictionary
281
     1
  3
A0
350
43
  3
A1
350
44
  3
A2
350
45
  3
A3
350
46
  3
A4
350
47
  3
A5
350
48
  3
A6
350
49
  3
A7
350
4A
  3
A8
350
4B
  3
A9
350
4C
  3
B0
350
4D
  3
B1
350
4E
  3
B2
350
4F
  3
B3
350
50
  3
B4
350
51
  3
B5
350
52
  3
B6
350
53
  0
DICTIONARY
  5
68
102
{ACAD_REACTORS
330
C
102
}
330
C
100
AcDbDictionary
281
     1
  3
Imperial24
350
69
  0
DICTIONARY
  5
64
102
{ACAD_REACTORS
330
C
102
}
330
C
100
AcDbDictionary
281
     1
  3
Standard
350
65
  0
DICTIONARY
  5
29
102
{ACAD_REACTORS
330
C
102
}
330
C
100
AcDbDictionary
281
     1
  3
2dWireframe
350
2F
  3
Basic
350
2E
  3
Brighten
350
35
  3
ColorChange
350
39
  3
Conceptual
350
32
  3
Dim
350
34
  3
EdgeColorOff
350
41
  3
Facepattern
350
38
  3
Flat
350
2A
  3
FlatWithEdges
350
2B
  3
Gouraud
350
2C
  3
GouraudWithEdges
350
2D
  3
Hidden
350
31
  3
JitterOff
350
3F
  3
Linepattern
350
37
  3
OverhangOff
350
40
  3
Realistic
350
33
  3
Shaded
350
3E
  3
Shaded with edges
350
3D
  3
Shades of Gray
350
3A
  3
Sketchy
350
3B
  3
Thicken
350
36
  3
Wireframe
350
30
  3
X-Ray
350
3C
  0
XRECORD
  5
152
102
{ACAD_REACTORS
330
C
102
}
330
C
100
AcDbXrecord
280
     1
 90
        1
330
65
  0
DICTIONARY
  5
14A
102
{ACAD_REACTORS
330
C
102
}
330
C
100
AcDbDictionary
281
     1
  3
CANNOSCALE
350
14F
  3
CMLEADERSTYLE
350
14C
  3
CTABLESTYLE
350
14B
  3
CVIEWDETAILSTYLE
350
14D
  3
CVIEWSECTIONSTYLE
350
14E
  0
ACDBDETAILVIEWSTYLE
  5
6B
102
{ACAD_XDICTIONARY
360
187
102
}
102
{ACAD_REACTORS
330
6A
102
}
330
6A
100
AcDbModelDocViewStyle
 70
     0
  3
Imperial24
290
     0
100
AcDbDetailViewStyle
 70
     0
 71
     0
 90
        3
 71
     1
340
55
 62
   256
 40
0.24
340
0
 62
   256
 40
0.24
300

 40
0.36
280
     3
 71
     2
340
5D
 90
       25
 62
   256
 71
     3
340
55
 62
   256
 40
0.24
 90
        1
 40
0.75
 90
        1
300
%<\AcVar ViewType \f "%tc1">% %<\AcVar ViewDetailId>%\PSCALE %<\AcVar ViewScale \f "%sn">%
 71
     4
340
5D
 90
       25
 62
   256
340
5D
 90
       25
 62
   256
280
     0
  0
LAYOUT
  5
6F
102
{ACAD_REACTORS
330
62
102
}
330
62
100
AcDbPlotSettings
  1

  2

  4

  6

 40
0.0
 41
0.0
 42
0.0
 43
0.0
 44
0.0
 45
0.0
 46
0.0
 47
0.0
 48
0.0
 49
0.0
140
0.0
141
0.0
142
1.0
143
1.0
 70
   688
 72
     0
 73
     0
 74
     5
  7

 75
    16
147
1.0
 76
     0
 77
     2
 78
   300
148
0.0
149
0.0
100
AcDbLayout
  1
Layout1
 70
     1
 71
     1
 10
0.0
 20
0.0
 11
12.0
 21
9.0
 12
0.0
 22
0.0
 32
0.0
 14
0.0
 24
0.0
 34
0.0
 15
0.0
 25
0.0
 35
0.0
146
0.0
 13
0.0
 23
0.0
 33
0.0
 16
1.0
 26
0.0
 36
0.0
 17
0.0
 27
1.0
 37
0.0
 76
     0
330
6C
  0
LAYOUT
  5
77
102
{ACAD_REACTORS
330
62
102
}
330
62
100
AcDbPlotSettings
  1

  2

  4

  6

 40
0.0
 41
0.0
 42
0.0
 43
0.0
 44
0.0
 45
0.0
 46
0.0
 47
0.0
 48
0.0
 49
0.0
140
0.0
141
0.0
142
1.0
143
1.0
 70
   688
 72
     0
 73
     0
 74
     5
  7

 75
    16
147
1.0
 76
     0
 77
     2
 78
   300
148
0.0
149
0.0
100
AcDbLayout
  1
Layout2
 70
     1
 71
     2
 10
0.0
 20
0.0
 11
12.0
 21
9.0
 12
0.0
 22
0.0
 32
0.0
 14
0.0
 24
0.0
 34
0.0
 15
0.0
 25
0.0
 35
0.0
146
0.0
 13
0.0
 23
0.0
 33
0.0
 16
1.0
 26
0.0
 36
0.0
 17
0.0
 27
1.0
 37
0.0
 76
     0
330
74
  0
LAYOUT
  5
73
102
{ACAD_REACTORS
330
62
102
}
330
62
100
AcDbPlotSettings
  1

  2

  4

  6

 40
0.0
 41
0.0
 42
0.0
 43
0.0
 44
0.0
 45
0.0
 46
0.0
 47
0.0
 48
0.0
 49
0.0
140
0.0
141
0.0
142
1.0
143
1.0
 70
  1712
 72
     0
 73
     0
 74
     0
  7

 75
     0
147
1.0
 76
     0
 77
     2
 78
   300
148
0.0
149
0.0
100
AcDbLayout
  1
Model
 70
     1
 71
     0
 10
0.0
 20
0.0
 11
12.0
 21
9.0
 12
0.0
 22
0.0
 32
0.0
 14
0.0
 24
0.0
 34
0.0
 15
0.0
 25
0.0
 35
0.0
146
0.0
 13
0.0
 23
0.0
 33
0.0
 16
1.0
 26
0.0
 36
0.0
 17
0.0
 27
1.0
 37
0.0
 76
     0
330
70
  0
MATERIAL
  5
19
102
{ACAD_XDICTIONARY
360
1A
102
}
102
{ACAD_REACTORS
330
10
102
}
330
10
100
AcDbMaterial
  1
ByBlock
 72
     0
 43
0.0208333333333333
 43
0.0
 43
0.0
 43
0.0
 43
0.0
 43
0.0208333333333333
 43
0.0
 43
0.0
 43
0.0
 43
0.0
 43
1.0
 43
0.0
 43
0.0
 43
0.0
 43
0.0
 43
1.0
 77
     0
 47
0.0208333333333333
 47
0.0
 47
0.0
 47
0.0
 47
0.0
 47
0.0208333333333333
 47
0.0
 47
0.0
 47
0.0
 47
0.0
 47
1.0
 47
0.0
 47
0.0
 47
0.0
 47
0.0
 47
1.0
171
     0
 49
0.0208333333333333
 49
0.0
 49
0.0
 49
0.0
 49
0.0
 49
0.0208333333333333
 49
0.0
 49
0.0
 49
0.0
 49
0.0
 49
1.0
 49
0.0
 49
0.0
 49
0.0
 49
0.0
 49
1.0
175
     0
142
0.0208333333333333
142
0.0
142
0.0
142
0.0
142
0.0
142
0.0208333333333333
142
0.0
142
0.0
142
0.0
142
0.0
142
1.0
142
0.0
142
0.0
142
0.0
142
0.0
142
1.0
179
     0
144
0.0208333333333333
144
0.0
144
0.0
144
0.0
144
0.0
144
0.0208333333333333
144
0.0
144
0.0
144
0.0
144
0.0
144
1.0
144
0.0
144
0.0
144
0.0
144
0.0
144
1.0
147
0.0208333333333333
147
0.0
147
0.0
147
0.0
147
0.0
147
0.0208333333333333
147
0.0
147
0.0
147
0.0
147
0.0
147
1.0
147
0.0
147
0.0
147
0.0
147
0.0
147
1.0
  0
MATERIAL
  5
11
102
{ACAD_XDICTIONARY
360
12
102
}
102
{ACAD_REACTORS
330
10
102
}
330
10
100
AcDbMaterial
  1
ByLayer
 72
     0
 43
0.0208333333333333
 43
0.0
 43
0.0
 43
0.0
 43
0.0
 43
0.0208333333333333
 43
0.0
 43
0.0
 43
0.0
 43
0.0
 43
1.0
 43
0.0
 43
0.0
 43
0.0
 43
0.0
 43
1.0
 77
     0
 47
0.0208333333333333
 47
0.0
 47
0.0
 47
0.0
 47
0.0
 47
0.0208333333333333
 47
0.0
 47
0.0
 47
0.0
 47
0.0
 47
1.0
 47
0.0
 47
0.0
 47
0.0
 47
0.0
 47
1.0
171
     0
 49
0.0208333333333333
 49
0.0
 49
0.0
 49
0.0
 49
0.0
 49
0.0208333333333333
 49
0.0
 49
0.0
 49
0.0
 49
0.0
 49
1.0
 49
0.0
 49
0.0
 49
0.0
 49
0.0
 49
1.0
175
     0
142
0.0208333333333333
142
0.0
142
0.0
142
0.0
142
0.0
142
0.0208333333333333
142
0.0
142
0.0
142
0.0
142
0.0
142
1.0
142
0.0
142
0.0
142
0.0
142
0.0
142
1.0
179
     0
144
0.0208333333333333
144
0.0
144
0.0
144
0.0
144
0.0
144
0.0208333333333333
144
0.0
144
0.0
144
0.0
144
0.0
144
1.0
144
0.0
144
0.0
144
0.0
144
0.0
144
1.0
147
0.0208333333333333
147
0.0
147
0.0
147
0.0
147
0.0
147
0.0208333333333333
147
0.0
147
0.0
147
0.0
147
0.0
147
1.0
147
0.0
147
0.0
147
0.0
147
0.0
147
1.0
  0
MATERIAL
  5
21
102
{ACAD_XDICTIONARY
360
22
102
}
102
{ACAD_REACTORS
330
10
102
}
330
10
100
AcDbMaterial
  1
Global
 72
     0
 43
0.0208333333333333
 43
0.0
 43
0.0
 43
0.0
 43
0.0
 43
0.0208333333333333
 43
0.0
 43
0.0
 43
0.0
 43
0.0
 43
1.0
 43
0.0
 43
0.0
 43
0.0
 43
0.0
 43
1.0
 77
     0
 47
0.0208333333333333
 47
0.0
 47
0.0
 47
0.0
 47
0.0
 47
0.0208333333333333
 47
0.0
 47
0.0
 47
0.0
 47
0.0
 47
1.0
 47
0.0
 47
0.0
 47
0.0
 47
0.0
 47
1.0
171
     0
 49
0.0208333333333333
 49
0.0
 49
0.0
 49
0.0
 49
0.0
 49
0.0208333333333333
 49
0.0
 49
0.0
 49
0.0
 49
0.0
 49
1.0
 49
0.0
 49
0.0
 49
0.0
 49
0.0
 49
1.0
175
     0
142
0.0208333333333333
142
0.0
142
0.0
142
0.0
142
0.0
142
0.0208333333333333
142
0.0
142
0.0
142
0.0
142
0.0
142
1.0
142
0.0
142
0.0
142
0.0
142
0.0
142
1.0
179
     0
144
0.0208333333333333
144
0.0
144
0.0
144
0.0
144
0.0
144
0.0208333333333333
144
0.0
144
0.0
144
0.0
144
0.0
144
1.0
144
0.0
144
0.0
144
0.0
144
0.0
144
1.0
147
0.0208333333333333
147
0.0
147
0.0
147
0.0
147
0.0
147
0.0208333333333333
147
0.0
147
0.0
147
0.0
147
0.0
147
1.0
147
0.0
147
0.0
147
0.0
147
0.0
147
1.0
  0
MLEADERSTYLE
  5
67
102
{ACAD_XDICTIONARY
360
183
102
}
102
{ACAD_REACTORS
330
66
102
}
330
66
100
AcDbMLeaderStyle
179
     2
170
     2
171
     1
172
     0
 90
        2
 40
0.0
 41
0.0
173
     1
 91
-1056964608
340
5B
 92
       -2
290
     1
 42
0.09
291
     1
 43
0.36
  3
Standard
 44
0.18
300

342
55
174
     1
178
     6
175
     1
176
     0
 93
-1056964608
 45
0.18
292
     0
297
     0
 46
0.18
 94
-1056964608
 47
1.0
 49
1.0
140
1.0
293
     1
141
0.0
294
     1
177
     0
142
1.0
295
     0
296
     0
143
0.125
271
     0
272
     9
273
     9
  0
MLINESTYLE
  5
60
102
{ACAD_REACTORS
330
5F
102
}
330
5F
100
AcDbMlineStyle
  2
STANDARD
 70
     0
  3

 62
   256
 51
90.0
 52
90.0
 71
     2
 49
0.5
 62
   256
  6
BYLAYER
 49
-0.5
 62
   256
  6
BYLAYER
  0
ACDBPLACEHOLDER
  5
F
102
{ACAD_REACTORS
330
E
102
}
330
E
  0
SCALE
  5
43
102
{ACAD_REACTORS
330
42
102
}
330
42
100
AcDbScale
 70
     0
300
1:1
140
1.0
141
1.0
290
     1
  0
SCALE
  5
44
102
{ACAD_REACTORS
330
42
102
}
330
42
100
AcDbScale
 70
     0
300
1/128" = 1'-0"
140
0.0078125
141
12.0
290
     0
  0
SCALE
  5
45
102
{ACAD_REACTORS
330
42
102
}
330
42
100
AcDbScale
 70
     0
300
1/64" = 1'-0"
140
0.015625
141
12.0
290
     0
  0
SCALE
  5
46
102
{ACAD_REACTORS
330
42
102
}
330
42
100
AcDbScale
 70
     0
300
1/32" = 1'-0"
140
0.03125
141
12.0
290
     0
  0
SCALE
  5
47
102
{ACAD_REACTORS
330
42
102
}
330
42
100
AcDbScale
 70
     0
300
1/16" = 1'-0"
140
0.0625
141
12.0
290
     0
  0
SCALE
  5
48
102
{ACAD_REACTORS
330
42
102
}
330
42
100
AcDbScale
 70
     0
300
3/32" = 1'-0"
140
0.09375
141
12.0
290
     0
  0
SCALE
  5
49
102
{ACAD_REACTORS
330
42
102
}
330
42
100
AcDbScale
 70
     0
300
1/8" = 1'-0"
140
0.125
141
12.0
290
     0
  0
SCALE
  5
4A
102
{ACAD_REACTORS
330
42
102
}
330
42
100
AcDbScale
 70
     0
300
3/16" = 1'-0"
140
0.1875
141
12.0
290
     0
  0
SCALE
  5
4B
102
{ACAD_REACTORS
330
42
102
}
330
42
100
AcDbScale
 70
     0
300
1/4" = 1'-0"
140
0.25
141
12.0
290
     0
  0
SCALE
  5
4C
102
{ACAD_REACTORS
330
42
102
}
330
42
100
AcDbScale
 70
     0
300
3/8" = 1'-0"
140
0.375
141
12.0
290
     0
  0
SCALE
  5
4D
102
{ACAD_REACTORS
330
42
102
}
330
42
100
AcDbScale
 70
     0
300
1/2" = 1'-0"
140
0.5
141
12.0
290
     0
  0
SCALE
  5
4E
102
{ACAD_REACTORS
330
42
102
}
330
42
100
AcDbScale
 70
     0
300
3/4" = 1'-0"
140
0.75
141
12.0
290
     0
  0
SCALE
  5
4F
102
{ACAD_REACTORS
330
42
102
}
330
42
100
AcDbScale
 70
     0
300
1" = 1'-0"
140
1.0
141
12.0
290
     0
  0
SCALE
  5
50
102
{ACAD_REACTORS
330
42
102
}
330
42
100
AcDbScale
 70
     0
300
1-1/2" = 1'-0"
140
1.5
141
12.0
290
     0
  0
SCALE
  5
51
102
{ACAD_REACTORS
330
42
102
}
330
42
100
AcDbScale
 70
     0
300
3" = 1'-0"
140
3.0
141
12.0
290
     0
  0
SCALE
  5
52
102
{ACAD_REACTORS
330
42
102
}
330
42
100
AcDbScale
 70
     0
300
6" = 1'-0"
140
6.0
141
12.0
290
     0
  0
SCALE
  5
53
102
{ACAD_REACTORS
330
42
102
}
330
42
100
AcDbScale
 70
     0
300
1'-0" = 1'-0"
140
12.0
141
12.0
290
     0
  0
ACDBSECTIONVIEWSTYLE
  5
69
102
{ACAD_XDICTIONARY
360
185
102
}
102
{ACAD_REACTORS
330
68
102
}
330
68
100
AcDbModelDocViewStyle
 70
     0
  3
Imperial24
290
     0
100
AcDbSectionViewStyle
 70
     0
 71
     0
 90
       78
 71
     1
340
55
 62
   256
 40
0.24
340
0
340
0
 62
   256
 40
0.24
300
I, O, Q, S, X, Z
 40
0.48
 90
        3
 40
0.18
 90
        1
 71
     2
340
5D
 90
       25
 62
   256
340
5D
 90
       50
 62
   256
 40
0.24
 40
0.0
 40
0.24
 71
     3
340
55
 62
   256
 40
0.24
 90
        1
 40
0.75
 90
        1
300
%<\AcVar ViewType \f "%tc1">% %<\AcVar ViewSectionStartId>%-%<\AcVar ViewSectionEndId>%\PSCALE %<\AcVar ViewScale \f "%sn">%
 71
     4
 62
   256
 62
   257
300
ANSI31
 40
1.0
 90
        0
290
     0
290
     0
 90
        6
 40
0.0
 40
1.570796326794896
 40
0.2617993877991494
 40
1.308996938995747
 40
-0.2617993877991494
 40
1.832595714594046
  0
TABLESTYLE
  5
65
102
{ACAD_XDICTIONARY
360
150
102
}
102
{ACAD_REACTORS
330
64
102
}
330
64
100
AcDbTableStyle
280
     0
  3
Standard
 70
     0
 71
     0
 40
0.06
 41
0.06
280
     0
281
     0
  7
Standard
140
0.18
170
     2
 62
     0
 63
     7
283
     0
 90
      512
 91
        0
  1

274
    -2
284
     1
 64
     0
275
    -2
285
     1
 65
     0
276
    -2
286
     1
 66
     0
277
    -2
287
     1
 67
     0
278
    -2
288
     1
 68
     0
279
    -2
289
     1
 69
     0
  7
Standard
140
0.25
170
     5
 62
     0
 63
     7
283
     0
 90
      512
 91
        0
  1

274
    -2
284
     1
 64
     0
275
    -2
285
     1
 65
     0
276
    -2
286
     1
 66
     0
277
    -2
287
     1
 67
     0
278
    -2
288
     1
 68
     0
279
    -2
289
     1
 69
     0
  7
Standard
140
0.18
170
     5
 62
     0
 63
     7
283
     0
 90
      512
 91
        0
  1

274
    -2
284
     1
 64
     0
275
    -2
285
     1
 65
     0
276
    -2
286
     1
 66
     0
277
    -2
287
     1
 67
     0
278
    -2
288
     1
 68
     0
279
    -2
289
     1
 69
     0
  0
VISUALSTYLE
  5
2F
102
{ACAD_XDICTIONARY
360
15D
102
}
102
{ACAD_REACTORS
330
29
102
}
330
29
100
AcDbVisualStyle
  2
2dWireframe
 70
     4
177
     2
291
     0
 71
     0
176
     1
 72
     2
176
     1
 73
     0
176
     1
 90
        0
176
     1
 40
0.6
176
     1
 41
30.0
176
     1
 63
     7
421
 16777215
176
     1
 74
     1
176
     1
 91
        4
176
     1
 64
     7
176
     1
 65
   257
176
     1
 75
     1
176
     1
175
     1
176
     1
 42
1.0
176
     1
 92
        0
176
     1
 66
   257
176
     1
 43
1.0
176
     1
 76
     1
176
     1
 77
     6
176
     1
 78
     2
176
     1
 67
     7
176
     1
 79
     5
176
     1
170
     0
176
     1
171
     0
176
     1
290
     0
176
     1
 93
        1
176
     1
 44
0.0
176
     1
173
     0
176
     1
1001
ACAD
1000
AcDbSavedByObjectVersion
1070
     0
  0
VISUALSTYLE
  5
2E
102
{ACAD_XDICTIONARY
360
15B
102
}
102
{ACAD_REACTORS
330
29
102
}
330
29
100
AcDbVisualStyle
  2
Basic
 70
     7
177
     2
291
     1
 71
     1
176
     1
 72
     0
176
     1
 73
     1
176
     1
 90
        0
176
     1
 40
0.6
176
     1
 41
30.0
176
     1
 63
     7
421
 16777215
176
     1
 74
     0
176
     1
 91
        4
176
     1
 64
     7
176
     1
 65
   257
176
     1
 75
     1
176
     1
175
     1
176
     1
 42
1.0
176
     1
 92
        8
176
     1
 66
     7
176
     1
 43
1.0
176
     1
 76
     1
176
     1
 77
     6
176
     1
 78
     2
176
     1
 67
     7
176
     1
 79
     5
176
     1
170
     0
176
     1
171
     0
176
     1
290
     0
176
     1
 93
        1
176
     1
 44
0.0
176
     1
173
     0
176
     1
1001
ACAD
1000
AcDbSavedByObjectVersion
1070
     0
  0
VISUALSTYLE
  5
35
102
{ACAD_XDICTIONARY
360
169
102
}
102
{ACAD_REACTORS
330
29
102
}
330
29
100
AcDbVisualStyle
  2
Brighten
 70
    12
177
     2
291
     1
 71
     2
176
     1
 72
     2
176
     1
 73
     0
176
     1
 90
        0
176
     1
 40
0.6
176
     1
 41
30.0
176
     1
 63
     7
421
 16777215
176
     1
 74
     1
176
     1
 91
        4
176
     1
 64
     7
176
     1
 65
   257
176
     1
 75
     1
176
     1
175
     1
176
     1
 42
1.0
176
     1
 92
        8
176
     1
 66
     7
176
     1
 43
1.0
176
     1
 76
     1
176
     1
 77
     6
176
     1
 78
     2
176
     1
 67
     7
176
     1
 79
     5
176
     1
170
     0
176
     1
171
     0
176
     1
290
     0
176
     1
 93
        1
176
     1
 44
50.0
176
     1
173
     0
176
     1
1001
ACAD
1000
AcDbSavedByObjectVersion
1070
     0
  0
VISUALSTYLE
  5
39
102
{ACAD_XDICTIONARY
360
171
102
}
102
{ACAD_REACTORS
330
29
102
}
330
29
100
AcDbVisualStyle
  2
ColorChange
 70
    16
177
     2
291
     1
 71
     2
176
     1
 72
     2
176
     1
 73
     3
176
     1
 90
        0
176
     1
 40
0.6
176
     1
 41
30.0
176
     1
 63
     8
421
  8421504
176
     1
 74
     1
176
     1
 91
        4
176
     1
 64
     7
176
     1
 65
   257
176
     1
 75
     1
176
     1
175
     1
176
     1
 42
1.0
176
     1
 92
        8
176
     1
 66
     8
424
  8421504
176
     1
 43
1.0
176
     1
 76
     1
176
     1
 77
     6
176
     1
 78
     2
176
     1
 67
     7
176
     1
 79
     5
176
     1
170
     0
176
     1
171
     0
176
     1
290
     0
176
     1
 93
        1
176
     1
 44
0.0
176
     1
173
     0
176
     1
1001
ACAD
1000
AcDbSavedByObjectVersion
1070
     0
  0
VISUALSTYLE
  5
32
102
{ACAD_XDICTIONARY
360
163
102
}
102
{ACAD_REACTORS
330
29
102
}
330
29
100
AcDbVisualStyle
  2
Conceptual
 70
     9
177
     2
291
     0
 71
     3
176
     1
 72
     2
176
     1
 73
     0
176
     1
 90
        0
176
     1
 40
0.6
176
     1
 41
30.0
176
     1
 63
     7
421
 16777215
176
     1
 74
     2
176
     1
 91
        2
176
     1
 64
     7
176
     1
 65
   257
176
     1
 75
     1
176
     1
175
     1
176
     1
 42
179.0
176
     1
 92
        8
176
     1
 66
     7
176
     1
 43
1.0
176
     1
 76
     1
176
     1
 77
     6
176
     1
 78
     2
176
     1
 67
     7
176
     1
 79
     3
176
     1
170
     0
176
     1
171
     0
176
     1
290
     0
176
     1
 93
        1
176
     1
 44
0.0
176
     1
173
     0
176
     1
1001
ACAD
1000
AcDbSavedByObjectVersion
1070
     0
  0
VISUALSTYLE
  5
34
102
{ACAD_XDICTIONARY
360
167
102
}
102
{ACAD_REACTORS
330
29
102
}
330
29
100
AcDbVisualStyle
  2
Dim
 70
    11
177
     2
291
     1
 71
     2
176
     1
 72
     2
176
     1
 73
     0
176
     1
 90
        0
176
     1
 40
0.6
176
     1
 41
30.0
176
     1
 63
     7
421
 16777215
176
     1
 74
     1
176
     1
 91
        4
176
     1
 64
     7
176
     1
 65
   257
176
     1
 75
     1
176
     1
175
     1
176
     1
 42
1.0
176
     1
 92
        8
176
     1
 66
     7
176
     1
 43
1.0
176
     1
 76
     1
176
     1
 77
     6
176
     1
 78
     2
176
     1
 67
     7
176
     1
 79
     5
176
     1
170
     0
176
     1
171
     0
176
     1
290
     0
176
     1
 93
        1
176
     1
 44
-50.0
176
     1
173
     0
176
     1
1001
ACAD
1000
AcDbSavedByObjectVersion
1070
     0
  0
VISUALSTYLE
  5
41
102
{ACAD_XDICTIONARY
360
181
102
}
102
{ACAD_REACTORS
330
29
102
}
330
29
100
AcDbVisualStyle
  2
EdgeColorOff
 70
    22
177
     2
291
     1
 71
     2
176
     0
 72
     2
176
     0
 73
     0
176
     0
 90
        0
176
     0
 40
0.6
176
     0
 41
30.0
176
     0
 63
     7
421
 16777215
176
     0
 74
     1
176
     0
 91
        4
176
     0
 64
     7
176
     0
 65
   257
176
     0
 75
     1
176
     0
175
     1
176
     0
 42
1.0
176
     0
 92
        8
176
     2
 66
     7
176
     0
 43
1.0
176
     0
 76
     1
176
     0
 77
     6
176
     0
 78
     2
176
     0
 67
     7
176
     0
 79
     5
176
     0
170
     0
176
     0
171
     0
176
     0
290
     0
176
     0
 93
        1
176
     0
 44
0.0
176
     0
173
     0
176
     0
1001
ACAD
1000
AcDbSavedByObjectVersion
1070
     0
  0
VISUALSTYLE
  5
38
102
{ACAD_XDICTIONARY
360
16F
102
}
102
{ACAD_REACTORS
330
29
102
}
330
29
100
AcDbVisualStyle
  2
Facepattern
 70
    15
177
     2
291
     1
 71
     2
176
     1
 72
     2
176
     1
 73
     0
176
     1
 90
        0
176
     1
 40
0.6
176
     1
 41
30.0
176
     1
 63
     7
421
 16777215
176
     1
 74
     1
176
     1
 91
        4
176
     1
 64
     7
176
     1
 65
   257
176
     1
 75
     1
176
     1
175
     1
176
     1
 42
1.0
176
     1
 92
        8
176
     1
 66
     7
176
     1
 43
1.0
176
     1
 76
     1
176
     1
 77
     6
176
     1
 78
     2
176
     1
 67
     7
176
     1
 79
     5
176
     1
170
     0
176
     1
171
     0
176
     1
290
     0
176
     1
 93
        1
176
     1
 44
0.0
176
     1
173
     0
176
     1
1001
ACAD
1000
AcDbSavedByObjectVersion
1070
     0
  0
VISUALSTYLE
  5
2A
102
{ACAD_XDICTIONARY
360
153
102
}
102
{ACAD_REACTORS
330
29
102
}
330
29
100
AcDbVisualStyle
  2
Flat
 70
     0
177
     2
291
     1
 71
     2
176
     1
 72
     1
176
     1
 73
     1
176
     1
 90
        2
176
     1
 40
0.6
176
     1
 41
30.0
176
     1
 63
     7
421
 16777215
176
     1
 74
     0
176
     1
 91
        0
176
     1
 64
     7
176
     1
 65
   257
176
     1
 75
     1
176
     1
175
     1
176
     1
 42
1.0
176
     1
 92
        8
176
     1
 66
     7
176
     1
 43
1.0
176
     1
 76
     1
176
     1
 77
     6
176
     1
 78
     2
176
     1
 67
     7
176
     1
 79
     5
176
     1
170
     0
176
     1
171
     0
176
     1
290
     0
176
     1
 93
       13
176
     1
 44
0.0
176
     1
173
     0
176
     1
1001
ACAD
1000
AcDbSavedByObjectVersion
1070
     0
  0
VISUALSTYLE
  5
2B
102
{ACAD_XDICTIONARY
360
155
102
}
102
{ACAD_REACTORS
330
29
102
}
330
29
100
AcDbVisualStyle
  2
FlatWithEdges
 70
     1
177
     2
291
     1
 71
     2
176
     1
 72
     1
176
     1
 73
     1
176
     1
 90
        2
176
     1
 40
0.6
176
     1
 41
30.0
176
     1
 63
     7
421
 16777215
176
     1
 74
     1
176
     1
 91
        0
176
     1
 64
     7
176
     1
 65
   257
176
     1
 75
     1
176
     1
175
     1
176
     1
 42
1.0
176
     1
 92
        0
176
     1
 66
   257
176
     1
 43
1.0
176
     1
 76
     1
176
     1
 77
     6
176
     1
 78
     2
176
     1
 67
     7
176
     1
 79
     5
176
     1
170
     0
176
     1
171
     0
176
     1
290
     0
176
     1
 93
       13
176
     1
 44
0.0
176
     1
173
     0
176
     1
1001
ACAD
1000
AcDbSavedByObjectVersion
1070
     0
  0
VISUALSTYLE
  5
2C
102
{ACAD_XDICTIONARY
360
157
102
}
102
{ACAD_REACTORS
330
29
102
}
330
29
100
AcDbVisualStyle
  2
Gouraud
 70
     2
177
     2
291
     1
 71
     2
176
     1
 72
     2
176
     1
 73
     1
176
     1
 90
        2
176
     1
 40
0.6
176
     1
 41
30.0
176
     1
 63
     7
421
 16777215
176
     1
 74
     0
176
     1
 91
        0
176
     1
 64
     7
176
     1
 65
   257
176
     1
 75
     1
176
     1
175
     1
176
     1
 42
1.0
176
     1
 92
        0
176
     1
 66
     7
176
     1
 43
1.0
176
     1
 76
     1
176
     1
 77
     6
176
     1
 78
     2
176
     1
 67
     7
176
     1
 79
     5
176
     1
170
     0
176
     1
171
     0
176
     1
290
     0
176
     1
 93
       13
176
     1
 44
0.0
176
     1
173
     0
176
     1
1001
ACAD
1000
AcDbSavedByObjectVersion
1070
     0
  0
VISUALSTYLE
  5
2D
102
{ACAD_XDICTIONARY
360
159
102
}
102
{ACAD_REACTORS
330
29
102
}
330
29
100
AcDbVisualStyle
  2
GouraudWithEdges
 70
     3
177
     2
291
     1
 71
     2
176
     1
 72
     2
176
     1
 73
     1
176
     1
 90
        2
176
     1
 40
0.6
176
     1
 41
30.0
176
     1
 63
     7
421
 16777215
176
     1
 74
     1
176
     1
 91
        0
176
     1
 64
     7
176
     1
 65
   257
176
     1
 75
     1
176
     1
175
     1
176
     1
 42
1.0
176
     1
 92
        0
176
     1
 66
   257
176
     1
 43
1.0
176
     1
 76
     1
176
     1
 77
     6
176
     1
 78
     2
176
     1
 67
     7
176
     1
 79
     5
176
     1
170
     0
176
     1
171
     0
176
     1
290
     0
176
     1
 93
       13
176
     1
 44
0.0
176
     1
173
     0
176
     1
1001
ACAD
1000
AcDbSavedByObjectVersion
1070
     0
  0
VISUALSTYLE
  5
31
102
{ACAD_XDICTIONARY
360
161
102
}
102
{ACAD_REACTORS
330
29
102
}
330
29
100
AcDbVisualStyle
  2
Hidden
 70
     6
177
     2
291
     0
 71
     1
176
     1
 72
     2
176
     1
 73
     2
176
     1
 90
        0
176
     1
 40
0.6
176
     1
 41
30.0
176
     1
 63
     7
421
 16777215
176
     1
 74
     2
176
     1
 91
        2
176
     1
 64
     7
176
     1
 65
   257
176
     1
 75
     2
176
     1
175
     1
176
     1
 42
40.0
176
     1
 92
        0
176
     1
 66
   257
176
     1
 43
1.0
176
     1
 76
     1
176
     1
 77
     6
176
     1
 78
     2
176
     1
 67
     7
176
     1
 79
     3
176
     1
170
     0
176
     1
171
     0
176
     1
290
     0
176
     1
 93
        1
176
     1
 44
0.0
176
     1
173
     0
176
     1
1001
ACAD
1000
AcDbSavedByObjectVersion
1070
     0
  0
VISUALSTYLE
  5
3F
102
{ACAD_XDICTIONARY
360
17D
102
}
102
{ACAD_REACTORS
330
29
102
}
330
29
100
AcDbVisualStyle
  2
JitterOff
 70
    20
177
     2
291
     1
 71
     2
176
     0
 72
     2
176
     0
 73
     0
176
     0
 90
        0
176
     0
 40
0.6
176
     0
 41
30.0
176
     0
 63
     7
421
 16777215
176
     0
 74
     1
176
     0
 91
        4
176
     0
 64
     7
176
     0
 65
   257
176
     0
 75
     1
176
     0
175
     1
176
     0
 42
1.0
176
     0
 92
       10
176
     2
 66
     7
176
     0
 43
1.0
176
     0
 76
     1
176
     0
 77
     6
176
     0
 78
     2
176
     0
 67
     7
176
     0
 79
     5
176
     0
170
     0
176
     0
171
     0
176
     0
290
     0
176
     0
 93
        1
176
     0
 44
0.0
176
     0
173
     0
176
     0
1001
ACAD
1000
AcDbSavedByObjectVersion
1070
     0
  0
VISUALSTYLE
  5
37
102
{ACAD_XDICTIONARY
360
16D
102
}
102
{ACAD_REACTORS
330
29
102
}
330
29
100
AcDbVisualStyle
  2
Linepattern
 70
    14
177
     2
291
     1
 71
     2
176
     1
 72
     2
176
     1
 73
     0
176
     1
 90
        0
176
     1
 40
0.6
176
     1
 41
30.0
176
     1
 63
     7
421
 16777215
176
     1
 74
     1
176
     1
 91
        4
176
     1
 64
     7
176
     1
 65
   257
176
     1
 75
     7
176
     1
175
     7
176
     1
 42
1.0
176
     1
 92
        8
176
     1
 66
     7
176
     1
 43
1.0
176
     1
 76
     1
176
     1
 77
     6
176
     1
 78
     2
176
     1
 67
     7
176
     1
 79
     5
176
     1
170
     0
176
     1
171
     0
176
     1
290
     0
176
     1
 93
        1
176
     1
 44
0.0
176
     1
173
     0
176
     1
1001
ACAD
1000
AcDbSavedByObjectVersion
1070
     0
  0
VISUALSTYLE
  5
40
102
{ACAD_XDICTIONARY
360
17F
102
}
102
{ACAD_REACTORS
330
29
102
}
330
29
100
AcDbVisualStyle
  2
OverhangOff
 70
    21
177
     2
291
     1
 71
     2
176
     0
 72
     2
176
     0
 73
     0
176
     0
 90
        0
176
     0
 40
0.6
176
     0
 41
30.0
176
     0
 63
     7
421
 16777215
176
     0
 74
     1
176
     0
 91
        4
176
     0
 64
     7
176
     0
 65
   257
176
     0
 75
     1
176
     0
175
     1
176
     0
 42
1.0
176
     0
 92
        9
176
     2
 66
     7
176
     0
 43
1.0
176
     0
 76
     1
176
     0
 77
     6
176
     0
 78
     2
176
     0
 67
     7
176
     0
 79
     5
176
     0
170
     0
176
     0
171
     0
176
     0
290
     0
176
     0
 93
        1
176
     0
 44
0.0
176
     0
173
     0
176
     0
1001
ACAD
1000
AcDbSavedByObjectVersion
1070
     0
  0
VISUALSTYLE
  5
33
102
{ACAD_XDICTIONARY
360
165
102
}
102
{ACAD_REACTORS
330
29
102
}
330
29
100
AcDbVisualStyle
  2
Realistic
 70
     8
177
     2
291
     0
 71
     2
176
     1
 72
     3
176
     1
 73
     0
176
     1
 90
        2
176
     1
 40
0.6
176
     1
 41
30.0
176
     1
 63
     7
421
 16777215
176
     1
 74
     0
176
     1
 91
        0
176
     1
 64
     7
176
     1
 65
   257
176
     1
 75
     1
176
     1
175
     1
176
     1
 42
1.0
176
     1
 92
        8
176
     1
 66
   257
176
     1
 43
1.0
176
     1
 76
     1
176
     1
 77
     6
176
     1
 78
     2
176
     1
 67
     7
176
     1
 79
     3
176
     1
170
     0
176
     1
171
     0
176
     1
290
     0
176
     1
 93
       13
176
     1
 44
0.0
176
     1
173
     0
176
     1
1001
ACAD
1000
AcDbSavedByObjectVersion
1070
     0
  0
VISUALSTYLE
  5
3E
102
{ACAD_XDICTIONARY
360
17B
102
}
102
{ACAD_REACTORS
330
29
102
}
330
29
100
AcDbVisualStyle
  2
Shaded
 70
    27
177
     2
291
     0
 71
     2
176
     1
 72
     2
176
     1
 73
     1
176
     1
 90
        2
176
     1
 40
0.6
176
     1
 41
30.0
176
     1
 63
     7
421
 16777215
176
     1
 74
     0
176
     1
 91
        4
176
     1
 64
     7
176
     1
 65
   257
176
     1
 75
     1
176
     1
175
     1
176
     1
 42
1.0
176
     1
 92
        8
176
     1
 66
   257
176
     1
 43
1.0
176
     1
 76
     1
176
     1
 77
     6
176
     1
 78
     2
176
     1
 67
     8
425
  7895160
176
     1
 79
     3
176
     1
170
     0
176
     1
171
     0
176
     1
290
     0
176
     1
 93
        5
176
     1
 44
0.0
176
     1
173
     0
176
     1
1001
ACAD
1000
AcDbSavedByObjectVersion
1070
     0
  0
VISUALSTYLE
  5
3D
102
{ACAD_XDICTIONARY
360
179
102
}
102
{ACAD_REACTORS
330
29
102
}
330
29
100
AcDbVisualStyle
  2
Shaded with edges
 70
    26
177
     2
291
     0
 71
     2
176
     1
 72
     2
176
     1
 73
     1
176
     1
 90
        2
176
     1
 40
0.6
176
     1
 41
30.0
176
     1
 63
     7
421
 16777215
176
     1
 74
     1
176
     1
 91
        2
176
     1
 64
     7
176
     1
 65
   257
176
     1
 75
     2
176
     1
175
     1
176
     1
 42
1.0
176
     1
 92
        8
176
     1
 66
   257
176
     1
 43
1.0
176
     1
 76
     1
176
     1
 77
     6
176
     1
 78
     2
176
     1
 67
     7
176
     1
 79
     3
176
     1
170
     0
176
     1
171
     0
176
     1
290
     0
176
     1
 93
        5
176
     1
 44
0.0
176
     1
173
     0
176
     1
1001
ACAD
1000
AcDbSavedByObjectVersion
1070
     0
  0
VISUALSTYLE
  5
3A
102
{ACAD_XDICTIONARY
360
173
102
}
102
{ACAD_REACTORS
330
29
102
}
330
29
100
AcDbVisualStyle
  2
Shades of Gray
 70
    23
177
     2
291
     0
 71
     2
176
     1
 72
     2
176
     1
 73
     3
176
     1
 90
        0
176
     1
 40
0.6
176
     1
 41
30.0
176
     1
 63
     7
421
 16777215
176
     1
 74
     2
176
     1
 91
        2
176
     1
 64
     7
176
     1
 65
     7
176
     1
 75
     1
176
     1
175
     1
176
     1
 42
40.0
176
     1
 92
        8
176
     1
 66
     7
176
     1
 43
1.0
176
     1
 76
     1
176
     1
 77
     6
176
     1
 78
     2
176
     1
 67
     7
176
     1
 79
     3
176
     1
170
     0
176
     1
171
     0
176
     1
290
     0
176
     1
 93
        1
176
     1
 44
0.0
176
     1
173
     0
176
     1
1001
ACAD
1000
AcDbSavedByObjectVersion
1070
     0
  0
VISUALSTYLE
  5
3B
102
{ACAD_XDICTIONARY
360
175
102
}
102
{ACAD_REACTORS
330
29
102
}
330
29
100
AcDbVisualStyle
  2
Sketchy
 70
    24
177
     2
291
     0
 71
     1
176
     1
 72
     2
176
     1
 73
     2
176
     1
 90
        0
176
     1
 40
0.6
176
     1
 41
30.0
176
     1
 63
     7
421
 16777215
176
     1
 74
     2
176
     1
 91
        2
176
     1
 64
     7
176
     1
 65
     7
176
     1
 75
     1
176
     1
175
     1
176
     1
 42
40.0
176
     1
 92
       11
176
     1
 66
     7
176
     1
 43
1.0
176
     1
 76
     1
176
     1
 77
     6
176
     1
 78
     2
176
     1
 67
     7
176
     1
 79
     6
176
     1
170
     0
176
     1
171
     0
176
     1
290
     0
176
     1
 93
        1
176
     1
 44
0.0
176
     1
173
     0
176
     1
1001
ACAD
1000
AcDbSavedByObjectVersion
1070
     0
  0
VISUALSTYLE
  5
36
102
{ACAD_XDICTIONARY
360
16B
102
}
102
{ACAD_REACTORS
330
29
102
}
330
29
100
AcDbVisualStyle
  2
Thicken
 70
    13
177
     2
291
     1
 71
     2
176
     1
 72
     2
176
     1
 73
     0
176
     1
 90
        0
176
     1
 40
0.6
176
     1
 41
30.0
176
     1
 63
     7
421
 16777215
176
     1
 74
     1
176
     1
 91
        4
176
     1
 64
     7
176
     1
 65
   257
176
     1
 75
     1
176
     1
175
     1
176
     1
 42
1.0
176
     1
 92
       12
176
     1
 66
     7
176
     1
 43
1.0
176
     1
 76
     1
176
     1
 77
     6
176
     1
 78
     2
176
     1
 67
     7
176
     1
 79
     5
176
     1
170
     0
176
     1
171
     0
176
     1
290
     0
176
     1
 93
        1
176
     1
 44
0.0
176
     1
173
     0
176
     1
1001
ACAD
1000
AcDbSavedByObjectVersion
1070
     0
  0
VISUALSTYLE
  5
30
102
{ACAD_XDICTIONARY
360
15F
102
}
102
{ACAD_REACTORS
330
29
102
}
330
29
100
AcDbVisualStyle
  2
Wireframe
 70
     5
177
     2
291
     0
 71
     0
176
     1
 72
     2
176
     1
 73
     0
176
     1
 90
        0
176
     1
 40
0.6
176
     1
 41
30.0
176
     1
 63
     7
421
 16777215
176
     1
 74
     1
176
     1
 91
        4
176
     1
 64
     7
176
     1
 65
   257
176
     1
 75
     1
176
     1
175
     1
176
     1
 42
1.0
176
     1
 92
        0
176
     1
 66
   257
176
     1
 43
1.0
176
     1
 76
     1
176
     1
 77
     6
176
     1
 78
     2
176
     1
 67
     7
176
     1
 79
     3
176
     1
170
     0
176
     1
171
     0
176
     1
290
     0
176
     1
 93
        1
176
     1
 44
0.0
176
     1
173
     0
176
     1
1001
ACAD
1000
AcDbSavedByObjectVersion
1070
     0
  0
VISUALSTYLE
  5
3C
102
{ACAD_XDICTIONARY
360
177
102
}
102
{ACAD_REACTORS
330
29
102
}
330
29
100
AcDbVisualStyle
  2
X-Ray
 70
    25
177
     2
291
     0
 71
     2
176
     1
 72
     2
176
     1
 73
     1
176
     1
 90
        1
176
     1
 40
0.5
176
     1
 41
30.0
176
     1
 63
     7
421
 16777215
176
     1
 74
     1
176
     1
 91
        0
176
     1
 64
     7
176
     1
 65
   257
176
     1
 75
     1
176
     1
175
     1
176
     1
 42
1.0
176
     1
 92
        8
176
     1
 66
     7
176
     1
 43
1.0
176
     1
 76
     1
176
     1
 77
     6
176
     1
 78
     2
176
     1
 67
     7
176
     1
 79
     3
176
     1
170
     0
176
     1
171
     0
176
     1
290
     0
176
     1
 93
       13
176
     1
 44
0.0
176
     1
173
     0
176
     1
1001
ACAD
1000
AcDbSavedByObjectVersion
1070
     0
  0
DICTIONARYVAR
  5
14F
102
{ACAD_REACTORS
330
14A
102
}
330
14A
100
DictionaryVariables
280
     0
  1
1:1
  0
DICTIONARYVAR
  5
14C
102
{ACAD_REACTORS
330
14A
102
}
330
14A
100
DictionaryVariables
280
     0
  1
STANDARD
  0
DICTIONARYVAR
  5
14B
102
{ACAD_REACTORS
330
14A
102
}
330
14A
100
DictionaryVariables
280
     0
  1
STANDARD
  0
DICTIONARYVAR
  5
14D
102
{ACAD_REACTORS
330
14A
102
}
330
14A
100
DictionaryVariables
280
     0
  1
Imperial24
  0
DICTIONARYVAR
  5
14E
102
{ACAD_REACTORS
330
14A
102
}
330
14A
100
DictionaryVariables
280
     0
  1
Imperial24
  0
DICTIONARY
  5
187
330
6B
100
AcDbDictionary
280
     1
281
     1
  3
ACAD_XREC_ROUNDTRIP
360
188
  0
DICTIONARY
  5
1A
330
19
100
AcDbDictionary
280
     1
281
     1
  3
BUMPTILE
360
1C
  3
DIFFUSETILE
360
1B
  3
OPACITYTILE
360
1F
  3
REFLECTIONTILE
360
1E
  3
REFRACTIONTILE
360
20
  3
SPECULARTILE
360
1D
  0
DICTIONARY
  5
12
330
11
100
AcDbDictionary
280
     1
281
     1
  3
BUMPTILE
360
14
  3
DIFFUSETILE
360
13
  3
OPACITYTILE
360
17
  3
REFLECTIONTILE
360
16
  3
REFRACTIONTILE
360
18
  3
SPECULARTILE
360
15
  0
DICTIONARY
  5
22
330
21
100
AcDbDictionary
280
     1
281
     1
  3
BUMPTILE
360
24
  3
DIFFUSETILE
360
23
  3
OPACITYTILE
360
27
  3
REFLECTIONTILE
360
26
  3
REFRACTIONTILE
360
28
  3
SPECULARTILE
360
25
  0
DICTIONARY
  5
183
330
67
100
AcDbDictionary
280
     1
281
     1
  3
ACAD_XREC_ROUNDTRIP
360
184
  0
DICTIONARY
  5
185
330
69
100
AcDbDictionary
280
     1
281
     1
  3
ACAD_XREC_ROUNDTRIP
360
186
  0
DICTIONARY
  5
150
330
65
100
AcDbDictionary
280
     1
281
     1
  3
ACAD_ROUNDTRIP_2008_TABLESTYLE_CELLSTYLEMAP
360
151
  0
DICTIONARY
  5
15D
330
2F
100
AcDbDictionary
280
     1
281
     1
  3
ACAD_XREC_ROUNDTRIP
360
15E
  0
DICTIONARY
  5
15B
330
2E
100
AcDbDictionary
280
     1
281
     1
  3
ACAD_XREC_ROUNDTRIP
360
15C
  0
DICTIONARY
  5
169
330
35
100
AcDbDictionary
280
     1
281
     1
  3
ACAD_XREC_ROUNDTRIP
360
16A
  0
DICTIONARY
  5
171
330
39
100
AcDbDictionary
280
     1
281
     1
  3
ACAD_XREC_ROUNDTRIP
360
172
  0
DICTIONARY
  5
163
330
32
100
AcDbDictionary
280
     1
281
     1
  3
ACAD_XREC_ROUNDTRIP
360
164
  0
DICTIONARY
  5
167
330
34
100
AcDbDictionary
280
     1
281
     1
  3
ACAD_XREC_ROUNDTRIP
360
168
  0
DICTIONARY
  5
181
330
41
100
AcDbDictionary
280
     1
281
     1
  3
ACAD_XREC_ROUNDTRIP
360
182
  0
DICTIONARY
  5
16F
330
38
100
AcDbDictionary
280
     1
281
     1
  3
ACAD_XREC_ROUNDTRIP
360
170
  0
DICTIONARY
  5
153
330
2A
100
AcDbDictionary
280
     1
281
     1
  3
ACAD_XREC_ROUNDTRIP
360
154
  0
DICTIONARY
  5
155
330
2B
100
AcDbDictionary
280
     1
281
     1
  3
ACAD_XREC_ROUNDTRIP
360
156
  0
DICTIONARY
  5
157
330
2C
100
AcDbDictionary
280
     1
281
     1
  3
ACAD_XREC_ROUNDTRIP
360
158
  0
DICTIONARY
  5
159
330
2D
100
AcDbDictionary
280
     1
281
     1
  3
ACAD_XREC_ROUNDTRIP
360
15A
  0
DICTIONARY
  5
161
330
31
100
AcDbDictionary
280
     1
281
     1
  3
ACAD_XREC_ROUNDTRIP
360
162
  0
DICTIONARY
  5
17D
330
3F
100
AcDbDictionary
280
     1
281
     1
  3
ACAD_XREC_ROUNDTRIP
360
17E
  0
DICTIONARY
  5
16D
330
37
100
AcDbDictionary
280
     1
281
     1
  3
ACAD_XREC_ROUNDTRIP
360
16E
  0
DICTIONARY
  5
17F
330
40
100
AcDbDictionary
280
     1
281
     1
  3
ACAD_XREC_ROUNDTRIP
360
180
  0
DICTIONARY
  5
165
330
33
100
AcDbDictionary
280
     1
281
     1
  3
ACAD_XREC_ROUNDTRIP
360
166
  0
DICTIONARY
  5
17B
330
3E
100
AcDbDictionary
280
     1
281
     1
  3
ACAD_XREC_ROUNDTRIP
360
17C
  0
DICTIONARY
  5
179
330
3D
100
AcDbDictionary
280
     1
281
     1
  3
ACAD_XREC_ROUNDTRIP
360
17A
  0
DICTIONARY
  5
173
330
3A
100
AcDbDictionary
280
     1
281
     1
  3
ACAD_XREC_ROUNDTRIP
360
174
  0
DICTIONARY
  5
175
330
3B
100
AcDbDictionary
280
     1
281
     1
  3
ACAD_XREC_ROUNDTRIP
360
176
  0
DICTIONARY
  5
16B
330
36
100
AcDbDictionary
280
     1
281
     1
  3
ACAD_XREC_ROUNDTRIP
360
16C
  0
DICTIONARY
  5
15F
330
30
100
AcDbDictionary
280
     1
281
     1
  3
ACAD_XREC_ROUNDTRIP
360
160
  0
DICTIONARY
  5
177
330
3C
100
AcDbDictionary
280
     1
281
     1
  3
ACAD_XREC_ROUNDTRIP
360
178
  0
XRECORD
  5
188
102
{ACAD_REACTORS
330
187
102
}
330
187
100
AcDbXrecord
280
     1
102
DISPLAYNAME
  1
Imperial24
102
FLAGS
 90
        0
  0
XRECORD
  5
1C
102
{ACAD_REACTORS
330
1A
102
}
330
1A
100
AcDbXrecord
280
     1
270
     1
271
     1
  0
XRECORD
  5
1B
102
{ACAD_REACTORS
330
1A
102
}
330
1A
100
AcDbXrecord
280
     1
270
     1
271
     1
  0
XRECORD
  5
1F
102
{ACAD_REACTORS
330
1A
102
}
330
1A
100
AcDbXrecord
280
     1
270
     1
271
     1
  0
XRECORD
  5
1E
102
{ACAD_REACTORS
330
1A
102
}
330
1A
100
AcDbXrecord
280
     1
270
     1
271
     1
  0
XRECORD
  5
20
102
{ACAD_REACTORS
330
1A
102
}
330
1A
100
AcDbXrecord
280
     1
270
     1
271
     1
  0
XRECORD
  5
1D
102
{ACAD_REACTORS
330
1A
102
}
330
1A
100
AcDbXrecord
280
     1
270
     1
271
     1
  0
XRECORD
  5
14
102
{ACAD_REACTORS
330
12
102
}
330
12
100
AcDbXrecord
280
     1
270
     1
271
     1
  0
XRECORD
  5
13
102
{ACAD_REACTORS
330
12
102
}
330
12
100
AcDbXrecord
280
     1
270
     1
271
     1
  0
XRECORD
  5
17
102
{ACAD_REACTORS
330
12
102
}
330
12
100
AcDbXrecord
280
     1
270
     1
271
     1
  0
XRECORD
  5
16
102
{ACAD_REACTORS
330
12
102
}
330
12
100
AcDbXrecord
280
     1
270
     1
271
     1
  0
XRECORD
  5
18
102
{ACAD_REACTORS
330
12
102
}
330
12
100
AcDbXrecord
280
     1
270
     1
271
     1
  0
XRECORD
  5
15
102
{ACAD_REACTORS
330
12
102
}
330
12
100
AcDbXrecord
280
     1
270
     1
271
     1
  0
XRECORD
  5
24
102
{ACAD_REACTORS
330
22
102
}
330
22
100
AcDbXrecord
280
     1
270
     1
271
     1
  0
XRECORD
  5
23
102
{ACAD_REACTORS
330
22
102
}
330
22
100
AcDbXrecord
280
     1
270
     1
271
     1
  0
XRECORD
  5
27
102
{ACAD_REACTORS
330
22
102
}
330
22
100
AcDbXrecord
280
     1
270
     1
271
     1
  0
XRECORD
  5
26
102
{ACAD_REACTORS
330
22
102
}
330
22
100
AcDbXrecord
280
     1
270
     1
271
     1
  0
XRECORD
  5
28
102
{ACAD_REACTORS
330
22
102
}
330
22
100
AcDbXrecord
280
     1
270
     1
271
     1
  0
XRECORD
  5
25
102
{ACAD_REACTORS
330
22
102
}
330
22
100
AcDbXrecord
280
     1
270
     1
271
     1
  0
XRECORD
  5
184
102
{ACAD_REACTORS
330
183
102
}
330
183
100
AcDbXrecord
280
     1
102
ACAD_ROUNDTRIP_2012_MLEADER_STYLE
298
     1
  0
XRECORD
  5
186
102
{ACAD_REACTORS
330
185
102
}
330
185
100
AcDbXrecord
280
     1
102
DISPLAYNAME
  1
Imperial24
102
FLAGS
 90
        0
  0
CELLSTYLEMAP
  5
151
102
{ACAD_REACTORS
330
150
102
}
330
150
100
AcDbCellStyleMap
 90
        3
300
CELLSTYLE
  1
TABLEFORMAT_BEGIN
 90
        5
170
     1
 91
        0
 92
    32768
 62
   257
 93
        1
300
CONTENTFORMAT
  1
CONTENTFORMAT_BEGIN
 90
        0
 91
        0
 92
      512
 93
        0
300

 40
0.0
140
1.0
 94
        5
 62
     0
340
55
144
0.25
309
CONTENTFORMAT_END
171
     0
 94
        0
309
TABLEFORMAT_END
  1
CELLSTYLE_BEGIN
 90
        1
 91
        1
300
_TITLE
309
CELLSTYLE_END
300
CELLSTYLE
  1
TABLEFORMAT_BEGIN
 90
        5
170
     1
 91
        0
 92
        0
 62
   257
 93
        1
300
CONTENTFORMAT
  1
CONTENTFORMAT_BEGIN
 90
        0
 91
        0
 92
      512
 93
        0
300

 40
0.0
140
1.0
 94
        5
 62
     0
340
55
144
0.18
309
CONTENTFORMAT_END
171
     0
 94
        0
309
TABLEFORMAT_END
  1
CELLSTYLE_BEGIN
 90
        2
 91
        1
300
_HEADER
309
CELLSTYLE_END
300
CELLSTYLE
  1
TABLEFORMAT_BEGIN
 90
        5
170
     1
 91
        0
 92
        0
 62
   257
 93
        1
300
CONTENTFORMAT
  1
CONTENTFORMAT_BEGIN
 90
        0
 91
        0
 92
      512
 93
        0
300

 40
0.0
140
1.0
 94
        2
 62
     0
340
55
144
0.18
309
CONTENTFORMAT_END
171
     0
 94
        0
309
TABLEFORMAT_END
  1
CELLSTYLE_BEGIN
 90
        3
 91
        2
300
_DATA
309
CELLSTYLE_END
  0
XRECORD
  5
15E
102
{ACAD_REACTORS
330
15D
102
}
330
15D
100
AcDbXrecord
280
     1
102
RTVSPost2010Prop28
280
     1
102
RTVSPost2010PropOp28
 70
     1
102
RTVSPost2010Prop29
280
     1
102
RTVSPost2010PropOp29
 70
     1
102
RTVSPost2010Prop30
280
     0
102
RTVSPost2010PropOp30
 70
     1
102
RTVSPost2010Prop31
280
     0
102
RTVSPost2010PropOp31
 70
     1
102
RTVSPost2010Prop32
280
     0
102
RTVSPost2010PropOp32
 70
     1
102
RTVSPost2010Prop33
280
     0
102
RTVSPost2010PropOp33
 70
     1
102
RTVSPost2010Prop34
280
     0
102
RTVSPost2010PropOp34
 70
     1
102
RTVSPost2010Prop35
280
     0
102
RTVSPost2010PropOp35
 70
     1
102
RTVSPost2010Prop36
280
     0
102
RTVSPost2010PropOp36
 70
     1
102
RTVSPost2010Prop37
 90
       50
102
RTVSPost2010PropOp37
 70
     1
102
RTVSPost2010Prop38
140
0.0
102
RTVSPost2010PropOp38
 70
     1
102
RTVSPost2010Prop39
140
1.0
102
RTVSPost2010PropOp39
 70
     1
102
RTVSPost2010Prop40
 90
        0
102
RTVSPost2010PropOp40
 70
     1
102
RTVSPost2010Prop41ColorIndex
 90
       18
102
RTVSPost2010Prop41ColorRGB
 90
        0
102
RTVSPost2010PropOp41
 70
     1
102
RTVSPost2010Prop42
 90
       50
102
RTVSPost2010PropOp42
 70
     1
102
RTVSPost2010Prop43
 90
        3
102
RTVSPost2010PropOp43
 70
     1
102
RTVSPost2010Prop44ColorIndex
 90
        5
102
RTVSPost2010Prop44ColorRGB
 90
      255
102
RTVSPost2010PropOp44
 70
     1
102
RTVSPost2010Prop45
280
     0
102
RTVSPost2010PropOp45
 70
     1
102
RTVSPost2010Prop46
 90
       50
102
RTVSPost2010PropOp46
 70
     1
102
RTVSPost2010Prop47
 90
       50
102
RTVSPost2010PropOp47
 70
     1
102
RTVSPost2010Prop48
 90
       50
102
RTVSPost2010PropOp48
 70
     1
102
RTVSPost2010Prop49
280
     0
102
RTVSPost2010PropOp49
 70
     1
102
RTVSPost2010Prop50
 90
       50
102
RTVSPost2010PropOp50
 70
     1
102
RTVSPost2010Prop51ColorIndex
 90
      256
102
RTVSPost2010Prop51ColorRGB
 90
-16777216
102
RTVSPost2010PropOp51
 70
     0
102
RTVSPost2010Prop52
140
1.0
102
RTVSPost2010PropOp52
 70
     0
102
RTVSPost2010Prop53
 90
        2
102
RTVSPost2010PropOp53
 70
     1
102
RTVSPost2010Prop54
  1
strokes_ogs.tif
102
RTVSPost2010PropOp54
 70
     1
102
RTVSPost2010Prop55
280
     0
102
RTVSPost2010PropOp55
 70
     1
102
RTVSPost2010Prop56
140
1.0
102
RTVSPost2010PropOp56
 70
     1
102
RTVSPost2010Prop57
140
1.0
102
RTVSPost2010PropOp57
 70
     1
  0
XRECORD
  5
15C
102
{ACAD_REACTORS
330
15B
102
}
330
15B
100
AcDbXrecord
280
     1
102
RTVSPost2010Prop28
280
     0
102
RTVSPost2010PropOp28
 70
     1
102
RTVSPost2010Prop29
280
     1
102
RTVSPost2010PropOp29
 70
     1
102
RTVSPost2010Prop30
280
     1
102
RTVSPost2010PropOp30
 70
     1
102
RTVSPost2010Prop31
280
     0
102
RTVSPost2010PropOp31
 70
     1
102
RTVSPost2010Prop32
280
     0
102
RTVSPost2010PropOp32
 70
     1
102
RTVSPost2010Prop33
280
     0
102
RTVSPost2010PropOp33
 70
     1
102
RTVSPost2010Prop34
280
     0
102
RTVSPost2010PropOp34
 70
     1
102
RTVSPost2010Prop35
280
     0
102
RTVSPost2010PropOp35
 70
     1
102
RTVSPost2010Prop36
280
     0
102
RTVSPost2010PropOp36
 70
     1
102
RTVSPost2010Prop37
 90
       50
102
RTVSPost2010PropOp37
 70
     1
102
RTVSPost2010Prop38
140
0.0
102
RTVSPost2010PropOp38
 70
     1
102
RTVSPost2010Prop39
140
1.0
102
RTVSPost2010PropOp39
 70
     1
102
RTVSPost2010Prop40
 90
        0
102
RTVSPost2010PropOp40
 70
     1
102
RTVSPost2010Prop41ColorIndex
 90
       18
102
RTVSPost2010Prop41ColorRGB
 90
        0
102
RTVSPost2010PropOp41
 70
     1
102
RTVSPost2010Prop42
 90
       50
102
RTVSPost2010PropOp42
 70
     1
102
RTVSPost2010Prop43
 90
        3
102
RTVSPost2010PropOp43
 70
     1
102
RTVSPost2010Prop44ColorIndex
 90
        5
102
RTVSPost2010Prop44ColorRGB
 90
      255
102
RTVSPost2010PropOp44
 70
     1
102
RTVSPost2010Prop45
280
     0
102
RTVSPost2010PropOp45
 70
     1
102
RTVSPost2010Prop46
 90
       50
102
RTVSPost2010PropOp46
 70
     1
102
RTVSPost2010Prop47
 90
       50
102
RTVSPost2010PropOp47
 70
     1
102
RTVSPost2010Prop48
 90
       50
102
RTVSPost2010PropOp48
 70
     1
102
RTVSPost2010Prop49
280
     0
102
RTVSPost2010PropOp49
 70
     1
102
RTVSPost2010Prop50
 90
       50
102
RTVSPost2010PropOp50
 70
     1
102
RTVSPost2010Prop51ColorIndex
 90
      256
102
RTVSPost2010Prop51ColorRGB
 90
-16777216
102
RTVSPost2010PropOp51
 70
     0
102
RTVSPost2010Prop52
140
1.0
102
RTVSPost2010PropOp52
 70
     0
102
RTVSPost2010Prop53
 90
        2
102
RTVSPost2010PropOp53
 70
     1
102
RTVSPost2010Prop54
  1
strokes_ogs.tif
102
RTVSPost2010PropOp54
 70
     1
102
RTVSPost2010Prop55
280
     0
102
RTVSPost2010PropOp55
 70
     1
102
RTVSPost2010Prop56
140
1.0
102
RTVSPost2010PropOp56
 70
     1
102
RTVSPost2010Prop57
140
1.0
102
RTVSPost2010PropOp57
 70
     1
  0
XRECORD
  5
16A
102
{ACAD_REACTORS
330
169
102
}
330
169
100
AcDbXrecord
280
     1
102
RTVSPost2010Prop28
280
     0
102
RTVSPost2010PropOp28
 70
     1
102
RTVSPost2010Prop29
280
     1
102
RTVSPost2010PropOp29
 70
     1
102
RTVSPost2010Prop30
280
     1
102
RTVSPost2010PropOp30
 70
     1
102
RTVSPost2010Prop31
280
     0
102
RTVSPost2010PropOp31
 70
     1
102
RTVSPost2010Prop32
280
     0
102
RTVSPost2010PropOp32
 70
     1
102
RTVSPost2010Prop33
280
     0
102
RTVSPost2010PropOp33
 70
     1
102
RTVSPost2010Prop34
280
     0
102
RTVSPost2010PropOp34
 70
     1
102
RTVSPost2010Prop35
280
     0
102
RTVSPost2010PropOp35
 70
     1
102
RTVSPost2010Prop36
280
     0
102
RTVSPost2010PropOp36
 70
     1
102
RTVSPost2010Prop37
 90
       50
102
RTVSPost2010PropOp37
 70
     1
102
RTVSPost2010Prop38
140
0.0
102
RTVSPost2010PropOp38
 70
     1
102
RTVSPost2010Prop39
140
1.0
102
RTVSPost2010PropOp39
 70
     1
102
RTVSPost2010Prop40
 90
        0
102
RTVSPost2010PropOp40
 70
     1
102
RTVSPost2010Prop41ColorIndex
 90
       18
102
RTVSPost2010Prop41ColorRGB
 90
        0
102
RTVSPost2010PropOp41
 70
     1
102
RTVSPost2010Prop42
 90
       50
102
RTVSPost2010PropOp42
 70
     1
102
RTVSPost2010Prop43
 90
        3
102
RTVSPost2010PropOp43
 70
     1
102
RTVSPost2010Prop44ColorIndex
 90
        5
102
RTVSPost2010Prop44ColorRGB
 90
      255
102
RTVSPost2010PropOp44
 70
     1
102
RTVSPost2010Prop45
280
     0
102
RTVSPost2010PropOp45
 70
     1
102
RTVSPost2010Prop46
 90
       50
102
RTVSPost2010PropOp46
 70
     1
102
RTVSPost2010Prop47
 90
       50
102
RTVSPost2010PropOp47
 70
     1
102
RTVSPost2010Prop48
 90
       50
102
RTVSPost2010PropOp48
 70
     1
102
RTVSPost2010Prop49
280
     0
102
RTVSPost2010PropOp49
 70
     1
102
RTVSPost2010Prop50
 90
       50
102
RTVSPost2010PropOp50
 70
     1
102
RTVSPost2010Prop51ColorIndex
 90
      256
102
RTVSPost2010Prop51ColorRGB
 90
-16777216
102
RTVSPost2010PropOp51
 70
     0
102
RTVSPost2010Prop52
140
1.0
102
RTVSPost2010PropOp52
 70
     0
102
RTVSPost2010Prop53
 90
        2
102
RTVSPost2010PropOp53
 70
     1
102
RTVSPost2010Prop54
  1
strokes_ogs.tif
102
RTVSPost2010PropOp54
 70
     1
102
RTVSPost2010Prop55
280
     0
102
RTVSPost2010PropOp55
 70
     1
102
RTVSPost2010Prop56
140
1.0
102
RTVSPost2010PropOp56
 70
     1
102
RTVSPost2010Prop57
140
1.0
102
RTVSPost2010PropOp57
 70
     1
  0
XRECORD
  5
172
102
{ACAD_REACTORS
330
171
102
}
330
171
100
AcDbXrecord
280
     1
102
RTVSPost2010Prop28
280
     0
102
RTVSPost2010PropOp28
 70
     1
102
RTVSPost2010Prop29
280
     1
102
RTVSPost2010PropOp29
 70
     1
102
RTVSPost2010Prop30
280
     1
102
RTVSPost2010PropOp30
 70
     1
102
RTVSPost2010Prop31
280
     0
102
RTVSPost2010PropOp31
 70
     1
102
RTVSPost2010Prop32
280
     0
102
RTVSPost2010PropOp32
 70
     1
102
RTVSPost2010Prop33
280
     0
102
RTVSPost2010PropOp33
 70
     1
102
RTVSPost2010Prop34
280
     0
102
RTVSPost2010PropOp34
 70
     1
102
RTVSPost2010Prop35
280
     0
102
RTVSPost2010PropOp35
 70
     1
102
RTVSPost2010Prop36
280
     0
102
RTVSPost2010PropOp36
 70
     1
102
RTVSPost2010Prop37
 90
       50
102
RTVSPost2010PropOp37
 70
     1
102
RTVSPost2010Prop38
140
0.0
102
RTVSPost2010PropOp38
 70
     1
102
RTVSPost2010Prop39
140
1.0
102
RTVSPost2010PropOp39
 70
     1
102
RTVSPost2010Prop40
 90
        0
102
RTVSPost2010PropOp40
 70
     1
102
RTVSPost2010Prop41ColorIndex
 90
       18
102
RTVSPost2010Prop41ColorRGB
 90
        0
102
RTVSPost2010PropOp41
 70
     1
102
RTVSPost2010Prop42
 90
       50
102
RTVSPost2010PropOp42
 70
     1
102
RTVSPost2010Prop43
 90
        3
102
RTVSPost2010PropOp43
 70
     1
102
RTVSPost2010Prop44ColorIndex
 90
        5
102
RTVSPost2010Prop44ColorRGB
 90
      255
102
RTVSPost2010PropOp44
 70
     1
102
RTVSPost2010Prop45
280
     0
102
RTVSPost2010PropOp45
 70
     1
102
RTVSPost2010Prop46
 90
       50
102
RTVSPost2010PropOp46
 70
     1
102
RTVSPost2010Prop47
 90
       50
102
RTVSPost2010PropOp47
 70
     1
102
RTVSPost2010Prop48
 90
       50
102
RTVSPost2010PropOp48
 70
     1
102
RTVSPost2010Prop49
280
     0
102
RTVSPost2010PropOp49
 70
     1
102
RTVSPost2010Prop50
 90
       50
102
RTVSPost2010PropOp50
 70
     1
102
RTVSPost2010Prop51ColorIndex
 90
      256
102
RTVSPost2010Prop51ColorRGB
 90
-16777216
102
RTVSPost2010PropOp51
 70
     0
102
RTVSPost2010Prop52
140
1.0
102
RTVSPost2010PropOp52
 70
     0
102
RTVSPost2010Prop53
 90
        2
102
RTVSPost2010PropOp53
 70
     1
102
RTVSPost2010Prop54
  1
strokes_ogs.tif
102
RTVSPost2010PropOp54
 70
     1
102
RTVSPost2010Prop55
280
     0
102
RTVSPost2010PropOp55
 70
     1
102
RTVSPost2010Prop56
140
1.0
102
RTVSPost2010PropOp56
 70
     1
102
RTVSPost2010Prop57
140
1.0
102
RTVSPost2010PropOp57
 70
     1
  0
XRECORD
  5
164
102
{ACAD_REACTORS
330
163
102
}
330
163
100
AcDbXrecord
280
     1
102
RTVSPost2010Prop28
280
     0
102
RTVSPost2010PropOp28
 70
     1
102
RTVSPost2010Prop29
280
     1
102
RTVSPost2010PropOp29
 70
     1
102
RTVSPost2010Prop30
280
     1
102
RTVSPost2010PropOp30
 70
     1
102
RTVSPost2010Prop31
280
     0
102
RTVSPost2010PropOp31
 70
     1
102
RTVSPost2010Prop32
280
     0
102
RTVSPost2010PropOp32
 70
     1
102
RTVSPost2010Prop33
280
     0
102
RTVSPost2010PropOp33
 70
     1
102
RTVSPost2010Prop34
280
     0
102
RTVSPost2010PropOp34
 70
     1
102
RTVSPost2010Prop35
280
     0
102
RTVSPost2010PropOp35
 70
     1
102
RTVSPost2010Prop36
280
     0
102
RTVSPost2010PropOp36
 70
     1
102
RTVSPost2010Prop37
 90
       50
102
RTVSPost2010PropOp37
 70
     1
102
RTVSPost2010Prop38
140
0.0
102
RTVSPost2010PropOp38
 70
     1
102
RTVSPost2010Prop39
140
1.0
102
RTVSPost2010PropOp39
 70
     1
102
RTVSPost2010Prop40
 90
        0
102
RTVSPost2010PropOp40
 70
     1
102
RTVSPost2010Prop41ColorIndex
 90
       18
102
RTVSPost2010Prop41ColorRGB
 90
        0
102
RTVSPost2010PropOp41
 70
     1
102
RTVSPost2010Prop42
 90
       50
102
RTVSPost2010PropOp42
 70
     1
102
RTVSPost2010Prop43
 90
        3
102
RTVSPost2010PropOp43
 70
     1
102
RTVSPost2010Prop44ColorIndex
 90
        5
102
RTVSPost2010Prop44ColorRGB
 90
      255
102
RTVSPost2010PropOp44
 70
     1
102
RTVSPost2010Prop45
280
     0
102
RTVSPost2010PropOp45
 70
     1
102
RTVSPost2010Prop46
 90
       50
102
RTVSPost2010PropOp46
 70
     1
102
RTVSPost2010Prop47
 90
       50
102
RTVSPost2010PropOp47
 70
     1
102
RTVSPost2010Prop48
 90
       50
102
RTVSPost2010PropOp48
 70
     1
102
RTVSPost2010Prop49
280
     0
102
RTVSPost2010PropOp49
 70
     1
102
RTVSPost2010Prop50
 90
       50
102
RTVSPost2010PropOp50
 70
     1
102
RTVSPost2010Prop51ColorIndex
 90
      256
102
RTVSPost2010Prop51ColorRGB
 90
-16777216
102
RTVSPost2010PropOp51
 70
     0
102
RTVSPost2010Prop52
140
1.0
102
RTVSPost2010PropOp52
 70
     0
102
RTVSPost2010Prop53
 90
        2
102
RTVSPost2010PropOp53
 70
     1
102
RTVSPost2010Prop54
  1
strokes_ogs.tif
102
RTVSPost2010PropOp54
 70
     1
102
RTVSPost2010Prop55
280
     0
102
RTVSPost2010PropOp55
 70
     1
102
RTVSPost2010Prop56
140
1.0
102
RTVSPost2010PropOp56
 70
     1
102
RTVSPost2010Prop57
140
1.0
102
RTVSPost2010PropOp57
 70
     1
  0
XRECORD
  5
168
102
{ACAD_REACTORS
330
167
102
}
330
167
100
AcDbXrecord
280
     1
102
RTVSPost2010Prop28
280
     0
102
RTVSPost2010PropOp28
 70
     1
102
RTVSPost2010Prop29
280
     1
102
RTVSPost2010PropOp29
 70
     1
102
RTVSPost2010Prop30
280
     1
102
RTVSPost2010PropOp30
 70
     1
102
RTVSPost2010Prop31
280
     0
102
RTVSPost2010PropOp31
 70
     1
102
RTVSPost2010Prop32
280
     0
102
RTVSPost2010PropOp32
 70
     1
102
RTVSPost2010Prop33
280
     0
102
RTVSPost2010PropOp33
 70
     1
102
RTVSPost2010Prop34
280
     0
102
RTVSPost2010PropOp34
 70
     1
102
RTVSPost2010Prop35
280
     0
102
RTVSPost2010PropOp35
 70
     1
102
RTVSPost2010Prop36
280
     0
102
RTVSPost2010PropOp36
 70
     1
102
RTVSPost2010Prop37
 90
       50
102
RTVSPost2010PropOp37
 70
     1
102
RTVSPost2010Prop38
140
0.0
102
RTVSPost2010PropOp38
 70
     1
102
RTVSPost2010Prop39
140
1.0
102
RTVSPost2010PropOp39
 70
     1
102
RTVSPost2010Prop40
 90
        0
102
RTVSPost2010PropOp40
 70
     1
102
RTVSPost2010Prop41ColorIndex
 90
       18
102
RTVSPost2010Prop41ColorRGB
 90
        0
102
RTVSPost2010PropOp41
 70
     1
102
RTVSPost2010Prop42
 90
       50
102
RTVSPost2010PropOp42
 70
     1
102
RTVSPost2010Prop43
 90
        3
102
RTVSPost2010PropOp43
 70
     1
102
RTVSPost2010Prop44ColorIndex
 90
        5
102
RTVSPost2010Prop44ColorRGB
 90
      255
102
RTVSPost2010PropOp44
 70
     1
102
RTVSPost2010Prop45
280
     0
102
RTVSPost2010PropOp45
 70
     1
102
RTVSPost2010Prop46
 90
       50
102
RTVSPost2010PropOp46
 70
     1
102
RTVSPost2010Prop47
 90
       50
102
RTVSPost2010PropOp47
 70
     1
102
RTVSPost2010Prop48
 90
       50
102
RTVSPost2010PropOp48
 70
     1
102
RTVSPost2010Prop49
280
     0
102
RTVSPost2010PropOp49
 70
     1
102
RTVSPost2010Prop50
 90
       50
102
RTVSPost2010PropOp50
 70
     1
102
RTVSPost2010Prop51ColorIndex
 90
      256
102
RTVSPost2010Prop51ColorRGB
 90
-16777216
102
RTVSPost2010PropOp51
 70
     0
102
RTVSPost2010Prop52
140
1.0
102
RTVSPost2010PropOp52
 70
     0
102
RTVSPost2010Prop53
 90
        2
102
RTVSPost2010PropOp53
 70
     1
102
RTVSPost2010Prop54
  1
strokes_ogs.tif
102
RTVSPost2010PropOp54
 70
     1
102
RTVSPost2010Prop55
280
     0
102
RTVSPost2010PropOp55
 70
     1
102
RTVSPost2010Prop56
140
1.0
102
RTVSPost2010PropOp56
 70
     1
102
RTVSPost2010Prop57
140
1.0
102
RTVSPost2010PropOp57
 70
     1
  0
XRECORD
  5
182
102
{ACAD_REACTORS
330
181
102
}
330
181
100
AcDbXrecord
280
     1
102
RTVSPost2010Prop28
280
     0
102
RTVSPost2010PropOp28
 70
     0
102
RTVSPost2010Prop29
280
     1
102
RTVSPost2010PropOp29
 70
     0
102
RTVSPost2010Prop30
280
     1
102
RTVSPost2010PropOp30
 70
     0
102
RTVSPost2010Prop31
280
     0
102
RTVSPost2010PropOp31
 70
     0
102
RTVSPost2010Prop32
280
     0
102
RTVSPost2010PropOp32
 70
     0
102
RTVSPost2010Prop33
280
     0
102
RTVSPost2010PropOp33
 70
     0
102
RTVSPost2010Prop34
280
     0
102
RTVSPost2010PropOp34
 70
     0
102
RTVSPost2010Prop35
280
     0
102
RTVSPost2010PropOp35
 70
     0
102
RTVSPost2010Prop36
280
     0
102
RTVSPost2010PropOp36
 70
     0
102
RTVSPost2010Prop37
 90
       50
102
RTVSPost2010PropOp37
 70
     0
102
RTVSPost2010Prop38
140
0.0
102
RTVSPost2010PropOp38
 70
     0
102
RTVSPost2010Prop39
140
1.0
102
RTVSPost2010PropOp39
 70
     0
102
RTVSPost2010Prop40
 90
        0
102
RTVSPost2010PropOp40
 70
     0
102
RTVSPost2010Prop41ColorIndex
 90
       18
102
RTVSPost2010Prop41ColorRGB
 90
        0
102
RTVSPost2010PropOp41
 70
     0
102
RTVSPost2010Prop42
 90
       50
102
RTVSPost2010PropOp42
 70
     0
102
RTVSPost2010Prop43
 90
        3
102
RTVSPost2010PropOp43
 70
     0
102
RTVSPost2010Prop44ColorIndex
 90
        5
102
RTVSPost2010Prop44ColorRGB
 90
      255
102
RTVSPost2010PropOp44
 70
     0
102
RTVSPost2010Prop45
280
     0
102
RTVSPost2010PropOp45
 70
     0
102
RTVSPost2010Prop46
 90
       50
102
RTVSPost2010PropOp46
 70
     0
102
RTVSPost2010Prop47
 90
       50
102
RTVSPost2010PropOp47
 70
     0
102
RTVSPost2010Prop48
 90
       50
102
RTVSPost2010PropOp48
 70
     0
102
RTVSPost2010Prop49
280
     0
102
RTVSPost2010PropOp49
 70
     0
102
RTVSPost2010Prop50
 90
       50
102
RTVSPost2010PropOp50
 70
     0
102
RTVSPost2010Prop51ColorIndex
 90
      256
102
RTVSPost2010Prop51ColorRGB
 90
-16777216
102
RTVSPost2010PropOp51
 70
     0
102
RTVSPost2010Prop52
140
1.0
102
RTVSPost2010PropOp52
 70
     0
102
RTVSPost2010Prop53
 90
        2
102
RTVSPost2010PropOp53
 70
     0
102
RTVSPost2010Prop54
  1
strokes_ogs.tif
102
RTVSPost2010PropOp54
 70
     0
102
RTVSPost2010Prop55
280
     0
102
RTVSPost2010PropOp55
 70
     0
102
RTVSPost2010Prop56
140
1.0
102
RTVSPost2010PropOp56
 70
     0
102
RTVSPost2010Prop57
140
1.0
102
RTVSPost2010PropOp57
 70
     0
  0
XRECORD
  5
170
102
{ACAD_REACTORS
330
16F
102
}
330
16F
100
AcDbXrecord
280
     1
102
RTVSPost2010Prop28
280
     0
102
RTVSPost2010PropOp28
 70
     1
102
RTVSPost2010Prop29
280
     1
102
RTVSPost2010PropOp29
 70
     1
102
RTVSPost2010Prop30
280
     1
102
RTVSPost2010PropOp30
 70
     1
102
RTVSPost2010Prop31
280
     0
102
RTVSPost2010PropOp31
 70
     1
102
RTVSPost2010Prop32
280
     0
102
RTVSPost2010PropOp32
 70
     1
102
RTVSPost2010Prop33
280
     0
102
RTVSPost2010PropOp33
 70
     1
102
RTVSPost2010Prop34
280
     0
102
RTVSPost2010PropOp34
 70
     1
102
RTVSPost2010Prop35
280
     0
102
RTVSPost2010PropOp35
 70
     1
102
RTVSPost2010Prop36
280
     0
102
RTVSPost2010PropOp36
 70
     1
102
RTVSPost2010Prop37
 90
       50
102
RTVSPost2010PropOp37
 70
     1
102
RTVSPost2010Prop38
140
0.0
102
RTVSPost2010PropOp38
 70
     1
102
RTVSPost2010Prop39
140
1.0
102
RTVSPost2010PropOp39
 70
     1
102
RTVSPost2010Prop40
 90
        0
102
RTVSPost2010PropOp40
 70
     1
102
RTVSPost2010Prop41ColorIndex
 90
       18
102
RTVSPost2010Prop41ColorRGB
 90
        0
102
RTVSPost2010PropOp41
 70
     1
102
RTVSPost2010Prop42
 90
       50
102
RTVSPost2010PropOp42
 70
     1
102
RTVSPost2010Prop43
 90
        3
102
RTVSPost2010PropOp43
 70
     1
102
RTVSPost2010Prop44ColorIndex
 90
        5
102
RTVSPost2010Prop44ColorRGB
 90
      255
102
RTVSPost2010PropOp44
 70
     1
102
RTVSPost2010Prop45
280
     0
102
RTVSPost2010PropOp45
 70
     1
102
RTVSPost2010Prop46
 90
       50
102
RTVSPost2010PropOp46
 70
     1
102
RTVSPost2010Prop47
 90
       50
102
RTVSPost2010PropOp47
 70
     1
102
RTVSPost2010Prop48
 90
       50
102
RTVSPost2010PropOp48
 70
     1
102
RTVSPost2010Prop49
280
     0
102
RTVSPost2010PropOp49
 70
     1
102
RTVSPost2010Prop50
 90
       50
102
RTVSPost2010PropOp50
 70
     1
102
RTVSPost2010Prop51ColorIndex
 90
      256
102
RTVSPost2010Prop51ColorRGB
 90
-16777216
102
RTVSPost2010PropOp51
 70
     0
102
RTVSPost2010Prop52
140
1.0
102
RTVSPost2010PropOp52
 70
     0
102
RTVSPost2010Prop53
 90
        2
102
RTVSPost2010PropOp53
 70
     1
102
RTVSPost2010Prop54
  1
strokes_ogs.tif
102
RTVSPost2010PropOp54
 70
     1
102
RTVSPost2010Prop55
280
     0
102
RTVSPost2010PropOp55
 70
     1
102
RTVSPost2010Prop56
140
1.0
102
RTVSPost2010PropOp56
 70
     1
102
RTVSPost2010Prop57
140
1.0
102
RTVSPost2010PropOp57
 70
     1
  0
XRECORD
  5
154
102
{ACAD_REACTORS
330
153
102
}
330
153
100
AcDbXrecord
280
     1
102
RTVSPost2010Prop28
280
     0
102
RTVSPost2010PropOp28
 70
     1
102
RTVSPost2010Prop29
280
     1
102
RTVSPost2010PropOp29
 70
     1
102
RTVSPost2010Prop30
280
     1
102
RTVSPost2010PropOp30
 70
     1
102
RTVSPost2010Prop31
280
     0
102
RTVSPost2010PropOp31
 70
     1
102
RTVSPost2010Prop32
280
     0
102
RTVSPost2010PropOp32
 70
     1
102
RTVSPost2010Prop33
280
     0
102
RTVSPost2010PropOp33
 70
     1
102
RTVSPost2010Prop34
280
     0
102
RTVSPost2010PropOp34
 70
     1
102
RTVSPost2010Prop35
280
     0
102
RTVSPost2010PropOp35
 70
     1
102
RTVSPost2010Prop36
280
     0
102
RTVSPost2010PropOp36
 70
     1
102
RTVSPost2010Prop37
 90
       50
102
RTVSPost2010PropOp37
 70
     1
102
RTVSPost2010Prop38
140
0.0
102
RTVSPost2010PropOp38
 70
     1
102
RTVSPost2010Prop39
140
1.0
102
RTVSPost2010PropOp39
 70
     1
102
RTVSPost2010Prop40
 90
        0
102
RTVSPost2010PropOp40
 70
     1
102
RTVSPost2010Prop41ColorIndex
 90
       18
102
RTVSPost2010Prop41ColorRGB
 90
        0
102
RTVSPost2010PropOp41
 70
     1
102
RTVSPost2010Prop42
 90
       50
102
RTVSPost2010PropOp42
 70
     1
102
RTVSPost2010Prop43
 90
        3
102
RTVSPost2010PropOp43
 70
     1
102
RTVSPost2010Prop44ColorIndex
 90
        5
102
RTVSPost2010Prop44ColorRGB
 90
      255
102
RTVSPost2010PropOp44
 70
     1
102
RTVSPost2010Prop45
280
     0
102
RTVSPost2010PropOp45
 70
     1
102
RTVSPost2010Prop46
 90
       50
102
RTVSPost2010PropOp46
 70
     1
102
RTVSPost2010Prop47
 90
       50
102
RTVSPost2010PropOp47
 70
     1
102
RTVSPost2010Prop48
 90
       50
102
RTVSPost2010PropOp48
 70
     1
102
RTVSPost2010Prop49
280
     0
102
RTVSPost2010PropOp49
 70
     1
102
RTVSPost2010Prop50
 90
       50
102
RTVSPost2010PropOp50
 70
     1
102
RTVSPost2010Prop51ColorIndex
 90
      256
102
RTVSPost2010Prop51ColorRGB
 90
-16777216
102
RTVSPost2010PropOp51
 70
     0
102
RTVSPost2010Prop52
140
1.0
102
RTVSPost2010PropOp52
 70
     0
102
RTVSPost2010Prop53
 90
        2
102
RTVSPost2010PropOp53
 70
     1
102
RTVSPost2010Prop54
  1
strokes_ogs.tif
102
RTVSPost2010PropOp54
 70
     1
102
RTVSPost2010Prop55
280
     0
102
RTVSPost2010PropOp55
 70
     1
102
RTVSPost2010Prop56
140
1.0
102
RTVSPost2010PropOp56
 70
     1
102
RTVSPost2010Prop57
140
1.0
102
RTVSPost2010PropOp57
 70
     1
  0
XRECORD
  5
156
102
{ACAD_REACTORS
330
155
102
}
330
155
100
AcDbXrecord
280
     1
102
RTVSPost2010Prop28
280
     0
102
RTVSPost2010PropOp28
 70
     1
102
RTVSPost2010Prop29
280
     1
102
RTVSPost2010PropOp29
 70
     1
102
RTVSPost2010Prop30
280
     1
102
RTVSPost2010PropOp30
 70
     1
102
RTVSPost2010Prop31
280
     0
102
RTVSPost2010PropOp31
 70
     1
102
RTVSPost2010Prop32
280
     0
102
RTVSPost2010PropOp32
 70
     1
102
RTVSPost2010Prop33
280
     0
102
RTVSPost2010PropOp33
 70
     1
102
RTVSPost2010Prop34
280
     0
102
RTVSPost2010PropOp34
 70
     1
102
RTVSPost2010Prop35
280
     0
102
RTVSPost2010PropOp35
 70
     1
102
RTVSPost2010Prop36
280
     0
102
RTVSPost2010PropOp36
 70
     1
102
RTVSPost2010Prop37
 90
       50
102
RTVSPost2010PropOp37
 70
     1
102
RTVSPost2010Prop38
140
0.0
102
RTVSPost2010PropOp38
 70
     1
102
RTVSPost2010Prop39
140
1.0
102
RTVSPost2010PropOp39
 70
     1
102
RTVSPost2010Prop40
 90
        0
102
RTVSPost2010PropOp40
 70
     1
102
RTVSPost2010Prop41ColorIndex
 90
       18
102
RTVSPost2010Prop41ColorRGB
 90
        0
102
RTVSPost2010PropOp41
 70
     1
102
RTVSPost2010Prop42
 90
       50
102
RTVSPost2010PropOp42
 70
     1
102
RTVSPost2010Prop43
 90
        3
102
RTVSPost2010PropOp43
 70
     1
102
RTVSPost2010Prop44ColorIndex
 90
        5
102
RTVSPost2010Prop44ColorRGB
 90
      255
102
RTVSPost2010PropOp44
 70
     1
102
RTVSPost2010Prop45
280
     0
102
RTVSPost2010PropOp45
 70
     1
102
RTVSPost2010Prop46
 90
       50
102
RTVSPost2010PropOp46
 70
     1
102
RTVSPost2010Prop47
 90
       50
102
RTVSPost2010PropOp47
 70
     1
102
RTVSPost2010Prop48
 90
       50
102
RTVSPost2010PropOp48
 70
     1
102
RTVSPost2010Prop49
280
     0
102
RTVSPost2010PropOp49
 70
     1
102
RTVSPost2010Prop50
 90
       50
102
RTVSPost2010PropOp50
 70
     1
102
RTVSPost2010Prop51ColorIndex
 90
      256
102
RTVSPost2010Prop51ColorRGB
 90
-16777216
102
RTVSPost2010PropOp51
 70
     0
102
RTVSPost2010Prop52
140
1.0
102
RTVSPost2010PropOp52
 70
     0
102
RTVSPost2010Prop53
 90
        2
102
RTVSPost2010PropOp53
 70
     1
102
RTVSPost2010Prop54
  1
strokes_ogs.tif
102
RTVSPost2010PropOp54
 70
     1
102
RTVSPost2010Prop55
280
     0
102
RTVSPost2010PropOp55
 70
     1
102
RTVSPost2010Prop56
140
1.0
102
RTVSPost2010PropOp56
 70
     1
102
RTVSPost2010Prop57
140
1.0
102
RTVSPost2010PropOp57
 70
     1
  0
XRECORD
  5
158
102
{ACAD_REACTORS
330
157
102
}
330
157
100
AcDbXrecord
280
     1
102
RTVSPost2010Prop28
280
     0
102
RTVSPost2010PropOp28
 70
     1
102
RTVSPost2010Prop29
280
     1
102
RTVSPost2010PropOp29
 70
     1
102
RTVSPost2010Prop30
280
     1
102
RTVSPost2010PropOp30
 70
     1
102
RTVSPost2010Prop31
280
     0
102
RTVSPost2010PropOp31
 70
     1
102
RTVSPost2010Prop32
280
     0
102
RTVSPost2010PropOp32
 70
     1
102
RTVSPost2010Prop33
280
     0
102
RTVSPost2010PropOp33
 70
     1
102
RTVSPost2010Prop34
280
     0
102
RTVSPost2010PropOp34
 70
     1
102
RTVSPost2010Prop35
280
     0
102
RTVSPost2010PropOp35
 70
     1
102
RTVSPost2010Prop36
280
     0
102
RTVSPost2010PropOp36
 70
     1
102
RTVSPost2010Prop37
 90
       50
102
RTVSPost2010PropOp37
 70
     1
102
RTVSPost2010Prop38
140
0.0
102
RTVSPost2010PropOp38
 70
     1
102
RTVSPost2010Prop39
140
1.0
102
RTVSPost2010PropOp39
 70
     1
102
RTVSPost2010Prop40
 90
        0
102
RTVSPost2010PropOp40
 70
     1
102
RTVSPost2010Prop41ColorIndex
 90
       18
102
RTVSPost2010Prop41ColorRGB
 90
        0
102
RTVSPost2010PropOp41
 70
     1
102
RTVSPost2010Prop42
 90
       50
102
RTVSPost2010PropOp42
 70
     1
102
RTVSPost2010Prop43
 90
        3
102
RTVSPost2010PropOp43
 70
     1
102
RTVSPost2010Prop44ColorIndex
 90
        5
102
RTVSPost2010Prop44ColorRGB
 90
      255
102
RTVSPost2010PropOp44
 70
     1
102
RTVSPost2010Prop45
280
     0
102
RTVSPost2010PropOp45
 70
     1
102
RTVSPost2010Prop46
 90
       50
102
RTVSPost2010PropOp46
 70
     1
102
RTVSPost2010Prop47
 90
       50
102
RTVSPost2010PropOp47
 70
     1
102
RTVSPost2010Prop48
 90
       50
102
RTVSPost2010PropOp48
 70
     1
102
RTVSPost2010Prop49
280
     0
102
RTVSPost2010PropOp49
 70
     1
102
RTVSPost2010Prop50
 90
       50
102
RTVSPost2010PropOp50
 70
     1
102
RTVSPost2010Prop51ColorIndex
 90
      256
102
RTVSPost2010Prop51ColorRGB
 90
-16777216
102
RTVSPost2010PropOp51
 70
     0
102
RTVSPost2010Prop52
140
1.0
102
RTVSPost2010PropOp52
 70
     0
102
RTVSPost2010Prop53
 90
        2
102
RTVSPost2010PropOp53
 70
     1
102
RTVSPost2010Prop54
  1
strokes_ogs.tif
102
RTVSPost2010PropOp54
 70
     1
102
RTVSPost2010Prop55
280
     0
102
RTVSPost2010PropOp55
 70
     1
102
RTVSPost2010Prop56
140
1.0
102
RTVSPost2010PropOp56
 70
     1
102
RTVSPost2010Prop57
140
1.0
102
RTVSPost2010PropOp57
 70
     1
  0
XRECORD
  5
15A
102
{ACAD_REACTORS
330
159
102
}
330
159
100
AcDbXrecord
280
     1
102
RTVSPost2010Prop28
280
     0
102
RTVSPost2010PropOp28
 70
     1
102
RTVSPost2010Prop29
280
     1
102
RTVSPost2010PropOp29
 70
     1
102
RTVSPost2010Prop30
280
     1
102
RTVSPost2010PropOp30
 70
     1
102
RTVSPost2010Prop31
280
     0
102
RTVSPost2010PropOp31
 70
     1
102
RTVSPost2010Prop32
280
     0
102
RTVSPost2010PropOp32
 70
     1
102
RTVSPost2010Prop33
280
     0
102
RTVSPost2010PropOp33
 70
     1
102
RTVSPost2010Prop34
280
     0
102
RTVSPost2010PropOp34
 70
     1
102
RTVSPost2010Prop35
280
     0
102
RTVSPost2010PropOp35
 70
     1
102
RTVSPost2010Prop36
280
     0
102
RTVSPost2010PropOp36
 70
     1
102
RTVSPost2010Prop37
 90
       50
102
RTVSPost2010PropOp37
 70
     1
102
RTVSPost2010Prop38
140
0.0
102
RTVSPost2010PropOp38
 70
     1
102
RTVSPost2010Prop39
140
1.0
102
RTVSPost2010PropOp39
 70
     1
102
RTVSPost2010Prop40
 90
        0
102
RTVSPost2010PropOp40
 70
     1
102
RTVSPost2010Prop41ColorIndex
 90
       18
102
RTVSPost2010Prop41ColorRGB
 90
        0
102
RTVSPost2010PropOp41
 70
     1
102
RTVSPost2010Prop42
 90
       50
102
RTVSPost2010PropOp42
 70
     1
102
RTVSPost2010Prop43
 90
        3
102
RTVSPost2010PropOp43
 70
     1
102
RTVSPost2010Prop44ColorIndex
 90
        5
102
RTVSPost2010Prop44ColorRGB
 90
      255
102
RTVSPost2010PropOp44
 70
     1
102
RTVSPost2010Prop45
280
     0
102
RTVSPost2010PropOp45
 70
     1
102
RTVSPost2010Prop46
 90
       50
102
RTVSPost2010PropOp46
 70
     1
102
RTVSPost2010Prop47
 90
       50
102
RTVSPost2010PropOp47
 70
     1
102
RTVSPost2010Prop48
 90
       50
102
RTVSPost2010PropOp48
 70
     1
102
RTVSPost2010Prop49
280
     0
102
RTVSPost2010PropOp49
 70
     1
102
RTVSPost2010Prop50
 90
       50
102
RTVSPost2010PropOp50
 70
     1
102
RTVSPost2010Prop51ColorIndex
 90
      256
102
RTVSPost2010Prop51ColorRGB
 90
-16777216
102
RTVSPost2010PropOp51
 70
     0
102
RTVSPost2010Prop52
140
1.0
102
RTVSPost2010PropOp52
 70
     0
102
RTVSPost2010Prop53
 90
        2
102
RTVSPost2010PropOp53
 70
     1
102
RTVSPost2010Prop54
  1
strokes_ogs.tif
102
RTVSPost2010PropOp54
 70
     1
102
RTVSPost2010Prop55
280
     0
102
RTVSPost2010PropOp55
 70
     1
102
RTVSPost2010Prop56
140
1.0
102
RTVSPost2010PropOp56
 70
     1
102
RTVSPost2010Prop57
140
1.0
102
RTVSPost2010PropOp57
 70
     1
  0
XRECORD
  5
162
102
{ACAD_REACTORS
330
161
102
}
330
161
100
AcDbXrecord
280
     1
102
RTVSPost2010Prop28
280
     0
102
RTVSPost2010PropOp28
 70
     1
102
RTVSPost2010Prop29
280
     1
102
RTVSPost2010PropOp29
 70
     1
102
RTVSPost2010Prop30
280
     1
102
RTVSPost2010PropOp30
 70
     1
102
RTVSPost2010Prop31
280
     0
102
RTVSPost2010PropOp31
 70
     1
102
RTVSPost2010Prop32
280
     0
102
RTVSPost2010PropOp32
 70
     1
102
RTVSPost2010Prop33
280
     0
102
RTVSPost2010PropOp33
 70
     1
102
RTVSPost2010Prop34
280
     0
102
RTVSPost2010PropOp34
 70
     1
102
RTVSPost2010Prop35
280
     0
102
RTVSPost2010PropOp35
 70
     1
102
RTVSPost2010Prop36
280
     0
102
RTVSPost2010PropOp36
 70
     1
102
RTVSPost2010Prop37
 90
       50
102
RTVSPost2010PropOp37
 70
     1
102
RTVSPost2010Prop38
140
0.0
102
RTVSPost2010PropOp38
 70
     1
102
RTVSPost2010Prop39
140
1.0
102
RTVSPost2010PropOp39
 70
     1
102
RTVSPost2010Prop40
 90
        0
102
RTVSPost2010PropOp40
 70
     1
102
RTVSPost2010Prop41ColorIndex
 90
       18
102
RTVSPost2010Prop41ColorRGB
 90
        0
102
RTVSPost2010PropOp41
 70
     1
102
RTVSPost2010Prop42
 90
       50
102
RTVSPost2010PropOp42
 70
     1
102
RTVSPost2010Prop43
 90
        3
102
RTVSPost2010PropOp43
 70
     1
102
RTVSPost2010Prop44ColorIndex
 90
        5
102
RTVSPost2010Prop44ColorRGB
 90
      255
102
RTVSPost2010PropOp44
 70
     1
102
RTVSPost2010Prop45
280
     0
102
RTVSPost2010PropOp45
 70
     1
102
RTVSPost2010Prop46
 90
       50
102
RTVSPost2010PropOp46
 70
     1
102
RTVSPost2010Prop47
 90
       50
102
RTVSPost2010PropOp47
 70
     1
102
RTVSPost2010Prop48
 90
       50
102
RTVSPost2010PropOp48
 70
     1
102
RTVSPost2010Prop49
280
     0
102
RTVSPost2010PropOp49
 70
     1
102
RTVSPost2010Prop50
 90
       50
102
RTVSPost2010PropOp50
 70
     1
102
RTVSPost2010Prop51ColorIndex
 90
      256
102
RTVSPost2010Prop51ColorRGB
 90
-16777216
102
RTVSPost2010PropOp51
 70
     0
102
RTVSPost2010Prop52
140
1.0
102
RTVSPost2010PropOp52
 70
     0
102
RTVSPost2010Prop53
 90
        2
102
RTVSPost2010PropOp53
 70
     1
102
RTVSPost2010Prop54
  1
strokes_ogs.tif
102
RTVSPost2010PropOp54
 70
     1
102
RTVSPost2010Prop55
280
     0
102
RTVSPost2010PropOp55
 70
     1
102
RTVSPost2010Prop56
140
1.0
102
RTVSPost2010PropOp56
 70
     1
102
RTVSPost2010Prop57
140
1.0
102
RTVSPost2010PropOp57
 70
     1
  0
XRECORD
  5
17E
102
{ACAD_REACTORS
330
17D
102
}
330
17D
100
AcDbXrecord
280
     1
102
RTVSPost2010Prop28
280
     0
102
RTVSPost2010PropOp28
 70
     0
102
RTVSPost2010Prop29
280
     1
102
RTVSPost2010PropOp29
 70
     0
102
RTVSPost2010Prop30
280
     1
102
RTVSPost2010PropOp30
 70
     0
102
RTVSPost2010Prop31
280
     0
102
RTVSPost2010PropOp31
 70
     0
102
RTVSPost2010Prop32
280
     0
102
RTVSPost2010PropOp32
 70
     0
102
RTVSPost2010Prop33
280
     0
102
RTVSPost2010PropOp33
 70
     0
102
RTVSPost2010Prop34
280
     0
102
RTVSPost2010PropOp34
 70
     0
102
RTVSPost2010Prop35
280
     0
102
RTVSPost2010PropOp35
 70
     0
102
RTVSPost2010Prop36
280
     0
102
RTVSPost2010PropOp36
 70
     0
102
RTVSPost2010Prop37
 90
       50
102
RTVSPost2010PropOp37
 70
     0
102
RTVSPost2010Prop38
140
0.0
102
RTVSPost2010PropOp38
 70
     0
102
RTVSPost2010Prop39
140
1.0
102
RTVSPost2010PropOp39
 70
     0
102
RTVSPost2010Prop40
 90
        0
102
RTVSPost2010PropOp40
 70
     0
102
RTVSPost2010Prop41ColorIndex
 90
       18
102
RTVSPost2010Prop41ColorRGB
 90
        0
102
RTVSPost2010PropOp41
 70
     0
102
RTVSPost2010Prop42
 90
       50
102
RTVSPost2010PropOp42
 70
     0
102
RTVSPost2010Prop43
 90
        3
102
RTVSPost2010PropOp43
 70
     0
102
RTVSPost2010Prop44ColorIndex
 90
        5
102
RTVSPost2010Prop44ColorRGB
 90
      255
102
RTVSPost2010PropOp44
 70
     0
102
RTVSPost2010Prop45
280
     0
102
RTVSPost2010PropOp45
 70
     0
102
RTVSPost2010Prop46
 90
       50
102
RTVSPost2010PropOp46
 70
     0
102
RTVSPost2010Prop47
 90
       50
102
RTVSPost2010PropOp47
 70
     0
102
RTVSPost2010Prop48
 90
       50
102
RTVSPost2010PropOp48
 70
     0
102
RTVSPost2010Prop49
280
     0
102
RTVSPost2010PropOp49
 70
     0
102
RTVSPost2010Prop50
 90
       50
102
RTVSPost2010PropOp50
 70
     0
102
RTVSPost2010Prop51ColorIndex
 90
      256
102
RTVSPost2010Prop51ColorRGB
 90
-16777216
102
RTVSPost2010PropOp51
 70
     0
102
RTVSPost2010Prop52
140
1.0
102
RTVSPost2010PropOp52
 70
     0
102
RTVSPost2010Prop53
 90
        2
102
RTVSPost2010PropOp53
 70
     0
102
RTVSPost2010Prop54
  1
strokes_ogs.tif
102
RTVSPost2010PropOp54
 70
     0
102
RTVSPost2010Prop55
280
     0
102
RTVSPost2010PropOp55
 70
     0
102
RTVSPost2010Prop56
140
1.0
102
RTVSPost2010PropOp56
 70
     0
102
RTVSPost2010Prop57
140
1.0
102
RTVSPost2010PropOp57
 70
     0
  0
XRECORD
  5
16E
102
{ACAD_REACTORS
330
16D
102
}
330
16D
100
AcDbXrecord
280
     1
102
RTVSPost2010Prop28
280
     0
102
RTVSPost2010PropOp28
 70
     1
102
RTVSPost2010Prop29
280
     1
102
RTVSPost2010PropOp29
 70
     1
102
RTVSPost2010Prop30
280
     1
102
RTVSPost2010PropOp30
 70
     1
102
RTVSPost2010Prop31
280
     0
102
RTVSPost2010PropOp31
 70
     1
102
RTVSPost2010Prop32
280
     0
102
RTVSPost2010PropOp32
 70
     1
102
RTVSPost2010Prop33
280
     0
102
RTVSPost2010PropOp33
 70
     1
102
RTVSPost2010Prop34
280
     0
102
RTVSPost2010PropOp34
 70
     1
102
RTVSPost2010Prop35
280
     0
102
RTVSPost2010PropOp35
 70
     1
102
RTVSPost2010Prop36
280
     0
102
RTVSPost2010PropOp36
 70
     1
102
RTVSPost2010Prop37
 90
       50
102
RTVSPost2010PropOp37
 70
     1
102
RTVSPost2010Prop38
140
0.0
102
RTVSPost2010PropOp38
 70
     1
102
RTVSPost2010Prop39
140
1.0
102
RTVSPost2010PropOp39
 70
     1
102
RTVSPost2010Prop40
 90
        0
102
RTVSPost2010PropOp40
 70
     1
102
RTVSPost2010Prop41ColorIndex
 90
       18
102
RTVSPost2010Prop41ColorRGB
 90
        0
102
RTVSPost2010PropOp41
 70
     1
102
RTVSPost2010Prop42
 90
       50
102
RTVSPost2010PropOp42
 70
     1
102
RTVSPost2010Prop43
 90
        3
102
RTVSPost2010PropOp43
 70
     1
102
RTVSPost2010Prop44ColorIndex
 90
        5
102
RTVSPost2010Prop44ColorRGB
 90
      255
102
RTVSPost2010PropOp44
 70
     1
102
RTVSPost2010Prop45
280
     0
102
RTVSPost2010PropOp45
 70
     1
102
RTVSPost2010Prop46
 90
       50
102
RTVSPost2010PropOp46
 70
     1
102
RTVSPost2010Prop47
 90
       50
102
RTVSPost2010PropOp47
 70
     1
102
RTVSPost2010Prop48
 90
       50
102
RTVSPost2010PropOp48
 70
     1
102
RTVSPost2010Prop49
280
     0
102
RTVSPost2010PropOp49
 70
     1
102
RTVSPost2010Prop50
 90
       50
102
RTVSPost2010PropOp50
 70
     1
102
RTVSPost2010Prop51ColorIndex
 90
      256
102
RTVSPost2010Prop51ColorRGB
 90
-16777216
102
RTVSPost2010PropOp51
 70
     0
102
RTVSPost2010Prop52
140
1.0
102
RTVSPost2010PropOp52
 70
     0
102
RTVSPost2010Prop53
 90
        2
102
RTVSPost2010PropOp53
 70
     1
102
RTVSPost2010Prop54
  1
strokes_ogs.tif
102
RTVSPost2010PropOp54
 70
     1
102
RTVSPost2010Prop55
280
     0
102
RTVSPost2010PropOp55
 70
     1
102
RTVSPost2010Prop56
140
1.0
102
RTVSPost2010PropOp56
 70
     1
102
RTVSPost2010Prop57
140
1.0
102
RTVSPost2010PropOp57
 70
     1
  0
XRECORD
  5
180
102
{ACAD_REACTORS
330
17F
102
}
330
17F
100
AcDbXrecord
280
     1
102
RTVSPost2010Prop28
280
     0
102
RTVSPost2010PropOp28
 70
     0
102
RTVSPost2010Prop29
280
     1
102
RTVSPost2010PropOp29
 70
     0
102
RTVSPost2010Prop30
280
     1
102
RTVSPost2010PropOp30
 70
     0
102
RTVSPost2010Prop31
280
     0
102
RTVSPost2010PropOp31
 70
     0
102
RTVSPost2010Prop32
280
     0
102
RTVSPost2010PropOp32
 70
     0
102
RTVSPost2010Prop33
280
     0
102
RTVSPost2010PropOp33
 70
     0
102
RTVSPost2010Prop34
280
     0
102
RTVSPost2010PropOp34
 70
     0
102
RTVSPost2010Prop35
280
     0
102
RTVSPost2010PropOp35
 70
     0
102
RTVSPost2010Prop36
280
     0
102
RTVSPost2010PropOp36
 70
     0
102
RTVSPost2010Prop37
 90
       50
102
RTVSPost2010PropOp37
 70
     0
102
RTVSPost2010Prop38
140
0.0
102
RTVSPost2010PropOp38
 70
     0
102
RTVSPost2010Prop39
140
1.0
102
RTVSPost2010PropOp39
 70
     0
102
RTVSPost2010Prop40
 90
        0
102
RTVSPost2010PropOp40
 70
     0
102
RTVSPost2010Prop41ColorIndex
 90
       18
102
RTVSPost2010Prop41ColorRGB
 90
        0
102
RTVSPost2010PropOp41
 70
     0
102
RTVSPost2010Prop42
 90
       50
102
RTVSPost2010PropOp42
 70
     0
102
RTVSPost2010Prop43
 90
        3
102
RTVSPost2010PropOp43
 70
     0
102
RTVSPost2010Prop44ColorIndex
 90
        5
102
RTVSPost2010Prop44ColorRGB
 90
      255
102
RTVSPost2010PropOp44
 70
     0
102
RTVSPost2010Prop45
280
     0
102
RTVSPost2010PropOp45
 70
     0
102
RTVSPost2010Prop46
 90
       50
102
RTVSPost2010PropOp46
 70
     0
102
RTVSPost2010Prop47
 90
       50
102
RTVSPost2010PropOp47
 70
     0
102
RTVSPost2010Prop48
 90
       50
102
RTVSPost2010PropOp48
 70
     0
102
RTVSPost2010Prop49
280
     0
102
RTVSPost2010PropOp49
 70
     0
102
RTVSPost2010Prop50
 90
       50
102
RTVSPost2010PropOp50
 70
     0
102
RTVSPost2010Prop51ColorIndex
 90
      256
102
RTVSPost2010Prop51ColorRGB
 90
-16777216
102
RTVSPost2010PropOp51
 70
     0
102
RTVSPost2010Prop52
140
1.0
102
RTVSPost2010PropOp52
 70
     0
102
RTVSPost2010Prop53
 90
        2
102
RTVSPost2010PropOp53
 70
     0
102
RTVSPost2010Prop54
  1
strokes_ogs.tif
102
RTVSPost2010PropOp54
 70
     0
102
RTVSPost2010Prop55
280
     0
102
RTVSPost2010PropOp55
 70
     0
102
RTVSPost2010Prop56
140
1.0
102
RTVSPost2010PropOp56
 70
     0
102
RTVSPost2010Prop57
140
1.0
102
RTVSPost2010PropOp57
 70
     0
  0
XRECORD
  5
166
102
{ACAD_REACTORS
330
165
102
}
330
165
100
AcDbXrecord
280
     1
102
RTVSPost2010Prop28
280
     0
102
RTVSPost2010PropOp28
 70
     1
102
RTVSPost2010Prop29
280
     1
102
RTVSPost2010PropOp29
 70
     1
102
RTVSPost2010Prop30
280
     1
102
RTVSPost2010PropOp30
 70
     1
102
RTVSPost2010Prop31
280
     0
102
RTVSPost2010PropOp31
 70
     1
102
RTVSPost2010Prop32
280
     0
102
RTVSPost2010PropOp32
 70
     1
102
RTVSPost2010Prop33
280
     0
102
RTVSPost2010PropOp33
 70
     1
102
RTVSPost2010Prop34
280
     0
102
RTVSPost2010PropOp34
 70
     1
102
RTVSPost2010Prop35
280
     0
102
RTVSPost2010PropOp35
 70
     1
102
RTVSPost2010Prop36
280
     0
102
RTVSPost2010PropOp36
 70
     1
102
RTVSPost2010Prop37
 90
       50
102
RTVSPost2010PropOp37
 70
     1
102
RTVSPost2010Prop38
140
0.0
102
RTVSPost2010PropOp38
 70
     1
102
RTVSPost2010Prop39
140
1.0
102
RTVSPost2010PropOp39
 70
     1
102
RTVSPost2010Prop40
 90
        0
102
RTVSPost2010PropOp40
 70
     1
102
RTVSPost2010Prop41ColorIndex
 90
       18
102
RTVSPost2010Prop41ColorRGB
 90
        0
102
RTVSPost2010PropOp41
 70
     1
102
RTVSPost2010Prop42
 90
       50
102
RTVSPost2010PropOp42
 70
     1
102
RTVSPost2010Prop43
 90
        3
102
RTVSPost2010PropOp43
 70
     1
102
RTVSPost2010Prop44ColorIndex
 90
        5
102
RTVSPost2010Prop44ColorRGB
 90
      255
102
RTVSPost2010PropOp44
 70
     1
102
RTVSPost2010Prop45
280
     0
102
RTVSPost2010PropOp45
 70
     1
102
RTVSPost2010Prop46
 90
       50
102
RTVSPost2010PropOp46
 70
     1
102
RTVSPost2010Prop47
 90
       50
102
RTVSPost2010PropOp47
 70
     1
102
RTVSPost2010Prop48
 90
       50
102
RTVSPost2010PropOp48
 70
     1
102
RTVSPost2010Prop49
280
     0
102
RTVSPost2010PropOp49
 70
     1
102
RTVSPost2010Prop50
 90
       50
102
RTVSPost2010PropOp50
 70
     1
102
RTVSPost2010Prop51ColorIndex
 90
      256
102
RTVSPost2010Prop51ColorRGB
 90
-16777216
102
RTVSPost2010PropOp51
 70
     0
102
RTVSPost2010Prop52
140
1.0
102
RTVSPost2010PropOp52
 70
     0
102
RTVSPost2010Prop53
 90
        2
102
RTVSPost2010PropOp53
 70
     1
102
RTVSPost2010Prop54
  1
strokes_ogs.tif
102
RTVSPost2010PropOp54
 70
     1
102
RTVSPost2010Prop55
280
     0
102
RTVSPost2010PropOp55
 70
     1
102
RTVSPost2010Prop56
140
1.0
102
RTVSPost2010PropOp56
 70
     1
102
RTVSPost2010Prop57
140
1.0
102
RTVSPost2010PropOp57
 70
     1
  0
XRECORD
  5
17C
102
{ACAD_REACTORS
330
17B
102
}
330
17B
100
AcDbXrecord
280
     1
102
RTVSPost2010Prop28
280
     0
102
RTVSPost2010PropOp28
 70
     1
102
RTVSPost2010Prop29
280
     1
102
RTVSPost2010PropOp29
 70
     1
102
RTVSPost2010Prop30
280
     1
102
RTVSPost2010PropOp30
 70
     1
102
RTVSPost2010Prop31
280
     0
102
RTVSPost2010PropOp31
 70
     1
102
RTVSPost2010Prop32
280
     0
102
RTVSPost2010PropOp32
 70
     1
102
RTVSPost2010Prop33
280
     0
102
RTVSPost2010PropOp33
 70
     1
102
RTVSPost2010Prop34
280
     0
102
RTVSPost2010PropOp34
 70
     1
102
RTVSPost2010Prop35
280
     0
102
RTVSPost2010PropOp35
 70
     1
102
RTVSPost2010Prop36
280
     0
102
RTVSPost2010PropOp36
 70
     1
102
RTVSPost2010Prop37
 90
       50
102
RTVSPost2010PropOp37
 70
     1
102
RTVSPost2010Prop38
140
0.0
102
RTVSPost2010PropOp38
 70
     1
102
RTVSPost2010Prop39
140
1.0
102
RTVSPost2010PropOp39
 70
     1
102
RTVSPost2010Prop40
 90
        0
102
RTVSPost2010PropOp40
 70
     1
102
RTVSPost2010Prop41ColorIndex
 90
       18
102
RTVSPost2010Prop41ColorRGB
 90
        0
102
RTVSPost2010PropOp41
 70
     1
102
RTVSPost2010Prop42
 90
       50
102
RTVSPost2010PropOp42
 70
     1
102
RTVSPost2010Prop43
 90
        3
102
RTVSPost2010PropOp43
 70
     1
102
RTVSPost2010Prop44ColorIndex
 90
        5
102
RTVSPost2010Prop44ColorRGB
 90
      255
102
RTVSPost2010PropOp44
 70
     1
102
RTVSPost2010Prop45
280
     0
102
RTVSPost2010PropOp45
 70
     1
102
RTVSPost2010Prop46
 90
       50
102
RTVSPost2010PropOp46
 70
     1
102
RTVSPost2010Prop47
 90
       50
102
RTVSPost2010PropOp47
 70
     1
102
RTVSPost2010Prop48
 90
       50
102
RTVSPost2010PropOp48
 70
     1
102
RTVSPost2010Prop49
280
     0
102
RTVSPost2010PropOp49
 70
     1
102
RTVSPost2010Prop50
 90
       50
102
RTVSPost2010PropOp50
 70
     1
102
RTVSPost2010Prop51ColorIndex
 90
      256
102
RTVSPost2010Prop51ColorRGB
 90
-16777216
102
RTVSPost2010PropOp51
 70
     0
102
RTVSPost2010Prop52
140
1.0
102
RTVSPost2010PropOp52
 70
     0
102
RTVSPost2010Prop53
 90
        2
102
RTVSPost2010PropOp53
 70
     1
102
RTVSPost2010Prop54
  1
strokes_ogs.tif
102
RTVSPost2010PropOp54
 70
     1
102
RTVSPost2010Prop55
280
     0
102
RTVSPost2010PropOp55
 70
     1
102
RTVSPost2010Prop56
140
1.0
102
RTVSPost2010PropOp56
 70
     1
102
RTVSPost2010Prop57
140
1.0
102
RTVSPost2010PropOp57
 70
     1
  0
XRECORD
  5
17A
102
{ACAD_REACTORS
330
179
102
}
330
179
100
AcDbXrecord
280
     1
102
RTVSPost2010Prop28
280
     0
102
RTVSPost2010PropOp28
 70
     1
102
RTVSPost2010Prop29
280
     1
102
RTVSPost2010PropOp29
 70
     1
102
RTVSPost2010Prop30
280
     1
102
RTVSPost2010PropOp30
 70
     1
102
RTVSPost2010Prop31
280
     0
102
RTVSPost2010PropOp31
 70
     1
102
RTVSPost2010Prop32
280
     0
102
RTVSPost2010PropOp32
 70
     1
102
RTVSPost2010Prop33
280
     0
102
RTVSPost2010PropOp33
 70
     1
102
RTVSPost2010Prop34
280
     0
102
RTVSPost2010PropOp34
 70
     1
102
RTVSPost2010Prop35
280
     0
102
RTVSPost2010PropOp35
 70
     1
102
RTVSPost2010Prop36
280
     0
102
RTVSPost2010PropOp36
 70
     1
102
RTVSPost2010Prop37
 90
       50
102
RTVSPost2010PropOp37
 70
     1
102
RTVSPost2010Prop38
140
0.0
102
RTVSPost2010PropOp38
 70
     1
102
RTVSPost2010Prop39
140
1.0
102
RTVSPost2010PropOp39
 70
     1
102
RTVSPost2010Prop40
 90
        0
102
RTVSPost2010PropOp40
 70
     1
102
RTVSPost2010Prop41ColorIndex
 90
       18
102
RTVSPost2010Prop41ColorRGB
 90
        0
102
RTVSPost2010PropOp41
 70
     1
102
RTVSPost2010Prop42
 90
       50
102
RTVSPost2010PropOp42
 70
     1
102
RTVSPost2010Prop43
 90
        3
102
RTVSPost2010PropOp43
 70
     1
102
RTVSPost2010Prop44ColorIndex
 90
        5
102
RTVSPost2010Prop44ColorRGB
 90
      255
102
RTVSPost2010PropOp44
 70
     1
102
RTVSPost2010Prop45
280
     0
102
RTVSPost2010PropOp45
 70
     1
102
RTVSPost2010Prop46
 90
       50
102
RTVSPost2010PropOp46
 70
     1
102
RTVSPost2010Prop47
 90
       50
102
RTVSPost2010PropOp47
 70
     1
102
RTVSPost2010Prop48
 90
       50
102
RTVSPost2010PropOp48
 70
     1
102
RTVSPost2010Prop49
280
     0
102
RTVSPost2010PropOp49
 70
     1
102
RTVSPost2010Prop50
 90
       50
102
RTVSPost2010PropOp50
 70
     1
102
RTVSPost2010Prop51ColorIndex
 90
      256
102
RTVSPost2010Prop51ColorRGB
 90
-16777216
102
RTVSPost2010PropOp51
 70
     0
102
RTVSPost2010Prop52
140
1.0
102
RTVSPost2010PropOp52
 70
     0
102
RTVSPost2010Prop53
 90
        2
102
RTVSPost2010PropOp53
 70
     1
102
RTVSPost2010Prop54
  1
strokes_ogs.tif
102
RTVSPost2010PropOp54
 70
     1
102
RTVSPost2010Prop55
280
     0
102
RTVSPost2010PropOp55
 70
     1
102
RTVSPost2010Prop56
140
1.0
102
RTVSPost2010PropOp56
 70
     1
102
RTVSPost2010Prop57
140
1.0
102
RTVSPost2010PropOp57
 70
     1
  0
XRECORD
  5
174
102
{ACAD_REACTORS
330
173
102
}
330
173
100
AcDbXrecord
280
     1
102
RTVSPost2010Prop28
280
     0
102
RTVSPost2010PropOp28
 70
     1
102
RTVSPost2010Prop29
280
     1
102
RTVSPost2010PropOp29
 70
     1
102
RTVSPost2010Prop30
280
     1
102
RTVSPost2010PropOp30
 70
     1
102
RTVSPost2010Prop31
280
     0
102
RTVSPost2010PropOp31
 70
     1
102
RTVSPost2010Prop32
280
     0
102
RTVSPost2010PropOp32
 70
     1
102
RTVSPost2010Prop33
280
     0
102
RTVSPost2010PropOp33
 70
     1
102
RTVSPost2010Prop34
280
     0
102
RTVSPost2010PropOp34
 70
     1
102
RTVSPost2010Prop35
280
     0
102
RTVSPost2010PropOp35
 70
     1
102
RTVSPost2010Prop36
280
     0
102
RTVSPost2010PropOp36
 70
     1
102
RTVSPost2010Prop37
 90
       50
102
RTVSPost2010PropOp37
 70
     1
102
RTVSPost2010Prop38
140
0.0
102
RTVSPost2010PropOp38
 70
     1
102
RTVSPost2010Prop39
140
1.0
102
RTVSPost2010PropOp39
 70
     1
102
RTVSPost2010Prop40
 90
        0
102
RTVSPost2010PropOp40
 70
     1
102
RTVSPost2010Prop41ColorIndex
 90
       18
102
RTVSPost2010Prop41ColorRGB
 90
        0
102
RTVSPost2010PropOp41
 70
     1
102
RTVSPost2010Prop42
 90
       50
102
RTVSPost2010PropOp42
 70
     1
102
RTVSPost2010Prop43
 90
        3
102
RTVSPost2010PropOp43
 70
     1
102
RTVSPost2010Prop44ColorIndex
 90
        5
102
RTVSPost2010Prop44ColorRGB
 90
      255
102
RTVSPost2010PropOp44
 70
     1
102
RTVSPost2010Prop45
280
     0
102
RTVSPost2010PropOp45
 70
     1
102
RTVSPost2010Prop46
 90
       50
102
RTVSPost2010PropOp46
 70
     1
102
RTVSPost2010Prop47
 90
       50
102
RTVSPost2010PropOp47
 70
     1
102
RTVSPost2010Prop48
 90
       50
102
RTVSPost2010PropOp48
 70
     1
102
RTVSPost2010Prop49
280
     0
102
RTVSPost2010PropOp49
 70
     1
102
RTVSPost2010Prop50
 90
       50
102
RTVSPost2010PropOp50
 70
     1
102
RTVSPost2010Prop51ColorIndex
 90
      256
102
RTVSPost2010Prop51ColorRGB
 90
-16777216
102
RTVSPost2010PropOp51
 70
     0
102
RTVSPost2010Prop52
140
1.0
102
RTVSPost2010PropOp52
 70
     0
102
RTVSPost2010Prop53
 90
        2
102
RTVSPost2010PropOp53
 70
     1
102
RTVSPost2010Prop54
  1
strokes_ogs.tif
102
RTVSPost2010PropOp54
 70
     1
102
RTVSPost2010Prop55
280
     0
102
RTVSPost2010PropOp55
 70
     1
102
RTVSPost2010Prop56
140
1.0
102
RTVSPost2010PropOp56
 70
     1
102
RTVSPost2010Prop57
140
1.0
102
RTVSPost2010PropOp57
 70
     1
  0
XRECORD
  5
176
102
{ACAD_REACTORS
330
175
102
}
330
175
100
AcDbXrecord
280
     1
102
RTVSPost2010Prop28
280
     0
102
RTVSPost2010PropOp28
 70
     1
102
RTVSPost2010Prop29
280
     1
102
RTVSPost2010PropOp29
 70
     1
102
RTVSPost2010Prop30
280
     1
102
RTVSPost2010PropOp30
 70
     1
102
RTVSPost2010Prop31
280
     0
102
RTVSPost2010PropOp31
 70
     1
102
RTVSPost2010Prop32
280
     0
102
RTVSPost2010PropOp32
 70
     1
102
RTVSPost2010Prop33
280
     0
102
RTVSPost2010PropOp33
 70
     1
102
RTVSPost2010Prop34
280
     0
102
RTVSPost2010PropOp34
 70
     1
102
RTVSPost2010Prop35
280
     0
102
RTVSPost2010PropOp35
 70
     1
102
RTVSPost2010Prop36
280
     0
102
RTVSPost2010PropOp36
 70
     1
102
RTVSPost2010Prop37
 90
       50
102
RTVSPost2010PropOp37
 70
     1
102
RTVSPost2010Prop38
140
0.0
102
RTVSPost2010PropOp38
 70
     1
102
RTVSPost2010Prop39
140
1.0
102
RTVSPost2010PropOp39
 70
     1
102
RTVSPost2010Prop40
 90
        0
102
RTVSPost2010PropOp40
 70
     1
102
RTVSPost2010Prop41ColorIndex
 90
       18
102
RTVSPost2010Prop41ColorRGB
 90
        0
102
RTVSPost2010PropOp41
 70
     1
102
RTVSPost2010Prop42
 90
       50
102
RTVSPost2010PropOp42
 70
     1
102
RTVSPost2010Prop43
 90
        3
102
RTVSPost2010PropOp43
 70
     1
102
RTVSPost2010Prop44ColorIndex
 90
        5
102
RTVSPost2010Prop44ColorRGB
 90
      255
102
RTVSPost2010PropOp44
 70
     1
102
RTVSPost2010Prop45
280
     0
102
RTVSPost2010PropOp45
 70
     1
102
RTVSPost2010Prop46
 90
       50
102
RTVSPost2010PropOp46
 70
     1
102
RTVSPost2010Prop47
 90
       50
102
RTVSPost2010PropOp47
 70
     1
102
RTVSPost2010Prop48
 90
       50
102
RTVSPost2010PropOp48
 70
     1
102
RTVSPost2010Prop49
280
     0
102
RTVSPost2010PropOp49
 70
     1
102
RTVSPost2010Prop50
 90
       50
102
RTVSPost2010PropOp50
 70
     1
102
RTVSPost2010Prop51ColorIndex
 90
      256
102
RTVSPost2010Prop51ColorRGB
 90
-16777216
102
RTVSPost2010PropOp51
 70
     0
102
RTVSPost2010Prop52
140
1.0
102
RTVSPost2010PropOp52
 70
     0
102
RTVSPost2010Prop53
 90
        2
102
RTVSPost2010PropOp53
 70
     1
102
RTVSPost2010Prop54
  1
strokes_ogs.tif
102
RTVSPost2010PropOp54
 70
     1
102
RTVSPost2010Prop55
280
     0
102
RTVSPost2010PropOp55
 70
     1
102
RTVSPost2010Prop56
140
1.0
102
RTVSPost2010PropOp56
 70
     1
102
RTVSPost2010Prop57
140
1.0
102
RTVSPost2010PropOp57
 70
     1
  0
XRECORD
  5
16C
102
{ACAD_REACTORS
330
16B
102
}
330
16B
100
AcDbXrecord
280
     1
102
RTVSPost2010Prop28
280
     0
102
RTVSPost2010PropOp28
 70
     1
102
RTVSPost2010Prop29
280
     1
102
RTVSPost2010PropOp29
 70
     1
102
RTVSPost2010Prop30
280
     1
102
RTVSPost2010PropOp30
 70
     1
102
RTVSPost2010Prop31
280
     0
102
RTVSPost2010PropOp31
 70
     1
102
RTVSPost2010Prop32
280
     0
102
RTVSPost2010PropOp32
 70
     1
102
RTVSPost2010Prop33
280
     0
102
RTVSPost2010PropOp33
 70
     1
102
RTVSPost2010Prop34
280
     0
102
RTVSPost2010PropOp34
 70
     1
102
RTVSPost2010Prop35
280
     0
102
RTVSPost2010PropOp35
 70
     1
102
RTVSPost2010Prop36
280
     0
102
RTVSPost2010PropOp36
 70
     1
102
RTVSPost2010Prop37
 90
       50
102
RTVSPost2010PropOp37
 70
     1
102
RTVSPost2010Prop38
140
0.0
102
RTVSPost2010PropOp38
 70
     1
102
RTVSPost2010Prop39
140
1.0
102
RTVSPost2010PropOp39
 70
     1
102
RTVSPost2010Prop40
 90
        0
102
RTVSPost2010PropOp40
 70
     1
102
RTVSPost2010Prop41ColorIndex
 90
       18
102
RTVSPost2010Prop41ColorRGB
 90
        0
102
RTVSPost2010PropOp41
 70
     1
102
RTVSPost2010Prop42
 90
       50
102
RTVSPost2010PropOp42
 70
     1
102
RTVSPost2010Prop43
 90
        3
102
RTVSPost2010PropOp43
 70
     1
102
RTVSPost2010Prop44ColorIndex
 90
        5
102
RTVSPost2010Prop44ColorRGB
 90
      255
102
RTVSPost2010PropOp44
 70
     1
102
RTVSPost2010Prop45
280
     0
102
RTVSPost2010PropOp45
 70
     1
102
RTVSPost2010Prop46
 90
       50
102
RTVSPost2010PropOp46
 70
     1
102
RTVSPost2010Prop47
 90
       50
102
RTVSPost2010PropOp47
 70
     1
102
RTVSPost2010Prop48
 90
       50
102
RTVSPost2010PropOp48
 70
     1
102
RTVSPost2010Prop49
280
     0
102
RTVSPost2010PropOp49
 70
     1
102
RTVSPost2010Prop50
 90
       50
102
RTVSPost2010PropOp50
 70
     1
102
RTVSPost2010Prop51ColorIndex
 90
      256
102
RTVSPost2010Prop51ColorRGB
 90
-16777216
102
RTVSPost2010PropOp51
 70
     0
102
RTVSPost2010Prop52
140
1.0
102
RTVSPost2010PropOp52
 70
     0
102
RTVSPost2010Prop53
 90
        2
102
RTVSPost2010PropOp53
 70
     1
102
RTVSPost2010Prop54
  1
strokes_ogs.tif
102
RTVSPost2010PropOp54
 70
     1
102
RTVSPost2010Prop55
280
     0
102
RTVSPost2010PropOp55
 70
     1
102
RTVSPost2010Prop56
140
1.0
102
RTVSPost2010PropOp56
 70
     1
102
RTVSPost2010Prop57
140
1.0
102
RTVSPost2010PropOp57
 70
     1
  0
XRECORD
  5
160
102
{ACAD_REACTORS
330
15F
102
}
330
15F
100
AcDbXrecord
280
     1
102
RTVSPost2010Prop28
280
     0
102
RTVSPost2010PropOp28
 70
     1
102
RTVSPost2010Prop29
280
     1
102
RTVSPost2010PropOp29
 70
     1
102
RTVSPost2010Prop30
280
     1
102
RTVSPost2010PropOp30
 70
     1
102
RTVSPost2010Prop31
280
     0
102
RTVSPost2010PropOp31
 70
     1
102
RTVSPost2010Prop32
280
     0
102
RTVSPost2010PropOp32
 70
     1
102
RTVSPost2010Prop33
280
     0
102
RTVSPost2010PropOp33
 70
     1
102
RTVSPost2010Prop34
280
     0
102
RTVSPost2010PropOp34
 70
     1
102
RTVSPost2010Prop35
280
     0
102
RTVSPost2010PropOp35
 70
     1
102
RTVSPost2010Prop36
280
     0
102
RTVSPost2010PropOp36
 70
     1
102
RTVSPost2010Prop37
 90
       50
102
RTVSPost2010PropOp37
 70
     1
102
RTVSPost2010Prop38
140
0.0
102
RTVSPost2010PropOp38
 70
     1
102
RTVSPost2010Prop39
140
1.0
102
RTVSPost2010PropOp39
 70
     1
102
RTVSPost2010Prop40
 90
        0
102
RTVSPost2010PropOp40
 70
     1
102
RTVSPost2010Prop41ColorIndex
 90
       18
102
RTVSPost2010Prop41ColorRGB
 90
        0
102
RTVSPost2010PropOp41
 70
     1
102
RTVSPost2010Prop42
 90
       50
102
RTVSPost2010PropOp42
 70
     1
102
RTVSPost2010Prop43
 90
        3
102
RTVSPost2010PropOp43
 70
     1
102
RTVSPost2010Prop44ColorIndex
 90
        5
102
RTVSPost2010Prop44ColorRGB
 90
      255
102
RTVSPost2010PropOp44
 70
     1
102
RTVSPost2010Prop45
280
     0
102
RTVSPost2010PropOp45
 70
     1
102
RTVSPost2010Prop46
 90
       50
102
RTVSPost2010PropOp46
 70
     1
102
RTVSPost2010Prop47
 90
       50
102
RTVSPost2010PropOp47
 70
     1
102
RTVSPost2010Prop48
 90
       50
102
RTVSPost2010PropOp48
 70
     1
102
RTVSPost2010Prop49
280
     0
102
RTVSPost2010PropOp49
 70
     1
102
RTVSPost2010Prop50
 90
       50
102
RTVSPost2010PropOp50
 70
     1
102
RTVSPost2010Prop51ColorIndex
 90
      256
102
RTVSPost2010Prop51ColorRGB
 90
-16777216
102
RTVSPost2010PropOp51
 70
     0
102
RTVSPost2010Prop52
140
1.0
102
RTVSPost2010PropOp52
 70
     0
102
RTVSPost2010Prop53
 90
        2
102
RTVSPost2010PropOp53
 70
     1
102
RTVSPost2010Prop54
  1
strokes_ogs.tif
102
RTVSPost2010PropOp54
 70
     1
102
RTVSPost2010Prop55
280
     0
102
RTVSPost2010PropOp55
 70
     1
102
RTVSPost2010Prop56
140
1.0
102
RTVSPost2010PropOp56
 70
     1
102
RTVSPost2010Prop57
140
1.0
102
RTVSPost2010PropOp57
 70
     1
  0
XRECORD
  5
178
102
{ACAD_REACTORS
330
177
102
}
330
177
100
AcDbXrecord
280
     1
102
RTVSPost2010Prop28
280
     0
102
RTVSPost2010PropOp28
 70
     1
102
RTVSPost2010Prop29
280
     1
102
RTVSPost2010PropOp29
 70
     1
102
RTVSPost2010Prop30
280
     1
102
RTVSPost2010PropOp30
 70
     1
102
RTVSPost2010Prop31
280
     0
102
RTVSPost2010PropOp31
 70
     1
102
RTVSPost2010Prop32
280
     0
102
RTVSPost2010PropOp32
 70
     1
102
RTVSPost2010Prop33
280
     0
102
RTVSPost2010PropOp33
 70
     1
102
RTVSPost2010Prop34
280
     0
102
RTVSPost2010PropOp34
 70
     1
102
RTVSPost2010Prop35
280
     0
102
RTVSPost2010PropOp35
 70
     1
102
RTVSPost2010Prop36
280
     0
102
RTVSPost2010PropOp36
 70
     1
102
RTVSPost2010Prop37
 90
       50
102
RTVSPost2010PropOp37
 70
     1
102
RTVSPost2010Prop38
140
0.0
102
RTVSPost2010PropOp38
 70
     1
102
RTVSPost2010Prop39
140
1.0
102
RTVSPost2010PropOp39
 70
     1
102
RTVSPost2010Prop40
 90
        0
102
RTVSPost2010PropOp40
 70
     1
102
RTVSPost2010Prop41ColorIndex
 90
       18
102
RTVSPost2010Prop41ColorRGB
 90
        0
102
RTVSPost2010PropOp41
 70
     1
102
RTVSPost2010Prop42
 90
       50
102
RTVSPost2010PropOp42
 70
     1
102
RTVSPost2010Prop43
 90
        3
102
RTVSPost2010PropOp43
 70
     1
102
RTVSPost2010Prop44ColorIndex
 90
        5
102
RTVSPost2010Prop44ColorRGB
 90
      255
102
RTVSPost2010PropOp44
 70
     1
102
RTVSPost2010Prop45
280
     0
102
RTVSPost2010PropOp45
 70
     1
102
RTVSPost2010Prop46
 90
       50
102
RTVSPost2010PropOp46
 70
     1
102
RTVSPost2010Prop47
 90
       50
102
RTVSPost2010PropOp47
 70
     1
102
RTVSPost2010Prop48
 90
       50
102
RTVSPost2010PropOp48
 70
     1
102
RTVSPost2010Prop49
280
     0
102
RTVSPost2010PropOp49
 70
     1
102
RTVSPost2010Prop50
 90
       50
102
RTVSPost2010PropOp50
 70
     1
102
RTVSPost2010Prop51ColorIndex
 90
      256
102
RTVSPost2010Prop51ColorRGB
 90
-16777216
102
RTVSPost2010PropOp51
 70
     0
102
RTVSPost2010Prop52
140
1.0
102
RTVSPost2010PropOp52
 70
     0
102
RTVSPost2010Prop53
 90
        2
102
RTVSPost2010PropOp53
 70
     1
102
RTVSPost2010Prop54
  1
strokes_ogs.tif
102
RTVSPost2010PropOp54
 70
     1
102
RTVSPost2010Prop55
280
     0
102
RTVSPost2010PropOp55
 70
     1
102
RTVSPost2010Prop56
140
1.0
102
RTVSPost2010PropOp56
 70
     1
102
RTVSPost2010Prop57
140
1.0
102
RTVSPost2010PropOp57
 70
     1
  0
ENDSEC
  0
EOF
