  0
SECTION
  2
HEADER
  9
$ACADVER
  1
AC1024
  9
$ACADMAINTVER
 70
     6
  9
$DWGCODEPAGE
  3
UNDEFINED
  9
$INSBASE
 10
0.0
 20
0.0
 30
0.0
  9
$EXTMIN
 10
1.000000000000000E+20
 20
1.000000000000000E+20
 30
1.000000000000000E+20
  9
$EXTMAX
 10
-1.000000000000000E+20
 20
-1.000000000000000E+20
 30
-1.000000000000000E+20
  9
$LIMMIN
 10
0.0
 20
0.0
  9
$LIMMAX
 10
12.0
 20
9.0
  9
$ORTHOMODE
 70
     0
  9
$REGENMODE
 70
     1
  9
$FILLMODE
 70
     1
  9
$QTEXTMODE
 70
     0
  9
$MIRRTEXT
 70
     1
  9
$LTSCALE
 40
1.0
  9
$ATTMODE
 70
     1
  9
$TEXTSIZE
 40
0.2
  9
$TRACEWID
 40
0.05
  9
$TEXTSTYLE
  7
Standard
  9
$CLAYER
  8
0
  9
$CELTYPE
  6
ByLayer
  9
$CECOLOR
 62
   256
  9
$CELTSCALE
 40
1.0
  9
$DISPSILH
 70
     0
  9
$DIMSCALE
 40
1.0
  9
$DIMASZ
 40
0.18
  9
$DIMEXO
 40
0.0625
  9
$DIMDLI
 40
0.38
  9
$DIMRND
 40
0.0
  9
$DIMDLE
 40
0.0
  9
$DIMEXE
 40
0.18
  9
$DIMTP
 40
0.0
  9
$DIMTM
 40
0.0
  9
$DIMTXT
 40
0.18
  9
$DIMCEN
 40
0.09
  9
$DIMTSZ
 40
0.0
  9
$DIMTOL
 70
     0
  9
$DIMLIM
 70
     0
  9
$DIMTIH
 70
     1
  9
$DIMTOH
 70
     1
  9
$DIMSE1
 70
     0
  9
$DIMSE2
 70
     0
  9
$DIMTAD
 70
     0
  9
$DIMZIN
 70
     0
  9
$DIMBLK
  1

  9
$DIMASO
 70
     1
  9
$DIMSHO
 70
     1
  9
$DIMPOST
  1

  9
$DIMAPOST
  1

  9
$DIMALT
 70
     0
  9
$DIMALTD
 70
     2
  9
$DIMALTF
 40
25.4
  9
$DIMLFAC
 40
1.0
  9
$DIMTOFL
 70
     0
  9
$DIMTVP
 40
0.0
  9
$DIMTIX
 70
     0
  9
$DIMSOXD
 70
     0
  9
$DIMSAH
 70
     0
  9
$DIMBLK1
  1

  9
$DIMBLK2
  1

  9
$DIMSTYLE
  2
Standard
  9
$DIMCLRD
 70
     0
  9
$DIMCLRE
 70
     0
  9
$DIMCLRT
 70
     0
  9
$DIMTFAC
 40
1.0
  9
$DIMGAP
 40
0.09
  9
$DIMJUST
 70
     0
  9
$DIMSD1
 70
     0
  9
$DIMSD2
 70
     0
  9
$DIMTOLJ
 70
     1
  9
$DIMTZIN
 70
     0
  9
$DIMALTZ
 70
     0
  9
$DIMALTTZ
 70
     0
  9
$DIMUPT
 70
     0
  9
$DIMDEC
 70
     4
  9
$DIMTDEC
 70
     4
  9
$DIMALTU
 70
     2
  9
$DIMALTTD
 70
     2
  9
$DIMTXSTY
  7
Standard
  9
$DIMAUNIT
 70
     0
  9
$DIMADEC
 70
     0
  9
$DIMALTRND
 40
0.0
  9
$DIMAZIN
 70
     0
  9
$DIMDSEP
 70
    46
  9
$DIMATFIT
 70
     3
  9
$DIMFRAC
 70
     0
  9
$DIMLDRBLK
  1

  9
$DIMLUNIT
 70
     2
  9
$DIMLWD
 70
    -2
  9
$DIMLWE
 70
    -2
  9
$DIMTMOVE
 70
     0
  9
$DIMFXL
 40
1.0
  9
$DIMFXLON
 70
     0
  9
$DIMJOGANG
 40
0.7853981633974483
  9
$DIMTFILL
 70
     0
  9
$DIMTFILLCLR
 70
     0
  9
$DIMARCSYM
 70
     0
  9
$DIMLTYPE
  6

  9
$DIMLTEX1
  6

  9
$DIMLTEX2
  6

  9
$DIMTXTDIRECTION
 70
     0
  9
$LUNITS
 70
     2
  9
$LUPREC
 70
     4
  9
$SKETCHINC
 40
0.1
  9
$FILLETRAD
 40
0.5
  9
$AUNITS
 70
     0
  9
$AUPREC
 70
     0
  9
$MENU
  1
.
  9
$ELEVATION
 40
0.0
  9
$PELEVATION
 40
0.0
  9
$THICKNESS
 40
0.0
  9
$LIMCHECK
 70
     0
  9
$CHAMFERA
 40
0.5
  9
$CHAMFERB
 40
0.5
  9
$CHAMFERC
 40
1.0
  9
$CHAMFERD
 40
0.0
  9
$SKPOLY
 70
     0
  9
$TDCREATE
 40
2458263.575856482
  9
$TDUCREATE
 40
2458263.200856482
  9
$TDUPDATE
 40
2458263.575856482
  9
$TDUUPDATE
 40
2458263.200856482
  9
$TDINDWG
 40
0.0000000116
  9
$TDUSRTIMER
 40
0.0000000116
  9
$USRTIMER
 70
     1
  9
$ANGBASE
 50
0.0
  9
$ANGDIR
 70
     0
  9
$PDMODE
 70
     0
  9
$PDSIZE
 40
0.0
  9
$PLINEWID
 40
0.0
  9
$SPLFRAME
 70
     0
  9
$SPLINETYPE
 70
     6
  9
$SPLINESEGS
 70
     8
  9
$HANDSEED
  5
132
  9
$SURFTAB1
 70
     6
  9
$SURFTAB2
 70
     6
  9
$SURFTYPE
 70
     6
  9
$SURFU
 70
     6
  9
$SURFV
 70
     6
  9
$UCSBASE
  2

  9
$UCSNAME
  2

  9
$UCSORG
 10
0.0
 20
0.0
 30
0.0
  9
$UCSXDIR
 10
1.0
 20
0.0
 30
0.0
  9
$UCSYDIR
 10
0.0
 20
1.0
 30
0.0
  9
$UCSORTHOREF
  2

  9
$UCSORTHOVIEW
 70
     0
  9
$UCSORGTOP
 10
0.0
 20
0.0
 30
0.0
  9
$UCSORGBOTTOM
 10
0.0
 20
0.0
 30
0.0
  9
$UCSORGLEFT
 10
0.0
 20
0.0
 30
0.0
  9
$UCSORGRIGHT
 10
0.0
 20
0.0
 30
0.0
  9
$UCSORGFRONT
 10
0.0
 20
0.0
 30
0.0
  9
$UCSORGBACK
 10
0.0
 20
0.0
 30
0.0
  9
$PUCSBASE
  2

  9
$PUCSNAME
  2

  9
$PUCSORG
 10
0.0
 20
0.0
 30
0.0
  9
$PUCSXDIR
 10
1.0
 20
0.0
 30
0.0
  9
$PUCSYDIR
 10
0.0
 20
1.0
 30
0.0
  9
$PUCSORTHOREF
  2

  9
$PUCSORTHOVIEW
 70
     0
  9
$PUCSORGTOP
 10
0.0
 20
0.0
 30
0.0
  9
$PUCSORGBOTTOM
 10
0.0
 20
0.0
 30
0.0
  9
$PUCSORGLEFT
 10
0.0
 20
0.0
 30
0.0
  9
$PUCSORGRIGHT
 10
0.0
 20
0.0
 30
0.0
  9
$PUCSORGFRONT
 10
0.0
 20
0.0
 30
0.0
  9
$PUCSORGBACK
 10
0.0
 20
0.0
 30
0.0
  9
$USERI1
 70
     0
  9
$USERI2
 70
     0
  9
$USERI3
 70
     0
  9
$USERI4
 70
     0
  9
$USERI5
 70
     0
  9
$USERR1
 40
0.0
  9
$USERR2
 40
0.0
  9
$USERR3
 40
0.0
  9
$USERR4
 40
0.0
  9
$USERR5
 40
0.0
  9
$WORLDVIEW
 70
     1
  9
$SHADEDGE
 70
     3
  9
$SHADEDIF
 70
    70
  9
$TILEMODE
 70
     1
  9
$MAXACTVP
 70
    64
  9
$PINSBASE
 10
0.0
 20
0.0
 30
0.0
  9
$PLIMCHECK
 70
     0
  9
$PEXTMIN
 10
1.000000000000000E+20
 20
1.000000000000000E+20
 30
1.000000000000000E+20
  9
$PEXTMAX
 10
-1.000000000000000E+20
 20
-1.000000000000000E+20
 30
-1.000000000000000E+20
  9
$PLIMMIN
 10
0.0
 20
0.0
  9
$PLIMMAX
 10
12.0
 20
9.0
  9
$UNITMODE
 70
     0
  9
$VISRETAIN
 70
     1
  9
$PLINEGEN
 70
     0
  9
$PSLTSCALE
 70
     1
  9
$TREEDEPTH
 70
  3020
  9
$CMLSTYLE
  2
Standard
  9
$CMLJUST
 70
     0
  9
$CMLSCALE
 40
1.0
  9
$PROXYGRAPHICS
 70
     1
  9
$MEASUREMENT
 70
     0
  9
$CELWEIGHT
370
    -1
  9
$ENDCAPS
280
     0
  9
$JOINSTYLE
280
     0
  9
$LWDISPLAY
290
     1
  9
$INSUNITS
 70
     1
  9
$HYPERLINKBASE
  1

  9
$STYLESHEET
  1

  9
$XEDIT
290
     1
  9
$CEPSNTYPE
380
     0
  9
$PSTYLEMODE
290
     1
  9
$FINGERPRINTGUID
  2
{B32FB08F-D190-79CD-3FA8-B80FD762A5EA}
  9
$VERSIONGUID
  2
{FAEB1C32-E019-11D5-929B-00C0DF256EC4}
  9
$EXTNAMES
290
     1
  9
$PSVPSCALE
 40
0.0
  9
$OLESTARTUP
290
     0
  9
$SORTENTS
280
   127
  9
$INDEXCTL
280
     0
  9
$HIDETEXT
280
     1
  9
$XCLIPFRAME
280
     2
  9
$HALOGAP
280
     0
  9
$OBSCOLOR
 70
   257
  9
$OBSLTYPE
280
     0
  9
$INTERSECTIONDISPLAY
280
     0
  9
$INTERSECTIONCOLOR
 70
   257
  9
$DIMASSOC
280
     2
  9
$PROJECTNAME
  1

  9
$CAMERADISPLAY
290
     0
  9
$LENSLENGTH
 40
50.0
  9
$CAMERAHEIGHT
 40
0.0
  9
$STEPSPERSEC
 40
2.0
  9
$STEPSIZE
 40
6.0
  9
$3DDWFPREC
 40
2.0
  9
$PSOLWIDTH
 40
0.25
  9
$PSOLHEIGHT
 40
4.0
  9
$LOFTANG1
 40
1.570796326794897
  9
$LOFTANG2
 40
1.570796326794897
  9
$LOFTMAG1
 40
0.0
  9
$LOFTMAG2
 40
0.0
  9
$LOFTPARAM
 70
     7
  9
$LOFTNORMALS
280
     1
  9
$LATITUDE
 40
37.795
  9
$LONGITUDE
 40
-122.394
  9
$NORTHDIRECTION
 40
0.0
  9
$TIMEZONE
 70
 -8000
  9
$LIGHTGLYPHDISPLAY
280
     1
  9
$TILEMODELIGHTSYNCH
280
     1
  9
$CMATERIAL
347
3C
  9
$SOLIDHIST
280
     1
  9
$SHOWHIST
280
     1
  9
$DWFFRAME
280
     2
  9
$DGNFRAME
280
     2
  9
$REALWORLDSCALE
290
     1
  9
$INTERFERECOLOR
 62
   256
  9
$CSHADOW
280
     0
  9
$SHADOWPLANELOCATION
 40
0.0
  0
ENDSEC
  0
SECTION
  2
CLASSES
  0
CLASS
  1
ACDBDICTIONARYWDFLT
  2
AcDbDictionaryWithDefault
  3
ObjectDBX Classes
 90
        0
 91
        4
280
     0
281
     0
  0
CLASS
  1
VISUALSTYLE
  2
AcDbVisualStyle
  3
ObjectDBX Classes
 90
     4095
 91
        4
280
     0
281
     0
  0
CLASS
  1
MATERIAL
  2
AcDbMaterial
  3
ObjectDBX Classes
 90
     1153
 91
        4
280
     0
281
     0
  0
CLASS
  1
SUN
  2
AcDbSun
  3
SCENEOE
 90
     1024
 91
        4
280
     0
281
     0
  0
ENDSEC
  0
SECTION
  2
TABLES
  0
TABLE
  2
VPORT
  5
8
330
0
100
AcDbSymbolTable
 70
     1
  0
VPORT
  5
29
330
8
100
AcDbSymbolTableRecord
100
AcDbViewportTableRecord
  2
*Active
 70
     0
 10
0.0
 20
0.0
 11
1.0
 21
1.0
 12
0.0
 22
0.0
 13
0.0
 23
0.0
 14
0.5
 24
0.5
 15
0.5
 25
0.5
 16
0.0
 26
0.0
 36
1.0
 17
105.0007777515277
 27
-148.5000416295416
 37
0.0
 40
297.0000832590831
 41
0.7070757462376333
 42
50.0
 43
0.0
 44
0.0
 50
0.0
 51
0.0
 71
     0
 72
   100
 73
     1
 74
     3
 75
     0
 76
     0
 77
     0
 78
     0
281
     0
 65
     1
110
0.0
120
0.0
130
0.0
111
1.0
121
0.0
131
0.0
112
0.0
122
1.0
132
0.0
 79
     0
146
0.0
 60
     3
 61
     5
292
     1
282
     1
141
0.0
142
0.0
 63
   250
361
3F
  0
ENDTAB
  0
TABLE
  2
LTYPE
  5
5
330
0
100
AcDbSymbolTable
 70
     1
  0
LTYPE
  5
14
330
5
100
AcDbSymbolTableRecord
100
AcDbLinetypeTableRecord
  2
ByBlock
 70
     0
  3

 72
    65
 73
     0
 40
0.0
  0
LTYPE
  5
15
330
5
100
AcDbSymbolTableRecord
100
AcDbLinetypeTableRecord
  2
ByLayer
 70
     0
  3

 72
    65
 73
     0
 40
0.0
  0
LTYPE
  5
16
330
5
100
AcDbSymbolTableRecord
100
AcDbLinetypeTableRecord
  2
Continuous
 70
     0
  3
Solid line
 72
    65
 73
     0
 40
0.0
  0
ENDTAB
  0
TABLE
  2
LAYER
  5
2
330
0
100
AcDbSymbolTable
 70
     2
  0
LAYER
  5
10
330
2
100
AcDbSymbolTableRecord
100
AcDbLayerTableRecord
  2
0
 70
     0
 62
     7
  6
Continuous
370
    -3
390
F
347
3E
  0
LAYER
  5
40
330
2
100
AcDbSymbolTableRecord
100
AcDbLayerTableRecord
  2
_U+30EC_U+30A4_U+30E4_U+30FC 1
 70
     0
 62
     7
  6
Continuous
370
    -3
390
F
347
3E
  0
ENDTAB
  0
TABLE
  2
STYLE
  5
3
330
0
100
AcDbSymbolTable
 70
     1
  0
STYLE
  5
11
330
3
100
AcDbSymbolTableRecord
100
AcDbTextStyleTableRecord
  2
Standard
 70
     0
 40
0.0
 41
1.0
 50
0.0
 71
     0
 42
0.2
  3
txt
  4

  0
ENDTAB
  0
TABLE
  2
VIEW
  5
6
330
0
100
AcDbSymbolTable
 70
     0
  0
ENDTAB
  0
TABLE
  2
UCS
  5
7
330
0
100
AcDbSymbolTable
 70
     0
  0
ENDTAB
  0
TABLE
  2
APPID
  5
9
330
0
100
AcDbSymbolTable
 70
     1
  0
APPID
  5
12
330
9
100
AcDbSymbolTableRecord
100
AcDbRegAppTableRecord
  2
ACAD
 70
     0
  0
ENDTAB
  0
TABLE
  2
DIMSTYLE
  5
A
330
0
100
AcDbSymbolTable
 70
     1
100
AcDbDimStyleTable
  0
DIMSTYLE
105
27
330
A
100
AcDbSymbolTableRecord
100
AcDbDimStyleTableRecord
  2
Standard
 70
     0
178
     0
340
11
  0
ENDTAB
  0
TABLE
  2
BLOCK_RECORD
  5
1
330
0
100
AcDbSymbolTable
 70
     6
  0
BLOCK_RECORD
  5
1F
330
1
100
AcDbSymbolTableRecord
100
AcDbBlockTableRecord
  2
*Model_Space
340
22
 70
     0
280
     1
281
     0
  0
BLOCK_RECORD
  5
1B
330
1
100
AcDbSymbolTableRecord
100
AcDbBlockTableRecord
  2
*Paper_Space
340
1E
 70
     0
280
     1
281
     0
  0
BLOCK_RECORD
  5
23
330
1
100
AcDbSymbolTableRecord
100
AcDbBlockTableRecord
  2
*Paper_Space0
340
26
 70
     0
280
     1
281
     0
  0
BLOCK_RECORD
  5
41
330
1
100
AcDbSymbolTableRecord
100
AcDbBlockTableRecord
  2
block 2
340
0
102
{BLKREFS
331
42
102
}
 70
     0
280
     1
281
     0
  0
BLOCK_RECORD
  5
DC
330
1
100
AcDbSymbolTableRecord
100
AcDbBlockTableRecord
  2
block 3
340
0
102
{BLKREFS
331
DD
102
}
 70
     0
280
     1
281
     0
  0
BLOCK_RECORD
  5
ED
330
1
100
AcDbSymbolTableRecord
100
AcDbBlockTableRecord
  2
block 4
340
0
102
{BLKREFS
331
EE
102
}
 70
     0
280
     1
281
     0
  0
BLOCK_RECORD
  5
FE
330
1
100
AcDbSymbolTableRecord
100
AcDbBlockTableRecord
  2
block 5
340
0
102
{BLKREFS
331
FF
102
}
 70
     0
280
     1
281
     0
  0
BLOCK_RECORD
  5
11B
330
1
100
AcDbSymbolTableRecord
100
AcDbBlockTableRecord
  2
block 6
340
0
102
{BLKREFS
331
11C
102
}
 70
     0
280
     1
281
     0
  0
ENDTAB
  0
ENDSEC
  0
SECTION
  2
BLOCKS
  0
BLOCK
  5
20
330
1F
100
AcDbEntity
  8
0
100
AcDbBlockBegin
  2
*Model_Space
 70
     0
 10
0.0
 20
0.0
 30
0.0
  3
*Model_Space
  1

  0
ENDBLK
  5
21
330
1F
100
AcDbEntity
  8
0
100
AcDbBlockEnd
  0
BLOCK
  5
1C
330
1B
100
AcDbEntity
 67
     1
  8
0
100
AcDbBlockBegin
  2
*Paper_Space
 70
     0
 10
0.0
 20
0.0
 30
0.0
  3
*Paper_Space
  1

  0
ENDBLK
  5
1D
330
1B
100
AcDbEntity
 67
     1
  8
0
100
AcDbBlockEnd
  0
BLOCK
  5
24
330
23
100
AcDbEntity
  8
0
100
AcDbBlockBegin
  2
*Paper_Space0
 70
     0
 10
0.0
 20
0.0
 30
0.0
  3
*Paper_Space0
  1

  0
ENDBLK
  5
25
330
23
100
AcDbEntity
  8
0
100
AcDbBlockEnd
  0
BLOCK
  5
43
330
41
100
AcDbEntity
  8
0
100
AcDbBlockBegin
  2
block 2
 70
     0
 10
0.0
 20
0.0
 30
0.0
  3
block 2
  1

  0
POLYLINE
  5
45
330
41
100
AcDbEntity
  8
_U+30EC_U+30A4_U+30E4_U+30FC 1
370
     0
100
AcDb2dPolyline
 66
     1
 10
0.0
 20
0.0
 30
0.0
  0
VERTEX
  5
46
330
45
100
AcDbEntity
  8
_U+30EC_U+30A4_U+30E4_U+30FC 1
370
     0
100
AcDbVertex
100
AcDb2dVertex
 10
118.5169260364515
 20
-148.2708161725135
 30
0.0
  0
VERTEX
  5
47
330
45
100
AcDbEntity
  8
_U+30EC_U+30A4_U+30E4_U+30FC 1
370
     0
100
AcDbVertex
100
AcDb2dVertex
 10
118.5169260364515
 20
-158.0882724790598
 30
0.0
  0
VERTEX
  5
48
330
45
100
AcDbEntity
  8
_U+30EC_U+30A4_U+30E4_U+30FC 1
370
     0
100
AcDbVertex
100
AcDb2dVertex
 10
118.3969721180245
 20
-158.0988553817535
 30
0.0
  0
VERTEX
  5
49
330
45
100
AcDbEntity
  8
_U+30EC_U+30A4_U+30E4_U+30FC 1
370
     0
100
AcDbVertex
100
AcDb2dVertex
 10
105.2701140246536
 20
-150.5215401167208
 30
0.0
  0
VERTEX
  5
4A
330
45
100
AcDbEntity
  8
_U+30EC_U+30A4_U+30E4_U+30FC 1
370
     0
100
AcDbVertex
100
AcDb2dVertex
 10
105.15017087215
 20
-150.5215401167208
 30
0.0
  0
VERTEX
  5
4B
330
45
100
AcDbEntity
  8
_U+30EC_U+30A4_U+30E4_U+30FC 1
370
     0
100
AcDbVertex
100
AcDb2dVertex
 10
92.0268440016515
 20
-158.0988553817535
 30
0.0
  0
VERTEX
  5
4C
330
45
100
AcDbEntity
  8
_U+30EC_U+30A4_U+30E4_U+30FC 1
370
     0
100
AcDbVertex
100
AcDb2dVertex
 10
91.90689008322445
 20
-158.0882724790598
 30
0.0
  0
VERTEX
  5
4D
330
45
100
AcDbEntity
  8
_U+30EC_U+30A4_U+30E4_U+30FC 1
370
     0
100
AcDbVertex
100
AcDb2dVertex
 10
91.90689008322445
 20
-148.2708161725135
 30
0.0
  0
VERTEX
  5
4E
330
45
100
AcDbEntity
  8
_U+30EC_U+30A4_U+30E4_U+30FC 1
370
     0
100
AcDbVertex
100
AcDb2dVertex
 10
92.0268440016515
 20
-148.1544042428822
 30
0.0
  0
VERTEX
  5
4F
330
45
100
AcDbEntity
  8
_U+30EC_U+30A4_U+30E4_U+30FC 1
370
     0
100
AcDbVertex
100
AcDb2dVertex
 10
105.15017087215
 20
-140.5763891928293
 30
0.0
  0
VERTEX
  5
50
330
45
100
AcDbEntity
  8
_U+30EC_U+30A4_U+30E4_U+30FC 1
370
     0
100
AcDbVertex
100
AcDb2dVertex
 10
105.2701140246536
 20
-140.5763891928293
 30
0.0
  0
VERTEX
  5
51
330
45
100
AcDbEntity
  8
_U+30EC_U+30A4_U+30E4_U+30FC 1
370
     0
100
AcDbVertex
100
AcDb2dVertex
 10
118.3969721180245
 20
-148.1544042428822
 30
0.0
  0
VERTEX
  5
52
330
45
100
AcDbEntity
  8
_U+30EC_U+30A4_U+30E4_U+30FC 1
370
     0
100
AcDbVertex
100
AcDb2dVertex
 10
118.5169260364515
 20
-148.2708161725135
 30
0.0
  0
SEQEND
  5
54
330
45
100
AcDbEntity
  8
_U+30EC_U+30A4_U+30E4_U+30FC 1
370
     0
  0
HATCH
  5
53
330
41
100
AcDbEntity
  8
_U+30EC_U+30A4_U+30E4_U+30FC 1
 62
     9
420
 13224394
100
AcDbHatch
 10
0.0
 20
0.0
 30
0.0
210
0.0
220
0.0
230
1.0
  2
SOLID
 70
     1
 71
     0
 91
        1
 92
        1
 93
       12
 72
     1
 10
118.5169260364515
 20
-148.2708161725135
 11
118.5169260364515
 21
-158.0882724790598
 72
     1
 10
118.5169260364515
 20
-158.0882724790598
 11
118.3969721180245
 21
-158.0988553817535
 72
     1
 10
118.3969721180245
 20
-158.0988553817535
 11
105.2701140246536
 21
-150.5215401167208
 72
     1
 10
105.2701140246536
 20
-150.5215401167208
 11
105.15017087215
 21
-150.5215401167208
 72
     1
 10
105.15017087215
 20
-150.5215401167208
 11
92.0268440016515
 21
-158.0988553817535
 72
     1
 10
92.0268440016515
 20
-158.0988553817535
 11
91.90689008322445
 21
-158.0882724790598
 72
     1
 10
91.90689008322445
 20
-158.0882724790598
 11
91.90689008322445
 21
-148.2708161725135
 72
     1
 10
91.90689008322445
 20
-148.2708161725135
 11
92.0268440016515
 21
-148.1544042428822
 72
     1
 10
92.0268440016515
 20
-148.1544042428822
 11
105.15017087215
 21
-140.5763891928293
 72
     1
 10
105.15017087215
 20
-140.5763891928293
 11
105.2701140246536
 21
-140.5763891928293
 72
     1
 10
105.2701140246536
 20
-140.5763891928293
 11
118.3969721180245
 21
-148.1544042428822
 72
     1
 10
118.3969721180245
 20
-148.1544042428822
 11
118.5169260364515
 21
-148.2708161725135
 97
        0
 75
     2
 76
     1
 98
        0
  0
POLYLINE
  5
55
330
41
100
AcDbEntity
  8
_U+30EC_U+30A4_U+30E4_U+30FC 1
370
     0
100
AcDb2dPolyline
 66
     1
 10
0.0
 20
0.0
 30
0.0
  0
VERTEX
  5
56
330
55
100
AcDbEntity
  8
_U+30EC_U+30A4_U+30E4_U+30FC 1
370
     0
100
AcDbVertex
100
AcDb2dVertex
 10
91.9070731039221
 20
-158.0987800202898
 30
0.0
  0
VERTEX
  5
57
330
55
100
AcDbEntity
  8
_U+30EC_U+30A4_U+30E4_U+30FC 1
370
     0
100
AcDbVertex
100
AcDb2dVertex
 10
118.5170982912258
 20
-158.0987800202898
 30
0.0
  0
VERTEX
  5
58
330
55
100
AcDbEntity
  8
_U+30EC_U+30A4_U+30E4_U+30FC 1
370
     0
100
AcDbVertex
100
AcDb2dVertex
 10
118.5170982912258
 20
-140.5763030654422
 30
0.0
  0
VERTEX
  5
59
330
55
100
AcDbEntity
  8
_U+30EC_U+30A4_U+30E4_U+30FC 1
370
     0
100
AcDbVertex
100
AcDb2dVertex
 10
91.9070731039221
 20
-140.5763030654422
 30
0.0
  0
VERTEX
  5
5A
330
55
100
AcDbEntity
  8
_U+30EC_U+30A4_U+30E4_U+30FC 1
370
     0
100
AcDbVertex
100
AcDb2dVertex
 10
91.9070731039221
 20
-158.0987800202898
 30
0.0
  0
SEQEND
  5
5B
330
55
100
AcDbEntity
  8
_U+30EC_U+30A4_U+30E4_U+30FC 1
370
     0
  0
ENDBLK
  5
44
330
41
100
AcDbEntity
  8
0
100
AcDbBlockEnd
  0
BLOCK
  5
DE
330
DC
100
AcDbEntity
  8
0
100
AcDbBlockBegin
  2
block 3
 70
     0
 10
0.0
 20
0.0
 30
0.0
  3
block 3
  1

  0
SPLINE
  5
E0
330
DC
100
AcDbEntity
  8
_U+30EC_U+30A4_U+30E4_U+30FC 1
370
     0
100
AcDbSpline
210
0.0
220
0.0
230
1.0
 70
    11
 71
     3
 72
    53
 73
    49
 74
     0
 42
0.0000000001
 43
0.0000000001
 12
1.0
 22
0.0
 32
0.0
 13
1.0
 23
0.0
 33
0.0
 40
0.0
 40
0.0
 40
0.0
 40
0.0
 40
1.0
 40
1.0
 40
1.0
 40
2.0
 40
2.0
 40
2.0
 40
3.0
 40
3.0
 40
3.0
 40
4.0
 40
4.0
 40
4.0
 40
5.0
 40
5.0
 40
5.0
 40
6.0
 40
6.0
 40
6.0
 40
7.0
 40
7.0
 40
7.0
 40
8.0
 40
8.0
 40
8.0
 40
9.0
 40
9.0
 40
9.0
 40
10.0
 40
10.0
 40
10.0
 40
11.0
 40
11.0
 40
11.0
 40
12.0
 40
12.0
 40
12.0
 40
13.0
 40
13.0
 40
13.0
 40
14.0
 40
14.0
 40
14.0
 40
15.0
 40
15.0
 40
15.0
 40
16.0
 40
16.0
 40
16.0
 40
16.0
 10
112.4210448937697
 20
-140.7740084826016
 30
0.0
 10
112.3428412262546
 20
-140.7740084826016
 30
0.0
 10
112.2412109094397
 20
-140.7571275147239
 30
0.0
 10
112.1395805926248
 20
-140.6937377577953
 30
0.0
 10
111.9662922897168
 20
-140.5838392118158
 30
0.0
 10
111.9449326977082
 20
-140.4525810738278
 30
0.0
 10
111.9259846725393
 20
-140.3447495851395
 30
0.0
 10
111.9259846725393
 20
-140.3447495851395
 30
0.0
 10
112.1481933313379
 20
-140.3447495851395
 30
0.0
 10
112.1481933313379
 20
-140.3447495851395
 30
0.0
 10
112.2029703495534
 20
-140.5435315946384
 30
0.0
 10
112.3300943729592
 20
-140.5731594158116
 30
0.0
 10
112.4231119510609
 20
-140.5731594158116
 30
0.0
 10
112.5626383182135
 20
-140.5731594158116
 30
0.0
 10
112.7149115386616
 20
-140.4735961562879
 30
0.0
 10
112.7149115386616
 20
-140.2410522110335
 30
0.0
 10
112.7149115386616
 20
-139.9850816164794
 30
0.0
 10
112.5350775543315
 20
-139.9151461781289
 30
0.0
 10
112.4144992123478
 20
-139.9151461781289
 30
0.0
 10
112.3828043338835
 20
-139.9151461781289
 30
0.0
 10
112.2412109094397
 20
-139.9151461781289
 30
0.0
 10
112.1523274459202
 20
-140.0443372588257
 30
0.0
 10
112.1523274459202
 20
-140.0443372588257
 30
0.0
 10
111.9766275761725
 20
-140.0253892336569
 30
0.0
 10
111.9766275761725
 20
-140.0253892336569
 30
0.0
 10
111.9766275761725
 20
-140.0253892336569
 30
0.0
 10
112.0972059181563
 20
-139.178929272931
 30
0.0
 10
112.0972059181563
 20
-139.178929272931
 30
0.0
 10
112.0972059181563
 20
-139.178929272931
 30
0.0
 10
112.8757974978227
 20
-139.178929272931
 30
0.0
 10
112.8757974978227
 20
-139.178929272931
 30
0.0
 10
112.8757974978227
 20
-139.178929272931
 30
0.0
 10
112.8757974978227
 20
-139.3735771678476
 30
0.0
 10
112.8757974978227
 20
-139.3735771678476
 30
0.0
 10
112.8757974978227
 20
-139.3735771678476
 30
0.0
 10
112.2601589346086
 20
-139.3735771678476
 30
0.0
 10
112.2601589346086
 20
-139.3735771678476
 30
0.0
 10
112.2601589346086
 20
-139.3735771678476
 30
0.0
 10
112.1947021203888
 20
-139.7966348934363
 30
0.0
 10
112.1947021203888
 20
-139.7966348934363
 30
0.0
 10
112.2560248200263
 20
-139.7628729576808
 30
0.0
 10
112.3383626021238
 20
-139.7225653405034
 30
0.0
 10
112.4568738868163
 20
-139.7225653405034
 30
0.0
 10
112.7107774240793
 20
-139.7225653405034
 30
0.0
 10
112.9477999934644
 20
-139.9089450062554
 30
0.0
 10
112.9477999934644
 20
-140.2221041858646
 30
0.0
 10
112.9477999934644
 20
-140.5393974800561
 30
0.0
 10
112.7235242773747
 20
-140.7740084826016
 30
0.0
 10
112.4210448937697
 20
-140.7740084826016
 30
0.0
  0
HATCH
  5
E1
330
DC
100
AcDbEntity
  8
_U+30EC_U+30A4_U+30E4_U+30FC 1
 62
   179
420
  2234388
100
AcDbHatch
 10
0.0
 20
0.0
 30
0.0
210
0.0
220
0.0
230
1.0
  2
SOLID
 70
     1
 71
     0
 91
        1
 92
        1
 93
        1
 72
     4
 94
        3
 73
     0
 74
     1
 95
       53
 96
       49
 40
0.0
 40
0.0
 40
0.0
 40
0.0
 40
1.0
 40
1.0
 40
1.0
 40
2.0
 40
2.0
 40
2.0
 40
3.0
 40
3.0
 40
3.0
 40
4.0
 40
4.0
 40
4.0
 40
5.0
 40
5.0
 40
5.0
 40
6.0
 40
6.0
 40
6.0
 40
7.0
 40
7.0
 40
7.0
 40
8.0
 40
8.0
 40
8.0
 40
9.0
 40
9.0
 40
9.0
 40
10.0
 40
10.0
 40
10.0
 40
11.0
 40
11.0
 40
11.0
 40
12.0
 40
12.0
 40
12.0
 40
13.0
 40
13.0
 40
13.0
 40
14.0
 40
14.0
 40
14.0
 40
15.0
 40
15.0
 40
15.0
 40
16.0
 40
16.0
 40
16.0
 40
16.0
 10
112.4210448937697
 20
-140.7740084826016
 10
112.3428412262546
 20
-140.7740084826016
 10
112.2412109094397
 20
-140.7571275147239
 10
112.1395805926248
 20
-140.6937377577953
 10
111.9662922897168
 20
-140.5838392118158
 10
111.9449326977082
 20
-140.4525810738278
 10
111.9259846725393
 20
-140.3447495851395
 10
111.9259846725393
 20
-140.3447495851395
 10
112.1481933313379
 20
-140.3447495851395
 10
112.1481933313379
 20
-140.3447495851395
 10
112.2029703495534
 20
-140.5435315946384
 10
112.3300943729592
 20
-140.5731594158116
 10
112.4231119510609
 20
-140.5731594158116
 10
112.5626383182135
 20
-140.5731594158116
 10
112.7149115386616
 20
-140.4735961562879
 10
112.7149115386616
 20
-140.2410522110335
 10
112.7149115386616
 20
-139.9850816164794
 10
112.5350775543315
 20
-139.9151461781289
 10
112.4144992123478
 20
-139.9151461781289
 10
112.3828043338835
 20
-139.9151461781289
 10
112.2412109094397
 20
-139.9151461781289
 10
112.1523274459202
 20
-140.0443372588257
 10
112.1523274459202
 20
-140.0443372588257
 10
111.9766275761725
 20
-140.0253892336569
 10
111.9766275761725
 20
-140.0253892336569
 10
111.9766275761725
 20
-140.0253892336569
 10
112.0972059181563
 20
-139.178929272931
 10
112.0972059181563
 20
-139.178929272931
 10
112.0972059181563
 20
-139.178929272931
 10
112.8757974978227
 20
-139.178929272931
 10
112.8757974978227
 20
-139.178929272931
 10
112.8757974978227
 20
-139.178929272931
 10
112.8757974978227
 20
-139.3735771678476
 10
112.8757974978227
 20
-139.3735771678476
 10
112.8757974978227
 20
-139.3735771678476
 10
112.2601589346086
 20
-139.3735771678476
 10
112.2601589346086
 20
-139.3735771678476
 10
112.2601589346086
 20
-139.3735771678476
 10
112.1947021203888
 20
-139.7966348934363
 10
112.1947021203888
 20
-139.7966348934363
 10
112.2560248200263
 20
-139.7628729576808
 10
112.3383626021238
 20
-139.7225653405034
 10
112.4568738868163
 20
-139.7225653405034
 10
112.7107774240793
 20
-139.7225653405034
 10
112.9477999934644
 20
-139.9089450062554
 10
112.9477999934644
 20
-140.2221041858646
 10
112.9477999934644
 20
-140.5393974800561
 10
112.7235242773747
 20
-140.7740084826016
 10
112.4210448937697
 20
-140.7740084826016
 97
        0
 97
        0
 75
     2
 76
     1
 98
        0
  0
SPLINE
  5
E2
330
DC
100
AcDbEntity
  8
_U+30EC_U+30A4_U+30E4_U+30FC 1
370
     0
100
AcDbSpline
210
0.0
220
0.0
230
1.0
 70
    11
 71
     3
 72
    29
 73
    25
 74
     0
 42
0.0000000001
 43
0.0000000001
 12
1.0
 22
0.0
 32
0.0
 13
1.0
 23
0.0
 33
0.0
 40
0.0
 40
0.0
 40
0.0
 40
0.0
 40
1.0
 40
1.0
 40
1.0
 40
2.0
 40
2.0
 40
2.0
 40
3.0
 40
3.0
 40
3.0
 40
4.0
 40
4.0
 40
4.0
 40
5.0
 40
5.0
 40
5.0
 40
6.0
 40
6.0
 40
6.0
 40
7.0
 40
7.0
 40
7.0
 40
8.0
 40
8.0
 40
8.0
 40
8.0
 10
114.0147460652463
 20
-140.5455986519296
 30
0.0
 10
113.9065700670095
 20
-140.7550604574328
 30
0.0
 10
113.7332817641014
 20
-140.7740084826016
 30
0.0
 10
113.6168375367
 20
-140.7740084826016
 30
0.0
 10
113.4559515775388
 20
-140.7740084826016
 30
0.0
 10
113.314358153095
 20
-140.7274996935508
 30
0.0
 10
113.2192735177021
 20
-140.5455986519296
 30
0.0
 10
113.1155761435961
 20
-140.350950757013
 30
0.0
 10
113.0962836088787
 20
-140.1142726971763
 30
0.0
 10
113.0962836088787
 20
-139.951319680724
 30
0.0
 10
113.0962836088787
 20
-139.8073146894405
 30
0.0
 10
113.113509086305
 20
-139.5554782094688
 30
0.0
 10
113.2192735177021
 20
-139.3566961999699
 30
0.0
 10
113.3271050063905
 20
-139.1537800758886
 30
0.0
 10
113.4879909655516
 20
-139.130353426589
 30
0.0
 10
113.6168375367
 20
-139.130353426589
 30
0.0
 10
113.77565643857
 20
-139.130353426589
 30
0.0
 10
113.9193169203049
 20
-139.1747951583487
 30
0.0
 10
114.0147460652463
 20
-139.3566961999699
 30
0.0
 10
114.1139648152215
 20
-139.5492770375953
 30
0.0
 10
114.1373914645212
 20
-139.7776868682674
 30
0.0
 10
114.1373914645212
 20
-139.951319680724
 30
0.0
 10
114.1373914645212
 20
-140.1225409263409
 30
0.0
 10
114.1160318725127
 20
-140.3530178143041
 30
0.0
 10
114.0147460652463
 20
-140.5455986519296
 30
0.0
  0
SPLINE
  5
E3
330
DC
100
AcDbEntity
  8
_U+30EC_U+30A4_U+30E4_U+30FC 1
370
     0
100
AcDbSpline
210
0.0
220
0.0
230
1.0
 70
    11
 71
     3
 72
    17
 73
    13
 74
     0
 42
0.0000000001
 43
0.0000000001
 12
1.0
 22
0.0
 32
0.0
 13
1.0
 23
0.0
 33
0.0
 40
0.0
 40
0.0
 40
0.0
 40
0.0
 40
1.0
 40
1.0
 40
1.0
 40
2.0
 40
2.0
 40
2.0
 40
3.0
 40
3.0
 40
3.0
 40
4.0
 40
4.0
 40
4.0
 40
4.0
 10
113.6168375367
 20
-139.3229342642144
 30
0.0
 10
113.3670681140193
 20
-139.3229342642144
 30
0.0
 10
113.3205593249685
 20
-139.6064656226505
 30
0.0
 10
113.3205593249685
 20
-139.951319680724
 30
0.0
 10
113.3205593249685
 20
-140.2706800322067
 30
0.0
 10
113.3567328275636
 20
-140.579360587685
 30
0.0
 10
113.6168375367
 20
-140.579360587685
 30
0.0
 10
113.8645399020894
 20
-140.579360587685
 30
0.0
 10
113.9131157484315
 20
-140.2982407960886
 30
0.0
 10
113.9131157484315
 20
-139.951319680724
 30
0.0
 10
113.9131157484315
 20
-139.6316148196928
 30
0.0
 10
113.8748751885452
 20
-139.3229342642144
 30
0.0
 10
113.6168375367
 20
-139.3229342642144
 30
0.0
  0
HATCH
  5
E4
330
DC
100
AcDbEntity
  8
_U+30EC_U+30A4_U+30E4_U+30FC 1
 62
   179
420
  2234388
100
AcDbHatch
 10
0.0
 20
0.0
 30
0.0
210
0.0
220
0.0
230
1.0
  2
SOLID
 70
     1
 71
     0
 91
        2
 92
        1
 93
        1
 72
     4
 94
        3
 73
     0
 74
     1
 95
       29
 96
       25
 40
0.0
 40
0.0
 40
0.0
 40
0.0
 40
1.0
 40
1.0
 40
1.0
 40
2.0
 40
2.0
 40
2.0
 40
3.0
 40
3.0
 40
3.0
 40
4.0
 40
4.0
 40
4.0
 40
5.0
 40
5.0
 40
5.0
 40
6.0
 40
6.0
 40
6.0
 40
7.0
 40
7.0
 40
7.0
 40
8.0
 40
8.0
 40
8.0
 40
8.0
 10
114.0147460652463
 20
-140.5455986519296
 10
113.9065700670095
 20
-140.7550604574328
 10
113.7332817641014
 20
-140.7740084826016
 10
113.6168375367
 20
-140.7740084826016
 10
113.4559515775388
 20
-140.7740084826016
 10
113.314358153095
 20
-140.7274996935508
 10
113.2192735177021
 20
-140.5455986519296
 10
113.1155761435961
 20
-140.350950757013
 10
113.0962836088787
 20
-140.1142726971763
 10
113.0962836088787
 20
-139.951319680724
 10
113.0962836088787
 20
-139.8073146894405
 10
113.113509086305
 20
-139.5554782094688
 10
113.2192735177021
 20
-139.3566961999699
 10
113.3271050063905
 20
-139.1537800758886
 10
113.4879909655516
 20
-139.130353426589
 10
113.6168375367
 20
-139.130353426589
 10
113.77565643857
 20
-139.130353426589
 10
113.9193169203049
 20
-139.1747951583487
 10
114.0147460652463
 20
-139.3566961999699
 10
114.1139648152215
 20
-139.5492770375953
 10
114.1373914645212
 20
-139.7776868682674
 10
114.1373914645212
 20
-139.951319680724
 10
114.1373914645212
 20
-140.1225409263409
 10
114.1160318725127
 20
-140.3530178143041
 10
114.0147460652463
 20
-140.5455986519296
 97
        0
 97
        0
 92
        1
 93
        1
 72
     4
 94
        3
 73
     0
 74
     1
 95
       17
 96
       13
 40
0.0
 40
0.0
 40
0.0
 40
0.0
 40
1.0
 40
1.0
 40
1.0
 40
2.0
 40
2.0
 40
2.0
 40
3.0
 40
3.0
 40
3.0
 40
4.0
 40
4.0
 40
4.0
 40
4.0
 10
113.6168375367
 20
-139.3229342642144
 10
113.3670681140193
 20
-139.3229342642144
 10
113.3205593249685
 20
-139.6064656226505
 10
113.3205593249685
 20
-139.951319680724
 10
113.3205593249685
 20
-140.2706800322067
 10
113.3567328275636
 20
-140.579360587685
 10
113.6168375367
 20
-140.579360587685
 10
113.8645399020894
 20
-140.579360587685
 10
113.9131157484315
 20
-140.2982407960886
 10
113.9131157484315
 20
-139.951319680724
 10
113.9131157484315
 20
-139.6316148196928
 10
113.8748751885452
 20
-139.3229342642144
 10
113.6168375367
 20
-139.3229342642144
 97
        0
 97
        0
 75
     2
 76
     1
 98
        0
  0
ENDBLK
  5
DF
330
DC
100
AcDbEntity
  8
0
100
AcDbBlockEnd
  0
BLOCK
  5
EF
330
ED
100
AcDbEntity
  8
0
100
AcDbBlockBegin
  2
block 4
 70
     0
 10
0.0
 20
0.0
 30
0.0
  3
block 4
  1

  0
SPLINE
  5
F1
330
ED
100
AcDbEntity
  8
_U+30EC_U+30A4_U+30E4_U+30FC 1
370
     0
100
AcDbSpline
210
0.0
220
0.0
230
1.0
 70
    11
 71
     3
 72
    53
 73
    49
 74
     0
 42
0.0000000001
 43
0.0000000001
 12
1.0
 22
0.0
 32
0.0
 13
1.0
 23
0.0
 33
0.0
 40
0.0
 40
0.0
 40
0.0
 40
0.0
 40
1.0
 40
1.0
 40
1.0
 40
2.0
 40
2.0
 40
2.0
 40
3.0
 40
3.0
 40
3.0
 40
4.0
 40
4.0
 40
4.0
 40
5.0
 40
5.0
 40
5.0
 40
6.0
 40
6.0
 40
6.0
 40
7.0
 40
7.0
 40
7.0
 40
8.0
 40
8.0
 40
8.0
 40
9.0
 40
9.0
 40
9.0
 40
10.0
 40
10.0
 40
10.0
 40
11.0
 40
11.0
 40
11.0
 40
12.0
 40
12.0
 40
12.0
 40
13.0
 40
13.0
 40
13.0
 40
14.0
 40
14.0
 40
14.0
 40
15.0
 40
15.0
 40
15.0
 40
16.0
 40
16.0
 40
16.0
 40
16.0
 10
96.81062823100568
 20
-140.7740084826016
 30
0.0
 10
96.73242456349051
 20
-140.7740084826016
 30
0.0
 10
96.63079424667563
 20
-140.7571275147239
 30
0.0
 10
96.52916392986077
 20
-140.6937377577953
 30
0.0
 10
96.3558756269527
 20
-140.5838392118158
 30
0.0
 10
96.33451603494416
 20
-140.4525810738278
 30
0.0
 10
96.31556800977528
 20
-140.3447495851395
 30
0.0
 10
96.31556800977528
 20
-140.3447495851395
 30
0.0
 10
96.5377766685739
 20
-140.3447495851395
 30
0.0
 10
96.5377766685739
 20
-140.3447495851395
 30
0.0
 10
96.59255368678937
 20
-140.5435315946384
 30
0.0
 10
96.71967771019509
 20
-140.5731594158116
 30
0.0
 10
96.81269528829684
 20
-140.5731594158116
 30
0.0
 10
96.95222165544945
 20
-140.5731594158116
 30
0.0
 10
97.10449487589749
 20
-140.4735961562879
 30
0.0
 10
97.10449487589749
 20
-140.2410522110335
 30
0.0
 10
97.10449487589749
 20
-139.9850816164794
 30
0.0
 10
96.92466089156746
 20
-139.9151461781289
 30
0.0
 10
96.80408254958371
 20
-139.9151461781289
 30
0.0
 10
96.7723876711194
 20
-139.9151461781289
 30
0.0
 10
96.63079424667563
 20
-139.9151461781289
 30
0.0
 10
96.5419107831562
 20
-140.0443372588257
 30
0.0
 10
96.5419107831562
 20
-140.0443372588257
 30
0.0
 10
96.36621091340845
 20
-140.0253892336569
 30
0.0
 10
96.36621091340845
 20
-140.0253892336569
 30
0.0
 10
96.36621091340845
 20
-140.0253892336569
 30
0.0
 10
96.4867892553922
 20
-139.178929272931
 30
0.0
 10
96.4867892553922
 20
-139.178929272931
 30
0.0
 10
96.4867892553922
 20
-139.178929272931
 30
0.0
 10
97.26538083505866
 20
-139.178929272931
 30
0.0
 10
97.26538083505866
 20
-139.178929272931
 30
0.0
 10
97.26538083505866
 20
-139.178929272931
 30
0.0
 10
97.26538083505866
 20
-139.3735771678476
 30
0.0
 10
97.26538083505866
 20
-139.3735771678476
 30
0.0
 10
97.26538083505866
 20
-139.3735771678476
 30
0.0
 10
96.64974227184452
 20
-139.3735771678476
 30
0.0
 10
96.64974227184452
 20
-139.3735771678476
 30
0.0
 10
96.64974227184452
 20
-139.3735771678476
 30
0.0
 10
96.58428545762477
 20
-139.7966348934363
 30
0.0
 10
96.58428545762477
 20
-139.7966348934363
 30
0.0
 10
96.64560815726222
 20
-139.7628729576808
 30
0.0
 10
96.72794593935969
 20
-139.7225653405034
 30
0.0
 10
96.84645722405227
 20
-139.7225653405034
 30
0.0
 10
97.10036076131519
 20
-139.7225653405034
 30
0.0
 10
97.33738333070038
 20
-139.9089450062554
 30
0.0
 10
97.33738333070038
 20
-140.2221041858646
 30
0.0
 10
97.33738333070038
 20
-140.5393974800561
 30
0.0
 10
97.11310761461061
 20
-140.7740084826016
 30
0.0
 10
96.81062823100568
 20
-140.7740084826016
 30
0.0
  0
HATCH
  5
F2
330
ED
100
AcDbEntity
  8
_U+30EC_U+30A4_U+30E4_U+30FC 1
 62
   179
420
  2234388
100
AcDbHatch
 10
0.0
 20
0.0
 30
0.0
210
0.0
220
0.0
230
1.0
  2
SOLID
 70
     1
 71
     0
 91
        1
 92
        1
 93
        1
 72
     4
 94
        3
 73
     0
 74
     1
 95
       53
 96
       49
 40
0.0
 40
0.0
 40
0.0
 40
0.0
 40
1.0
 40
1.0
 40
1.0
 40
2.0
 40
2.0
 40
2.0
 40
3.0
 40
3.0
 40
3.0
 40
4.0
 40
4.0
 40
4.0
 40
5.0
 40
5.0
 40
5.0
 40
6.0
 40
6.0
 40
6.0
 40
7.0
 40
7.0
 40
7.0
 40
8.0
 40
8.0
 40
8.0
 40
9.0
 40
9.0
 40
9.0
 40
10.0
 40
10.0
 40
10.0
 40
11.0
 40
11.0
 40
11.0
 40
12.0
 40
12.0
 40
12.0
 40
13.0
 40
13.0
 40
13.0
 40
14.0
 40
14.0
 40
14.0
 40
15.0
 40
15.0
 40
15.0
 40
16.0
 40
16.0
 40
16.0
 40
16.0
 10
96.81062823100568
 20
-140.7740084826016
 10
96.73242456349051
 20
-140.7740084826016
 10
96.63079424667563
 20
-140.7571275147239
 10
96.52916392986077
 20
-140.6937377577953
 10
96.3558756269527
 20
-140.5838392118158
 10
96.33451603494416
 20
-140.4525810738278
 10
96.31556800977528
 20
-140.3447495851395
 10
96.31556800977528
 20
-140.3447495851395
 10
96.5377766685739
 20
-140.3447495851395
 10
96.5377766685739
 20
-140.3447495851395
 10
96.59255368678937
 20
-140.5435315946384
 10
96.71967771019509
 20
-140.5731594158116
 10
96.81269528829684
 20
-140.5731594158116
 10
96.95222165544945
 20
-140.5731594158116
 10
97.10449487589749
 20
-140.4735961562879
 10
97.10449487589749
 20
-140.2410522110335
 10
97.10449487589749
 20
-139.9850816164794
 10
96.92466089156746
 20
-139.9151461781289
 10
96.80408254958371
 20
-139.9151461781289
 10
96.7723876711194
 20
-139.9151461781289
 10
96.63079424667563
 20
-139.9151461781289
 10
96.5419107831562
 20
-140.0443372588257
 10
96.5419107831562
 20
-140.0443372588257
 10
96.36621091340845
 20
-140.0253892336569
 10
96.36621091340845
 20
-140.0253892336569
 10
96.36621091340845
 20
-140.0253892336569
 10
96.4867892553922
 20
-139.178929272931
 10
96.4867892553922
 20
-139.178929272931
 10
96.4867892553922
 20
-139.178929272931
 10
97.26538083505866
 20
-139.178929272931
 10
97.26538083505866
 20
-139.178929272931
 10
97.26538083505866
 20
-139.178929272931
 10
97.26538083505866
 20
-139.3735771678476
 10
97.26538083505866
 20
-139.3735771678476
 10
97.26538083505866
 20
-139.3735771678476
 10
96.64974227184452
 20
-139.3735771678476
 10
96.64974227184452
 20
-139.3735771678476
 10
96.64974227184452
 20
-139.3735771678476
 10
96.58428545762477
 20
-139.7966348934363
 10
96.58428545762477
 20
-139.7966348934363
 10
96.64560815726222
 20
-139.7628729576808
 10
96.72794593935969
 20
-139.7225653405034
 10
96.84645722405227
 20
-139.7225653405034
 10
97.10036076131519
 20
-139.7225653405034
 10
97.33738333070038
 20
-139.9089450062554
 10
97.33738333070038
 20
-140.2221041858646
 10
97.33738333070038
 20
-140.5393974800561
 10
97.11310761461061
 20
-140.7740084826016
 10
96.81062823100568
 20
-140.7740084826016
 97
        0
 97
        0
 75
     2
 76
     1
 98
        0
  0
SPLINE
  5
F3
330
ED
100
AcDbEntity
  8
_U+30EC_U+30A4_U+30E4_U+30FC 1
370
     0
100
AcDbSpline
210
0.0
220
0.0
230
1.0
 70
    11
 71
     3
 72
    29
 73
    25
 74
     0
 42
0.0000000001
 43
0.0000000001
 12
1.0
 22
0.0
 32
0.0
 13
1.0
 23
0.0
 33
0.0
 40
0.0
 40
0.0
 40
0.0
 40
0.0
 40
1.0
 40
1.0
 40
1.0
 40
2.0
 40
2.0
 40
2.0
 40
3.0
 40
3.0
 40
3.0
 40
4.0
 40
4.0
 40
4.0
 40
5.0
 40
5.0
 40
5.0
 40
6.0
 40
6.0
 40
6.0
 40
7.0
 40
7.0
 40
7.0
 40
8.0
 40
8.0
 40
8.0
 40
8.0
 10
98.40432940248226
 20
-140.5455986519296
 30
0.0
 10
98.29615340424542
 20
-140.7550604574328
 30
0.0
 10
98.12286510133734
 20
-140.7740084826016
 30
0.0
 10
98.0064208739359
 20
-140.7740084826016
 30
0.0
 10
97.84553491477473
 20
-140.7740084826016
 30
0.0
 10
97.70394149033096
 20
-140.7274996935508
 30
0.0
 10
97.60885685493807
 20
-140.5455986519296
 30
0.0
 10
97.50515948083205
 20
-140.350950757013
 30
0.0
 10
97.48586694611465
 20
-140.1142726971763
 30
0.0
 10
97.48586694611465
 20
-139.951319680724
 30
0.0
 10
97.48586694611465
 20
-139.8073146894405
 30
0.0
 10
97.50309242354089
 20
-139.5554782094688
 30
0.0
 10
97.60885685493807
 20
-139.3566961999699
 30
0.0
 10
97.71668834362639
 20
-139.1537800758886
 30
0.0
 10
97.87757430278755
 20
-139.130353426589
 30
0.0
 10
98.0064208739359
 20
-139.130353426589
 30
0.0
 10
98.16523977580592
 20
-139.130353426589
 30
0.0
 10
98.30890025754084
 20
-139.1747951583487
 30
0.0
 10
98.40432940248226
 20
-139.3566961999699
 30
0.0
 10
98.50354815245745
 20
-139.5492770375953
 30
0.0
 10
98.52697480175715
 20
-139.7776868682674
 30
0.0
 10
98.52697480175715
 20
-139.951319680724
 30
0.0
 10
98.52697480175715
 20
-140.1225409263409
 30
0.0
 10
98.5056152097486
 20
-140.3530178143041
 30
0.0
 10
98.40432940248226
 20
-140.5455986519296
 30
0.0
  0
SPLINE
  5
F4
330
ED
100
AcDbEntity
  8
_U+30EC_U+30A4_U+30E4_U+30FC 1
370
     0
100
AcDbSpline
210
0.0
220
0.0
230
1.0
 70
    11
 71
     3
 72
    17
 73
    13
 74
     0
 42
0.0000000001
 43
0.0000000001
 12
1.0
 22
0.0
 32
0.0
 13
1.0
 23
0.0
 33
0.0
 40
0.0
 40
0.0
 40
0.0
 40
0.0
 40
1.0
 40
1.0
 40
1.0
 40
2.0
 40
2.0
 40
2.0
 40
3.0
 40
3.0
 40
3.0
 40
4.0
 40
4.0
 40
4.0
 40
4.0
 10
98.0064208739359
 20
-139.3229342642144
 30
0.0
 10
97.75665145125528
 20
-139.3229342642144
 30
0.0
 10
97.71014266220442
 20
-139.6064656226505
 30
0.0
 10
97.71014266220442
 20
-139.951319680724
 30
0.0
 10
97.71014266220442
 20
-140.2706800322067
 30
0.0
 10
97.74631616479954
 20
-140.579360587685
 30
0.0
 10
98.0064208739359
 20
-140.579360587685
 30
0.0
 10
98.25412323932537
 20
-140.579360587685
 30
0.0
 10
98.30269908566738
 20
-140.2982407960886
 30
0.0
 10
98.30269908566738
 20
-139.951319680724
 30
0.0
 10
98.30269908566738
 20
-139.6316148196928
 30
0.0
 10
98.26445852578111
 20
-139.3229342642144
 30
0.0
 10
98.0064208739359
 20
-139.3229342642144
 30
0.0
  0
HATCH
  5
F5
330
ED
100
AcDbEntity
  8
_U+30EC_U+30A4_U+30E4_U+30FC 1
 62
   179
420
  2234388
100
AcDbHatch
 10
0.0
 20
0.0
 30
0.0
210
0.0
220
0.0
230
1.0
  2
SOLID
 70
     1
 71
     0
 91
        2
 92
        1
 93
        1
 72
     4
 94
        3
 73
     0
 74
     1
 95
       29
 96
       25
 40
0.0
 40
0.0
 40
0.0
 40
0.0
 40
1.0
 40
1.0
 40
1.0
 40
2.0
 40
2.0
 40
2.0
 40
3.0
 40
3.0
 40
3.0
 40
4.0
 40
4.0
 40
4.0
 40
5.0
 40
5.0
 40
5.0
 40
6.0
 40
6.0
 40
6.0
 40
7.0
 40
7.0
 40
7.0
 40
8.0
 40
8.0
 40
8.0
 40
8.0
 10
98.40432940248226
 20
-140.5455986519296
 10
98.29615340424542
 20
-140.7550604574328
 10
98.12286510133734
 20
-140.7740084826016
 10
98.0064208739359
 20
-140.7740084826016
 10
97.84553491477473
 20
-140.7740084826016
 10
97.70394149033096
 20
-140.7274996935508
 10
97.60885685493807
 20
-140.5455986519296
 10
97.50515948083205
 20
-140.350950757013
 10
97.48586694611465
 20
-140.1142726971763
 10
97.48586694611465
 20
-139.951319680724
 10
97.48586694611465
 20
-139.8073146894405
 10
97.50309242354089
 20
-139.5554782094688
 10
97.60885685493807
 20
-139.3566961999699
 10
97.71668834362639
 20
-139.1537800758886
 10
97.87757430278755
 20
-139.130353426589
 10
98.0064208739359
 20
-139.130353426589
 10
98.16523977580592
 20
-139.130353426589
 10
98.30890025754084
 20
-139.1747951583487
 10
98.40432940248226
 20
-139.3566961999699
 10
98.50354815245745
 20
-139.5492770375953
 10
98.52697480175715
 20
-139.7776868682674
 10
98.52697480175715
 20
-139.951319680724
 10
98.52697480175715
 20
-140.1225409263409
 10
98.5056152097486
 20
-140.3530178143041
 10
98.40432940248226
 20
-140.5455986519296
 97
        0
 97
        0
 92
        1
 93
        1
 72
     4
 94
        3
 73
     0
 74
     1
 95
       17
 96
       13
 40
0.0
 40
0.0
 40
0.0
 40
0.0
 40
1.0
 40
1.0
 40
1.0
 40
2.0
 40
2.0
 40
2.0
 40
3.0
 40
3.0
 40
3.0
 40
4.0
 40
4.0
 40
4.0
 40
4.0
 10
98.0064208739359
 20
-139.3229342642144
 10
97.75665145125528
 20
-139.3229342642144
 10
97.71014266220442
 20
-139.6064656226505
 10
97.71014266220442
 20
-139.951319680724
 10
97.71014266220442
 20
-140.2706800322067
 10
97.74631616479954
 20
-140.579360587685
 10
98.0064208739359
 20
-140.579360587685
 10
98.25412323932537
 20
-140.579360587685
 10
98.30269908566738
 20
-140.2982407960886
 10
98.30269908566738
 20
-139.951319680724
 10
98.30269908566738
 20
-139.6316148196928
 10
98.26445852578111
 20
-139.3229342642144
 10
98.0064208739359
 20
-139.3229342642144
 97
        0
 97
        0
 75
     2
 76
     1
 98
        0
  0
ENDBLK
  5
F0
330
ED
100
AcDbEntity
  8
0
100
AcDbBlockEnd
  0
BLOCK
  5
100
330
FE
100
AcDbEntity
  8
0
100
AcDbBlockBegin
  2
block 5
 70
     0
 10
0.0
 20
0.0
 30
0.0
  3
block 5
  1

  0
SPLINE
  5
102
330
FE
100
AcDbEntity
  8
_U+30EC_U+30A4_U+30E4_U+30FC 1
370
     0
100
AcDbSpline
210
0.0
220
0.0
230
1.0
 70
    11
 71
     3
 72
    62
 73
    58
 74
     0
 42
0.0000000001
 43
0.0000000001
 12
1.0
 22
0.0
 32
0.0
 13
1.0
 23
0.0
 33
0.0
 40
0.0
 40
0.0
 40
0.0
 40
0.0
 40
1.0
 40
1.0
 40
1.0
 40
2.0
 40
2.0
 40
2.0
 40
3.0
 40
3.0
 40
3.0
 40
4.0
 40
4.0
 40
4.0
 40
5.0
 40
5.0
 40
5.0
 40
6.0
 40
6.0
 40
6.0
 40
7.0
 40
7.0
 40
7.0
 40
8.0
 40
8.0
 40
8.0
 40
9.0
 40
9.0
 40
9.0
 40
10.0
 40
10.0
 40
10.0
 40
11.0
 40
11.0
 40
11.0
 40
12.0
 40
12.0
 40
12.0
 40
13.0
 40
13.0
 40
13.0
 40
14.0
 40
14.0
 40
14.0
 40
15.0
 40
15.0
 40
15.0
 40
16.0
 40
16.0
 40
16.0
 40
17.0
 40
17.0
 40
17.0
 40
18.0
 40
18.0
 40
18.0
 40
19.0
 40
19.0
 40
19.0
 40
19.0
 10
108.9187608234648
 20
-159.9482041700824
 30
0.0
 10
108.8233316785233
 20
-159.9482041700824
 30
0.0
 10
108.6056016438556
 20
-159.9271890876224
 30
0.0
 10
108.480544677741
 20
-159.7411539314189
 30
0.0
 10
108.4068196343566
 20
-159.6288438185997
 30
0.0
 10
108.4023410102258
 20
-159.5296250686245
 30
0.0
 10
108.3982068956435
 20
-159.4448757196874
 30
0.0
 10
108.3982068956435
 20
-159.4448757196874
 30
0.0
 10
108.618348497151
 20
-159.4448757196874
 30
0.0
 10
108.618348497151
 20
-159.4448757196874
 30
0.0
 10
108.6204155544421
 20
-159.5189452726203
 30
0.0
 10
108.6307508408979
 20
-159.7535562751658
 30
0.0
 10
108.9142821993339
 20
-159.7535562751658
 30
0.0
 10
109.0517415091954
 20
-159.7535562751658
 30
0.0
 10
109.204359239192
 20
-159.6839653463637
 30
0.0
 10
109.204359239192
 20
-159.4555555156917
 30
0.0
 10
109.204359239192
 20
-159.3391112882902
 30
0.0
 10
109.1661186793057
 20
-159.2905354419482
 30
0.0
 10
109.1344238008414
 20
-159.2588405634839
 30
0.0
 10
109.0603542479085
 20
-159.184771010551
 30
0.0
 10
108.9439100205071
 20
-159.1720241572556
 30
0.0
 10
108.8891330022916
 20
-159.1720241572556
 30
0.0
 10
108.8698404675742
 20
-159.1720241572556
 30
0.0
 10
108.8340114745276
 20
-159.1740912145468
 30
0.0
 10
108.8064507106456
 20
-159.178225329129
 30
0.0
 10
108.8064507106456
 20
-159.178225329129
 30
0.0
 10
108.8064507106456
 20
-158.9835774342124
 30
0.0
 10
108.8064507106456
 20
-158.9835774342124
 30
0.0
 10
108.8446912705319
 20
-158.9901231156344
 30
0.0
 10
108.8867214354519
 20
-158.9921901729256
 30
0.0
 10
108.8932671168739
 20
-158.9921901729256
 30
0.0
 10
108.9587239310937
 20
-158.9921901729256
 30
0.0
 10
109.1575059405926
 20
-158.970830580917
 30
0.0
 10
109.1575059405926
 20
-158.7341525210803
 30
0.0
 10
109.1575059405926
 20
-158.5563855940415
 30
0.0
 10
109.0265923121531
 20
-158.5012640662775
 30
0.0
 10
108.9163492566251
 20
-158.5012640662775
 30
0.0
 10
108.6521104329064
 20
-158.5012640662775
 30
0.0
 10
108.6434976941933
 20
-158.7341525210803
 30
0.0
 10
108.639363579611
 20
-158.8058105071736
 30
0.0
 10
108.639363579611
 20
-158.8058105071736
 30
0.0
 10
108.4361029459813
 20
-158.8058105071736
 30
0.0
 10
108.4361029459813
 20
-158.8058105071736
 30
0.0
 10
108.4447156846944
 20
-158.6810980506075
 30
0.0
 10
108.4722764485764
 20
-158.3045491140697
 30
0.0
 10
108.9290961099205
 20
-158.3045491140697
 30
0.0
 10
109.1533718260103
 20
-158.3045491140697
 30
0.0
 10
109.3945285099778
 20
-158.4316731374754
 30
0.0
 10
109.3945285099778
 20
-158.7276068396584
 30
0.0
 10
109.3945285099778
 20
-158.9139865054104
 30
0.0
 10
109.2994438745849
 20
-158.9963242875079
 30
0.0
 10
109.1998806150611
 20
-159.0576469871453
 30
0.0
 10
109.2612033146986
 20
-159.0852077510273
 30
0.0
 10
109.4431043563198
 20
-159.1654784758337
 30
0.0
 10
109.4431043563198
 20
-159.4428086623963
 30
0.0
 10
109.4431043563198
 20
-159.7811170390478
 30
0.0
 10
109.1957465004788
 20
-159.9482041700824
 30
0.0
 10
108.9187608234648
 20
-159.9482041700824
 30
0.0
  0
HATCH
  5
103
330
FE
100
AcDbEntity
  8
_U+30EC_U+30A4_U+30E4_U+30FC 1
 62
   179
420
  2234388
100
AcDbHatch
 10
0.0
 20
0.0
 30
0.0
210
0.0
220
0.0
230
1.0
  2
SOLID
 70
     1
 71
     0
 91
        1
 92
        1
 93
        1
 72
     4
 94
        3
 73
     0
 74
     1
 95
       62
 96
       58
 40
0.0
 40
0.0
 40
0.0
 40
0.0
 40
1.0
 40
1.0
 40
1.0
 40
2.0
 40
2.0
 40
2.0
 40
3.0
 40
3.0
 40
3.0
 40
4.0
 40
4.0
 40
4.0
 40
5.0
 40
5.0
 40
5.0
 40
6.0
 40
6.0
 40
6.0
 40
7.0
 40
7.0
 40
7.0
 40
8.0
 40
8.0
 40
8.0
 40
9.0
 40
9.0
 40
9.0
 40
10.0
 40
10.0
 40
10.0
 40
11.0
 40
11.0
 40
11.0
 40
12.0
 40
12.0
 40
12.0
 40
13.0
 40
13.0
 40
13.0
 40
14.0
 40
14.0
 40
14.0
 40
15.0
 40
15.0
 40
15.0
 40
16.0
 40
16.0
 40
16.0
 40
17.0
 40
17.0
 40
17.0
 40
18.0
 40
18.0
 40
18.0
 40
19.0
 40
19.0
 40
19.0
 40
19.0
 10
108.9187608234648
 20
-159.9482041700824
 10
108.8233316785233
 20
-159.9482041700824
 10
108.6056016438556
 20
-159.9271890876224
 10
108.480544677741
 20
-159.7411539314189
 10
108.4068196343566
 20
-159.6288438185997
 10
108.4023410102258
 20
-159.5296250686245
 10
108.3982068956435
 20
-159.4448757196874
 10
108.3982068956435
 20
-159.4448757196874
 10
108.618348497151
 20
-159.4448757196874
 10
108.618348497151
 20
-159.4448757196874
 10
108.6204155544421
 20
-159.5189452726203
 10
108.6307508408979
 20
-159.7535562751658
 10
108.9142821993339
 20
-159.7535562751658
 10
109.0517415091954
 20
-159.7535562751658
 10
109.204359239192
 20
-159.6839653463637
 10
109.204359239192
 20
-159.4555555156917
 10
109.204359239192
 20
-159.3391112882902
 10
109.1661186793057
 20
-159.2905354419482
 10
109.1344238008414
 20
-159.2588405634839
 10
109.0603542479085
 20
-159.184771010551
 10
108.9439100205071
 20
-159.1720241572556
 10
108.8891330022916
 20
-159.1720241572556
 10
108.8698404675742
 20
-159.1720241572556
 10
108.8340114745276
 20
-159.1740912145468
 10
108.8064507106456
 20
-159.178225329129
 10
108.8064507106456
 20
-159.178225329129
 10
108.8064507106456
 20
-158.9835774342124
 10
108.8064507106456
 20
-158.9835774342124
 10
108.8446912705319
 20
-158.9901231156344
 10
108.8867214354519
 20
-158.9921901729256
 10
108.8932671168739
 20
-158.9921901729256
 10
108.9587239310937
 20
-158.9921901729256
 10
109.1575059405926
 20
-158.970830580917
 10
109.1575059405926
 20
-158.7341525210803
 10
109.1575059405926
 20
-158.5563855940415
 10
109.0265923121531
 20
-158.5012640662775
 10
108.9163492566251
 20
-158.5012640662775
 10
108.6521104329064
 20
-158.5012640662775
 10
108.6434976941933
 20
-158.7341525210803
 10
108.639363579611
 20
-158.8058105071736
 10
108.639363579611
 20
-158.8058105071736
 10
108.4361029459813
 20
-158.8058105071736
 10
108.4361029459813
 20
-158.8058105071736
 10
108.4447156846944
 20
-158.6810980506075
 10
108.4722764485764
 20
-158.3045491140697
 10
108.9290961099205
 20
-158.3045491140697
 10
109.1533718260103
 20
-158.3045491140697
 10
109.3945285099778
 20
-158.4316731374754
 10
109.3945285099778
 20
-158.7276068396584
 10
109.3945285099778
 20
-158.9139865054104
 10
109.2994438745849
 20
-158.9963242875079
 10
109.1998806150611
 20
-159.0576469871453
 10
109.2612033146986
 20
-159.0852077510273
 10
109.4431043563198
 20
-159.1654784758337
 10
109.4431043563198
 20
-159.4428086623963
 10
109.4431043563198
 20
-159.7811170390478
 10
109.1957465004788
 20
-159.9482041700824
 10
108.9187608234648
 20
-159.9482041700824
 97
        0
 97
        0
 75
     2
 76
     1
 98
        0
  0
SPLINE
  5
104
330
FE
100
AcDbEntity
  8
_U+30EC_U+30A4_U+30E4_U+30FC 1
370
     0
100
AcDbSpline
210
0.0
220
0.0
230
1.0
 70
    11
 71
     3
 72
    32
 73
    28
 74
     0
 42
0.0000000001
 43
0.0000000001
 12
1.0
 22
0.0
 32
0.0
 13
1.0
 23
0.0
 33
0.0
 40
0.0
 40
0.0
 40
0.0
 40
0.0
 40
1.0
 40
1.0
 40
1.0
 40
2.0
 40
2.0
 40
2.0
 40
3.0
 40
3.0
 40
3.0
 40
4.0
 40
4.0
 40
4.0
 40
5.0
 40
5.0
 40
5.0
 40
6.0
 40
6.0
 40
6.0
 40
7.0
 40
7.0
 40
7.0
 40
8.0
 40
8.0
 40
8.0
 40
9.0
 40
9.0
 40
9.0
 40
9.0
 10
110.108007784973
 20
-159.9482041700824
 30
0.0
 10
109.5919324812826
 20
-159.9482041700824
 30
0.0
 10
109.583664252118
 20
-159.3942328160542
 30
0.0
 10
109.583664252118
 20
-159.1802923864202
 30
0.0
 10
109.583664252118
 20
-158.949815498457
 30
0.0
 10
109.6026122772869
 20
-158.3024820567786
 30
0.0
 10
110.1462483448593
 20
-158.3024820567786
 30
0.0
 10
110.3195366477673
 20
-158.3024820567786
 30
0.0
 10
110.5651719558657
 20
-158.3724174951291
 30
0.0
 10
110.6030680062034
 20
-158.7045246999072
 30
0.0
 10
110.6030680062034
 20
-158.7045246999072
 30
0.0
 10
110.3894720861179
 20
-158.7045246999072
 30
0.0
 10
110.3894720861179
 20
-158.7045246999072
 30
0.0
 10
110.3787922901136
 20
-158.6473361148521
 30
0.0
 10
110.3470974116493
 20
-158.4991970089863
 30
0.0
 10
110.1441812875681
 20
-158.4991970089863
 30
0.0
 10
109.8520371904189
 20
-158.4991970089863
 30
0.0
 10
109.81207408279
 20
-158.8271700991821
 30
0.0
 10
109.7993272294946
 20
-159.0321532805545
 30
0.0
 10
109.8923448075964
 20
-158.9539496130393
 30
0.0
 10
109.9602131886558
 20
-158.894693970693
 30
0.0
 10
110.142114230277
 20
-158.894693970693
 30
0.0
 10
110.321948214607
 20
-158.894693970693
 30
0.0
 10
110.624427598212
 20
-159.0028699689298
 30
0.0
 10
110.624427598212
 20
-159.4090467266408
 30
0.0
 10
110.624427598212
 20
-159.7284070781235
 30
0.0
 10
110.4253010791645
 20
-159.9482041700824
 30
0.0
 10
110.108007784973
 20
-159.9482041700824
 30
0.0
  0
SPLINE
  5
105
330
FE
100
AcDbEntity
  8
_U+30EC_U+30A4_U+30E4_U+30FC 1
370
     0
100
AcDbSpline
210
0.0
220
0.0
230
1.0
 70
    11
 71
     3
 72
    17
 73
    13
 74
     0
 42
0.0000000001
 43
0.0000000001
 12
1.0
 22
0.0
 32
0.0
 13
1.0
 23
0.0
 33
0.0
 40
0.0
 40
0.0
 40
0.0
 40
0.0
 40
1.0
 40
1.0
 40
1.0
 40
2.0
 40
2.0
 40
2.0
 40
3.0
 40
3.0
 40
3.0
 40
4.0
 40
4.0
 40
4.0
 40
4.0
 10
110.1252332623992
 20
-159.0893418656096
 30
0.0
 10
109.8627169864232
 20
-159.0893418656096
 30
0.0
 10
109.8248209360855
 20
-159.300870728404
 30
0.0
 10
109.8248209360855
 20
-159.4173149558054
 30
0.0
 10
109.8248209360855
 20
-159.5930148255532
 30
0.0
 10
109.9199055714784
 20
-159.7559678420054
 30
0.0
 10
110.1038736703907
 20
-159.7559678420054
 30
0.0
 10
110.2244520123744
 20
-159.7559678420054
 30
0.0
 10
110.4001518821222
 20
-159.6967121996592
 30
0.0
 10
110.4001518821222
 20
-159.4111137839319
 30
0.0
 10
110.4001518821222
 20
-159.1868380678422
 30
0.0
 10
110.260281005421
 20
-159.0893418656096
 30
0.0
 10
110.1252332623992
 20
-159.0893418656096
 30
0.0
  0
HATCH
  5
106
330
FE
100
AcDbEntity
  8
_U+30EC_U+30A4_U+30E4_U+30FC 1
 62
   179
420
  2234388
100
AcDbHatch
 10
0.0
 20
0.0
 30
0.0
210
0.0
220
0.0
230
1.0
  2
SOLID
 70
     1
 71
     0
 91
        2
 92
        1
 93
        1
 72
     4
 94
        3
 73
     0
 74
     1
 95
       32
 96
       28
 40
0.0
 40
0.0
 40
0.0
 40
0.0
 40
1.0
 40
1.0
 40
1.0
 40
2.0
 40
2.0
 40
2.0
 40
3.0
 40
3.0
 40
3.0
 40
4.0
 40
4.0
 40
4.0
 40
5.0
 40
5.0
 40
5.0
 40
6.0
 40
6.0
 40
6.0
 40
7.0
 40
7.0
 40
7.0
 40
8.0
 40
8.0
 40
8.0
 40
9.0
 40
9.0
 40
9.0
 40
9.0
 10
110.108007784973
 20
-159.9482041700824
 10
109.5919324812826
 20
-159.9482041700824
 10
109.583664252118
 20
-159.3942328160542
 10
109.583664252118
 20
-159.1802923864202
 10
109.583664252118
 20
-158.949815498457
 10
109.6026122772869
 20
-158.3024820567786
 10
110.1462483448593
 20
-158.3024820567786
 10
110.3195366477673
 20
-158.3024820567786
 10
110.5651719558657
 20
-158.3724174951291
 10
110.6030680062034
 20
-158.7045246999072
 10
110.6030680062034
 20
-158.7045246999072
 10
110.3894720861179
 20
-158.7045246999072
 10
110.3894720861179
 20
-158.7045246999072
 10
110.3787922901136
 20
-158.6473361148521
 10
110.3470974116493
 20
-158.4991970089863
 10
110.1441812875681
 20
-158.4991970089863
 10
109.8520371904189
 20
-158.4991970089863
 10
109.81207408279
 20
-158.8271700991821
 10
109.7993272294946
 20
-159.0321532805545
 10
109.8923448075964
 20
-158.9539496130393
 10
109.9602131886558
 20
-158.894693970693
 10
110.142114230277
 20
-158.894693970693
 10
110.321948214607
 20
-158.894693970693
 10
110.624427598212
 20
-159.0028699689298
 10
110.624427598212
 20
-159.4090467266408
 10
110.624427598212
 20
-159.7284070781235
 10
110.4253010791645
 20
-159.9482041700824
 10
110.108007784973
 20
-159.9482041700824
 97
        0
 97
        0
 92
        1
 93
        1
 72
     4
 94
        3
 73
     0
 74
     1
 95
       17
 96
       13
 40
0.0
 40
0.0
 40
0.0
 40
0.0
 40
1.0
 40
1.0
 40
1.0
 40
2.0
 40
2.0
 40
2.0
 40
3.0
 40
3.0
 40
3.0
 40
4.0
 40
4.0
 40
4.0
 40
4.0
 10
110.1252332623992
 20
-159.0893418656096
 10
109.8627169864232
 20
-159.0893418656096
 10
109.8248209360855
 20
-159.300870728404
 10
109.8248209360855
 20
-159.4173149558054
 10
109.8248209360855
 20
-159.5930148255532
 10
109.9199055714784
 20
-159.7559678420054
 10
110.1038736703907
 20
-159.7559678420054
 10
110.2244520123744
 20
-159.7559678420054
 10
110.4001518821222
 20
-159.6967121996592
 10
110.4001518821222
 20
-159.4111137839319
 10
110.4001518821222
 20
-159.1868380678422
 10
110.260281005421
 20
-159.0893418656096
 10
110.1252332623992
 20
-159.0893418656096
 97
        0
 97
        0
 75
     2
 76
     1
 98
        0
  0
POLYLINE
  5
107
330
FE
100
AcDbEntity
  8
_U+30EC_U+30A4_U+30E4_U+30FC 1
370
     0
100
AcDb2dPolyline
 66
     1
 10
0.0
 20
0.0
 30
0.0
  0
VERTEX
  5
108
330
107
100
AcDbEntity
  8
_U+30EC_U+30A4_U+30E4_U+30FC 1
370
     0
100
AcDbVertex
100
AcDb2dVertex
 10
110.8407795946856
 20
-159.8975612664492
 30
0.0
  0
VERTEX
  5
109
330
107
100
AcDbEntity
  8
_U+30EC_U+30A4_U+30E4_U+30FC 1
370
     0
100
AcDbVertex
100
AcDb2dVertex
 10
110.8407795946856
 20
-159.6457247864775
 30
0.0
  0
VERTEX
  5
10A
330
107
100
AcDbEntity
  8
_U+30EC_U+30A4_U+30E4_U+30FC 1
370
     0
100
AcDbVertex
100
AcDb2dVertex
 10
111.0926160746574
 20
-159.6457247864775
 30
0.0
  0
VERTEX
  5
10B
330
107
100
AcDbEntity
  8
_U+30EC_U+30A4_U+30E4_U+30FC 1
370
     0
100
AcDbVertex
100
AcDb2dVertex
 10
111.0926160746574
 20
-159.8975612664492
 30
0.0
  0
VERTEX
  5
10C
330
107
100
AcDbEntity
  8
_U+30EC_U+30A4_U+30E4_U+30FC 1
370
     0
100
AcDbVertex
100
AcDb2dVertex
 10
110.8407795946856
 20
-159.8975612664492
 30
0.0
  0
SEQEND
  5
10D
330
107
100
AcDbEntity
  8
_U+30EC_U+30A4_U+30E4_U+30FC 1
370
     0
  0
HATCH
  5
10E
330
FE
100
AcDbEntity
  8
_U+30EC_U+30A4_U+30E4_U+30FC 1
 62
   179
420
  2234388
100
AcDbHatch
 10
0.0
 20
0.0
 30
0.0
210
0.0
220
0.0
230
1.0
  2
SOLID
 70
     1
 71
     0
 91
        1
 92
        1
 93
        4
 72
     1
 10
110.8407795946856
 20
-159.8975612664492
 11
110.8407795946856
 21
-159.6457247864775
 72
     1
 10
110.8407795946856
 20
-159.6457247864775
 11
111.0926160746574
 21
-159.6457247864775
 72
     1
 10
111.0926160746574
 20
-159.6457247864775
 11
111.0926160746574
 21
-159.8975612664492
 72
     1
 10
111.0926160746574
 20
-159.8975612664492
 11
110.8407795946856
 21
-159.8975612664492
 97
        0
 75
     2
 76
     1
 98
        0
  0
SPLINE
  5
10F
330
FE
100
AcDbEntity
  8
_U+30EC_U+30A4_U+30E4_U+30FC 1
370
     0
100
AcDbSpline
210
0.0
220
0.0
230
1.0
 70
    11
 71
     3
 72
    29
 73
    25
 74
     0
 42
0.0000000001
 43
0.0000000001
 12
1.0
 22
0.0
 32
0.0
 13
1.0
 23
0.0
 33
0.0
 40
0.0
 40
0.0
 40
0.0
 40
0.0
 40
1.0
 40
1.0
 40
1.0
 40
2.0
 40
2.0
 40
2.0
 40
3.0
 40
3.0
 40
3.0
 40
4.0
 40
4.0
 40
4.0
 40
5.0
 40
5.0
 40
5.0
 40
6.0
 40
6.0
 40
6.0
 40
7.0
 40
7.0
 40
7.0
 40
8.0
 40
8.0
 40
8.0
 40
8.0
 10
111.8288329798553
 20
-159.9482041700824
 30
0.0
 10
111.562182589297
 20
-159.9482041700824
 30
0.0
 10
111.3082790520341
 20
-159.8107448602209
 30
0.0
 10
111.3082790520341
 20
-159.4617566875651
 30
0.0
 10
111.3082790520341
 20
-159.2057860930111
 30
0.0
 10
111.4502169860263
 20
-159.1107014576182
 30
0.0
 10
111.5559814174235
 20
-159.0493787579807
 30
0.0
 10
111.4312689608575
 20
-158.9901231156344
 30
0.0
 10
111.3551323506334
 20
-158.8757459455241
 30
0.0
 10
111.3551323506334
 20
-158.714859986363
 30
0.0
 10
111.3551323506334
 20
-158.43994136664
 30
0.0
 10
111.5539143601324
 20
-158.3045491140697
 30
0.0
 10
111.8288329798553
 20
-158.3045491140697
 30
0.0
 10
112.1123643382914
 20
-158.3045491140697
 30
0.0
 10
112.3028781186257
 20
-158.4485541053531
 30
0.0
 10
112.3028781186257
 20
-158.714859986363
 30
0.0
 10
112.3028781186257
 20
-158.8757459455241
 30
0.0
 10
112.224329941562
 20
-158.9901231156344
 30
0.0
 10
112.0996174849959
 20
-159.0493787579807
 30
0.0
 10
112.1885009485154
 20
-159.1000216616139
 30
0.0
 10
112.3473198503854
 20
-159.1951062970068
 30
0.0
 10
112.3473198503854
 20
-159.4576225729828
 30
0.0
 10
112.3473198503854
 20
-159.8321044522295
 30
0.0
 10
112.0679226065316
 20
-159.9482041700824
 30
0.0
 10
111.8288329798553
 20
-159.9482041700824
 30
0.0
  0
SPLINE
  5
110
330
FE
100
AcDbEntity
  8
_U+30EC_U+30A4_U+30E4_U+30FC 1
370
     0
100
AcDbSpline
210
0.0
220
0.0
230
1.0
 70
    11
 71
     3
 72
    17
 73
    13
 74
     0
 42
0.0000000001
 43
0.0000000001
 12
1.0
 22
0.0
 32
0.0
 13
1.0
 23
0.0
 33
0.0
 40
0.0
 40
0.0
 40
0.0
 40
0.0
 40
1.0
 40
1.0
 40
1.0
 40
2.0
 40
2.0
 40
2.0
 40
3.0
 40
3.0
 40
3.0
 40
4.0
 40
4.0
 40
4.0
 40
4.0
 10
111.8288329798553
 20
-159.157210246669
 30
0.0
 10
111.6851724981204
 20
-159.157210246669
 30
0.0
 10
111.5325547681238
 20
-159.2440266528973
 30
0.0
 10
111.5325547681238
 20
-159.4469427769785
 30
0.0
 10
111.5325547681238
 20
-159.6522704678994
 30
0.0
 10
111.6596787915295
 20
-159.7535562751658
 30
0.0
 10
111.8288329798553
 20
-159.7535562751658
 30
0.0
 10
112.0148681360588
 20
-159.7535562751658
 30
0.0
 10
112.1251111915868
 20
-159.6309108758909
 30
0.0
 10
112.1251111915868
 20
-159.453143948852
 30
0.0
 10
112.1251111915868
 20
-159.2312797996019
 30
0.0
 10
111.9621581751345
 20
-159.157210246669
 30
0.0
 10
111.8288329798553
 20
-159.157210246669
 30
0.0
  0
SPLINE
  5
111
330
FE
100
AcDbEntity
  8
_U+30EC_U+30A4_U+30E4_U+30FC 1
370
     0
100
AcDbSpline
210
0.0
220
0.0
230
1.0
 70
    11
 71
     3
 72
    17
 73
    13
 74
     0
 42
0.0000000001
 43
0.0000000001
 12
1.0
 22
0.0
 32
0.0
 13
1.0
 23
0.0
 33
0.0
 40
0.0
 40
0.0
 40
0.0
 40
0.0
 40
1.0
 40
1.0
 40
1.0
 40
2.0
 40
2.0
 40
2.0
 40
3.0
 40
3.0
 40
3.0
 40
4.0
 40
4.0
 40
4.0
 40
4.0
 10
111.8288329798553
 20
-158.4971299516952
 30
0.0
 10
111.6638129061118
 20
-158.4971299516952
 30
0.0
 10
111.5790635571747
 20
-158.5922145870881
 30
0.0
 10
111.5790635571747
 20
-158.7276068396584
 30
0.0
 10
111.5790635571747
 20
-158.8502522389333
 30
0.0
 10
111.6510660528164
 20
-158.9687635236259
 30
0.0
 10
111.8288329798553
 20
-158.9687635236259
 30
0.0
 10
112.0065999068942
 20
-158.9687635236259
 30
0.0
 10
112.0786024025359
 20
-158.8502522389333
 30
0.0
 10
112.0786024025359
 20
-158.7276068396584
 30
0.0
 10
112.0786024025359
 20
-158.5922145870881
 30
0.0
 10
111.9917859963076
 20
-158.4971299516952
 30
0.0
 10
111.8288329798553
 20
-158.4971299516952
 30
0.0
  0
HATCH
  5
112
330
FE
100
AcDbEntity
  8
_U+30EC_U+30A4_U+30E4_U+30FC 1
 62
   179
420
  2234388
100
AcDbHatch
 10
0.0
 20
0.0
 30
0.0
210
0.0
220
0.0
230
1.0
  2
SOLID
 70
     1
 71
     0
 91
        3
 92
        1
 93
        1
 72
     4
 94
        3
 73
     0
 74
     1
 95
       29
 96
       25
 40
0.0
 40
0.0
 40
0.0
 40
0.0
 40
1.0
 40
1.0
 40
1.0
 40
2.0
 40
2.0
 40
2.0
 40
3.0
 40
3.0
 40
3.0
 40
4.0
 40
4.0
 40
4.0
 40
5.0
 40
5.0
 40
5.0
 40
6.0
 40
6.0
 40
6.0
 40
7.0
 40
7.0
 40
7.0
 40
8.0
 40
8.0
 40
8.0
 40
8.0
 10
111.8288329798553
 20
-159.9482041700824
 10
111.562182589297
 20
-159.9482041700824
 10
111.3082790520341
 20
-159.8107448602209
 10
111.3082790520341
 20
-159.4617566875651
 10
111.3082790520341
 20
-159.2057860930111
 10
111.4502169860263
 20
-159.1107014576182
 10
111.5559814174235
 20
-159.0493787579807
 10
111.4312689608575
 20
-158.9901231156344
 10
111.3551323506334
 20
-158.8757459455241
 10
111.3551323506334
 20
-158.714859986363
 10
111.3551323506334
 20
-158.43994136664
 10
111.5539143601324
 20
-158.3045491140697
 10
111.8288329798553
 20
-158.3045491140697
 10
112.1123643382914
 20
-158.3045491140697
 10
112.3028781186257
 20
-158.4485541053531
 10
112.3028781186257
 20
-158.714859986363
 10
112.3028781186257
 20
-158.8757459455241
 10
112.224329941562
 20
-158.9901231156344
 10
112.0996174849959
 20
-159.0493787579807
 10
112.1885009485154
 20
-159.1000216616139
 10
112.3473198503854
 20
-159.1951062970068
 10
112.3473198503854
 20
-159.4576225729828
 10
112.3473198503854
 20
-159.8321044522295
 10
112.0679226065316
 20
-159.9482041700824
 10
111.8288329798553
 20
-159.9482041700824
 97
        0
 97
        0
 92
        1
 93
        1
 72
     4
 94
        3
 73
     0
 74
     1
 95
       17
 96
       13
 40
0.0
 40
0.0
 40
0.0
 40
0.0
 40
1.0
 40
1.0
 40
1.0
 40
2.0
 40
2.0
 40
2.0
 40
3.0
 40
3.0
 40
3.0
 40
4.0
 40
4.0
 40
4.0
 40
4.0
 10
111.8288329798553
 20
-159.157210246669
 10
111.6851724981204
 20
-159.157210246669
 10
111.5325547681238
 20
-159.2440266528973
 10
111.5325547681238
 20
-159.4469427769785
 10
111.5325547681238
 20
-159.6522704678994
 10
111.6596787915295
 20
-159.7535562751658
 10
111.8288329798553
 20
-159.7535562751658
 10
112.0148681360588
 20
-159.7535562751658
 10
112.1251111915868
 20
-159.6309108758909
 10
112.1251111915868
 20
-159.453143948852
 10
112.1251111915868
 20
-159.2312797996019
 10
111.9621581751345
 20
-159.157210246669
 10
111.8288329798553
 20
-159.157210246669
 97
        0
 97
        0
 92
        1
 93
        1
 72
     4
 94
        3
 73
     0
 74
     1
 95
       17
 96
       13
 40
0.0
 40
0.0
 40
0.0
 40
0.0
 40
1.0
 40
1.0
 40
1.0
 40
2.0
 40
2.0
 40
2.0
 40
3.0
 40
3.0
 40
3.0
 40
4.0
 40
4.0
 40
4.0
 40
4.0
 10
111.8288329798553
 20
-158.4971299516952
 10
111.6638129061118
 20
-158.4971299516952
 10
111.5790635571747
 20
-158.5922145870881
 10
111.5790635571747
 20
-158.7276068396584
 10
111.5790635571747
 20
-158.8502522389333
 10
111.6510660528164
 20
-158.9687635236259
 10
111.8288329798553
 20
-158.9687635236259
 10
112.0065999068942
 20
-158.9687635236259
 10
112.0786024025359
 20
-158.8502522389333
 10
112.0786024025359
 20
-158.7276068396584
 10
112.0786024025359
 20
-158.5922145870881
 10
111.9917859963076
 20
-158.4971299516952
 10
111.8288329798553
 20
-158.4971299516952
 97
        0
 97
        0
 75
     2
 76
     1
 98
        0
  0
ENDBLK
  5
101
330
FE
100
AcDbEntity
  8
0
100
AcDbBlockEnd
  0
BLOCK
  5
11D
330
11B
100
AcDbEntity
  8
0
100
AcDbBlockBegin
  2
block 6
 70
     0
 10
0.0
 20
0.0
 30
0.0
  3
block 6
  1

  0
SPLINE
  5
11F
330
11B
100
AcDbEntity
  8
_U+30EC_U+30A4_U+30E4_U+30FC 1
370
     0
100
AcDbSpline
210
0.0
220
0.0
230
1.0
 70
    11
 71
     3
 72
    62
 73
    58
 74
     0
 42
0.0000000001
 43
0.0000000001
 12
1.0
 22
0.0
 32
0.0
 13
1.0
 23
0.0
 33
0.0
 40
0.0
 40
0.0
 40
0.0
 40
0.0
 40
1.0
 40
1.0
 40
1.0
 40
2.0
 40
2.0
 40
2.0
 40
3.0
 40
3.0
 40
3.0
 40
4.0
 40
4.0
 40
4.0
 40
5.0
 40
5.0
 40
5.0
 40
6.0
 40
6.0
 40
6.0
 40
7.0
 40
7.0
 40
7.0
 40
8.0
 40
8.0
 40
8.0
 40
9.0
 40
9.0
 40
9.0
 40
10.0
 40
10.0
 40
10.0
 40
11.0
 40
11.0
 40
11.0
 40
12.0
 40
12.0
 40
12.0
 40
13.0
 40
13.0
 40
13.0
 40
14.0
 40
14.0
 40
14.0
 40
15.0
 40
15.0
 40
15.0
 40
16.0
 40
16.0
 40
16.0
 40
17.0
 40
17.0
 40
17.0
 40
18.0
 40
18.0
 40
18.0
 40
19.0
 40
19.0
 40
19.0
 40
19.0
 10
99.30556638142362
 20
-159.9482041700824
 30
0.0
 10
99.2101372364822
 20
-159.9482041700824
 30
0.0
 10
98.9924072018144
 20
-159.9271890876224
 30
0.0
 10
98.86735023569983
 20
-159.7411539314189
 30
0.0
 10
98.79362519231549
 20
-159.6288438185997
 30
0.0
 10
98.78914656818466
 20
-159.5296250686245
 30
0.0
 10
98.78501245360236
 20
-159.4448757196874
 30
0.0
 10
98.78501245360236
 20
-159.4448757196874
 30
0.0
 10
99.00515405510983
 20
-159.4448757196874
 30
0.0
 10
99.00515405510983
 20
-159.4448757196874
 30
0.0
 10
99.00722111240098
 20
-159.5189452726203
 30
0.0
 10
99.01755639885673
 20
-159.7535562751658
 30
0.0
 10
99.30108775729279
 20
-159.7535562751658
 30
0.0
 10
99.43854706715426
 20
-159.7535562751658
 30
0.0
 10
99.59116479715082
 20
-159.6839653463637
 30
0.0
 10
99.59116479715082
 20
-159.4555555156917
 30
0.0
 10
99.59116479715082
 20
-159.3391112882902
 30
0.0
 10
99.55292423726455
 20
-159.2905354419482
 30
0.0
 10
99.52122935880026
 20
-159.2588405634839
 30
0.0
 10
99.44715980586739
 20
-159.184771010551
 30
0.0
 10
99.33071557846594
 20
-159.1720241572556
 30
0.0
 10
99.27593856025047
 20
-159.1720241572556
 30
0.0
 10
99.25664602553306
 20
-159.1720241572556
 30
0.0
 10
99.22081703248647
 20
-159.1740912145468
 30
0.0
 10
99.19325626860447
 20
-159.178225329129
 30
0.0
 10
99.19325626860447
 20
-159.178225329129
 30
0.0
 10
99.19325626860447
 20
-158.9835774342124
 30
0.0
 10
99.19325626860447
 20
-158.9835774342124
 30
0.0
 10
99.23149682849075
 20
-158.9901231156344
 30
0.0
 10
99.27352699341078
 20
-158.9921901729256
 30
0.0
 10
99.28007267483277
 20
-158.9921901729256
 30
0.0
 10
99.34552948905251
 20
-158.9921901729256
 30
0.0
 10
99.54431149855142
 20
-158.970830580917
 30
0.0
 10
99.54431149855142
 20
-158.7341525210803
 30
0.0
 10
99.54431149855142
 20
-158.5563855940415
 30
0.0
 10
99.41339787011194
 20
-158.5012640662775
 30
0.0
 10
99.30315481458393
 20
-158.5012640662775
 30
0.0
 10
99.03891599086528
 20
-158.5012640662775
 30
0.0
 10
99.03030325215215
 20
-158.7341525210803
 30
0.0
 10
99.02616913756985
 20
-158.8058105071736
 30
0.0
 10
99.02616913756985
 20
-158.8058105071736
 30
0.0
 10
98.82290850394011
 20
-158.8058105071736
 30
0.0
 10
98.82290850394011
 20
-158.8058105071736
 30
0.0
 10
98.83152124265324
 20
-158.6810980506075
 30
0.0
 10
98.85908200653523
 20
-158.3045491140697
 30
0.0
 10
99.31590166787936
 20
-158.3045491140697
 30
0.0
 10
99.54017738396912
 20
-158.3045491140697
 30
0.0
 10
99.78133406793661
 20
-158.4316731374754
 30
0.0
 10
99.78133406793661
 20
-158.7276068396584
 30
0.0
 10
99.78133406793661
 20
-158.9139865054104
 30
0.0
 10
99.68624943254372
 20
-158.9963242875079
 30
0.0
 10
99.58668617302
 20
-159.0576469871453
 30
0.0
 10
99.64800887265744
 20
-159.0852077510273
 30
0.0
 10
99.82990991427864
 20
-159.1654784758337
 30
0.0
 10
99.82990991427864
 20
-159.4428086623963
 30
0.0
 10
99.82990991427864
 20
-159.7811170390478
 30
0.0
 10
99.5825520584377
 20
-159.9482041700824
 30
0.0
 10
99.30556638142362
 20
-159.9482041700824
 30
0.0
  0
HATCH
  5
120
330
11B
100
AcDbEntity
  8
_U+30EC_U+30A4_U+30E4_U+30FC 1
 62
   179
420
  2234388
100
AcDbHatch
 10
0.0
 20
0.0
 30
0.0
210
0.0
220
0.0
230
1.0
  2
SOLID
 70
     1
 71
     0
 91
        1
 92
        1
 93
        1
 72
     4
 94
        3
 73
     0
 74
     1
 95
       62
 96
       58
 40
0.0
 40
0.0
 40
0.0
 40
0.0
 40
1.0
 40
1.0
 40
1.0
 40
2.0
 40
2.0
 40
2.0
 40
3.0
 40
3.0
 40
3.0
 40
4.0
 40
4.0
 40
4.0
 40
5.0
 40
5.0
 40
5.0
 40
6.0
 40
6.0
 40
6.0
 40
7.0
 40
7.0
 40
7.0
 40
8.0
 40
8.0
 40
8.0
 40
9.0
 40
9.0
 40
9.0
 40
10.0
 40
10.0
 40
10.0
 40
11.0
 40
11.0
 40
11.0
 40
12.0
 40
12.0
 40
12.0
 40
13.0
 40
13.0
 40
13.0
 40
14.0
 40
14.0
 40
14.0
 40
15.0
 40
15.0
 40
15.0
 40
16.0
 40
16.0
 40
16.0
 40
17.0
 40
17.0
 40
17.0
 40
18.0
 40
18.0
 40
18.0
 40
19.0
 40
19.0
 40
19.0
 40
19.0
 10
99.30556638142362
 20
-159.9482041700824
 10
99.2101372364822
 20
-159.9482041700824
 10
98.9924072018144
 20
-159.9271890876224
 10
98.86735023569983
 20
-159.7411539314189
 10
98.79362519231549
 20
-159.6288438185997
 10
98.78914656818466
 20
-159.5296250686245
 10
98.78501245360236
 20
-159.4448757196874
 10
98.78501245360236
 20
-159.4448757196874
 10
99.00515405510983
 20
-159.4448757196874
 10
99.00515405510983
 20
-159.4448757196874
 10
99.00722111240098
 20
-159.5189452726203
 10
99.01755639885673
 20
-159.7535562751658
 10
99.30108775729279
 20
-159.7535562751658
 10
99.43854706715426
 20
-159.7535562751658
 10
99.59116479715082
 20
-159.6839653463637
 10
99.59116479715082
 20
-159.4555555156917
 10
99.59116479715082
 20
-159.3391112882902
 10
99.55292423726455
 20
-159.2905354419482
 10
99.52122935880026
 20
-159.2588405634839
 10
99.44715980586739
 20
-159.184771010551
 10
99.33071557846594
 20
-159.1720241572556
 10
99.27593856025047
 20
-159.1720241572556
 10
99.25664602553306
 20
-159.1720241572556
 10
99.22081703248647
 20
-159.1740912145468
 10
99.19325626860447
 20
-159.178225329129
 10
99.19325626860447
 20
-159.178225329129
 10
99.19325626860447
 20
-158.9835774342124
 10
99.19325626860447
 20
-158.9835774342124
 10
99.23149682849075
 20
-158.9901231156344
 10
99.27352699341078
 20
-158.9921901729256
 10
99.28007267483277
 20
-158.9921901729256
 10
99.34552948905251
 20
-158.9921901729256
 10
99.54431149855142
 20
-158.970830580917
 10
99.54431149855142
 20
-158.7341525210803
 10
99.54431149855142
 20
-158.5563855940415
 10
99.41339787011194
 20
-158.5012640662775
 10
99.30315481458393
 20
-158.5012640662775
 10
99.03891599086528
 20
-158.5012640662775
 10
99.03030325215215
 20
-158.7341525210803
 10
99.02616913756985
 20
-158.8058105071736
 10
99.02616913756985
 20
-158.8058105071736
 10
98.82290850394011
 20
-158.8058105071736
 10
98.82290850394011
 20
-158.8058105071736
 10
98.83152124265324
 20
-158.6810980506075
 10
98.85908200653523
 20
-158.3045491140697
 10
99.31590166787936
 20
-158.3045491140697
 10
99.54017738396912
 20
-158.3045491140697
 10
99.78133406793661
 20
-158.4316731374754
 10
99.78133406793661
 20
-158.7276068396584
 10
99.78133406793661
 20
-158.9139865054104
 10
99.68624943254372
 20
-158.9963242875079
 10
99.58668617302
 20
-159.0576469871453
 10
99.64800887265744
 20
-159.0852077510273
 10
99.82990991427864
 20
-159.1654784758337
 10
99.82990991427864
 20
-159.4428086623963
 10
99.82990991427864
 20
-159.7811170390478
 10
99.5825520584377
 20
-159.9482041700824
 10
99.30556638142362
 20
-159.9482041700824
 97
        0
 97
        0
 75
     2
 76
     1
 98
        0
  0
SPLINE
  5
121
330
11B
100
AcDbEntity
  8
_U+30EC_U+30A4_U+30E4_U+30FC 1
370
     0
100
AcDbSpline
210
0.0
220
0.0
230
1.0
 70
    11
 71
     3
 72
    32
 73
    28
 74
     0
 42
0.0000000001
 43
0.0000000001
 12
1.0
 22
0.0
 32
0.0
 13
1.0
 23
0.0
 33
0.0
 40
0.0
 40
0.0
 40
0.0
 40
0.0
 40
1.0
 40
1.0
 40
1.0
 40
2.0
 40
2.0
 40
2.0
 40
3.0
 40
3.0
 40
3.0
 40
4.0
 40
4.0
 40
4.0
 40
5.0
 40
5.0
 40
5.0
 40
6.0
 40
6.0
 40
6.0
 40
7.0
 40
7.0
 40
7.0
 40
8.0
 40
8.0
 40
8.0
 40
9.0
 40
9.0
 40
9.0
 40
9.0
 10
100.4948133429319
 20
-159.9482041700824
 30
0.0
 10
99.97873803924143
 20
-159.9482041700824
 30
0.0
 10
99.97046981007684
 20
-159.3942328160542
 30
0.0
 10
99.97046981007684
 20
-159.1802923864202
 30
0.0
 10
99.97046981007684
 20
-158.949815498457
 30
0.0
 10
99.9894178352457
 20
-158.3024820567786
 30
0.0
 10
100.5330539028181
 20
-158.3024820567786
 30
0.0
 10
100.7063422057262
 20
-158.3024820567786
 30
0.0
 10
100.9519775138245
 20
-158.3724174951291
 30
0.0
 10
100.9898735641623
 20
-158.7045246999072
 30
0.0
 10
100.9898735641623
 20
-158.7045246999072
 30
0.0
 10
100.7762776440768
 20
-158.7045246999072
 30
0.0
 10
100.7762776440768
 20
-158.7045246999072
 30
0.0
 10
100.7655978480725
 20
-158.6473361148521
 30
0.0
 10
100.7339029696082
 20
-158.4991970089863
 30
0.0
 10
100.530986845527
 20
-158.4991970089863
 30
0.0
 10
100.2388427483778
 20
-158.4991970089863
 30
0.0
 10
100.1988796407489
 20
-158.8271700991821
 30
0.0
 10
100.1861327874535
 20
-159.0321532805545
 30
0.0
 10
100.2791503655552
 20
-158.9539496130393
 30
0.0
 10
100.3470187466146
 20
-158.894693970693
 30
0.0
 10
100.5289197882358
 20
-158.894693970693
 30
0.0
 10
100.7087537725659
 20
-158.894693970693
 30
0.0
 10
101.0112331561708
 20
-159.0028699689298
 30
0.0
 10
101.0112331561708
 20
-159.4090467266408
 30
0.0
 10
101.0112331561708
 20
-159.7284070781235
 30
0.0
 10
100.8121066371234
 20
-159.9482041700824
 30
0.0
 10
100.4948133429319
 20
-159.9482041700824
 30
0.0
  0
SPLINE
  5
122
330
11B
100
AcDbEntity
  8
_U+30EC_U+30A4_U+30E4_U+30FC 1
370
     0
100
AcDbSpline
210
0.0
220
0.0
230
1.0
 70
    11
 71
     3
 72
    17
 73
    13
 74
     0
 42
0.0000000001
 43
0.0000000001
 12
1.0
 22
0.0
 32
0.0
 13
1.0
 23
0.0
 33
0.0
 40
0.0
 40
0.0
 40
0.0
 40
0.0
 40
1.0
 40
1.0
 40
1.0
 40
2.0
 40
2.0
 40
2.0
 40
3.0
 40
3.0
 40
3.0
 40
4.0
 40
4.0
 40
4.0
 40
4.0
 10
100.5120388203581
 20
-159.0893418656096
 30
0.0
 10
100.2495225443821
 20
-159.0893418656096
 30
0.0
 10
100.2116264940443
 20
-159.300870728404
 30
0.0
 10
100.2116264940443
 20
-159.4173149558054
 30
0.0
 10
100.2116264940443
 20
-159.5930148255532
 30
0.0
 10
100.3067111294372
 20
-159.7559678420054
 30
0.0
 10
100.4906792283496
 20
-159.7559678420054
 30
0.0
 10
100.6112575703333
 20
-159.7559678420054
 30
0.0
 10
100.786957440081
 20
-159.6967121996592
 30
0.0
 10
100.786957440081
 20
-159.4111137839319
 30
0.0
 10
100.786957440081
 20
-159.1868380678422
 30
0.0
 10
100.6470865633799
 20
-159.0893418656096
 30
0.0
 10
100.5120388203581
 20
-159.0893418656096
 30
0.0
  0
HATCH
  5
123
330
11B
100
AcDbEntity
  8
_U+30EC_U+30A4_U+30E4_U+30FC 1
 62
   179
420
  2234388
100
AcDbHatch
 10
0.0
 20
0.0
 30
0.0
210
0.0
220
0.0
230
1.0
  2
SOLID
 70
     1
 71
     0
 91
        2
 92
        1
 93
        1
 72
     4
 94
        3
 73
     0
 74
     1
 95
       32
 96
       28
 40
0.0
 40
0.0
 40
0.0
 40
0.0
 40
1.0
 40
1.0
 40
1.0
 40
2.0
 40
2.0
 40
2.0
 40
3.0
 40
3.0
 40
3.0
 40
4.0
 40
4.0
 40
4.0
 40
5.0
 40
5.0
 40
5.0
 40
6.0
 40
6.0
 40
6.0
 40
7.0
 40
7.0
 40
7.0
 40
8.0
 40
8.0
 40
8.0
 40
9.0
 40
9.0
 40
9.0
 40
9.0
 10
100.4948133429319
 20
-159.9482041700824
 10
99.97873803924143
 20
-159.9482041700824
 10
99.97046981007684
 20
-159.3942328160542
 10
99.97046981007684
 20
-159.1802923864202
 10
99.97046981007684
 20
-158.949815498457
 10
99.9894178352457
 20
-158.3024820567786
 10
100.5330539028181
 20
-158.3024820567786
 10
100.7063422057262
 20
-158.3024820567786
 10
100.9519775138245
 20
-158.3724174951291
 10
100.9898735641623
 20
-158.7045246999072
 10
100.9898735641623
 20
-158.7045246999072
 10
100.7762776440768
 20
-158.7045246999072
 10
100.7762776440768
 20
-158.7045246999072
 10
100.7655978480725
 20
-158.6473361148521
 10
100.7339029696082
 20
-158.4991970089863
 10
100.530986845527
 20
-158.4991970089863
 10
100.2388427483778
 20
-158.4991970089863
 10
100.1988796407489
 20
-158.8271700991821
 10
100.1861327874535
 20
-159.0321532805545
 10
100.2791503655552
 20
-158.9539496130393
 10
100.3470187466146
 20
-158.894693970693
 10
100.5289197882358
 20
-158.894693970693
 10
100.7087537725659
 20
-158.894693970693
 10
101.0112331561708
 20
-159.0028699689298
 10
101.0112331561708
 20
-159.4090467266408
 10
101.0112331561708
 20
-159.7284070781235
 10
100.8121066371234
 20
-159.9482041700824
 10
100.4948133429319
 20
-159.9482041700824
 97
        0
 97
        0
 92
        1
 93
        1
 72
     4
 94
        3
 73
     0
 74
     1
 95
       17
 96
       13
 40
0.0
 40
0.0
 40
0.0
 40
0.0
 40
1.0
 40
1.0
 40
1.0
 40
2.0
 40
2.0
 40
2.0
 40
3.0
 40
3.0
 40
3.0
 40
4.0
 40
4.0
 40
4.0
 40
4.0
 10
100.5120388203581
 20
-159.0893418656096
 10
100.2495225443821
 20
-159.0893418656096
 10
100.2116264940443
 20
-159.300870728404
 10
100.2116264940443
 20
-159.4173149558054
 10
100.2116264940443
 20
-159.5930148255532
 10
100.3067111294372
 20
-159.7559678420054
 10
100.4906792283496
 20
-159.7559678420054
 10
100.6112575703333
 20
-159.7559678420054
 10
100.786957440081
 20
-159.6967121996592
 10
100.786957440081
 20
-159.4111137839319
 10
100.786957440081
 20
-159.1868380678422
 10
100.6470865633799
 20
-159.0893418656096
 10
100.5120388203581
 20
-159.0893418656096
 97
        0
 97
        0
 75
     2
 76
     1
 98
        0
  0
POLYLINE
  5
124
330
11B
100
AcDbEntity
  8
_U+30EC_U+30A4_U+30E4_U+30FC 1
370
     0
100
AcDb2dPolyline
 66
     1
 10
0.0
 20
0.0
 30
0.0
  0
VERTEX
  5
125
330
124
100
AcDbEntity
  8
_U+30EC_U+30A4_U+30E4_U+30FC 1
370
     0
100
AcDbVertex
100
AcDb2dVertex
 10
101.2275851526445
 20
-159.8975612664492
 30
0.0
  0
VERTEX
  5
126
330
124
100
AcDbEntity
  8
_U+30EC_U+30A4_U+30E4_U+30FC 1
370
     0
100
AcDbVertex
100
AcDb2dVertex
 10
101.2275851526445
 20
-159.6457247864775
 30
0.0
  0
VERTEX
  5
127
330
124
100
AcDbEntity
  8
_U+30EC_U+30A4_U+30E4_U+30FC 1
370
     0
100
AcDbVertex
100
AcDb2dVertex
 10
101.4794216326163
 20
-159.6457247864775
 30
0.0
  0
VERTEX
  5
128
330
124
100
AcDbEntity
  8
_U+30EC_U+30A4_U+30E4_U+30FC 1
370
     0
100
AcDbVertex
100
AcDb2dVertex
 10
101.4794216326163
 20
-159.8975612664492
 30
0.0
  0
VERTEX
  5
129
330
124
100
AcDbEntity
  8
_U+30EC_U+30A4_U+30E4_U+30FC 1
370
     0
100
AcDbVertex
100
AcDb2dVertex
 10
101.2275851526445
 20
-159.8975612664492
 30
0.0
  0
SEQEND
  5
12A
330
124
100
AcDbEntity
  8
_U+30EC_U+30A4_U+30E4_U+30FC 1
370
     0
  0
HATCH
  5
12B
330
11B
100
AcDbEntity
  8
_U+30EC_U+30A4_U+30E4_U+30FC 1
 62
   179
420
  2234388
100
AcDbHatch
 10
0.0
 20
0.0
 30
0.0
210
0.0
220
0.0
230
1.0
  2
SOLID
 70
     1
 71
     0
 91
        1
 92
        1
 93
        4
 72
     1
 10
101.2275851526445
 20
-159.8975612664492
 11
101.2275851526445
 21
-159.6457247864775
 72
     1
 10
101.2275851526445
 20
-159.6457247864775
 11
101.4794216326163
 21
-159.6457247864775
 72
     1
 10
101.4794216326163
 20
-159.6457247864775
 11
101.4794216326163
 21
-159.8975612664492
 72
     1
 10
101.4794216326163
 20
-159.8975612664492
 11
101.2275851526445
 21
-159.8975612664492
 97
        0
 75
     2
 76
     1
 98
        0
  0
SPLINE
  5
12C
330
11B
100
AcDbEntity
  8
_U+30EC_U+30A4_U+30E4_U+30FC 1
370
     0
100
AcDbSpline
210
0.0
220
0.0
230
1.0
 70
    11
 71
     3
 72
    29
 73
    25
 74
     0
 42
0.0000000001
 43
0.0000000001
 12
1.0
 22
0.0
 32
0.0
 13
1.0
 23
0.0
 33
0.0
 40
0.0
 40
0.0
 40
0.0
 40
0.0
 40
1.0
 40
1.0
 40
1.0
 40
2.0
 40
2.0
 40
2.0
 40
3.0
 40
3.0
 40
3.0
 40
4.0
 40
4.0
 40
4.0
 40
5.0
 40
5.0
 40
5.0
 40
6.0
 40
6.0
 40
6.0
 40
7.0
 40
7.0
 40
7.0
 40
8.0
 40
8.0
 40
8.0
 40
8.0
 10
102.2156385378141
 20
-159.9482041700824
 30
0.0
 10
101.9489881472558
 20
-159.9482041700824
 30
0.0
 10
101.6950846099929
 20
-159.8107448602209
 30
0.0
 10
101.6950846099929
 20
-159.4617566875651
 30
0.0
 10
101.6950846099929
 20
-159.2057860930111
 30
0.0
 10
101.8370225439852
 20
-159.1107014576182
 30
0.0
 10
101.9427869753824
 20
-159.0493787579807
 30
0.0
 10
101.8180745188163
 20
-158.9901231156344
 30
0.0
 10
101.7419379085923
 20
-158.8757459455241
 30
0.0
 10
101.7419379085923
 20
-158.714859986363
 30
0.0
 10
101.7419379085923
 20
-158.43994136664
 30
0.0
 10
101.9407199180912
 20
-158.3045491140697
 30
0.0
 10
102.2156385378141
 20
-158.3045491140697
 30
0.0
 10
102.4991698962502
 20
-158.3045491140697
 30
0.0
 10
102.6896836765845
 20
-158.4485541053531
 30
0.0
 10
102.6896836765845
 20
-158.714859986363
 30
0.0
 10
102.6896836765845
 20
-158.8757459455241
 30
0.0
 10
102.6111354995208
 20
-158.9901231156344
 30
0.0
 10
102.4864230429548
 20
-159.0493787579807
 30
0.0
 10
102.5753065064742
 20
-159.1000216616139
 30
0.0
 10
102.7341254083443
 20
-159.1951062970068
 30
0.0
 10
102.7341254083443
 20
-159.4576225729828
 30
0.0
 10
102.7341254083443
 20
-159.8321044522295
 30
0.0
 10
102.4547281644905
 20
-159.9482041700824
 30
0.0
 10
102.2156385378141
 20
-159.9482041700824
 30
0.0
  0
SPLINE
  5
12D
330
11B
100
AcDbEntity
  8
_U+30EC_U+30A4_U+30E4_U+30FC 1
370
     0
100
AcDbSpline
210
0.0
220
0.0
230
1.0
 70
    11
 71
     3
 72
    17
 73
    13
 74
     0
 42
0.0000000001
 43
0.0000000001
 12
1.0
 22
0.0
 32
0.0
 13
1.0
 23
0.0
 33
0.0
 40
0.0
 40
0.0
 40
0.0
 40
0.0
 40
1.0
 40
1.0
 40
1.0
 40
2.0
 40
2.0
 40
2.0
 40
3.0
 40
3.0
 40
3.0
 40
4.0
 40
4.0
 40
4.0
 40
4.0
 10
102.2156385378141
 20
-159.157210246669
 30
0.0
 10
102.0719780560792
 20
-159.157210246669
 30
0.0
 10
101.9193603260827
 20
-159.2440266528973
 30
0.0
 10
101.9193603260827
 20
-159.4469427769785
 30
0.0
 10
101.9193603260827
 20
-159.6522704678994
 30
0.0
 10
102.0464843494884
 20
-159.7535562751658
 30
0.0
 10
102.2156385378141
 20
-159.7535562751658
 30
0.0
 10
102.4016736940176
 20
-159.7535562751658
 30
0.0
 10
102.5119167495456
 20
-159.6309108758909
 30
0.0
 10
102.5119167495456
 20
-159.453143948852
 30
0.0
 10
102.5119167495456
 20
-159.2312797996019
 30
0.0
 10
102.3489637330933
 20
-159.157210246669
 30
0.0
 10
102.2156385378141
 20
-159.157210246669
 30
0.0
  0
SPLINE
  5
12E
330
11B
100
AcDbEntity
  8
_U+30EC_U+30A4_U+30E4_U+30FC 1
370
     0
100
AcDbSpline
210
0.0
220
0.0
230
1.0
 70
    11
 71
     3
 72
    17
 73
    13
 74
     0
 42
0.0000000001
 43
0.0000000001
 12
1.0
 22
0.0
 32
0.0
 13
1.0
 23
0.0
 33
0.0
 40
0.0
 40
0.0
 40
0.0
 40
0.0
 40
1.0
 40
1.0
 40
1.0
 40
2.0
 40
2.0
 40
2.0
 40
3.0
 40
3.0
 40
3.0
 40
4.0
 40
4.0
 40
4.0
 40
4.0
 10
102.2156385378141
 20
-158.4971299516952
 30
0.0
 10
102.0506184640707
 20
-158.4971299516952
 30
0.0
 10
101.9658691151335
 20
-158.5922145870881
 30
0.0
 10
101.9658691151335
 20
-158.7276068396584
 30
0.0
 10
101.9658691151335
 20
-158.8502522389333
 30
0.0
 10
102.0378716107753
 20
-158.9687635236259
 30
0.0
 10
102.2156385378141
 20
-158.9687635236259
 30
0.0
 10
102.393405464853
 20
-158.9687635236259
 30
0.0
 10
102.4654079604948
 20
-158.8502522389333
 30
0.0
 10
102.4654079604948
 20
-158.7276068396584
 30
0.0
 10
102.4654079604948
 20
-158.5922145870881
 30
0.0
 10
102.3785915542665
 20
-158.4971299516952
 30
0.0
 10
102.2156385378141
 20
-158.4971299516952
 30
0.0
  0
HATCH
  5
12F
330
11B
100
AcDbEntity
  8
_U+30EC_U+30A4_U+30E4_U+30FC 1
 62
   179
420
  2234388
100
AcDbHatch
 10
0.0
 20
0.0
 30
0.0
210
0.0
220
0.0
230
1.0
  2
SOLID
 70
     1
 71
     0
 91
        3
 92
        1
 93
        1
 72
     4
 94
        3
 73
     0
 74
     1
 95
       29
 96
       25
 40
0.0
 40
0.0
 40
0.0
 40
0.0
 40
1.0
 40
1.0
 40
1.0
 40
2.0
 40
2.0
 40
2.0
 40
3.0
 40
3.0
 40
3.0
 40
4.0
 40
4.0
 40
4.0
 40
5.0
 40
5.0
 40
5.0
 40
6.0
 40
6.0
 40
6.0
 40
7.0
 40
7.0
 40
7.0
 40
8.0
 40
8.0
 40
8.0
 40
8.0
 10
102.2156385378141
 20
-159.9482041700824
 10
101.9489881472558
 20
-159.9482041700824
 10
101.6950846099929
 20
-159.8107448602209
 10
101.6950846099929
 20
-159.4617566875651
 10
101.6950846099929
 20
-159.2057860930111
 10
101.8370225439852
 20
-159.1107014576182
 10
101.9427869753824
 20
-159.0493787579807
 10
101.8180745188163
 20
-158.9901231156344
 10
101.7419379085923
 20
-158.8757459455241
 10
101.7419379085923
 20
-158.714859986363
 10
101.7419379085923
 20
-158.43994136664
 10
101.9407199180912
 20
-158.3045491140697
 10
102.2156385378141
 20
-158.3045491140697
 10
102.4991698962502
 20
-158.3045491140697
 10
102.6896836765845
 20
-158.4485541053531
 10
102.6896836765845
 20
-158.714859986363
 10
102.6896836765845
 20
-158.8757459455241
 10
102.6111354995208
 20
-158.9901231156344
 10
102.4864230429548
 20
-159.0493787579807
 10
102.5753065064742
 20
-159.1000216616139
 10
102.7341254083443
 20
-159.1951062970068
 10
102.7341254083443
 20
-159.4576225729828
 10
102.7341254083443
 20
-159.8321044522295
 10
102.4547281644905
 20
-159.9482041700824
 10
102.2156385378141
 20
-159.9482041700824
 97
        0
 97
        0
 92
        1
 93
        1
 72
     4
 94
        3
 73
     0
 74
     1
 95
       17
 96
       13
 40
0.0
 40
0.0
 40
0.0
 40
0.0
 40
1.0
 40
1.0
 40
1.0
 40
2.0
 40
2.0
 40
2.0
 40
3.0
 40
3.0
 40
3.0
 40
4.0
 40
4.0
 40
4.0
 40
4.0
 10
102.2156385378141
 20
-159.157210246669
 10
102.0719780560792
 20
-159.157210246669
 10
101.9193603260827
 20
-159.2440266528973
 10
101.9193603260827
 20
-159.4469427769785
 10
101.9193603260827
 20
-159.6522704678994
 10
102.0464843494884
 20
-159.7535562751658
 10
102.2156385378141
 20
-159.7535562751658
 10
102.4016736940176
 20
-159.7535562751658
 10
102.5119167495456
 20
-159.6309108758909
 10
102.5119167495456
 20
-159.453143948852
 10
102.5119167495456
 20
-159.2312797996019
 10
102.3489637330933
 20
-159.157210246669
 10
102.2156385378141
 20
-159.157210246669
 97
        0
 97
        0
 92
        1
 93
        1
 72
     4
 94
        3
 73
     0
 74
     1
 95
       17
 96
       13
 40
0.0
 40
0.0
 40
0.0
 40
0.0
 40
1.0
 40
1.0
 40
1.0
 40
2.0
 40
2.0
 40
2.0
 40
3.0
 40
3.0
 40
3.0
 40
4.0
 40
4.0
 40
4.0
 40
4.0
 10
102.2156385378141
 20
-158.4971299516952
 10
102.0506184640707
 20
-158.4971299516952
 10
101.9658691151335
 20
-158.5922145870881
 10
101.9658691151335
 20
-158.7276068396584
 10
101.9658691151335
 20
-158.8502522389333
 10
102.0378716107753
 20
-158.9687635236259
 10
102.2156385378141
 20
-158.9687635236259
 10
102.393405464853
 20
-158.9687635236259
 10
102.4654079604948
 20
-158.8502522389333
 10
102.4654079604948
 20
-158.7276068396584
 10
102.4654079604948
 20
-158.5922145870881
 10
102.3785915542665
 20
-158.4971299516952
 10
102.2156385378141
 20
-158.4971299516952
 97
        0
 97
        0
 75
     2
 76
     1
 98
        0
  0
ENDBLK
  5
11E
330
11B
100
AcDbEntity
  8
0
100
AcDbBlockEnd
  0
ENDSEC
  0
SECTION
  2
ENTITIES
  0
INSERT
  5
42
330
1F
100
AcDbEntity
  8
_U+30EC_U+30A4_U+30E4_U+30FC 1
100
AcDbBlockReference
  2
block 2
 10
0.0
 20
0.0
 30
0.0
  0
POLYLINE
  5
5C
330
1F
100
AcDbEntity
  8
_U+30EC_U+30A4_U+30E4_U+30FC 1
 62
   179
420
  2234388
370
     9
100
AcDb2dPolyline
 66
     1
 10
0.0
 20
0.0
 30
0.0
  0
VERTEX
  5
5D
330
5C
100
AcDbEntity
  8
_U+30EC_U+30A4_U+30E4_U+30FC 1
 62
   179
420
  2234388
370
     9
100
AcDbVertex
100
AcDb2dVertex
 10
105.1492665345854
 20
-135.3526878018552
 30
0.0
  0
VERTEX
  5
5E
330
5C
100
AcDbEntity
  8
_U+30EC_U+30A4_U+30E4_U+30FC 1
 62
   179
420
  2234388
370
     9
100
AcDbVertex
100
AcDb2dVertex
 10
105.1492665345854
 20
-135.3516327413628
 30
0.0
  0
VERTEX
  5
5F
330
5C
100
AcDbEntity
  8
_U+30EC_U+30A4_U+30E4_U+30FC 1
 62
   179
420
  2234388
370
     9
100
AcDbVertex
100
AcDb2dVertex
 10
105.1489112591132
 20
-135.3526878018552
 30
0.0
  0
VERTEX
  5
60
330
5C
100
AcDbEntity
  8
_U+30EC_U+30A4_U+30E4_U+30FC 1
 62
   179
420
  2234388
370
     9
100
AcDbVertex
100
AcDb2dVertex
 10
105.1492665345854
 20
-135.3537536282709
 30
0.0
  0
VERTEX
  5
61
330
5C
100
AcDbEntity
  8
_U+30EC_U+30A4_U+30E4_U+30FC 1
 62
   179
420
  2234388
370
     9
100
AcDbVertex
100
AcDb2dVertex
 10
105.1492665345854
 20
-135.3526878018552
 30
0.0
  0
SEQEND
  5
62
330
5C
100
AcDbEntity
  8
_U+30EC_U+30A4_U+30E4_U+30FC 1
 62
   179
420
  2234388
370
     9
  0
POLYLINE
  5
63
330
1F
100
AcDbEntity
  8
_U+30EC_U+30A4_U+30E4_U+30FC 1
 62
   179
420
  2234388
370
     9
100
AcDb2dPolyline
 66
     1
 10
0.0
 20
0.0
 30
0.0
  0
VERTEX
  5
64
330
63
100
AcDbEntity
  8
_U+30EC_U+30A4_U+30E4_U+30FC 1
 62
   179
420
  2234388
370
     9
100
AcDbVertex
100
AcDb2dVertex
 10
92.02620881217173
 20
-142.9302183853558
 30
0.0
  0
VERTEX
  5
65
330
63
100
AcDbEntity
  8
_U+30EC_U+30A4_U+30E4_U+30FC 1
 62
   179
420
  2234388
370
     9
100
AcDbVertex
100
AcDb2dVertex
 10
105.1498909581418
 20
-135.3529138862464
 30
0.0
  0
SEQEND
  5
66
330
63
100
AcDbEntity
  8
_U+30EC_U+30A4_U+30E4_U+30FC 1
 62
   179
420
  2234388
370
     9
  0
POLYLINE
  5
67
330
1F
100
AcDbEntity
  8
_U+30EC_U+30A4_U+30E4_U+30FC 1
 62
   179
420
  2234388
370
     9
100
AcDb2dPolyline
 66
     1
 10
0.0
 20
0.0
 30
0.0
  0
VERTEX
  5
68
330
67
100
AcDbEntity
  8
_U+30EC_U+30A4_U+30E4_U+30FC 1
 62
   179
420
  2234388
370
     9
100
AcDbVertex
100
AcDb2dVertex
 10
105.1492665345854
 20
-135.351665039133
 30
0.0
  0
VERTEX
  5
69
330
67
100
AcDbEntity
  8
_U+30EC_U+30A4_U+30E4_U+30FC 1
 62
   179
420
  2234388
370
     9
100
AcDbVertex
100
AcDb2dVertex
 10
105.1492665345854
 20
-140.0926547230063
 30
0.0
  0
SEQEND
  5
6A
330
67
100
AcDbEntity
  8
_U+30EC_U+30A4_U+30E4_U+30FC 1
 62
   179
420
  2234388
370
     9
  0
POLYLINE
  5
6B
330
1F
100
AcDbEntity
  8
_U+30EC_U+30A4_U+30E4_U+30FC 1
 62
   179
420
  2234388
370
     9
100
AcDb2dPolyline
 66
     1
 10
0.0
 20
0.0
 30
0.0
  0
VERTEX
  5
6C
330
6B
100
AcDbEntity
  8
_U+30EC_U+30A4_U+30E4_U+30FC 1
 62
   179
420
  2234388
370
     9
100
AcDbVertex
100
AcDb2dVertex
 10
91.90527519471574
 20
-143.0001753555531
 30
0.0
  0
VERTEX
  5
6D
330
6B
100
AcDbEntity
  8
_U+30EC_U+30A4_U+30E4_U+30FC 1
 62
   179
420
  2234388
370
     9
100
AcDbVertex
100
AcDb2dVertex
 10
91.90527519471574
 20
-147.3199482867377
 30
0.0
  0
SEQEND
  5
6E
330
6B
100
AcDbEntity
  8
_U+30EC_U+30A4_U+30E4_U+30FC 1
 62
   179
420
  2234388
370
     9
  0
SPLINE
  5
6F
330
1F
100
AcDbEntity
  8
_U+30EC_U+30A4_U+30E4_U+30FC 1
370
     0
100
AcDbSpline
210
0.0
220
0.0
230
1.0
 70
    11
 71
     3
 72
    17
 73
    13
 74
     0
 42
0.0000000001
 43
0.0000000001
 12
1.0
 22
0.0
 32
0.0
 13
1.0
 23
0.0
 33
0.0
 40
0.0
 40
0.0
 40
0.0
 40
0.0
 40
1.0
 40
1.0
 40
1.0
 40
2.0
 40
2.0
 40
2.0
 40
3.0
 40
3.0
 40
3.0
 40
4.0
 40
4.0
 40
4.0
 40
4.0
 10
91.90527519471574
 20
-142.8092847679001
 30
0.0
 10
91.97159328280681
 20
-142.8092847679001
 30
0.0
 10
92.02627340771176
 20
-142.8636203832565
 30
0.0
 10
92.02627340771176
 20
-142.9306490222914
 30
0.0
 10
92.02627340771176
 20
-142.9973223858544
 30
0.0
 10
91.97159328280681
 20
-143.0516472352874
 30
0.0
 10
91.90527519471574
 20
-143.0516472352874
 30
0.0
 10
91.83789128020894
 20
-143.0516472352874
 30
0.0
 10
91.7835664307759
 20
-142.9973223858544
 30
0.0
 10
91.7835664307759
 20
-142.9306490222914
 30
0.0
 10
91.7835664307759
 20
-142.8636203832565
 30
0.0
 10
91.83789128020894
 20
-142.8092847679001
 30
0.0
 10
91.90527519471574
 20
-142.8092847679001
 30
0.0
  0
HATCH
  5
70
330
1F
100
AcDbEntity
  8
_U+30EC_U+30A4_U+30E4_U+30FC 1
 62
   179
420
  2234388
100
AcDbHatch
 10
0.0
 20
0.0
 30
0.0
210
0.0
220
0.0
230
1.0
  2
SOLID
 70
     1
 71
     0
 91
        1
 92
        1
 93
        2
 72
     4
 94
        3
 73
     0
 74
     0
 95
       17
 96
       13
 40
0.0
 40
0.0
 40
0.0
 40
0.0
 40
0.3527777776895833
 40
0.3527777776895833
 40
0.3527777776895833
 40
0.7055555553791667
 40
0.7055555553791667
 40
0.7055555553791667
 40
1.05833333306875
 40
1.05833333306875
 40
1.05833333306875
 40
1.411111110758333
 40
1.411111110758333
 40
1.411111110758333
 40
1.411111110758333
 10
91.90527519471574
 20
-142.8092847679001
 10
91.97159328280681
 20
-142.8092847679001
 10
92.02627340771176
 20
-142.8636203832565
 10
92.02627340771176
 20
-142.9306490222914
 10
92.02627340771176
 20
-142.9973223858544
 10
91.97159328280681
 20
-143.0516472352874
 10
91.90527519471574
 20
-143.0516472352874
 10
91.83789128020894
 20
-143.0516472352874
 10
91.7835664307759
 20
-142.9973223858544
 10
91.7835664307759
 20
-142.9306490222914
 10
91.7835664307759
 20
-142.8636203832565
 10
91.83789128020894
 20
-142.8092847679001
 10
91.90527519471574
 20
-142.8092847679001
 97
        0
 72
     1
 10
91.90527519471574
 20
-142.8092847679001
 11
91.90527519471574
 21
-142.8092847679001
 97
        0
 75
     2
 76
     1
 98
        0
  0
POLYLINE
  5
71
330
1F
100
AcDbEntity
  8
_U+30EC_U+30A4_U+30E4_U+30FC 1
 62
   179
420
  2234388
370
     9
100
AcDb2dPolyline
 66
     1
 10
0.0
 20
0.0
 30
0.0
  0
VERTEX
  5
72
330
71
100
AcDbEntity
  8
_U+30EC_U+30A4_U+30E4_U+30FC 1
 62
   179
420
  2234388
370
     9
100
AcDbVertex
100
AcDb2dVertex
 10
118.3949696562737
 20
-142.9302183853558
 30
0.0
  0
VERTEX
  5
73
330
71
100
AcDbEntity
  8
_U+30EC_U+30A4_U+30E4_U+30FC 1
 62
   179
420
  2234388
370
     9
100
AcDbVertex
100
AcDb2dVertex
 10
105.2712767443799
 20
-135.3529138862464
 30
0.0
  0
SEQEND
  5
74
330
71
100
AcDbEntity
  8
_U+30EC_U+30A4_U+30E4_U+30FC 1
 62
   179
420
  2234388
370
     9
  0
POLYLINE
  5
75
330
1F
100
AcDbEntity
  8
_U+30EC_U+30A4_U+30E4_U+30FC 1
 62
   179
420
  2234388
370
    25
100
AcDb2dPolyline
 66
     1
 10
0.0
 20
0.0
 30
0.0
  0
VERTEX
  5
76
330
75
100
AcDbEntity
  8
_U+30EC_U+30A4_U+30E4_U+30FC 1
 62
   179
420
  2234388
370
    25
100
AcDbVertex
100
AcDb2dVertex
 10
92.02620881217173
 20
-148.152638631446
 30
0.0
  0
VERTEX
  5
77
330
75
100
AcDbEntity
  8
_U+30EC_U+30A4_U+30E4_U+30FC 1
 62
   179
420
  2234388
370
    25
100
AcDbVertex
100
AcDb2dVertex
 10
105.1498909581418
 20
-140.5756786418852
 30
0.0
  0
SEQEND
  5
78
330
75
100
AcDbEntity
  8
_U+30EC_U+30A4_U+30E4_U+30FC 1
 62
   179
420
  2234388
370
    25
  0
POLYLINE
  5
79
330
1F
100
AcDbEntity
  8
_U+30EC_U+30A4_U+30E4_U+30FC 1
 62
   179
420
  2234388
370
    25
100
AcDb2dPolyline
 66
     1
 10
0.0
 20
0.0
 30
0.0
  0
VERTEX
  5
7A
330
79
100
AcDbEntity
  8
_U+30EC_U+30A4_U+30E4_U+30FC 1
 62
   179
420
  2234388
370
    25
100
AcDbVertex
100
AcDb2dVertex
 10
118.3949696562737
 20
-148.152638631446
 30
0.0
  0
VERTEX
  5
7B
330
79
100
AcDbEntity
  8
_U+30EC_U+30A4_U+30E4_U+30FC 1
 62
   179
420
  2234388
370
    25
100
AcDbVertex
100
AcDb2dVertex
 10
105.2712767443799
 20
-140.5756786418852
 30
0.0
  0
SEQEND
  5
7C
330
79
100
AcDbEntity
  8
_U+30EC_U+30A4_U+30E4_U+30FC 1
 62
   179
420
  2234388
370
    25
  0
POLYLINE
  5
7D
330
1F
100
AcDbEntity
  8
_U+30EC_U+30A4_U+30E4_U+30FC 1
 62
   179
420
  2234388
370
    25
100
AcDb2dPolyline
 66
     1
 10
0.0
 20
0.0
 30
0.0
  0
VERTEX
  5
7E
330
7D
100
AcDbEntity
  8
_U+30EC_U+30A4_U+30E4_U+30FC 1
 62
   179
420
  2234388
370
    25
100
AcDbVertex
100
AcDb2dVertex
 10
92.02620881217173
 20
-148.6552672968206
 30
0.0
  0
VERTEX
  5
7F
330
7D
100
AcDbEntity
  8
_U+30EC_U+30A4_U+30E4_U+30FC 1
 62
   179
420
  2234388
370
    25
100
AcDbVertex
100
AcDb2dVertex
 10
105.1498909581418
 20
-141.0779627977112
 30
0.0
  0
SEQEND
  5
80
330
7D
100
AcDbEntity
  8
_U+30EC_U+30A4_U+30E4_U+30FC 1
 62
   179
420
  2234388
370
    25
  0
POLYLINE
  5
81
330
1F
100
AcDbEntity
  8
_U+30EC_U+30A4_U+30E4_U+30FC 1
 62
   179
420
  2234388
370
    25
100
AcDb2dPolyline
 66
     1
 10
0.0
 20
0.0
 30
0.0
  0
VERTEX
  5
82
330
81
100
AcDbEntity
  8
_U+30EC_U+30A4_U+30E4_U+30FC 1
 62
   179
420
  2234388
370
    25
100
AcDbVertex
100
AcDb2dVertex
 10
118.3949696562737
 20
-148.6552672968206
 30
0.0
  0
VERTEX
  5
83
330
81
100
AcDbEntity
  8
_U+30EC_U+30A4_U+30E4_U+30FC 1
 62
   179
420
  2234388
370
    25
100
AcDbVertex
100
AcDb2dVertex
 10
105.2712767443799
 20
-141.0779627977112
 30
0.0
  0
SEQEND
  5
84
330
81
100
AcDbEntity
  8
_U+30EC_U+30A4_U+30E4_U+30FC 1
 62
   179
420
  2234388
370
    25
  0
POLYLINE
  5
85
330
1F
100
AcDbEntity
  8
_U+30EC_U+30A4_U+30E4_U+30FC 1
 62
   179
420
  2234388
370
    25
100
AcDb2dPolyline
 66
     1
 10
0.0
 20
0.0
 30
0.0
  0
VERTEX
  5
86
330
85
100
AcDbEntity
  8
_U+30EC_U+30A4_U+30E4_U+30FC 1
 62
   179
420
  2234388
370
    25
100
AcDbVertex
100
AcDb2dVertex
 10
92.02620881217173
 20
-154.3114250645037
 30
0.0
  0
VERTEX
  5
87
330
85
100
AcDbEntity
  8
_U+30EC_U+30A4_U+30E4_U+30FC 1
 62
   179
420
  2234388
370
    25
100
AcDbVertex
100
AcDb2dVertex
 10
105.1498909581418
 20
-146.7341205653944
 30
0.0
  0
SEQEND
  5
88
330
85
100
AcDbEntity
  8
_U+30EC_U+30A4_U+30E4_U+30FC 1
 62
   179
420
  2234388
370
    25
  0
POLYLINE
  5
89
330
1F
100
AcDbEntity
  8
_U+30EC_U+30A4_U+30E4_U+30FC 1
 62
   179
420
  2234388
370
    25
100
AcDb2dPolyline
 66
     1
 10
0.0
 20
0.0
 30
0.0
  0
VERTEX
  5
8A
330
89
100
AcDbEntity
  8
_U+30EC_U+30A4_U+30E4_U+30FC 1
 62
   179
420
  2234388
370
    25
100
AcDbVertex
100
AcDb2dVertex
 10
118.3949696562737
 20
-154.3114250645037
 30
0.0
  0
VERTEX
  5
8B
330
89
100
AcDbEntity
  8
_U+30EC_U+30A4_U+30E4_U+30FC 1
 62
   179
420
  2234388
370
    25
100
AcDbVertex
100
AcDb2dVertex
 10
105.2712767443799
 20
-146.7341205653944
 30
0.0
  0
SEQEND
  5
8C
330
89
100
AcDbEntity
  8
_U+30EC_U+30A4_U+30E4_U+30FC 1
 62
   179
420
  2234388
370
    25
  0
POLYLINE
  5
8D
330
1F
100
AcDbEntity
  8
_U+30EC_U+30A4_U+30E4_U+30FC 1
 62
   179
420
  2234388
370
    25
100
AcDb2dPolyline
 66
     1
 10
0.0
 20
0.0
 30
0.0
  0
VERTEX
  5
8E
330
8D
100
AcDbEntity
  8
_U+30EC_U+30A4_U+30E4_U+30FC 1
 62
   179
420
  2234388
370
    25
100
AcDbVertex
100
AcDb2dVertex
 10
95.51021234455779
 20
-153.2293205725868
 30
0.0
  0
VERTEX
  5
8F
330
8D
100
AcDbEntity
  8
_U+30EC_U+30A4_U+30E4_U+30FC 1
 62
   179
420
  2234388
370
    25
100
AcDbVertex
100
AcDb2dVertex
 10
105.1498586603716
 20
-147.6639087731697
 30
0.0
  0
SEQEND
  5
90
330
8D
100
AcDbEntity
  8
_U+30EC_U+30A4_U+30E4_U+30FC 1
 62
   179
420
  2234388
370
    25
  0
POLYLINE
  5
91
330
1F
100
AcDbEntity
  8
_U+30EC_U+30A4_U+30E4_U+30FC 1
 62
   179
420
  2234388
370
    25
100
AcDb2dPolyline
 66
     1
 10
0.0
 20
0.0
 30
0.0
  0
VERTEX
  5
92
330
91
100
AcDbEntity
  8
_U+30EC_U+30A4_U+30E4_U+30FC 1
 62
   179
420
  2234388
370
    25
100
AcDbVertex
100
AcDb2dVertex
 10
114.9109445920405
 20
-153.2293205725868
 30
0.0
  0
VERTEX
  5
93
330
91
100
AcDbEntity
  8
_U+30EC_U+30A4_U+30E4_U+30FC 1
 62
   179
420
  2234388
370
    25
100
AcDbVertex
100
AcDb2dVertex
 10
105.2712875103033
 20
-147.6639087731697
 30
0.0
  0
SEQEND
  5
94
330
91
100
AcDbEntity
  8
_U+30EC_U+30A4_U+30E4_U+30FC 1
 62
   179
420
  2234388
370
    25
  0
POLYLINE
  5
95
330
1F
100
AcDbEntity
  8
_U+30EC_U+30A4_U+30E4_U+30FC 1
 62
   179
420
  2234388
370
    25
100
AcDb2dPolyline
 66
     1
 10
0.0
 20
0.0
 30
0.0
  0
VERTEX
  5
96
330
95
100
AcDbEntity
  8
_U+30EC_U+30A4_U+30E4_U+30FC 1
 62
   179
420
  2234388
370
    25
100
AcDbVertex
100
AcDb2dVertex
 10
92.02620881217173
 20
-158.0999750377862
 30
0.0
  0
VERTEX
  5
97
330
95
100
AcDbEntity
  8
_U+30EC_U+30A4_U+30E4_U+30FC 1
 62
   179
420
  2234388
370
    25
100
AcDbVertex
100
AcDb2dVertex
 10
105.1498909581418
 20
-150.5226705386768
 30
0.0
  0
SEQEND
  5
98
330
95
100
AcDbEntity
  8
_U+30EC_U+30A4_U+30E4_U+30FC 1
 62
   179
420
  2234388
370
    25
  0
POLYLINE
  5
99
330
1F
100
AcDbEntity
  8
_U+30EC_U+30A4_U+30E4_U+30FC 1
 62
   179
420
  2234388
370
    25
100
AcDb2dPolyline
 66
     1
 10
0.0
 20
0.0
 30
0.0
  0
VERTEX
  5
9A
330
99
100
AcDbEntity
  8
_U+30EC_U+30A4_U+30E4_U+30FC 1
 62
   179
420
  2234388
370
    25
100
AcDbVertex
100
AcDb2dVertex
 10
118.3949696562737
 20
-158.0999750377862
 30
0.0
  0
VERTEX
  5
9B
330
99
100
AcDbEntity
  8
_U+30EC_U+30A4_U+30E4_U+30FC 1
 62
   179
420
  2234388
370
    25
100
AcDbVertex
100
AcDb2dVertex
 10
105.2712767443799
 20
-150.5226705386768
 30
0.0
  0
SEQEND
  5
9C
330
99
100
AcDbEntity
  8
_U+30EC_U+30A4_U+30E4_U+30FC 1
 62
   179
420
  2234388
370
    25
  0
POLYLINE
  5
9D
330
1F
100
AcDbEntity
  8
_U+30EC_U+30A4_U+30E4_U+30FC 1
 62
   179
420
  2234388
370
     9
100
AcDb2dPolyline
 66
     1
 10
0.0
 20
0.0
 30
0.0
  0
VERTEX
  5
9E
330
9D
100
AcDbEntity
  8
_U+30EC_U+30A4_U+30E4_U+30FC 1
 62
   179
420
  2234388
370
     9
100
AcDbVertex
100
AcDb2dVertex
 10
118.5159140396527
 20
-143.0001753555531
 30
0.0
  0
VERTEX
  5
9F
330
9D
100
AcDbEntity
  8
_U+30EC_U+30A4_U+30E4_U+30FC 1
 62
   179
420
  2234388
370
     9
100
AcDbVertex
100
AcDb2dVertex
 10
118.5159140396527
 20
-147.3199482867377
 30
0.0
  0
SEQEND
  5
A0
330
9D
100
AcDbEntity
  8
_U+30EC_U+30A4_U+30E4_U+30FC 1
 62
   179
420
  2234388
370
     9
  0
POLYLINE
  5
A1
330
1F
100
AcDbEntity
  8
_U+30EC_U+30A4_U+30E4_U+30FC 1
 62
   179
420
  2234388
370
    25
100
AcDb2dPolyline
 66
     1
 10
0.0
 20
0.0
 30
0.0
  0
VERTEX
  5
A2
330
A1
100
AcDbEntity
  8
_U+30EC_U+30A4_U+30E4_U+30FC 1
 62
   179
420
  2234388
370
    25
100
AcDbVertex
100
AcDb2dVertex
 10
91.90527519471574
 20
-148.2694381343194
 30
0.0
  0
VERTEX
  5
A3
330
A1
100
AcDbEntity
  8
_U+30EC_U+30A4_U+30E4_U+30FC 1
 62
   179
420
  2234388
370
    25
100
AcDbVertex
100
AcDb2dVertex
 10
91.90527519471574
 20
-158.0890153277738
 30
0.0
  0
SEQEND
  5
A4
330
A1
100
AcDbEntity
  8
_U+30EC_U+30A4_U+30E4_U+30FC 1
 62
   179
420
  2234388
370
    25
  0
POLYLINE
  5
A5
330
1F
100
AcDbEntity
  8
_U+30EC_U+30A4_U+30E4_U+30FC 1
 62
   179
420
  2234388
370
    25
100
AcDb2dPolyline
 66
     1
 10
0.0
 20
0.0
 30
0.0
  0
VERTEX
  5
A6
330
A5
100
AcDbEntity
  8
_U+30EC_U+30A4_U+30E4_U+30FC 1
 62
   179
420
  2234388
370
    25
100
AcDbVertex
100
AcDb2dVertex
 10
118.5159140396527
 20
-148.2694381343194
 30
0.0
  0
VERTEX
  5
A7
330
A5
100
AcDbEntity
  8
_U+30EC_U+30A4_U+30E4_U+30FC 1
 62
   179
420
  2234388
370
    25
100
AcDbVertex
100
AcDb2dVertex
 10
118.5159140396527
 20
-158.0890153277738
 30
0.0
  0
SEQEND
  5
A8
330
A5
100
AcDbEntity
  8
_U+30EC_U+30A4_U+30E4_U+30FC 1
 62
   179
420
  2234388
370
    25
  0
SPLINE
  5
A9
330
1F
100
AcDbEntity
  8
_U+30EC_U+30A4_U+30E4_U+30FC 1
370
     0
100
AcDbSpline
210
0.0
220
0.0
230
1.0
 70
    11
 71
     3
 72
    17
 73
    13
 74
     0
 42
0.0000000001
 43
0.0000000001
 12
1.0
 22
0.0
 32
0.0
 13
1.0
 23
0.0
 33
0.0
 40
0.0
 40
0.0
 40
0.0
 40
0.0
 40
1.0
 40
1.0
 40
1.0
 40
2.0
 40
2.0
 40
2.0
 40
3.0
 40
3.0
 40
3.0
 40
4.0
 40
4.0
 40
4.0
 40
4.0
 10
118.5159140396527
 20
-142.8092847679001
 30
0.0
 10
118.4495744197149
 20
-142.8092847679001
 30
0.0
 10
118.3949050607333
 20
-142.8636203832565
 30
0.0
 10
118.3949050607333
 20
-142.9306490222914
 30
0.0
 10
118.3949050607333
 20
-142.9973223858544
 30
0.0
 10
118.4495744197149
 20
-143.0516472352874
 30
0.0
 10
118.5159140396527
 20
-143.0516472352874
 30
0.0
 10
118.5832871882361
 20
-143.0516472352874
 30
0.0
 10
118.6376120376692
 20
-142.9973223858544
 30
0.0
 10
118.6376120376692
 20
-142.9306490222914
 30
0.0
 10
118.6376120376692
 20
-142.8636203832565
 30
0.0
 10
118.5832871882361
 20
-142.8092847679001
 30
0.0
 10
118.5159140396527
 20
-142.8092847679001
 30
0.0
  0
HATCH
  5
AA
330
1F
100
AcDbEntity
  8
_U+30EC_U+30A4_U+30E4_U+30FC 1
 62
   179
420
  2234388
100
AcDbHatch
 10
0.0
 20
0.0
 30
0.0
210
0.0
220
0.0
230
1.0
  2
SOLID
 70
     1
 71
     0
 91
        1
 92
        1
 93
        2
 72
     4
 94
        3
 73
     0
 74
     0
 95
       17
 96
       13
 40
0.0
 40
0.0
 40
0.0
 40
0.0
 40
0.3527777776895833
 40
0.3527777776895833
 40
0.3527777776895833
 40
0.7055555553791667
 40
0.7055555553791667
 40
0.7055555553791667
 40
1.05833333306875
 40
1.05833333306875
 40
1.05833333306875
 40
1.411111110758333
 40
1.411111110758333
 40
1.411111110758333
 40
1.411111110758333
 10
118.5159140396527
 20
-142.8092847679001
 10
118.4495744197149
 20
-142.8092847679001
 10
118.3949050607333
 20
-142.8636203832565
 10
118.3949050607333
 20
-142.9306490222914
 10
118.3949050607333
 20
-142.9973223858544
 10
118.4495744197149
 20
-143.0516472352874
 10
118.5159140396527
 20
-143.0516472352874
 10
118.5832871882361
 20
-143.0516472352874
 10
118.6376120376692
 20
-142.9973223858544
 10
118.6376120376692
 20
-142.9306490222914
 10
118.6376120376692
 20
-142.8636203832565
 10
118.5832871882361
 20
-142.8092847679001
 10
118.5159140396527
 20
-142.8092847679001
 97
        0
 72
     1
 10
118.5159140396527
 20
-142.8092847679001
 11
118.5159140396527
 21
-142.8092847679001
 97
        0
 75
     2
 76
     1
 98
        0
  0
SPLINE
  5
AB
330
1F
100
AcDbEntity
  8
_U+30EC_U+30A4_U+30E4_U+30FC 1
370
     0
100
AcDbSpline
210
0.0
220
0.0
230
1.0
 70
    11
 71
     3
 72
    17
 73
    13
 74
     0
 42
0.0000000001
 43
0.0000000001
 12
1.0
 22
0.0
 32
0.0
 13
1.0
 23
0.0
 33
0.0
 40
0.0
 40
0.0
 40
0.0
 40
0.0
 40
1.0
 40
1.0
 40
1.0
 40
2.0
 40
2.0
 40
2.0
 40
3.0
 40
3.0
 40
3.0
 40
4.0
 40
4.0
 40
4.0
 40
4.0
 10
105.1499663196055
 20
-135.232152523565
 30
0.0
 10
105.2166396831685
 20
-135.232152523565
 30
0.0
 10
105.2713198080735
 20
-135.2861328634495
 30
0.0
 10
105.2713198080735
 20
-135.3531615024844
 30
0.0
 10
105.2713198080735
 20
-135.4198348660474
 30
0.0
 10
105.2166396831685
 20
-135.4745149909523
 30
0.0
 10
105.1499663196055
 20
-135.4745149909523
 30
0.0
 10
105.0829376805706
 20
-135.4745149909523
 30
0.0
 10
105.0289573406861
 20
-135.4198348660474
 30
0.0
 10
105.0289573406861
 20
-135.3531615024844
 30
0.0
 10
105.0289573406861
 20
-135.2861328634495
 30
0.0
 10
105.0829376805706
 20
-135.232152523565
 30
0.0
 10
105.1499663196055
 20
-135.232152523565
 30
0.0
  0
HATCH
  5
AC
330
1F
100
AcDbEntity
  8
_U+30EC_U+30A4_U+30E4_U+30FC 1
 62
   179
420
  2234388
100
AcDbHatch
 10
0.0
 20
0.0
 30
0.0
210
0.0
220
0.0
230
1.0
  2
SOLID
 70
     1
 71
     0
 91
        1
 92
        1
 93
        2
 72
     4
 94
        3
 73
     0
 74
     0
 95
       17
 96
       13
 40
0.0
 40
0.0
 40
0.0
 40
0.0
 40
0.3527777776895833
 40
0.3527777776895833
 40
0.3527777776895833
 40
0.7055555553791667
 40
0.7055555553791667
 40
0.7055555553791667
 40
1.05833333306875
 40
1.05833333306875
 40
1.05833333306875
 40
1.411111110758333
 40
1.411111110758333
 40
1.411111110758333
 40
1.411111110758333
 10
105.1499663196055
 20
-135.232152523565
 10
105.2166396831685
 20
-135.232152523565
 10
105.2713198080735
 20
-135.2861328634495
 10
105.2713198080735
 20
-135.3531615024844
 10
105.2713198080735
 20
-135.4198348660474
 10
105.2166396831685
 20
-135.4745149909523
 10
105.1499663196055
 20
-135.4745149909523
 10
105.0829376805706
 20
-135.4745149909523
 10
105.0289573406861
 20
-135.4198348660474
 10
105.0289573406861
 20
-135.3531615024844
 10
105.0289573406861
 20
-135.2861328634495
 10
105.0829376805706
 20
-135.232152523565
 10
105.1499663196055
 20
-135.232152523565
 97
        0
 72
     1
 10
105.1499663196055
 20
-135.232152523565
 11
105.1499663196055
 21
-135.232152523565
 97
        0
 75
     2
 76
     1
 98
        0
  0
POLYLINE
  5
AD
330
1F
100
AcDbEntity
  8
_U+30EC_U+30A4_U+30E4_U+30FC 1
 62
   179
420
  2234388
370
    25
100
AcDb2dPolyline
 66
     1
 10
0.0
 20
0.0
 30
0.0
  0
VERTEX
  5
AE
330
AD
100
AcDbEntity
  8
_U+30EC_U+30A4_U+30E4_U+30FC 1
 62
   179
420
  2234388
370
    25
100
AcDbVertex
100
AcDb2dVertex
 10
105.1492665345854
 20
-140.5348542603849
 30
0.0
  0
VERTEX
  5
AF
330
AD
100
AcDbEntity
  8
_U+30EC_U+30A4_U+30E4_U+30FC 1
 62
   179
420
  2234388
370
    25
100
AcDbVertex
100
AcDb2dVertex
 10
105.1492665345854
 20
-150.3547867293113
 30
0.0
  0
SEQEND
  5
B0
330
AD
100
AcDbEntity
  8
_U+30EC_U+30A4_U+30E4_U+30FC 1
 62
   179
420
  2234388
370
    25
  0
POLYLINE
  5
B1
330
1F
100
AcDbEntity
  8
_U+30EC_U+30A4_U+30E4_U+30FC 1
 62
   179
420
  2234388
370
     9
100
AcDb2dPolyline
 66
     1
 10
0.0
 20
0.0
 30
0.0
  0
VERTEX
  5
B2
330
B1
100
AcDbEntity
  8
_U+30EC_U+30A4_U+30E4_U+30FC 1
 62
   179
420
  2234388
370
     9
100
AcDbVertex
100
AcDb2dVertex
 10
105.1492665345854
 20
-156.2513906300181
 30
0.0
  0
VERTEX
  5
B3
330
B1
100
AcDbEntity
  8
_U+30EC_U+30A4_U+30E4_U+30FC 1
 62
   179
420
  2234388
370
     9
100
AcDbVertex
100
AcDb2dVertex
 10
105.1492665345854
 20
-156.2506908449977
 30
0.0
  0
VERTEX
  5
B4
330
B1
100
AcDbEntity
  8
_U+30EC_U+30A4_U+30E4_U+30FC 1
 62
   179
420
  2234388
370
     9
100
AcDbVertex
100
AcDb2dVertex
 10
105.1489112591132
 20
-156.2513906300181
 30
0.0
  0
VERTEX
  5
B5
330
B1
100
AcDbEntity
  8
_U+30EC_U+30A4_U+30E4_U+30FC 1
 62
   179
420
  2234388
370
     9
100
AcDbVertex
100
AcDb2dVertex
 10
105.1492665345854
 20
-156.2528117319058
 30
0.0
  0
VERTEX
  5
B6
330
B1
100
AcDbEntity
  8
_U+30EC_U+30A4_U+30E4_U+30FC 1
 62
   179
420
  2234388
370
     9
100
AcDbVertex
100
AcDb2dVertex
 10
105.1492665345854
 20
-156.2513906300181
 30
0.0
  0
SEQEND
  5
B7
330
B1
100
AcDbEntity
  8
_U+30EC_U+30A4_U+30E4_U+30FC 1
 62
   179
420
  2234388
370
     9
  0
POLYLINE
  5
B8
330
1F
100
AcDbEntity
  8
_U+30EC_U+30A4_U+30E4_U+30FC 1
 62
   179
420
  2234388
370
     9
100
AcDb2dPolyline
 66
     1
 10
0.0
 20
0.0
 30
0.0
  0
VERTEX
  5
B9
330
B8
100
AcDbEntity
  8
_U+30EC_U+30A4_U+30E4_U+30FC 1
 62
   179
420
  2234388
370
     9
100
AcDbVertex
100
AcDb2dVertex
 10
95.43686410849213
 20
-161.9536911453569
 30
0.0
  0
VERTEX
  5
BA
330
B8
100
AcDbEntity
  8
_U+30EC_U+30A4_U+30E4_U+30FC 1
 62
   179
420
  2234388
370
     9
100
AcDbVertex
100
AcDb2dVertex
 10
105.1498909581418
 20
-156.25174590549
 30
0.0
  0
SEQEND
  5
BB
330
B8
100
AcDbEntity
  8
_U+30EC_U+30A4_U+30E4_U+30FC 1
 62
   179
420
  2234388
370
     9
  0
POLYLINE
  5
BC
330
1F
100
AcDbEntity
  8
_U+30EC_U+30A4_U+30E4_U+30FC 1
 62
   179
420
  2234388
370
     9
100
AcDb2dPolyline
 66
     1
 10
0.0
 20
0.0
 30
0.0
  0
VERTEX
  5
BD
330
BC
100
AcDbEntity
  8
_U+30EC_U+30A4_U+30E4_U+30FC 1
 62
   179
420
  2234388
370
     9
100
AcDbVertex
100
AcDb2dVertex
 10
105.1492665345854
 20
-151.5160853536954
 30
0.0
  0
VERTEX
  5
BE
330
BC
100
AcDbEntity
  8
_U+30EC_U+30A4_U+30E4_U+30FC 1
 62
   179
420
  2234388
370
     9
100
AcDbVertex
100
AcDb2dVertex
 10
105.1492665345854
 20
-156.2570750375688
 30
0.0
  0
SEQEND
  5
BF
330
BC
100
AcDbEntity
  8
_U+30EC_U+30A4_U+30E4_U+30FC 1
 62
   179
420
  2234388
370
     9
  0
POLYLINE
  5
C0
330
1F
100
AcDbEntity
  8
_U+30EC_U+30A4_U+30E4_U+30FC 1
 62
   179
420
  2234388
370
     9
100
AcDb2dPolyline
 66
     1
 10
0.0
 20
0.0
 30
0.0
  0
VERTEX
  5
C1
330
C0
100
AcDbEntity
  8
_U+30EC_U+30A4_U+30E4_U+30FC 1
 62
   179
420
  2234388
370
     9
100
AcDbVertex
100
AcDb2dVertex
 10
95.31558598148827
 20
-157.7737675590266
 30
0.0
  0
VERTEX
  5
C2
330
C0
100
AcDbEntity
  8
_U+30EC_U+30A4_U+30E4_U+30FC 1
 62
   179
420
  2234388
370
     9
100
AcDbVertex
100
AcDb2dVertex
 10
95.31558598148827
 20
-162.0935404902112
 30
0.0
  0
SEQEND
  5
C3
330
C0
100
AcDbEntity
  8
_U+30EC_U+30A4_U+30E4_U+30FC 1
 62
   179
420
  2234388
370
     9
  0
SPLINE
  5
C4
330
1F
100
AcDbEntity
  8
_U+30EC_U+30A4_U+30E4_U+30FC 1
370
     0
100
AcDbSpline
210
0.0
220
0.0
230
1.0
 70
    11
 71
     3
 72
    17
 73
    13
 74
     0
 42
0.0000000001
 43
0.0000000001
 12
1.0
 22
0.0
 32
0.0
 13
1.0
 23
0.0
 33
0.0
 40
0.0
 40
0.0
 40
0.0
 40
0.0
 40
1.0
 40
1.0
 40
1.0
 40
2.0
 40
2.0
 40
2.0
 40
3.0
 40
3.0
 40
3.0
 40
4.0
 40
4.0
 40
4.0
 40
4.0
 10
95.31558598148827
 20
-161.8327575279012
 30
0.0
 10
95.38190406957933
 20
-161.8327575279012
 30
0.0
 10
95.4369394699562
 20
-161.8870931432576
 30
0.0
 10
95.4369394699562
 20
-161.9541217822925
 30
0.0
 10
95.4369394699562
 20
-162.0207951458555
 30
0.0
 10
95.38190406957933
 20
-162.0751199952885
 30
0.0
 10
95.31558598148827
 20
-162.0751199952885
 30
0.0
 10
95.24855734245305
 20
-162.0751199952885
 30
0.0
 10
95.1938772175481
 20
-162.0207951458555
 30
0.0
 10
95.1938772175481
 20
-161.9541217822925
 30
0.0
 10
95.1938772175481
 20
-161.8870931432576
 30
0.0
 10
95.24855734245305
 20
-161.8327575279012
 30
0.0
 10
95.31558598148827
 20
-161.8327575279012
 30
0.0
  0
HATCH
  5
C5
330
1F
100
AcDbEntity
  8
_U+30EC_U+30A4_U+30E4_U+30FC 1
 62
   179
420
  2234388
100
AcDbHatch
 10
0.0
 20
0.0
 30
0.0
210
0.0
220
0.0
230
1.0
  2
SOLID
 70
     1
 71
     0
 91
        1
 92
        1
 93
        2
 72
     4
 94
        3
 73
     0
 74
     0
 95
       17
 96
       13
 40
0.0
 40
0.0
 40
0.0
 40
0.0
 40
0.3527777776895833
 40
0.3527777776895833
 40
0.3527777776895833
 40
0.7055555553791667
 40
0.7055555553791667
 40
0.7055555553791667
 40
1.05833333306875
 40
1.05833333306875
 40
1.05833333306875
 40
1.411111110758333
 40
1.411111110758333
 40
1.411111110758333
 40
1.411111110758333
 10
95.31558598148827
 20
-161.8327575279012
 10
95.38190406957933
 20
-161.8327575279012
 10
95.4369394699562
 20
-161.8870931432576
 10
95.4369394699562
 20
-161.9541217822925
 10
95.4369394699562
 20
-162.0207951458555
 10
95.38190406957933
 20
-162.0751199952885
 10
95.31558598148827
 20
-162.0751199952885
 10
95.24855734245305
 20
-162.0751199952885
 10
95.1938772175481
 20
-162.0207951458555
 10
95.1938772175481
 20
-161.9541217822925
 10
95.1938772175481
 20
-161.8870931432576
 10
95.24855734245305
 20
-161.8327575279012
 10
95.31558598148827
 20
-161.8327575279012
 97
        0
 72
     1
 10
95.31558598148827
 20
-161.8327575279012
 11
95.31558598148827
 21
-161.8327575279012
 97
        0
 75
     2
 76
     1
 98
        0
  0
POLYLINE
  5
C6
330
1F
100
AcDbEntity
  8
_U+30EC_U+30A4_U+30E4_U+30FC 1
 62
   179
420
  2234388
370
     9
100
AcDb2dPolyline
 66
     1
 10
0.0
 20
0.0
 30
0.0
  0
VERTEX
  5
C7
330
C6
100
AcDbEntity
  8
_U+30EC_U+30A4_U+30E4_U+30FC 1
 62
   179
420
  2234388
370
     9
100
AcDbVertex
100
AcDb2dVertex
 10
114.9843251258763
 20
-161.9536911453569
 30
0.0
  0
VERTEX
  5
C8
330
C6
100
AcDbEntity
  8
_U+30EC_U+30A4_U+30E4_U+30FC 1
 62
   179
420
  2234388
370
     9
100
AcDbVertex
100
AcDb2dVertex
 10
105.2712875103033
 20
-156.25174590549
 30
0.0
  0
SEQEND
  5
C9
330
C6
100
AcDbEntity
  8
_U+30EC_U+30A4_U+30E4_U+30FC 1
 62
   179
420
  2234388
370
     9
  0
POLYLINE
  5
CA
330
1F
100
AcDbEntity
  8
_U+30EC_U+30A4_U+30E4_U+30FC 1
 62
   179
420
  2234388
370
     9
100
AcDb2dPolyline
 66
     1
 10
0.0
 20
0.0
 30
0.0
  0
VERTEX
  5
CB
330
CA
100
AcDbEntity
  8
_U+30EC_U+30A4_U+30E4_U+30FC 1
 62
   179
420
  2234388
370
     9
100
AcDbVertex
100
AcDb2dVertex
 10
115.1056140188039
 20
-157.7737675590266
 30
0.0
  0
VERTEX
  5
CC
330
CA
100
AcDbEntity
  8
_U+30EC_U+30A4_U+30E4_U+30FC 1
 62
   179
420
  2234388
370
     9
100
AcDbVertex
100
AcDb2dVertex
 10
115.1056140188039
 20
-162.0935404902112
 30
0.0
  0
SEQEND
  5
CD
330
CA
100
AcDbEntity
  8
_U+30EC_U+30A4_U+30E4_U+30FC 1
 62
   179
420
  2234388
370
     9
  0
SPLINE
  5
CE
330
1F
100
AcDbEntity
  8
_U+30EC_U+30A4_U+30E4_U+30FC 1
370
     0
100
AcDbSpline
210
0.0
220
0.0
230
1.0
 70
    11
 71
     3
 72
    17
 73
    13
 74
     0
 42
0.0000000001
 43
0.0000000001
 12
1.0
 22
0.0
 32
0.0
 13
1.0
 23
0.0
 33
0.0
 40
0.0
 40
0.0
 40
0.0
 40
0.0
 40
1.0
 40
1.0
 40
1.0
 40
2.0
 40
2.0
 40
2.0
 40
3.0
 40
3.0
 40
3.0
 40
4.0
 40
4.0
 40
4.0
 40
4.0
 10
115.1056140188039
 20
-161.8327575279012
 30
0.0
 10
115.0392743988661
 20
-161.8327575279012
 30
0.0
 10
114.9842389984892
 20
-161.8870931432576
 30
0.0
 10
114.9842389984892
 20
-161.9541217822925
 30
0.0
 10
114.9842389984892
 20
-162.0207951458555
 30
0.0
 10
115.0392743988661
 20
-162.0751199952885
 30
0.0
 10
115.1056140188039
 20
-162.0751199952885
 30
0.0
 10
115.172621125992
 20
-162.0751199952885
 30
0.0
 10
115.2273120168203
 20
-162.0207951458555
 30
0.0
 10
115.2273120168203
 20
-161.9541217822925
 30
0.0
 10
115.2273120168203
 20
-161.8870931432576
 30
0.0
 10
115.172621125992
 20
-161.8327575279012
 30
0.0
 10
115.1056140188039
 20
-161.8327575279012
 30
0.0
  0
HATCH
  5
CF
330
1F
100
AcDbEntity
  8
_U+30EC_U+30A4_U+30E4_U+30FC 1
 62
   179
420
  2234388
100
AcDbHatch
 10
0.0
 20
0.0
 30
0.0
210
0.0
220
0.0
230
1.0
  2
SOLID
 70
     1
 71
     0
 91
        1
 92
        1
 93
        2
 72
     4
 94
        3
 73
     0
 74
     0
 95
       17
 96
       13
 40
0.0
 40
0.0
 40
0.0
 40
0.0
 40
0.3527777776895833
 40
0.3527777776895833
 40
0.3527777776895833
 40
0.7055555553791667
 40
0.7055555553791667
 40
0.7055555553791667
 40
1.05833333306875
 40
1.05833333306875
 40
1.05833333306875
 40
1.411111110758333
 40
1.411111110758333
 40
1.411111110758333
 40
1.411111110758333
 10
115.1056140188039
 20
-161.8327575279012
 10
115.0392743988661
 20
-161.8327575279012
 10
114.9842389984892
 20
-161.8870931432576
 10
114.9842389984892
 20
-161.9541217822925
 10
114.9842389984892
 20
-162.0207951458555
 10
115.0392743988661
 20
-162.0751199952885
 10
115.1056140188039
 20
-162.0751199952885
 10
115.172621125992
 20
-162.0751199952885
 10
115.2273120168203
 20
-162.0207951458555
 10
115.2273120168203
 20
-161.9541217822925
 10
115.2273120168203
 20
-161.8870931432576
 10
115.172621125992
 20
-161.8327575279012
 10
115.1056140188039
 20
-161.8327575279012
 97
        0
 72
     1
 10
115.1056140188039
 20
-161.8327575279012
 11
115.1056140188039
 21
-161.8327575279012
 97
        0
 75
     2
 76
     1
 98
        0
  0
SPLINE
  5
D0
330
1F
100
AcDbEntity
  8
_U+30EC_U+30A4_U+30E4_U+30FC 1
370
     0
100
AcDbSpline
210
0.0
220
0.0
230
1.0
 70
    11
 71
     3
 72
    17
 73
    13
 74
     0
 42
0.0000000001
 43
0.0000000001
 12
1.0
 22
0.0
 32
0.0
 13
1.0
 23
0.0
 33
0.0
 40
0.0
 40
0.0
 40
0.0
 40
0.0
 40
1.0
 40
1.0
 40
1.0
 40
2.0
 40
2.0
 40
2.0
 40
3.0
 40
3.0
 40
3.0
 40
4.0
 40
4.0
 40
4.0
 40
4.0
 10
105.1499663196055
 20
-156.1307692243408
 30
0.0
 10
105.2166396831685
 20
-156.1307692243408
 30
0.0
 10
105.2713198080735
 20
-156.1847495642253
 30
0.0
 10
105.2713198080735
 20
-156.2517782032602
 30
0.0
 10
105.2713198080735
 20
-156.3184515668232
 30
0.0
 10
105.2166396831685
 20
-156.3731316917281
 30
0.0
 10
105.1499663196055
 20
-156.3731316917281
 30
0.0
 10
105.0829376805706
 20
-156.3731316917281
 30
0.0
 10
105.0289573406861
 20
-156.3184515668232
 30
0.0
 10
105.0289573406861
 20
-156.2517782032602
 30
0.0
 10
105.0289573406861
 20
-156.1847495642253
 30
0.0
 10
105.0829376805706
 20
-156.1307692243408
 30
0.0
 10
105.1499663196055
 20
-156.1307692243408
 30
0.0
  0
HATCH
  5
D1
330
1F
100
AcDbEntity
  8
_U+30EC_U+30A4_U+30E4_U+30FC 1
 62
   179
420
  2234388
100
AcDbHatch
 10
0.0
 20
0.0
 30
0.0
210
0.0
220
0.0
230
1.0
  2
SOLID
 70
     1
 71
     0
 91
        1
 92
        1
 93
        2
 72
     4
 94
        3
 73
     0
 74
     0
 95
       17
 96
       13
 40
0.0
 40
0.0
 40
0.0
 40
0.0
 40
0.3527777776895833
 40
0.3527777776895833
 40
0.3527777776895833
 40
0.7055555553791667
 40
0.7055555553791667
 40
0.7055555553791667
 40
1.05833333306875
 40
1.05833333306875
 40
1.05833333306875
 40
1.411111110758333
 40
1.411111110758333
 40
1.411111110758333
 40
1.411111110758333
 10
105.1499663196055
 20
-156.1307692243408
 10
105.2166396831685
 20
-156.1307692243408
 10
105.2713198080735
 20
-156.1847495642253
 10
105.2713198080735
 20
-156.2517782032602
 10
105.2713198080735
 20
-156.3184515668232
 10
105.2166396831685
 20
-156.3731316917281
 10
105.1499663196055
 20
-156.3731316917281
 10
105.0829376805706
 20
-156.3731316917281
 10
105.0289573406861
 20
-156.3184515668232
 10
105.0289573406861
 20
-156.2517782032602
 10
105.0289573406861
 20
-156.1847495642253
 10
105.0829376805706
 20
-156.1307692243408
 10
105.1499663196055
 20
-156.1307692243408
 97
        0
 72
     1
 10
105.1499663196055
 20
-156.1307692243408
 11
105.1499663196055
 21
-156.1307692243408
 97
        0
 75
     2
 76
     1
 98
        0
  0
SPLINE
  5
D2
330
1F
100
AcDbEntity
  8
_U+30EC_U+30A4_U+30E4_U+30FC 1
 62
   179
420
  2234388
370
    25
100
AcDbSpline
210
0.0
220
0.0
230
1.0
 70
    11
 71
     3
 72
    29
 73
    25
 74
     0
 42
0.0000000001
 43
0.0000000001
 12
1.0
 22
0.0
 32
0.0
 13
1.0
 23
0.0
 33
0.0
 40
0.0
 40
0.0
 40
0.0
 40
0.0
 40
1.0
 40
1.0
 40
1.0
 40
2.0
 40
2.0
 40
2.0
 40
3.0
 40
3.0
 40
3.0
 40
4.0
 40
4.0
 40
4.0
 40
5.0
 40
5.0
 40
5.0
 40
6.0
 40
6.0
 40
6.0
 40
7.0
 40
7.0
 40
7.0
 40
8.0
 40
8.0
 40
8.0
 40
8.0
 10
95.43686410849213
 20
-153.2293205725868
 30
0.0
 10
95.43686410849213
 20
-153.2293205725868
 30
0.0
 10
95.43686410849213
 20
-156.1309199472683
 30
0.0
 10
95.43686410849213
 20
-156.1309199472683
 30
0.0
 10
95.43686410849213
 20
-156.1309199472683
 30
0.0
 10
91.974349359195
 20
-154.408307609103
 30
0.0
 10
91.974349359195
 20
-154.408307609103
 30
0.0
 10
91.974349359195
 20
-154.408307609103
 30
0.0
 10
92.38215177133806
 20
-154.1059789484256
 30
0.0
 10
92.38215177133806
 20
-154.1059789484256
 30
0.0
 10
92.38215177133806
 20
-154.1059789484256
 30
0.0
 10
95.08125489295061
 20
-155.5149691722758
 30
0.0
 10
95.08125489295061
 20
-155.5149691722758
 30
0.0
 10
95.08125489295061
 20
-155.5149691722758
 30
0.0
 10
95.08125489295061
 20
-153.3341053049553
 30
0.0
 10
95.08125489295061
 20
-153.3341053049553
 30
0.0
 10
95.08125489295061
 20
-153.3341053049553
 30
0.0
 10
94.54432599565104
 20
-152.8574978764178
 30
0.0
 10
94.54432599565104
 20
-152.8574978764178
 30
0.0
 10
94.54432599565104
 20
-152.8574978764178
 30
0.0
 10
94.97083958264835
 20
-152.6116149520815
 30
0.0
 10
94.97083958264835
 20
-152.6116149520815
 30
0.0
 10
94.97083958264835
 20
-152.6116149520815
 30
0.0
 10
95.43686410849213
 20
-153.0074241255665
 30
0.0
 10
95.43686410849213
 20
-153.2293205725868
 30
0.0
  0
SPLINE
  5
D3
330
1F
100
AcDbEntity
  8
_U+30EC_U+30A4_U+30E4_U+30FC 1
 62
   179
420
  2234388
370
    25
100
AcDbSpline
210
0.0
220
0.0
230
1.0
 70
    11
 71
     3
 72
    29
 73
    25
 74
     0
 42
0.0000000001
 43
0.0000000001
 12
1.0
 22
0.0
 32
0.0
 13
1.0
 23
0.0
 33
0.0
 40
0.0
 40
0.0
 40
0.0
 40
0.0
 40
1.0
 40
1.0
 40
1.0
 40
2.0
 40
2.0
 40
2.0
 40
3.0
 40
3.0
 40
3.0
 40
4.0
 40
4.0
 40
4.0
 40
5.0
 40
5.0
 40
5.0
 40
6.0
 40
6.0
 40
6.0
 40
7.0
 40
7.0
 40
7.0
 40
8.0
 40
8.0
 40
8.0
 40
8.0
 10
115.0532055037345
 20
-153.2293205725868
 30
0.0
 10
115.0532055037345
 20
-153.2293205725868
 30
0.0
 10
115.0532055037345
 20
-156.1309199472683
 30
0.0
 10
115.0532055037345
 20
-156.1309199472683
 30
0.0
 10
115.0532055037345
 20
-156.1309199472683
 30
0.0
 10
118.5156987211849
 20
-154.408307609103
 30
0.0
 10
118.5156987211849
 20
-154.408307609103
 30
0.0
 10
118.5156987211849
 20
-154.408307609103
 30
0.0
 10
118.1079070749652
 20
-154.1059789484256
 30
0.0
 10
118.1079070749652
 20
-154.1059789484256
 30
0.0
 10
118.1079070749652
 20
-154.1059789484256
 30
0.0
 10
115.4088039533527
 20
-155.5149691722758
 30
0.0
 10
115.4088039533527
 20
-155.5149691722758
 30
0.0
 10
115.4088039533527
 20
-155.5149691722758
 30
0.0
 10
115.4088039533527
 20
-153.3341053049553
 30
0.0
 10
115.4088039533527
 20
-153.3341053049553
 30
0.0
 10
115.4088039533527
 20
-153.3341053049553
 30
0.0
 10
115.9457220847289
 20
-152.8574978764178
 30
0.0
 10
115.9457220847289
 20
-152.8574978764178
 30
0.0
 10
115.9457220847289
 20
-152.8574978764178
 30
0.0
 10
115.5192192636549
 20
-152.6116149520815
 30
0.0
 10
115.5192192636549
 20
-152.6116149520815
 30
0.0
 10
115.5192192636549
 20
-152.6116149520815
 30
0.0
 10
115.0532055037345
 20
-153.0074241255665
 30
0.0
 10
115.0532055037345
 20
-153.2293205725868
 30
0.0
  0
POLYLINE
  5
D4
330
1F
100
AcDbEntity
  8
_U+30EC_U+30A4_U+30E4_U+30FC 1
370
     0
100
AcDb2dPolyline
 66
     1
 10
0.0
 20
0.0
 30
0.0
  0
VERTEX
  5
D5
330
D4
100
AcDbEntity
  8
_U+30EC_U+30A4_U+30E4_U+30FC 1
370
     0
100
AcDbVertex
100
AcDb2dVertex
 10
114.8757400225506
 20
-140.9714232198299
 30
0.0
  0
VERTEX
  5
D6
330
D4
100
AcDbEntity
  8
_U+30EC_U+30A4_U+30E4_U+30FC 1
370
     0
100
AcDbVertex
100
AcDb2dVertex
 10
111.3479622456548
 20
-140.9714232198299
 30
0.0
  0
VERTEX
  5
D7
330
D4
100
AcDbEntity
  8
_U+30EC_U+30A4_U+30E4_U+30FC 1
370
     0
100
AcDbVertex
100
AcDb2dVertex
 10
111.3479622456548
 20
-138.6783676648476
 30
0.0
  0
VERTEX
  5
D8
330
D4
100
AcDbEntity
  8
_U+30EC_U+30A4_U+30E4_U+30FC 1
370
     0
100
AcDbVertex
100
AcDb2dVertex
 10
114.8757400225506
 20
-138.6783676648476
 30
0.0
  0
VERTEX
  5
D9
330
D4
100
AcDbEntity
  8
_U+30EC_U+30A4_U+30E4_U+30FC 1
370
     0
100
AcDbVertex
100
AcDb2dVertex
 10
114.8757400225506
 20
-140.9714232198299
 30
0.0
  0
SEQEND
  5
DB
330
D4
100
AcDbEntity
  8
_U+30EC_U+30A4_U+30E4_U+30FC 1
370
     0
  0
HATCH
  5
DA
330
1F
100
AcDbEntity
  8
_U+30EC_U+30A4_U+30E4_U+30FC 1
 62
     7
420
 16711422
100
AcDbHatch
 10
0.0
 20
0.0
 30
0.0
210
0.0
220
0.0
230
1.0
  2
SOLID
 70
     1
 71
     0
 91
        1
 92
        1
 93
        4
 72
     1
 10
114.8757400225506
 20
-140.9714232198299
 11
111.3479622456548
 21
-140.9714232198299
 72
     1
 10
111.3479622456548
 20
-140.9714232198299
 11
111.3479622456548
 21
-138.6783676648476
 72
     1
 10
111.3479622456548
 20
-138.6783676648476
 11
114.8757400225506
 21
-138.6783676648476
 72
     1
 10
114.8757400225506
 20
-138.6783676648476
 11
114.8757400225506
 21
-140.9714232198299
 97
        0
 75
     2
 76
     1
 98
        0
  0
INSERT
  5
DD
330
1F
100
AcDbEntity
  8
_U+30EC_U+30A4_U+30E4_U+30FC 1
100
AcDbBlockReference
  2
block 3
 10
0.0
 20
0.0
 30
0.0
  0
POLYLINE
  5
E5
330
1F
100
AcDbEntity
  8
_U+30EC_U+30A4_U+30E4_U+30FC 1
370
     0
100
AcDb2dPolyline
 66
     1
 10
0.0
 20
0.0
 30
0.0
  0
VERTEX
  5
E6
330
E5
100
AcDbEntity
  8
_U+30EC_U+30A4_U+30E4_U+30FC 1
370
     0
100
AcDbVertex
100
AcDb2dVertex
 10
99.26531259386314
 20
-140.9714232198299
 30
0.0
  0
VERTEX
  5
E7
330
E5
100
AcDbEntity
  8
_U+30EC_U+30A4_U+30E4_U+30FC 1
370
     0
100
AcDbVertex
100
AcDb2dVertex
 10
95.73753481696731
 20
-140.9714232198299
 30
0.0
  0
VERTEX
  5
E8
330
E5
100
AcDbEntity
  8
_U+30EC_U+30A4_U+30E4_U+30FC 1
370
     0
100
AcDbVertex
100
AcDb2dVertex
 10
95.73753481696731
 20
-138.6783676648476
 30
0.0
  0
VERTEX
  5
E9
330
E5
100
AcDbEntity
  8
_U+30EC_U+30A4_U+30E4_U+30FC 1
370
     0
100
AcDbVertex
100
AcDb2dVertex
 10
99.26531259386314
 20
-138.6783676648476
 30
0.0
  0
VERTEX
  5
EA
330
E5
100
AcDbEntity
  8
_U+30EC_U+30A4_U+30E4_U+30FC 1
370
     0
100
AcDbVertex
100
AcDb2dVertex
 10
99.26531259386314
 20
-140.9714232198299
 30
0.0
  0
SEQEND
  5
EC
330
E5
100
AcDbEntity
  8
_U+30EC_U+30A4_U+30E4_U+30FC 1
370
     0
  0
HATCH
  5
EB
330
1F
100
AcDbEntity
  8
_U+30EC_U+30A4_U+30E4_U+30FC 1
 62
     7
420
 16711422
100
AcDbHatch
 10
0.0
 20
0.0
 30
0.0
210
0.0
220
0.0
230
1.0
  2
SOLID
 70
     1
 71
     0
 91
        1
 92
        1
 93
        4
 72
     1
 10
99.26531259386314
 20
-140.9714232198299
 11
95.73753481696731
 21
-140.9714232198299
 72
     1
 10
95.73753481696731
 20
-140.9714232198299
 11
95.73753481696731
 21
-138.6783676648476
 72
     1
 10
95.73753481696731
 20
-138.6783676648476
 11
99.26531259386314
 21
-138.6783676648476
 72
     1
 10
99.26531259386314
 20
-138.6783676648476
 11
99.26531259386314
 21
-140.9714232198299
 97
        0
 75
     2
 76
     1
 98
        0
  0
INSERT
  5
EE
330
1F
100
AcDbEntity
  8
_U+30EC_U+30A4_U+30E4_U+30FC 1
100
AcDbBlockReference
  2
block 4
 10
0.0
 20
0.0
 30
0.0
  0
POLYLINE
  5
F6
330
1F
100
AcDbEntity
  8
_U+30EC_U+30A4_U+30E4_U+30FC 1
370
     0
100
AcDb2dPolyline
 66
     1
 10
0.0
 20
0.0
 30
0.0
  0
VERTEX
  5
F7
330
F6
100
AcDbEntity
  8
_U+30EC_U+30A4_U+30E4_U+30FC 1
370
     0
100
AcDbVertex
100
AcDb2dVertex
 10
112.9795594674691
 20
-160.4182982149681
 30
0.0
  0
VERTEX
  5
F8
330
F6
100
AcDbEntity
  8
_U+30EC_U+30A4_U+30E4_U+30FC 1
370
     0
100
AcDbVertex
100
AcDb2dVertex
 10
107.7760872465477
 20
-160.4182982149681
 30
0.0
  0
VERTEX
  5
F9
330
F6
100
AcDbEntity
  8
_U+30EC_U+30A4_U+30E4_U+30FC 1
370
     0
100
AcDbVertex
100
AcDb2dVertex
 10
107.7760872465477
 20
-157.8606593267187
 30
0.0
  0
VERTEX
  5
FA
330
F6
100
AcDbEntity
  8
_U+30EC_U+30A4_U+30E4_U+30FC 1
370
     0
100
AcDbVertex
100
AcDb2dVertex
 10
112.9795594674691
 20
-157.8606593267187
 30
0.0
  0
VERTEX
  5
FB
330
F6
100
AcDbEntity
  8
_U+30EC_U+30A4_U+30E4_U+30FC 1
370
     0
100
AcDbVertex
100
AcDb2dVertex
 10
112.9795594674691
 20
-160.4182982149681
 30
0.0
  0
SEQEND
  5
FD
330
F6
100
AcDbEntity
  8
_U+30EC_U+30A4_U+30E4_U+30FC 1
370
     0
  0
HATCH
  5
FC
330
1F
100
AcDbEntity
  8
_U+30EC_U+30A4_U+30E4_U+30FC 1
 62
     7
420
 16711422
100
AcDbHatch
 10
0.0
 20
0.0
 30
0.0
210
0.0
220
0.0
230
1.0
  2
SOLID
 70
     1
 71
     0
 91
        1
 92
        1
 93
        4
 72
     1
 10
112.9795594674691
 20
-160.4182982149681
 11
107.7760872465477
 21
-160.4182982149681
 72
     1
 10
107.7760872465477
 20
-160.4182982149681
 11
107.7760872465477
 21
-157.8606593267187
 72
     1
 10
107.7760872465477
 20
-157.8606593267187
 11
112.9795594674691
 21
-157.8606593267187
 72
     1
 10
112.9795594674691
 20
-157.8606593267187
 11
112.9795594674691
 21
-160.4182982149681
 97
        0
 75
     2
 76
     1
 98
        0
  0
INSERT
  5
FF
330
1F
100
AcDbEntity
  8
_U+30EC_U+30A4_U+30E4_U+30FC 1
100
AcDbBlockReference
  2
block 5
 10
0.0
 20
0.0
 30
0.0
  0
POLYLINE
  5
113
330
1F
100
AcDbEntity
  8
_U+30EC_U+30A4_U+30E4_U+30FC 1
370
     0
100
AcDb2dPolyline
 66
     1
 10
0.0
 20
0.0
 30
0.0
  0
VERTEX
  5
114
330
113
100
AcDbEntity
  8
_U+30EC_U+30A4_U+30E4_U+30FC 1
370
     0
100
AcDbVertex
100
AcDb2dVertex
 10
103.3663542595045
 20
-160.4182982149681
 30
0.0
  0
VERTEX
  5
115
330
113
100
AcDbEntity
  8
_U+30EC_U+30A4_U+30E4_U+30FC 1
370
     0
100
AcDbVertex
100
AcDb2dVertex
 10
98.1628820385832
 20
-160.4182982149681
 30
0.0
  0
VERTEX
  5
116
330
113
100
AcDbEntity
  8
_U+30EC_U+30A4_U+30E4_U+30FC 1
370
     0
100
AcDbVertex
100
AcDb2dVertex
 10
98.1628820385832
 20
-157.8606593267187
 30
0.0
  0
VERTEX
  5
117
330
113
100
AcDbEntity
  8
_U+30EC_U+30A4_U+30E4_U+30FC 1
370
     0
100
AcDbVertex
100
AcDb2dVertex
 10
103.3663542595045
 20
-157.8606593267187
 30
0.0
  0
VERTEX
  5
118
330
113
100
AcDbEntity
  8
_U+30EC_U+30A4_U+30E4_U+30FC 1
370
     0
100
AcDbVertex
100
AcDb2dVertex
 10
103.3663542595045
 20
-160.4182982149681
 30
0.0
  0
SEQEND
  5
11A
330
113
100
AcDbEntity
  8
_U+30EC_U+30A4_U+30E4_U+30FC 1
370
     0
  0
HATCH
  5
119
330
1F
100
AcDbEntity
  8
_U+30EC_U+30A4_U+30E4_U+30FC 1
 62
     7
420
 16711422
100
AcDbHatch
 10
0.0
 20
0.0
 30
0.0
210
0.0
220
0.0
230
1.0
  2
SOLID
 70
     1
 71
     0
 91
        1
 92
        1
 93
        4
 72
     1
 10
103.3663542595045
 20
-160.4182982149681
 11
98.1628820385832
 21
-160.4182982149681
 72
     1
 10
98.1628820385832
 20
-160.4182982149681
 11
98.1628820385832
 21
-157.8606593267187
 72
     1
 10
98.1628820385832
 20
-157.8606593267187
 11
103.3663542595045
 21
-157.8606593267187
 72
     1
 10
103.3663542595045
 20
-157.8606593267187
 11
103.3663542595045
 21
-160.4182982149681
 97
        0
 75
     2
 76
     1
 98
        0
  0
INSERT
  5
11C
330
1F
100
AcDbEntity
  8
_U+30EC_U+30A4_U+30E4_U+30FC 1
100
AcDbBlockReference
  2
block 6
 10
0.0
 20
0.0
 30
0.0
  0
ENDSEC
  0
SECTION
  2
OBJECTS
  0
DICTIONARY
  5
C
330
0
100
AcDbDictionary
281
     1
  3
ACAD_GROUP
350
D
  3
ACAD_LAYOUT
350
1A
  3
ACAD_MATERIAL
350
3B
  3
ACAD_MLEADERSTYLE
350
131
  3
ACAD_MLINESTYLE
350
17
  3
ACAD_PLOTSETTINGS
350
19
  3
ACAD_PLOTSTYLENAME
350
E
  3
ACAD_TABLESTYLE
350
130
  3
ACAD_VISUALSTYLE
350
2A
  0
SUN
  5
3F
330
29
100
AcDbSun
 90
        1
290
     0
 63
     7
421
 16777215
 40
1.0
291
     1
 91
  2455826
 92
 54000000
292
     0
 70
     2
 71
   256
280
     1
  0
DICTIONARY
  5
D
102
{ACAD_REACTORS
330
C
102
}
330
C
100
AcDbDictionary
281
     1
  0
DICTIONARY
  5
1A
102
{ACAD_REACTORS
330
C
102
}
330
C
100
AcDbDictionary
281
     1
  3
Layout1
350
1E
  3
Layout2
350
26
  3
Model
350
22
  0
DICTIONARY
  5
3B
102
{ACAD_REACTORS
330
C
102
}
330
C
100
AcDbDictionary
281
     1
  3
ByBlock
350
3D
  3
ByLayer
350
3C
  3
Global
350
3E
  0
DICTIONARY
  5
131
102
{ACAD_REACTORS
330
C
102
}
330
C
100
AcDbDictionary
281
     1
  0
DICTIONARY
  5
17
102
{ACAD_REACTORS
330
C
102
}
330
C
100
AcDbDictionary
281
     1
  3
Standard
350
18
  0
DICTIONARY
  5
19
102
{ACAD_REACTORS
330
C
102
}
330
C
100
AcDbDictionary
281
     1
  0
ACDBDICTIONARYWDFLT
  5
E
102
{ACAD_REACTORS
330
C
102
}
330
C
100
AcDbDictionary
281
     1
  3
Normal
350
F
100
AcDbDictionaryWithDefault
340
F
  0
DICTIONARY
  5
130
102
{ACAD_REACTORS
330
C
102
}
330
C
100
AcDbDictionary
281
     1
  0
DICTIONARY
  5
2A
102
{ACAD_REACTORS
330
C
102
}
330
C
100
AcDbDictionary
281
     1
  3
2dWireframe
350
2F
  3
3D Hidden
350
31
  3
3dWireframe
350
30
  3
Basic
350
32
  3
Brighten
350
36
  3
ColorChange
350
3A
  3
Conceptual
350
34
  3
Dim
350
35
  3
Facepattern
350
39
  3
Flat
350
2B
  3
FlatWithEdges
350
2C
  3
Gouraud
350
2D
  3
GouraudWithEdges
350
2E
  3
Linepattern
350
38
  3
Realistic
350
33
  3
Thicken
350
37
  0
LAYOUT
  5
1E
102
{ACAD_REACTORS
330
1A
102
}
330
1A
100
AcDbPlotSettings
  1

  2
none_device
  4

  6

 40
0.0
 41
0.0
 42
0.0
 43
0.0
 44
0.0
 45
0.0
 46
0.0
 47
0.0
 48
0.0
 49
0.0
140
0.0
141
0.0
142
1.0
143
1.0
 70
   688
 72
     0
 73
     0
 74
     5
  7

 75
    16
 76
     0
 77
     2
 78
   300
147
1.0
148
0.0
149
0.0
100
AcDbLayout
  1
Layout1
 70
     1
 71
     1
 10
0.0
 20
0.0
 11
12.0
 21
9.0
 12
0.0
 22
0.0
 32
0.0
 14
1.000000000000000E+20
 24
1.000000000000000E+20
 34
1.000000000000000E+20
 15
-1.000000000000000E+20
 25
-1.000000000000000E+20
 35
-1.000000000000000E+20
146
0.0
 13
0.0
 23
0.0
 33
0.0
 16
1.0
 26
0.0
 36
0.0
 17
0.0
 27
1.0
 37
0.0
 76
     0
330
1B
  0
LAYOUT
  5
26
102
{ACAD_REACTORS
330
1A
102
}
330
1A
100
AcDbPlotSettings
  1

  2
none_device
  4

  6

 40
0.0
 41
0.0
 42
0.0
 43
0.0
 44
0.0
 45
0.0
 46
0.0
 47
0.0
 48
0.0
 49
0.0
140
0.0
141
0.0
142
1.0
143
1.0
 70
   688
 72
     0
 73
     0
 74
     5
  7

 75
    16
 76
     0
 77
     2
 78
   300
147
1.0
148
0.0
149
0.0
100
AcDbLayout
  1
Layout2
 70
     1
 71
     2
 10
0.0
 20
0.0
 11
0.0
 21
0.0
 12
0.0
 22
0.0
 32
0.0
 14
0.0
 24
0.0
 34
0.0
 15
0.0
 25
0.0
 35
0.0
146
0.0
 13
0.0
 23
0.0
 33
0.0
 16
1.0
 26
0.0
 36
0.0
 17
0.0
 27
1.0
 37
0.0
 76
     0
330
23
  0
LAYOUT
  5
22
102
{ACAD_REACTORS
330
1A
102
}
330
1A
100
AcDbPlotSettings
  1

  2
none_device
  4

  6

 40
0.0
 41
0.0
 42
0.0
 43
0.0
 44
0.0
 45
0.0
 46
0.0
 47
0.0
 48
0.0
 49
0.0
140
0.0
141
0.0
142
1.0
143
1.0
 70
  1712
 72
     0
 73
     0
 74
     0
  7

 75
     0
 76
     0
 77
     2
 78
   300
147
1.0
148
0.0
149
0.0
100
AcDbLayout
  1
Model
 70
     1
 71
     0
 10
0.0
 20
0.0
 11
12.0
 21
9.0
 12
0.0
 22
0.0
 32
0.0
 14
1.000000000000000E+20
 24
1.000000000000000E+20
 34
1.000000000000000E+20
 15
-1.000000000000000E+20
 25
-1.000000000000000E+20
 35
-1.000000000000000E+20
146
0.0
 13
0.0
 23
0.0
 33
0.0
 16
1.0
 26
0.0
 36
0.0
 17
0.0
 27
1.0
 37
0.0
 76
     0
330
1F
331
29
  0
MATERIAL
  5
3D
102
{ACAD_REACTORS
330
3B
102
}
330
3B
100
AcDbMaterial
  1
ByBlock
 72
     1
 94
      127
  0
MATERIAL
  5
3C
102
{ACAD_REACTORS
330
3B
102
}
330
3B
100
AcDbMaterial
  1
ByLayer
 72
     1
 94
      127
  0
MATERIAL
  5
3E
102
{ACAD_REACTORS
330
3B
102
}
330
3B
100
AcDbMaterial
  1
Global
 72
     1
 94
      127
  0
MLINESTYLE
  5
18
102
{ACAD_REACTORS
330
17
102
}
330
17
100
AcDbMlineStyle
  2
Standard
 70
     0
  3

 62
   256
 51
90.0
 52
90.0
 71
     2
 49
0.5
 62
   256
  6
BYLAYER
 49
-0.5
 62
   256
  6
BYLAYER
  0
ACDBPLACEHOLDER
  5
F
102
{ACAD_REACTORS
330
E
102
}
330
E
  0
VISUALSTYLE
  5
2F
102
{ACAD_REACTORS
330
2A
102
}
330
2A
100
AcDbVisualStyle
  2
2dWireframe
 70
     4
177
     2
291
     0
 71
     0
176
     1
 72
     2
176
     1
 73
     0
176
     1
 90
        0
176
     1
 40
-0.6
176
     1
 41
-30.0
176
     1
 62
     5
 63
     7
421
 16777215
176
     1
 74
     1
176
     1
 91
        4
176
     1
 64
     7
176
     1
 65
   257
176
     1
 75
     1
176
     1
175
     1
176
     1
 42
1.0
176
     1
 92
        0
176
     1
 66
   257
176
     1
 43
1.0
176
     1
 76
     1
176
     1
 77
     6
176
     1
 78
     2
176
     1
 67
     7
176
     1
 79
     5
176
     1
170
     0
176
     1
171
     0
176
     1
290
     0
176
     1
 93
        1
176
     1
 44
0.0
176
     1
173
     0
176
     1
  0
VISUALSTYLE
  5
31
102
{ACAD_REACTORS
330
2A
102
}
330
2A
100
AcDbVisualStyle
  2
3D Hidden
 70
     6
177
     2
291
     0
 71
     1
176
     1
 72
     2
176
     1
 73
     2
176
     1
 90
        0
176
     1
 40
-0.6
176
     1
 41
-30.0
176
     1
 62
     5
 63
     7
421
 16777215
176
     1
 74
     2
176
     1
 91
        2
176
     1
 64
     7
176
     1
 65
   257
176
     1
 75
     2
176
     1
175
     1
176
     1
 42
40.0
176
     1
 92
        0
176
     1
 66
   257
176
     1
 43
1.0
176
     1
 76
     1
176
     1
 77
     6
176
     1
 78
     2
176
     1
 67
     7
176
     1
 79
     3
176
     1
170
     0
176
     1
171
     0
176
     1
290
     0
176
     1
 93
        1
176
     1
 44
0.0
176
     1
173
     0
176
     1
  0
VISUALSTYLE
  5
30
102
{ACAD_REACTORS
330
2A
102
}
330
2A
100
AcDbVisualStyle
  2
3dWireframe
 70
     5
177
     2
291
     0
 71
     0
176
     1
 72
     2
176
     1
 73
     0
176
     1
 90
        0
176
     1
 40
-0.6
176
     1
 41
-30.0
176
     1
 62
     5
 63
     7
421
 16777215
176
     1
 74
     1
176
     1
 91
        4
176
     1
 64
     7
176
     1
 65
   257
176
     1
 75
     1
176
     1
175
     1
176
     1
 42
1.0
176
     1
 92
        0
176
     1
 66
   257
176
     1
 43
1.0
176
     1
 76
     1
176
     1
 77
     6
176
     1
 78
     2
176
     1
 67
     7
176
     1
 79
     5
176
     1
170
     0
176
     1
171
     0
176
     1
290
     0
176
     1
 93
        1
176
     1
 44
0.0
176
     1
173
     0
176
     1
  0
VISUALSTYLE
  5
32
102
{ACAD_REACTORS
330
2A
102
}
330
2A
100
AcDbVisualStyle
  2
Basic
 70
     7
177
     2
291
     1
 71
     1
176
     1
 72
     0
176
     1
 73
     1
176
     1
 90
        0
176
     1
 40
-0.6
176
     1
 41
-30.0
176
     1
 62
     5
 63
     7
421
 16777215
176
     1
 74
     0
176
     1
 91
        4
176
     1
 64
     7
176
     1
 65
   257
176
     1
 75
     1
176
     1
175
     1
176
     1
 42
1.0
176
     1
 92
        8
176
     1
 66
     7
176
     1
 43
1.0
176
     1
 76
     1
176
     1
 77
     6
176
     1
 78
     2
176
     1
 67
     7
176
     1
 79
     5
176
     1
170
     0
176
     1
171
     0
176
     1
290
     0
176
     1
 93
        1
176
     1
 44
0.0
176
     1
173
     0
176
     1
  0
VISUALSTYLE
  5
36
102
{ACAD_REACTORS
330
2A
102
}
330
2A
100
AcDbVisualStyle
  2
Brighten
 70
    12
177
     2
291
     1
 71
     2
176
     1
 72
     2
176
     1
 73
     0
176
     1
 90
        0
176
     1
 40
-0.6
176
     1
 41
-30.0
176
     1
 62
     5
 63
     7
421
 16777215
176
     1
 74
     1
176
     1
 91
        4
176
     1
 64
     7
176
     1
 65
   257
176
     1
 75
     1
176
     1
175
     1
176
     1
 42
1.0
176
     1
 92
        8
176
     1
 66
     7
176
     1
 43
1.0
176
     1
 76
     1
176
     1
 77
     6
176
     1
 78
     2
176
     1
 67
     7
176
     1
 79
     5
176
     1
170
     0
176
     1
171
     0
176
     1
290
     0
176
     1
 93
        1
176
     1
 44
50.0
176
     1
173
     0
176
     1
  0
VISUALSTYLE
  5
3A
102
{ACAD_REACTORS
330
2A
102
}
330
2A
100
AcDbVisualStyle
  2
ColorChange
 70
    16
177
     2
291
     1
 71
     2
176
     1
 72
     2
176
     1
 73
     3
176
     1
 90
        0
176
     1
 40
-0.6
176
     1
 41
-30.0
176
     1
 62
     5
 63
     8
421
  8421504
176
     1
 74
     1
176
     1
 91
        4
176
     1
 64
     7
176
     1
 65
   257
176
     1
 75
     1
176
     1
175
     1
176
     1
 42
1.0
176
     1
 92
        8
176
     1
 66
     8
424
  8421504
176
     1
 43
1.0
176
     1
 76
     1
176
     1
 77
     6
176
     1
 78
     2
176
     1
 67
     7
176
     1
 79
     5
176
     1
170
     0
176
     1
171
     0
176
     1
290
     0
176
     1
 93
        1
176
     1
 44
0.0
176
     1
173
     0
176
     1
  0
VISUALSTYLE
  5
34
102
{ACAD_REACTORS
330
2A
102
}
330
2A
100
AcDbVisualStyle
  2
Conceptual
 70
     9
177
     2
291
     0
 71
     3
176
     1
 72
     2
176
     1
 73
     0
176
     1
 90
        0
176
     1
 40
-0.6
176
     1
 41
-30.0
176
     1
 62
     5
 63
     7
421
 16777215
176
     1
 74
     2
176
     1
 91
        2
176
     1
 64
     7
176
     1
 65
   257
176
     1
 75
     1
176
     1
175
     1
176
     1
 42
40.0
176
     1
 92
        8
176
     1
 66
     7
176
     1
 43
1.0
176
     1
 76
     1
176
     1
 77
     6
176
     1
 78
     2
176
     1
 67
     7
176
     1
 79
     3
176
     1
170
     0
176
     1
171
     0
176
     1
290
     0
176
     1
 93
        1
176
     1
 44
0.0
176
     1
173
     0
176
     1
  0
VISUALSTYLE
  5
35
102
{ACAD_REACTORS
330
2A
102
}
330
2A
100
AcDbVisualStyle
  2
Dim
 70
    11
177
     2
291
     1
 71
     2
176
     1
 72
     2
176
     1
 73
     0
176
     1
 90
        0
176
     1
 40
-0.6
176
     1
 41
-30.0
176
     1
 62
     5
 63
     7
421
 16777215
176
     1
 74
     1
176
     1
 91
        4
176
     1
 64
     7
176
     1
 65
   257
176
     1
 75
     1
176
     1
175
     1
176
     1
 42
1.0
176
     1
 92
        8
176
     1
 66
     7
176
     1
 43
1.0
176
     1
 76
     1
176
     1
 77
     6
176
     1
 78
     2
176
     1
 67
     7
176
     1
 79
     5
176
     1
170
     0
176
     1
171
     0
176
     1
290
     0
176
     1
 93
        1
176
     1
 44
-50.0
176
     1
173
     0
176
     1
  0
VISUALSTYLE
  5
39
102
{ACAD_REACTORS
330
2A
102
}
330
2A
100
AcDbVisualStyle
  2
Facepattern
 70
    15
177
     2
291
     1
 71
     2
176
     1
 72
     2
176
     1
 73
     0
176
     1
 90
        0
176
     1
 40
-0.6
176
     1
 41
-30.0
176
     1
 62
     5
 63
     7
421
 16777215
176
     1
 74
     1
176
     1
 91
        4
176
     1
 64
     7
176
     1
 65
   257
176
     1
 75
     1
176
     1
175
     1
176
     1
 42
1.0
176
     1
 92
        8
176
     1
 66
     7
176
     1
 43
1.0
176
     1
 76
     1
176
     1
 77
     6
176
     1
 78
     2
176
     1
 67
     7
176
     1
 79
     5
176
     1
170
     0
176
     1
171
     0
176
     1
290
     0
176
     1
 93
        1
176
     1
 44
0.0
176
     1
173
     0
176
     1
  0
VISUALSTYLE
  5
2B
102
{ACAD_REACTORS
330
2A
102
}
330
2A
100
AcDbVisualStyle
  2
Flat
 70
     0
177
     2
291
     1
 71
     2
176
     1
 72
     1
176
     1
 73
     1
176
     1
 90
        2
176
     1
 40
-0.6
176
     1
 41
30.0
176
     1
 62
     5
 63
     7
421
 16777215
176
     1
 74
     0
176
     1
 91
        4
176
     1
 64
     7
176
     1
 65
   257
176
     1
 75
     1
176
     1
175
     1
176
     1
 42
1.0
176
     1
 92
        8
176
     1
 66
     7
176
     1
 43
1.0
176
     1
 76
     1
176
     1
 77
     6
176
     1
 78
     2
176
     1
 67
     7
176
     1
 79
     5
176
     1
170
     0
176
     1
171
     0
176
     1
290
     0
176
     1
 93
       13
176
     1
 44
0.0
176
     1
173
     0
176
     1
  0
VISUALSTYLE
  5
2C
102
{ACAD_REACTORS
330
2A
102
}
330
2A
100
AcDbVisualStyle
  2
FlatWithEdges
 70
     1
177
     2
291
     1
 71
     2
176
     1
 72
     1
176
     1
 73
     1
176
     1
 90
        2
176
     1
 40
-0.6
176
     1
 41
30.0
176
     1
 62
     5
 63
     7
421
 16777215
176
     1
 74
     1
176
     1
 91
        4
176
     1
 64
     7
176
     1
 65
   257
176
     1
 75
     1
176
     1
175
     1
176
     1
 42
1.0
176
     1
 92
        0
176
     1
 66
   257
176
     1
 43
1.0
176
     1
 76
     1
176
     1
 77
     6
176
     1
 78
     2
176
     1
 67
     7
176
     1
 79
     5
176
     1
170
     0
176
     1
171
     0
176
     1
290
     0
176
     1
 93
       13
176
     1
 44
0.0
176
     1
173
     0
176
     1
  0
VISUALSTYLE
  5
2D
102
{ACAD_REACTORS
330
2A
102
}
330
2A
100
AcDbVisualStyle
  2
Gouraud
 70
     2
177
     2
291
     1
 71
     2
176
     1
 72
     2
176
     1
 73
     1
176
     1
 90
        2
176
     1
 40
-0.6
176
     1
 41
30.0
176
     1
 62
     5
 63
     7
421
 16777215
176
     1
 74
     0
176
     1
 91
        4
176
     1
 64
     7
176
     1
 65
   257
176
     1
 75
     1
176
     1
175
     1
176
     1
 42
1.0
176
     1
 92
        0
176
     1
 66
     7
176
     1
 43
1.0
176
     1
 76
     1
176
     1
 77
     6
176
     1
 78
     2
176
     1
 67
     7
176
     1
 79
     5
176
     1
170
     0
176
     1
171
     0
176
     1
290
     0
176
     1
 93
       13
176
     1
 44
0.0
176
     1
173
     0
176
     1
  0
VISUALSTYLE
  5
2E
102
{ACAD_REACTORS
330
2A
102
}
330
2A
100
AcDbVisualStyle
  2
GouraudWithEdges
 70
     3
177
     2
291
     1
 71
     2
176
     1
 72
     2
176
     1
 73
     1
176
     1
 90
        2
176
     1
 40
-0.6
176
     1
 41
30.0
176
     1
 62
     5
 63
     7
421
 16777215
176
     1
 74
     1
176
     1
 91
        4
176
     1
 64
     7
176
     1
 65
   257
176
     1
 75
     1
176
     1
175
     1
176
     1
 42
1.0
176
     1
 92
        0
176
     1
 66
   257
176
     1
 43
1.0
176
     1
 76
     1
176
     1
 77
     6
176
     1
 78
     2
176
     1
 67
     7
176
     1
 79
     5
176
     1
170
     0
176
     1
171
     0
176
     1
290
     0
176
     1
 93
       13
176
     1
 44
0.0
176
     1
173
     0
176
     1
  0
VISUALSTYLE
  5
38
102
{ACAD_REACTORS
330
2A
102
}
330
2A
100
AcDbVisualStyle
  2
Linepattern
 70
    14
177
     2
291
     1
 71
     2
176
     1
 72
     2
176
     1
 73
     0
176
     1
 90
        0
176
     1
 40
-0.6
176
     1
 41
-30.0
176
     1
 62
     5
 63
     7
421
 16777215
176
     1
 74
     1
176
     1
 91
        4
176
     1
 64
     7
176
     1
 65
   257
176
     1
 75
     7
176
     1
175
     7
176
     1
 42
1.0
176
     1
 92
        8
176
     1
 66
     7
176
     1
 43
1.0
176
     1
 76
     1
176
     1
 77
     6
176
     1
 78
     2
176
     1
 67
     7
176
     1
 79
     5
176
     1
170
     0
176
     1
171
     0
176
     1
290
     0
176
     1
 93
        1
176
     1
 44
0.0
176
     1
173
     0
176
     1
  0
VISUALSTYLE
  5
33
102
{ACAD_REACTORS
330
2A
102
}
330
2A
100
AcDbVisualStyle
  2
Realistic
 70
     8
177
     2
291
     0
 71
     2
176
     1
 72
     2
176
     1
 73
     0
176
     1
 90
        0
176
     1
 40
-0.6
176
     1
 41
-30.0
176
     1
 62
     5
 63
     7
421
 16777215
176
     1
 74
     1
176
     1
 91
        0
176
     1
 64
     7
176
     1
 65
   257
176
     1
 75
     1
176
     1
175
     1
176
     1
 42
1.0
176
     1
 92
        8
176
     1
 66
     8
424
  7895160
176
     1
 43
1.0
176
     1
 76
     1
176
     1
 77
     6
176
     1
 78
     2
176
     1
 67
     7
176
     1
 79
     5
176
     1
170
     0
176
     1
171
     0
176
     1
290
     0
176
     1
 93
       13
176
     1
 44
0.0
176
     1
173
     0
176
     1
  0
VISUALSTYLE
  5
37
102
{ACAD_REACTORS
330
2A
102
}
330
2A
100
AcDbVisualStyle
  2
Thicken
 70
    13
177
     2
291
     1
 71
     2
176
     1
 72
     2
176
     1
 73
     0
176
     1
 90
        0
176
     1
 40
-0.6
176
     1
 41
-30.0
176
     1
 62
     5
 63
     7
421
 16777215
176
     1
 74
     1
176
     1
 91
        4
176
     1
 64
     7
176
     1
 65
   257
176
     1
 75
     1
176
     1
175
     1
176
     1
 42
1.0
176
     1
 92
       12
176
     1
 66
     7
176
     1
 43
1.0
176
     1
 76
     1
176
     1
 77
     6
176
     1
 78
     2
176
     1
 67
     7
176
     1
 79
     5
176
     1
170
     0
176
     1
171
     0
176
     1
290
     0
176
     1
 93
        1
176
     1
 44
0.0
176
     1
173
     0
176
     1
  0
ENDSEC
  0
EOF
