  0
SECTION
  2
HEADER
  9
$ACADVER
  1
AC1024
  9
$ACADMAINTVER
 70
     6
  9
$DWGCODEPAGE
  3
UNDEFINED
  9
$INSBASE
 10
0.0
 20
0.0
 30
0.0
  9
$EXTMIN
 10
1.000000000000000E+20
 20
1.000000000000000E+20
 30
1.000000000000000E+20
  9
$EXTMAX
 10
-1.000000000000000E+20
 20
-1.000000000000000E+20
 30
-1.000000000000000E+20
  9
$LIMMIN
 10
0.0
 20
0.0
  9
$LIMMAX
 10
12.0
 20
9.0
  9
$ORTHOMODE
 70
     0
  9
$REGENMODE
 70
     1
  9
$FILLMODE
 70
     1
  9
$QTEXTMODE
 70
     0
  9
$MIRRTEXT
 70
     1
  9
$LTSCALE
 40
1.0
  9
$ATTMODE
 70
     1
  9
$TEXTSIZE
 40
0.2
  9
$TRACEWID
 40
0.05
  9
$TEXTSTYLE
  7
Standard
  9
$CLAYER
  8
0
  9
$CELTYPE
  6
ByLayer
  9
$CECOLOR
 62
   256
  9
$CELTSCALE
 40
1.0
  9
$DISPSILH
 70
     0
  9
$DIMSCALE
 40
1.0
  9
$DIMASZ
 40
0.18
  9
$DIMEXO
 40
0.0625
  9
$DIMDLI
 40
0.38
  9
$DIMRND
 40
0.0
  9
$DIMDLE
 40
0.0
  9
$DIMEXE
 40
0.18
  9
$DIMTP
 40
0.0
  9
$DIMTM
 40
0.0
  9
$DIMTXT
 40
0.18
  9
$DIMCEN
 40
0.09
  9
$DIMTSZ
 40
0.0
  9
$DIMTOL
 70
     0
  9
$DIMLIM
 70
     0
  9
$DIMTIH
 70
     1
  9
$DIMTOH
 70
     1
  9
$DIMSE1
 70
     0
  9
$DIMSE2
 70
     0
  9
$DIMTAD
 70
     0
  9
$DIMZIN
 70
     0
  9
$DIMBLK
  1

  9
$DIMASO
 70
     1
  9
$DIMSHO
 70
     1
  9
$DIMPOST
  1

  9
$DIMAPOST
  1

  9
$DIMALT
 70
     0
  9
$DIMALTD
 70
     2
  9
$DIMALTF
 40
25.4
  9
$DIMLFAC
 40
1.0
  9
$DIMTOFL
 70
     0
  9
$DIMTVP
 40
0.0
  9
$DIMTIX
 70
     0
  9
$DIMSOXD
 70
     0
  9
$DIMSAH
 70
     0
  9
$DIMBLK1
  1

  9
$DIMBLK2
  1

  9
$DIMSTYLE
  2
Standard
  9
$DIMCLRD
 70
     0
  9
$DIMCLRE
 70
     0
  9
$DIMCLRT
 70
     0
  9
$DIMTFAC
 40
1.0
  9
$DIMGAP
 40
0.09
  9
$DIMJUST
 70
     0
  9
$DIMSD1
 70
     0
  9
$DIMSD2
 70
     0
  9
$DIMTOLJ
 70
     1
  9
$DIMTZIN
 70
     0
  9
$DIMALTZ
 70
     0
  9
$DIMALTTZ
 70
     0
  9
$DIMUPT
 70
     0
  9
$DIMDEC
 70
     4
  9
$DIMTDEC
 70
     4
  9
$DIMALTU
 70
     2
  9
$DIMALTTD
 70
     2
  9
$DIMTXSTY
  7
Standard
  9
$DIMAUNIT
 70
     0
  9
$DIMADEC
 70
     0
  9
$DIMALTRND
 40
0.0
  9
$DIMAZIN
 70
     0
  9
$DIMDSEP
 70
    46
  9
$DIMATFIT
 70
     3
  9
$DIMFRAC
 70
     0
  9
$DIMLDRBLK
  1

  9
$DIMLUNIT
 70
     2
  9
$DIMLWD
 70
    -2
  9
$DIMLWE
 70
    -2
  9
$DIMTMOVE
 70
     0
  9
$DIMFXL
 40
1.0
  9
$DIMFXLON
 70
     0
  9
$DIMJOGANG
 40
0.7853981633974483
  9
$DIMTFILL
 70
     0
  9
$DIMTFILLCLR
 70
     0
  9
$DIMARCSYM
 70
     0
  9
$DIMLTYPE
  6

  9
$DIMLTEX1
  6

  9
$DIMLTEX2
  6

  9
$DIMTXTDIRECTION
 70
     0
  9
$LUNITS
 70
     2
  9
$LUPREC
 70
     4
  9
$SKETCHINC
 40
0.1
  9
$FILLETRAD
 40
0.5
  9
$AUNITS
 70
     0
  9
$AUPREC
 70
     0
  9
$MENU
  1
.
  9
$ELEVATION
 40
0.0
  9
$PELEVATION
 40
0.0
  9
$THICKNESS
 40
0.0
  9
$LIMCHECK
 70
     0
  9
$CHAMFERA
 40
0.5
  9
$CHAMFERB
 40
0.5
  9
$CHAMFERC
 40
1.0
  9
$CHAMFERD
 40
0.0
  9
$SKPOLY
 70
     0
  9
$TDCREATE
 40
2457917.608599537
  9
$TDUCREATE
 40
2457917.233599537
  9
$TDUPDATE
 40
2457917.608599537
  9
$TDUUPDATE
 40
2457917.233599537
  9
$TDINDWG
 40
0.0000000116
  9
$TDUSRTIMER
 40
0.0000000116
  9
$USRTIMER
 70
     1
  9
$ANGBASE
 50
0.0
  9
$ANGDIR
 70
     0
  9
$PDMODE
 70
     0
  9
$PDSIZE
 40
0.0
  9
$PLINEWID
 40
0.0
  9
$SPLFRAME
 70
     0
  9
$SPLINETYPE
 70
     6
  9
$SPLINESEGS
 70
     8
  9
$HANDSEED
  5
E6
  9
$SURFTAB1
 70
     6
  9
$SURFTAB2
 70
     6
  9
$SURFTYPE
 70
     6
  9
$SURFU
 70
     6
  9
$SURFV
 70
     6
  9
$UCSBASE
  2

  9
$UCSNAME
  2

  9
$UCSORG
 10
0.0
 20
0.0
 30
0.0
  9
$UCSXDIR
 10
1.0
 20
0.0
 30
0.0
  9
$UCSYDIR
 10
0.0
 20
1.0
 30
0.0
  9
$UCSORTHOREF
  2

  9
$UCSORTHOVIEW
 70
     0
  9
$UCSORGTOP
 10
0.0
 20
0.0
 30
0.0
  9
$UCSORGBOTTOM
 10
0.0
 20
0.0
 30
0.0
  9
$UCSORGLEFT
 10
0.0
 20
0.0
 30
0.0
  9
$UCSORGRIGHT
 10
0.0
 20
0.0
 30
0.0
  9
$UCSORGFRONT
 10
0.0
 20
0.0
 30
0.0
  9
$UCSORGBACK
 10
0.0
 20
0.0
 30
0.0
  9
$PUCSBASE
  2

  9
$PUCSNAME
  2

  9
$PUCSORG
 10
0.0
 20
0.0
 30
0.0
  9
$PUCSXDIR
 10
1.0
 20
0.0
 30
0.0
  9
$PUCSYDIR
 10
0.0
 20
1.0
 30
0.0
  9
$PUCSORTHOREF
  2

  9
$PUCSORTHOVIEW
 70
     0
  9
$PUCSORGTOP
 10
0.0
 20
0.0
 30
0.0
  9
$PUCSORGBOTTOM
 10
0.0
 20
0.0
 30
0.0
  9
$PUCSORGLEFT
 10
0.0
 20
0.0
 30
0.0
  9
$PUCSORGRIGHT
 10
0.0
 20
0.0
 30
0.0
  9
$PUCSORGFRONT
 10
0.0
 20
0.0
 30
0.0
  9
$PUCSORGBACK
 10
0.0
 20
0.0
 30
0.0
  9
$USERI1
 70
     0
  9
$USERI2
 70
     0
  9
$USERI3
 70
     0
  9
$USERI4
 70
     0
  9
$USERI5
 70
     0
  9
$USERR1
 40
0.0
  9
$USERR2
 40
0.0
  9
$USERR3
 40
0.0
  9
$USERR4
 40
0.0
  9
$USERR5
 40
0.0
  9
$WORLDVIEW
 70
     1
  9
$SHADEDGE
 70
     3
  9
$SHADEDIF
 70
    70
  9
$TILEMODE
 70
     1
  9
$MAXACTVP
 70
    64
  9
$PINSBASE
 10
0.0
 20
0.0
 30
0.0
  9
$PLIMCHECK
 70
     0
  9
$PEXTMIN
 10
1.000000000000000E+20
 20
1.000000000000000E+20
 30
1.000000000000000E+20
  9
$PEXTMAX
 10
-1.000000000000000E+20
 20
-1.000000000000000E+20
 30
-1.000000000000000E+20
  9
$PLIMMIN
 10
0.0
 20
0.0
  9
$PLIMMAX
 10
12.0
 20
9.0
  9
$UNITMODE
 70
     0
  9
$VISRETAIN
 70
     1
  9
$PLINEGEN
 70
     0
  9
$PSLTSCALE
 70
     1
  9
$TREEDEPTH
 70
  3020
  9
$CMLSTYLE
  2
Standard
  9
$CMLJUST
 70
     0
  9
$CMLSCALE
 40
1.0
  9
$PROXYGRAPHICS
 70
     1
  9
$MEASUREMENT
 70
     0
  9
$CELWEIGHT
370
    -1
  9
$ENDCAPS
280
     0
  9
$JOINSTYLE
280
     0
  9
$LWDISPLAY
290
     1
  9
$INSUNITS
 70
     1
  9
$HYPERLINKBASE
  1

  9
$STYLESHEET
  1

  9
$XEDIT
290
     1
  9
$CEPSNTYPE
380
     0
  9
$PSTYLEMODE
290
     1
  9
$FINGERPRINTGUID
  2
{5EFB735A-18C5-82A0-9D8C-365338E4027C}
  9
$VERSIONGUID
  2
{FAEB1C32-E019-11D5-929B-00C0DF256EC4}
  9
$EXTNAMES
290
     1
  9
$PSVPSCALE
 40
0.0
  9
$OLESTARTUP
290
     0
  9
$SORTENTS
280
   127
  9
$INDEXCTL
280
     0
  9
$HIDETEXT
280
     1
  9
$XCLIPFRAME
280
     2
  9
$HALOGAP
280
     0
  9
$OBSCOLOR
 70
   257
  9
$OBSLTYPE
280
     0
  9
$INTERSECTIONDISPLAY
280
     0
  9
$INTERSECTIONCOLOR
 70
   257
  9
$DIMASSOC
280
     2
  9
$PROJECTNAME
  1

  9
$CAMERADISPLAY
290
     0
  9
$LENSLENGTH
 40
50.0
  9
$CAMERAHEIGHT
 40
0.0
  9
$STEPSPERSEC
 40
2.0
  9
$STEPSIZE
 40
6.0
  9
$3DDWFPREC
 40
2.0
  9
$PSOLWIDTH
 40
0.25
  9
$PSOLHEIGHT
 40
4.0
  9
$LOFTANG1
 40
1.570796326794897
  9
$LOFTANG2
 40
1.570796326794897
  9
$LOFTMAG1
 40
0.0
  9
$LOFTMAG2
 40
0.0
  9
$LOFTPARAM
 70
     7
  9
$LOFTNORMALS
280
     1
  9
$LATITUDE
 40
37.795
  9
$LONGITUDE
 40
-122.394
  9
$NORTHDIRECTION
 40
0.0
  9
$TIMEZONE
 70
 -8000
  9
$LIGHTGLYPHDISPLAY
280
     1
  9
$TILEMODELIGHTSYNCH
280
     1
  9
$CMATERIAL
347
3C
  9
$SOLIDHIST
280
     1
  9
$SHOWHIST
280
     1
  9
$DWFFRAME
280
     2
  9
$DGNFRAME
280
     2
  9
$REALWORLDSCALE
290
     1
  9
$INTERFERECOLOR
 62
   256
  9
$CSHADOW
280
     0
  9
$SHADOWPLANELOCATION
 40
0.0
  0
ENDSEC
  0
SECTION
  2
CLASSES
  0
CLASS
  1
ACDBDICTIONARYWDFLT
  2
AcDbDictionaryWithDefault
  3
ObjectDBX Classes
 90
        0
 91
        4
280
     0
281
     0
  0
CLASS
  1
VISUALSTYLE
  2
AcDbVisualStyle
  3
ObjectDBX Classes
 90
     4095
 91
        4
280
     0
281
     0
  0
CLASS
  1
MATERIAL
  2
AcDbMaterial
  3
ObjectDBX Classes
 90
     1153
 91
        4
280
     0
281
     0
  0
CLASS
  1
SUN
  2
AcDbSun
  3
SCENEOE
 90
     1024
 91
        4
280
     0
281
     0
  0
ENDSEC
  0
SECTION
  2
TABLES
  0
TABLE
  2
VPORT
  5
8
330
0
100
AcDbSymbolTable
 70
     1
  0
VPORT
  5
29
330
8
100
AcDbSymbolTableRecord
100
AcDbViewportTableRecord
  2
*Active
 70
     0
 10
0.0
 20
0.0
 11
1.0
 21
1.0
 12
0.0
 22
0.0
 13
0.0
 23
0.0
 14
0.5
 24
0.5
 15
0.5
 25
0.5
 16
0.0
 26
0.0
 36
1.0
 17
91.00082462281999
 27
-128.4993055234307
 37
0.0
 40
256.9986110468615
 41
0.7081814508812795
 42
50.0
 43
0.0
 44
0.0
 50
0.0
 51
0.0
 71
     0
 72
   100
 73
     1
 74
     3
 75
     0
 76
     0
 77
     0
 78
     0
281
     0
 65
     1
110
0.0
120
0.0
130
0.0
111
1.0
121
0.0
131
0.0
112
0.0
122
1.0
132
0.0
 79
     0
146
0.0
 60
     3
 61
     5
292
     1
282
     1
141
0.0
142
0.0
 63
   250
361
3F
  0
ENDTAB
  0
TABLE
  2
LTYPE
  5
5
330
0
100
AcDbSymbolTable
 70
     1
  0
LTYPE
  5
14
330
5
100
AcDbSymbolTableRecord
100
AcDbLinetypeTableRecord
  2
ByBlock
 70
     0
  3

 72
    65
 73
     0
 40
0.0
  0
LTYPE
  5
15
330
5
100
AcDbSymbolTableRecord
100
AcDbLinetypeTableRecord
  2
ByLayer
 70
     0
  3

 72
    65
 73
     0
 40
0.0
  0
LTYPE
  5
16
330
5
100
AcDbSymbolTableRecord
100
AcDbLinetypeTableRecord
  2
Continuous
 70
     0
  3
Solid line
 72
    65
 73
     0
 40
0.0
  0
ENDTAB
  0
TABLE
  2
LAYER
  5
2
330
0
100
AcDbSymbolTable
 70
     2
  0
LAYER
  5
10
330
2
100
AcDbSymbolTableRecord
100
AcDbLayerTableRecord
  2
0
 70
     0
 62
     7
  6
Continuous
370
    -3
390
F
347
3E
  0
LAYER
  5
40
330
2
100
AcDbSymbolTableRecord
100
AcDbLayerTableRecord
  2
_U+30EC_U+30A4_U+30E4_U+30FC 1
 70
     0
 62
     7
  6
Continuous
370
    -3
390
F
347
3E
  0
ENDTAB
  0
TABLE
  2
STYLE
  5
3
330
0
100
AcDbSymbolTable
 70
     1
  0
STYLE
  5
11
330
3
100
AcDbSymbolTableRecord
100
AcDbTextStyleTableRecord
  2
Standard
 70
     0
 40
0.0
 41
1.0
 50
0.0
 71
     0
 42
0.2
  3
txt
  4

  0
ENDTAB
  0
TABLE
  2
VIEW
  5
6
330
0
100
AcDbSymbolTable
 70
     0
  0
ENDTAB
  0
TABLE
  2
UCS
  5
7
330
0
100
AcDbSymbolTable
 70
     0
  0
ENDTAB
  0
TABLE
  2
APPID
  5
9
330
0
100
AcDbSymbolTable
 70
     1
  0
APPID
  5
12
330
9
100
AcDbSymbolTableRecord
100
AcDbRegAppTableRecord
  2
ACAD
 70
     0
  0
ENDTAB
  0
TABLE
  2
DIMSTYLE
  5
A
330
0
100
AcDbSymbolTable
 70
     1
100
AcDbDimStyleTable
  0
DIMSTYLE
105
27
330
A
100
AcDbSymbolTableRecord
100
AcDbDimStyleTableRecord
  2
Standard
 70
     0
178
     0
340
11
  0
ENDTAB
  0
TABLE
  2
BLOCK_RECORD
  5
1
330
0
100
AcDbSymbolTable
 70
     4
  0
BLOCK_RECORD
  5
1F
330
1
100
AcDbSymbolTableRecord
100
AcDbBlockTableRecord
  2
*Model_Space
340
22
 70
     0
280
     1
281
     0
  0
BLOCK_RECORD
  5
1B
330
1
100
AcDbSymbolTableRecord
100
AcDbBlockTableRecord
  2
*Paper_Space
340
1E
 70
     0
280
     1
281
     0
  0
BLOCK_RECORD
  5
23
330
1
100
AcDbSymbolTableRecord
100
AcDbBlockTableRecord
  2
*Paper_Space0
340
26
 70
     0
280
     1
281
     0
  0
BLOCK_RECORD
  5
B7
330
1
100
AcDbSymbolTableRecord
100
AcDbBlockTableRecord
  2
block 2
340
0
102
{BLKREFS
331
B8
102
}
 70
     0
280
     1
281
     0
  0
BLOCK_RECORD
  5
BF
330
1
100
AcDbSymbolTableRecord
100
AcDbBlockTableRecord
  2
block 3
340
0
102
{BLKREFS
331
C0
102
}
 70
     0
280
     1
281
     0
  0
BLOCK_RECORD
  5
D4
330
1
100
AcDbSymbolTableRecord
100
AcDbBlockTableRecord
  2
block 4
340
0
102
{BLKREFS
331
D5
102
}
 70
     0
280
     1
281
     0
  0
ENDTAB
  0
ENDSEC
  0
SECTION
  2
BLOCKS
  0
BLOCK
  5
20
330
1F
100
AcDbEntity
  8
0
100
AcDbBlockBegin
  2
*Model_Space
 70
     0
 10
0.0
 20
0.0
 30
0.0
  3
*Model_Space
  1

  0
ENDBLK
  5
21
330
1F
100
AcDbEntity
  8
0
100
AcDbBlockEnd
  0
BLOCK
  5
1C
330
1B
100
AcDbEntity
 67
     1
  8
0
100
AcDbBlockBegin
  2
*Paper_Space
 70
     0
 10
0.0
 20
0.0
 30
0.0
  3
*Paper_Space
  1

  0
ENDBLK
  5
1D
330
1B
100
AcDbEntity
 67
     1
  8
0
100
AcDbBlockEnd
  0
BLOCK
  5
24
330
23
100
AcDbEntity
  8
0
100
AcDbBlockBegin
  2
*Paper_Space0
 70
     0
 10
0.0
 20
0.0
 30
0.0
  3
*Paper_Space0
  1

  0
ENDBLK
  5
25
330
23
100
AcDbEntity
  8
0
100
AcDbBlockEnd
  0
BLOCK
  5
B9
330
B7
100
AcDbEntity
  8
0
100
AcDbBlockBegin
  2
block 2
 70
     0
 10
0.0
 20
0.0
 30
0.0
  3
block 2
  1

  0
SPLINE
  5
BB
330
B7
100
AcDbEntity
  8
_U+30EC_U+30A4_U+30E4_U+30FC 1
370
     0
100
AcDbSpline
210
0.0
220
0.0
230
1.0
 70
    11
 71
     3
 72
    44
 73
    40
 74
     0
 42
0.0000000001
 43
0.0000000001
 12
1.0
 22
0.0
 32
0.0
 13
1.0
 23
0.0
 33
0.0
 40
0.0
 40
0.0
 40
0.0
 40
0.0
 40
1.0
 40
1.0
 40
1.0
 40
2.0
 40
2.0
 40
2.0
 40
3.0
 40
3.0
 40
3.0
 40
4.0
 40
4.0
 40
4.0
 40
5.0
 40
5.0
 40
5.0
 40
6.0
 40
6.0
 40
6.0
 40
7.0
 40
7.0
 40
7.0
 40
8.0
 40
8.0
 40
8.0
 40
9.0
 40
9.0
 40
9.0
 40
10.0
 40
10.0
 40
10.0
 40
11.0
 40
11.0
 40
11.0
 40
12.0
 40
12.0
 40
12.0
 40
13.0
 40
13.0
 40
13.0
 40
13.0
 10
86.71322561851267
 20
-134.8761772666282
 30
0.0
 10
86.5275349718577
 20
-135.0346516589497
 30
0.0
 10
86.44829777569696
 20
-135.1090657214311
 30
0.0
 10
86.40695662987396
 20
-135.252726203166
 30
0.0
 10
86.40695662987396
 20
-135.252726203166
 30
0.0
 10
87.07048202033307
 20
-135.252726203166
 30
0.0
 10
87.07048202033307
 20
-135.252726203166
 30
0.0
 10
87.07048202033307
 20
-135.252726203166
 30
0.0
 10
87.07048202033307
 20
-135.4577093845384
 30
0.0
 10
87.07048202033307
 20
-135.4577093845384
 30
0.0
 10
87.07048202033307
 20
-135.4577093845384
 30
0.0
 10
86.19404972888552
 20
-135.4577093845384
 30
0.0
 10
86.19404972888552
 20
-135.4577093845384
 30
0.0
 10
86.22092147367047
 20
-135.1001084731694
 30
0.0
 10
86.27707653008004
 20
-135.0222493152028
 30
0.0
 10
86.60504962027582
 20
-134.7239040461801
 30
0.0
 10
86.82346867404067
 20
-134.5247775271327
 30
0.0
 10
86.87927922090171
 20
-134.4572536556218
 30
0.0
 10
86.87927922090171
 20
-134.3197943457603
 30
0.0
 10
86.87927922090171
 20
-134.2012830610677
 30
0.0
 10
86.81795652126426
 20
-134.0700249230797
 30
0.0
 10
86.65018037113259
 20
-134.0700249230797
 30
0.0
 10
86.42831622188251
 20
-134.0700249230797
 30
0.0
 10
86.42108152136349
 20
-134.3008463205915
 30
0.0
 10
86.41763642587823
 20
-134.4172905479929
 30
0.0
 10
86.41763642587823
 20
-134.4172905479929
 30
0.0
 10
86.22643362644686
 20
-134.4172905479929
 30
0.0
 10
86.22643362644686
 20
-134.4172905479929
 30
0.0
 10
86.2336683269659
 20
-134.2901665245872
 30
0.0
 10
86.24262557522754
 20
-134.1782009213166
 30
0.0
 10
86.31118297538401
 20
-134.059689636624
 30
0.0
 10
86.4048895725828
 20
-133.8988036774628
 30
0.0
 10
86.56370847445282
 20
-133.8646972321588
 30
0.0
 10
86.66292722442802
 20
-133.8646972321588
 30
0.0
 10
86.89926077471615
 20
-133.8646972321588
 30
0.0
 10
87.07599417310948
 20
-134.0490098406197
 30
0.0
 10
87.07599417310948
 20
-134.3218614030515
 30
0.0
 10
87.07599417310948
 20
-134.5502712337235
 30
0.0
 10
86.97677542313428
 20
-134.6498344932473
 30
0.0
 10
86.71322561851267
 20
-134.8761772666282
 30
0.0
  0
HATCH
  5
BC
330
B7
100
AcDbEntity
  8
_U+30EC_U+30A4_U+30E4_U+30FC 1
 62
   179
420
  2234388
100
AcDbHatch
 10
0.0
 20
0.0
 30
0.0
210
0.0
220
0.0
230
1.0
  2
SOLID
 70
     1
 71
     0
 91
        1
 92
        1
 93
        1
 72
     4
 94
        3
 73
     0
 74
     1
 95
       44
 96
       40
 40
0.0
 40
0.0
 40
0.0
 40
0.0
 40
1.0
 40
1.0
 40
1.0
 40
2.0
 40
2.0
 40
2.0
 40
3.0
 40
3.0
 40
3.0
 40
4.0
 40
4.0
 40
4.0
 40
5.0
 40
5.0
 40
5.0
 40
6.0
 40
6.0
 40
6.0
 40
7.0
 40
7.0
 40
7.0
 40
8.0
 40
8.0
 40
8.0
 40
9.0
 40
9.0
 40
9.0
 40
10.0
 40
10.0
 40
10.0
 40
11.0
 40
11.0
 40
11.0
 40
12.0
 40
12.0
 40
12.0
 40
13.0
 40
13.0
 40
13.0
 40
13.0
 10
86.71322561851267
 20
-134.8761772666282
 10
86.5275349718577
 20
-135.0346516589497
 10
86.44829777569696
 20
-135.1090657214311
 10
86.40695662987396
 20
-135.252726203166
 10
86.40695662987396
 20
-135.252726203166
 10
87.07048202033307
 20
-135.252726203166
 10
87.07048202033307
 20
-135.252726203166
 10
87.07048202033307
 20
-135.252726203166
 10
87.07048202033307
 20
-135.4577093845384
 10
87.07048202033307
 20
-135.4577093845384
 10
87.07048202033307
 20
-135.4577093845384
 10
86.19404972888552
 20
-135.4577093845384
 10
86.19404972888552
 20
-135.4577093845384
 10
86.22092147367047
 20
-135.1001084731694
 10
86.27707653008004
 20
-135.0222493152028
 10
86.60504962027582
 20
-134.7239040461801
 10
86.82346867404067
 20
-134.5247775271327
 10
86.87927922090171
 20
-134.4572536556218
 10
86.87927922090171
 20
-134.3197943457603
 10
86.87927922090171
 20
-134.2012830610677
 10
86.81795652126426
 20
-134.0700249230797
 10
86.65018037113259
 20
-134.0700249230797
 10
86.42831622188251
 20
-134.0700249230797
 10
86.42108152136349
 20
-134.3008463205915
 10
86.41763642587823
 20
-134.4172905479929
 10
86.41763642587823
 20
-134.4172905479929
 10
86.22643362644686
 20
-134.4172905479929
 10
86.22643362644686
 20
-134.4172905479929
 10
86.2336683269659
 20
-134.2901665245872
 10
86.24262557522754
 20
-134.1782009213166
 10
86.31118297538401
 20
-134.059689636624
 10
86.4048895725828
 20
-133.8988036774628
 10
86.56370847445282
 20
-133.8646972321588
 10
86.66292722442802
 20
-133.8646972321588
 10
86.89926077471615
 20
-133.8646972321588
 10
87.07599417310948
 20
-134.0490098406197
 10
87.07599417310948
 20
-134.3218614030515
 10
87.07599417310948
 20
-134.5502712337235
 10
86.97677542313428
 20
-134.6498344932473
 10
86.71322561851267
 20
-134.8761772666282
 97
        0
 97
        0
 75
     2
 76
     1
 98
        0
  0
SPLINE
  5
BD
330
B7
100
AcDbEntity
  8
_U+30EC_U+30A4_U+30E4_U+30FC 1
370
     0
100
AcDbSpline
210
0.0
220
0.0
230
1.0
 70
    11
 71
     3
 72
    53
 73
    49
 74
     0
 42
0.0000000001
 43
0.0000000001
 12
1.0
 22
0.0
 32
0.0
 13
1.0
 23
0.0
 33
0.0
 40
0.0
 40
0.0
 40
0.0
 40
0.0
 40
1.0
 40
1.0
 40
1.0
 40
2.0
 40
2.0
 40
2.0
 40
3.0
 40
3.0
 40
3.0
 40
4.0
 40
4.0
 40
4.0
 40
5.0
 40
5.0
 40
5.0
 40
6.0
 40
6.0
 40
6.0
 40
7.0
 40
7.0
 40
7.0
 40
8.0
 40
8.0
 40
8.0
 40
9.0
 40
9.0
 40
9.0
 40
10.0
 40
10.0
 40
10.0
 40
11.0
 40
11.0
 40
11.0
 40
12.0
 40
12.0
 40
12.0
 40
13.0
 40
13.0
 40
13.0
 40
14.0
 40
14.0
 40
14.0
 40
15.0
 40
15.0
 40
15.0
 40
16.0
 40
16.0
 40
16.0
 40
16.0
 10
87.6196302406819
 20
-135.5086967977201
 30
0.0
 10
87.55279538826805
 20
-135.5086967977201
 30
0.0
 10
87.46632349158828
 20
-135.4918158298423
 30
0.0
 10
87.37985159490852
 20
-135.4280815633652
 30
0.0
 10
87.23205699859129
 20
-135.3181830173857
 30
0.0
 10
87.21379799251947
 20
-135.1869248793977
 30
0.0
 10
87.1976060437388
 20
-135.0794379002579
 30
0.0
 10
87.1976060437388
 20
-135.0794379002579
 30
0.0
 10
87.38708629542754
 20
-135.0794379002579
 30
0.0
 10
87.38708629542754
 20
-135.0794379002579
 30
0.0
 10
87.43393959402694
 20
-135.2778754002083
 30
0.0
 10
87.54211559226378
 20
-135.3075032213815
 30
0.0
 10
87.62135278842453
 20
-135.3075032213815
 30
0.0
 10
87.74055309221417
 20
-135.3075032213815
 30
0.0
 10
87.8704331920081
 20
-135.2082844714063
 30
0.0
 10
87.8704331920081
 20
-134.9753960166034
 30
0.0
 10
87.8704331920081
 20
-134.7197699315979
 30
0.0
 10
87.71712644291448
 20
-134.6498344932473
 30
0.0
 10
87.6141180879055
 20
-134.6498344932473
 30
0.0
 10
87.58724634312055
 20
-134.6498344932473
 30
0.0
 10
87.46632349158828
 20
-134.6498344932473
 30
0.0
 10
87.39053139091278
 20
-134.7790255739441
 30
0.0
 10
87.39053139091278
 20
-134.7790255739441
 30
0.0
 10
87.24101424685294
 20
-134.7597330392267
 30
0.0
 10
87.24101424685294
 20
-134.7597330392267
 30
0.0
 10
87.24101424685294
 20
-134.7597330392267
 30
0.0
 10
87.3436780923134
 20
-133.9136175880494
 30
0.0
 10
87.3436780923134
 20
-133.9136175880494
 30
0.0
 10
87.3436780923134
 20
-133.9136175880494
 30
0.0
 10
88.00720348277251
 20
-133.9136175880494
 30
0.0
 10
88.00720348277251
 20
-133.9136175880494
 30
0.0
 10
88.00720348277251
 20
-133.9136175880494
 30
0.0
 10
88.00720348277251
 20
-134.108265482966
 30
0.0
 10
88.00720348277251
 20
-134.108265482966
 30
0.0
 10
88.00720348277251
 20
-134.108265482966
 30
0.0
 10
87.48251544036896
 20
-134.108265482966
 30
0.0
 10
87.48251544036896
 20
-134.108265482966
 30
0.0
 10
87.48251544036896
 20
-134.108265482966
 30
0.0
 10
87.42670489350792
 20
-134.5313232085547
 30
0.0
 10
87.42670489350792
 20
-134.5313232085547
 30
0.0
 10
87.47907034488371
 20
-134.4972167632507
 30
0.0
 10
87.5493502927828
 20
-134.4572536556218
 30
0.0
 10
87.65029159050063
 20
-134.4572536556218
 30
0.0
 10
87.86664358697432
 20
-134.4572536556218
 30
0.0
 10
88.06852618240995
 20
-134.6432888118253
 30
0.0
 10
88.06852618240995
 20
-134.9564479914345
 30
0.0
 10
88.06852618240995
 20
-135.273741285626
 30
0.0
 10
87.87766789252711
 20
-135.5086967977201
 30
0.0
 10
87.6196302406819
 20
-135.5086967977201
 30
0.0
  0
HATCH
  5
BE
330
B7
100
AcDbEntity
  8
_U+30EC_U+30A4_U+30E4_U+30FC 1
 62
   179
420
  2234388
100
AcDbHatch
 10
0.0
 20
0.0
 30
0.0
210
0.0
220
0.0
230
1.0
  2
SOLID
 70
     1
 71
     0
 91
        1
 92
        1
 93
        1
 72
     4
 94
        3
 73
     0
 74
     1
 95
       53
 96
       49
 40
0.0
 40
0.0
 40
0.0
 40
0.0
 40
1.0
 40
1.0
 40
1.0
 40
2.0
 40
2.0
 40
2.0
 40
3.0
 40
3.0
 40
3.0
 40
4.0
 40
4.0
 40
4.0
 40
5.0
 40
5.0
 40
5.0
 40
6.0
 40
6.0
 40
6.0
 40
7.0
 40
7.0
 40
7.0
 40
8.0
 40
8.0
 40
8.0
 40
9.0
 40
9.0
 40
9.0
 40
10.0
 40
10.0
 40
10.0
 40
11.0
 40
11.0
 40
11.0
 40
12.0
 40
12.0
 40
12.0
 40
13.0
 40
13.0
 40
13.0
 40
14.0
 40
14.0
 40
14.0
 40
15.0
 40
15.0
 40
15.0
 40
16.0
 40
16.0
 40
16.0
 40
16.0
 10
87.6196302406819
 20
-135.5086967977201
 10
87.55279538826805
 20
-135.5086967977201
 10
87.46632349158828
 20
-135.4918158298423
 10
87.37985159490852
 20
-135.4280815633652
 10
87.23205699859129
 20
-135.3181830173857
 10
87.21379799251947
 20
-135.1869248793977
 10
87.1976060437388
 20
-135.0794379002579
 10
87.1976060437388
 20
-135.0794379002579
 10
87.38708629542754
 20
-135.0794379002579
 10
87.38708629542754
 20
-135.0794379002579
 10
87.43393959402694
 20
-135.2778754002083
 10
87.54211559226378
 20
-135.3075032213815
 10
87.62135278842453
 20
-135.3075032213815
 10
87.74055309221417
 20
-135.3075032213815
 10
87.8704331920081
 20
-135.2082844714063
 10
87.8704331920081
 20
-134.9753960166034
 10
87.8704331920081
 20
-134.7197699315979
 10
87.71712644291448
 20
-134.6498344932473
 10
87.6141180879055
 20
-134.6498344932473
 10
87.58724634312055
 20
-134.6498344932473
 10
87.46632349158828
 20
-134.6498344932473
 10
87.39053139091278
 20
-134.7790255739441
 10
87.39053139091278
 20
-134.7790255739441
 10
87.24101424685294
 20
-134.7597330392267
 10
87.24101424685294
 20
-134.7597330392267
 10
87.24101424685294
 20
-134.7597330392267
 10
87.3436780923134
 20
-133.9136175880494
 10
87.3436780923134
 20
-133.9136175880494
 10
87.3436780923134
 20
-133.9136175880494
 10
88.00720348277251
 20
-133.9136175880494
 10
88.00720348277251
 20
-133.9136175880494
 10
88.00720348277251
 20
-133.9136175880494
 10
88.00720348277251
 20
-134.108265482966
 10
88.00720348277251
 20
-134.108265482966
 10
88.00720348277251
 20
-134.108265482966
 10
87.48251544036896
 20
-134.108265482966
 10
87.48251544036896
 20
-134.108265482966
 10
87.48251544036896
 20
-134.108265482966
 10
87.42670489350792
 20
-134.5313232085547
 10
87.42670489350792
 20
-134.5313232085547
 10
87.47907034488371
 20
-134.4972167632507
 10
87.5493502927828
 20
-134.4572536556218
 10
87.65029159050063
 20
-134.4572536556218
 10
87.86664358697432
 20
-134.4572536556218
 10
88.06852618240995
 20
-134.6432888118253
 10
88.06852618240995
 20
-134.9564479914345
 10
88.06852618240995
 20
-135.273741285626
 10
87.87766789252711
 20
-135.5086967977201
 10
87.6196302406819
 20
-135.5086967977201
 97
        0
 97
        0
 75
     2
 76
     1
 98
        0
  0
ENDBLK
  5
BA
330
B7
100
AcDbEntity
  8
0
100
AcDbBlockEnd
  0
BLOCK
  5
C1
330
BF
100
AcDbEntity
  8
0
100
AcDbBlockBegin
  2
block 3
 70
     0
 10
0.0
 20
0.0
 30
0.0
  3
block 3
  1

  0
SPLINE
  5
C3
330
BF
100
AcDbEntity
  8
_U+30EC_U+30A4_U+30E4_U+30FC 1
370
     0
100
AcDbSpline
210
0.0
220
0.0
230
1.0
 70
    11
 71
     3
 72
    26
 73
    22
 74
     0
 42
0.0000000001
 43
0.0000000001
 12
1.0
 22
0.0
 32
0.0
 13
1.0
 23
0.0
 33
0.0
 40
0.0
 40
0.0
 40
0.0
 40
0.0
 40
1.0
 40
1.0
 40
1.0
 40
2.0
 40
2.0
 40
2.0
 40
3.0
 40
3.0
 40
3.0
 40
4.0
 40
4.0
 40
4.0
 40
5.0
 40
5.0
 40
5.0
 40
6.0
 40
6.0
 40
6.0
 40
7.0
 40
7.0
 40
7.0
 40
7.0
 10
95.50045841796516
 20
-125.9990274750107
 30
0.0
 10
95.50045841796516
 20
-125.9990274750107
 30
0.0
 10
95.50045841796516
 20
-124.8947021172138
 30
0.0
 10
95.50045841796516
 20
-124.8947021172138
 30
0.0
 10
95.50045841796516
 20
-124.8947021172138
 30
0.0
 10
95.21899411682026
 20
-124.8947021172138
 30
0.0
 10
95.21899411682026
 20
-124.8947021172138
 30
0.0
 10
95.21899411682026
 20
-124.8947021172138
 30
0.0
 10
95.21899411682026
 20
-124.7465630113481
 30
0.0
 10
95.21899411682026
 20
-124.7465630113481
 30
0.0
 10
95.5021809657078
 20
-124.7319213555358
 30
0.0
 10
95.54179956378816
 20
-124.5689683390835
 30
0.0
 10
95.56694876083048
 20
-124.4547634237474
 30
0.0
 10
95.56694876083048
 20
-124.4547634237474
 30
0.0
 10
95.69166121739653
 20
-124.4547634237474
 30
0.0
 10
95.69166121739653
 20
-124.4547634237474
 30
0.0
 10
95.69166121739653
 20
-124.4547634237474
 30
0.0
 10
95.69166121739653
 20
-125.9990274750107
 30
0.0
 10
95.69166121739653
 20
-125.9990274750107
 30
0.0
 10
95.69166121739653
 20
-125.9990274750107
 30
0.0
 10
95.50045841796516
 20
-125.9990274750107
 30
0.0
 10
95.50045841796516
 20
-125.9990274750107
 30
0.0
  0
HATCH
  5
C4
330
BF
100
AcDbEntity
  8
_U+30EC_U+30A4_U+30E4_U+30FC 1
 62
   179
420
  2234388
100
AcDbHatch
 10
0.0
 20
0.0
 30
0.0
210
0.0
220
0.0
230
1.0
  2
SOLID
 70
     1
 71
     0
 91
        1
 92
        1
 93
        1
 72
     4
 94
        3
 73
     0
 74
     1
 95
       26
 96
       22
 40
0.0
 40
0.0
 40
0.0
 40
0.0
 40
1.0
 40
1.0
 40
1.0
 40
2.0
 40
2.0
 40
2.0
 40
3.0
 40
3.0
 40
3.0
 40
4.0
 40
4.0
 40
4.0
 40
5.0
 40
5.0
 40
5.0
 40
6.0
 40
6.0
 40
6.0
 40
7.0
 40
7.0
 40
7.0
 40
7.0
 10
95.50045841796516
 20
-125.9990274750107
 10
95.50045841796516
 20
-125.9990274750107
 10
95.50045841796516
 20
-124.8947021172138
 10
95.50045841796516
 20
-124.8947021172138
 10
95.50045841796516
 20
-124.8947021172138
 10
95.21899411682026
 20
-124.8947021172138
 10
95.21899411682026
 20
-124.8947021172138
 10
95.21899411682026
 20
-124.8947021172138
 10
95.21899411682026
 20
-124.7465630113481
 10
95.21899411682026
 20
-124.7465630113481
 10
95.5021809657078
 20
-124.7319213555358
 10
95.54179956378816
 20
-124.5689683390835
 10
95.56694876083048
 20
-124.4547634237474
 10
95.56694876083048
 20
-124.4547634237474
 10
95.69166121739653
 20
-124.4547634237474
 10
95.69166121739653
 20
-124.4547634237474
 10
95.69166121739653
 20
-124.4547634237474
 10
95.69166121739653
 20
-125.9990274750107
 10
95.69166121739653
 20
-125.9990274750107
 10
95.69166121739653
 20
-125.9990274750107
 10
95.50045841796516
 20
-125.9990274750107
 10
95.50045841796516
 20
-125.9990274750107
 97
        0
 97
        0
 75
     2
 76
     1
 98
        0
  0
SPLINE
  5
C5
330
BF
100
AcDbEntity
  8
_U+30EC_U+30A4_U+30E4_U+30FC 1
370
     0
100
AcDbSpline
210
0.0
220
0.0
230
1.0
 70
    11
 71
     3
 72
    29
 73
    25
 74
     0
 42
0.0000000001
 43
0.0000000001
 12
1.0
 22
0.0
 32
0.0
 13
1.0
 23
0.0
 33
0.0
 40
0.0
 40
0.0
 40
0.0
 40
0.0
 40
1.0
 40
1.0
 40
1.0
 40
2.0
 40
2.0
 40
2.0
 40
3.0
 40
3.0
 40
3.0
 40
4.0
 40
4.0
 40
4.0
 40
5.0
 40
5.0
 40
5.0
 40
6.0
 40
6.0
 40
6.0
 40
7.0
 40
7.0
 40
7.0
 40
8.0
 40
8.0
 40
8.0
 40
8.0
 10
96.54363333089881
 20
-126.0498426334181
 30
0.0
 10
96.31660153842085
 20
-126.0498426334181
 30
0.0
 10
96.10024954194716
 20
-125.9122110687824
 30
0.0
 10
96.10024954194716
 20
-125.5632228961266
 30
0.0
 10
96.10024954194716
 20
-125.3072523015725
 30
0.0
 10
96.22082788393091
 20
-125.2119954114053
 30
0.0
 10
96.31108938564445
 20
-125.1506727117679
 30
0.0
 10
96.20463593515024
 20
-125.0914170694216
 30
0.0
 10
96.13986814002753
 20
-124.9772121540856
 30
0.0
 10
96.13986814002753
 20
-124.8164984496987
 30
0.0
 10
96.13986814002753
 20
-124.5414075752015
 30
0.0
 10
96.30936683790183
 20
-124.4060153226311
 30
0.0
 10
96.54363333089881
 20
-124.4060153226311
 30
0.0
 10
96.78547903396336
 20
-124.4060153226311
 30
0.0
 10
96.94774303131862
 20
-124.5498480591403
 30
0.0
 10
96.94774303131862
 20
-124.8164984496987
 30
0.0
 10
96.94774303131862
 20
-124.9772121540856
 30
0.0
 10
96.88090817890478
 20
-125.0914170694216
 30
0.0
 10
96.77445472841056
 20
-125.1506727117679
 30
0.0
 10
96.85024682908606
 20
-125.2014878701753
 30
0.0
 10
96.98563908165637
 20
-125.2967447603425
 30
0.0
 10
96.98563908165637
 20
-125.55891652677
 30
0.0
 10
96.98563908165637
 20
-125.9333984060167
 30
0.0
 10
96.7475829836256
 20
-126.0498426334181
 30
0.0
 10
96.54363333089881
 20
-126.0498426334181
 30
0.0
  0
SPLINE
  5
C6
330
BF
100
AcDbEntity
  8
_U+30EC_U+30A4_U+30E4_U+30FC 1
370
     0
100
AcDbSpline
210
0.0
220
0.0
230
1.0
 70
    11
 71
     3
 72
    17
 73
    13
 74
     0
 42
0.0000000001
 43
0.0000000001
 12
1.0
 22
0.0
 32
0.0
 13
1.0
 23
0.0
 33
0.0
 40
0.0
 40
0.0
 40
0.0
 40
0.0
 40
1.0
 40
1.0
 40
1.0
 40
2.0
 40
2.0
 40
2.0
 40
3.0
 40
3.0
 40
3.0
 40
4.0
 40
4.0
 40
4.0
 40
4.0
 10
96.54363333089881
 20
-125.2586764552305
 30
0.0
 10
96.42098793162393
 20
-125.2586764552305
 30
0.0
 10
96.29110783183
 20
-125.3453206066845
 30
0.0
 10
96.29110783183
 20
-125.54840898554
 30
0.0
 10
96.29110783183
 20
-125.7535644216866
 30
0.0
 10
96.39928383006685
 20
-125.8551947385015
 30
0.0
 10
96.54363333089881
 20
-125.8551947385015
 30
0.0
 10
96.70245223276883
 20
-125.8551947385015
 30
0.0
 10
96.79615882996764
 20
-125.7325493392266
 30
0.0
 10
96.79615882996764
 20
-125.5547824121877
 30
0.0
 10
96.79615882996764
 20
-125.3325737533891
 30
0.0
 10
96.65732148191206
 20
-125.2586764552305
 30
0.0
 10
96.54363333089881
 20
-125.2586764552305
 30
0.0
  0
SPLINE
  5
C7
330
BF
100
AcDbEntity
  8
_U+30EC_U+30A4_U+30E4_U+30FC 1
370
     0
100
AcDbSpline
210
0.0
220
0.0
230
1.0
 70
    11
 71
     3
 72
    17
 73
    13
 74
     0
 42
0.0000000001
 43
0.0000000001
 12
1.0
 22
0.0
 32
0.0
 13
1.0
 23
0.0
 33
0.0
 40
0.0
 40
0.0
 40
0.0
 40
0.0
 40
1.0
 40
1.0
 40
1.0
 40
2.0
 40
2.0
 40
2.0
 40
3.0
 40
3.0
 40
3.0
 40
4.0
 40
4.0
 40
4.0
 40
4.0
 10
96.54363333089881
 20
-124.5985961602566
 30
0.0
 10
96.40307343510062
 20
-124.5985961602566
 30
0.0
 10
96.3310709394589
 20
-124.6936807956495
 30
0.0
 10
96.3310709394589
 20
-124.8290730482198
 30
0.0
 10
96.3310709394589
 20
-124.951890702269
 30
0.0
 10
96.39204912954783
 20
-125.0704019869616
 30
0.0
 10
96.54363333089881
 20
-125.0704019869616
 30
0.0
 10
96.69521753224981
 20
-125.0704019869616
 30
0.0
 10
96.75654023188726
 20
-124.951890702269
 30
0.0
 10
96.75654023188726
 20
-124.8290730482198
 30
0.0
 10
96.75654023188726
 20
-124.6936807956495
 30
0.0
 10
96.68247067895439
 20
-124.5985961602566
 30
0.0
 10
96.54363333089881
 20
-124.5985961602566
 30
0.0
  0
HATCH
  5
C8
330
BF
100
AcDbEntity
  8
_U+30EC_U+30A4_U+30E4_U+30FC 1
 62
   179
420
  2234388
100
AcDbHatch
 10
0.0
 20
0.0
 30
0.0
210
0.0
220
0.0
230
1.0
  2
SOLID
 70
     1
 71
     0
 91
        3
 92
        1
 93
        1
 72
     4
 94
        3
 73
     0
 74
     1
 95
       29
 96
       25
 40
0.0
 40
0.0
 40
0.0
 40
0.0
 40
1.0
 40
1.0
 40
1.0
 40
2.0
 40
2.0
 40
2.0
 40
3.0
 40
3.0
 40
3.0
 40
4.0
 40
4.0
 40
4.0
 40
5.0
 40
5.0
 40
5.0
 40
6.0
 40
6.0
 40
6.0
 40
7.0
 40
7.0
 40
7.0
 40
8.0
 40
8.0
 40
8.0
 40
8.0
 10
96.54363333089881
 20
-126.0498426334181
 10
96.31660153842085
 20
-126.0498426334181
 10
96.10024954194716
 20
-125.9122110687824
 10
96.10024954194716
 20
-125.5632228961266
 10
96.10024954194716
 20
-125.3072523015725
 10
96.22082788393091
 20
-125.2119954114053
 10
96.31108938564445
 20
-125.1506727117679
 10
96.20463593515024
 20
-125.0914170694216
 10
96.13986814002753
 20
-124.9772121540856
 10
96.13986814002753
 20
-124.8164984496987
 10
96.13986814002753
 20
-124.5414075752015
 10
96.30936683790183
 20
-124.4060153226311
 10
96.54363333089881
 20
-124.4060153226311
 10
96.78547903396336
 20
-124.4060153226311
 10
96.94774303131862
 20
-124.5498480591403
 10
96.94774303131862
 20
-124.8164984496987
 10
96.94774303131862
 20
-124.9772121540856
 10
96.88090817890478
 20
-125.0914170694216
 10
96.77445472841056
 20
-125.1506727117679
 10
96.85024682908606
 20
-125.2014878701753
 10
96.98563908165637
 20
-125.2967447603425
 10
96.98563908165637
 20
-125.55891652677
 10
96.98563908165637
 20
-125.9333984060167
 10
96.7475829836256
 20
-126.0498426334181
 10
96.54363333089881
 20
-126.0498426334181
 97
        0
 97
        0
 92
        1
 93
        1
 72
     4
 94
        3
 73
     0
 74
     1
 95
       17
 96
       13
 40
0.0
 40
0.0
 40
0.0
 40
0.0
 40
1.0
 40
1.0
 40
1.0
 40
2.0
 40
2.0
 40
2.0
 40
3.0
 40
3.0
 40
3.0
 40
4.0
 40
4.0
 40
4.0
 40
4.0
 10
96.54363333089881
 20
-125.2586764552305
 10
96.42098793162393
 20
-125.2586764552305
 10
96.29110783183
 20
-125.3453206066845
 10
96.29110783183
 20
-125.54840898554
 10
96.29110783183
 20
-125.7535644216866
 10
96.39928383006685
 20
-125.8551947385015
 10
96.54363333089881
 20
-125.8551947385015
 10
96.70245223276883
 20
-125.8551947385015
 10
96.79615882996764
 20
-125.7325493392266
 10
96.79615882996764
 20
-125.5547824121877
 10
96.79615882996764
 20
-125.3325737533891
 10
96.65732148191206
 20
-125.2586764552305
 10
96.54363333089881
 20
-125.2586764552305
 97
        0
 97
        0
 92
        1
 93
        1
 72
     4
 94
        3
 73
     0
 74
     1
 95
       17
 96
       13
 40
0.0
 40
0.0
 40
0.0
 40
0.0
 40
1.0
 40
1.0
 40
1.0
 40
2.0
 40
2.0
 40
2.0
 40
3.0
 40
3.0
 40
3.0
 40
4.0
 40
4.0
 40
4.0
 40
4.0
 10
96.54363333089881
 20
-124.5985961602566
 10
96.40307343510062
 20
-124.5985961602566
 10
96.3310709394589
 20
-124.6936807956495
 10
96.3310709394589
 20
-124.8290730482198
 10
96.3310709394589
 20
-124.951890702269
 10
96.39204912954783
 20
-125.0704019869616
 10
96.54363333089881
 20
-125.0704019869616
 10
96.69521753224981
 20
-125.0704019869616
 10
96.75654023188726
 20
-124.951890702269
 10
96.75654023188726
 20
-124.8290730482198
 10
96.75654023188726
 20
-124.6936807956495
 10
96.68247067895439
 20
-124.5985961602566
 10
96.54363333089881
 20
-124.5985961602566
 97
        0
 97
        0
 75
     2
 76
     1
 98
        0
  0
POLYLINE
  5
C9
330
BF
100
AcDbEntity
  8
_U+30EC_U+30A4_U+30E4_U+30FC 1
370
     0
100
AcDb2dPolyline
 66
     1
 10
0.0
 20
0.0
 30
0.0
  0
VERTEX
  5
CA
330
C9
100
AcDbEntity
  8
_U+30EC_U+30A4_U+30E4_U+30FC 1
370
     0
100
AcDbVertex
100
AcDb2dVertex
 10
97.17029619966577
 20
-125.9990274750107
 30
0.0
  0
VERTEX
  5
CB
330
C9
100
AcDbEntity
  8
_U+30EC_U+30A4_U+30E4_U+30FC 1
370
     0
100
AcDbVertex
100
AcDb2dVertex
 10
97.17029619966577
 20
-125.7473632498132
 30
0.0
  0
VERTEX
  5
CC
330
C9
100
AcDbEntity
  8
_U+30EC_U+30A4_U+30E4_U+30FC 1
370
     0
100
AcDbVertex
100
AcDb2dVertex
 10
97.38492564839683
 20
-125.7473632498132
 30
0.0
  0
VERTEX
  5
CD
330
C9
100
AcDbEntity
  8
_U+30EC_U+30A4_U+30E4_U+30FC 1
370
     0
100
AcDbVertex
100
AcDb2dVertex
 10
97.38492564839683
 20
-125.9990274750107
 30
0.0
  0
VERTEX
  5
CE
330
C9
100
AcDbEntity
  8
_U+30EC_U+30A4_U+30E4_U+30FC 1
370
     0
100
AcDbVertex
100
AcDb2dVertex
 10
97.17029619966577
 20
-125.9990274750107
 30
0.0
  0
SEQEND
  5
CF
330
C9
100
AcDbEntity
  8
_U+30EC_U+30A4_U+30E4_U+30FC 1
370
     0
  0
HATCH
  5
D0
330
BF
100
AcDbEntity
  8
_U+30EC_U+30A4_U+30E4_U+30FC 1
 62
   179
420
  2234388
100
AcDbHatch
 10
0.0
 20
0.0
 30
0.0
210
0.0
220
0.0
230
1.0
  2
SOLID
 70
     1
 71
     0
 91
        1
 92
        1
 93
        4
 72
     1
 10
97.17029619966577
 20
-125.9990274750107
 11
97.17029619966577
 21
-125.7473632498132
 72
     1
 10
97.17029619966577
 20
-125.7473632498132
 11
97.38492564839683
 21
-125.7473632498132
 72
     1
 10
97.38492564839683
 20
-125.7473632498132
 11
97.38492564839683
 21
-125.9990274750107
 72
     1
 10
97.38492564839683
 20
-125.9990274750107
 11
97.17029619966577
 21
-125.9990274750107
 97
        0
 75
     2
 76
     1
 98
        0
  0
SPLINE
  5
D1
330
BF
100
AcDbEntity
  8
_U+30EC_U+30A4_U+30E4_U+30FC 1
370
     0
100
AcDbSpline
210
0.0
220
0.0
230
1.0
 70
    11
 71
     3
 72
    32
 73
    28
 74
     0
 42
0.0000000001
 43
0.0000000001
 12
1.0
 22
0.0
 32
0.0
 13
1.0
 23
0.0
 33
0.0
 40
0.0
 40
0.0
 40
0.0
 40
0.0
 40
1.0
 40
1.0
 40
1.0
 40
2.0
 40
2.0
 40
2.0
 40
3.0
 40
3.0
 40
3.0
 40
4.0
 40
4.0
 40
4.0
 40
5.0
 40
5.0
 40
5.0
 40
6.0
 40
6.0
 40
6.0
 40
7.0
 40
7.0
 40
7.0
 40
8.0
 40
8.0
 40
8.0
 40
9.0
 40
9.0
 40
9.0
 40
9.0
 10
97.9761040336657
 20
-126.0498426334181
 30
0.0
 10
97.82830943734848
 20
-126.0498426334181
 30
0.0
 10
97.61919214139382
 20
-125.9799071950675
 30
0.0
 10
97.58680824383246
 20
-125.6477999902894
 30
0.0
 10
97.58680824383246
 20
-125.6477999902894
 30
0.0
 10
97.76905379500218
 20
-125.6477999902894
 30
0.0
 10
97.76905379500218
 20
-125.6477999902894
 30
0.0
 10
97.77801104326383
 20
-125.7070556326357
 30
0.0
 10
97.80488278804879
 20
-125.8551947385015
 30
0.0
 10
97.97817109095685
 20
-125.8551947385015
 30
0.0
 10
98.22690698499188
 20
-125.8551947385015
 30
0.0
 10
98.25929088255323
 20
-125.5251545910146
 30
0.0
 10
98.27031518810604
 20
-125.3199991548679
 30
0.0
 10
98.19280053968791
 20
-125.4002698796742
 30
0.0
 10
98.13492293553571
 20
-125.4574584647294
 30
0.0
 10
97.97989363869948
 20
-125.4574584647294
 30
0.0
 10
97.82658688960586
 20
-125.4574584647294
 30
0.0
 10
97.56854923776065
 20
-125.3516940333322
 30
0.0
 10
97.56854923776065
 20
-124.9455172756213
 30
0.0
 10
97.56854923776065
 20
-124.6259846693643
 30
0.0
 10
97.73839244518346
 20
-124.4060153226311
 30
0.0
 10
98.00883244077558
 20
-124.4060153226311
 30
0.0
 10
98.44704858649935
 20
-124.4060153226311
 30
0.0
 10
98.456005834761
 20
-124.9603311862078
 30
0.0
 10
98.456005834761
 20
-125.1739271062933
 30
0.0
 10
98.456005834761
 20
-125.4045762490308
 30
0.0
 10
98.43981388598033
 20
-126.0498426334181
 30
0.0
 10
97.9761040336657
 20
-126.0498426334181
 30
0.0
  0
SPLINE
  5
D2
330
BF
100
AcDbEntity
  8
_U+30EC_U+30A4_U+30E4_U+30FC 1
370
     0
100
AcDbSpline
210
0.0
220
0.0
230
1.0
 70
    11
 71
     3
 72
    17
 73
    13
 74
     0
 42
0.0000000001
 43
0.0000000001
 12
1.0
 22
0.0
 32
0.0
 13
1.0
 23
0.0
 33
0.0
 40
0.0
 40
0.0
 40
0.0
 40
0.0
 40
1.0
 40
1.0
 40
1.0
 40
2.0
 40
2.0
 40
2.0
 40
3.0
 40
3.0
 40
3.0
 40
4.0
 40
4.0
 40
4.0
 40
4.0
 10
98.0105549885182
 20
-124.5985961602566
 30
0.0
 10
97.90961369080038
 20
-124.5985961602566
 30
0.0
 10
97.75975203719202
 20
-124.6556124905375
 30
0.0
 10
97.75975203719202
 20
-124.9412109062647
 30
0.0
 10
97.75975203719202
 20
-125.1675536796456
 30
0.0
 10
97.87895234098166
 20
-125.2628105698128
 30
0.0
 10
97.99436303973752
 20
-125.2628105698128
 30
0.0
 10
98.21794973673023
 20
-125.2628105698128
 30
0.0
 10
98.2503336342916
 20
-125.0533487643096
 30
0.0
 10
98.2503336342916
 20
-124.9370767916824
 30
0.0
 10
98.2503336342916
 20
-124.7613769219347
 30
0.0
 10
98.16937389038821
 20
-124.5985961602566
 30
0.0
 10
98.0105549885182
 20
-124.5985961602566
 30
0.0
  0
HATCH
  5
D3
330
BF
100
AcDbEntity
  8
_U+30EC_U+30A4_U+30E4_U+30FC 1
 62
   179
420
  2234388
100
AcDbHatch
 10
0.0
 20
0.0
 30
0.0
210
0.0
220
0.0
230
1.0
  2
SOLID
 70
     1
 71
     0
 91
        2
 92
        1
 93
        1
 72
     4
 94
        3
 73
     0
 74
     1
 95
       32
 96
       28
 40
0.0
 40
0.0
 40
0.0
 40
0.0
 40
1.0
 40
1.0
 40
1.0
 40
2.0
 40
2.0
 40
2.0
 40
3.0
 40
3.0
 40
3.0
 40
4.0
 40
4.0
 40
4.0
 40
5.0
 40
5.0
 40
5.0
 40
6.0
 40
6.0
 40
6.0
 40
7.0
 40
7.0
 40
7.0
 40
8.0
 40
8.0
 40
8.0
 40
9.0
 40
9.0
 40
9.0
 40
9.0
 10
97.9761040336657
 20
-126.0498426334181
 10
97.82830943734848
 20
-126.0498426334181
 10
97.61919214139382
 20
-125.9799071950675
 10
97.58680824383246
 20
-125.6477999902894
 10
97.58680824383246
 20
-125.6477999902894
 10
97.76905379500218
 20
-125.6477999902894
 10
97.76905379500218
 20
-125.6477999902894
 10
97.77801104326383
 20
-125.7070556326357
 10
97.80488278804879
 20
-125.8551947385015
 10
97.97817109095685
 20
-125.8551947385015
 10
98.22690698499188
 20
-125.8551947385015
 10
98.25929088255323
 20
-125.5251545910146
 10
98.27031518810604
 20
-125.3199991548679
 10
98.19280053968791
 20
-125.4002698796742
 10
98.13492293553571
 20
-125.4574584647294
 10
97.97989363869948
 20
-125.4574584647294
 10
97.82658688960586
 20
-125.4574584647294
 10
97.56854923776065
 20
-125.3516940333322
 10
97.56854923776065
 20
-124.9455172756213
 10
97.56854923776065
 20
-124.6259846693643
 10
97.73839244518346
 20
-124.4060153226311
 10
98.00883244077558
 20
-124.4060153226311
 10
98.44704858649935
 20
-124.4060153226311
 10
98.456005834761
 20
-124.9603311862078
 10
98.456005834761
 20
-125.1739271062933
 10
98.456005834761
 20
-125.4045762490308
 10
98.43981388598033
 20
-126.0498426334181
 10
97.9761040336657
 20
-126.0498426334181
 97
        0
 97
        0
 92
        1
 93
        1
 72
     4
 94
        3
 73
     0
 74
     1
 95
       17
 96
       13
 40
0.0
 40
0.0
 40
0.0
 40
0.0
 40
1.0
 40
1.0
 40
1.0
 40
2.0
 40
2.0
 40
2.0
 40
3.0
 40
3.0
 40
3.0
 40
4.0
 40
4.0
 40
4.0
 40
4.0
 10
98.0105549885182
 20
-124.5985961602566
 10
97.90961369080038
 20
-124.5985961602566
 10
97.75975203719202
 20
-124.6556124905375
 10
97.75975203719202
 20
-124.9412109062647
 10
97.75975203719202
 20
-125.1675536796456
 10
97.87895234098166
 20
-125.2628105698128
 10
97.99436303973752
 20
-125.2628105698128
 10
98.21794973673023
 20
-125.2628105698128
 10
98.2503336342916
 20
-125.0533487643096
 10
98.2503336342916
 20
-124.9370767916824
 10
98.2503336342916
 20
-124.7613769219347
 10
98.16937389038821
 20
-124.5985961602566
 10
98.0105549885182
 20
-124.5985961602566
 97
        0
 97
        0
 75
     2
 76
     1
 98
        0
  0
ENDBLK
  5
C2
330
BF
100
AcDbEntity
  8
0
100
AcDbBlockEnd
  0
BLOCK
  5
D6
330
D4
100
AcDbEntity
  8
0
100
AcDbBlockBegin
  2
block 4
 70
     0
 10
0.0
 20
0.0
 30
0.0
  3
block 4
  1

  0
SPLINE
  5
D8
330
D4
100
AcDbEntity
  8
_U+30EC_U+30A4_U+30E4_U+30FC 1
370
     0
100
AcDbSpline
210
0.0
220
0.0
230
1.0
 70
    11
 71
     3
 72
    53
 73
    49
 74
     0
 42
0.0000000001
 43
0.0000000001
 12
1.0
 22
0.0
 32
0.0
 13
1.0
 23
0.0
 33
0.0
 40
0.0
 40
0.0
 40
0.0
 40
0.0
 40
1.0
 40
1.0
 40
1.0
 40
2.0
 40
2.0
 40
2.0
 40
3.0
 40
3.0
 40
3.0
 40
4.0
 40
4.0
 40
4.0
 40
5.0
 40
5.0
 40
5.0
 40
6.0
 40
6.0
 40
6.0
 40
7.0
 40
7.0
 40
7.0
 40
8.0
 40
8.0
 40
8.0
 40
9.0
 40
9.0
 40
9.0
 40
10.0
 40
10.0
 40
10.0
 40
11.0
 40
11.0
 40
11.0
 40
12.0
 40
12.0
 40
12.0
 40
13.0
 40
13.0
 40
13.0
 40
14.0
 40
14.0
 40
14.0
 40
15.0
 40
15.0
 40
15.0
 40
16.0
 40
16.0
 40
16.0
 40
16.0
 10
95.79019094827468
 20
-134.1203233171644
 30
0.0
 10
95.72335609586084
 20
-134.1203233171644
 30
0.0
 10
95.63688419918105
 20
-134.1030978397381
 30
0.0
 10
95.55041230250129
 20
-134.0397080828095
 30
0.0
 10
95.40261770618407
 20
-133.9294650272815
 30
0.0
 10
95.38435870011224
 20
-133.798551398842
 30
0.0
 10
95.36816675133157
 20
-133.6907199101537
 30
0.0
 10
95.36816675133157
 20
-133.6907199101537
 30
0.0
 10
95.55764700302032
 20
-133.6907199101537
 30
0.0
 10
95.55764700302032
 20
-133.6907199101537
 30
0.0
 10
95.60450030161971
 20
-133.8895019196526
 30
0.0
 10
95.71267629985655
 20
-133.9191297408258
 30
0.0
 10
95.7919134960173
 20
-133.9191297408258
 30
0.0
 10
95.91111379980696
 20
-133.9191297408258
 30
0.0
 10
96.04099389960086
 20
-133.8199109908506
 30
0.0
 10
96.04099389960086
 20
-133.5870225360477
 30
0.0
 10
96.04099389960086
 20
-133.3310519414936
 30
0.0
 10
95.88768715050725
 20
-133.2611165031431
 30
0.0
 10
95.78467879549828
 20
-133.2611165031431
 30
0.0
 10
95.75780705071332
 20
-133.2611165031431
 30
0.0
 10
95.63688419918105
 20
-133.2611165031431
 30
0.0
 10
95.56109209850557
 20
-133.3903075838399
 30
0.0
 10
95.56109209850557
 20
-133.3903075838399
 30
0.0
 10
95.41157495444573
 20
-133.3713595586711
 30
0.0
 10
95.41157495444573
 20
-133.3713595586711
 30
0.0
 10
95.41157495444573
 20
-133.3713595586711
 30
0.0
 10
95.51423879990617
 20
-132.5252441074937
 30
0.0
 10
95.51423879990617
 20
-132.5252441074937
 30
0.0
 10
95.51423879990617
 20
-132.5252441074937
 30
0.0
 10
96.17776419036528
 20
-132.5252441074937
 30
0.0
 10
96.17776419036528
 20
-132.5252441074937
 30
0.0
 10
96.17776419036528
 20
-132.5252441074937
 30
0.0
 10
96.17776419036528
 20
-132.7195474928618
 30
0.0
 10
96.17776419036528
 20
-132.7195474928618
 30
0.0
 10
96.17776419036528
 20
-132.7195474928618
 30
0.0
 10
95.65307614796174
 20
-132.7195474928618
 30
0.0
 10
95.65307614796174
 20
-132.7195474928618
 30
0.0
 10
95.65307614796174
 20
-132.7195474928618
 30
0.0
 10
95.59726560110069
 20
-133.1426052184505
 30
0.0
 10
95.59726560110069
 20
-133.1426052184505
 30
0.0
 10
95.64963105247648
 20
-133.108843282695
 30
0.0
 10
95.71991100037559
 20
-133.0688801750661
 30
0.0
 10
95.8208522980934
 20
-133.0688801750661
 30
0.0
 10
96.03720429456709
 20
-133.0688801750661
 30
0.0
 10
96.23908689000274
 20
-133.2549153312696
 30
0.0
 10
96.23908689000274
 20
-133.5677300013303
 30
0.0
 10
96.23908689000274
 20
-133.8853678050703
 30
0.0
 10
96.0482286001199
 20
-134.1203233171644
 30
0.0
 10
95.79019094827468
 20
-134.1203233171644
 30
0.0
  0
HATCH
  5
D9
330
D4
100
AcDbEntity
  8
_U+30EC_U+30A4_U+30E4_U+30FC 1
 62
   179
420
  2234388
100
AcDbHatch
 10
0.0
 20
0.0
 30
0.0
210
0.0
220
0.0
230
1.0
  2
SOLID
 70
     1
 71
     0
 91
        1
 92
        1
 93
        1
 72
     4
 94
        3
 73
     0
 74
     1
 95
       53
 96
       49
 40
0.0
 40
0.0
 40
0.0
 40
0.0
 40
1.0
 40
1.0
 40
1.0
 40
2.0
 40
2.0
 40
2.0
 40
3.0
 40
3.0
 40
3.0
 40
4.0
 40
4.0
 40
4.0
 40
5.0
 40
5.0
 40
5.0
 40
6.0
 40
6.0
 40
6.0
 40
7.0
 40
7.0
 40
7.0
 40
8.0
 40
8.0
 40
8.0
 40
9.0
 40
9.0
 40
9.0
 40
10.0
 40
10.0
 40
10.0
 40
11.0
 40
11.0
 40
11.0
 40
12.0
 40
12.0
 40
12.0
 40
13.0
 40
13.0
 40
13.0
 40
14.0
 40
14.0
 40
14.0
 40
15.0
 40
15.0
 40
15.0
 40
16.0
 40
16.0
 40
16.0
 40
16.0
 10
95.79019094827468
 20
-134.1203233171644
 10
95.72335609586084
 20
-134.1203233171644
 10
95.63688419918105
 20
-134.1030978397381
 10
95.55041230250129
 20
-134.0397080828095
 10
95.40261770618407
 20
-133.9294650272815
 10
95.38435870011224
 20
-133.798551398842
 10
95.36816675133157
 20
-133.6907199101537
 10
95.36816675133157
 20
-133.6907199101537
 10
95.55764700302032
 20
-133.6907199101537
 10
95.55764700302032
 20
-133.6907199101537
 10
95.60450030161971
 20
-133.8895019196526
 10
95.71267629985655
 20
-133.9191297408258
 10
95.7919134960173
 20
-133.9191297408258
 10
95.91111379980696
 20
-133.9191297408258
 10
96.04099389960086
 20
-133.8199109908506
 10
96.04099389960086
 20
-133.5870225360477
 10
96.04099389960086
 20
-133.3310519414936
 10
95.88768715050725
 20
-133.2611165031431
 10
95.78467879549828
 20
-133.2611165031431
 10
95.75780705071332
 20
-133.2611165031431
 10
95.63688419918105
 20
-133.2611165031431
 10
95.56109209850557
 20
-133.3903075838399
 10
95.56109209850557
 20
-133.3903075838399
 10
95.41157495444573
 20
-133.3713595586711
 10
95.41157495444573
 20
-133.3713595586711
 10
95.41157495444573
 20
-133.3713595586711
 10
95.51423879990617
 20
-132.5252441074937
 10
95.51423879990617
 20
-132.5252441074937
 10
95.51423879990617
 20
-132.5252441074937
 10
96.17776419036528
 20
-132.5252441074937
 10
96.17776419036528
 20
-132.5252441074937
 10
96.17776419036528
 20
-132.5252441074937
 10
96.17776419036528
 20
-132.7195474928618
 10
96.17776419036528
 20
-132.7195474928618
 10
96.17776419036528
 20
-132.7195474928618
 10
95.65307614796174
 20
-132.7195474928618
 10
95.65307614796174
 20
-132.7195474928618
 10
95.65307614796174
 20
-132.7195474928618
 10
95.59726560110069
 20
-133.1426052184505
 10
95.59726560110069
 20
-133.1426052184505
 10
95.64963105247648
 20
-133.108843282695
 10
95.71991100037559
 20
-133.0688801750661
 10
95.8208522980934
 20
-133.0688801750661
 10
96.03720429456709
 20
-133.0688801750661
 10
96.23908689000274
 20
-133.2549153312696
 10
96.23908689000274
 20
-133.5677300013303
 10
96.23908689000274
 20
-133.8853678050703
 10
96.0482286001199
 20
-134.1203233171644
 10
95.79019094827468
 20
-134.1203233171644
 97
        0
 97
        0
 75
     2
 76
     1
 98
        0
  0
POLYLINE
  5
DA
330
D4
100
AcDbEntity
  8
_U+30EC_U+30A4_U+30E4_U+30FC 1
370
     0
100
AcDb2dPolyline
 66
     1
 10
0.0
 20
0.0
 30
0.0
  0
VERTEX
  5
DB
330
DA
100
AcDbEntity
  8
_U+30EC_U+30A4_U+30E4_U+30FC 1
370
     0
100
AcDbVertex
100
AcDb2dVertex
 10
96.4330457658223
 20
-134.0693359039827
 30
0.0
  0
VERTEX
  5
DC
330
DA
100
AcDbEntity
  8
_U+30EC_U+30A4_U+30E4_U+30FC 1
370
     0
100
AcDbVertex
100
AcDb2dVertex
 10
96.4330457658223
 20
-133.8178439335594
 30
0.0
  0
VERTEX
  5
DD
330
DA
100
AcDbEntity
  8
_U+30EC_U+30A4_U+30E4_U+30FC 1
370
     0
100
AcDbVertex
100
AcDb2dVertex
 10
96.64767521455336
 20
-133.8178439335594
 30
0.0
  0
VERTEX
  5
DE
330
DA
100
AcDbEntity
  8
_U+30EC_U+30A4_U+30E4_U+30FC 1
370
     0
100
AcDbVertex
100
AcDb2dVertex
 10
96.64767521455336
 20
-134.0693359039827
 30
0.0
  0
VERTEX
  5
DF
330
DA
100
AcDbEntity
  8
_U+30EC_U+30A4_U+30E4_U+30FC 1
370
     0
100
AcDbVertex
100
AcDb2dVertex
 10
96.4330457658223
 20
-134.0693359039827
 30
0.0
  0
SEQEND
  5
E0
330
DA
100
AcDbEntity
  8
_U+30EC_U+30A4_U+30E4_U+30FC 1
370
     0
  0
HATCH
  5
E1
330
D4
100
AcDbEntity
  8
_U+30EC_U+30A4_U+30E4_U+30FC 1
 62
   179
420
  2234388
100
AcDbHatch
 10
0.0
 20
0.0
 30
0.0
210
0.0
220
0.0
230
1.0
  2
SOLID
 70
     1
 71
     0
 91
        1
 92
        1
 93
        4
 72
     1
 10
96.4330457658223
 20
-134.0693359039827
 11
96.4330457658223
 21
-133.8178439335594
 72
     1
 10
96.4330457658223
 20
-133.8178439335594
 11
96.64767521455336
 21
-133.8178439335594
 72
     1
 10
96.64767521455336
 20
-133.8178439335594
 11
96.64767521455336
 21
-134.0693359039827
 72
     1
 10
96.64767521455336
 20
-134.0693359039827
 11
96.4330457658223
 21
-134.0693359039827
 97
        0
 75
     2
 76
     1
 98
        0
  0
SPLINE
  5
E2
330
D4
100
AcDbEntity
  8
_U+30EC_U+30A4_U+30E4_U+30FC 1
370
     0
100
AcDbSpline
210
0.0
220
0.0
230
1.0
 70
    11
 71
     3
 72
    53
 73
    49
 74
     0
 42
0.0000000001
 43
0.0000000001
 12
1.0
 22
0.0
 32
0.0
 13
1.0
 23
0.0
 33
0.0
 40
0.0
 40
0.0
 40
0.0
 40
0.0
 40
1.0
 40
1.0
 40
1.0
 40
2.0
 40
2.0
 40
2.0
 40
3.0
 40
3.0
 40
3.0
 40
4.0
 40
4.0
 40
4.0
 40
5.0
 40
5.0
 40
5.0
 40
6.0
 40
6.0
 40
6.0
 40
7.0
 40
7.0
 40
7.0
 40
8.0
 40
8.0
 40
8.0
 40
9.0
 40
9.0
 40
9.0
 40
10.0
 40
10.0
 40
10.0
 40
11.0
 40
11.0
 40
11.0
 40
12.0
 40
12.0
 40
12.0
 40
13.0
 40
13.0
 40
13.0
 40
14.0
 40
14.0
 40
14.0
 40
15.0
 40
15.0
 40
15.0
 40
16.0
 40
16.0
 40
16.0
 40
16.0
 10
97.25883515363668
 20
-134.1203233171644
 30
0.0
 10
97.19200030122283
 20
-134.1203233171644
 30
0.0
 10
97.10552840454307
 20
-134.1030978397381
 30
0.0
 10
97.0190565078633
 20
-134.0397080828095
 30
0.0
 10
96.87126191154607
 20
-133.9294650272815
 30
0.0
 10
96.85300290547426
 20
-133.798551398842
 30
0.0
 10
96.83681095669358
 20
-133.6907199101537
 30
0.0
 10
96.83681095669358
 20
-133.6907199101537
 30
0.0
 10
97.02629120838232
 20
-133.6907199101537
 30
0.0
 10
97.02629120838232
 20
-133.6907199101537
 30
0.0
 10
97.07314450698172
 20
-133.8895019196526
 30
0.0
 10
97.18132050521857
 20
-133.9191297408258
 30
0.0
 10
97.26055770137931
 20
-133.9191297408258
 30
0.0
 10
97.37975800516895
 20
-133.9191297408258
 30
0.0
 10
97.50963810496287
 20
-133.8199109908506
 30
0.0
 10
97.50963810496287
 20
-133.5870225360477
 30
0.0
 10
97.50963810496287
 20
-133.3310519414936
 30
0.0
 10
97.35633135586926
 20
-133.2611165031431
 30
0.0
 10
97.25332300086029
 20
-133.2611165031431
 30
0.0
 10
97.22645125607534
 20
-133.2611165031431
 30
0.0
 10
97.10552840454307
 20
-133.2611165031431
 30
0.0
 10
97.02973630386757
 20
-133.3903075838399
 30
0.0
 10
97.02973630386757
 20
-133.3903075838399
 30
0.0
 10
96.88021915980772
 20
-133.3713595586711
 30
0.0
 10
96.88021915980772
 20
-133.3713595586711
 30
0.0
 10
96.88021915980772
 20
-133.3713595586711
 30
0.0
 10
96.98288300526818
 20
-132.5252441074937
 30
0.0
 10
96.98288300526818
 20
-132.5252441074937
 30
0.0
 10
96.98288300526818
 20
-132.5252441074937
 30
0.0
 10
97.64640839572729
 20
-132.5252441074937
 30
0.0
 10
97.64640839572729
 20
-132.5252441074937
 30
0.0
 10
97.64640839572729
 20
-132.5252441074937
 30
0.0
 10
97.64640839572729
 20
-132.7195474928618
 30
0.0
 10
97.64640839572729
 20
-132.7195474928618
 30
0.0
 10
97.64640839572729
 20
-132.7195474928618
 30
0.0
 10
97.12172035332374
 20
-132.7195474928618
 30
0.0
 10
97.12172035332374
 20
-132.7195474928618
 30
0.0
 10
97.12172035332374
 20
-132.7195474928618
 30
0.0
 10
97.0659098064627
 20
-133.1426052184505
 30
0.0
 10
97.0659098064627
 20
-133.1426052184505
 30
0.0
 10
97.11827525783849
 20
-133.108843282695
 30
0.0
 10
97.18855520573759
 20
-133.0688801750661
 30
0.0
 10
97.28949650345541
 20
-133.0688801750661
 30
0.0
 10
97.5058484999291
 20
-133.0688801750661
 30
0.0
 10
97.70773109536474
 20
-133.2549153312696
 30
0.0
 10
97.70773109536474
 20
-133.5677300013303
 30
0.0
 10
97.70773109536474
 20
-133.8853678050703
 30
0.0
 10
97.5168728054819
 20
-134.1203233171644
 30
0.0
 10
97.25883515363668
 20
-134.1203233171644
 30
0.0
  0
HATCH
  5
E3
330
D4
100
AcDbEntity
  8
_U+30EC_U+30A4_U+30E4_U+30FC 1
 62
   179
420
  2234388
100
AcDbHatch
 10
0.0
 20
0.0
 30
0.0
210
0.0
220
0.0
230
1.0
  2
SOLID
 70
     1
 71
     0
 91
        1
 92
        1
 93
        1
 72
     4
 94
        3
 73
     0
 74
     1
 95
       53
 96
       49
 40
0.0
 40
0.0
 40
0.0
 40
0.0
 40
1.0
 40
1.0
 40
1.0
 40
2.0
 40
2.0
 40
2.0
 40
3.0
 40
3.0
 40
3.0
 40
4.0
 40
4.0
 40
4.0
 40
5.0
 40
5.0
 40
5.0
 40
6.0
 40
6.0
 40
6.0
 40
7.0
 40
7.0
 40
7.0
 40
8.0
 40
8.0
 40
8.0
 40
9.0
 40
9.0
 40
9.0
 40
10.0
 40
10.0
 40
10.0
 40
11.0
 40
11.0
 40
11.0
 40
12.0
 40
12.0
 40
12.0
 40
13.0
 40
13.0
 40
13.0
 40
14.0
 40
14.0
 40
14.0
 40
15.0
 40
15.0
 40
15.0
 40
16.0
 40
16.0
 40
16.0
 40
16.0
 10
97.25883515363668
 20
-134.1203233171644
 10
97.19200030122283
 20
-134.1203233171644
 10
97.10552840454307
 20
-134.1030978397381
 10
97.0190565078633
 20
-134.0397080828095
 10
96.87126191154607
 20
-133.9294650272815
 10
96.85300290547426
 20
-133.798551398842
 10
96.83681095669358
 20
-133.6907199101537
 10
96.83681095669358
 20
-133.6907199101537
 10
97.02629120838232
 20
-133.6907199101537
 10
97.02629120838232
 20
-133.6907199101537
 10
97.07314450698172
 20
-133.8895019196526
 10
97.18132050521857
 20
-133.9191297408258
 10
97.26055770137931
 20
-133.9191297408258
 10
97.37975800516895
 20
-133.9191297408258
 10
97.50963810496287
 20
-133.8199109908506
 10
97.50963810496287
 20
-133.5870225360477
 10
97.50963810496287
 20
-133.3310519414936
 10
97.35633135586926
 20
-133.2611165031431
 10
97.25332300086029
 20
-133.2611165031431
 10
97.22645125607534
 20
-133.2611165031431
 10
97.10552840454307
 20
-133.2611165031431
 10
97.02973630386757
 20
-133.3903075838399
 10
97.02973630386757
 20
-133.3903075838399
 10
96.88021915980772
 20
-133.3713595586711
 10
96.88021915980772
 20
-133.3713595586711
 10
96.88021915980772
 20
-133.3713595586711
 10
96.98288300526818
 20
-132.5252441074937
 10
96.98288300526818
 20
-132.5252441074937
 10
96.98288300526818
 20
-132.5252441074937
 10
97.64640839572729
 20
-132.5252441074937
 10
97.64640839572729
 20
-132.5252441074937
 10
97.64640839572729
 20
-132.5252441074937
 10
97.64640839572729
 20
-132.7195474928618
 10
97.64640839572729
 20
-132.7195474928618
 10
97.64640839572729
 20
-132.7195474928618
 10
97.12172035332374
 20
-132.7195474928618
 10
97.12172035332374
 20
-132.7195474928618
 10
97.12172035332374
 20
-132.7195474928618
 10
97.0659098064627
 20
-133.1426052184505
 10
97.0659098064627
 20
-133.1426052184505
 10
97.11827525783849
 20
-133.108843282695
 10
97.18855520573759
 20
-133.0688801750661
 10
97.28949650345541
 20
-133.0688801750661
 10
97.5058484999291
 20
-133.0688801750661
 10
97.70773109536474
 20
-133.2549153312696
 10
97.70773109536474
 20
-133.5677300013303
 10
97.70773109536474
 20
-133.8853678050703
 10
97.5168728054819
 20
-134.1203233171644
 10
97.25883515363668
 20
-134.1203233171644
 97
        0
 97
        0
 75
     2
 76
     1
 98
        0
  0
ENDBLK
  5
D7
330
D4
100
AcDbEntity
  8
0
100
AcDbBlockEnd
  0
ENDSEC
  0
SECTION
  2
ENTITIES
  0
POLYLINE
  5
41
330
1F
100
AcDbEntity
  8
_U+30EC_U+30A4_U+30E4_U+30FC 1
 62
   178
420
        0
370
     9
100
AcDb2dPolyline
 66
     1
 10
0.0
 20
0.0
 30
0.0
  0
VERTEX
  5
42
330
41
100
AcDbEntity
  8
_U+30EC_U+30A4_U+30E4_U+30FC 1
 62
   178
420
        0
370
     9
100
AcDbVertex
100
AcDb2dVertex
 10
94.40114370273729
 20
-134.7294316329844
 30
0.0
  0
VERTEX
  5
43
330
41
100
AcDbEntity
  8
_U+30EC_U+30A4_U+30E4_U+30FC 1
 62
   178
420
        0
370
     9
100
AcDbVertex
100
AcDb2dVertex
 10
93.58534511243893
 20
-135.3247441328356
 30
0.0
  0
VERTEX
  5
44
330
41
100
AcDbEntity
  8
_U+30EC_U+30A4_U+30E4_U+30FC 1
 62
   178
420
        0
370
     9
100
AcDbVertex
100
AcDb2dVertex
 10
84.39107451367099
 20
-130.055443578597
 30
0.0
  0
VERTEX
  5
45
330
41
100
AcDbEntity
  8
_U+30EC_U+30A4_U+30E4_U+30FC 1
 62
   178
420
        0
370
     9
100
AcDbVertex
100
AcDb2dVertex
 10
84.4131231242196
 20
-125.1162371909433
 30
0.0
  0
VERTEX
  5
46
330
41
100
AcDbEntity
  8
_U+30EC_U+30A4_U+30E4_U+30FC 1
 62
   178
420
        0
370
     9
100
AcDbVertex
100
AcDb2dVertex
 10
93.27666456475848
 20
-119.9790519144497
 30
0.0
  0
VERTEX
  5
47
330
41
100
AcDbEntity
  8
_U+30EC_U+30A4_U+30E4_U+30FC 1
 62
   178
420
        0
370
     9
100
AcDbVertex
100
AcDb2dVertex
 10
94.29019509445672
 20
-120.4861699698785
 30
0.0
  0
VERTEX
  5
48
330
41
100
AcDbEntity
  8
_U+30EC_U+30A4_U+30E4_U+30FC 1
 62
   178
420
        0
370
     9
100
AcDbVertex
100
AcDb2dVertex
 10
92.79159513268918
 20
-121.5224546918417
 30
0.0
  0
VERTEX
  5
49
330
41
100
AcDbEntity
  8
_U+30EC_U+30A4_U+30E4_U+30FC 1
 62
   178
420
        0
370
     9
100
AcDbVertex
100
AcDb2dVertex
 10
92.68135207994617
 20
-125.513112190844
 30
0.0
  0
VERTEX
  5
4A
330
41
100
AcDbEntity
  8
_U+30EC_U+30A4_U+30E4_U+30FC 1
 62
   178
420
        0
370
     9
100
AcDbVertex
100
AcDb2dVertex
 10
93.47510205969591
 20
-126.7919316349688
 30
0.0
  0
VERTEX
  5
4B
330
41
100
AcDbEntity
  8
_U+30EC_U+30A4_U+30E4_U+30FC 1
 62
   178
420
        0
370
     9
100
AcDbVertex
100
AcDb2dVertex
 10
94.26885203944566
 20
-127.2549524681864
 30
0.0
  0
VERTEX
  5
4C
330
41
100
AcDbEntity
  8
_U+30EC_U+30A4_U+30E4_U+30FC 1
 62
   178
420
        0
370
     9
100
AcDbVertex
100
AcDb2dVertex
 10
94.24680342889707
 20
-127.9605080235655
 30
0.0
  0
VERTEX
  5
4D
330
41
100
AcDbEntity
  8
_U+30EC_U+30A4_U+30E4_U+30FC 1
 62
   178
420
        0
370
     9
100
AcDbVertex
100
AcDb2dVertex
 10
93.51919928079312
 20
-128.4235288567831
 30
0.0
  0
VERTEX
  5
4E
330
41
100
AcDbEntity
  8
_U+30EC_U+30A4_U+30E4_U+30FC 1
 62
   178
420
        0
370
     9
100
AcDbVertex
100
AcDb2dVertex
 10
92.70269513495721
 20
-129.834957467541
 30
0.0
  0
VERTEX
  5
4F
330
41
100
AcDbEntity
  8
_U+30EC_U+30A4_U+30E4_U+30FC 1
 62
   178
420
        0
370
     9
100
AcDbVertex
100
AcDb2dVertex
 10
92.68135207994617
 20
-131.4665546893553
 30
0.0
  0
VERTEX
  5
50
330
41
100
AcDbEntity
  8
_U+30EC_U+30A4_U+30E4_U+30FC 1
 62
   178
420
        0
370
     9
100
AcDbVertex
100
AcDb2dVertex
 10
92.74749791159198
 20
-133.6710982999157
 30
0.0
  0
VERTEX
  5
51
330
41
100
AcDbEntity
  8
_U+30EC_U+30A4_U+30E4_U+30FC 1
 62
   178
420
        0
370
     9
100
AcDbVertex
100
AcDb2dVertex
 10
94.40114370273729
 20
-134.7294316329844
 30
0.0
  0
SEQEND
  5
52
330
41
100
AcDbEntity
  8
_U+30EC_U+30A4_U+30E4_U+30FC 1
 62
   178
420
        0
370
     9
  0
POLYLINE
  5
53
330
1F
100
AcDbEntity
  8
_U+30EC_U+30A4_U+30E4_U+30FC 1
 62
     7
420
 16777215
370
    18
100
AcDb2dPolyline
 66
     1
 10
0.0
 20
0.0
 30
0.0
  0
VERTEX
  5
54
330
53
100
AcDbEntity
  8
_U+30EC_U+30A4_U+30E4_U+30FC 1
 62
     7
420
 16777215
370
    18
100
AcDbVertex
100
AcDb2dVertex
 10
94.29019509445672
 20
-127.3651955237143
 30
0.0
  0
VERTEX
  5
55
330
53
100
AcDbEntity
  8
_U+30EC_U+30A4_U+30E4_U+30FC 1
 62
     7
420
 16777215
370
    18
100
AcDbVertex
100
AcDb2dVertex
 10
94.29019509445672
 20
-127.9391296902373
 30
0.0
  0
VERTEX
  5
56
330
53
100
AcDbEntity
  8
_U+30EC_U+30A4_U+30E4_U+30FC 1
 62
     7
420
 16777215
370
    18
100
AcDbVertex
100
AcDb2dVertex
 10
93.47510205969591
 20
-128.4455774678887
 30
0.0
  0
VERTEX
  5
57
330
53
100
AcDbEntity
  8
_U+30EC_U+30A4_U+30E4_U+30FC 1
 62
     7
420
 16777215
370
    18
100
AcDbVertex
100
AcDb2dVertex
 10
92.70269513495721
 20
-129.8129088564354
 30
0.0
  0
VERTEX
  5
58
330
53
100
AcDbEntity
  8
_U+30EC_U+30A4_U+30E4_U+30FC 1
 62
     7
420
 16777215
370
    18
100
AcDbVertex
100
AcDb2dVertex
 10
92.70269513495721
 20
-134.7955774663012
 30
0.0
  0
VERTEX
  5
59
330
53
100
AcDbEntity
  8
_U+30EC_U+30A4_U+30E4_U+30FC 1
 62
     7
420
 16777215
370
    18
100
AcDbVertex
100
AcDb2dVertex
 10
93.58534511243893
 20
-135.280964410624
 30
0.0
  0
VERTEX
  5
5A
330
53
100
AcDbEntity
  8
_U+30EC_U+30A4_U+30E4_U+30FC 1
 62
     7
420
 16777215
370
    18
100
AcDbVertex
100
AcDb2dVertex
 10
94.37909509218869
 20
-134.7073830218788
 30
0.0
  0
SEQEND
  5
5B
330
53
100
AcDbEntity
  8
_U+30EC_U+30A4_U+30E4_U+30FC 1
 62
     7
420
 16777215
370
    18
  0
POLYLINE
  5
5C
330
1F
100
AcDbEntity
  8
_U+30EC_U+30A4_U+30E4_U+30FC 1
 62
     7
420
 16777215
370
     9
100
AcDb2dPolyline
 66
     1
 10
0.0
 20
0.0
 30
0.0
  0
VERTEX
  5
5D
330
5C
100
AcDbEntity
  8
_U+30EC_U+30A4_U+30E4_U+30FC 1
 62
     7
420
 16777215
370
     9
100
AcDbVertex
100
AcDb2dVertex
 10
94.42248675774835
 20
-134.6856519107728
 30
0.0
  0
VERTEX
  5
5E
330
5C
100
AcDbEntity
  8
_U+30EC_U+30A4_U+30E4_U+30FC 1
 62
     7
420
 16777215
370
     9
100
AcDbVertex
100
AcDb2dVertex
 10
92.70269513495721
 20
-133.6049524665989
 30
0.0
  0
SEQEND
  5
5F
330
5C
100
AcDbEntity
  8
_U+30EC_U+30A4_U+30E4_U+30FC 1
 62
     7
420
 16777215
370
     9
  0
POLYLINE
  5
60
330
1F
100
AcDbEntity
  8
_U+30EC_U+30A4_U+30E4_U+30FC 1
 62
     7
420
 16777215
370
     9
100
AcDb2dPolyline
 66
     1
 10
0.0
 20
0.0
 30
0.0
  0
VERTEX
  5
61
330
60
100
AcDbEntity
  8
_U+30EC_U+30A4_U+30E4_U+30FC 1
 62
     7
420
 16777215
370
     9
100
AcDbVertex
100
AcDb2dVertex
 10
92.63725485884896
 20
-134.8176260774068
 30
0.0
  0
VERTEX
  5
62
330
60
100
AcDbEntity
  8
_U+30EC_U+30A4_U+30E4_U+30FC 1
 62
     7
420
 16777215
370
     9
100
AcDbVertex
100
AcDb2dVertex
 10
84.4131231242196
 20
-130.0995408008082
 30
0.0
  0
VERTEX
  5
63
330
60
100
AcDbEntity
  8
_U+30EC_U+30A4_U+30E4_U+30FC 1
 62
     7
420
 16777215
370
     9
100
AcDbVertex
100
AcDb2dVertex
 10
84.4131231242196
 20
-125.1162371909433
 30
0.0
  0
VERTEX
  5
64
330
60
100
AcDbEntity
  8
_U+30EC_U+30A4_U+30E4_U+30FC 1
 62
     7
420
 16777215
370
     9
100
AcDbVertex
100
AcDb2dVertex
 10
93.25461595420987
 20
-119.9790519144497
 30
0.0
  0
VERTEX
  5
65
330
60
100
AcDbEntity
  8
_U+30EC_U+30A4_U+30E4_U+30FC 1
 62
     7
420
 16777215
370
     9
100
AcDbVertex
100
AcDb2dVertex
 10
94.33499787109147
 20
-120.5082185809841
 30
0.0
  0
SEQEND
  5
66
330
60
100
AcDbEntity
  8
_U+30EC_U+30A4_U+30E4_U+30FC 1
 62
     7
420
 16777215
370
     9
  0
POLYLINE
  5
67
330
1F
100
AcDbEntity
  8
_U+30EC_U+30A4_U+30E4_U+30FC 1
 62
     7
420
 16777215
370
    18
100
AcDb2dPolyline
 66
     1
 10
0.0
 20
0.0
 30
0.0
  0
VERTEX
  5
68
330
67
100
AcDbEntity
  8
_U+30EC_U+30A4_U+30E4_U+30FC 1
 62
     7
420
 16777215
370
    18
100
AcDbVertex
100
AcDb2dVertex
 10
94.29090064999427
 20
-120.5964130254065
 30
0.0
  0
VERTEX
  5
69
330
67
100
AcDbEntity
  8
_U+30EC_U+30A4_U+30E4_U+30FC 1
 62
     7
420
 16777215
370
    18
100
AcDbVertex
100
AcDb2dVertex
 10
88.1613869174823
 20
-124.1681469134025
 30
0.0
  0
SEQEND
  5
6A
330
67
100
AcDbEntity
  8
_U+30EC_U+30A4_U+30E4_U+30FC 1
 62
     7
420
 16777215
370
    18
  0
POLYLINE
  5
6B
330
1F
100
AcDbEntity
  8
_U+30EC_U+30A4_U+30E4_U+30FC 1
 62
     7
420
 16777215
370
     9
100
AcDb2dPolyline
 66
     1
 10
0.0
 20
0.0
 30
0.0
  0
VERTEX
  5
6C
330
6B
100
AcDbEntity
  8
_U+30EC_U+30A4_U+30E4_U+30FC 1
 62
     7
420
 16777215
370
     9
100
AcDbVertex
100
AcDb2dVertex
 10
84.43517173476819
 20
-125.1382858020489
 30
0.0
  0
VERTEX
  5
6D
330
6B
100
AcDbEntity
  8
_U+30EC_U+30A4_U+30E4_U+30FC 1
 62
     7
420
 16777215
370
     9
100
AcDbVertex
100
AcDb2dVertex
 10
92.65930346939756
 20
-129.8129088564354
 30
0.0
  0
SEQEND
  5
6E
330
6B
100
AcDbEntity
  8
_U+30EC_U+30A4_U+30E4_U+30FC 1
 62
     7
420
 16777215
370
     9
  0
POLYLINE
  5
6F
330
1F
100
AcDbEntity
  8
_U+30EC_U+30A4_U+30E4_U+30FC 1
 62
     7
420
 16777215
370
     9
100
AcDb2dPolyline
 66
     1
 10
0.0
 20
0.0
 30
0.0
  0
VERTEX
  5
70
330
6F
100
AcDbEntity
  8
_U+30EC_U+30A4_U+30E4_U+30FC 1
 62
     7
420
 16777215
370
     9
100
AcDbVertex
100
AcDb2dVertex
 10
86.30930363139956
 20
-124.0358552467689
 30
0.0
  0
VERTEX
  5
71
330
6F
100
AcDbEntity
  8
_U+30EC_U+30A4_U+30E4_U+30FC 1
 62
     7
420
 16777215
370
     9
100
AcDbVertex
100
AcDb2dVertex
 10
93.54124789134173
 20
-128.3573830234663
 30
0.0
  0
SEQEND
  5
72
330
6F
100
AcDbEntity
  8
_U+30EC_U+30A4_U+30E4_U+30FC 1
 62
     7
420
 16777215
370
     9
  0
POLYLINE
  5
73
330
1F
100
AcDbEntity
  8
_U+30EC_U+30A4_U+30E4_U+30FC 1
 62
     7
420
 16777215
370
     9
100
AcDb2dPolyline
 66
     1
 10
0.0
 20
0.0
 30
0.0
  0
VERTEX
  5
74
330
73
100
AcDbEntity
  8
_U+30EC_U+30A4_U+30E4_U+30FC 1
 62
     7
420
 16777215
370
     9
100
AcDbVertex
100
AcDb2dVertex
 10
86.37544946304537
 20
-124.0138066356633
 30
0.0
  0
VERTEX
  5
75
330
73
100
AcDbEntity
  8
_U+30EC_U+30A4_U+30E4_U+30FC 1
 62
     7
420
 16777215
370
     9
100
AcDbVertex
100
AcDb2dVertex
 10
88.1393383069337
 20
-124.2122441356137
 30
0.0
  0
SEQEND
  5
76
330
73
100
AcDbEntity
  8
_U+30EC_U+30A4_U+30E4_U+30FC 1
 62
     7
420
 16777215
370
     9
  0
POLYLINE
  5
77
330
1F
100
AcDbEntity
  8
_U+30EC_U+30A4_U+30E4_U+30FC 1
 62
     7
420
 16777215
370
     9
100
AcDb2dPolyline
 66
     1
 10
0.0
 20
0.0
 30
0.0
  0
VERTEX
  5
78
330
77
100
AcDbEntity
  8
_U+30EC_U+30A4_U+30E4_U+30FC 1
 62
     7
420
 16777215
370
     9
100
AcDbVertex
100
AcDb2dVertex
 10
92.76954652214059
 20
-121.5004060807361
 30
0.0
  0
VERTEX
  5
79
330
77
100
AcDbEntity
  8
_U+30EC_U+30A4_U+30E4_U+30FC 1
 62
     7
420
 16777215
370
     9
100
AcDbVertex
100
AcDb2dVertex
 10
92.68135207994617
 20
-125.5572094130552
 30
0.0
  0
VERTEX
  5
7A
330
77
100
AcDbEntity
  8
_U+30EC_U+30A4_U+30E4_U+30FC 1
 62
     7
420
 16777215
370
     9
100
AcDbVertex
100
AcDb2dVertex
 10
93.51919928079312
 20
-126.83602885718
 30
0.0
  0
VERTEX
  5
7B
330
77
100
AcDbEntity
  8
_U+30EC_U+30A4_U+30E4_U+30FC 1
 62
     7
420
 16777215
370
     9
100
AcDbVertex
100
AcDb2dVertex
 10
94.33499787109147
 20
-127.2990496903976
 30
0.0
  0
SEQEND
  5
7C
330
77
100
AcDbEntity
  8
_U+30EC_U+30A4_U+30E4_U+30FC 1
 62
     7
420
 16777215
370
     9
  0
POLYLINE
  5
7D
330
1F
100
AcDbEntity
  8
_U+30EC_U+30A4_U+30E4_U+30FC 1
 62
     7
420
 16777215
370
     9
100
AcDb2dPolyline
 66
     1
 10
0.0
 20
0.0
 30
0.0
  0
VERTEX
  5
7E
330
7D
100
AcDbEntity
  8
_U+30EC_U+30A4_U+30E4_U+30FC 1
 62
     7
420
 16777215
370
     9
100
AcDbVertex
100
AcDb2dVertex
 10
88.1613869174823
 20
-124.2342927467193
 30
0.0
  0
VERTEX
  5
7F
330
7D
100
AcDbEntity
  8
_U+30EC_U+30A4_U+30E4_U+30FC 1
 62
     7
420
 16777215
370
     9
100
AcDbVertex
100
AcDb2dVertex
 10
94.24680342889707
 20
-127.7841191347207
 30
0.0
  0
SEQEND
  5
80
330
7D
100
AcDbEntity
  8
_U+30EC_U+30A4_U+30E4_U+30FC 1
 62
     7
420
 16777215
370
     9
  0
POLYLINE
  5
81
330
1F
100
AcDbEntity
  8
_U+30EC_U+30A4_U+30E4_U+30FC 1
 62
     7
420
 16777215
370
     9
100
AcDb2dPolyline
 66
     1
 10
0.0
 20
0.0
 30
0.0
  0
VERTEX
  5
82
330
81
100
AcDbEntity
  8
_U+30EC_U+30A4_U+30E4_U+30FC 1
 62
     7
420
 16777215
370
     9
100
AcDbVertex
100
AcDb2dVertex
 10
88.58031051790579
 20
-124.4988760799865
 30
0.0
  0
VERTEX
  5
83
330
81
100
AcDbEntity
  8
_U+30EC_U+30A4_U+30E4_U+30FC 1
 62
     7
420
 16777215
370
     9
100
AcDbVertex
100
AcDb2dVertex
 10
91.09385212044667
 20
-122.9115171914944
 30
0.0
  0
VERTEX
  5
84
330
81
100
AcDbEntity
  8
_U+30EC_U+30A4_U+30E4_U+30FC 1
 62
     7
420
 16777215
370
     9
100
AcDbVertex
100
AcDb2dVertex
 10
91.09385212044667
 20
-122.5807880249104
 30
0.0
  0
SEQEND
  5
85
330
81
100
AcDbEntity
  8
_U+30EC_U+30A4_U+30E4_U+30FC 1
 62
     7
420
 16777215
370
     9
  0
POLYLINE
  5
86
330
1F
100
AcDbEntity
  8
_U+30EC_U+30A4_U+30E4_U+30FC 1
 62
     7
420
 16777215
370
     9
100
AcDb2dPolyline
 66
     1
 10
0.0
 20
0.0
 30
0.0
  0
VERTEX
  5
87
330
86
100
AcDbEntity
  8
_U+30EC_U+30A4_U+30E4_U+30FC 1
 62
     7
420
 16777215
370
     9
100
AcDbVertex
100
AcDb2dVertex
 10
89.77093548753041
 20
-123.7493644135072
 30
0.0
  0
VERTEX
  5
88
330
86
100
AcDbEntity
  8
_U+30EC_U+30A4_U+30E4_U+30FC 1
 62
     7
420
 16777215
370
     9
100
AcDbVertex
100
AcDb2dVertex
 10
89.77093548753041
 20
-125.1823830242601
 30
0.0
  0
SEQEND
  5
89
330
86
100
AcDbEntity
  8
_U+30EC_U+30A4_U+30E4_U+30FC 1
 62
     7
420
 16777215
370
     9
  0
POLYLINE
  5
8A
330
1F
100
AcDbEntity
  8
_U+30EC_U+30A4_U+30E4_U+30FC 1
 62
     7
420
 16777215
370
     9
100
AcDb2dPolyline
 66
     1
 10
0.0
 20
0.0
 30
0.0
  0
VERTEX
  5
8B
330
8A
100
AcDbEntity
  8
_U+30EC_U+30A4_U+30E4_U+30FC 1
 62
     7
420
 16777215
370
     9
100
AcDbVertex
100
AcDb2dVertex
 10
91.57892155251595
 20
-126.2186677462232
 30
0.0
  0
VERTEX
  5
8C
330
8A
100
AcDbEntity
  8
_U+30EC_U+30A4_U+30E4_U+30FC 1
 62
     7
420
 16777215
370
     9
100
AcDbVertex
100
AcDb2dVertex
 10
92.65930346939756
 20
-125.4469663575272
 30
0.0
  0
SEQEND
  5
8D
330
8A
100
AcDbEntity
  8
_U+30EC_U+30A4_U+30E4_U+30FC 1
 62
     7
420
 16777215
370
     9
  0
POLYLINE
  5
8E
330
1F
100
AcDbEntity
  8
_U+30EC_U+30A4_U+30E4_U+30FC 1
 62
     7
420
 16777215
370
     9
100
AcDb2dPolyline
 66
     1
 10
0.0
 20
0.0
 30
0.0
  0
VERTEX
  5
8F
330
8E
100
AcDbEntity
  8
_U+30EC_U+30A4_U+30E4_U+30FC 1
 62
     7
420
 16777215
370
     9
100
AcDbVertex
100
AcDb2dVertex
 10
93.16642151201546
 20
-127.1226608015528
 30
0.0
  0
VERTEX
  5
90
330
8E
100
AcDbEntity
  8
_U+30EC_U+30A4_U+30E4_U+30FC 1
 62
     7
420
 16777215
370
     9
100
AcDbVertex
100
AcDb2dVertex
 10
93.47510205969591
 20
-126.7919316349688
 30
0.0
  0
SEQEND
  5
91
330
8E
100
AcDbEntity
  8
_U+30EC_U+30A4_U+30E4_U+30FC 1
 62
     7
420
 16777215
370
     9
  0
POLYLINE
  5
92
330
1F
100
AcDbEntity
  8
_U+30EC_U+30A4_U+30E4_U+30FC 1
 62
     7
420
 16777215
370
     9
100
AcDb2dPolyline
 66
     1
 10
0.0
 20
0.0
 30
0.0
  0
VERTEX
  5
93
330
92
100
AcDbEntity
  8
_U+30EC_U+30A4_U+30E4_U+30FC 1
 62
     7
420
 16777215
370
     9
100
AcDbVertex
100
AcDb2dVertex
 10
95.10669924029263
 20
-120.7290574698179
 30
0.0
  0
VERTEX
  5
94
330
92
100
AcDbEntity
  8
_U+30EC_U+30A4_U+30E4_U+30FC 1
 62
     7
420
 16777215
370
     9
100
AcDbVertex
100
AcDb2dVertex
 10
97.28951168460443
 20
-122.0075241361648
 30
0.0
  0
VERTEX
  5
95
330
92
100
AcDbEntity
  8
_U+30EC_U+30A4_U+30E4_U+30FC 1
 62
     7
420
 16777215
370
     9
100
AcDbVertex
100
AcDb2dVertex
 10
97.28951168460443
 20
-123.7934616357184
 30
0.0
  0
SEQEND
  5
96
330
92
100
AcDbEntity
  8
_U+30EC_U+30A4_U+30E4_U+30FC 1
 62
     7
420
 16777215
370
     9
  0
POLYLINE
  5
97
330
1F
100
AcDbEntity
  8
_U+30EC_U+30A4_U+30E4_U+30FC 1
 62
     7
420
 16777215
370
     9
100
AcDb2dPolyline
 66
     1
 10
0.0
 20
0.0
 30
0.0
  0
VERTEX
  5
98
330
97
100
AcDbEntity
  8
_U+30EC_U+30A4_U+30E4_U+30FC 1
 62
     7
420
 16777215
370
     9
100
AcDbVertex
100
AcDb2dVertex
 10
97.26675751851828
 20
-126.6596399683352
 30
0.0
  0
VERTEX
  5
99
330
97
100
AcDbEntity
  8
_U+30EC_U+30A4_U+30E4_U+30FC 1
 62
     7
420
 16777215
370
     9
100
AcDbVertex
100
AcDb2dVertex
 10
97.26675751851828
 20
-128.9747441344231
 30
0.0
  0
VERTEX
  5
9A
330
97
100
AcDbEntity
  8
_U+30EC_U+30A4_U+30E4_U+30FC 1
 62
     7
420
 16777215
370
     9
100
AcDbVertex
100
AcDb2dVertex
 10
95.23899090358425
 20
-127.6745463569701
 30
0.0
  0
SEQEND
  5
9B
330
97
100
AcDbEntity
  8
_U+30EC_U+30A4_U+30E4_U+30FC 1
 62
     7
420
 16777215
370
     9
  0
POLYLINE
  5
9C
330
1F
100
AcDbEntity
  8
_U+30EC_U+30A4_U+30E4_U+30FC 1
 62
     7
420
 16777215
370
     9
100
AcDb2dPolyline
 66
     1
 10
0.0
 20
0.0
 30
0.0
  0
VERTEX
  5
9D
330
9C
100
AcDbEntity
  8
_U+30EC_U+30A4_U+30E4_U+30FC 1
 62
     7
420
 16777215
370
     9
100
AcDbVertex
100
AcDb2dVertex
 10
92.72544930104337
 20
-132.4366935780017
 30
0.0
  0
VERTEX
  5
9E
330
9C
100
AcDbEntity
  8
_U+30EC_U+30A4_U+30E4_U+30FC 1
 62
     7
420
 16777215
370
     9
100
AcDbVertex
100
AcDb2dVertex
 10
94.48863258939416
 20
-131.1141296894435
 30
0.0
  0
VERTEX
  5
9F
330
9C
100
AcDbEntity
  8
_U+30EC_U+30A4_U+30E4_U+30FC 1
 62
     7
420
 16777215
370
     9
100
AcDbVertex
100
AcDb2dVertex
 10
94.48863258939416
 20
-134.0679732998164
 30
0.0
  0
SEQEND
  5
A0
330
9C
100
AcDbEntity
  8
_U+30EC_U+30A4_U+30E4_U+30FC 1
 62
     7
420
 16777215
370
     9
  0
POLYLINE
  5
A1
330
1F
100
AcDbEntity
  8
_U+30EC_U+30A4_U+30E4_U+30FC 1
 62
     7
420
 16777215
370
     9
100
AcDb2dPolyline
 66
     1
 10
0.0
 20
0.0
 30
0.0
  0
VERTEX
  5
A2
330
A1
100
AcDbEntity
  8
_U+30EC_U+30A4_U+30E4_U+30FC 1
 62
     7
420
 16777215
370
     9
100
AcDbVertex
100
AcDb2dVertex
 10
84.4572203453168
 20
-130.7389505228706
 30
0.0
  0
VERTEX
  5
A3
330
A1
100
AcDbEntity
  8
_U+30EC_U+30A4_U+30E4_U+30FC 1
 62
     7
420
 16777215
370
     9
100
AcDbVertex
100
AcDb2dVertex
 10
82.69333150142846
 20
-131.8190149670453
 30
0.0
  0
VERTEX
  5
A4
330
A1
100
AcDbEntity
  8
_U+30EC_U+30A4_U+30E4_U+30FC 1
 62
     7
420
 16777215
370
     9
100
AcDbVertex
100
AcDb2dVertex
 10
85.0084356090319
 20
-133.2521746889093
 30
0.0
  0
SEQEND
  5
A5
330
A1
100
AcDbEntity
  8
_U+30EC_U+30A4_U+30E4_U+30FC 1
 62
     7
420
 16777215
370
     9
  0
POLYLINE
  5
A6
330
1F
100
AcDbEntity
  8
_U+30EC_U+30A4_U+30E4_U+30FC 1
 62
     7
420
 16777215
370
     9
100
AcDb2dPolyline
 66
     1
 10
0.0
 20
0.0
 30
0.0
  0
VERTEX
  5
A7
330
A6
100
AcDbEntity
  8
_U+30EC_U+30A4_U+30E4_U+30FC 1
 62
     7
420
 16777215
370
     9
100
AcDbVertex
100
AcDb2dVertex
 10
88.77874801284322
 20
-135.3688413550468
 30
0.0
  0
VERTEX
  5
A8
330
A6
100
AcDbEntity
  8
_U+30EC_U+30A4_U+30E4_U+30FC 1
 62
     7
420
 16777215
370
     9
100
AcDbVertex
100
AcDb2dVertex
 10
91.2261437837383
 20
-136.8460982991219
 30
0.0
  0
VERTEX
  5
A9
330
A6
100
AcDbEntity
  8
_U+30EC_U+30A4_U+30E4_U+30FC 1
 62
     7
420
 16777215
370
     9
100
AcDbVertex
100
AcDb2dVertex
 10
93.18847012256406
 20
-135.5455477438912
 30
0.0
  0
SEQEND
  5
AA
330
A6
100
AcDbEntity
  8
_U+30EC_U+30A4_U+30E4_U+30FC 1
 62
     7
420
 16777215
370
     9
  0
SPLINE
  5
AB
330
1F
100
AcDbEntity
  8
_U+30EC_U+30A4_U+30E4_U+30FC 1
 62
     7
420
 16777215
370
     9
100
AcDbSpline
210
0.0
220
0.0
230
1.0
 70
    11
 71
     3
 72
    17
 73
    13
 74
     0
 42
0.0000000001
 43
0.0000000001
 12
1.0
 22
0.0
 32
0.0
 13
1.0
 23
0.0
 33
0.0
 40
0.0
 40
0.0
 40
0.0
 40
0.0
 40
1.0
 40
1.0
 40
1.0
 40
2.0
 40
2.0
 40
2.0
 40
3.0
 40
3.0
 40
3.0
 40
4.0
 40
4.0
 40
4.0
 40
4.0
 10
97.3990491818099
 20
-122.0295727472704
 30
0.0
 10
97.3990491818099
 20
-122.1026330250298
 30
0.0
 10
97.34048807219281
 20
-122.161864413904
 30
0.0
 10
97.26675751851828
 20
-122.161864413904
 30
0.0
 10
97.19440279814198
 20
-122.161864413904
 30
0.0
 10
97.13446585522665
 20
-122.1026330250298
 30
0.0
 10
97.13446585522665
 20
-122.0295727472704
 30
0.0
 10
97.13446585522665
 20
-121.9569005250663
 30
0.0
 10
97.19440279814198
 20
-121.8972810806369
 30
0.0
 10
97.26675751851828
 20
-121.8972810806369
 30
0.0
 10
97.34048807219281
 20
-121.8972810806369
 30
0.0
 10
97.3990491818099
 20
-121.9569005250663
 30
0.0
 10
97.3990491818099
 20
-122.0295727472704
 30
0.0
  0
HATCH
  5
AC
330
1F
100
AcDbEntity
  8
_U+30EC_U+30A4_U+30E4_U+30FC 1
 62
     7
420
 16777215
100
AcDbHatch
 10
0.0
 20
0.0
 30
0.0
210
0.0
220
0.0
230
1.0
  2
SOLID
 70
     1
 71
     0
 91
        1
 92
        1
 93
        1
 72
     4
 94
        3
 73
     0
 74
     1
 95
       17
 96
       13
 40
0.0
 40
0.0
 40
0.0
 40
0.0
 40
1.0
 40
1.0
 40
1.0
 40
2.0
 40
2.0
 40
2.0
 40
3.0
 40
3.0
 40
3.0
 40
4.0
 40
4.0
 40
4.0
 40
4.0
 10
97.3990491818099
 20
-122.0295727472704
 10
97.3990491818099
 20
-122.1026330250298
 10
97.34048807219281
 20
-122.161864413904
 10
97.26675751851828
 20
-122.161864413904
 10
97.19440279814198
 20
-122.161864413904
 10
97.13446585522665
 20
-122.1026330250298
 10
97.13446585522665
 20
-122.0295727472704
 10
97.13446585522665
 20
-121.9569005250663
 10
97.19440279814198
 20
-121.8972810806369
 10
97.26675751851828
 20
-121.8972810806369
 10
97.34048807219281
 20
-121.8972810806369
 10
97.3990491818099
 20
-121.9569005250663
 10
97.3990491818099
 20
-122.0295727472704
 97
        0
 97
        0
 75
     2
 76
     1
 98
        0
  0
SPLINE
  5
AD
330
1F
100
AcDbEntity
  8
_U+30EC_U+30A4_U+30E4_U+30FC 1
 62
     7
420
 16777215
370
     9
100
AcDbSpline
210
0.0
220
0.0
230
1.0
 70
    11
 71
     3
 72
    17
 73
    13
 74
     0
 42
0.0000000001
 43
0.0000000001
 12
1.0
 22
0.0
 32
0.0
 13
1.0
 23
0.0
 33
0.0
 40
0.0
 40
0.0
 40
0.0
 40
0.0
 40
1.0
 40
1.0
 40
1.0
 40
2.0
 40
2.0
 40
2.0
 40
3.0
 40
3.0
 40
3.0
 40
4.0
 40
4.0
 40
4.0
 40
4.0
 10
97.3990491818099
 20
-128.8865496900007
 30
0.0
 10
97.3990491818099
 20
-128.9595746899825
 30
0.0
 10
97.34048807219281
 20
-129.0188413566343
 30
0.0
 10
97.26675751851828
 20
-129.0188413566343
 30
0.0
 10
97.19440279814198
 20
-129.0188413566343
 30
0.0
 10
97.13446585522665
 20
-128.9595746899825
 30
0.0
 10
97.13446585522665
 20
-128.8865496900007
 30
0.0
 10
97.13446585522665
 20
-128.8134894122413
 30
0.0
 10
97.19440279814198
 20
-128.7542580233671
 30
0.0
 10
97.26675751851828
 20
-128.7542580233671
 30
0.0
 10
97.34048807219281
 20
-128.7542580233671
 30
0.0
 10
97.3990491818099
 20
-128.8134894122413
 30
0.0
 10
97.3990491818099
 20
-128.8865496900007
 30
0.0
  0
HATCH
  5
AE
330
1F
100
AcDbEntity
  8
_U+30EC_U+30A4_U+30E4_U+30FC 1
 62
     7
420
 16777215
100
AcDbHatch
 10
0.0
 20
0.0
 30
0.0
210
0.0
220
0.0
230
1.0
  2
SOLID
 70
     1
 71
     0
 91
        1
 92
        1
 93
        1
 72
     4
 94
        3
 73
     0
 74
     1
 95
       17
 96
       13
 40
0.0
 40
0.0
 40
0.0
 40
0.0
 40
1.0
 40
1.0
 40
1.0
 40
2.0
 40
2.0
 40
2.0
 40
3.0
 40
3.0
 40
3.0
 40
4.0
 40
4.0
 40
4.0
 40
4.0
 10
97.3990491818099
 20
-128.8865496900007
 10
97.3990491818099
 20
-128.9595746899825
 10
97.34048807219281
 20
-129.0188413566343
 10
97.26675751851828
 20
-129.0188413566343
 10
97.19440279814198
 20
-129.0188413566343
 10
97.13446585522665
 20
-128.9595746899825
 10
97.13446585522665
 20
-128.8865496900007
 10
97.13446585522665
 20
-128.8134894122413
 10
97.19440279814198
 20
-128.7542580233671
 10
97.26675751851828
 20
-128.7542580233671
 10
97.34048807219281
 20
-128.7542580233671
 10
97.3990491818099
 20
-128.8134894122413
 10
97.3990491818099
 20
-128.8865496900007
 97
        0
 97
        0
 75
     2
 76
     1
 98
        0
  0
SPLINE
  5
AF
330
1F
100
AcDbEntity
  8
_U+30EC_U+30A4_U+30E4_U+30FC 1
 62
     7
420
 16777215
370
     9
100
AcDbSpline
210
0.0
220
0.0
230
1.0
 70
    11
 71
     3
 72
    17
 73
    13
 74
     0
 42
0.0000000001
 43
0.0000000001
 12
1.0
 22
0.0
 32
0.0
 13
1.0
 23
0.0
 33
0.0
 40
0.0
 40
0.0
 40
0.0
 40
0.0
 40
1.0
 40
1.0
 40
1.0
 40
2.0
 40
2.0
 40
2.0
 40
3.0
 40
3.0
 40
3.0
 40
4.0
 40
4.0
 40
4.0
 40
4.0
 10
94.59958119767472
 20
-131.1358255227714
 30
0.0
 10
94.59958119767472
 20
-131.2088858005314
 30
0.0
 10
94.54031453252009
 20
-131.268117189405
 30
0.0
 10
94.4672895343831
 20
-131.268117189405
 30
0.0
 10
94.39355898070858
 20
-131.268117189405
 30
0.0
 10
94.33499787109147
 20
-131.2088858005314
 30
0.0
 10
94.33499787109147
 20
-131.1358255227714
 30
0.0
 10
94.33499787109147
 20
-131.0628005227902
 30
0.0
 10
94.39355898070858
 20
-131.0035338561378
 30
0.0
 10
94.4672895343831
 20
-131.0035338561378
 30
0.0
 10
94.54031453252009
 20
-131.0035338561378
 30
0.0
 10
94.59958119767472
 20
-131.0628005227902
 30
0.0
 10
94.59958119767472
 20
-131.1358255227714
 30
0.0
  0
HATCH
  5
B0
330
1F
100
AcDbEntity
  8
_U+30EC_U+30A4_U+30E4_U+30FC 1
 62
     7
420
 16777215
100
AcDbHatch
 10
0.0
 20
0.0
 30
0.0
210
0.0
220
0.0
230
1.0
  2
SOLID
 70
     1
 71
     0
 91
        1
 92
        1
 93
        1
 72
     4
 94
        3
 73
     0
 74
     1
 95
       17
 96
       13
 40
0.0
 40
0.0
 40
0.0
 40
0.0
 40
1.0
 40
1.0
 40
1.0
 40
2.0
 40
2.0
 40
2.0
 40
3.0
 40
3.0
 40
3.0
 40
4.0
 40
4.0
 40
4.0
 40
4.0
 10
94.59958119767472
 20
-131.1358255227714
 10
94.59958119767472
 20
-131.2088858005314
 10
94.54031453252009
 20
-131.268117189405
 10
94.4672895343831
 20
-131.268117189405
 10
94.39355898070858
 20
-131.268117189405
 10
94.33499787109147
 20
-131.2088858005314
 10
94.33499787109147
 20
-131.1358255227714
 10
94.33499787109147
 20
-131.0628005227902
 10
94.39355898070858
 20
-131.0035338561378
 10
94.4672895343831
 20
-131.0035338561378
 10
94.54031453252009
 20
-131.0035338561378
 10
94.59958119767472
 20
-131.0628005227902
 10
94.59958119767472
 20
-131.1358255227714
 97
        0
 97
        0
 75
     2
 76
     1
 98
        0
  0
SPLINE
  5
B1
330
1F
100
AcDbEntity
  8
_U+30EC_U+30A4_U+30E4_U+30FC 1
 62
     7
420
 16777215
370
     9
100
AcDbSpline
210
0.0
220
0.0
230
1.0
 70
    11
 71
     3
 72
    17
 73
    13
 74
     0
 42
0.0000000001
 43
0.0000000001
 12
1.0
 22
0.0
 32
0.0
 13
1.0
 23
0.0
 33
0.0
 40
0.0
 40
0.0
 40
0.0
 40
0.0
 40
1.0
 40
1.0
 40
1.0
 40
2.0
 40
2.0
 40
2.0
 40
3.0
 40
3.0
 40
3.0
 40
4.0
 40
4.0
 40
4.0
 40
4.0
 10
92.72544930104337
 20
-132.5028394113185
 30
0.0
 10
92.72544930104337
 20
-132.5755469113008
 30
0.0
 10
92.66547708035117
 20
-132.6351310779521
 30
0.0
 10
92.59315763775174
 20
-132.6351310779521
 30
0.0
 10
92.5200973618379
 20
-132.6351310779521
 30
0.0
 10
92.46086597446012
 20
-132.5755469113008
 30
0.0
 10
92.46086597446012
 20
-132.5028394113185
 30
0.0
 10
92.46086597446012
 20
-132.4301671891144
 30
0.0
 10
92.5200973618379
 20
-132.3705477446849
 30
0.0
 10
92.59315763775174
 20
-132.3705477446849
 30
0.0
 10
92.66547708035117
 20
-132.3705477446849
 30
0.0
 10
92.72544930104337
 20
-132.4301671891144
 30
0.0
 10
92.72544930104337
 20
-132.5028394113185
 30
0.0
  0
HATCH
  5
B2
330
1F
100
AcDbEntity
  8
_U+30EC_U+30A4_U+30E4_U+30FC 1
 62
     7
420
 16777215
100
AcDbHatch
 10
0.0
 20
0.0
 30
0.0
210
0.0
220
0.0
230
1.0
  2
SOLID
 70
     1
 71
     0
 91
        1
 92
        1
 93
        1
 72
     4
 94
        3
 73
     0
 74
     1
 95
       17
 96
       13
 40
0.0
 40
0.0
 40
0.0
 40
0.0
 40
1.0
 40
1.0
 40
1.0
 40
2.0
 40
2.0
 40
2.0
 40
3.0
 40
3.0
 40
3.0
 40
4.0
 40
4.0
 40
4.0
 40
4.0
 10
92.72544930104337
 20
-132.5028394113185
 10
92.72544930104337
 20
-132.5755469113008
 10
92.66547708035117
 20
-132.6351310779521
 10
92.59315763775174
 20
-132.6351310779521
 10
92.5200973618379
 20
-132.6351310779521
 10
92.46086597446012
 20
-132.5755469113008
 10
92.46086597446012
 20
-132.5028394113185
 10
92.46086597446012
 20
-132.4301671891144
 10
92.5200973618379
 20
-132.3705477446849
 10
92.59315763775174
 20
-132.3705477446849
 10
92.66547708035117
 20
-132.3705477446849
 10
92.72544930104337
 20
-132.4301671891144
 10
92.72544930104337
 20
-132.5028394113185
 97
        0
 97
        0
 75
     2
 76
     1
 98
        0
  0
SPLINE
  5
B3
330
1F
100
AcDbEntity
  8
_U+30EC_U+30A4_U+30E4_U+30FC 1
 62
     7
420
 16777215
370
     9
100
AcDbSpline
210
0.0
220
0.0
230
1.0
 70
    11
 71
     3
 72
    17
 73
    13
 74
     0
 42
0.0000000001
 43
0.0000000001
 12
1.0
 22
0.0
 32
0.0
 13
1.0
 23
0.0
 33
0.0
 40
0.0
 40
0.0
 40
0.0
 40
0.0
 40
1.0
 40
1.0
 40
1.0
 40
2.0
 40
2.0
 40
2.0
 40
3.0
 40
3.0
 40
3.0
 40
4.0
 40
4.0
 40
4.0
 40
4.0
 10
91.31363267039515
 20
-136.8020010769107
 30
0.0
 10
91.31363267039515
 20
-136.8746732991148
 30
0.0
 10
91.25507156077806
 20
-136.9342927435443
 30
0.0
 10
91.18134100710353
 20
-136.9342927435443
 30
0.0
 10
91.10831600896655
 20
-136.9342927435443
 30
0.0
 10
91.0490493438119
 20
-136.8746732991148
 30
0.0
 10
91.0490493438119
 20
-136.8020010769107
 30
0.0
 10
91.0490493438119
 20
-136.7289407991513
 30
0.0
 10
91.10831600896655
 20
-136.6697094102771
 30
0.0
 10
91.18134100710353
 20
-136.6697094102771
 30
0.0
 10
91.25507156077806
 20
-136.6697094102771
 30
0.0
 10
91.31363267039515
 20
-136.7289407991513
 30
0.0
 10
91.31363267039515
 20
-136.8020010769107
 30
0.0
  0
HATCH
  5
B4
330
1F
100
AcDbEntity
  8
_U+30EC_U+30A4_U+30E4_U+30FC 1
 62
     7
420
 16777215
100
AcDbHatch
 10
0.0
 20
0.0
 30
0.0
210
0.0
220
0.0
230
1.0
  2
SOLID
 70
     1
 71
     0
 91
        1
 92
        1
 93
        1
 72
     4
 94
        3
 73
     0
 74
     1
 95
       17
 96
       13
 40
0.0
 40
0.0
 40
0.0
 40
0.0
 40
1.0
 40
1.0
 40
1.0
 40
2.0
 40
2.0
 40
2.0
 40
3.0
 40
3.0
 40
3.0
 40
4.0
 40
4.0
 40
4.0
 40
4.0
 10
91.31363267039515
 20
-136.8020010769107
 10
91.31363267039515
 20
-136.8746732991148
 10
91.25507156077806
 20
-136.9342927435443
 10
91.18134100710353
 20
-136.9342927435443
 10
91.10831600896655
 20
-136.9342927435443
 10
91.0490493438119
 20
-136.8746732991148
 10
91.0490493438119
 20
-136.8020010769107
 10
91.0490493438119
 20
-136.7289407991513
 10
91.10831600896655
 20
-136.6697094102771
 10
91.18134100710353
 20
-136.6697094102771
 10
91.25507156077806
 20
-136.6697094102771
 10
91.31363267039515
 20
-136.7289407991513
 10
91.31363267039515
 20
-136.8020010769107
 97
        0
 97
        0
 75
     2
 76
     1
 98
        0
  0
SPLINE
  5
B5
330
1F
100
AcDbEntity
  8
_U+30EC_U+30A4_U+30E4_U+30FC 1
 62
     7
420
 16777215
370
     9
100
AcDbSpline
210
0.0
220
0.0
230
1.0
 70
    11
 71
     3
 72
    17
 73
    13
 74
     0
 42
0.0000000001
 43
0.0000000001
 12
1.0
 22
0.0
 32
0.0
 13
1.0
 23
0.0
 33
0.0
 40
0.0
 40
0.0
 40
0.0
 40
0.0
 40
1.0
 40
1.0
 40
1.0
 40
2.0
 40
2.0
 40
2.0
 40
3.0
 40
3.0
 40
3.0
 40
4.0
 40
4.0
 40
4.0
 40
4.0
 10
82.82562316472008
 20
-131.8410635781509
 30
0.0
 10
82.82562316472008
 20
-131.9137358003551
 30
0.0
 10
82.76635649956545
 20
-131.9733552447845
 30
0.0
 10
82.69333150142846
 20
-131.9733552447845
 30
0.0
 10
82.61960094775394
 20
-131.9733552447845
 30
0.0
 10
82.56103983813684
 20
-131.9137358003551
 30
0.0
 10
82.56103983813684
 20
-131.8410635781509
 30
0.0
 10
82.56103983813684
 20
-131.7683560781693
 30
0.0
 10
82.61960094775394
 20
-131.7090894115169
 30
0.0
 10
82.69333150142846
 20
-131.7090894115169
 30
0.0
 10
82.76635649956545
 20
-131.7090894115169
 30
0.0
 10
82.82562316472008
 20
-131.7683560781693
 30
0.0
 10
82.82562316472008
 20
-131.8410635781509
 30
0.0
  0
HATCH
  5
B6
330
1F
100
AcDbEntity
  8
_U+30EC_U+30A4_U+30E4_U+30FC 1
 62
     7
420
 16777215
100
AcDbHatch
 10
0.0
 20
0.0
 30
0.0
210
0.0
220
0.0
230
1.0
  2
SOLID
 70
     1
 71
     0
 91
        1
 92
        1
 93
        1
 72
     4
 94
        3
 73
     0
 74
     1
 95
       17
 96
       13
 40
0.0
 40
0.0
 40
0.0
 40
0.0
 40
1.0
 40
1.0
 40
1.0
 40
2.0
 40
2.0
 40
2.0
 40
3.0
 40
3.0
 40
3.0
 40
4.0
 40
4.0
 40
4.0
 40
4.0
 10
82.82562316472008
 20
-131.8410635781509
 10
82.82562316472008
 20
-131.9137358003551
 10
82.76635649956545
 20
-131.9733552447845
 10
82.69333150142846
 20
-131.9733552447845
 10
82.61960094775394
 20
-131.9733552447845
 10
82.56103983813684
 20
-131.9137358003551
 10
82.56103983813684
 20
-131.8410635781509
 10
82.56103983813684
 20
-131.7683560781693
 10
82.61960094775394
 20
-131.7090894115169
 10
82.69333150142846
 20
-131.7090894115169
 10
82.76635649956545
 20
-131.7090894115169
 10
82.82562316472008
 20
-131.7683560781693
 10
82.82562316472008
 20
-131.8410635781509
 97
        0
 97
        0
 75
     2
 76
     1
 98
        0
  0
INSERT
  5
B8
330
1F
100
AcDbEntity
  8
_U+30EC_U+30A4_U+30E4_U+30FC 1
100
AcDbBlockReference
  2
block 2
 10
0.0
 20
0.0
 30
0.0
  0
INSERT
  5
C0
330
1F
100
AcDbEntity
  8
_U+30EC_U+30A4_U+30E4_U+30FC 1
100
AcDbBlockReference
  2
block 3
 10
0.0
 20
0.0
 30
0.0
  0
INSERT
  5
D5
330
1F
100
AcDbEntity
  8
_U+30EC_U+30A4_U+30E4_U+30FC 1
100
AcDbBlockReference
  2
block 4
 10
0.0
 20
0.0
 30
0.0
  0
ENDSEC
  0
SECTION
  2
OBJECTS
  0
DICTIONARY
  5
C
330
0
100
AcDbDictionary
281
     1
  3
ACAD_GROUP
350
D
  3
ACAD_LAYOUT
350
1A
  3
ACAD_MATERIAL
350
3B
  3
ACAD_MLEADERSTYLE
350
E5
  3
ACAD_MLINESTYLE
350
17
  3
ACAD_PLOTSETTINGS
350
19
  3
ACAD_PLOTSTYLENAME
350
E
  3
ACAD_TABLESTYLE
350
E4
  3
ACAD_VISUALSTYLE
350
2A
  0
SUN
  5
3F
330
29
100
AcDbSun
 90
        1
290
     0
 63
     7
421
 16777215
 40
1.0
291
     1
 91
  2455826
 92
 54000000
292
     0
 70
     2
 71
   256
280
     1
  0
DICTIONARY
  5
D
102
{ACAD_REACTORS
330
C
102
}
330
C
100
AcDbDictionary
281
     1
  0
DICTIONARY
  5
1A
102
{ACAD_REACTORS
330
C
102
}
330
C
100
AcDbDictionary
281
     1
  3
Layout1
350
1E
  3
Layout2
350
26
  3
Model
350
22
  0
DICTIONARY
  5
3B
102
{ACAD_REACTORS
330
C
102
}
330
C
100
AcDbDictionary
281
     1
  3
ByBlock
350
3D
  3
ByLayer
350
3C
  3
Global
350
3E
  0
DICTIONARY
  5
E5
102
{ACAD_REACTORS
330
C
102
}
330
C
100
AcDbDictionary
281
     1
  0
DICTIONARY
  5
17
102
{ACAD_REACTORS
330
C
102
}
330
C
100
AcDbDictionary
281
     1
  3
Standard
350
18
  0
DICTIONARY
  5
19
102
{ACAD_REACTORS
330
C
102
}
330
C
100
AcDbDictionary
281
     1
  0
ACDBDICTIONARYWDFLT
  5
E
102
{ACAD_REACTORS
330
C
102
}
330
C
100
AcDbDictionary
281
     1
  3
Normal
350
F
100
AcDbDictionaryWithDefault
340
F
  0
DICTIONARY
  5
E4
102
{ACAD_REACTORS
330
C
102
}
330
C
100
AcDbDictionary
281
     1
  0
DICTIONARY
  5
2A
102
{ACAD_REACTORS
330
C
102
}
330
C
100
AcDbDictionary
281
     1
  3
2dWireframe
350
2F
  3
3D Hidden
350
31
  3
3dWireframe
350
30
  3
Basic
350
32
  3
Brighten
350
36
  3
ColorChange
350
3A
  3
Conceptual
350
34
  3
Dim
350
35
  3
Facepattern
350
39
  3
Flat
350
2B
  3
FlatWithEdges
350
2C
  3
Gouraud
350
2D
  3
GouraudWithEdges
350
2E
  3
Linepattern
350
38
  3
Realistic
350
33
  3
Thicken
350
37
  0
LAYOUT
  5
1E
102
{ACAD_REACTORS
330
1A
102
}
330
1A
100
AcDbPlotSettings
  1

  2
none_device
  4

  6

 40
0.0
 41
0.0
 42
0.0
 43
0.0
 44
0.0
 45
0.0
 46
0.0
 47
0.0
 48
0.0
 49
0.0
140
0.0
141
0.0
142
1.0
143
1.0
 70
   688
 72
     0
 73
     0
 74
     5
  7

 75
    16
 76
     0
 77
     2
 78
   300
147
1.0
148
0.0
149
0.0
100
AcDbLayout
  1
Layout1
 70
     1
 71
     1
 10
0.0
 20
0.0
 11
12.0
 21
9.0
 12
0.0
 22
0.0
 32
0.0
 14
1.000000000000000E+20
 24
1.000000000000000E+20
 34
1.000000000000000E+20
 15
-1.000000000000000E+20
 25
-1.000000000000000E+20
 35
-1.000000000000000E+20
146
0.0
 13
0.0
 23
0.0
 33
0.0
 16
1.0
 26
0.0
 36
0.0
 17
0.0
 27
1.0
 37
0.0
 76
     0
330
1B
  0
LAYOUT
  5
26
102
{ACAD_REACTORS
330
1A
102
}
330
1A
100
AcDbPlotSettings
  1

  2
none_device
  4

  6

 40
0.0
 41
0.0
 42
0.0
 43
0.0
 44
0.0
 45
0.0
 46
0.0
 47
0.0
 48
0.0
 49
0.0
140
0.0
141
0.0
142
1.0
143
1.0
 70
   688
 72
     0
 73
     0
 74
     5
  7

 75
    16
 76
     0
 77
     2
 78
   300
147
1.0
148
0.0
149
0.0
100
AcDbLayout
  1
Layout2
 70
     1
 71
     2
 10
0.0
 20
0.0
 11
0.0
 21
0.0
 12
0.0
 22
0.0
 32
0.0
 14
0.0
 24
0.0
 34
0.0
 15
0.0
 25
0.0
 35
0.0
146
0.0
 13
0.0
 23
0.0
 33
0.0
 16
1.0
 26
0.0
 36
0.0
 17
0.0
 27
1.0
 37
0.0
 76
     0
330
23
  0
LAYOUT
  5
22
102
{ACAD_REACTORS
330
1A
102
}
330
1A
100
AcDbPlotSettings
  1

  2
none_device
  4

  6

 40
0.0
 41
0.0
 42
0.0
 43
0.0
 44
0.0
 45
0.0
 46
0.0
 47
0.0
 48
0.0
 49
0.0
140
0.0
141
0.0
142
1.0
143
1.0
 70
  1712
 72
     0
 73
     0
 74
     0
  7

 75
     0
 76
     0
 77
     2
 78
   300
147
1.0
148
0.0
149
0.0
100
AcDbLayout
  1
Model
 70
     1
 71
     0
 10
0.0
 20
0.0
 11
12.0
 21
9.0
 12
0.0
 22
0.0
 32
0.0
 14
1.000000000000000E+20
 24
1.000000000000000E+20
 34
1.000000000000000E+20
 15
-1.000000000000000E+20
 25
-1.000000000000000E+20
 35
-1.000000000000000E+20
146
0.0
 13
0.0
 23
0.0
 33
0.0
 16
1.0
 26
0.0
 36
0.0
 17
0.0
 27
1.0
 37
0.0
 76
     0
330
1F
331
29
  0
MATERIAL
  5
3D
102
{ACAD_REACTORS
330
3B
102
}
330
3B
100
AcDbMaterial
  1
ByBlock
 72
     1
 94
      127
  0
MATERIAL
  5
3C
102
{ACAD_REACTORS
330
3B
102
}
330
3B
100
AcDbMaterial
  1
ByLayer
 72
     1
 94
      127
  0
MATERIAL
  5
3E
102
{ACAD_REACTORS
330
3B
102
}
330
3B
100
AcDbMaterial
  1
Global
 72
     1
 94
      127
  0
MLINESTYLE
  5
18
102
{ACAD_REACTORS
330
17
102
}
330
17
100
AcDbMlineStyle
  2
Standard
 70
     0
  3

 62
   256
 51
90.0
 52
90.0
 71
     2
 49
0.5
 62
   256
  6
BYLAYER
 49
-0.5
 62
   256
  6
BYLAYER
  0
ACDBPLACEHOLDER
  5
F
102
{ACAD_REACTORS
330
E
102
}
330
E
  0
VISUALSTYLE
  5
2F
102
{ACAD_REACTORS
330
2A
102
}
330
2A
100
AcDbVisualStyle
  2
2dWireframe
 70
     4
177
     2
291
     0
 71
     0
176
     1
 72
     2
176
     1
 73
     0
176
     1
 90
        0
176
     1
 40
-0.6
176
     1
 41
-30.0
176
     1
 62
     5
 63
     7
421
 16777215
176
     1
 74
     1
176
     1
 91
        4
176
     1
 64
     7
176
     1
 65
   257
176
     1
 75
     1
176
     1
175
     1
176
     1
 42
1.0
176
     1
 92
        0
176
     1
 66
   257
176
     1
 43
1.0
176
     1
 76
     1
176
     1
 77
     6
176
     1
 78
     2
176
     1
 67
     7
176
     1
 79
     5
176
     1
170
     0
176
     1
171
     0
176
     1
290
     0
176
     1
 93
        1
176
     1
 44
0.0
176
     1
173
     0
176
     1
  0
VISUALSTYLE
  5
31
102
{ACAD_REACTORS
330
2A
102
}
330
2A
100
AcDbVisualStyle
  2
3D Hidden
 70
     6
177
     2
291
     0
 71
     1
176
     1
 72
     2
176
     1
 73
     2
176
     1
 90
        0
176
     1
 40
-0.6
176
     1
 41
-30.0
176
     1
 62
     5
 63
     7
421
 16777215
176
     1
 74
     2
176
     1
 91
        2
176
     1
 64
     7
176
     1
 65
   257
176
     1
 75
     2
176
     1
175
     1
176
     1
 42
40.0
176
     1
 92
        0
176
     1
 66
   257
176
     1
 43
1.0
176
     1
 76
     1
176
     1
 77
     6
176
     1
 78
     2
176
     1
 67
     7
176
     1
 79
     3
176
     1
170
     0
176
     1
171
     0
176
     1
290
     0
176
     1
 93
        1
176
     1
 44
0.0
176
     1
173
     0
176
     1
  0
VISUALSTYLE
  5
30
102
{ACAD_REACTORS
330
2A
102
}
330
2A
100
AcDbVisualStyle
  2
3dWireframe
 70
     5
177
     2
291
     0
 71
     0
176
     1
 72
     2
176
     1
 73
     0
176
     1
 90
        0
176
     1
 40
-0.6
176
     1
 41
-30.0
176
     1
 62
     5
 63
     7
421
 16777215
176
     1
 74
     1
176
     1
 91
        4
176
     1
 64
     7
176
     1
 65
   257
176
     1
 75
     1
176
     1
175
     1
176
     1
 42
1.0
176
     1
 92
        0
176
     1
 66
   257
176
     1
 43
1.0
176
     1
 76
     1
176
     1
 77
     6
176
     1
 78
     2
176
     1
 67
     7
176
     1
 79
     5
176
     1
170
     0
176
     1
171
     0
176
     1
290
     0
176
     1
 93
        1
176
     1
 44
0.0
176
     1
173
     0
176
     1
  0
VISUALSTYLE
  5
32
102
{ACAD_REACTORS
330
2A
102
}
330
2A
100
AcDbVisualStyle
  2
Basic
 70
     7
177
     2
291
     1
 71
     1
176
     1
 72
     0
176
     1
 73
     1
176
     1
 90
        0
176
     1
 40
-0.6
176
     1
 41
-30.0
176
     1
 62
     5
 63
     7
421
 16777215
176
     1
 74
     0
176
     1
 91
        4
176
     1
 64
     7
176
     1
 65
   257
176
     1
 75
     1
176
     1
175
     1
176
     1
 42
1.0
176
     1
 92
        8
176
     1
 66
     7
176
     1
 43
1.0
176
     1
 76
     1
176
     1
 77
     6
176
     1
 78
     2
176
     1
 67
     7
176
     1
 79
     5
176
     1
170
     0
176
     1
171
     0
176
     1
290
     0
176
     1
 93
        1
176
     1
 44
0.0
176
     1
173
     0
176
     1
  0
VISUALSTYLE
  5
36
102
{ACAD_REACTORS
330
2A
102
}
330
2A
100
AcDbVisualStyle
  2
Brighten
 70
    12
177
     2
291
     1
 71
     2
176
     1
 72
     2
176
     1
 73
     0
176
     1
 90
        0
176
     1
 40
-0.6
176
     1
 41
-30.0
176
     1
 62
     5
 63
     7
421
 16777215
176
     1
 74
     1
176
     1
 91
        4
176
     1
 64
     7
176
     1
 65
   257
176
     1
 75
     1
176
     1
175
     1
176
     1
 42
1.0
176
     1
 92
        8
176
     1
 66
     7
176
     1
 43
1.0
176
     1
 76
     1
176
     1
 77
     6
176
     1
 78
     2
176
     1
 67
     7
176
     1
 79
     5
176
     1
170
     0
176
     1
171
     0
176
     1
290
     0
176
     1
 93
        1
176
     1
 44
50.0
176
     1
173
     0
176
     1
  0
VISUALSTYLE
  5
3A
102
{ACAD_REACTORS
330
2A
102
}
330
2A
100
AcDbVisualStyle
  2
ColorChange
 70
    16
177
     2
291
     1
 71
     2
176
     1
 72
     2
176
     1
 73
     3
176
     1
 90
        0
176
     1
 40
-0.6
176
     1
 41
-30.0
176
     1
 62
     5
 63
     8
421
  8421504
176
     1
 74
     1
176
     1
 91
        4
176
     1
 64
     7
176
     1
 65
   257
176
     1
 75
     1
176
     1
175
     1
176
     1
 42
1.0
176
     1
 92
        8
176
     1
 66
     8
424
  8421504
176
     1
 43
1.0
176
     1
 76
     1
176
     1
 77
     6
176
     1
 78
     2
176
     1
 67
     7
176
     1
 79
     5
176
     1
170
     0
176
     1
171
     0
176
     1
290
     0
176
     1
 93
        1
176
     1
 44
0.0
176
     1
173
     0
176
     1
  0
VISUALSTYLE
  5
34
102
{ACAD_REACTORS
330
2A
102
}
330
2A
100
AcDbVisualStyle
  2
Conceptual
 70
     9
177
     2
291
     0
 71
     3
176
     1
 72
     2
176
     1
 73
     0
176
     1
 90
        0
176
     1
 40
-0.6
176
     1
 41
-30.0
176
     1
 62
     5
 63
     7
421
 16777215
176
     1
 74
     2
176
     1
 91
        2
176
     1
 64
     7
176
     1
 65
   257
176
     1
 75
     1
176
     1
175
     1
176
     1
 42
40.0
176
     1
 92
        8
176
     1
 66
     7
176
     1
 43
1.0
176
     1
 76
     1
176
     1
 77
     6
176
     1
 78
     2
176
     1
 67
     7
176
     1
 79
     3
176
     1
170
     0
176
     1
171
     0
176
     1
290
     0
176
     1
 93
        1
176
     1
 44
0.0
176
     1
173
     0
176
     1
  0
VISUALSTYLE
  5
35
102
{ACAD_REACTORS
330
2A
102
}
330
2A
100
AcDbVisualStyle
  2
Dim
 70
    11
177
     2
291
     1
 71
     2
176
     1
 72
     2
176
     1
 73
     0
176
     1
 90
        0
176
     1
 40
-0.6
176
     1
 41
-30.0
176
     1
 62
     5
 63
     7
421
 16777215
176
     1
 74
     1
176
     1
 91
        4
176
     1
 64
     7
176
     1
 65
   257
176
     1
 75
     1
176
     1
175
     1
176
     1
 42
1.0
176
     1
 92
        8
176
     1
 66
     7
176
     1
 43
1.0
176
     1
 76
     1
176
     1
 77
     6
176
     1
 78
     2
176
     1
 67
     7
176
     1
 79
     5
176
     1
170
     0
176
     1
171
     0
176
     1
290
     0
176
     1
 93
        1
176
     1
 44
-50.0
176
     1
173
     0
176
     1
  0
VISUALSTYLE
  5
39
102
{ACAD_REACTORS
330
2A
102
}
330
2A
100
AcDbVisualStyle
  2
Facepattern
 70
    15
177
     2
291
     1
 71
     2
176
     1
 72
     2
176
     1
 73
     0
176
     1
 90
        0
176
     1
 40
-0.6
176
     1
 41
-30.0
176
     1
 62
     5
 63
     7
421
 16777215
176
     1
 74
     1
176
     1
 91
        4
176
     1
 64
     7
176
     1
 65
   257
176
     1
 75
     1
176
     1
175
     1
176
     1
 42
1.0
176
     1
 92
        8
176
     1
 66
     7
176
     1
 43
1.0
176
     1
 76
     1
176
     1
 77
     6
176
     1
 78
     2
176
     1
 67
     7
176
     1
 79
     5
176
     1
170
     0
176
     1
171
     0
176
     1
290
     0
176
     1
 93
        1
176
     1
 44
0.0
176
     1
173
     0
176
     1
  0
VISUALSTYLE
  5
2B
102
{ACAD_REACTORS
330
2A
102
}
330
2A
100
AcDbVisualStyle
  2
Flat
 70
     0
177
     2
291
     1
 71
     2
176
     1
 72
     1
176
     1
 73
     1
176
     1
 90
        2
176
     1
 40
-0.6
176
     1
 41
30.0
176
     1
 62
     5
 63
     7
421
 16777215
176
     1
 74
     0
176
     1
 91
        4
176
     1
 64
     7
176
     1
 65
   257
176
     1
 75
     1
176
     1
175
     1
176
     1
 42
1.0
176
     1
 92
        8
176
     1
 66
     7
176
     1
 43
1.0
176
     1
 76
     1
176
     1
 77
     6
176
     1
 78
     2
176
     1
 67
     7
176
     1
 79
     5
176
     1
170
     0
176
     1
171
     0
176
     1
290
     0
176
     1
 93
       13
176
     1
 44
0.0
176
     1
173
     0
176
     1
  0
VISUALSTYLE
  5
2C
102
{ACAD_REACTORS
330
2A
102
}
330
2A
100
AcDbVisualStyle
  2
FlatWithEdges
 70
     1
177
     2
291
     1
 71
     2
176
     1
 72
     1
176
     1
 73
     1
176
     1
 90
        2
176
     1
 40
-0.6
176
     1
 41
30.0
176
     1
 62
     5
 63
     7
421
 16777215
176
     1
 74
     1
176
     1
 91
        4
176
     1
 64
     7
176
     1
 65
   257
176
     1
 75
     1
176
     1
175
     1
176
     1
 42
1.0
176
     1
 92
        0
176
     1
 66
   257
176
     1
 43
1.0
176
     1
 76
     1
176
     1
 77
     6
176
     1
 78
     2
176
     1
 67
     7
176
     1
 79
     5
176
     1
170
     0
176
     1
171
     0
176
     1
290
     0
176
     1
 93
       13
176
     1
 44
0.0
176
     1
173
     0
176
     1
  0
VISUALSTYLE
  5
2D
102
{ACAD_REACTORS
330
2A
102
}
330
2A
100
AcDbVisualStyle
  2
Gouraud
 70
     2
177
     2
291
     1
 71
     2
176
     1
 72
     2
176
     1
 73
     1
176
     1
 90
        2
176
     1
 40
-0.6
176
     1
 41
30.0
176
     1
 62
     5
 63
     7
421
 16777215
176
     1
 74
     0
176
     1
 91
        4
176
     1
 64
     7
176
     1
 65
   257
176
     1
 75
     1
176
     1
175
     1
176
     1
 42
1.0
176
     1
 92
        0
176
     1
 66
     7
176
     1
 43
1.0
176
     1
 76
     1
176
     1
 77
     6
176
     1
 78
     2
176
     1
 67
     7
176
     1
 79
     5
176
     1
170
     0
176
     1
171
     0
176
     1
290
     0
176
     1
 93
       13
176
     1
 44
0.0
176
     1
173
     0
176
     1
  0
VISUALSTYLE
  5
2E
102
{ACAD_REACTORS
330
2A
102
}
330
2A
100
AcDbVisualStyle
  2
GouraudWithEdges
 70
     3
177
     2
291
     1
 71
     2
176
     1
 72
     2
176
     1
 73
     1
176
     1
 90
        2
176
     1
 40
-0.6
176
     1
 41
30.0
176
     1
 62
     5
 63
     7
421
 16777215
176
     1
 74
     1
176
     1
 91
        4
176
     1
 64
     7
176
     1
 65
   257
176
     1
 75
     1
176
     1
175
     1
176
     1
 42
1.0
176
     1
 92
        0
176
     1
 66
   257
176
     1
 43
1.0
176
     1
 76
     1
176
     1
 77
     6
176
     1
 78
     2
176
     1
 67
     7
176
     1
 79
     5
176
     1
170
     0
176
     1
171
     0
176
     1
290
     0
176
     1
 93
       13
176
     1
 44
0.0
176
     1
173
     0
176
     1
  0
VISUALSTYLE
  5
38
102
{ACAD_REACTORS
330
2A
102
}
330
2A
100
AcDbVisualStyle
  2
Linepattern
 70
    14
177
     2
291
     1
 71
     2
176
     1
 72
     2
176
     1
 73
     0
176
     1
 90
        0
176
     1
 40
-0.6
176
     1
 41
-30.0
176
     1
 62
     5
 63
     7
421
 16777215
176
     1
 74
     1
176
     1
 91
        4
176
     1
 64
     7
176
     1
 65
   257
176
     1
 75
     7
176
     1
175
     7
176
     1
 42
1.0
176
     1
 92
        8
176
     1
 66
     7
176
     1
 43
1.0
176
     1
 76
     1
176
     1
 77
     6
176
     1
 78
     2
176
     1
 67
     7
176
     1
 79
     5
176
     1
170
     0
176
     1
171
     0
176
     1
290
     0
176
     1
 93
        1
176
     1
 44
0.0
176
     1
173
     0
176
     1
  0
VISUALSTYLE
  5
33
102
{ACAD_REACTORS
330
2A
102
}
330
2A
100
AcDbVisualStyle
  2
Realistic
 70
     8
177
     2
291
     0
 71
     2
176
     1
 72
     2
176
     1
 73
     0
176
     1
 90
        0
176
     1
 40
-0.6
176
     1
 41
-30.0
176
     1
 62
     5
 63
     7
421
 16777215
176
     1
 74
     1
176
     1
 91
        0
176
     1
 64
     7
176
     1
 65
   257
176
     1
 75
     1
176
     1
175
     1
176
     1
 42
1.0
176
     1
 92
        8
176
     1
 66
     8
424
  7895160
176
     1
 43
1.0
176
     1
 76
     1
176
     1
 77
     6
176
     1
 78
     2
176
     1
 67
     7
176
     1
 79
     5
176
     1
170
     0
176
     1
171
     0
176
     1
290
     0
176
     1
 93
       13
176
     1
 44
0.0
176
     1
173
     0
176
     1
  0
VISUALSTYLE
  5
37
102
{ACAD_REACTORS
330
2A
102
}
330
2A
100
AcDbVisualStyle
  2
Thicken
 70
    13
177
     2
291
     1
 71
     2
176
     1
 72
     2
176
     1
 73
     0
176
     1
 90
        0
176
     1
 40
-0.6
176
     1
 41
-30.0
176
     1
 62
     5
 63
     7
421
 16777215
176
     1
 74
     1
176
     1
 91
        4
176
     1
 64
     7
176
     1
 65
   257
176
     1
 75
     1
176
     1
175
     1
176
     1
 42
1.0
176
     1
 92
       12
176
     1
 66
     7
176
     1
 43
1.0
176
     1
 76
     1
176
     1
 77
     6
176
     1
 78
     2
176
     1
 67
     7
176
     1
 79
     5
176
     1
170
     0
176
     1
171
     0
176
     1
290
     0
176
     1
 93
        1
176
     1
 44
0.0
176
     1
173
     0
176
     1
  0
ENDSEC
  0
EOF
