  0
SECTION
  2
HEADER
  9
$ACADVER
  1
AC1024
  9
$ACADMAINTVER
 70
     6
  9
$DWGCODEPAGE
  3
UNDEFINED
  9
$INSBASE
 10
0.0
 20
0.0
 30
0.0
  9
$EXTMIN
 10
1.000000000000000E+20
 20
1.000000000000000E+20
 30
1.000000000000000E+20
  9
$EXTMAX
 10
-1.000000000000000E+20
 20
-1.000000000000000E+20
 30
-1.000000000000000E+20
  9
$LIMMIN
 10
0.0
 20
0.0
  9
$LIMMAX
 10
12.0
 20
9.0
  9
$ORTHOMODE
 70
     0
  9
$REGENMODE
 70
     1
  9
$FILLMODE
 70
     1
  9
$QTEXTMODE
 70
     0
  9
$MIRRTEXT
 70
     1
  9
$LTSCALE
 40
1.0
  9
$ATTMODE
 70
     1
  9
$TEXTSIZE
 40
0.2
  9
$TRACEWID
 40
0.05
  9
$TEXTSTYLE
  7
Standard
  9
$CLAYER
  8
0
  9
$CELTYPE
  6
ByLayer
  9
$CECOLOR
 62
   256
  9
$CELTSCALE
 40
1.0
  9
$DISPSILH
 70
     0
  9
$DIMSCALE
 40
1.0
  9
$DIMASZ
 40
0.18
  9
$DIMEXO
 40
0.0625
  9
$DIMDLI
 40
0.38
  9
$DIMRND
 40
0.0
  9
$DIMDLE
 40
0.0
  9
$DIMEXE
 40
0.18
  9
$DIMTP
 40
0.0
  9
$DIMTM
 40
0.0
  9
$DIMTXT
 40
0.18
  9
$DIMCEN
 40
0.09
  9
$DIMTSZ
 40
0.0
  9
$DIMTOL
 70
     0
  9
$DIMLIM
 70
     0
  9
$DIMTIH
 70
     1
  9
$DIMTOH
 70
     1
  9
$DIMSE1
 70
     0
  9
$DIMSE2
 70
     0
  9
$DIMTAD
 70
     0
  9
$DIMZIN
 70
     0
  9
$DIMBLK
  1

  9
$DIMASO
 70
     1
  9
$DIMSHO
 70
     1
  9
$DIMPOST
  1

  9
$DIMAPOST
  1

  9
$DIMALT
 70
     0
  9
$DIMALTD
 70
     2
  9
$DIMALTF
 40
25.4
  9
$DIMLFAC
 40
1.0
  9
$DIMTOFL
 70
     0
  9
$DIMTVP
 40
0.0
  9
$DIMTIX
 70
     0
  9
$DIMSOXD
 70
     0
  9
$DIMSAH
 70
     0
  9
$DIMBLK1
  1

  9
$DIMBLK2
  1

  9
$DIMSTYLE
  2
Standard
  9
$DIMCLRD
 70
     0
  9
$DIMCLRE
 70
     0
  9
$DIMCLRT
 70
     0
  9
$DIMTFAC
 40
1.0
  9
$DIMGAP
 40
0.09
  9
$DIMJUST
 70
     0
  9
$DIMSD1
 70
     0
  9
$DIMSD2
 70
     0
  9
$DIMTOLJ
 70
     1
  9
$DIMTZIN
 70
     0
  9
$DIMALTZ
 70
     0
  9
$DIMALTTZ
 70
     0
  9
$DIMUPT
 70
     0
  9
$DIMDEC
 70
     4
  9
$DIMTDEC
 70
     4
  9
$DIMALTU
 70
     2
  9
$DIMALTTD
 70
     2
  9
$DIMTXSTY
  7
Standard
  9
$DIMAUNIT
 70
     0
  9
$DIMADEC
 70
     0
  9
$DIMALTRND
 40
0.0
  9
$DIMAZIN
 70
     0
  9
$DIMDSEP
 70
    46
  9
$DIMATFIT
 70
     3
  9
$DIMFRAC
 70
     0
  9
$DIMLDRBLK
  1

  9
$DIMLUNIT
 70
     2
  9
$DIMLWD
 70
    -2
  9
$DIMLWE
 70
    -2
  9
$DIMTMOVE
 70
     0
  9
$DIMFXL
 40
1.0
  9
$DIMFXLON
 70
     0
  9
$DIMJOGANG
 40
0.7853981633974483
  9
$DIMTFILL
 70
     0
  9
$DIMTFILLCLR
 70
     0
  9
$DIMARCSYM
 70
     0
  9
$DIMLTYPE
  6

  9
$DIMLTEX1
  6

  9
$DIMLTEX2
  6

  9
$DIMTXTDIRECTION
 70
     0
  9
$LUNITS
 70
     2
  9
$LUPREC
 70
     4
  9
$SKETCHINC
 40
0.1
  9
$FILLETRAD
 40
0.5
  9
$AUNITS
 70
     0
  9
$AUPREC
 70
     0
  9
$MENU
  1
.
  9
$ELEVATION
 40
0.0
  9
$PELEVATION
 40
0.0
  9
$THICKNESS
 40
0.0
  9
$LIMCHECK
 70
     0
  9
$CHAMFERA
 40
0.5
  9
$CHAMFERB
 40
0.5
  9
$CHAMFERC
 40
1.0
  9
$CHAMFERD
 40
0.0
  9
$SKPOLY
 70
     0
  9
$TDCREATE
 40
2457917.608553229
  9
$TDUCREATE
 40
2457917.233553241
  9
$TDUPDATE
 40
2457917.608553229
  9
$TDUUPDATE
 40
2457917.233553241
  9
$TDINDWG
 40
0.0000000116
  9
$TDUSRTIMER
 40
0.0000000116
  9
$USRTIMER
 70
     1
  9
$ANGBASE
 50
0.0
  9
$ANGDIR
 70
     0
  9
$PDMODE
 70
     0
  9
$PDSIZE
 40
0.0
  9
$PLINEWID
 40
0.0
  9
$SPLFRAME
 70
     0
  9
$SPLINETYPE
 70
     6
  9
$SPLINESEGS
 70
     8
  9
$HANDSEED
  5
B7
  9
$SURFTAB1
 70
     6
  9
$SURFTAB2
 70
     6
  9
$SURFTYPE
 70
     6
  9
$SURFU
 70
     6
  9
$SURFV
 70
     6
  9
$UCSBASE
  2

  9
$UCSNAME
  2

  9
$UCSORG
 10
0.0
 20
0.0
 30
0.0
  9
$UCSXDIR
 10
1.0
 20
0.0
 30
0.0
  9
$UCSYDIR
 10
0.0
 20
1.0
 30
0.0
  9
$UCSORTHOREF
  2

  9
$UCSORTHOVIEW
 70
     0
  9
$UCSORGTOP
 10
0.0
 20
0.0
 30
0.0
  9
$UCSORGBOTTOM
 10
0.0
 20
0.0
 30
0.0
  9
$UCSORGLEFT
 10
0.0
 20
0.0
 30
0.0
  9
$UCSORGRIGHT
 10
0.0
 20
0.0
 30
0.0
  9
$UCSORGFRONT
 10
0.0
 20
0.0
 30
0.0
  9
$UCSORGBACK
 10
0.0
 20
0.0
 30
0.0
  9
$PUCSBASE
  2

  9
$PUCSNAME
  2

  9
$PUCSORG
 10
0.0
 20
0.0
 30
0.0
  9
$PUCSXDIR
 10
1.0
 20
0.0
 30
0.0
  9
$PUCSYDIR
 10
0.0
 20
1.0
 30
0.0
  9
$PUCSORTHOREF
  2

  9
$PUCSORTHOVIEW
 70
     0
  9
$PUCSORGTOP
 10
0.0
 20
0.0
 30
0.0
  9
$PUCSORGBOTTOM
 10
0.0
 20
0.0
 30
0.0
  9
$PUCSORGLEFT
 10
0.0
 20
0.0
 30
0.0
  9
$PUCSORGRIGHT
 10
0.0
 20
0.0
 30
0.0
  9
$PUCSORGFRONT
 10
0.0
 20
0.0
 30
0.0
  9
$PUCSORGBACK
 10
0.0
 20
0.0
 30
0.0
  9
$USERI1
 70
     0
  9
$USERI2
 70
     0
  9
$USERI3
 70
     0
  9
$USERI4
 70
     0
  9
$USERI5
 70
     0
  9
$USERR1
 40
0.0
  9
$USERR2
 40
0.0
  9
$USERR3
 40
0.0
  9
$USERR4
 40
0.0
  9
$USERR5
 40
0.0
  9
$WORLDVIEW
 70
     1
  9
$SHADEDGE
 70
     3
  9
$SHADEDIF
 70
    70
  9
$TILEMODE
 70
     1
  9
$MAXACTVP
 70
    64
  9
$PINSBASE
 10
0.0
 20
0.0
 30
0.0
  9
$PLIMCHECK
 70
     0
  9
$PEXTMIN
 10
1.000000000000000E+20
 20
1.000000000000000E+20
 30
1.000000000000000E+20
  9
$PEXTMAX
 10
-1.000000000000000E+20
 20
-1.000000000000000E+20
 30
-1.000000000000000E+20
  9
$PLIMMIN
 10
0.0
 20
0.0
  9
$PLIMMAX
 10
12.0
 20
9.0
  9
$UNITMODE
 70
     0
  9
$VISRETAIN
 70
     1
  9
$PLINEGEN
 70
     0
  9
$PSLTSCALE
 70
     1
  9
$TREEDEPTH
 70
  3020
  9
$CMLSTYLE
  2
Standard
  9
$CMLJUST
 70
     0
  9
$CMLSCALE
 40
1.0
  9
$PROXYGRAPHICS
 70
     1
  9
$MEASUREMENT
 70
     0
  9
$CELWEIGHT
370
    -1
  9
$ENDCAPS
280
     0
  9
$JOINSTYLE
280
     0
  9
$LWDISPLAY
290
     1
  9
$INSUNITS
 70
     1
  9
$HYPERLINKBASE
  1

  9
$STYLESHEET
  1

  9
$XEDIT
290
     1
  9
$CEPSNTYPE
380
     0
  9
$PSTYLEMODE
290
     1
  9
$FINGERPRINTGUID
  2
{3215E8C9-6AD5-AC4A-03A6-6643DCAA7436}
  9
$VERSIONGUID
  2
{FAEB1C32-E019-11D5-929B-00C0DF256EC4}
  9
$EXTNAMES
290
     1
  9
$PSVPSCALE
 40
0.0
  9
$OLESTARTUP
290
     0
  9
$SORTENTS
280
   127
  9
$INDEXCTL
280
     0
  9
$HIDETEXT
280
     1
  9
$XCLIPFRAME
280
     2
  9
$HALOGAP
280
     0
  9
$OBSCOLOR
 70
   257
  9
$OBSLTYPE
280
     0
  9
$INTERSECTIONDISPLAY
280
     0
  9
$INTERSECTIONCOLOR
 70
   257
  9
$DIMASSOC
280
     2
  9
$PROJECTNAME
  1

  9
$CAMERADISPLAY
290
     0
  9
$LENSLENGTH
 40
50.0
  9
$CAMERAHEIGHT
 40
0.0
  9
$STEPSPERSEC
 40
2.0
  9
$STEPSIZE
 40
6.0
  9
$3DDWFPREC
 40
2.0
  9
$PSOLWIDTH
 40
0.25
  9
$PSOLHEIGHT
 40
4.0
  9
$LOFTANG1
 40
1.570796326794897
  9
$LOFTANG2
 40
1.570796326794897
  9
$LOFTMAG1
 40
0.0
  9
$LOFTMAG2
 40
0.0
  9
$LOFTPARAM
 70
     7
  9
$LOFTNORMALS
280
     1
  9
$LATITUDE
 40
37.795
  9
$LONGITUDE
 40
-122.394
  9
$NORTHDIRECTION
 40
0.0
  9
$TIMEZONE
 70
 -8000
  9
$LIGHTGLYPHDISPLAY
280
     1
  9
$TILEMODELIGHTSYNCH
280
     1
  9
$CMATERIAL
347
3C
  9
$SOLIDHIST
280
     1
  9
$SHOWHIST
280
     1
  9
$DWFFRAME
280
     2
  9
$DGNFRAME
280
     2
  9
$REALWORLDSCALE
290
     1
  9
$INTERFERECOLOR
 62
   256
  9
$CSHADOW
280
     0
  9
$SHADOWPLANELOCATION
 40
0.0
  0
ENDSEC
  0
SECTION
  2
CLASSES
  0
CLASS
  1
ACDBDICTIONARYWDFLT
  2
AcDbDictionaryWithDefault
  3
ObjectDBX Classes
 90
        0
 91
        4
280
     0
281
     0
  0
CLASS
  1
VISUALSTYLE
  2
AcDbVisualStyle
  3
ObjectDBX Classes
 90
     4095
 91
        4
280
     0
281
     0
  0
CLASS
  1
MATERIAL
  2
AcDbMaterial
  3
ObjectDBX Classes
 90
     1153
 91
        4
280
     0
281
     0
  0
CLASS
  1
SUN
  2
AcDbSun
  3
SCENEOE
 90
     1024
 91
        4
280
     0
281
     0
  0
ENDSEC
  0
SECTION
  2
TABLES
  0
TABLE
  2
VPORT
  5
8
330
0
100
AcDbSymbolTable
 70
     1
  0
VPORT
  5
29
330
8
100
AcDbSymbolTableRecord
100
AcDbViewportTableRecord
  2
*Active
 70
     0
 10
0.0
 20
0.0
 11
1.0
 21
1.0
 12
0.0
 22
0.0
 13
0.0
 23
0.0
 14
0.5
 24
0.5
 15
0.5
 25
0.5
 16
0.0
 26
0.0
 36
1.0
 17
91.00082462281999
 27
-128.4993055234307
 37
0.0
 40
256.9986110468615
 41
0.7081814508812795
 42
50.0
 43
0.0
 44
0.0
 50
0.0
 51
0.0
 71
     0
 72
   100
 73
     1
 74
     3
 75
     0
 76
     0
 77
     0
 78
     0
281
     0
 65
     1
110
0.0
120
0.0
130
0.0
111
1.0
121
0.0
131
0.0
112
0.0
122
1.0
132
0.0
 79
     0
146
0.0
 60
     3
 61
     5
292
     1
282
     1
141
0.0
142
0.0
 63
   250
361
3F
  0
ENDTAB
  0
TABLE
  2
LTYPE
  5
5
330
0
100
AcDbSymbolTable
 70
     3
  0
LTYPE
  5
14
330
5
100
AcDbSymbolTableRecord
100
AcDbLinetypeTableRecord
  2
ByBlock
 70
     0
  3

 72
    65
 73
     0
 40
0.0
  0
LTYPE
  5
15
330
5
100
AcDbSymbolTableRecord
100
AcDbLinetypeTableRecord
  2
ByLayer
 70
     0
  3

 72
    65
 73
     0
 40
0.0
  0
LTYPE
  5
16
330
5
100
AcDbSymbolTableRecord
100
AcDbLinetypeTableRecord
  2
Continuous
 70
     0
  3
Solid line
 72
    65
 73
     0
 40
0.0
  0
LTYPE
  5
5B
330
5
100
AcDbSymbolTableRecord
100
AcDbLinetypeTableRecord
  2
AI-Linetype-1
 70
     0
  3
Adobe Illustrator Linetype No. 1
 72
    65
 73
     2
 40
0.529166666534375
 49
0.1763888888447917
 74
     0
 49
-0.3527777776895833
 74
     0
  0
LTYPE
  5
60
330
5
100
AcDbSymbolTableRecord
100
AcDbLinetypeTableRecord
  2
AI-Linetype-2
 70
     0
  3
Adobe Illustrator Linetype No. 2
 72
    65
 73
     2
 40
0.529166666534375
 49
0.1763888888447917
 74
     0
 49
-0.3527777776895833
 74
     0
  0
ENDTAB
  0
TABLE
  2
LAYER
  5
2
330
0
100
AcDbSymbolTable
 70
     2
  0
LAYER
  5
10
330
2
100
AcDbSymbolTableRecord
100
AcDbLayerTableRecord
  2
0
 70
     0
 62
     7
  6
Continuous
370
    -3
390
F
347
3E
  0
LAYER
  5
40
330
2
100
AcDbSymbolTableRecord
100
AcDbLayerTableRecord
  2
_U+30EC_U+30A4_U+30E4_U+30FC 1
 70
     0
 62
     7
  6
Continuous
370
    -3
390
F
347
3E
  0
ENDTAB
  0
TABLE
  2
STYLE
  5
3
330
0
100
AcDbSymbolTable
 70
     1
  0
STYLE
  5
11
330
3
100
AcDbSymbolTableRecord
100
AcDbTextStyleTableRecord
  2
Standard
 70
     0
 40
0.0
 41
1.0
 50
0.0
 71
     0
 42
0.2
  3
txt
  4

  0
ENDTAB
  0
TABLE
  2
VIEW
  5
6
330
0
100
AcDbSymbolTable
 70
     0
  0
ENDTAB
  0
TABLE
  2
UCS
  5
7
330
0
100
AcDbSymbolTable
 70
     0
  0
ENDTAB
  0
TABLE
  2
APPID
  5
9
330
0
100
AcDbSymbolTable
 70
     1
  0
APPID
  5
12
330
9
100
AcDbSymbolTableRecord
100
AcDbRegAppTableRecord
  2
ACAD
 70
     0
  0
ENDTAB
  0
TABLE
  2
DIMSTYLE
  5
A
330
0
100
AcDbSymbolTable
 70
     1
100
AcDbDimStyleTable
  0
DIMSTYLE
105
27
330
A
100
AcDbSymbolTableRecord
100
AcDbDimStyleTableRecord
  2
Standard
 70
     0
178
     0
340
11
  0
ENDTAB
  0
TABLE
  2
BLOCK_RECORD
  5
1
330
0
100
AcDbSymbolTable
 70
     4
  0
BLOCK_RECORD
  5
1F
330
1
100
AcDbSymbolTableRecord
100
AcDbBlockTableRecord
  2
*Model_Space
340
22
 70
     0
280
     1
281
     0
  0
BLOCK_RECORD
  5
1B
330
1
100
AcDbSymbolTableRecord
100
AcDbBlockTableRecord
  2
*Paper_Space
340
1E
 70
     0
280
     1
281
     0
  0
BLOCK_RECORD
  5
23
330
1
100
AcDbSymbolTableRecord
100
AcDbBlockTableRecord
  2
*Paper_Space0
340
26
 70
     0
280
     1
281
     0
  0
BLOCK_RECORD
  5
88
330
1
100
AcDbSymbolTableRecord
100
AcDbBlockTableRecord
  2
block 2
340
0
102
{BLKREFS
331
89
102
}
 70
     0
280
     1
281
     0
  0
BLOCK_RECORD
  5
98
330
1
100
AcDbSymbolTableRecord
100
AcDbBlockTableRecord
  2
block 3
340
0
102
{BLKREFS
331
99
102
}
 70
     0
280
     1
281
     0
  0
BLOCK_RECORD
  5
AD
330
1
100
AcDbSymbolTableRecord
100
AcDbBlockTableRecord
  2
block 4
340
0
102
{BLKREFS
331
AE
102
}
 70
     0
280
     1
281
     0
  0
ENDTAB
  0
ENDSEC
  0
SECTION
  2
BLOCKS
  0
BLOCK
  5
20
330
1F
100
AcDbEntity
  8
0
100
AcDbBlockBegin
  2
*Model_Space
 70
     0
 10
0.0
 20
0.0
 30
0.0
  3
*Model_Space
  1

  0
ENDBLK
  5
21
330
1F
100
AcDbEntity
  8
0
100
AcDbBlockEnd
  0
BLOCK
  5
1C
330
1B
100
AcDbEntity
 67
     1
  8
0
100
AcDbBlockBegin
  2
*Paper_Space
 70
     0
 10
0.0
 20
0.0
 30
0.0
  3
*Paper_Space
  1

  0
ENDBLK
  5
1D
330
1B
100
AcDbEntity
 67
     1
  8
0
100
AcDbBlockEnd
  0
BLOCK
  5
24
330
23
100
AcDbEntity
  8
0
100
AcDbBlockBegin
  2
*Paper_Space0
 70
     0
 10
0.0
 20
0.0
 30
0.0
  3
*Paper_Space0
  1

  0
ENDBLK
  5
25
330
23
100
AcDbEntity
  8
0
100
AcDbBlockEnd
  0
BLOCK
  5
8A
330
88
100
AcDbEntity
  8
0
100
AcDbBlockBegin
  2
block 2
 70
     0
 10
0.0
 20
0.0
 30
0.0
  3
block 2
  1

  0
SPLINE
  5
8C
330
88
100
AcDbEntity
  8
_U+30EC_U+30A4_U+30E4_U+30FC 1
370
     0
100
AcDbSpline
210
0.0
220
0.0
230
1.0
 70
    11
 71
     3
 72
    53
 73
    49
 74
     0
 42
0.0000000001
 43
0.0000000001
 12
1.0
 22
0.0
 32
0.0
 13
1.0
 23
0.0
 33
0.0
 40
0.0
 40
0.0
 40
0.0
 40
0.0
 40
1.0
 40
1.0
 40
1.0
 40
2.0
 40
2.0
 40
2.0
 40
3.0
 40
3.0
 40
3.0
 40
4.0
 40
4.0
 40
4.0
 40
5.0
 40
5.0
 40
5.0
 40
6.0
 40
6.0
 40
6.0
 40
7.0
 40
7.0
 40
7.0
 40
8.0
 40
8.0
 40
8.0
 40
9.0
 40
9.0
 40
9.0
 40
10.0
 40
10.0
 40
10.0
 40
11.0
 40
11.0
 40
11.0
 40
12.0
 40
12.0
 40
12.0
 40
13.0
 40
13.0
 40
13.0
 40
14.0
 40
14.0
 40
14.0
 40
15.0
 40
15.0
 40
15.0
 40
16.0
 40
16.0
 40
16.0
 40
16.0
 10
80.15738116485649
 20
-127.213940397884
 30
0.0
 10
80.09071856721691
 20
-127.213940397884
 30
0.0
 10
80.00407441576287
 20
-127.1970594300063
 30
0.0
 10
79.9176025190831
 20
-127.1334974183034
 30
0.0
 10
79.76963566799162
 20
-127.0234266175497
 30
0.0
 10
79.75172117146832
 20
-126.8923407343359
 30
0.0
 10
79.73535696791339
 20
-126.7845092456476
 30
0.0
 10
79.73535696791339
 20
-126.7845092456476
 30
0.0
 10
79.92483721960213
 20
-126.7845092456476
 30
0.0
 10
79.92483721960213
 20
-126.7845092456476
 30
0.0
 10
79.97169051820153
 20
-126.9832912551465
 30
0.0
 10
80.07986651643837
 20
-127.0129190763197
 30
0.0
 10
80.15927596737338
 20
-127.0129190763197
 30
0.0
 10
80.2781317616145
 20
-127.0129190763197
 30
0.0
 10
80.40801186140841
 20
-126.9135280715702
 30
0.0
 10
80.40801186140841
 20
-126.6808118715416
 30
0.0
 10
80.40801186140841
 20
-126.4248412769876
 30
0.0
 10
80.2547051123148
 20
-126.3550780934112
 30
0.0
 10
80.15204126685435
 20
-126.3550780934112
 30
0.0
 10
80.12499726729514
 20
-126.3550780934112
 30
0.0
 10
80.00407441576287
 20
-126.3550780934112
 30
0.0
 10
79.92845456986164
 20
-126.4840969193338
 30
0.0
 10
79.92845456986164
 20
-126.4840969193338
 30
0.0
 10
79.77876517102753
 20
-126.4649766393907
 30
0.0
 10
79.77876517102753
 20
-126.4649766393907
 30
0.0
 10
79.77876517102753
 20
-126.4649766393907
 30
0.0
 10
79.88142901648798
 20
-125.6188611882133
 30
0.0
 10
79.88142901648798
 20
-125.6188611882133
 30
0.0
 10
79.88142901648798
 20
-125.6188611882133
 30
0.0
 10
80.54512666172135
 20
-125.6188611882133
 30
0.0
 10
80.54512666172135
 20
-125.6188611882133
 30
0.0
 10
80.54512666172135
 20
-125.6188611882133
 30
0.0
 10
80.54512666172135
 20
-125.81350908313
 30
0.0
 10
80.54512666172135
 20
-125.81350908313
 30
0.0
 10
80.54512666172135
 20
-125.81350908313
 30
0.0
 10
80.02026636454355
 20
-125.81350908313
 30
0.0
 10
80.02026636454355
 20
-125.81350908313
 30
0.0
 10
80.02026636454355
 20
-125.81350908313
 30
0.0
 10
79.9644558176825
 20
-126.2365668087186
 30
0.0
 10
79.9644558176825
 20
-126.2365668087186
 30
0.0
 10
80.0168212690583
 20
-126.2026326181889
 30
0.0
 10
80.0871012169574
 20
-126.1624972557858
 30
0.0
 10
80.18804251467522
 20
-126.1624972557858
 30
0.0
 10
80.40439451114891
 20
-126.1624972557858
 30
0.0
 10
80.60644936135881
 20
-126.3487046667635
 30
0.0
 10
80.60644936135881
 20
-126.6616915915985
 30
0.0
 10
80.60644936135881
 20
-126.9791571405642
 30
0.0
 10
80.41524656192745
 20
-127.213940397884
 30
0.0
 10
80.15738116485649
 20
-127.213940397884
 30
0.0
  0
HATCH
  5
8D
330
88
100
AcDbEntity
  8
_U+30EC_U+30A4_U+30E4_U+30FC 1
 62
   179
420
  2234388
100
AcDbHatch
 10
0.0
 20
0.0
 30
0.0
210
0.0
220
0.0
230
1.0
  2
SOLID
 70
     1
 71
     0
 91
        1
 92
        1
 93
        1
 72
     4
 94
        3
 73
     0
 74
     1
 95
       53
 96
       49
 40
0.0
 40
0.0
 40
0.0
 40
0.0
 40
1.0
 40
1.0
 40
1.0
 40
2.0
 40
2.0
 40
2.0
 40
3.0
 40
3.0
 40
3.0
 40
4.0
 40
4.0
 40
4.0
 40
5.0
 40
5.0
 40
5.0
 40
6.0
 40
6.0
 40
6.0
 40
7.0
 40
7.0
 40
7.0
 40
8.0
 40
8.0
 40
8.0
 40
9.0
 40
9.0
 40
9.0
 40
10.0
 40
10.0
 40
10.0
 40
11.0
 40
11.0
 40
11.0
 40
12.0
 40
12.0
 40
12.0
 40
13.0
 40
13.0
 40
13.0
 40
14.0
 40
14.0
 40
14.0
 40
15.0
 40
15.0
 40
15.0
 40
16.0
 40
16.0
 40
16.0
 40
16.0
 10
80.15738116485649
 20
-127.213940397884
 10
80.09071856721691
 20
-127.213940397884
 10
80.00407441576287
 20
-127.1970594300063
 10
79.9176025190831
 20
-127.1334974183034
 10
79.76963566799162
 20
-127.0234266175497
 10
79.75172117146832
 20
-126.8923407343359
 10
79.73535696791339
 20
-126.7845092456476
 10
79.73535696791339
 20
-126.7845092456476
 10
79.92483721960213
 20
-126.7845092456476
 10
79.92483721960213
 20
-126.7845092456476
 10
79.97169051820153
 20
-126.9832912551465
 10
80.07986651643837
 20
-127.0129190763197
 10
80.15927596737338
 20
-127.0129190763197
 10
80.2781317616145
 20
-127.0129190763197
 10
80.40801186140841
 20
-126.9135280715702
 10
80.40801186140841
 20
-126.6808118715416
 10
80.40801186140841
 20
-126.4248412769876
 10
80.2547051123148
 20
-126.3550780934112
 10
80.15204126685435
 20
-126.3550780934112
 10
80.12499726729514
 20
-126.3550780934112
 10
80.00407441576287
 20
-126.3550780934112
 10
79.92845456986164
 20
-126.4840969193338
 10
79.92845456986164
 20
-126.4840969193338
 10
79.77876517102753
 20
-126.4649766393907
 10
79.77876517102753
 20
-126.4649766393907
 10
79.77876517102753
 20
-126.4649766393907
 10
79.88142901648798
 20
-125.6188611882133
 10
79.88142901648798
 20
-125.6188611882133
 10
79.88142901648798
 20
-125.6188611882133
 10
80.54512666172135
 20
-125.6188611882133
 10
80.54512666172135
 20
-125.6188611882133
 10
80.54512666172135
 20
-125.6188611882133
 10
80.54512666172135
 20
-125.81350908313
 10
80.54512666172135
 20
-125.81350908313
 10
80.54512666172135
 20
-125.81350908313
 10
80.02026636454355
 20
-125.81350908313
 10
80.02026636454355
 20
-125.81350908313
 10
80.02026636454355
 20
-125.81350908313
 10
79.9644558176825
 20
-126.2365668087186
 10
79.9644558176825
 20
-126.2365668087186
 10
80.0168212690583
 20
-126.2026326181889
 10
80.0871012169574
 20
-126.1624972557858
 10
80.18804251467522
 20
-126.1624972557858
 10
80.40439451114891
 20
-126.1624972557858
 10
80.60644936135881
 20
-126.3487046667635
 10
80.60644936135881
 20
-126.6616915915985
 10
80.60644936135881
 20
-126.9791571405642
 10
80.41524656192745
 20
-127.213940397884
 10
80.15738116485649
 20
-127.213940397884
 97
        0
 97
        0
 75
     2
 76
     1
 98
        0
  0
POLYLINE
  5
8E
330
88
100
AcDbEntity
  8
_U+30EC_U+30A4_U+30E4_U+30FC 1
370
     0
100
AcDb2dPolyline
 66
     1
 10
0.0
 20
0.0
 30
0.0
  0
VERTEX
  5
8F
330
8E
100
AcDbEntity
  8
_U+30EC_U+30A4_U+30E4_U+30FC 1
370
     0
100
AcDbVertex
100
AcDb2dVertex
 10
80.80040823717837
 20
-127.1631252394766
 30
0.0
  0
VERTEX
  5
90
330
8E
100
AcDbEntity
  8
_U+30EC_U+30A4_U+30E4_U+30FC 1
370
     0
100
AcDbVertex
100
AcDb2dVertex
 10
80.80040823717837
 20
-126.9114610142791
 30
0.0
  0
VERTEX
  5
91
330
8E
100
AcDbEntity
  8
_U+30EC_U+30A4_U+30E4_U+30FC 1
370
     0
100
AcDbVertex
100
AcDb2dVertex
 10
81.01503768590943
 20
-126.9114610142791
 30
0.0
  0
VERTEX
  5
92
330
8E
100
AcDbEntity
  8
_U+30EC_U+30A4_U+30E4_U+30FC 1
370
     0
100
AcDbVertex
100
AcDb2dVertex
 10
81.01503768590943
 20
-127.1631252394766
 30
0.0
  0
VERTEX
  5
93
330
8E
100
AcDbEntity
  8
_U+30EC_U+30A4_U+30E4_U+30FC 1
370
     0
100
AcDbVertex
100
AcDb2dVertex
 10
80.80040823717837
 20
-127.1631252394766
 30
0.0
  0
SEQEND
  5
94
330
8E
100
AcDbEntity
  8
_U+30EC_U+30A4_U+30E4_U+30FC 1
370
     0
  0
HATCH
  5
95
330
88
100
AcDbEntity
  8
_U+30EC_U+30A4_U+30E4_U+30FC 1
 62
   179
420
  2234388
100
AcDbHatch
 10
0.0
 20
0.0
 30
0.0
210
0.0
220
0.0
230
1.0
  2
SOLID
 70
     1
 71
     0
 91
        1
 92
        1
 93
        4
 72
     1
 10
80.80040823717837
 20
-127.1631252394766
 11
80.80040823717837
 21
-126.9114610142791
 72
     1
 10
80.80040823717837
 20
-126.9114610142791
 11
81.01503768590943
 21
-126.9114610142791
 72
     1
 10
81.01503768590943
 20
-126.9114610142791
 11
81.01503768590943
 21
-127.1631252394766
 72
     1
 10
81.01503768590943
 20
-127.1631252394766
 11
80.80040823717837
 21
-127.1631252394766
 97
        0
 75
     2
 76
     1
 98
        0
  0
SPLINE
  5
96
330
88
100
AcDbEntity
  8
_U+30EC_U+30A4_U+30E4_U+30FC 1
370
     0
100
AcDbSpline
210
0.0
220
0.0
230
1.0
 70
    11
 71
     3
 72
    53
 73
    49
 74
     0
 42
0.0000000001
 43
0.0000000001
 12
1.0
 22
0.0
 32
0.0
 13
1.0
 23
0.0
 33
0.0
 40
0.0
 40
0.0
 40
0.0
 40
0.0
 40
1.0
 40
1.0
 40
1.0
 40
2.0
 40
2.0
 40
2.0
 40
3.0
 40
3.0
 40
3.0
 40
4.0
 40
4.0
 40
4.0
 40
5.0
 40
5.0
 40
5.0
 40
6.0
 40
6.0
 40
6.0
 40
7.0
 40
7.0
 40
7.0
 40
8.0
 40
8.0
 40
8.0
 40
9.0
 40
9.0
 40
9.0
 40
10.0
 40
10.0
 40
10.0
 40
11.0
 40
11.0
 40
11.0
 40
12.0
 40
12.0
 40
12.0
 40
13.0
 40
13.0
 40
13.0
 40
14.0
 40
14.0
 40
14.0
 40
15.0
 40
15.0
 40
15.0
 40
16.0
 40
16.0
 40
16.0
 40
16.0
 10
81.62585311544423
 20
-127.213940397884
 30
0.0
 10
81.55919051780465
 20
-127.213940397884
 30
0.0
 10
81.47254636635061
 20
-127.1970594300063
 30
0.0
 10
81.38607446967085
 20
-127.1334974183034
 30
0.0
 10
81.23810761857936
 20
-127.0234266175497
 30
0.0
 10
81.22019312205606
 20
-126.8923407343359
 30
0.0
 10
81.20382891850113
 20
-126.7845092456476
 30
0.0
 10
81.20382891850113
 20
-126.7845092456476
 30
0.0
 10
81.39330917018987
 20
-126.7845092456476
 30
0.0
 10
81.39330917018987
 20
-126.7845092456476
 30
0.0
 10
81.44016246878927
 20
-126.9832912551465
 30
0.0
 10
81.54833846702611
 20
-127.0129190763197
 30
0.0
 10
81.62774791796112
 20
-127.0129190763197
 30
0.0
 10
81.7467759669765
 20
-127.0129190763197
 30
0.0
 10
81.87648381199617
 20
-126.9135280715702
 30
0.0
 10
81.87648381199617
 20
-126.6808118715416
 30
0.0
 10
81.87648381199617
 20
-126.4248412769876
 30
0.0
 10
81.72317706290254
 20
-126.3550780934112
 30
0.0
 10
81.6205132174421
 20
-126.3550780934112
 30
0.0
 10
81.59346921788288
 20
-126.3550780934112
 30
0.0
 10
81.47254636635061
 20
-126.3550780934112
 30
0.0
 10
81.39692652044938
 20
-126.4840969193338
 30
0.0
 10
81.39692652044938
 20
-126.4840969193338
 30
0.0
 10
81.24723712161527
 20
-126.4649766393907
 30
0.0
 10
81.24723712161527
 20
-126.4649766393907
 30
0.0
 10
81.24723712161527
 20
-126.4649766393907
 30
0.0
 10
81.34990096707573
 20
-125.6188611882133
 30
0.0
 10
81.34990096707573
 20
-125.6188611882133
 30
0.0
 10
81.34990096707573
 20
-125.6188611882133
 30
0.0
 10
82.01359861230911
 20
-125.6188611882133
 30
0.0
 10
82.01359861230911
 20
-125.6188611882133
 30
0.0
 10
82.01359861230911
 20
-125.6188611882133
 30
0.0
 10
82.01359861230911
 20
-125.81350908313
 30
0.0
 10
82.01359861230911
 20
-125.81350908313
 30
0.0
 10
82.01359861230911
 20
-125.81350908313
 30
0.0
 10
81.48873831513129
 20
-125.81350908313
 30
0.0
 10
81.48873831513129
 20
-125.81350908313
 30
0.0
 10
81.48873831513129
 20
-125.81350908313
 30
0.0
 10
81.43292776827025
 20
-126.2365668087186
 30
0.0
 10
81.43292776827025
 20
-126.2365668087186
 30
0.0
 10
81.48529321964604
 20
-126.2026326181889
 30
0.0
 10
81.55557316754513
 20
-126.1624972557858
 30
0.0
 10
81.65651446526296
 20
-126.1624972557858
 30
0.0
 10
81.87286646173665
 20
-126.1624972557858
 30
0.0
 10
82.07492131194655
 20
-126.3487046667635
 30
0.0
 10
82.07492131194655
 20
-126.6616915915985
 30
0.0
 10
82.07492131194655
 20
-126.9791571405642
 30
0.0
 10
81.88371851251519
 20
-127.213940397884
 30
0.0
 10
81.62585311544423
 20
-127.213940397884
 30
0.0
  0
HATCH
  5
97
330
88
100
AcDbEntity
  8
_U+30EC_U+30A4_U+30E4_U+30FC 1
 62
   179
420
  2234388
100
AcDbHatch
 10
0.0
 20
0.0
 30
0.0
210
0.0
220
0.0
230
1.0
  2
SOLID
 70
     1
 71
     0
 91
        1
 92
        1
 93
        1
 72
     4
 94
        3
 73
     0
 74
     1
 95
       53
 96
       49
 40
0.0
 40
0.0
 40
0.0
 40
0.0
 40
1.0
 40
1.0
 40
1.0
 40
2.0
 40
2.0
 40
2.0
 40
3.0
 40
3.0
 40
3.0
 40
4.0
 40
4.0
 40
4.0
 40
5.0
 40
5.0
 40
5.0
 40
6.0
 40
6.0
 40
6.0
 40
7.0
 40
7.0
 40
7.0
 40
8.0
 40
8.0
 40
8.0
 40
9.0
 40
9.0
 40
9.0
 40
10.0
 40
10.0
 40
10.0
 40
11.0
 40
11.0
 40
11.0
 40
12.0
 40
12.0
 40
12.0
 40
13.0
 40
13.0
 40
13.0
 40
14.0
 40
14.0
 40
14.0
 40
15.0
 40
15.0
 40
15.0
 40
16.0
 40
16.0
 40
16.0
 40
16.0
 10
81.62585311544423
 20
-127.213940397884
 10
81.55919051780465
 20
-127.213940397884
 10
81.47254636635061
 20
-127.1970594300063
 10
81.38607446967085
 20
-127.1334974183034
 10
81.23810761857936
 20
-127.0234266175497
 10
81.22019312205606
 20
-126.8923407343359
 10
81.20382891850113
 20
-126.7845092456476
 10
81.20382891850113
 20
-126.7845092456476
 10
81.39330917018987
 20
-126.7845092456476
 10
81.39330917018987
 20
-126.7845092456476
 10
81.44016246878927
 20
-126.9832912551465
 10
81.54833846702611
 20
-127.0129190763197
 10
81.62774791796112
 20
-127.0129190763197
 10
81.7467759669765
 20
-127.0129190763197
 10
81.87648381199617
 20
-126.9135280715702
 10
81.87648381199617
 20
-126.6808118715416
 10
81.87648381199617
 20
-126.4248412769876
 10
81.72317706290254
 20
-126.3550780934112
 10
81.6205132174421
 20
-126.3550780934112
 10
81.59346921788288
 20
-126.3550780934112
 10
81.47254636635061
 20
-126.3550780934112
 10
81.39692652044938
 20
-126.4840969193338
 10
81.39692652044938
 20
-126.4840969193338
 10
81.24723712161527
 20
-126.4649766393907
 10
81.24723712161527
 20
-126.4649766393907
 10
81.24723712161527
 20
-126.4649766393907
 10
81.34990096707573
 20
-125.6188611882133
 10
81.34990096707573
 20
-125.6188611882133
 10
81.34990096707573
 20
-125.6188611882133
 10
82.01359861230911
 20
-125.6188611882133
 10
82.01359861230911
 20
-125.6188611882133
 10
82.01359861230911
 20
-125.6188611882133
 10
82.01359861230911
 20
-125.81350908313
 10
82.01359861230911
 20
-125.81350908313
 10
82.01359861230911
 20
-125.81350908313
 10
81.48873831513129
 20
-125.81350908313
 10
81.48873831513129
 20
-125.81350908313
 10
81.48873831513129
 20
-125.81350908313
 10
81.43292776827025
 20
-126.2365668087186
 10
81.43292776827025
 20
-126.2365668087186
 10
81.48529321964604
 20
-126.2026326181889
 10
81.55557316754513
 20
-126.1624972557858
 10
81.65651446526296
 20
-126.1624972557858
 10
81.87286646173665
 20
-126.1624972557858
 10
82.07492131194655
 20
-126.3487046667635
 10
82.07492131194655
 20
-126.6616915915985
 10
82.07492131194655
 20
-126.9791571405642
 10
81.88371851251519
 20
-127.213940397884
 10
81.62585311544423
 20
-127.213940397884
 97
        0
 97
        0
 75
     2
 76
     1
 98
        0
  0
ENDBLK
  5
8B
330
88
100
AcDbEntity
  8
0
100
AcDbBlockEnd
  0
BLOCK
  5
9A
330
98
100
AcDbEntity
  8
0
100
AcDbBlockBegin
  2
block 3
 70
     0
 10
0.0
 20
0.0
 30
0.0
  3
block 3
  1

  0
SPLINE
  5
9C
330
98
100
AcDbEntity
  8
_U+30EC_U+30A4_U+30E4_U+30FC 1
370
     0
100
AcDbSpline
210
0.0
220
0.0
230
1.0
 70
    11
 71
     3
 72
    26
 73
    22
 74
     0
 42
0.0000000001
 43
0.0000000001
 12
1.0
 22
0.0
 32
0.0
 13
1.0
 23
0.0
 33
0.0
 40
0.0
 40
0.0
 40
0.0
 40
0.0
 40
1.0
 40
1.0
 40
1.0
 40
2.0
 40
2.0
 40
2.0
 40
3.0
 40
3.0
 40
3.0
 40
4.0
 40
4.0
 40
4.0
 40
5.0
 40
5.0
 40
5.0
 40
6.0
 40
6.0
 40
6.0
 40
7.0
 40
7.0
 40
7.0
 40
7.0
 10
84.75141599443715
 20
-133.6559244457527
 30
0.0
 10
84.75141599443715
 20
-133.6559244457527
 30
0.0
 10
84.75141599443715
 20
-132.5514268331816
 30
0.0
 10
84.75141599443715
 20
-132.5514268331816
 30
0.0
 10
84.75141599443715
 20
-132.5514268331816
 30
0.0
 10
84.46995169329224
 20
-132.5514268331816
 30
0.0
 10
84.46995169329224
 20
-132.5514268331816
 30
0.0
 10
84.46995169329224
 20
-132.5514268331816
 30
0.0
 10
84.46995169329224
 20
-132.4032877273158
 30
0.0
 10
84.46995169329224
 20
-132.4032877273158
 30
0.0
 10
84.75313854217977
 20
-132.3888183262778
 30
0.0
 10
84.79275714026015
 20
-132.225520800277
 30
0.0
 10
84.81807859207673
 20
-132.1114881397152
 30
0.0
 10
84.81807859207673
 20
-132.1114881397152
 30
0.0
 10
84.94244653909425
 20
-132.1114881397152
 30
0.0
 10
84.94244653909425
 20
-132.1114881397152
 30
0.0
 10
84.94244653909425
 20
-132.1114881397152
 30
0.0
 10
84.94244653909425
 20
-133.6559244457527
 30
0.0
 10
84.94244653909425
 20
-133.6559244457527
 30
0.0
 10
84.94244653909425
 20
-133.6559244457527
 30
0.0
 10
84.75141599443715
 20
-133.6559244457527
 30
0.0
 10
84.75141599443715
 20
-133.6559244457527
 30
0.0
  0
HATCH
  5
9D
330
98
100
AcDbEntity
  8
_U+30EC_U+30A4_U+30E4_U+30FC 1
 62
   179
420
  2234388
100
AcDbHatch
 10
0.0
 20
0.0
 30
0.0
210
0.0
220
0.0
230
1.0
  2
SOLID
 70
     1
 71
     0
 91
        1
 92
        1
 93
        1
 72
     4
 94
        3
 73
     0
 74
     1
 95
       26
 96
       22
 40
0.0
 40
0.0
 40
0.0
 40
0.0
 40
1.0
 40
1.0
 40
1.0
 40
2.0
 40
2.0
 40
2.0
 40
3.0
 40
3.0
 40
3.0
 40
4.0
 40
4.0
 40
4.0
 40
5.0
 40
5.0
 40
5.0
 40
6.0
 40
6.0
 40
6.0
 40
7.0
 40
7.0
 40
7.0
 40
7.0
 10
84.75141599443715
 20
-133.6559244457527
 10
84.75141599443715
 20
-133.6559244457527
 10
84.75141599443715
 20
-132.5514268331816
 10
84.75141599443715
 20
-132.5514268331816
 10
84.75141599443715
 20
-132.5514268331816
 10
84.46995169329224
 20
-132.5514268331816
 10
84.46995169329224
 20
-132.5514268331816
 10
84.46995169329224
 20
-132.5514268331816
 10
84.46995169329224
 20
-132.4032877273158
 10
84.46995169329224
 20
-132.4032877273158
 10
84.75313854217977
 20
-132.3888183262778
 10
84.79275714026015
 20
-132.225520800277
 10
84.81807859207673
 20
-132.1114881397152
 10
84.81807859207673
 20
-132.1114881397152
 10
84.94244653909425
 20
-132.1114881397152
 10
84.94244653909425
 20
-132.1114881397152
 10
84.94244653909425
 20
-132.1114881397152
 10
84.94244653909425
 20
-133.6559244457527
 10
84.94244653909425
 20
-133.6559244457527
 10
84.94244653909425
 20
-133.6559244457527
 10
84.75141599443715
 20
-133.6559244457527
 10
84.75141599443715
 20
-133.6559244457527
 97
        0
 97
        0
 75
     2
 76
     1
 98
        0
  0
SPLINE
  5
9E
330
98
100
AcDbEntity
  8
_U+30EC_U+30A4_U+30E4_U+30FC 1
370
     0
100
AcDbSpline
210
0.0
220
0.0
230
1.0
 70
    11
 71
     3
 72
    29
 73
    25
 74
     0
 42
0.0000000001
 43
0.0000000001
 12
1.0
 22
0.0
 32
0.0
 13
1.0
 23
0.0
 33
0.0
 40
0.0
 40
0.0
 40
0.0
 40
0.0
 40
1.0
 40
1.0
 40
1.0
 40
2.0
 40
2.0
 40
2.0
 40
3.0
 40
3.0
 40
3.0
 40
4.0
 40
4.0
 40
4.0
 40
5.0
 40
5.0
 40
5.0
 40
6.0
 40
6.0
 40
6.0
 40
7.0
 40
7.0
 40
7.0
 40
8.0
 40
8.0
 40
8.0
 40
8.0
 10
85.7945909073708
 20
-133.7065673493859
 30
0.0
 10
85.56738686011857
 20
-133.7065673493859
 30
0.0
 10
85.35103486364488
 20
-133.5691080395244
 30
0.0
 10
85.35103486364488
 20
-133.2197753573201
 30
0.0
 10
85.35103486364488
 20
-132.9641492723145
 30
0.0
 10
85.47178546040288
 20
-132.8687201273731
 30
0.0
 10
85.56204696211644
 20
-132.8073974277357
 30
0.0
 10
85.45559351162221
 20
-132.7481417853894
 30
0.0
 10
85.39065346172525
 20
-132.6341091248276
 30
0.0
 10
85.39065346172525
 20
-132.4732231656664
 30
0.0
 10
85.39065346172525
 20
-132.197960036395
 30
0.0
 10
85.56015215959955
 20
-132.0629122933732
 30
0.0
 10
85.7945909073708
 20
-132.0629122933732
 30
0.0
 10
86.03626435566107
 20
-132.0629122933732
 30
0.0
 10
86.19852835301634
 20
-132.2065727751081
 30
0.0
 10
86.19852835301634
 20
-132.4732231656664
 30
0.0
 10
86.19852835301634
 20
-132.6341091248276
 30
0.0
 10
86.13186575537677
 20
-132.7481417853894
 30
0.0
 10
86.02541230488254
 20
-132.8073974277357
 30
0.0
 10
86.10120440555804
 20
-132.8580403313688
 30
0.0
 10
86.23642440335409
 20
-132.9534694763103
 30
0.0
 10
86.23642440335409
 20
-133.2156412427378
 30
0.0
 10
86.23642440335409
 20
-133.5901231219844
 30
0.0
 10
85.99836830532332
 20
-133.7065673493859
 30
0.0
 10
85.7945909073708
 20
-133.7065673493859
 30
0.0
  0
SPLINE
  5
9F
330
98
100
AcDbEntity
  8
_U+30EC_U+30A4_U+30E4_U+30FC 1
370
     0
100
AcDbSpline
210
0.0
220
0.0
230
1.0
 70
    11
 71
     3
 72
    17
 73
    13
 74
     0
 42
0.0000000001
 43
0.0000000001
 12
1.0
 22
0.0
 32
0.0
 13
1.0
 23
0.0
 33
0.0
 40
0.0
 40
0.0
 40
0.0
 40
0.0
 40
1.0
 40
1.0
 40
1.0
 40
2.0
 40
2.0
 40
2.0
 40
3.0
 40
3.0
 40
3.0
 40
4.0
 40
4.0
 40
4.0
 40
4.0
 10
85.7945909073708
 20
-132.915228916424
 30
0.0
 10
85.6719455080959
 20
-132.915228916424
 30
0.0
 10
85.54223766307625
 20
-133.0020453226523
 30
0.0
 10
85.54223766307625
 20
-133.205305956282
 30
0.0
 10
85.54223766307625
 20
-133.4102891376544
 30
0.0
 10
85.6504136613131
 20
-133.5119194544693
 30
0.0
 10
85.7945909073708
 20
-133.5119194544693
 30
0.0
 10
85.95340980924082
 20
-133.5119194544693
 30
0.0
 10
86.04711640643961
 20
-133.3892740551944
 30
0.0
 10
86.04711640643961
 20
-133.2115071281555
 30
0.0
 10
86.04711640643961
 20
-132.9892984693568
 30
0.0
 10
85.90827905838404
 20
-132.915228916424
 30
0.0
 10
85.7945909073708
 20
-132.915228916424
 30
0.0
  0
SPLINE
  5
A0
330
98
100
AcDbEntity
  8
_U+30EC_U+30A4_U+30E4_U+30FC 1
370
     0
100
AcDbSpline
210
0.0
220
0.0
230
1.0
 70
    11
 71
     3
 72
    17
 73
    13
 74
     0
 42
0.0000000001
 43
0.0000000001
 12
1.0
 22
0.0
 32
0.0
 13
1.0
 23
0.0
 33
0.0
 40
0.0
 40
0.0
 40
0.0
 40
0.0
 40
1.0
 40
1.0
 40
1.0
 40
2.0
 40
2.0
 40
2.0
 40
3.0
 40
3.0
 40
3.0
 40
4.0
 40
4.0
 40
4.0
 40
4.0
 10
85.7945909073708
 20
-132.2551486214501
 30
0.0
 10
85.65403101157261
 20
-132.2551486214501
 30
0.0
 10
85.58185626115662
 20
-132.350233256843
 30
0.0
 10
85.58185626115662
 20
-132.4859700189618
 30
0.0
 10
85.58185626115662
 20
-132.6086154182368
 30
0.0
 10
85.64317896079407
 20
-132.7271267029293
 30
0.0
 10
85.7945909073708
 20
-132.7271267029293
 30
0.0
 10
85.94617510872179
 20
-132.7271267029293
 30
0.0
 10
86.00749780835925
 20
-132.6086154182368
 30
0.0
 10
86.00749780835925
 20
-132.4859700189618
 30
0.0
 10
86.00749780835925
 20
-132.350233256843
 30
0.0
 10
85.93342825542636
 20
-132.2551486214501
 30
0.0
 10
85.7945909073708
 20
-132.2551486214501
 30
0.0
  0
HATCH
  5
A1
330
98
100
AcDbEntity
  8
_U+30EC_U+30A4_U+30E4_U+30FC 1
 62
   179
420
  2234388
100
AcDbHatch
 10
0.0
 20
0.0
 30
0.0
210
0.0
220
0.0
230
1.0
  2
SOLID
 70
     1
 71
     0
 91
        3
 92
        1
 93
        1
 72
     4
 94
        3
 73
     0
 74
     1
 95
       29
 96
       25
 40
0.0
 40
0.0
 40
0.0
 40
0.0
 40
1.0
 40
1.0
 40
1.0
 40
2.0
 40
2.0
 40
2.0
 40
3.0
 40
3.0
 40
3.0
 40
4.0
 40
4.0
 40
4.0
 40
5.0
 40
5.0
 40
5.0
 40
6.0
 40
6.0
 40
6.0
 40
7.0
 40
7.0
 40
7.0
 40
8.0
 40
8.0
 40
8.0
 40
8.0
 10
85.7945909073708
 20
-133.7065673493859
 10
85.56738686011857
 20
-133.7065673493859
 10
85.35103486364488
 20
-133.5691080395244
 10
85.35103486364488
 20
-133.2197753573201
 10
85.35103486364488
 20
-132.9641492723145
 10
85.47178546040288
 20
-132.8687201273731
 10
85.56204696211644
 20
-132.8073974277357
 10
85.45559351162221
 20
-132.7481417853894
 10
85.39065346172525
 20
-132.6341091248276
 10
85.39065346172525
 20
-132.4732231656664
 10
85.39065346172525
 20
-132.197960036395
 10
85.56015215959955
 20
-132.0629122933732
 10
85.7945909073708
 20
-132.0629122933732
 10
86.03626435566107
 20
-132.0629122933732
 10
86.19852835301634
 20
-132.2065727751081
 10
86.19852835301634
 20
-132.4732231656664
 10
86.19852835301634
 20
-132.6341091248276
 10
86.13186575537677
 20
-132.7481417853894
 10
86.02541230488254
 20
-132.8073974277357
 10
86.10120440555804
 20
-132.8580403313688
 10
86.23642440335409
 20
-132.9534694763103
 10
86.23642440335409
 20
-133.2156412427378
 10
86.23642440335409
 20
-133.5901231219844
 10
85.99836830532332
 20
-133.7065673493859
 10
85.7945909073708
 20
-133.7065673493859
 97
        0
 97
        0
 92
        1
 93
        1
 72
     4
 94
        3
 73
     0
 74
     1
 95
       17
 96
       13
 40
0.0
 40
0.0
 40
0.0
 40
0.0
 40
1.0
 40
1.0
 40
1.0
 40
2.0
 40
2.0
 40
2.0
 40
3.0
 40
3.0
 40
3.0
 40
4.0
 40
4.0
 40
4.0
 40
4.0
 10
85.7945909073708
 20
-132.915228916424
 10
85.6719455080959
 20
-132.915228916424
 10
85.54223766307625
 20
-133.0020453226523
 10
85.54223766307625
 20
-133.205305956282
 10
85.54223766307625
 20
-133.4102891376544
 10
85.6504136613131
 20
-133.5119194544693
 10
85.7945909073708
 20
-133.5119194544693
 10
85.95340980924082
 20
-133.5119194544693
 10
86.04711640643961
 20
-133.3892740551944
 10
86.04711640643961
 20
-133.2115071281555
 10
86.04711640643961
 20
-132.9892984693568
 10
85.90827905838404
 20
-132.915228916424
 10
85.7945909073708
 20
-132.915228916424
 97
        0
 97
        0
 92
        1
 93
        1
 72
     4
 94
        3
 73
     0
 74
     1
 95
       17
 96
       13
 40
0.0
 40
0.0
 40
0.0
 40
0.0
 40
1.0
 40
1.0
 40
1.0
 40
2.0
 40
2.0
 40
2.0
 40
3.0
 40
3.0
 40
3.0
 40
4.0
 40
4.0
 40
4.0
 40
4.0
 10
85.7945909073708
 20
-132.2551486214501
 10
85.65403101157261
 20
-132.2551486214501
 10
85.58185626115662
 20
-132.350233256843
 10
85.58185626115662
 20
-132.4859700189618
 10
85.58185626115662
 20
-132.6086154182368
 10
85.64317896079407
 20
-132.7271267029293
 10
85.7945909073708
 20
-132.7271267029293
 10
85.94617510872179
 20
-132.7271267029293
 10
86.00749780835925
 20
-132.6086154182368
 10
86.00749780835925
 20
-132.4859700189618
 10
86.00749780835925
 20
-132.350233256843
 10
85.93342825542636
 20
-132.2551486214501
 10
85.7945909073708
 20
-132.2551486214501
 97
        0
 97
        0
 75
     2
 76
     1
 98
        0
  0
POLYLINE
  5
A2
330
98
100
AcDbEntity
  8
_U+30EC_U+30A4_U+30E4_U+30FC 1
370
     0
100
AcDb2dPolyline
 66
     1
 10
0.0
 20
0.0
 30
0.0
  0
VERTEX
  5
A3
330
A2
100
AcDbEntity
  8
_U+30EC_U+30A4_U+30E4_U+30FC 1
370
     0
100
AcDbVertex
100
AcDb2dVertex
 10
86.421426030912
 20
-133.6559244457527
 30
0.0
  0
VERTEX
  5
A4
330
A2
100
AcDbEntity
  8
_U+30EC_U+30A4_U+30E4_U+30FC 1
370
     0
100
AcDbVertex
100
AcDb2dVertex
 10
86.421426030912
 20
-133.4040879657809
 30
0.0
  0
VERTEX
  5
A5
330
A2
100
AcDbEntity
  8
_U+30EC_U+30A4_U+30E4_U+30FC 1
370
     0
100
AcDbVertex
100
AcDb2dVertex
 10
86.63605547964308
 20
-133.4040879657809
 30
0.0
  0
VERTEX
  5
A6
330
A2
100
AcDbEntity
  8
_U+30EC_U+30A4_U+30E4_U+30FC 1
370
     0
100
AcDbVertex
100
AcDb2dVertex
 10
86.63605547964308
 20
-133.6559244457527
 30
0.0
  0
VERTEX
  5
A7
330
A2
100
AcDbEntity
  8
_U+30EC_U+30A4_U+30E4_U+30FC 1
370
     0
100
AcDbVertex
100
AcDb2dVertex
 10
86.421426030912
 20
-133.6559244457527
 30
0.0
  0
SEQEND
  5
A8
330
A2
100
AcDbEntity
  8
_U+30EC_U+30A4_U+30E4_U+30FC 1
370
     0
  0
HATCH
  5
A9
330
98
100
AcDbEntity
  8
_U+30EC_U+30A4_U+30E4_U+30FC 1
 62
   179
420
  2234388
100
AcDbHatch
 10
0.0
 20
0.0
 30
0.0
210
0.0
220
0.0
230
1.0
  2
SOLID
 70
     1
 71
     0
 91
        1
 92
        1
 93
        4
 72
     1
 10
86.421426030912
 20
-133.6559244457527
 11
86.421426030912
 21
-133.4040879657809
 72
     1
 10
86.421426030912
 20
-133.4040879657809
 11
86.63605547964308
 21
-133.4040879657809
 72
     1
 10
86.63605547964308
 20
-133.4040879657809
 11
86.63605547964308
 21
-133.6559244457527
 72
     1
 10
86.63605547964308
 20
-133.6559244457527
 11
86.421426030912
 21
-133.6559244457527
 97
        0
 75
     2
 76
     1
 98
        0
  0
SPLINE
  5
AA
330
98
100
AcDbEntity
  8
_U+30EC_U+30A4_U+30E4_U+30FC 1
370
     0
100
AcDbSpline
210
0.0
220
0.0
230
1.0
 70
    11
 71
     3
 72
    32
 73
    28
 74
     0
 42
0.0000000001
 43
0.0000000001
 12
1.0
 22
0.0
 32
0.0
 13
1.0
 23
0.0
 33
0.0
 40
0.0
 40
0.0
 40
0.0
 40
0.0
 40
1.0
 40
1.0
 40
1.0
 40
2.0
 40
2.0
 40
2.0
 40
3.0
 40
3.0
 40
3.0
 40
4.0
 40
4.0
 40
4.0
 40
5.0
 40
5.0
 40
5.0
 40
6.0
 40
6.0
 40
6.0
 40
7.0
 40
7.0
 40
7.0
 40
8.0
 40
8.0
 40
8.0
 40
9.0
 40
9.0
 40
9.0
 40
9.0
 10
87.22706161013768
 20
-133.7065673493859
 30
0.0
 10
87.07926701382047
 20
-133.7065673493859
 30
0.0
 10
86.86997746309154
 20
-133.6366319110353
 30
0.0
 10
86.83759356553018
 20
-133.3045247062572
 30
0.0
 10
86.83759356553018
 20
-133.3045247062572
 30
0.0
 10
87.01966686192564
 20
-133.3045247062572
 30
0.0
 10
87.01966686192564
 20
-133.3045247062572
 30
0.0
 10
87.0286241101873
 20
-133.3637803486035
 30
0.0
 10
87.0556681097465
 20
-133.5119194544693
 30
0.0
 10
87.22878415788031
 20
-133.5119194544693
 30
0.0
 10
87.4776923066896
 20
-133.5119194544693
 30
0.0
 10
87.51024845902522
 20
-133.1818793069823
 30
0.0
 10
87.52092825502949
 20
-132.9765516160614
 30
0.0
 10
87.44341360661137
 20
-133.0571668504163
 30
0.0
 10
87.38570825723343
 20
-133.1143554354714
 30
0.0
 10
87.2306789603972
 20
-133.1143554354714
 30
0.0
 10
87.07737221130358
 20
-133.1143554354714
 30
0.0
 10
86.81950681423262
 20
-133.0082464945257
 30
0.0
 10
86.81950681423262
 20
-132.6024142463633
 30
0.0
 10
86.81950681423262
 20
-132.2827093853321
 30
0.0
 10
86.98900551210691
 20
-132.0629122933732
 30
0.0
 10
87.25944550769903
 20
-132.0629122933732
 30
0.0
 10
87.69766165342281
 20
-132.0629122933732
 30
0.0
 10
87.70679115645872
 20
-132.6168836474014
 30
0.0
 10
87.70679115645872
 20
-132.8304795674868
 30
0.0
 10
87.70679115645872
 20
-133.0613009649986
 30
0.0
 10
87.69042695290379
 20
-133.7065673493859
 30
0.0
 10
87.22706161013768
 20
-133.7065673493859
 30
0.0
  0
SPLINE
  5
AB
330
98
100
AcDbEntity
  8
_U+30EC_U+30A4_U+30E4_U+30FC 1
370
     0
100
AcDbSpline
210
0.0
220
0.0
230
1.0
 70
    11
 71
     3
 72
    17
 73
    13
 74
     0
 42
0.0000000001
 43
0.0000000001
 12
1.0
 22
0.0
 32
0.0
 13
1.0
 23
0.0
 33
0.0
 40
0.0
 40
0.0
 40
0.0
 40
0.0
 40
1.0
 40
1.0
 40
1.0
 40
2.0
 40
2.0
 40
2.0
 40
3.0
 40
3.0
 40
3.0
 40
4.0
 40
4.0
 40
4.0
 40
4.0
 10
87.26134031021591
 20
-132.2551486214501
 30
0.0
 10
87.1603990124981
 20
-132.2551486214501
 30
0.0
 10
87.01070961366399
 20
-132.3123372065052
 30
0.0
 10
87.01070961366399
 20
-132.5979356222325
 30
0.0
 10
87.01070961366399
 20
-132.8242783956134
 30
0.0
 10
87.12973766267937
 20
-132.9193630310063
 30
0.0
 10
87.24514836143524
 20
-132.9193630310063
 30
0.0
 10
87.46873505842795
 20
-132.9193630310063
 30
0.0
 10
87.50111895598931
 20
-132.7099012255031
 30
0.0
 10
87.50111895598931
 20
-132.5938015076502
 30
0.0
 10
87.50111895598931
 20
-132.4181016379024
 30
0.0
 10
87.41998695731168
 20
-132.2551486214501
 30
0.0
 10
87.26134031021591
 20
-132.2551486214501
 30
0.0
  0
HATCH
  5
AC
330
98
100
AcDbEntity
  8
_U+30EC_U+30A4_U+30E4_U+30FC 1
 62
   179
420
  2234388
100
AcDbHatch
 10
0.0
 20
0.0
 30
0.0
210
0.0
220
0.0
230
1.0
  2
SOLID
 70
     1
 71
     0
 91
        2
 92
        1
 93
        1
 72
     4
 94
        3
 73
     0
 74
     1
 95
       32
 96
       28
 40
0.0
 40
0.0
 40
0.0
 40
0.0
 40
1.0
 40
1.0
 40
1.0
 40
2.0
 40
2.0
 40
2.0
 40
3.0
 40
3.0
 40
3.0
 40
4.0
 40
4.0
 40
4.0
 40
5.0
 40
5.0
 40
5.0
 40
6.0
 40
6.0
 40
6.0
 40
7.0
 40
7.0
 40
7.0
 40
8.0
 40
8.0
 40
8.0
 40
9.0
 40
9.0
 40
9.0
 40
9.0
 10
87.22706161013768
 20
-133.7065673493859
 10
87.07926701382047
 20
-133.7065673493859
 10
86.86997746309154
 20
-133.6366319110353
 10
86.83759356553018
 20
-133.3045247062572
 10
86.83759356553018
 20
-133.3045247062572
 10
87.01966686192564
 20
-133.3045247062572
 10
87.01966686192564
 20
-133.3045247062572
 10
87.0286241101873
 20
-133.3637803486035
 10
87.0556681097465
 20
-133.5119194544693
 10
87.22878415788031
 20
-133.5119194544693
 10
87.4776923066896
 20
-133.5119194544693
 10
87.51024845902522
 20
-133.1818793069823
 10
87.52092825502949
 20
-132.9765516160614
 10
87.44341360661137
 20
-133.0571668504163
 10
87.38570825723343
 20
-133.1143554354714
 10
87.2306789603972
 20
-133.1143554354714
 10
87.07737221130358
 20
-133.1143554354714
 10
86.81950681423262
 20
-133.0082464945257
 10
86.81950681423262
 20
-132.6024142463633
 10
86.81950681423262
 20
-132.2827093853321
 10
86.98900551210691
 20
-132.0629122933732
 10
87.25944550769903
 20
-132.0629122933732
 10
87.69766165342281
 20
-132.0629122933732
 10
87.70679115645872
 20
-132.6168836474014
 10
87.70679115645872
 20
-132.8304795674868
 10
87.70679115645872
 20
-133.0613009649986
 10
87.69042695290379
 20
-133.7065673493859
 10
87.22706161013768
 20
-133.7065673493859
 97
        0
 97
        0
 92
        1
 93
        1
 72
     4
 94
        3
 73
     0
 74
     1
 95
       17
 96
       13
 40
0.0
 40
0.0
 40
0.0
 40
0.0
 40
1.0
 40
1.0
 40
1.0
 40
2.0
 40
2.0
 40
2.0
 40
3.0
 40
3.0
 40
3.0
 40
4.0
 40
4.0
 40
4.0
 40
4.0
 10
87.26134031021591
 20
-132.2551486214501
 10
87.1603990124981
 20
-132.2551486214501
 10
87.01070961366399
 20
-132.3123372065052
 10
87.01070961366399
 20
-132.5979356222325
 10
87.01070961366399
 20
-132.8242783956134
 10
87.12973766267937
 20
-132.9193630310063
 10
87.24514836143524
 20
-132.9193630310063
 10
87.46873505842795
 20
-132.9193630310063
 10
87.50111895598931
 20
-132.7099012255031
 10
87.50111895598931
 20
-132.5938015076502
 10
87.50111895598931
 20
-132.4181016379024
 10
87.41998695731168
 20
-132.2551486214501
 10
87.26134031021591
 20
-132.2551486214501
 97
        0
 97
        0
 75
     2
 76
     1
 98
        0
  0
ENDBLK
  5
9B
330
98
100
AcDbEntity
  8
0
100
AcDbBlockEnd
  0
BLOCK
  5
AF
330
AD
100
AcDbEntity
  8
0
100
AcDbBlockBegin
  2
block 4
 70
     0
 10
0.0
 20
0.0
 30
0.0
  3
block 4
  1

  0
SPLINE
  5
B1
330
AD
100
AcDbEntity
  8
_U+30EC_U+30A4_U+30E4_U+30FC 1
370
     0
100
AcDbSpline
210
0.0
220
0.0
230
1.0
 70
    11
 71
     3
 72
    44
 73
    40
 74
     0
 42
0.0000000001
 43
0.0000000001
 12
1.0
 22
0.0
 32
0.0
 13
1.0
 23
0.0
 33
0.0
 40
0.0
 40
0.0
 40
0.0
 40
0.0
 40
1.0
 40
1.0
 40
1.0
 40
2.0
 40
2.0
 40
2.0
 40
3.0
 40
3.0
 40
3.0
 40
4.0
 40
4.0
 40
4.0
 40
5.0
 40
5.0
 40
5.0
 40
6.0
 40
6.0
 40
6.0
 40
7.0
 40
7.0
 40
7.0
 40
8.0
 40
8.0
 40
8.0
 40
9.0
 40
9.0
 40
9.0
 40
10.0
 40
10.0
 40
10.0
 40
11.0
 40
11.0
 40
11.0
 40
12.0
 40
12.0
 40
12.0
 40
13.0
 40
13.0
 40
13.0
 40
13.0
 10
98.25550127751946
 20
-131.7959173932663
 30
0.0
 10
98.0698106308645
 20
-131.9547362951363
 30
0.0
 10
97.99057343470375
 20
-132.0284613385207
 30
0.0
 10
97.94923228888075
 20
-132.1724663298041
 30
0.0
 10
97.94923228888075
 20
-132.1724663298041
 30
0.0
 10
98.61275767933986
 20
-132.1724663298041
 30
0.0
 10
98.61275767933986
 20
-132.1724663298041
 30
0.0
 10
98.61275767933986
 20
-132.1724663298041
 30
0.0
 10
98.61275767933986
 20
-132.377794020725
 30
0.0
 10
98.61275767933986
 20
-132.377794020725
 30
0.0
 10
98.61275767933986
 20
-132.377794020725
 30
0.0
 10
97.73632538789231
 20
-132.377794020725
 30
0.0
 10
97.73632538789231
 20
-132.377794020725
 30
0.0
 10
97.76319713267726
 20
-132.0201931093561
 30
0.0
 10
97.81935218908683
 20
-131.9416449322924
 30
0.0
 10
98.14732527928261
 20
-131.6432996632697
 30
0.0
 10
98.36574433304746
 20
-131.4448621633194
 30
0.0
 10
98.4215548799085
 20
-131.3769937822599
 30
0.0
 10
98.4215548799085
 20
-131.2395344723984
 30
0.0
 10
98.4215548799085
 20
-131.1210231877059
 30
0.0
 10
98.36023218027105
 20
-130.9897650497178
 30
0.0
 10
98.1924560301394
 20
-130.9897650497178
 30
0.0
 10
97.9705918808893
 20
-130.9897650497178
 30
0.0
 10
97.96335718037028
 20
-131.2202419376811
 30
0.0
 10
97.95991208488503
 20
-131.3366861650825
 30
0.0
 10
97.95991208488503
 20
-131.3366861650825
 30
0.0
 10
97.76870928545367
 20
-131.3366861650825
 30
0.0
 10
97.76870928545367
 20
-131.3366861650825
 30
0.0
 10
97.77594398597269
 20
-131.2099066512253
 30
0.0
 10
97.78490123423434
 20
-131.0975965384062
 30
0.0
 10
97.8534586343908
 20
-130.9790852537136
 30
0.0
 10
97.94716523158961
 20
-130.8185438041009
 30
0.0
 10
98.10598413345961
 20
-130.7847818683455
 30
0.0
 10
98.20520288343481
 20
-130.7847818683455
 30
0.0
 10
98.44153643372296
 20
-130.7847818683455
 30
0.0
 10
98.61826983211627
 20
-130.9687499672578
 30
0.0
 10
98.61826983211627
 20
-131.2416015296896
 30
0.0
 10
98.61826983211627
 20
-131.4700113603617
 30
0.0
 10
98.51905108214108
 20
-131.5695746198854
 30
0.0
 10
98.25550127751946
 20
-131.7959173932663
 30
0.0
  0
HATCH
  5
B2
330
AD
100
AcDbEntity
  8
_U+30EC_U+30A4_U+30E4_U+30FC 1
 62
   179
420
  2234388
100
AcDbHatch
 10
0.0
 20
0.0
 30
0.0
210
0.0
220
0.0
230
1.0
  2
SOLID
 70
     1
 71
     0
 91
        1
 92
        1
 93
        1
 72
     4
 94
        3
 73
     0
 74
     1
 95
       44
 96
       40
 40
0.0
 40
0.0
 40
0.0
 40
0.0
 40
1.0
 40
1.0
 40
1.0
 40
2.0
 40
2.0
 40
2.0
 40
3.0
 40
3.0
 40
3.0
 40
4.0
 40
4.0
 40
4.0
 40
5.0
 40
5.0
 40
5.0
 40
6.0
 40
6.0
 40
6.0
 40
7.0
 40
7.0
 40
7.0
 40
8.0
 40
8.0
 40
8.0
 40
9.0
 40
9.0
 40
9.0
 40
10.0
 40
10.0
 40
10.0
 40
11.0
 40
11.0
 40
11.0
 40
12.0
 40
12.0
 40
12.0
 40
13.0
 40
13.0
 40
13.0
 40
13.0
 10
98.25550127751946
 20
-131.7959173932663
 10
98.0698106308645
 20
-131.9547362951363
 10
97.99057343470375
 20
-132.0284613385207
 10
97.94923228888075
 20
-132.1724663298041
 10
97.94923228888075
 20
-132.1724663298041
 10
98.61275767933986
 20
-132.1724663298041
 10
98.61275767933986
 20
-132.1724663298041
 10
98.61275767933986
 20
-132.1724663298041
 10
98.61275767933986
 20
-132.377794020725
 10
98.61275767933986
 20
-132.377794020725
 10
98.61275767933986
 20
-132.377794020725
 10
97.73632538789231
 20
-132.377794020725
 10
97.73632538789231
 20
-132.377794020725
 10
97.76319713267726
 20
-132.0201931093561
 10
97.81935218908683
 20
-131.9416449322924
 10
98.14732527928261
 20
-131.6432996632697
 10
98.36574433304746
 20
-131.4448621633194
 10
98.4215548799085
 20
-131.3769937822599
 10
98.4215548799085
 20
-131.2395344723984
 10
98.4215548799085
 20
-131.1210231877059
 10
98.36023218027105
 20
-130.9897650497178
 10
98.1924560301394
 20
-130.9897650497178
 10
97.9705918808893
 20
-130.9897650497178
 10
97.96335718037028
 20
-131.2202419376811
 10
97.95991208488503
 20
-131.3366861650825
 10
97.95991208488503
 20
-131.3366861650825
 10
97.76870928545367
 20
-131.3366861650825
 10
97.76870928545367
 20
-131.3366861650825
 10
97.77594398597269
 20
-131.2099066512253
 10
97.78490123423434
 20
-131.0975965384062
 10
97.8534586343908
 20
-130.9790852537136
 10
97.94716523158961
 20
-130.8185438041009
 10
98.10598413345961
 20
-130.7847818683455
 10
98.20520288343481
 20
-130.7847818683455
 10
98.44153643372296
 20
-130.7847818683455
 10
98.61826983211627
 20
-130.9687499672578
 10
98.61826983211627
 20
-131.2416015296896
 10
98.61826983211627
 20
-131.4700113603617
 10
98.51905108214108
 20
-131.5695746198854
 10
98.25550127751946
 20
-131.7959173932663
 97
        0
 97
        0
 75
     2
 76
     1
 98
        0
  0
SPLINE
  5
B3
330
AD
100
AcDbEntity
  8
_U+30EC_U+30A4_U+30E4_U+30FC 1
370
     0
100
AcDbSpline
210
0.0
220
0.0
230
1.0
 70
    11
 71
     3
 72
    53
 73
    49
 74
     0
 42
0.0000000001
 43
0.0000000001
 12
1.0
 22
0.0
 32
0.0
 13
1.0
 23
0.0
 33
0.0
 40
0.0
 40
0.0
 40
0.0
 40
0.0
 40
1.0
 40
1.0
 40
1.0
 40
2.0
 40
2.0
 40
2.0
 40
3.0
 40
3.0
 40
3.0
 40
4.0
 40
4.0
 40
4.0
 40
5.0
 40
5.0
 40
5.0
 40
6.0
 40
6.0
 40
6.0
 40
7.0
 40
7.0
 40
7.0
 40
8.0
 40
8.0
 40
8.0
 40
9.0
 40
9.0
 40
9.0
 40
10.0
 40
10.0
 40
10.0
 40
11.0
 40
11.0
 40
11.0
 40
12.0
 40
12.0
 40
12.0
 40
13.0
 40
13.0
 40
13.0
 40
14.0
 40
14.0
 40
14.0
 40
15.0
 40
15.0
 40
15.0
 40
16.0
 40
16.0
 40
16.0
 40
16.0
 10
99.16190589968869
 20
-132.4284369243582
 30
0.0
 10
99.09507104727484
 20
-132.4284369243582
 30
0.0
 10
99.00859915059507
 20
-132.4115559564804
 30
0.0
 10
98.9221272539153
 20
-132.3481661995519
 30
0.0
 10
98.7743326575981
 20
-132.2379231440239
 30
0.0
 10
98.75607365152626
 20
-132.1070095155844
 30
0.0
 10
98.73988170274559
 20
-131.9988335173475
 30
0.0
 10
98.73988170274559
 20
-131.9988335173475
 30
0.0
 10
98.92936195443433
 20
-131.9988335173475
 30
0.0
 10
98.92936195443433
 20
-131.9988335173475
 30
0.0
 10
98.97621525303373
 20
-132.197960036395
 30
0.0
 10
99.08439125127057
 20
-132.2275878575681
 30
0.0
 10
99.16362844743132
 20
-132.2275878575681
 30
0.0
 10
99.28282875122096
 20
-132.2275878575681
 30
0.0
 10
99.41270885101488
 20
-132.1280245980444
 30
0.0
 10
99.41270885101488
 20
-131.89548065279
 30
0.0
 10
99.41270885101488
 20
-131.6391655486874
 30
0.0
 10
99.25940210192127
 20
-131.5695746198854
 30
0.0
 10
99.1563937469123
 20
-131.5695746198854
 30
0.0
 10
99.12952200212735
 20
-131.5695746198854
 30
0.0
 10
99.00859915059507
 20
-131.5695746198854
 30
0.0
 10
98.93280704991957
 20
-131.6984211910337
 30
0.0
 10
98.93280704991957
 20
-131.6984211910337
 30
0.0
 10
98.78328990585973
 20
-131.6794731658649
 30
0.0
 10
98.78328990585973
 20
-131.6794731658649
 30
0.0
 10
98.78328990585973
 20
-131.6794731658649
 30
0.0
 10
98.88595375132019
 20
-130.8333577146875
 30
0.0
 10
98.88595375132019
 20
-130.8333577146875
 30
0.0
 10
98.88595375132019
 20
-130.8333577146875
 30
0.0
 10
99.5494791417793
 20
-130.8333577146875
 30
0.0
 10
99.5494791417793
 20
-130.8333577146875
 30
0.0
 10
99.5494791417793
 20
-130.8333577146875
 30
0.0
 10
99.5494791417793
 20
-131.0280056096041
 30
0.0
 10
99.5494791417793
 20
-131.0280056096041
 30
0.0
 10
99.5494791417793
 20
-131.0280056096041
 30
0.0
 10
99.02479109937575
 20
-131.0280056096041
 30
0.0
 10
99.02479109937575
 20
-131.0280056096041
 30
0.0
 10
99.02479109937575
 20
-131.0280056096041
 30
0.0
 10
98.96898055251471
 20
-131.4510633351928
 30
0.0
 10
98.96898055251471
 20
-131.4510633351928
 30
0.0
 10
99.0213460038905
 20
-131.4173013994373
 30
0.0
 10
99.0916259517896
 20
-131.3769937822599
 30
0.0
 10
99.19256724950742
 20
-131.3769937822599
 30
0.0
 10
99.40891924598111
 20
-131.3769937822599
 30
0.0
 10
99.61080184141674
 20
-131.5633734480119
 30
0.0
 10
99.61080184141674
 20
-131.8761881180726
 30
0.0
 10
99.61080184141674
 20
-132.1938259218127
 30
0.0
 10
99.4199435515339
 20
-132.4284369243582
 30
0.0
 10
99.16190589968869
 20
-132.4284369243582
 30
0.0
  0
HATCH
  5
B4
330
AD
100
AcDbEntity
  8
_U+30EC_U+30A4_U+30E4_U+30FC 1
 62
   179
420
  2234388
100
AcDbHatch
 10
0.0
 20
0.0
 30
0.0
210
0.0
220
0.0
230
1.0
  2
SOLID
 70
     1
 71
     0
 91
        1
 92
        1
 93
        1
 72
     4
 94
        3
 73
     0
 74
     1
 95
       53
 96
       49
 40
0.0
 40
0.0
 40
0.0
 40
0.0
 40
1.0
 40
1.0
 40
1.0
 40
2.0
 40
2.0
 40
2.0
 40
3.0
 40
3.0
 40
3.0
 40
4.0
 40
4.0
 40
4.0
 40
5.0
 40
5.0
 40
5.0
 40
6.0
 40
6.0
 40
6.0
 40
7.0
 40
7.0
 40
7.0
 40
8.0
 40
8.0
 40
8.0
 40
9.0
 40
9.0
 40
9.0
 40
10.0
 40
10.0
 40
10.0
 40
11.0
 40
11.0
 40
11.0
 40
12.0
 40
12.0
 40
12.0
 40
13.0
 40
13.0
 40
13.0
 40
14.0
 40
14.0
 40
14.0
 40
15.0
 40
15.0
 40
15.0
 40
16.0
 40
16.0
 40
16.0
 40
16.0
 10
99.16190589968869
 20
-132.4284369243582
 10
99.09507104727484
 20
-132.4284369243582
 10
99.00859915059507
 20
-132.4115559564804
 10
98.9221272539153
 20
-132.3481661995519
 10
98.7743326575981
 20
-132.2379231440239
 10
98.75607365152626
 20
-132.1070095155844
 10
98.73988170274559
 20
-131.9988335173475
 10
98.73988170274559
 20
-131.9988335173475
 10
98.92936195443433
 20
-131.9988335173475
 10
98.92936195443433
 20
-131.9988335173475
 10
98.97621525303373
 20
-132.197960036395
 10
99.08439125127057
 20
-132.2275878575681
 10
99.16362844743132
 20
-132.2275878575681
 10
99.28282875122096
 20
-132.2275878575681
 10
99.41270885101488
 20
-132.1280245980444
 10
99.41270885101488
 20
-131.89548065279
 10
99.41270885101488
 20
-131.6391655486874
 10
99.25940210192127
 20
-131.5695746198854
 10
99.1563937469123
 20
-131.5695746198854
 10
99.12952200212735
 20
-131.5695746198854
 10
99.00859915059507
 20
-131.5695746198854
 10
98.93280704991957
 20
-131.6984211910337
 10
98.93280704991957
 20
-131.6984211910337
 10
98.78328990585973
 20
-131.6794731658649
 10
98.78328990585973
 20
-131.6794731658649
 10
98.78328990585973
 20
-131.6794731658649
 10
98.88595375132019
 20
-130.8333577146875
 10
98.88595375132019
 20
-130.8333577146875
 10
98.88595375132019
 20
-130.8333577146875
 10
99.5494791417793
 20
-130.8333577146875
 10
99.5494791417793
 20
-130.8333577146875
 10
99.5494791417793
 20
-130.8333577146875
 10
99.5494791417793
 20
-131.0280056096041
 10
99.5494791417793
 20
-131.0280056096041
 10
99.5494791417793
 20
-131.0280056096041
 10
99.02479109937575
 20
-131.0280056096041
 10
99.02479109937575
 20
-131.0280056096041
 10
99.02479109937575
 20
-131.0280056096041
 10
98.96898055251471
 20
-131.4510633351928
 10
98.96898055251471
 20
-131.4510633351928
 10
99.0213460038905
 20
-131.4173013994373
 10
99.0916259517896
 20
-131.3769937822599
 10
99.19256724950742
 20
-131.3769937822599
 10
99.40891924598111
 20
-131.3769937822599
 10
99.61080184141674
 20
-131.5633734480119
 10
99.61080184141674
 20
-131.8761881180726
 10
99.61080184141674
 20
-132.1938259218127
 10
99.4199435515339
 20
-132.4284369243582
 10
99.16190589968869
 20
-132.4284369243582
 97
        0
 97
        0
 75
     2
 76
     1
 98
        0
  0
ENDBLK
  5
B0
330
AD
100
AcDbEntity
  8
0
100
AcDbBlockEnd
  0
ENDSEC
  0
SECTION
  2
ENTITIES
  0
SPLINE
  5
41
330
1F
100
AcDbEntity
  8
_U+30EC_U+30A4_U+30E4_U+30FC 1
 62
   178
420
        0
370
     9
100
AcDbSpline
210
0.0
220
0.0
230
1.0
 70
    11
 71
     3
 72
    32
 73
    28
 74
     0
 42
0.0000000001
 43
0.0000000001
 12
1.0
 22
0.0
 32
0.0
 13
1.0
 23
0.0
 33
0.0
 40
0.0
 40
0.0
 40
0.0
 40
0.0
 40
1.0
 40
1.0
 40
1.0
 40
2.0
 40
2.0
 40
2.0
 40
3.0
 40
3.0
 40
3.0
 40
4.0
 40
4.0
 40
4.0
 40
5.0
 40
5.0
 40
5.0
 40
6.0
 40
6.0
 40
6.0
 40
7.0
 40
7.0
 40
7.0
 40
8.0
 40
8.0
 40
8.0
 40
9.0
 40
9.0
 40
9.0
 40
9.0
 10
91.73326182635618
 20
-132.6967966334925
 30
0.0
 10
91.73326182635618
 20
-132.6967966334925
 30
0.0
 10
99.93534495043694
 20
-127.8233833013774
 30
0.0
 10
99.93534495043694
 20
-127.8233833013774
 30
0.0
 10
99.93534495043694
 20
-127.8233833013774
 30
0.0
 10
99.93534495043694
 20
-126.7650499683087
 30
0.0
 10
99.93534495043694
 20
-126.7650499683087
 30
0.0
 10
99.93534495043694
 20
-126.7650499683087
 30
0.0
 10
98.96520608629837
 20
-125.2664146909056
 30
0.0
 10
98.96520608629837
 20
-125.2664146909056
 30
0.0
 10
98.96520608629837
 20
-125.2664146909056
 30
0.0
 10
94.62162980822333
 20
-122.8851646915009
 30
0.0
 10
94.62162980822333
 20
-122.8851646915009
 30
0.0
 10
94.62162980822333
 20
-122.8851646915009
 30
0.0
 10
86.33117585306377
 20
-127.5374216347823
 30
0.0
 10
86.33117585306377
 20
-127.5374216347823
 30
0.0
 10
86.33117585306377
 20
-127.5374216347823
 30
0.0
 10
85.53742587331402
 20
-128.0004424679999
 30
0.0
 10
85.71381475770285
 20
-129.1249216343855
 30
0.0
 10
85.71381475770285
 20
-129.1249216343855
 30
0.0
 10
87.63204387543142
 20
-128.0879666346446
 30
0.0
 10
87.63204387543142
 20
-128.0879666346446
 30
0.0
 10
87.63204387543142
 20
-128.0879666346446
 30
0.0
 10
90.6527035205902
 20
-129.8739041341985
 30
0.0
 10
90.78499518388182
 20
-130.0723416341488
 30
0.0
 10
90.78499518388182
 20
-130.0723416341488
 30
0.0
 10
92.21833125842548
 20
-131.4179771893677
 30
0.0
 10
91.73326182635618
 20
-132.6967966334925
 30
0.0
  0
SPLINE
  5
42
330
1F
100
AcDbEntity
  8
_U+30EC_U+30A4_U+30E4_U+30FC 1
 62
     7
420
 16777215
370
    18
100
AcDbSpline
210
0.0
220
0.0
230
1.0
 70
     8
 71
     3
 72
    14
 73
    10
 74
     0
 42
0.0000000001
 43
0.0000000001
 12
1.0
 22
0.0
 32
0.0
 13
1.0
 23
0.0
 33
0.0
 40
0.0
 40
0.0
 40
0.0
 40
0.0
 40
1.0
 40
1.0
 40
1.0
 40
2.0
 40
2.0
 40
2.0
 40
3.0
 40
3.0
 40
3.0
 40
3.0
 10
85.72482142408872
 20
-129.1359635788273
 30
0.0
 10
85.72482142408872
 20
-129.1359635788273
 30
0.0
 10
85.36103698892518
 20
-127.7799563569439
 30
0.0
 10
86.51857140383846
 20
-127.5484635792239
 30
0.0
 10
86.51857140383846
 20
-127.5484635792239
 30
0.0
 10
89.42898799625422
 20
-129.0367271899631
 30
0.0
 10
90.58655768894438
 20
-129.8966230230814
 30
0.0
 10
90.58655768894438
 20
-129.8966230230814
 30
0.0
 10
92.33958331024844
 20
-131.2856855227342
 30
0.0
 10
91.67812497708047
 20
-132.6747480223869
 30
0.0
  0
POLYLINE
  5
43
330
1F
100
AcDbEntity
  8
_U+30EC_U+30A4_U+30E4_U+30FC 1
 62
     7
420
 16777215
370
     9
100
AcDb2dPolyline
 66
     1
 10
0.0
 20
0.0
 30
0.0
  0
VERTEX
  5
44
330
43
100
AcDbEntity
  8
_U+30EC_U+30A4_U+30E4_U+30FC 1
 62
     7
420
 16777215
370
     9
100
AcDbVertex
100
AcDb2dVertex
 10
86.38627974054684
 20
-127.5153730236767
 30
0.0
  0
VERTEX
  5
45
330
43
100
AcDbEntity
  8
_U+30EC_U+30A4_U+30E4_U+30FC 1
 62
     7
420
 16777215
370
     9
100
AcDbVertex
100
AcDb2dVertex
 10
94.62162980822333
 20
-122.8521094137313
 30
0.0
  0
VERTEX
  5
46
330
43
100
AcDbEntity
  8
_U+30EC_U+30A4_U+30E4_U+30FC 1
 62
     7
420
 16777215
370
     9
100
AcDbVertex
100
AcDb2dVertex
 10
98.98725469684696
 20
-125.2664146909056
 30
0.0
  0
VERTEX
  5
47
330
43
100
AcDbEntity
  8
_U+30EC_U+30A4_U+30E4_U+30FC 1
 62
     7
420
 16777215
370
     9
100
AcDbVertex
100
AcDb2dVertex
 10
99.91329633988833
 20
-126.7216230238752
 30
0.0
  0
VERTEX
  5
48
330
43
100
AcDbEntity
  8
_U+30EC_U+30A4_U+30E4_U+30FC 1
 62
     7
420
 16777215
370
     9
100
AcDbVertex
100
AcDb2dVertex
 10
99.91329633988833
 20
-127.8461021902607
 30
0.0
  0
VERTEX
  5
49
330
43
100
AcDbEntity
  8
_U+30EC_U+30A4_U+30E4_U+30FC 1
 62
     7
420
 16777215
370
     9
100
AcDbVertex
100
AcDb2dVertex
 10
91.74426849274205
 20
-132.7078385779344
 30
0.0
  0
SEQEND
  5
4A
330
43
100
AcDbEntity
  8
_U+30EC_U+30A4_U+30E4_U+30FC 1
 62
     7
420
 16777215
370
     9
  0
POLYLINE
  5
4B
330
1F
100
AcDbEntity
  8
_U+30EC_U+30A4_U+30E4_U+30FC 1
 62
     7
420
 16777215
370
     9
100
AcDb2dPolyline
 66
     1
 10
0.0
 20
0.0
 30
0.0
  0
VERTEX
  5
4C
330
4B
100
AcDbEntity
  8
_U+30EC_U+30A4_U+30E4_U+30FC 1
 62
     7
420
 16777215
370
     9
100
AcDbVertex
100
AcDb2dVertex
 10
90.91728684717344
 20
-130.1281510785793
 30
0.0
  0
VERTEX
  5
4D
330
4B
100
AcDbEntity
  8
_U+30EC_U+30A4_U+30E4_U+30FC 1
 62
     7
420
 16777215
370
     9
100
AcDbVertex
100
AcDb2dVertex
 10
98.98725469684696
 20
-125.2664146909056
 30
0.0
  0
SEQEND
  5
4E
330
4B
100
AcDbEntity
  8
_U+30EC_U+30A4_U+30E4_U+30FC 1
 62
     7
420
 16777215
370
     9
  0
POLYLINE
  5
4F
330
1F
100
AcDbEntity
  8
_U+30EC_U+30A4_U+30E4_U+30FC 1
 62
     7
420
 16777215
370
     9
100
AcDb2dPolyline
 66
     1
 10
0.0
 20
0.0
 30
0.0
  0
VERTEX
  5
50
330
4F
100
AcDbEntity
  8
_U+30EC_U+30A4_U+30E4_U+30FC 1
 62
     7
420
 16777215
370
     9
100
AcDbVertex
100
AcDb2dVertex
 10
99.91329633988833
 20
-126.7216230238752
 30
0.0
  0
VERTEX
  5
51
330
4F
100
AcDbEntity
  8
_U+30EC_U+30A4_U+30E4_U+30FC 1
 62
     7
420
 16777215
370
     9
100
AcDbVertex
100
AcDb2dVertex
 10
91.87656015603368
 20
-131.517213578232
 30
0.0
  0
SEQEND
  5
52
330
4F
100
AcDbEntity
  8
_U+30EC_U+30A4_U+30E4_U+30FC 1
 62
     7
420
 16777215
370
     9
  0
POLYLINE
  5
53
330
1F
100
AcDbEntity
  8
_U+30EC_U+30A4_U+30E4_U+30FC 1
 62
     7
420
 16777215
370
     9
100
AcDb2dPolyline
 66
     1
 10
0.0
 20
0.0
 30
0.0
  0
VERTEX
  5
54
330
53
100
AcDbEntity
  8
_U+30EC_U+30A4_U+30E4_U+30FC 1
 62
     7
420
 16777215
370
     9
100
AcDbVertex
100
AcDb2dVertex
 10
85.72482142408872
 20
-129.1690188565967
 30
0.0
  0
VERTEX
  5
55
330
53
100
AcDbEntity
  8
_U+30EC_U+30A4_U+30E4_U+30FC 1
 62
     7
420
 16777215
370
     9
100
AcDbVertex
100
AcDb2dVertex
 10
87.51076108923338
 20
-128.1437760790751
 30
0.0
  0
SEQEND
  5
56
330
53
100
AcDbEntity
  8
_U+30EC_U+30A4_U+30E4_U+30FC 1
 62
     7
420
 16777215
370
     9
  0
POLYLINE
  5
57
330
1F
100
AcDbEntity
  8
_U+30EC_U+30A4_U+30E4_U+30FC 1
  6
AI-Linetype-1
 62
     7
420
 16777215
370
     9
100
AcDb2dPolyline
 66
     1
 10
0.0
 20
0.0
 30
0.0
  0
VERTEX
  5
58
330
57
100
AcDbEntity
  8
_U+30EC_U+30A4_U+30E4_U+30FC 1
  6
AI-Linetype-1
 62
     7
420
 16777215
370
     9
100
AcDbVertex
100
AcDb2dVertex
 10
87.57690471017146
 20
-128.1437760790751
 30
0.0
  0
VERTEX
  5
59
330
57
100
AcDbEntity
  8
_U+30EC_U+30A4_U+30E4_U+30FC 1
  6
AI-Linetype-1
 62
     7
420
 16777215
370
     9
100
AcDbVertex
100
AcDb2dVertex
 10
93.5963517788248
 20
-124.8364844132352
 30
0.0
  0
VERTEX
  5
5A
330
57
100
AcDbEntity
  8
_U+30EC_U+30A4_U+30E4_U+30FC 1
  6
AI-Linetype-1
 62
     7
420
 16777215
370
     9
100
AcDbVertex
100
AcDb2dVertex
 10
99.21874997519532
 20
-128.2099219123918
 30
0.0
  0
SEQEND
  5
5C
330
57
100
AcDbEntity
  8
_U+30EC_U+30A4_U+30E4_U+30FC 1
  6
AI-Linetype-1
 62
     7
420
 16777215
370
     9
  0
POLYLINE
  5
5D
330
1F
100
AcDbEntity
  8
_U+30EC_U+30A4_U+30E4_U+30FC 1
  6
AI-Linetype-2
 62
     7
420
 16777215
370
     9
100
AcDb2dPolyline
 66
     1
 10
0.0
 20
0.0
 30
0.0
  0
VERTEX
  5
5E
330
5D
100
AcDbEntity
  8
_U+30EC_U+30A4_U+30E4_U+30FC 1
  6
AI-Linetype-2
 62
     7
420
 16777215
370
     9
100
AcDbVertex
100
AcDb2dVertex
 10
93.5963517788248
 20
-123.5135677468993
 30
0.0
  0
VERTEX
  5
5F
330
5D
100
AcDbEntity
  8
_U+30EC_U+30A4_U+30E4_U+30FC 1
  6
AI-Linetype-2
 62
     7
420
 16777215
370
     9
100
AcDbVertex
100
AcDb2dVertex
 10
93.5963517788248
 20
-124.8364844132352
 30
0.0
  0
SEQEND
  5
61
330
5D
100
AcDbEntity
  8
_U+30EC_U+30A4_U+30E4_U+30FC 1
  6
AI-Linetype-2
 62
     7
420
 16777215
370
     9
  0
POLYLINE
  5
62
330
1F
100
AcDbEntity
  8
_U+30EC_U+30A4_U+30E4_U+30FC 1
 62
     7
420
 16777215
370
     9
100
AcDb2dPolyline
 66
     1
 10
0.0
 20
0.0
 30
0.0
  0
VERTEX
  5
63
330
62
100
AcDbEntity
  8
_U+30EC_U+30A4_U+30E4_U+30FC 1
 62
     7
420
 16777215
370
     9
100
AcDbVertex
100
AcDb2dVertex
 10
85.69176614715424
 20
-126.9862063571424
 30
0.0
  0
VERTEX
  5
64
330
62
100
AcDbEntity
  8
_U+30EC_U+30A4_U+30E4_U+30FC 1
 62
     7
420
 16777215
370
     9
100
AcDbVertex
100
AcDb2dVertex
 10
83.1451360903248
 20
-125.56408857972
 30
0.0
  0
VERTEX
  5
65
330
62
100
AcDbEntity
  8
_U+30EC_U+30A4_U+30E4_U+30FC 1
 62
     7
420
 16777215
370
     9
100
AcDbVertex
100
AcDb2dVertex
 10
83.1451360903248
 20
-127.5153730236767
 30
0.0
  0
VERTEX
  5
66
330
62
100
AcDbEntity
  8
_U+30EC_U+30A4_U+30E4_U+30FC 1
 62
     7
420
 16777215
370
     9
100
AcDbVertex
100
AcDb2dVertex
 10
84.5341964544641
 20
-128.2760677457086
 30
0.0
  0
SEQEND
  5
67
330
62
100
AcDbEntity
  8
_U+30EC_U+30A4_U+30E4_U+30FC 1
 62
     7
420
 16777215
370
     9
  0
POLYLINE
  5
68
330
1F
100
AcDbEntity
  8
_U+30EC_U+30A4_U+30E4_U+30FC 1
 62
     7
420
 16777215
370
     9
100
AcDb2dPolyline
 66
     1
 10
0.0
 20
0.0
 30
0.0
  0
VERTEX
  5
69
330
68
100
AcDbEntity
  8
_U+30EC_U+30A4_U+30E4_U+30FC 1
 62
     7
420
 16777215
370
     9
100
AcDbVertex
100
AcDb2dVertex
 10
84.83187033575868
 20
-129.6651302453617
 30
0.0
  0
VERTEX
  5
6A
330
68
100
AcDbEntity
  8
_U+30EC_U+30A4_U+30E4_U+30FC 1
 62
     7
420
 16777215
370
     9
100
AcDbVertex
100
AcDb2dVertex
 10
83.47586314813108
 20
-130.5911719117969
 30
0.0
  0
VERTEX
  5
6B
330
68
100
AcDbEntity
  8
_U+30EC_U+30A4_U+30E4_U+30FC 1
 62
     7
420
 16777215
370
     9
100
AcDbVertex
100
AcDb2dVertex
 10
84.9641619990503
 20
-131.4179771893677
 30
0.0
  0
SEQEND
  5
6C
330
68
100
AcDbEntity
  8
_U+30EC_U+30A4_U+30E4_U+30FC 1
 62
     7
420
 16777215
370
     9
  0
POLYLINE
  5
6D
330
1F
100
AcDbEntity
  8
_U+30EC_U+30A4_U+30E4_U+30FC 1
 62
     7
420
 16777215
370
     9
100
AcDb2dPolyline
 66
     1
 10
0.0
 20
0.0
 30
0.0
  0
VERTEX
  5
6E
330
6D
100
AcDbEntity
  8
_U+30EC_U+30A4_U+30E4_U+30FC 1
 62
     7
420
 16777215
370
     9
100
AcDbVertex
100
AcDb2dVertex
 10
88.43680275566855
 20
-133.4684980221884
 30
0.0
  0
VERTEX
  5
6F
330
6D
100
AcDbEntity
  8
_U+30EC_U+30A4_U+30E4_U+30FC 1
 62
     7
420
 16777215
370
     9
100
AcDbVertex
100
AcDb2dVertex
 10
89.62742775537089
 20
-134.1630469109039
 30
0.0
  0
VERTEX
  5
70
330
6D
100
AcDbEntity
  8
_U+30EC_U+30A4_U+30E4_U+30FC 1
 62
     7
420
 16777215
370
     9
100
AcDbVertex
100
AcDb2dVertex
 10
91.08263608834042
 20
-133.1377688556045
 30
0.0
  0
SEQEND
  5
71
330
6D
100
AcDbEntity
  8
_U+30EC_U+30A4_U+30E4_U+30FC 1
 62
     7
420
 16777215
370
     9
  0
POLYLINE
  5
72
330
1F
100
AcDbEntity
  8
_U+30EC_U+30A4_U+30E4_U+30FC 1
 62
     7
420
 16777215
370
     9
100
AcDb2dPolyline
 66
     1
 10
0.0
 20
0.0
 30
0.0
  0
VERTEX
  5
73
330
72
100
AcDbEntity
  8
_U+30EC_U+30A4_U+30E4_U+30FC 1
 62
     7
420
 16777215
370
     9
100
AcDbVertex
100
AcDb2dVertex
 10
92.37267153226571
 20
-132.8070396890205
 30
0.0
  0
VERTEX
  5
74
330
72
100
AcDbEntity
  8
_U+30EC_U+30A4_U+30E4_U+30FC 1
 62
     7
420
 16777215
370
     9
100
AcDbVertex
100
AcDb2dVertex
 10
94.4231923132859
 20
-134.0307552442703
 30
0.0
  0
VERTEX
  5
75
330
72
100
AcDbEntity
  8
_U+30EC_U+30A4_U+30E4_U+30FC 1
 62
     7
420
 16777215
370
     9
100
AcDbVertex
100
AcDb2dVertex
 10
96.83749997579064
 20
-132.6086021890701
 30
0.0
  0
SEQEND
  5
76
330
72
100
AcDbEntity
  8
_U+30EC_U+30A4_U+30E4_U+30FC 1
 62
     7
420
 16777215
370
     9
  0
POLYLINE
  5
77
330
1F
100
AcDbEntity
  8
_U+30EC_U+30A4_U+30E4_U+30FC 1
 62
     7
420
 16777215
370
     9
100
AcDb2dPolyline
 66
     1
 10
0.0
 20
0.0
 30
0.0
  0
VERTEX
  5
78
330
77
100
AcDbEntity
  8
_U+30EC_U+30A4_U+30E4_U+30FC 1
 62
     7
420
 16777215
370
     9
100
AcDbVertex
100
AcDb2dVertex
 10
100.1778796664716
 20
-130.5284833007014
 30
0.0
  0
VERTEX
  5
79
330
77
100
AcDbEntity
  8
_U+30EC_U+30A4_U+30E4_U+30FC 1
 62
     7
420
 16777215
370
     9
100
AcDbVertex
100
AcDb2dVertex
 10
102.5591296057208
 20
-129.2351646899135
 30
0.0
  0
VERTEX
  5
7A
330
77
100
AcDbEntity
  8
_U+30EC_U+30A4_U+30E4_U+30FC 1
 62
     7
420
 16777215
370
     9
100
AcDbVertex
100
AcDb2dVertex
 10
100.6739583081648
 20
-128.1437760790751
 30
0.0
  0
SEQEND
  5
7B
330
77
100
AcDbEntity
  8
_U+30EC_U+30A4_U+30E4_U+30FC 1
 62
     7
420
 16777215
370
     9
  0
SPLINE
  5
7C
330
1F
100
AcDbEntity
  8
_U+30EC_U+30A4_U+30E4_U+30FC 1
 62
     7
420
 16777215
370
     9
100
AcDbSpline
210
0.0
220
0.0
230
1.0
 70
    11
 71
     3
 72
    17
 73
    13
 74
     0
 42
0.0000000001
 43
0.0000000001
 12
1.0
 22
0.0
 32
0.0
 13
1.0
 23
0.0
 33
0.0
 40
0.0
 40
0.0
 40
0.0
 40
0.0
 40
1.0
 40
1.0
 40
1.0
 40
2.0
 40
2.0
 40
2.0
 40
3.0
 40
3.0
 40
3.0
 40
4.0
 40
4.0
 40
4.0
 40
4.0
 10
83.310516207905
 20
-125.5971438574896
 30
0.0
 10
83.310516207905
 20
-125.6694985796938
 30
0.0
 10
83.25124954275034
 20
-125.7294355241232
 30
0.0
 10
83.17822454461337
 20
-125.7294355241232
 30
0.0
 10
83.10516426869951
 20
-125.7294355241232
 30
0.0
 10
83.04593288132175
 20
-125.6694985796938
 30
0.0
 10
83.04593288132175
 20
-125.5971438574896
 30
0.0
 10
83.04593288132175
 20
-125.5241188575078
 30
0.0
 10
83.10516426869951
 20
-125.464852190856
 30
0.0
 10
83.17822454461337
 20
-125.464852190856
 30
0.0
 10
83.25124954275034
 20
-125.464852190856
 30
0.0
 10
83.310516207905
 20
-125.5241188575078
 30
0.0
 10
83.310516207905
 20
-125.5971438574896
 30
0.0
  0
HATCH
  5
7D
330
1F
100
AcDbEntity
  8
_U+30EC_U+30A4_U+30E4_U+30FC 1
 62
     7
420
 16777215
100
AcDbHatch
 10
0.0
 20
0.0
 30
0.0
210
0.0
220
0.0
230
1.0
  2
SOLID
 70
     1
 71
     0
 91
        1
 92
        1
 93
        1
 72
     4
 94
        3
 73
     0
 74
     1
 95
       17
 96
       13
 40
0.0
 40
0.0
 40
0.0
 40
0.0
 40
1.0
 40
1.0
 40
1.0
 40
2.0
 40
2.0
 40
2.0
 40
3.0
 40
3.0
 40
3.0
 40
4.0
 40
4.0
 40
4.0
 40
4.0
 10
83.310516207905
 20
-125.5971438574896
 10
83.310516207905
 20
-125.6694985796938
 10
83.25124954275034
 20
-125.7294355241232
 10
83.17822454461337
 20
-125.7294355241232
 10
83.10516426869951
 20
-125.7294355241232
 10
83.04593288132175
 20
-125.6694985796938
 10
83.04593288132175
 20
-125.5971438574896
 10
83.04593288132175
 20
-125.5241188575078
 10
83.10516426869951
 20
-125.464852190856
 10
83.17822454461337
 20
-125.464852190856
 10
83.25124954275034
 20
-125.464852190856
 10
83.310516207905
 20
-125.5241188575078
 10
83.310516207905
 20
-125.5971438574896
 97
        0
 97
        0
 75
     2
 76
     1
 98
        0
  0
SPLINE
  5
7E
330
1F
100
AcDbEntity
  8
_U+30EC_U+30A4_U+30E4_U+30FC 1
 62
     7
420
 16777215
370
     9
100
AcDbSpline
210
0.0
220
0.0
230
1.0
 70
    11
 71
     3
 72
    17
 73
    13
 74
     0
 42
0.0000000001
 43
0.0000000001
 12
1.0
 22
0.0
 32
0.0
 13
1.0
 23
0.0
 33
0.0
 40
0.0
 40
0.0
 40
0.0
 40
0.0
 40
1.0
 40
1.0
 40
1.0
 40
2.0
 40
2.0
 40
2.0
 40
3.0
 40
3.0
 40
3.0
 40
4.0
 40
4.0
 40
4.0
 40
4.0
 10
83.310516207905
 20
-127.5484635792239
 30
0.0
 10
83.310516207905
 20
-127.6208183014281
 30
0.0
 10
83.25124954275034
 20
-127.6807552458575
 30
0.0
 10
83.17822454461337
 20
-127.6807552458575
 30
0.0
 10
83.10516426869951
 20
-127.6807552458575
 30
0.0
 10
83.04593288132175
 20
-127.6208183014281
 30
0.0
 10
83.04593288132175
 20
-127.5484635792239
 30
0.0
 10
83.04593288132175
 20
-127.4754385792424
 30
0.0
 10
83.10516426869951
 20
-127.4161719125903
 30
0.0
 10
83.17822454461337
 20
-127.4161719125903
 30
0.0
 10
83.25124954275034
 20
-127.4161719125903
 30
0.0
 10
83.310516207905
 20
-127.4754385792424
 30
0.0
 10
83.310516207905
 20
-127.5484635792239
 30
0.0
  0
HATCH
  5
7F
330
1F
100
AcDbEntity
  8
_U+30EC_U+30A4_U+30E4_U+30FC 1
 62
     7
420
 16777215
100
AcDbHatch
 10
0.0
 20
0.0
 30
0.0
210
0.0
220
0.0
230
1.0
  2
SOLID
 70
     1
 71
     0
 91
        1
 92
        1
 93
        1
 72
     4
 94
        3
 73
     0
 74
     1
 95
       17
 96
       13
 40
0.0
 40
0.0
 40
0.0
 40
0.0
 40
1.0
 40
1.0
 40
1.0
 40
2.0
 40
2.0
 40
2.0
 40
3.0
 40
3.0
 40
3.0
 40
4.0
 40
4.0
 40
4.0
 40
4.0
 10
83.310516207905
 20
-127.5484635792239
 10
83.310516207905
 20
-127.6208183014281
 10
83.25124954275034
 20
-127.6807552458575
 10
83.17822454461337
 20
-127.6807552458575
 10
83.10516426869951
 20
-127.6807552458575
 10
83.04593288132175
 20
-127.6208183014281
 10
83.04593288132175
 20
-127.5484635792239
 10
83.04593288132175
 20
-127.4754385792424
 10
83.10516426869951
 20
-127.4161719125903
 10
83.17822454461337
 20
-127.4161719125903
 10
83.25124954275034
 20
-127.4161719125903
 10
83.310516207905
 20
-127.4754385792424
 10
83.310516207905
 20
-127.5484635792239
 97
        0
 97
        0
 75
     2
 76
     1
 98
        0
  0
SPLINE
  5
80
330
1F
100
AcDbEntity
  8
_U+30EC_U+30A4_U+30E4_U+30FC 1
 62
     7
420
 16777215
370
     9
100
AcDbSpline
210
0.0
220
0.0
230
1.0
 70
    11
 71
     3
 72
    17
 73
    13
 74
     0
 42
0.0000000001
 43
0.0000000001
 12
1.0
 22
0.0
 32
0.0
 13
1.0
 23
0.0
 33
0.0
 40
0.0
 40
0.0
 40
0.0
 40
0.0
 40
1.0
 40
1.0
 40
1.0
 40
2.0
 40
2.0
 40
2.0
 40
3.0
 40
3.0
 40
3.0
 40
4.0
 40
4.0
 40
4.0
 40
4.0
 10
83.60815481142271
 20
-130.6242271895662
 30
0.0
 10
83.60815481142271
 20
-130.69658191177
 30
0.0
 10
83.54888814626807
 20
-130.7565188561998
 30
0.0
 10
83.47586314813108
 20
-130.7565188561998
 30
0.0
 10
83.40283814999411
 20
-130.7565188561998
 30
0.0
 10
83.34357148483946
 20
-130.69658191177
 30
0.0
 10
83.34357148483946
 20
-130.6242271895662
 30
0.0
 10
83.34357148483946
 20
-130.5512021895843
 30
0.0
 10
83.40283814999411
 20
-130.4919355229326
 30
0.0
 10
83.47586314813108
 20
-130.4919355229326
 30
0.0
 10
83.54888814626807
 20
-130.4919355229326
 30
0.0
 10
83.60815481142271
 20
-130.5512021895843
 30
0.0
 10
83.60815481142271
 20
-130.6242271895662
 30
0.0
  0
HATCH
  5
81
330
1F
100
AcDbEntity
  8
_U+30EC_U+30A4_U+30E4_U+30FC 1
 62
     7
420
 16777215
100
AcDbHatch
 10
0.0
 20
0.0
 30
0.0
210
0.0
220
0.0
230
1.0
  2
SOLID
 70
     1
 71
     0
 91
        1
 92
        1
 93
        1
 72
     4
 94
        3
 73
     0
 74
     1
 95
       17
 96
       13
 40
0.0
 40
0.0
 40
0.0
 40
0.0
 40
1.0
 40
1.0
 40
1.0
 40
2.0
 40
2.0
 40
2.0
 40
3.0
 40
3.0
 40
3.0
 40
4.0
 40
4.0
 40
4.0
 40
4.0
 10
83.60815481142271
 20
-130.6242271895662
 10
83.60815481142271
 20
-130.69658191177
 10
83.54888814626807
 20
-130.7565188561998
 10
83.47586314813108
 20
-130.7565188561998
 10
83.40283814999411
 20
-130.7565188561998
 10
83.34357148483946
 20
-130.69658191177
 10
83.34357148483946
 20
-130.6242271895662
 10
83.34357148483946
 20
-130.5512021895843
 10
83.40283814999411
 20
-130.4919355229326
 10
83.47586314813108
 20
-130.4919355229326
 10
83.54888814626807
 20
-130.4919355229326
 10
83.60815481142271
 20
-130.5512021895843
 10
83.60815481142271
 20
-130.6242271895662
 97
        0
 97
        0
 75
     2
 76
     1
 98
        0
  0
SPLINE
  5
82
330
1F
100
AcDbEntity
  8
_U+30EC_U+30A4_U+30E4_U+30FC 1
 62
     7
420
 16777215
370
     9
100
AcDbSpline
210
0.0
220
0.0
230
1.0
 70
    11
 71
     3
 72
    17
 73
    13
 74
     0
 42
0.0000000001
 43
0.0000000001
 12
1.0
 22
0.0
 32
0.0
 13
1.0
 23
0.0
 33
0.0
 40
0.0
 40
0.0
 40
0.0
 40
0.0
 40
1.0
 40
1.0
 40
1.0
 40
2.0
 40
2.0
 40
2.0
 40
3.0
 40
3.0
 40
3.0
 40
4.0
 40
4.0
 40
4.0
 40
4.0
 10
89.75971942200448
 20
-134.1299563553564
 30
0.0
 10
89.75971942200448
 20
-134.2023110775603
 30
0.0
 10
89.70045275535276
 20
-134.26224802199
 30
0.0
 10
89.62742775537089
 20
-134.26224802199
 30
0.0
 10
89.55440275538902
 20
-134.26224802199
 30
0.0
 10
89.4951360887373
 20
-134.2023110775603
 30
0.0
 10
89.4951360887373
 20
-134.1299563553564
 30
0.0
 10
89.4951360887373
 20
-134.0569313553746
 30
0.0
 10
89.55440275538902
 20
-133.9976646887228
 30
0.0
 10
89.62742775537089
 20
-133.9976646887228
 30
0.0
 10
89.70045275535276
 20
-133.9976646887228
 30
0.0
 10
89.75971942200448
 20
-134.0569313553746
 30
0.0
 10
89.75971942200448
 20
-134.1299563553564
 30
0.0
  0
HATCH
  5
83
330
1F
100
AcDbEntity
  8
_U+30EC_U+30A4_U+30E4_U+30FC 1
 62
     7
420
 16777215
100
AcDbHatch
 10
0.0
 20
0.0
 30
0.0
210
0.0
220
0.0
230
1.0
  2
SOLID
 70
     1
 71
     0
 91
        1
 92
        1
 93
        1
 72
     4
 94
        3
 73
     0
 74
     1
 95
       17
 96
       13
 40
0.0
 40
0.0
 40
0.0
 40
0.0
 40
1.0
 40
1.0
 40
1.0
 40
2.0
 40
2.0
 40
2.0
 40
3.0
 40
3.0
 40
3.0
 40
4.0
 40
4.0
 40
4.0
 40
4.0
 10
89.75971942200448
 20
-134.1299563553564
 10
89.75971942200448
 20
-134.2023110775603
 10
89.70045275535276
 20
-134.26224802199
 10
89.62742775537089
 20
-134.26224802199
 10
89.55440275538902
 20
-134.26224802199
 10
89.4951360887373
 20
-134.2023110775603
 10
89.4951360887373
 20
-134.1299563553564
 10
89.4951360887373
 20
-134.0569313553746
 10
89.55440275538902
 20
-133.9976646887228
 10
89.62742775537089
 20
-133.9976646887228
 10
89.70045275535276
 20
-133.9976646887228
 10
89.75971942200448
 20
-134.0569313553746
 10
89.75971942200448
 20
-134.1299563553564
 97
        0
 97
        0
 75
     2
 76
     1
 98
        0
  0
SPLINE
  5
84
330
1F
100
AcDbEntity
  8
_U+30EC_U+30A4_U+30E4_U+30FC 1
 62
     7
420
 16777215
370
     9
100
AcDbSpline
210
0.0
220
0.0
230
1.0
 70
    11
 71
     3
 72
    17
 73
    13
 74
     0
 42
0.0000000001
 43
0.0000000001
 12
1.0
 22
0.0
 32
0.0
 13
1.0
 23
0.0
 33
0.0
 40
0.0
 40
0.0
 40
0.0
 40
0.0
 40
1.0
 40
1.0
 40
1.0
 40
2.0
 40
2.0
 40
2.0
 40
3.0
 40
3.0
 40
3.0
 40
4.0
 40
4.0
 40
4.0
 40
4.0
 10
94.55548397657752
 20
-133.9646094109535
 30
0.0
 10
94.55548397657752
 20
-134.0369641331574
 30
0.0
 10
94.49621731142287
 20
-134.0969010775871
 30
0.0
 10
94.4231923132859
 20
-134.0969010775871
 30
0.0
 10
94.35013203737203
 20
-134.0969010775871
 30
0.0
 10
94.29090064999427
 20
-134.0369641331574
 30
0.0
 10
94.29090064999427
 20
-133.9646094109535
 30
0.0
 10
94.29090064999427
 20
-133.8915844109716
 30
0.0
 10
94.35013203737203
 20
-133.8323177443199
 30
0.0
 10
94.4231923132859
 20
-133.8323177443199
 30
0.0
 10
94.49621731142287
 20
-133.8323177443199
 30
0.0
 10
94.55548397657752
 20
-133.8915844109716
 30
0.0
 10
94.55548397657752
 20
-133.9646094109535
 30
0.0
  0
HATCH
  5
85
330
1F
100
AcDbEntity
  8
_U+30EC_U+30A4_U+30E4_U+30FC 1
 62
     7
420
 16777215
100
AcDbHatch
 10
0.0
 20
0.0
 30
0.0
210
0.0
220
0.0
230
1.0
  2
SOLID
 70
     1
 71
     0
 91
        1
 92
        1
 93
        1
 72
     4
 94
        3
 73
     0
 74
     1
 95
       17
 96
       13
 40
0.0
 40
0.0
 40
0.0
 40
0.0
 40
1.0
 40
1.0
 40
1.0
 40
2.0
 40
2.0
 40
2.0
 40
3.0
 40
3.0
 40
3.0
 40
4.0
 40
4.0
 40
4.0
 40
4.0
 10
94.55548397657752
 20
-133.9646094109535
 10
94.55548397657752
 20
-134.0369641331574
 10
94.49621731142287
 20
-134.0969010775871
 10
94.4231923132859
 20
-134.0969010775871
 10
94.35013203737203
 20
-134.0969010775871
 10
94.29090064999427
 20
-134.0369641331574
 10
94.29090064999427
 20
-133.9646094109535
 10
94.29090064999427
 20
-133.8915844109716
 10
94.35013203737203
 20
-133.8323177443199
 10
94.4231923132859
 20
-133.8323177443199
 10
94.49621731142287
 20
-133.8323177443199
 10
94.55548397657752
 20
-133.8915844109716
 10
94.55548397657752
 20
-133.9646094109535
 97
        0
 97
        0
 75
     2
 76
     1
 98
        0
  0
SPLINE
  5
86
330
1F
100
AcDbEntity
  8
_U+30EC_U+30A4_U+30E4_U+30FC 1
 62
     7
420
 16777215
370
     9
100
AcDbSpline
210
0.0
220
0.0
230
1.0
 70
    11
 71
     3
 72
    17
 73
    13
 74
     0
 42
0.0000000001
 43
0.0000000001
 12
1.0
 22
0.0
 32
0.0
 13
1.0
 23
0.0
 33
0.0
 40
0.0
 40
0.0
 40
0.0
 40
0.0
 40
1.0
 40
1.0
 40
1.0
 40
2.0
 40
2.0
 40
2.0
 40
3.0
 40
3.0
 40
3.0
 40
4.0
 40
4.0
 40
4.0
 40
4.0
 10
102.6252754373667
 20
-129.2021094121441
 30
0.0
 10
102.6252754373667
 20
-129.274464134348
 30
0.0
 10
102.566008772212
 20
-129.3344010787777
 30
0.0
 10
102.492983774075
 20
-129.3344010787777
 30
0.0
 10
102.4192532204005
 20
-129.3344010787777
 30
0.0
 10
102.3606921107834
 20
-129.274464134348
 30
0.0
 10
102.3606921107834
 20
-129.2021094121441
 30
0.0
 10
102.3606921107834
 20
-129.1290844121623
 30
0.0
 10
102.4192532204005
 20
-129.0698177455105
 30
0.0
 10
102.492983774075
 20
-129.0698177455105
 30
0.0
 10
102.566008772212
 20
-129.0698177455105
 30
0.0
 10
102.6252754373667
 20
-129.1290844121623
 30
0.0
 10
102.6252754373667
 20
-129.2021094121441
 30
0.0
  0
HATCH
  5
87
330
1F
100
AcDbEntity
  8
_U+30EC_U+30A4_U+30E4_U+30FC 1
 62
     7
420
 16777215
100
AcDbHatch
 10
0.0
 20
0.0
 30
0.0
210
0.0
220
0.0
230
1.0
  2
SOLID
 70
     1
 71
     0
 91
        1
 92
        1
 93
        1
 72
     4
 94
        3
 73
     0
 74
     1
 95
       17
 96
       13
 40
0.0
 40
0.0
 40
0.0
 40
0.0
 40
1.0
 40
1.0
 40
1.0
 40
2.0
 40
2.0
 40
2.0
 40
3.0
 40
3.0
 40
3.0
 40
4.0
 40
4.0
 40
4.0
 40
4.0
 10
102.6252754373667
 20
-129.2021094121441
 10
102.6252754373667
 20
-129.274464134348
 10
102.566008772212
 20
-129.3344010787777
 10
102.492983774075
 20
-129.3344010787777
 10
102.4192532204005
 20
-129.3344010787777
 10
102.3606921107834
 20
-129.274464134348
 10
102.3606921107834
 20
-129.2021094121441
 10
102.3606921107834
 20
-129.1290844121623
 10
102.4192532204005
 20
-129.0698177455105
 10
102.492983774075
 20
-129.0698177455105
 10
102.566008772212
 20
-129.0698177455105
 10
102.6252754373667
 20
-129.1290844121623
 10
102.6252754373667
 20
-129.2021094121441
 97
        0
 97
        0
 75
     2
 76
     1
 98
        0
  0
INSERT
  5
89
330
1F
100
AcDbEntity
  8
_U+30EC_U+30A4_U+30E4_U+30FC 1
100
AcDbBlockReference
  2
block 2
 10
0.0
 20
0.0
 30
0.0
  0
INSERT
  5
99
330
1F
100
AcDbEntity
  8
_U+30EC_U+30A4_U+30E4_U+30FC 1
100
AcDbBlockReference
  2
block 3
 10
0.0
 20
0.0
 30
0.0
  0
INSERT
  5
AE
330
1F
100
AcDbEntity
  8
_U+30EC_U+30A4_U+30E4_U+30FC 1
100
AcDbBlockReference
  2
block 4
 10
0.0
 20
0.0
 30
0.0
  0
ENDSEC
  0
SECTION
  2
OBJECTS
  0
DICTIONARY
  5
C
330
0
100
AcDbDictionary
281
     1
  3
ACAD_GROUP
350
D
  3
ACAD_LAYOUT
350
1A
  3
ACAD_MATERIAL
350
3B
  3
ACAD_MLEADERSTYLE
350
B6
  3
ACAD_MLINESTYLE
350
17
  3
ACAD_PLOTSETTINGS
350
19
  3
ACAD_PLOTSTYLENAME
350
E
  3
ACAD_TABLESTYLE
350
B5
  3
ACAD_VISUALSTYLE
350
2A
  0
SUN
  5
3F
330
29
100
AcDbSun
 90
        1
290
     0
 63
     7
421
 16777215
 40
1.0
291
     1
 91
  2455826
 92
 54000000
292
     0
 70
     2
 71
   256
280
     1
  0
DICTIONARY
  5
D
102
{ACAD_REACTORS
330
C
102
}
330
C
100
AcDbDictionary
281
     1
  0
DICTIONARY
  5
1A
102
{ACAD_REACTORS
330
C
102
}
330
C
100
AcDbDictionary
281
     1
  3
Layout1
350
1E
  3
Layout2
350
26
  3
Model
350
22
  0
DICTIONARY
  5
3B
102
{ACAD_REACTORS
330
C
102
}
330
C
100
AcDbDictionary
281
     1
  3
ByBlock
350
3D
  3
ByLayer
350
3C
  3
Global
350
3E
  0
DICTIONARY
  5
B6
102
{ACAD_REACTORS
330
C
102
}
330
C
100
AcDbDictionary
281
     1
  0
DICTIONARY
  5
17
102
{ACAD_REACTORS
330
C
102
}
330
C
100
AcDbDictionary
281
     1
  3
Standard
350
18
  0
DICTIONARY
  5
19
102
{ACAD_REACTORS
330
C
102
}
330
C
100
AcDbDictionary
281
     1
  0
ACDBDICTIONARYWDFLT
  5
E
102
{ACAD_REACTORS
330
C
102
}
330
C
100
AcDbDictionary
281
     1
  3
Normal
350
F
100
AcDbDictionaryWithDefault
340
F
  0
DICTIONARY
  5
B5
102
{ACAD_REACTORS
330
C
102
}
330
C
100
AcDbDictionary
281
     1
  0
DICTIONARY
  5
2A
102
{ACAD_REACTORS
330
C
102
}
330
C
100
AcDbDictionary
281
     1
  3
2dWireframe
350
2F
  3
3D Hidden
350
31
  3
3dWireframe
350
30
  3
Basic
350
32
  3
Brighten
350
36
  3
ColorChange
350
3A
  3
Conceptual
350
34
  3
Dim
350
35
  3
Facepattern
350
39
  3
Flat
350
2B
  3
FlatWithEdges
350
2C
  3
Gouraud
350
2D
  3
GouraudWithEdges
350
2E
  3
Linepattern
350
38
  3
Realistic
350
33
  3
Thicken
350
37
  0
LAYOUT
  5
1E
102
{ACAD_REACTORS
330
1A
102
}
330
1A
100
AcDbPlotSettings
  1

  2
none_device
  4

  6

 40
0.0
 41
0.0
 42
0.0
 43
0.0
 44
0.0
 45
0.0
 46
0.0
 47
0.0
 48
0.0
 49
0.0
140
0.0
141
0.0
142
1.0
143
1.0
 70
   688
 72
     0
 73
     0
 74
     5
  7

 75
    16
 76
     0
 77
     2
 78
   300
147
1.0
148
0.0
149
0.0
100
AcDbLayout
  1
Layout1
 70
     1
 71
     1
 10
0.0
 20
0.0
 11
12.0
 21
9.0
 12
0.0
 22
0.0
 32
0.0
 14
1.000000000000000E+20
 24
1.000000000000000E+20
 34
1.000000000000000E+20
 15
-1.000000000000000E+20
 25
-1.000000000000000E+20
 35
-1.000000000000000E+20
146
0.0
 13
0.0
 23
0.0
 33
0.0
 16
1.0
 26
0.0
 36
0.0
 17
0.0
 27
1.0
 37
0.0
 76
     0
330
1B
  0
LAYOUT
  5
26
102
{ACAD_REACTORS
330
1A
102
}
330
1A
100
AcDbPlotSettings
  1

  2
none_device
  4

  6

 40
0.0
 41
0.0
 42
0.0
 43
0.0
 44
0.0
 45
0.0
 46
0.0
 47
0.0
 48
0.0
 49
0.0
140
0.0
141
0.0
142
1.0
143
1.0
 70
   688
 72
     0
 73
     0
 74
     5
  7

 75
    16
 76
     0
 77
     2
 78
   300
147
1.0
148
0.0
149
0.0
100
AcDbLayout
  1
Layout2
 70
     1
 71
     2
 10
0.0
 20
0.0
 11
0.0
 21
0.0
 12
0.0
 22
0.0
 32
0.0
 14
0.0
 24
0.0
 34
0.0
 15
0.0
 25
0.0
 35
0.0
146
0.0
 13
0.0
 23
0.0
 33
0.0
 16
1.0
 26
0.0
 36
0.0
 17
0.0
 27
1.0
 37
0.0
 76
     0
330
23
  0
LAYOUT
  5
22
102
{ACAD_REACTORS
330
1A
102
}
330
1A
100
AcDbPlotSettings
  1

  2
none_device
  4

  6

 40
0.0
 41
0.0
 42
0.0
 43
0.0
 44
0.0
 45
0.0
 46
0.0
 47
0.0
 48
0.0
 49
0.0
140
0.0
141
0.0
142
1.0
143
1.0
 70
  1712
 72
     0
 73
     0
 74
     0
  7

 75
     0
 76
     0
 77
     2
 78
   300
147
1.0
148
0.0
149
0.0
100
AcDbLayout
  1
Model
 70
     1
 71
     0
 10
0.0
 20
0.0
 11
12.0
 21
9.0
 12
0.0
 22
0.0
 32
0.0
 14
1.000000000000000E+20
 24
1.000000000000000E+20
 34
1.000000000000000E+20
 15
-1.000000000000000E+20
 25
-1.000000000000000E+20
 35
-1.000000000000000E+20
146
0.0
 13
0.0
 23
0.0
 33
0.0
 16
1.0
 26
0.0
 36
0.0
 17
0.0
 27
1.0
 37
0.0
 76
     0
330
1F
331
29
  0
MATERIAL
  5
3D
102
{ACAD_REACTORS
330
3B
102
}
330
3B
100
AcDbMaterial
  1
ByBlock
 72
     1
 94
      127
  0
MATERIAL
  5
3C
102
{ACAD_REACTORS
330
3B
102
}
330
3B
100
AcDbMaterial
  1
ByLayer
 72
     1
 94
      127
  0
MATERIAL
  5
3E
102
{ACAD_REACTORS
330
3B
102
}
330
3B
100
AcDbMaterial
  1
Global
 72
     1
 94
      127
  0
MLINESTYLE
  5
18
102
{ACAD_REACTORS
330
17
102
}
330
17
100
AcDbMlineStyle
  2
Standard
 70
     0
  3

 62
   256
 51
90.0
 52
90.0
 71
     2
 49
0.5
 62
   256
  6
BYLAYER
 49
-0.5
 62
   256
  6
BYLAYER
  0
ACDBPLACEHOLDER
  5
F
102
{ACAD_REACTORS
330
E
102
}
330
E
  0
VISUALSTYLE
  5
2F
102
{ACAD_REACTORS
330
2A
102
}
330
2A
100
AcDbVisualStyle
  2
2dWireframe
 70
     4
177
     2
291
     0
 71
     0
176
     1
 72
     2
176
     1
 73
     0
176
     1
 90
        0
176
     1
 40
-0.6
176
     1
 41
-30.0
176
     1
 62
     5
 63
     7
421
 16777215
176
     1
 74
     1
176
     1
 91
        4
176
     1
 64
     7
176
     1
 65
   257
176
     1
 75
     1
176
     1
175
     1
176
     1
 42
1.0
176
     1
 92
        0
176
     1
 66
   257
176
     1
 43
1.0
176
     1
 76
     1
176
     1
 77
     6
176
     1
 78
     2
176
     1
 67
     7
176
     1
 79
     5
176
     1
170
     0
176
     1
171
     0
176
     1
290
     0
176
     1
 93
        1
176
     1
 44
0.0
176
     1
173
     0
176
     1
  0
VISUALSTYLE
  5
31
102
{ACAD_REACTORS
330
2A
102
}
330
2A
100
AcDbVisualStyle
  2
3D Hidden
 70
     6
177
     2
291
     0
 71
     1
176
     1
 72
     2
176
     1
 73
     2
176
     1
 90
        0
176
     1
 40
-0.6
176
     1
 41
-30.0
176
     1
 62
     5
 63
     7
421
 16777215
176
     1
 74
     2
176
     1
 91
        2
176
     1
 64
     7
176
     1
 65
   257
176
     1
 75
     2
176
     1
175
     1
176
     1
 42
40.0
176
     1
 92
        0
176
     1
 66
   257
176
     1
 43
1.0
176
     1
 76
     1
176
     1
 77
     6
176
     1
 78
     2
176
     1
 67
     7
176
     1
 79
     3
176
     1
170
     0
176
     1
171
     0
176
     1
290
     0
176
     1
 93
        1
176
     1
 44
0.0
176
     1
173
     0
176
     1
  0
VISUALSTYLE
  5
30
102
{ACAD_REACTORS
330
2A
102
}
330
2A
100
AcDbVisualStyle
  2
3dWireframe
 70
     5
177
     2
291
     0
 71
     0
176
     1
 72
     2
176
     1
 73
     0
176
     1
 90
        0
176
     1
 40
-0.6
176
     1
 41
-30.0
176
     1
 62
     5
 63
     7
421
 16777215
176
     1
 74
     1
176
     1
 91
        4
176
     1
 64
     7
176
     1
 65
   257
176
     1
 75
     1
176
     1
175
     1
176
     1
 42
1.0
176
     1
 92
        0
176
     1
 66
   257
176
     1
 43
1.0
176
     1
 76
     1
176
     1
 77
     6
176
     1
 78
     2
176
     1
 67
     7
176
     1
 79
     5
176
     1
170
     0
176
     1
171
     0
176
     1
290
     0
176
     1
 93
        1
176
     1
 44
0.0
176
     1
173
     0
176
     1
  0
VISUALSTYLE
  5
32
102
{ACAD_REACTORS
330
2A
102
}
330
2A
100
AcDbVisualStyle
  2
Basic
 70
     7
177
     2
291
     1
 71
     1
176
     1
 72
     0
176
     1
 73
     1
176
     1
 90
        0
176
     1
 40
-0.6
176
     1
 41
-30.0
176
     1
 62
     5
 63
     7
421
 16777215
176
     1
 74
     0
176
     1
 91
        4
176
     1
 64
     7
176
     1
 65
   257
176
     1
 75
     1
176
     1
175
     1
176
     1
 42
1.0
176
     1
 92
        8
176
     1
 66
     7
176
     1
 43
1.0
176
     1
 76
     1
176
     1
 77
     6
176
     1
 78
     2
176
     1
 67
     7
176
     1
 79
     5
176
     1
170
     0
176
     1
171
     0
176
     1
290
     0
176
     1
 93
        1
176
     1
 44
0.0
176
     1
173
     0
176
     1
  0
VISUALSTYLE
  5
36
102
{ACAD_REACTORS
330
2A
102
}
330
2A
100
AcDbVisualStyle
  2
Brighten
 70
    12
177
     2
291
     1
 71
     2
176
     1
 72
     2
176
     1
 73
     0
176
     1
 90
        0
176
     1
 40
-0.6
176
     1
 41
-30.0
176
     1
 62
     5
 63
     7
421
 16777215
176
     1
 74
     1
176
     1
 91
        4
176
     1
 64
     7
176
     1
 65
   257
176
     1
 75
     1
176
     1
175
     1
176
     1
 42
1.0
176
     1
 92
        8
176
     1
 66
     7
176
     1
 43
1.0
176
     1
 76
     1
176
     1
 77
     6
176
     1
 78
     2
176
     1
 67
     7
176
     1
 79
     5
176
     1
170
     0
176
     1
171
     0
176
     1
290
     0
176
     1
 93
        1
176
     1
 44
50.0
176
     1
173
     0
176
     1
  0
VISUALSTYLE
  5
3A
102
{ACAD_REACTORS
330
2A
102
}
330
2A
100
AcDbVisualStyle
  2
ColorChange
 70
    16
177
     2
291
     1
 71
     2
176
     1
 72
     2
176
     1
 73
     3
176
     1
 90
        0
176
     1
 40
-0.6
176
     1
 41
-30.0
176
     1
 62
     5
 63
     8
421
  8421504
176
     1
 74
     1
176
     1
 91
        4
176
     1
 64
     7
176
     1
 65
   257
176
     1
 75
     1
176
     1
175
     1
176
     1
 42
1.0
176
     1
 92
        8
176
     1
 66
     8
424
  8421504
176
     1
 43
1.0
176
     1
 76
     1
176
     1
 77
     6
176
     1
 78
     2
176
     1
 67
     7
176
     1
 79
     5
176
     1
170
     0
176
     1
171
     0
176
     1
290
     0
176
     1
 93
        1
176
     1
 44
0.0
176
     1
173
     0
176
     1
  0
VISUALSTYLE
  5
34
102
{ACAD_REACTORS
330
2A
102
}
330
2A
100
AcDbVisualStyle
  2
Conceptual
 70
     9
177
     2
291
     0
 71
     3
176
     1
 72
     2
176
     1
 73
     0
176
     1
 90
        0
176
     1
 40
-0.6
176
     1
 41
-30.0
176
     1
 62
     5
 63
     7
421
 16777215
176
     1
 74
     2
176
     1
 91
        2
176
     1
 64
     7
176
     1
 65
   257
176
     1
 75
     1
176
     1
175
     1
176
     1
 42
40.0
176
     1
 92
        8
176
     1
 66
     7
176
     1
 43
1.0
176
     1
 76
     1
176
     1
 77
     6
176
     1
 78
     2
176
     1
 67
     7
176
     1
 79
     3
176
     1
170
     0
176
     1
171
     0
176
     1
290
     0
176
     1
 93
        1
176
     1
 44
0.0
176
     1
173
     0
176
     1
  0
VISUALSTYLE
  5
35
102
{ACAD_REACTORS
330
2A
102
}
330
2A
100
AcDbVisualStyle
  2
Dim
 70
    11
177
     2
291
     1
 71
     2
176
     1
 72
     2
176
     1
 73
     0
176
     1
 90
        0
176
     1
 40
-0.6
176
     1
 41
-30.0
176
     1
 62
     5
 63
     7
421
 16777215
176
     1
 74
     1
176
     1
 91
        4
176
     1
 64
     7
176
     1
 65
   257
176
     1
 75
     1
176
     1
175
     1
176
     1
 42
1.0
176
     1
 92
        8
176
     1
 66
     7
176
     1
 43
1.0
176
     1
 76
     1
176
     1
 77
     6
176
     1
 78
     2
176
     1
 67
     7
176
     1
 79
     5
176
     1
170
     0
176
     1
171
     0
176
     1
290
     0
176
     1
 93
        1
176
     1
 44
-50.0
176
     1
173
     0
176
     1
  0
VISUALSTYLE
  5
39
102
{ACAD_REACTORS
330
2A
102
}
330
2A
100
AcDbVisualStyle
  2
Facepattern
 70
    15
177
     2
291
     1
 71
     2
176
     1
 72
     2
176
     1
 73
     0
176
     1
 90
        0
176
     1
 40
-0.6
176
     1
 41
-30.0
176
     1
 62
     5
 63
     7
421
 16777215
176
     1
 74
     1
176
     1
 91
        4
176
     1
 64
     7
176
     1
 65
   257
176
     1
 75
     1
176
     1
175
     1
176
     1
 42
1.0
176
     1
 92
        8
176
     1
 66
     7
176
     1
 43
1.0
176
     1
 76
     1
176
     1
 77
     6
176
     1
 78
     2
176
     1
 67
     7
176
     1
 79
     5
176
     1
170
     0
176
     1
171
     0
176
     1
290
     0
176
     1
 93
        1
176
     1
 44
0.0
176
     1
173
     0
176
     1
  0
VISUALSTYLE
  5
2B
102
{ACAD_REACTORS
330
2A
102
}
330
2A
100
AcDbVisualStyle
  2
Flat
 70
     0
177
     2
291
     1
 71
     2
176
     1
 72
     1
176
     1
 73
     1
176
     1
 90
        2
176
     1
 40
-0.6
176
     1
 41
30.0
176
     1
 62
     5
 63
     7
421
 16777215
176
     1
 74
     0
176
     1
 91
        4
176
     1
 64
     7
176
     1
 65
   257
176
     1
 75
     1
176
     1
175
     1
176
     1
 42
1.0
176
     1
 92
        8
176
     1
 66
     7
176
     1
 43
1.0
176
     1
 76
     1
176
     1
 77
     6
176
     1
 78
     2
176
     1
 67
     7
176
     1
 79
     5
176
     1
170
     0
176
     1
171
     0
176
     1
290
     0
176
     1
 93
       13
176
     1
 44
0.0
176
     1
173
     0
176
     1
  0
VISUALSTYLE
  5
2C
102
{ACAD_REACTORS
330
2A
102
}
330
2A
100
AcDbVisualStyle
  2
FlatWithEdges
 70
     1
177
     2
291
     1
 71
     2
176
     1
 72
     1
176
     1
 73
     1
176
     1
 90
        2
176
     1
 40
-0.6
176
     1
 41
30.0
176
     1
 62
     5
 63
     7
421
 16777215
176
     1
 74
     1
176
     1
 91
        4
176
     1
 64
     7
176
     1
 65
   257
176
     1
 75
     1
176
     1
175
     1
176
     1
 42
1.0
176
     1
 92
        0
176
     1
 66
   257
176
     1
 43
1.0
176
     1
 76
     1
176
     1
 77
     6
176
     1
 78
     2
176
     1
 67
     7
176
     1
 79
     5
176
     1
170
     0
176
     1
171
     0
176
     1
290
     0
176
     1
 93
       13
176
     1
 44
0.0
176
     1
173
     0
176
     1
  0
VISUALSTYLE
  5
2D
102
{ACAD_REACTORS
330
2A
102
}
330
2A
100
AcDbVisualStyle
  2
Gouraud
 70
     2
177
     2
291
     1
 71
     2
176
     1
 72
     2
176
     1
 73
     1
176
     1
 90
        2
176
     1
 40
-0.6
176
     1
 41
30.0
176
     1
 62
     5
 63
     7
421
 16777215
176
     1
 74
     0
176
     1
 91
        4
176
     1
 64
     7
176
     1
 65
   257
176
     1
 75
     1
176
     1
175
     1
176
     1
 42
1.0
176
     1
 92
        0
176
     1
 66
     7
176
     1
 43
1.0
176
     1
 76
     1
176
     1
 77
     6
176
     1
 78
     2
176
     1
 67
     7
176
     1
 79
     5
176
     1
170
     0
176
     1
171
     0
176
     1
290
     0
176
     1
 93
       13
176
     1
 44
0.0
176
     1
173
     0
176
     1
  0
VISUALSTYLE
  5
2E
102
{ACAD_REACTORS
330
2A
102
}
330
2A
100
AcDbVisualStyle
  2
GouraudWithEdges
 70
     3
177
     2
291
     1
 71
     2
176
     1
 72
     2
176
     1
 73
     1
176
     1
 90
        2
176
     1
 40
-0.6
176
     1
 41
30.0
176
     1
 62
     5
 63
     7
421
 16777215
176
     1
 74
     1
176
     1
 91
        4
176
     1
 64
     7
176
     1
 65
   257
176
     1
 75
     1
176
     1
175
     1
176
     1
 42
1.0
176
     1
 92
        0
176
     1
 66
   257
176
     1
 43
1.0
176
     1
 76
     1
176
     1
 77
     6
176
     1
 78
     2
176
     1
 67
     7
176
     1
 79
     5
176
     1
170
     0
176
     1
171
     0
176
     1
290
     0
176
     1
 93
       13
176
     1
 44
0.0
176
     1
173
     0
176
     1
  0
VISUALSTYLE
  5
38
102
{ACAD_REACTORS
330
2A
102
}
330
2A
100
AcDbVisualStyle
  2
Linepattern
 70
    14
177
     2
291
     1
 71
     2
176
     1
 72
     2
176
     1
 73
     0
176
     1
 90
        0
176
     1
 40
-0.6
176
     1
 41
-30.0
176
     1
 62
     5
 63
     7
421
 16777215
176
     1
 74
     1
176
     1
 91
        4
176
     1
 64
     7
176
     1
 65
   257
176
     1
 75
     7
176
     1
175
     7
176
     1
 42
1.0
176
     1
 92
        8
176
     1
 66
     7
176
     1
 43
1.0
176
     1
 76
     1
176
     1
 77
     6
176
     1
 78
     2
176
     1
 67
     7
176
     1
 79
     5
176
     1
170
     0
176
     1
171
     0
176
     1
290
     0
176
     1
 93
        1
176
     1
 44
0.0
176
     1
173
     0
176
     1
  0
VISUALSTYLE
  5
33
102
{ACAD_REACTORS
330
2A
102
}
330
2A
100
AcDbVisualStyle
  2
Realistic
 70
     8
177
     2
291
     0
 71
     2
176
     1
 72
     2
176
     1
 73
     0
176
     1
 90
        0
176
     1
 40
-0.6
176
     1
 41
-30.0
176
     1
 62
     5
 63
     7
421
 16777215
176
     1
 74
     1
176
     1
 91
        0
176
     1
 64
     7
176
     1
 65
   257
176
     1
 75
     1
176
     1
175
     1
176
     1
 42
1.0
176
     1
 92
        8
176
     1
 66
     8
424
  7895160
176
     1
 43
1.0
176
     1
 76
     1
176
     1
 77
     6
176
     1
 78
     2
176
     1
 67
     7
176
     1
 79
     5
176
     1
170
     0
176
     1
171
     0
176
     1
290
     0
176
     1
 93
       13
176
     1
 44
0.0
176
     1
173
     0
176
     1
  0
VISUALSTYLE
  5
37
102
{ACAD_REACTORS
330
2A
102
}
330
2A
100
AcDbVisualStyle
  2
Thicken
 70
    13
177
     2
291
     1
 71
     2
176
     1
 72
     2
176
     1
 73
     0
176
     1
 90
        0
176
     1
 40
-0.6
176
     1
 41
-30.0
176
     1
 62
     5
 63
     7
421
 16777215
176
     1
 74
     1
176
     1
 91
        4
176
     1
 64
     7
176
     1
 65
   257
176
     1
 75
     1
176
     1
175
     1
176
     1
 42
1.0
176
     1
 92
       12
176
     1
 66
     7
176
     1
 43
1.0
176
     1
 76
     1
176
     1
 77
     6
176
     1
 78
     2
176
     1
 67
     7
176
     1
 79
     5
176
     1
170
     0
176
     1
171
     0
176
     1
290
     0
176
     1
 93
        1
176
     1
 44
0.0
176
     1
173
     0
176
     1
  0
ENDSEC
  0
EOF
