  0
SECTION
  2
HEADER
  9
$ACADVER
  1
AC1024
  9
$ACADMAINTVER
 70
     6
  9
$DWGCODEPAGE
  3
UNDEFINED
  9
$INSBASE
 10
0.0
 20
0.0
 30
0.0
  9
$EXTMIN
 10
1.000000000000000E+20
 20
1.000000000000000E+20
 30
1.000000000000000E+20
  9
$EXTMAX
 10
-1.000000000000000E+20
 20
-1.000000000000000E+20
 30
-1.000000000000000E+20
  9
$LIMMIN
 10
0.0
 20
0.0
  9
$LIMMAX
 10
12.0
 20
9.0
  9
$ORTHOMODE
 70
     0
  9
$REGENMODE
 70
     1
  9
$FILLMODE
 70
     1
  9
$QTEXTMODE
 70
     0
  9
$MIRRTEXT
 70
     1
  9
$LTSCALE
 40
1.0
  9
$ATTMODE
 70
     1
  9
$TEXTSIZE
 40
0.2
  9
$TRACEWID
 40
0.05
  9
$TEXTSTYLE
  7
Standard
  9
$CLAYER
  8
0
  9
$CELTYPE
  6
ByLayer
  9
$CECOLOR
 62
   256
  9
$CELTSCALE
 40
1.0
  9
$DISPSILH
 70
     0
  9
$DIMSCALE
 40
1.0
  9
$DIMASZ
 40
0.18
  9
$DIMEXO
 40
0.0625
  9
$DIMDLI
 40
0.38
  9
$DIMRND
 40
0.0
  9
$DIMDLE
 40
0.0
  9
$DIMEXE
 40
0.18
  9
$DIMTP
 40
0.0
  9
$DIMTM
 40
0.0
  9
$DIMTXT
 40
0.18
  9
$DIMCEN
 40
0.09
  9
$DIMTSZ
 40
0.0
  9
$DIMTOL
 70
     0
  9
$DIMLIM
 70
     0
  9
$DIMTIH
 70
     1
  9
$DIMTOH
 70
     1
  9
$DIMSE1
 70
     0
  9
$DIMSE2
 70
     0
  9
$DIMTAD
 70
     0
  9
$DIMZIN
 70
     0
  9
$DIMBLK
  1

  9
$DIMASO
 70
     1
  9
$DIMSHO
 70
     1
  9
$DIMPOST
  1

  9
$DIMAPOST
  1

  9
$DIMALT
 70
     0
  9
$DIMALTD
 70
     2
  9
$DIMALTF
 40
25.4
  9
$DIMLFAC
 40
1.0
  9
$DIMTOFL
 70
     0
  9
$DIMTVP
 40
0.0
  9
$DIMTIX
 70
     0
  9
$DIMSOXD
 70
     0
  9
$DIMSAH
 70
     0
  9
$DIMBLK1
  1

  9
$DIMBLK2
  1

  9
$DIMSTYLE
  2
Standard
  9
$DIMCLRD
 70
     0
  9
$DIMCLRE
 70
     0
  9
$DIMCLRT
 70
     0
  9
$DIMTFAC
 40
1.0
  9
$DIMGAP
 40
0.09
  9
$DIMJUST
 70
     0
  9
$DIMSD1
 70
     0
  9
$DIMSD2
 70
     0
  9
$DIMTOLJ
 70
     1
  9
$DIMTZIN
 70
     0
  9
$DIMALTZ
 70
     0
  9
$DIMALTTZ
 70
     0
  9
$DIMUPT
 70
     0
  9
$DIMDEC
 70
     4
  9
$DIMTDEC
 70
     4
  9
$DIMALTU
 70
     2
  9
$DIMALTTD
 70
     2
  9
$DIMTXSTY
  7
Standard
  9
$DIMAUNIT
 70
     0
  9
$DIMADEC
 70
     0
  9
$DIMALTRND
 40
0.0
  9
$DIMAZIN
 70
     0
  9
$DIMDSEP
 70
    46
  9
$DIMATFIT
 70
     3
  9
$DIMFRAC
 70
     0
  9
$DIMLDRBLK
  1

  9
$DIMLUNIT
 70
     2
  9
$DIMLWD
 70
    -2
  9
$DIMLWE
 70
    -2
  9
$DIMTMOVE
 70
     0
  9
$DIMFXL
 40
1.0
  9
$DIMFXLON
 70
     0
  9
$DIMJOGANG
 40
0.7853981633974483
  9
$DIMTFILL
 70
     0
  9
$DIMTFILLCLR
 70
     0
  9
$DIMARCSYM
 70
     0
  9
$DIMLTYPE
  6

  9
$DIMLTEX1
  6

  9
$DIMLTEX2
  6

  9
$DIMTXTDIRECTION
 70
     0
  9
$LUNITS
 70
     2
  9
$LUPREC
 70
     4
  9
$SKETCHINC
 40
0.1
  9
$FILLETRAD
 40
0.5
  9
$AUNITS
 70
     0
  9
$AUPREC
 70
     0
  9
$MENU
  1
.
  9
$ELEVATION
 40
0.0
  9
$PELEVATION
 40
0.0
  9
$THICKNESS
 40
0.0
  9
$LIMCHECK
 70
     0
  9
$CHAMFERA
 40
0.5
  9
$CHAMFERB
 40
0.5
  9
$CHAMFERC
 40
1.0
  9
$CHAMFERD
 40
0.0
  9
$SKPOLY
 70
     0
  9
$TDCREATE
 40
2457917.608541655
  9
$TDUCREATE
 40
2457917.233541667
  9
$TDUPDATE
 40
2457917.608541655
  9
$TDUUPDATE
 40
2457917.233541667
  9
$TDINDWG
 40
0.0000000116
  9
$TDUSRTIMER
 40
0.0000000116
  9
$USRTIMER
 70
     1
  9
$ANGBASE
 50
0.0
  9
$ANGDIR
 70
     0
  9
$PDMODE
 70
     0
  9
$PDSIZE
 40
0.0
  9
$PLINEWID
 40
0.0
  9
$SPLFRAME
 70
     0
  9
$SPLINETYPE
 70
     6
  9
$SPLINESEGS
 70
     8
  9
$HANDSEED
  5
CF
  9
$SURFTAB1
 70
     6
  9
$SURFTAB2
 70
     6
  9
$SURFTYPE
 70
     6
  9
$SURFU
 70
     6
  9
$SURFV
 70
     6
  9
$UCSBASE
  2

  9
$UCSNAME
  2

  9
$UCSORG
 10
0.0
 20
0.0
 30
0.0
  9
$UCSXDIR
 10
1.0
 20
0.0
 30
0.0
  9
$UCSYDIR
 10
0.0
 20
1.0
 30
0.0
  9
$UCSORTHOREF
  2

  9
$UCSORTHOVIEW
 70
     0
  9
$UCSORGTOP
 10
0.0
 20
0.0
 30
0.0
  9
$UCSORGBOTTOM
 10
0.0
 20
0.0
 30
0.0
  9
$UCSORGLEFT
 10
0.0
 20
0.0
 30
0.0
  9
$UCSORGRIGHT
 10
0.0
 20
0.0
 30
0.0
  9
$UCSORGFRONT
 10
0.0
 20
0.0
 30
0.0
  9
$UCSORGBACK
 10
0.0
 20
0.0
 30
0.0
  9
$PUCSBASE
  2

  9
$PUCSNAME
  2

  9
$PUCSORG
 10
0.0
 20
0.0
 30
0.0
  9
$PUCSXDIR
 10
1.0
 20
0.0
 30
0.0
  9
$PUCSYDIR
 10
0.0
 20
1.0
 30
0.0
  9
$PUCSORTHOREF
  2

  9
$PUCSORTHOVIEW
 70
     0
  9
$PUCSORGTOP
 10
0.0
 20
0.0
 30
0.0
  9
$PUCSORGBOTTOM
 10
0.0
 20
0.0
 30
0.0
  9
$PUCSORGLEFT
 10
0.0
 20
0.0
 30
0.0
  9
$PUCSORGRIGHT
 10
0.0
 20
0.0
 30
0.0
  9
$PUCSORGFRONT
 10
0.0
 20
0.0
 30
0.0
  9
$PUCSORGBACK
 10
0.0
 20
0.0
 30
0.0
  9
$USERI1
 70
     0
  9
$USERI2
 70
     0
  9
$USERI3
 70
     0
  9
$USERI4
 70
     0
  9
$USERI5
 70
     0
  9
$USERR1
 40
0.0
  9
$USERR2
 40
0.0
  9
$USERR3
 40
0.0
  9
$USERR4
 40
0.0
  9
$USERR5
 40
0.0
  9
$WORLDVIEW
 70
     1
  9
$SHADEDGE
 70
     3
  9
$SHADEDIF
 70
    70
  9
$TILEMODE
 70
     1
  9
$MAXACTVP
 70
    64
  9
$PINSBASE
 10
0.0
 20
0.0
 30
0.0
  9
$PLIMCHECK
 70
     0
  9
$PEXTMIN
 10
1.000000000000000E+20
 20
1.000000000000000E+20
 30
1.000000000000000E+20
  9
$PEXTMAX
 10
-1.000000000000000E+20
 20
-1.000000000000000E+20
 30
-1.000000000000000E+20
  9
$PLIMMIN
 10
0.0
 20
0.0
  9
$PLIMMAX
 10
12.0
 20
9.0
  9
$UNITMODE
 70
     0
  9
$VISRETAIN
 70
     1
  9
$PLINEGEN
 70
     0
  9
$PSLTSCALE
 70
     1
  9
$TREEDEPTH
 70
  3020
  9
$CMLSTYLE
  2
Standard
  9
$CMLJUST
 70
     0
  9
$CMLSCALE
 40
1.0
  9
$PROXYGRAPHICS
 70
     1
  9
$MEASUREMENT
 70
     0
  9
$CELWEIGHT
370
    -1
  9
$ENDCAPS
280
     0
  9
$JOINSTYLE
280
     0
  9
$LWDISPLAY
290
     1
  9
$INSUNITS
 70
     1
  9
$HYPERLINKBASE
  1

  9
$STYLESHEET
  1

  9
$XEDIT
290
     1
  9
$CEPSNTYPE
380
     0
  9
$PSTYLEMODE
290
     1
  9
$FINGERPRINTGUID
  2
{F6A3029E-844D-534B-36A3-BECEEF402CF2}
  9
$VERSIONGUID
  2
{FAEB1C32-E019-11D5-929B-00C0DF256EC4}
  9
$EXTNAMES
290
     1
  9
$PSVPSCALE
 40
0.0
  9
$OLESTARTUP
290
     0
  9
$SORTENTS
280
   127
  9
$INDEXCTL
280
     0
  9
$HIDETEXT
280
     1
  9
$XCLIPFRAME
280
     2
  9
$HALOGAP
280
     0
  9
$OBSCOLOR
 70
   257
  9
$OBSLTYPE
280
     0
  9
$INTERSECTIONDISPLAY
280
     0
  9
$INTERSECTIONCOLOR
 70
   257
  9
$DIMASSOC
280
     2
  9
$PROJECTNAME
  1

  9
$CAMERADISPLAY
290
     0
  9
$LENSLENGTH
 40
50.0
  9
$CAMERAHEIGHT
 40
0.0
  9
$STEPSPERSEC
 40
2.0
  9
$STEPSIZE
 40
6.0
  9
$3DDWFPREC
 40
2.0
  9
$PSOLWIDTH
 40
0.25
  9
$PSOLHEIGHT
 40
4.0
  9
$LOFTANG1
 40
1.570796326794897
  9
$LOFTANG2
 40
1.570796326794897
  9
$LOFTMAG1
 40
0.0
  9
$LOFTMAG2
 40
0.0
  9
$LOFTPARAM
 70
     7
  9
$LOFTNORMALS
280
     1
  9
$LATITUDE
 40
37.795
  9
$LONGITUDE
 40
-122.394
  9
$NORTHDIRECTION
 40
0.0
  9
$TIMEZONE
 70
 -8000
  9
$LIGHTGLYPHDISPLAY
280
     1
  9
$TILEMODELIGHTSYNCH
280
     1
  9
$CMATERIAL
347
3C
  9
$SOLIDHIST
280
     1
  9
$SHOWHIST
280
     1
  9
$DWFFRAME
280
     2
  9
$DGNFRAME
280
     2
  9
$REALWORLDSCALE
290
     1
  9
$INTERFERECOLOR
 62
   256
  9
$CSHADOW
280
     0
  9
$SHADOWPLANELOCATION
 40
0.0
  0
ENDSEC
  0
SECTION
  2
CLASSES
  0
CLASS
  1
ACDBDICTIONARYWDFLT
  2
AcDbDictionaryWithDefault
  3
ObjectDBX Classes
 90
        0
 91
        4
280
     0
281
     0
  0
CLASS
  1
VISUALSTYLE
  2
AcDbVisualStyle
  3
ObjectDBX Classes
 90
     4095
 91
        4
280
     0
281
     0
  0
CLASS
  1
MATERIAL
  2
AcDbMaterial
  3
ObjectDBX Classes
 90
     1153
 91
        4
280
     0
281
     0
  0
CLASS
  1
SUN
  2
AcDbSun
  3
SCENEOE
 90
     1024
 91
        4
280
     0
281
     0
  0
ENDSEC
  0
SECTION
  2
TABLES
  0
TABLE
  2
VPORT
  5
8
330
0
100
AcDbSymbolTable
 70
     1
  0
VPORT
  5
29
330
8
100
AcDbSymbolTableRecord
100
AcDbViewportTableRecord
  2
*Active
 70
     0
 10
0.0
 20
0.0
 11
1.0
 21
1.0
 12
0.0
 22
0.0
 13
0.0
 23
0.0
 14
0.5
 24
0.5
 15
0.5
 25
0.5
 16
0.0
 26
0.0
 36
1.0
 17
91.00082462281999
 27
-128.4993055234307
 37
0.0
 40
256.9986110468615
 41
0.7081814508812795
 42
50.0
 43
0.0
 44
0.0
 50
0.0
 51
0.0
 71
     0
 72
   100
 73
     1
 74
     3
 75
     0
 76
     0
 77
     0
 78
     0
281
     0
 65
     1
110
0.0
120
0.0
130
0.0
111
1.0
121
0.0
131
0.0
112
0.0
122
1.0
132
0.0
 79
     0
146
0.0
 60
     3
 61
     5
292
     1
282
     1
141
0.0
142
0.0
 63
   250
361
3F
  0
ENDTAB
  0
TABLE
  2
LTYPE
  5
5
330
0
100
AcDbSymbolTable
 70
     1
  0
LTYPE
  5
14
330
5
100
AcDbSymbolTableRecord
100
AcDbLinetypeTableRecord
  2
ByBlock
 70
     0
  3

 72
    65
 73
     0
 40
0.0
  0
LTYPE
  5
15
330
5
100
AcDbSymbolTableRecord
100
AcDbLinetypeTableRecord
  2
ByLayer
 70
     0
  3

 72
    65
 73
     0
 40
0.0
  0
LTYPE
  5
16
330
5
100
AcDbSymbolTableRecord
100
AcDbLinetypeTableRecord
  2
Continuous
 70
     0
  3
Solid line
 72
    65
 73
     0
 40
0.0
  0
ENDTAB
  0
TABLE
  2
LAYER
  5
2
330
0
100
AcDbSymbolTable
 70
     2
  0
LAYER
  5
10
330
2
100
AcDbSymbolTableRecord
100
AcDbLayerTableRecord
  2
0
 70
     0
 62
     7
  6
Continuous
370
    -3
390
F
347
3E
  0
LAYER
  5
40
330
2
100
AcDbSymbolTableRecord
100
AcDbLayerTableRecord
  2
_U+30EC_U+30A4_U+30E4_U+30FC 1
 70
     0
 62
     7
  6
Continuous
370
    -3
390
F
347
3E
  0
ENDTAB
  0
TABLE
  2
STYLE
  5
3
330
0
100
AcDbSymbolTable
 70
     1
  0
STYLE
  5
11
330
3
100
AcDbSymbolTableRecord
100
AcDbTextStyleTableRecord
  2
Standard
 70
     0
 40
0.0
 41
1.0
 50
0.0
 71
     0
 42
0.2
  3
txt
  4

  0
ENDTAB
  0
TABLE
  2
VIEW
  5
6
330
0
100
AcDbSymbolTable
 70
     0
  0
ENDTAB
  0
TABLE
  2
UCS
  5
7
330
0
100
AcDbSymbolTable
 70
     0
  0
ENDTAB
  0
TABLE
  2
APPID
  5
9
330
0
100
AcDbSymbolTable
 70
     1
  0
APPID
  5
12
330
9
100
AcDbSymbolTableRecord
100
AcDbRegAppTableRecord
  2
ACAD
 70
     0
  0
ENDTAB
  0
TABLE
  2
DIMSTYLE
  5
A
330
0
100
AcDbSymbolTable
 70
     1
100
AcDbDimStyleTable
  0
DIMSTYLE
105
27
330
A
100
AcDbSymbolTableRecord
100
AcDbDimStyleTableRecord
  2
Standard
 70
     0
178
     0
340
11
  0
ENDTAB
  0
TABLE
  2
BLOCK_RECORD
  5
1
330
0
100
AcDbSymbolTable
 70
     4
  0
BLOCK_RECORD
  5
1F
330
1
100
AcDbSymbolTableRecord
100
AcDbBlockTableRecord
  2
*Model_Space
340
22
 70
     0
280
     1
281
     0
  0
BLOCK_RECORD
  5
1B
330
1
100
AcDbSymbolTableRecord
100
AcDbBlockTableRecord
  2
*Paper_Space
340
1E
 70
     0
280
     1
281
     0
  0
BLOCK_RECORD
  5
23
330
1
100
AcDbSymbolTableRecord
100
AcDbBlockTableRecord
  2
*Paper_Space0
340
26
 70
     0
280
     1
281
     0
  0
BLOCK_RECORD
  5
8C
330
1
100
AcDbSymbolTableRecord
100
AcDbBlockTableRecord
  2
block 2
340
0
102
{BLKREFS
331
8D
102
}
 70
     0
280
     1
281
     0
  0
BLOCK_RECORD
  5
9C
330
1
100
AcDbSymbolTableRecord
100
AcDbBlockTableRecord
  2
block 3
340
0
102
{BLKREFS
331
9D
102
}
 70
     0
280
     1
281
     0
  0
BLOCK_RECORD
  5
B8
330
1
100
AcDbSymbolTableRecord
100
AcDbBlockTableRecord
  2
block 4
340
0
102
{BLKREFS
331
B9
102
}
 70
     0
280
     1
281
     0
  0
ENDTAB
  0
ENDSEC
  0
SECTION
  2
BLOCKS
  0
BLOCK
  5
20
330
1F
100
AcDbEntity
  8
0
100
AcDbBlockBegin
  2
*Model_Space
 70
     0
 10
0.0
 20
0.0
 30
0.0
  3
*Model_Space
  1

  0
ENDBLK
  5
21
330
1F
100
AcDbEntity
  8
0
100
AcDbBlockEnd
  0
BLOCK
  5
1C
330
1B
100
AcDbEntity
 67
     1
  8
0
100
AcDbBlockBegin
  2
*Paper_Space
 70
     0
 10
0.0
 20
0.0
 30
0.0
  3
*Paper_Space
  1

  0
ENDBLK
  5
1D
330
1B
100
AcDbEntity
 67
     1
  8
0
100
AcDbBlockEnd
  0
BLOCK
  5
24
330
23
100
AcDbEntity
  8
0
100
AcDbBlockBegin
  2
*Paper_Space0
 70
     0
 10
0.0
 20
0.0
 30
0.0
  3
*Paper_Space0
  1

  0
ENDBLK
  5
25
330
23
100
AcDbEntity
  8
0
100
AcDbBlockEnd
  0
BLOCK
  5
8E
330
8C
100
AcDbEntity
  8
0
100
AcDbBlockBegin
  2
block 2
 70
     0
 10
0.0
 20
0.0
 30
0.0
  3
block 2
  1

  0
SPLINE
  5
90
330
8C
100
AcDbEntity
  8
_U+30EC_U+30A4_U+30E4_U+30FC 1
370
     0
100
AcDbSpline
210
0.0
220
0.0
230
1.0
 70
    11
 71
     3
 72
    53
 73
    49
 74
     0
 42
0.0000000001
 43
0.0000000001
 12
1.0
 22
0.0
 32
0.0
 13
1.0
 23
0.0
 33
0.0
 40
0.0
 40
0.0
 40
0.0
 40
0.0
 40
1.0
 40
1.0
 40
1.0
 40
2.0
 40
2.0
 40
2.0
 40
3.0
 40
3.0
 40
3.0
 40
4.0
 40
4.0
 40
4.0
 40
5.0
 40
5.0
 40
5.0
 40
6.0
 40
6.0
 40
6.0
 40
7.0
 40
7.0
 40
7.0
 40
8.0
 40
8.0
 40
8.0
 40
9.0
 40
9.0
 40
9.0
 40
10.0
 40
10.0
 40
10.0
 40
11.0
 40
11.0
 40
11.0
 40
12.0
 40
12.0
 40
12.0
 40
13.0
 40
13.0
 40
13.0
 40
14.0
 40
14.0
 40
14.0
 40
15.0
 40
15.0
 40
15.0
 40
16.0
 40
16.0
 40
16.0
 40
16.0
 10
77.81040986553003
 20
-130.8399033961095
 30
0.0
 10
77.74374726789046
 20
-130.8399033961095
 30
0.0
 10
77.65710311643642
 20
-130.8230224282318
 30
0.0
 10
77.57063121975665
 20
-130.7592881617546
 30
0.0
 10
77.42266436866517
 20
-130.6493896157752
 30
0.0
 10
77.40474987214188
 20
-130.5181314777871
 30
0.0
 10
77.38838566858693
 20
-130.4106444986473
 30
0.0
 10
77.38838566858693
 20
-130.4106444986473
 30
0.0
 10
77.57786592027567
 20
-130.4106444986473
 30
0.0
 10
77.57786592027567
 20
-130.4106444986473
 30
0.0
 10
77.62471921887507
 20
-130.6090819985977
 30
0.0
 10
77.73289521711192
 20
-130.6387098197709
 30
0.0
 10
77.81230466804693
 20
-130.6387098197709
 30
0.0
 10
77.93116046228805
 20
-130.6387098197709
 30
0.0
 10
78.06104056208197
 20
-130.5394910697957
 30
0.0
 10
78.06104056208197
 20
-130.3066026149928
 30
0.0
 10
78.06104056208197
 20
-130.0509765299873
 30
0.0
 10
77.90773381298835
 20
-129.9810410916367
 30
0.0
 10
77.8050699675279
 20
-129.9810410916367
 30
0.0
 10
77.77802596796869
 20
-129.9810410916367
 30
0.0
 10
77.65710311643642
 20
-129.9810410916367
 30
0.0
 10
77.58148327053519
 20
-130.1102321723336
 30
0.0
 10
77.58148327053519
 20
-130.1102321723336
 30
0.0
 10
77.43179387170109
 20
-130.0909396376162
 30
0.0
 10
77.43179387170109
 20
-130.0909396376162
 30
0.0
 10
77.43179387170109
 20
-130.0909396376162
 30
0.0
 10
77.53445771716153
 20
-129.2448241864388
 30
0.0
 10
77.53445771716153
 20
-129.2448241864388
 30
0.0
 10
77.53445771716153
 20
-129.2448241864388
 30
0.0
 10
78.19815536239491
 20
-129.2448241864388
 30
0.0
 10
78.19815536239491
 20
-129.2448241864388
 30
0.0
 10
78.19815536239491
 20
-129.2448241864388
 30
0.0
 10
78.19815536239491
 20
-129.4394720813554
 30
0.0
 10
78.19815536239491
 20
-129.4394720813554
 30
0.0
 10
78.19815536239491
 20
-129.4394720813554
 30
0.0
 10
77.67329506521709
 20
-129.4394720813554
 30
0.0
 10
77.67329506521709
 20
-129.4394720813554
 30
0.0
 10
77.67329506521709
 20
-129.4394720813554
 30
0.0
 10
77.61748451835605
 20
-129.8625298069441
 30
0.0
 10
77.61748451835605
 20
-129.8625298069441
 30
0.0
 10
77.66984996973184
 20
-129.8284233616401
 30
0.0
 10
77.74012991763094
 20
-129.7884602540112
 30
0.0
 10
77.84107121534876
 20
-129.7884602540112
 30
0.0
 10
78.05742321182245
 20
-129.7884602540112
 30
0.0
 10
78.25947806203236
 20
-129.9744954102147
 30
0.0
 10
78.25947806203236
 20
-130.2876545898239
 30
0.0
 10
78.25947806203236
 20
-130.6049478840154
 30
0.0
 10
78.06827526260099
 20
-130.8399033961095
 30
0.0
 10
77.81040986553003
 20
-130.8399033961095
 30
0.0
  0
HATCH
  5
91
330
8C
100
AcDbEntity
  8
_U+30EC_U+30A4_U+30E4_U+30FC 1
 62
   179
420
  2234388
100
AcDbHatch
 10
0.0
 20
0.0
 30
0.0
210
0.0
220
0.0
230
1.0
  2
SOLID
 70
     1
 71
     0
 91
        1
 92
        1
 93
        1
 72
     4
 94
        3
 73
     0
 74
     1
 95
       53
 96
       49
 40
0.0
 40
0.0
 40
0.0
 40
0.0
 40
1.0
 40
1.0
 40
1.0
 40
2.0
 40
2.0
 40
2.0
 40
3.0
 40
3.0
 40
3.0
 40
4.0
 40
4.0
 40
4.0
 40
5.0
 40
5.0
 40
5.0
 40
6.0
 40
6.0
 40
6.0
 40
7.0
 40
7.0
 40
7.0
 40
8.0
 40
8.0
 40
8.0
 40
9.0
 40
9.0
 40
9.0
 40
10.0
 40
10.0
 40
10.0
 40
11.0
 40
11.0
 40
11.0
 40
12.0
 40
12.0
 40
12.0
 40
13.0
 40
13.0
 40
13.0
 40
14.0
 40
14.0
 40
14.0
 40
15.0
 40
15.0
 40
15.0
 40
16.0
 40
16.0
 40
16.0
 40
16.0
 10
77.81040986553003
 20
-130.8399033961095
 10
77.74374726789046
 20
-130.8399033961095
 10
77.65710311643642
 20
-130.8230224282318
 10
77.57063121975665
 20
-130.7592881617546
 10
77.42266436866517
 20
-130.6493896157752
 10
77.40474987214188
 20
-130.5181314777871
 10
77.38838566858693
 20
-130.4106444986473
 10
77.38838566858693
 20
-130.4106444986473
 10
77.57786592027567
 20
-130.4106444986473
 10
77.57786592027567
 20
-130.4106444986473
 10
77.62471921887507
 20
-130.6090819985977
 10
77.73289521711192
 20
-130.6387098197709
 10
77.81230466804693
 20
-130.6387098197709
 10
77.93116046228805
 20
-130.6387098197709
 10
78.06104056208197
 20
-130.5394910697957
 10
78.06104056208197
 20
-130.3066026149928
 10
78.06104056208197
 20
-130.0509765299873
 10
77.90773381298835
 20
-129.9810410916367
 10
77.8050699675279
 20
-129.9810410916367
 10
77.77802596796869
 20
-129.9810410916367
 10
77.65710311643642
 20
-129.9810410916367
 10
77.58148327053519
 20
-130.1102321723336
 10
77.58148327053519
 20
-130.1102321723336
 10
77.43179387170109
 20
-130.0909396376162
 10
77.43179387170109
 20
-130.0909396376162
 10
77.43179387170109
 20
-130.0909396376162
 10
77.53445771716153
 20
-129.2448241864388
 10
77.53445771716153
 20
-129.2448241864388
 10
77.53445771716153
 20
-129.2448241864388
 10
78.19815536239491
 20
-129.2448241864388
 10
78.19815536239491
 20
-129.2448241864388
 10
78.19815536239491
 20
-129.2448241864388
 10
78.19815536239491
 20
-129.4394720813554
 10
78.19815536239491
 20
-129.4394720813554
 10
78.19815536239491
 20
-129.4394720813554
 10
77.67329506521709
 20
-129.4394720813554
 10
77.67329506521709
 20
-129.4394720813554
 10
77.67329506521709
 20
-129.4394720813554
 10
77.61748451835605
 20
-129.8625298069441
 10
77.61748451835605
 20
-129.8625298069441
 10
77.66984996973184
 20
-129.8284233616401
 10
77.74012991763094
 20
-129.7884602540112
 10
77.84107121534876
 20
-129.7884602540112
 10
78.05742321182245
 20
-129.7884602540112
 10
78.25947806203236
 20
-129.9744954102147
 10
78.25947806203236
 20
-130.2876545898239
 10
78.25947806203236
 20
-130.6049478840154
 10
78.06827526260099
 20
-130.8399033961095
 10
77.81040986553003
 20
-130.8399033961095
 97
        0
 97
        0
 75
     2
 76
     1
 98
        0
  0
POLYLINE
  5
92
330
8C
100
AcDbEntity
  8
_U+30EC_U+30A4_U+30E4_U+30FC 1
370
     0
100
AcDb2dPolyline
 66
     1
 10
0.0
 20
0.0
 30
0.0
  0
VERTEX
  5
93
330
92
100
AcDbEntity
  8
_U+30EC_U+30A4_U+30E4_U+30FC 1
370
     0
100
AcDbVertex
100
AcDb2dVertex
 10
78.45343693785192
 20
-130.7889159829278
 30
0.0
  0
VERTEX
  5
94
330
92
100
AcDbEntity
  8
_U+30EC_U+30A4_U+30E4_U+30FC 1
370
     0
100
AcDbVertex
100
AcDb2dVertex
 10
78.45343693785192
 20
-130.5374240125045
 30
0.0
  0
VERTEX
  5
95
330
92
100
AcDbEntity
  8
_U+30EC_U+30A4_U+30E4_U+30FC 1
370
     0
100
AcDbVertex
100
AcDb2dVertex
 10
78.66806638658299
 20
-130.5374240125045
 30
0.0
  0
VERTEX
  5
96
330
92
100
AcDbEntity
  8
_U+30EC_U+30A4_U+30E4_U+30FC 1
370
     0
100
AcDbVertex
100
AcDb2dVertex
 10
78.66806638658299
 20
-130.7889159829278
 30
0.0
  0
VERTEX
  5
97
330
92
100
AcDbEntity
  8
_U+30EC_U+30A4_U+30E4_U+30FC 1
370
     0
100
AcDbVertex
100
AcDb2dVertex
 10
78.45343693785192
 20
-130.7889159829278
 30
0.0
  0
SEQEND
  5
98
330
92
100
AcDbEntity
  8
_U+30EC_U+30A4_U+30E4_U+30FC 1
370
     0
  0
HATCH
  5
99
330
8C
100
AcDbEntity
  8
_U+30EC_U+30A4_U+30E4_U+30FC 1
 62
   179
420
  2234388
100
AcDbHatch
 10
0.0
 20
0.0
 30
0.0
210
0.0
220
0.0
230
1.0
  2
SOLID
 70
     1
 71
     0
 91
        1
 92
        1
 93
        4
 72
     1
 10
78.45343693785192
 20
-130.7889159829278
 11
78.45343693785192
 21
-130.5374240125045
 72
     1
 10
78.45343693785192
 20
-130.5374240125045
 11
78.66806638658299
 21
-130.5374240125045
 72
     1
 10
78.66806638658299
 20
-130.5374240125045
 11
78.66806638658299
 21
-130.7889159829278
 72
     1
 10
78.66806638658299
 20
-130.7889159829278
 11
78.45343693785192
 21
-130.7889159829278
 97
        0
 75
     2
 76
     1
 98
        0
  0
SPLINE
  5
9A
330
8C
100
AcDbEntity
  8
_U+30EC_U+30A4_U+30E4_U+30FC 1
370
     0
100
AcDbSpline
210
0.0
220
0.0
230
1.0
 70
    11
 71
     3
 72
    53
 73
    49
 74
     0
 42
0.0000000001
 43
0.0000000001
 12
1.0
 22
0.0
 32
0.0
 13
1.0
 23
0.0
 33
0.0
 40
0.0
 40
0.0
 40
0.0
 40
0.0
 40
1.0
 40
1.0
 40
1.0
 40
2.0
 40
2.0
 40
2.0
 40
3.0
 40
3.0
 40
3.0
 40
4.0
 40
4.0
 40
4.0
 40
5.0
 40
5.0
 40
5.0
 40
6.0
 40
6.0
 40
6.0
 40
7.0
 40
7.0
 40
7.0
 40
8.0
 40
8.0
 40
8.0
 40
9.0
 40
9.0
 40
9.0
 40
10.0
 40
10.0
 40
10.0
 40
11.0
 40
11.0
 40
11.0
 40
12.0
 40
12.0
 40
12.0
 40
13.0
 40
13.0
 40
13.0
 40
14.0
 40
14.0
 40
14.0
 40
15.0
 40
15.0
 40
15.0
 40
16.0
 40
16.0
 40
16.0
 40
16.0
 10
79.27888181611779
 20
-130.8399033961095
 30
0.0
 10
79.2122192184782
 20
-130.8399033961095
 30
0.0
 10
79.12557506702417
 20
-130.8230224282318
 30
0.0
 10
79.03910317034439
 20
-130.7592881617546
 30
0.0
 10
78.89113631925291
 20
-130.6493896157752
 30
0.0
 10
78.87322182272962
 20
-130.5181314777871
 30
0.0
 10
78.85685761917468
 20
-130.4106444986473
 30
0.0
 10
78.85685761917468
 20
-130.4106444986473
 30
0.0
 10
79.04633787086343
 20
-130.4106444986473
 30
0.0
 10
79.04633787086343
 20
-130.4106444986473
 30
0.0
 10
79.09319116946281
 20
-130.6090819985977
 30
0.0
 10
79.20136716769966
 20
-130.6387098197709
 30
0.0
 10
79.28077661863468
 20
-130.6387098197709
 30
0.0
 10
79.39980466765006
 20
-130.6387098197709
 30
0.0
 10
79.52951251266971
 20
-130.5394910697957
 30
0.0
 10
79.52951251266971
 20
-130.3066026149928
 30
0.0
 10
79.52951251266971
 20
-130.0509765299873
 30
0.0
 10
79.3762057635761
 20
-129.9810410916367
 30
0.0
 10
79.27354191811564
 20
-129.9810410916367
 30
0.0
 10
79.24649791855643
 20
-129.9810410916367
 30
0.0
 10
79.12557506702417
 20
-129.9810410916367
 30
0.0
 10
79.04995522112293
 20
-130.1102321723336
 30
0.0
 10
79.04995522112293
 20
-130.1102321723336
 30
0.0
 10
78.90026582228883
 20
-130.0909396376162
 30
0.0
 10
78.90026582228883
 20
-130.0909396376162
 30
0.0
 10
78.90026582228883
 20
-130.0909396376162
 30
0.0
 10
79.00292966774927
 20
-129.2448241864388
 30
0.0
 10
79.00292966774927
 20
-129.2448241864388
 30
0.0
 10
79.00292966774927
 20
-129.2448241864388
 30
0.0
 10
79.66662731298265
 20
-129.2448241864388
 30
0.0
 10
79.66662731298265
 20
-129.2448241864388
 30
0.0
 10
79.66662731298265
 20
-129.2448241864388
 30
0.0
 10
79.66662731298265
 20
-129.4394720813554
 30
0.0
 10
79.66662731298265
 20
-129.4394720813554
 30
0.0
 10
79.66662731298265
 20
-129.4394720813554
 30
0.0
 10
79.14176701580485
 20
-129.4394720813554
 30
0.0
 10
79.14176701580485
 20
-129.4394720813554
 30
0.0
 10
79.14176701580485
 20
-129.4394720813554
 30
0.0
 10
79.08595646894379
 20
-129.8625298069441
 30
0.0
 10
79.08595646894379
 20
-129.8625298069441
 30
0.0
 10
79.13832192031958
 20
-129.8284233616401
 30
0.0
 10
79.2086018682187
 20
-129.7884602540112
 30
0.0
 10
79.3095431659365
 20
-129.7884602540112
 30
0.0
 10
79.5258951624102
 20
-129.7884602540112
 30
0.0
 10
79.7279500126201
 20
-129.9744954102147
 30
0.0
 10
79.7279500126201
 20
-130.2876545898239
 30
0.0
 10
79.7279500126201
 20
-130.6049478840154
 30
0.0
 10
79.53674721318873
 20
-130.8399033961095
 30
0.0
 10
79.27888181611779
 20
-130.8399033961095
 30
0.0
  0
HATCH
  5
9B
330
8C
100
AcDbEntity
  8
_U+30EC_U+30A4_U+30E4_U+30FC 1
 62
   179
420
  2234388
100
AcDbHatch
 10
0.0
 20
0.0
 30
0.0
210
0.0
220
0.0
230
1.0
  2
SOLID
 70
     1
 71
     0
 91
        1
 92
        1
 93
        1
 72
     4
 94
        3
 73
     0
 74
     1
 95
       53
 96
       49
 40
0.0
 40
0.0
 40
0.0
 40
0.0
 40
1.0
 40
1.0
 40
1.0
 40
2.0
 40
2.0
 40
2.0
 40
3.0
 40
3.0
 40
3.0
 40
4.0
 40
4.0
 40
4.0
 40
5.0
 40
5.0
 40
5.0
 40
6.0
 40
6.0
 40
6.0
 40
7.0
 40
7.0
 40
7.0
 40
8.0
 40
8.0
 40
8.0
 40
9.0
 40
9.0
 40
9.0
 40
10.0
 40
10.0
 40
10.0
 40
11.0
 40
11.0
 40
11.0
 40
12.0
 40
12.0
 40
12.0
 40
13.0
 40
13.0
 40
13.0
 40
14.0
 40
14.0
 40
14.0
 40
15.0
 40
15.0
 40
15.0
 40
16.0
 40
16.0
 40
16.0
 40
16.0
 10
79.27888181611779
 20
-130.8399033961095
 10
79.2122192184782
 20
-130.8399033961095
 10
79.12557506702417
 20
-130.8230224282318
 10
79.03910317034439
 20
-130.7592881617546
 10
78.89113631925291
 20
-130.6493896157752
 10
78.87322182272962
 20
-130.5181314777871
 10
78.85685761917468
 20
-130.4106444986473
 10
78.85685761917468
 20
-130.4106444986473
 10
79.04633787086343
 20
-130.4106444986473
 10
79.04633787086343
 20
-130.4106444986473
 10
79.09319116946281
 20
-130.6090819985977
 10
79.20136716769966
 20
-130.6387098197709
 10
79.28077661863468
 20
-130.6387098197709
 10
79.39980466765006
 20
-130.6387098197709
 10
79.52951251266971
 20
-130.5394910697957
 10
79.52951251266971
 20
-130.3066026149928
 10
79.52951251266971
 20
-130.0509765299873
 10
79.3762057635761
 20
-129.9810410916367
 10
79.27354191811564
 20
-129.9810410916367
 10
79.24649791855643
 20
-129.9810410916367
 10
79.12557506702417
 20
-129.9810410916367
 10
79.04995522112293
 20
-130.1102321723336
 10
79.04995522112293
 20
-130.1102321723336
 10
78.90026582228883
 20
-130.0909396376162
 10
78.90026582228883
 20
-130.0909396376162
 10
78.90026582228883
 20
-130.0909396376162
 10
79.00292966774927
 20
-129.2448241864388
 10
79.00292966774927
 20
-129.2448241864388
 10
79.00292966774927
 20
-129.2448241864388
 10
79.66662731298265
 20
-129.2448241864388
 10
79.66662731298265
 20
-129.2448241864388
 10
79.66662731298265
 20
-129.2448241864388
 10
79.66662731298265
 20
-129.4394720813554
 10
79.66662731298265
 20
-129.4394720813554
 10
79.66662731298265
 20
-129.4394720813554
 10
79.14176701580485
 20
-129.4394720813554
 10
79.14176701580485
 20
-129.4394720813554
 10
79.14176701580485
 20
-129.4394720813554
 10
79.08595646894379
 20
-129.8625298069441
 10
79.08595646894379
 20
-129.8625298069441
 10
79.13832192031958
 20
-129.8284233616401
 10
79.2086018682187
 20
-129.7884602540112
 10
79.3095431659365
 20
-129.7884602540112
 10
79.5258951624102
 20
-129.7884602540112
 10
79.7279500126201
 20
-129.9744954102147
 10
79.7279500126201
 20
-130.2876545898239
 10
79.7279500126201
 20
-130.6049478840154
 10
79.53674721318873
 20
-130.8399033961095
 10
79.27888181611779
 20
-130.8399033961095
 97
        0
 97
        0
 75
     2
 76
     1
 98
        0
  0
ENDBLK
  5
8F
330
8C
100
AcDbEntity
  8
0
100
AcDbBlockEnd
  0
BLOCK
  5
9E
330
9C
100
AcDbEntity
  8
0
100
AcDbBlockBegin
  2
block 3
 70
     0
 10
0.0
 20
0.0
 30
0.0
  3
block 3
  1

  0
POLYLINE
  5
A0
330
9C
100
AcDbEntity
  8
_U+30EC_U+30A4_U+30E4_U+30FC 1
370
     0
100
AcDb2dPolyline
 66
     1
 10
0.0
 20
0.0
 30
0.0
  0
VERTEX
  5
A1
330
A0
100
AcDbEntity
  8
_U+30EC_U+30A4_U+30E4_U+30FC 1
370
     0
100
AcDbVertex
100
AcDb2dVertex
 10
98.21967228447286
 20
-134.253304002895
 30
0.0
  0
VERTEX
  5
A2
330
A0
100
AcDbEntity
  8
_U+30EC_U+30A4_U+30E4_U+30FC 1
370
     0
100
AcDbVertex
100
AcDb2dVertex
 10
98.21967228447286
 20
-134.6002251182597
 30
0.0
  0
VERTEX
  5
A3
330
A0
100
AcDbEntity
  8
_U+30EC_U+30A4_U+30E4_U+30FC 1
370
     0
100
AcDbVertex
100
AcDb2dVertex
 10
98.0339816378179
 20
-134.6002251182597
 30
0.0
  0
VERTEX
  5
A4
330
A0
100
AcDbEntity
  8
_U+30EC_U+30A4_U+30E4_U+30FC 1
370
     0
100
AcDbVertex
100
AcDb2dVertex
 10
98.0339816378179
 20
-134.253304002895
 30
0.0
  0
VERTEX
  5
A5
330
A0
100
AcDbEntity
  8
_U+30EC_U+30A4_U+30E4_U+30FC 1
370
     0
100
AcDbVertex
100
AcDb2dVertex
 10
97.47484264056185
 20
-134.253304002895
 30
0.0
  0
VERTEX
  5
A6
330
A0
100
AcDbEntity
  8
_U+30EC_U+30A4_U+30E4_U+30FC 1
370
     0
100
AcDbVertex
100
AcDb2dVertex
 10
97.47484264056185
 20
-134.0290282868052
 30
0.0
  0
VERTEX
  5
A7
330
A0
100
AcDbEntity
  8
_U+30EC_U+30A4_U+30E4_U+30FC 1
370
     0
100
AcDbVertex
100
AcDb2dVertex
 10
98.05361868208382
 20
-133.0557888122222
 30
0.0
  0
VERTEX
  5
A8
330
A0
100
AcDbEntity
  8
_U+30EC_U+30A4_U+30E4_U+30FC 1
370
     0
100
AcDbVertex
100
AcDb2dVertex
 10
98.21967228447286
 20
-133.0557888122222
 30
0.0
  0
VERTEX
  5
A9
330
A0
100
AcDbEntity
  8
_U+30EC_U+30A4_U+30E4_U+30FC 1
370
     0
100
AcDbVertex
100
AcDb2dVertex
 10
98.21967228447286
 20
-134.0541774838476
 30
0.0
  0
VERTEX
  5
AA
330
A0
100
AcDbEntity
  8
_U+30EC_U+30A4_U+30E4_U+30FC 1
370
     0
100
AcDbVertex
100
AcDb2dVertex
 10
98.39640568286617
 20
-134.0541774838476
 30
0.0
  0
VERTEX
  5
AB
330
A0
100
AcDbEntity
  8
_U+30EC_U+30A4_U+30E4_U+30FC 1
370
     0
100
AcDbVertex
100
AcDb2dVertex
 10
98.39640568286617
 20
-134.253304002895
 30
0.0
  0
VERTEX
  5
AC
330
A0
100
AcDbEntity
  8
_U+30EC_U+30A4_U+30E4_U+30FC 1
370
     0
100
AcDbVertex
100
AcDb2dVertex
 10
98.21967228447286
 20
-134.253304002895
 30
0.0
  0
SEQEND
  5
AD
330
A0
100
AcDbEntity
  8
_U+30EC_U+30A4_U+30E4_U+30FC 1
370
     0
  0
POLYLINE
  5
AE
330
9C
100
AcDbEntity
  8
_U+30EC_U+30A4_U+30E4_U+30FC 1
370
     0
100
AcDb2dPolyline
 66
     1
 10
0.0
 20
0.0
 30
0.0
  0
VERTEX
  5
AF
330
AE
100
AcDbEntity
  8
_U+30EC_U+30A4_U+30E4_U+30FC 1
370
     0
100
AcDbVertex
100
AcDb2dVertex
 10
98.0339816378179
 20
-133.3985758130045
 30
0.0
  0
VERTEX
  5
B0
330
AE
100
AcDbEntity
  8
_U+30EC_U+30A4_U+30E4_U+30FC 1
370
     0
100
AcDbVertex
100
AcDb2dVertex
 10
97.64434133843613
 20
-134.0541774838476
 30
0.0
  0
VERTEX
  5
B1
330
AE
100
AcDbEntity
  8
_U+30EC_U+30A4_U+30E4_U+30FC 1
370
     0
100
AcDbVertex
100
AcDb2dVertex
 10
98.0339816378179
 20
-134.0541774838476
 30
0.0
  0
VERTEX
  5
B2
330
AE
100
AcDbEntity
  8
_U+30EC_U+30A4_U+30E4_U+30FC 1
370
     0
100
AcDbVertex
100
AcDb2dVertex
 10
98.0339816378179
 20
-133.3985758130045
 30
0.0
  0
SEQEND
  5
B3
330
AE
100
AcDbEntity
  8
_U+30EC_U+30A4_U+30E4_U+30FC 1
370
     0
  0
HATCH
  5
B4
330
9C
100
AcDbEntity
  8
_U+30EC_U+30A4_U+30E4_U+30FC 1
 62
   179
420
  2234388
100
AcDbHatch
 10
0.0
 20
0.0
 30
0.0
210
0.0
220
0.0
230
1.0
  2
SOLID
 70
     1
 71
     0
 91
        2
 92
        1
 93
       11
 72
     1
 10
98.21967228447286
 20
-134.253304002895
 11
98.21967228447286
 21
-134.6002251182597
 72
     1
 10
98.21967228447286
 20
-134.6002251182597
 11
98.0339816378179
 21
-134.6002251182597
 72
     1
 10
98.0339816378179
 20
-134.6002251182597
 11
98.0339816378179
 21
-134.253304002895
 72
     1
 10
98.0339816378179
 20
-134.253304002895
 11
97.47484264056185
 21
-134.253304002895
 72
     1
 10
97.47484264056185
 20
-134.253304002895
 11
97.47484264056185
 21
-134.0290282868052
 72
     1
 10
97.47484264056185
 20
-134.0290282868052
 11
98.05361868208382
 21
-133.0557888122222
 72
     1
 10
98.05361868208382
 20
-133.0557888122222
 11
98.21967228447286
 21
-133.0557888122222
 72
     1
 10
98.21967228447286
 20
-133.0557888122222
 11
98.21967228447286
 21
-134.0541774838476
 72
     1
 10
98.21967228447286
 20
-134.0541774838476
 11
98.39640568286617
 21
-134.0541774838476
 72
     1
 10
98.39640568286617
 20
-134.0541774838476
 11
98.39640568286617
 21
-134.253304002895
 72
     1
 10
98.39640568286617
 20
-134.253304002895
 11
98.21967228447286
 21
-134.253304002895
 97
        0
 92
        1
 93
        3
 72
     1
 10
98.0339816378179
 20
-133.3985758130045
 11
97.64434133843613
 21
-134.0541774838476
 72
     1
 10
97.64434133843613
 20
-134.0541774838476
 11
98.0339816378179
 21
-134.0541774838476
 72
     1
 10
98.0339816378179
 20
-134.0541774838476
 11
98.0339816378179
 21
-133.3985758130045
 97
        0
 75
     2
 76
     1
 98
        0
  0
SPLINE
  5
B5
330
9C
100
AcDbEntity
  8
_U+30EC_U+30A4_U+30E4_U+30FC 1
370
     0
100
AcDbSpline
210
0.0
220
0.0
230
1.0
 70
    11
 71
     3
 72
    29
 73
    25
 74
     0
 42
0.0000000001
 43
0.0000000001
 12
1.0
 22
0.0
 32
0.0
 13
1.0
 23
0.0
 33
0.0
 40
0.0
 40
0.0
 40
0.0
 40
0.0
 40
1.0
 40
1.0
 40
1.0
 40
2.0
 40
2.0
 40
2.0
 40
3.0
 40
3.0
 40
3.0
 40
4.0
 40
4.0
 40
4.0
 40
5.0
 40
5.0
 40
5.0
 40
6.0
 40
6.0
 40
6.0
 40
7.0
 40
7.0
 40
7.0
 40
8.0
 40
8.0
 40
8.0
 40
8.0
 10
99.27731659844457
 20
-134.4224581912208
 30
0.0
 10
99.18567705853692
 20
-134.631919996724
 30
0.0
 10
99.03753795267117
 20
-134.6508680218928
 30
0.0
 10
98.93831920269598
 20
-134.6508680218928
 30
0.0
 10
98.80120440238304
 20
-134.6508680218928
 30
0.0
 10
98.68062606039929
 20
-134.6047037423905
 30
0.0
 10
98.5993218069474
 20
-134.4224581912208
 30
0.0
 10
98.511127362525
 20
-134.2278102963042
 30
0.0
 10
98.4945909041958
 20
-133.990787726919
 30
0.0
 10
98.4945909041958
 20
-133.8281792200152
 30
0.0
 10
98.4945909041958
 20
-133.6841742287317
 30
0.0
 10
98.50906030523385
 20
-133.4326822583085
 30
0.0
 10
98.5993218069474
 20
-133.233555739261
 30
0.0
 10
98.69130585640357
 20
-133.0302951056313
 30
0.0
 10
98.82842065671652
 20
-133.0072129658801
 30
0.0
 10
98.93831920269598
 20
-133.0072129658801
 30
0.0
 10
99.07336694571778
 20
-133.0072129658801
 30
0.0
 10
99.19601234499267
 20
-133.0516546976399
 30
0.0
 10
99.27731659844457
 20
-133.233555739261
 30
0.0
 10
99.36206594738171
 20
-133.4261365768865
 30
0.0
 10
99.38204750119615
 20
-133.6545464075586
 30
0.0
 10
99.38204750119615
 20
-133.8281792200152
 30
0.0
 10
99.38204750119615
 20
-133.9994004656321
 30
0.0
 10
99.36413300467287
 20
-134.2298773535953
 30
0.0
 10
99.27731659844457
 20
-134.4224581912208
 30
0.0
  0
SPLINE
  5
B6
330
9C
100
AcDbEntity
  8
_U+30EC_U+30A4_U+30E4_U+30FC 1
370
     0
100
AcDbSpline
210
0.0
220
0.0
230
1.0
 70
    11
 71
     3
 72
    17
 73
    13
 74
     0
 42
0.0000000001
 43
0.0000000001
 12
1.0
 22
0.0
 32
0.0
 13
1.0
 23
0.0
 33
0.0
 40
0.0
 40
0.0
 40
0.0
 40
0.0
 40
1.0
 40
1.0
 40
1.0
 40
2.0
 40
2.0
 40
2.0
 40
3.0
 40
3.0
 40
3.0
 40
4.0
 40
4.0
 40
4.0
 40
4.0
 10
98.93831920269598
 20
-133.1997938035056
 30
0.0
 10
98.72541230170754
 20
-133.1997938035056
 30
0.0
 10
98.6861382131757
 20
-133.4833251619417
 30
0.0
 10
98.6861382131757
 20
-133.8281792200152
 30
0.0
 10
98.6861382131757
 20
-134.1475395714978
 30
0.0
 10
98.71645505344588
 20
-134.4565646365247
 30
0.0
 10
98.93831920269598
 20
-134.4565646365247
 30
0.0
 10
99.14915904639327
 20
-134.4565646365247
 30
0.0
 10
99.19084470176479
 20
-134.1747558258313
 30
0.0
 10
99.19084470176479
 20
-133.8281792200152
 30
0.0
 10
99.19084470176479
 20
-133.508474358984
 30
0.0
 10
99.15846080420344
 20
-133.1997938035056
 30
0.0
 10
98.93831920269598
 20
-133.1997938035056
 30
0.0
  0
HATCH
  5
B7
330
9C
100
AcDbEntity
  8
_U+30EC_U+30A4_U+30E4_U+30FC 1
 62
   179
420
  2234388
100
AcDbHatch
 10
0.0
 20
0.0
 30
0.0
210
0.0
220
0.0
230
1.0
  2
SOLID
 70
     1
 71
     0
 91
        2
 92
        1
 93
        1
 72
     4
 94
        3
 73
     0
 74
     1
 95
       29
 96
       25
 40
0.0
 40
0.0
 40
0.0
 40
0.0
 40
1.0
 40
1.0
 40
1.0
 40
2.0
 40
2.0
 40
2.0
 40
3.0
 40
3.0
 40
3.0
 40
4.0
 40
4.0
 40
4.0
 40
5.0
 40
5.0
 40
5.0
 40
6.0
 40
6.0
 40
6.0
 40
7.0
 40
7.0
 40
7.0
 40
8.0
 40
8.0
 40
8.0
 40
8.0
 10
99.27731659844457
 20
-134.4224581912208
 10
99.18567705853692
 20
-134.631919996724
 10
99.03753795267117
 20
-134.6508680218928
 10
98.93831920269598
 20
-134.6508680218928
 10
98.80120440238304
 20
-134.6508680218928
 10
98.68062606039929
 20
-134.6047037423905
 10
98.5993218069474
 20
-134.4224581912208
 10
98.511127362525
 20
-134.2278102963042
 10
98.4945909041958
 20
-133.990787726919
 10
98.4945909041958
 20
-133.8281792200152
 10
98.4945909041958
 20
-133.6841742287317
 10
98.50906030523385
 20
-133.4326822583085
 10
98.5993218069474
 20
-133.233555739261
 10
98.69130585640357
 20
-133.0302951056313
 10
98.82842065671652
 20
-133.0072129658801
 10
98.93831920269598
 20
-133.0072129658801
 10
99.07336694571778
 20
-133.0072129658801
 10
99.19601234499267
 20
-133.0516546976399
 10
99.27731659844457
 20
-133.233555739261
 10
99.36206594738171
 20
-133.4261365768865
 10
99.38204750119615
 20
-133.6545464075586
 10
99.38204750119615
 20
-133.8281792200152
 10
99.38204750119615
 20
-133.9994004656321
 10
99.36413300467287
 20
-134.2298773535953
 10
99.27731659844457
 20
-134.4224581912208
 97
        0
 97
        0
 92
        1
 93
        1
 72
     4
 94
        3
 73
     0
 74
     1
 95
       17
 96
       13
 40
0.0
 40
0.0
 40
0.0
 40
0.0
 40
1.0
 40
1.0
 40
1.0
 40
2.0
 40
2.0
 40
2.0
 40
3.0
 40
3.0
 40
3.0
 40
4.0
 40
4.0
 40
4.0
 40
4.0
 10
98.93831920269598
 20
-133.1997938035056
 10
98.72541230170754
 20
-133.1997938035056
 10
98.6861382131757
 20
-133.4833251619417
 10
98.6861382131757
 20
-133.8281792200152
 10
98.6861382131757
 20
-134.1475395714978
 10
98.71645505344588
 20
-134.4565646365247
 10
98.93831920269598
 20
-134.4565646365247
 10
99.14915904639327
 20
-134.4565646365247
 10
99.19084470176479
 20
-134.1747558258313
 10
99.19084470176479
 20
-133.8281792200152
 10
99.19084470176479
 20
-133.508474358984
 10
99.15846080420344
 20
-133.1997938035056
 10
98.93831920269598
 20
-133.1997938035056
 97
        0
 97
        0
 75
     2
 76
     1
 98
        0
  0
ENDBLK
  5
9F
330
9C
100
AcDbEntity
  8
0
100
AcDbBlockEnd
  0
BLOCK
  5
BA
330
B8
100
AcDbEntity
  8
0
100
AcDbBlockBegin
  2
block 4
 70
     0
 10
0.0
 20
0.0
 30
0.0
  3
block 4
  1

  0
SPLINE
  5
BC
330
B8
100
AcDbEntity
  8
_U+30EC_U+30A4_U+30E4_U+30FC 1
370
     0
100
AcDbSpline
210
0.0
220
0.0
230
1.0
 70
    11
 71
     3
 72
    26
 73
    22
 74
     0
 42
0.0000000001
 43
0.0000000001
 12
1.0
 22
0.0
 32
0.0
 13
1.0
 23
0.0
 33
0.0
 40
0.0
 40
0.0
 40
0.0
 40
0.0
 40
1.0
 40
1.0
 40
1.0
 40
2.0
 40
2.0
 40
2.0
 40
3.0
 40
3.0
 40
3.0
 40
4.0
 40
4.0
 40
4.0
 40
5.0
 40
5.0
 40
5.0
 40
6.0
 40
6.0
 40
6.0
 40
7.0
 40
7.0
 40
7.0
 40
7.0
 10
82.8118272362415
 20
-136.6541910465656
 30
0.0
 10
82.8118272362415
 20
-136.6541910465656
 30
0.0
 10
82.8118272362415
 20
-135.5500379435431
 30
0.0
 10
82.8118272362415
 20
-135.5500379435431
 30
0.0
 10
82.8118272362415
 20
-135.5500379435431
 30
0.0
 10
82.53036293509658
 20
-135.5500379435431
 30
0.0
 10
82.53036293509658
 20
-135.5500379435431
 30
0.0
 10
82.53036293509658
 20
-135.5500379435431
 30
0.0
 10
82.53036293509658
 20
-135.4018988376773
 30
0.0
 10
82.53036293509658
 20
-135.4018988376773
 30
0.0
 10
82.81354978398412
 20
-135.3870849270907
 30
0.0
 10
82.8531683820645
 20
-135.2241319106384
 30
0.0
 10
82.87848983388108
 20
-135.1097547405281
 30
0.0
 10
82.87848983388108
 20
-135.1097547405281
 30
0.0
 10
83.0028577808986
 20
-135.1097547405281
 30
0.0
 10
83.0028577808986
 20
-135.1097547405281
 30
0.0
 10
83.0028577808986
 20
-135.1097547405281
 30
0.0
 10
83.0028577808986
 20
-136.6541910465656
 30
0.0
 10
83.0028577808986
 20
-136.6541910465656
 30
0.0
 10
83.0028577808986
 20
-136.6541910465656
 30
0.0
 10
82.8118272362415
 20
-136.6541910465656
 30
0.0
 10
82.8118272362415
 20
-136.6541910465656
 30
0.0
  0
HATCH
  5
BD
330
B8
100
AcDbEntity
  8
_U+30EC_U+30A4_U+30E4_U+30FC 1
 62
   179
420
  2234388
100
AcDbHatch
 10
0.0
 20
0.0
 30
0.0
210
0.0
220
0.0
230
1.0
  2
SOLID
 70
     1
 71
     0
 91
        1
 92
        1
 93
        1
 72
     4
 94
        3
 73
     0
 74
     1
 95
       26
 96
       22
 40
0.0
 40
0.0
 40
0.0
 40
0.0
 40
1.0
 40
1.0
 40
1.0
 40
2.0
 40
2.0
 40
2.0
 40
3.0
 40
3.0
 40
3.0
 40
4.0
 40
4.0
 40
4.0
 40
5.0
 40
5.0
 40
5.0
 40
6.0
 40
6.0
 40
6.0
 40
7.0
 40
7.0
 40
7.0
 40
7.0
 10
82.8118272362415
 20
-136.6541910465656
 10
82.8118272362415
 20
-136.6541910465656
 10
82.8118272362415
 20
-135.5500379435431
 10
82.8118272362415
 20
-135.5500379435431
 10
82.8118272362415
 20
-135.5500379435431
 10
82.53036293509658
 20
-135.5500379435431
 10
82.53036293509658
 20
-135.5500379435431
 10
82.53036293509658
 20
-135.5500379435431
 10
82.53036293509658
 20
-135.4018988376773
 10
82.53036293509658
 20
-135.4018988376773
 10
82.81354978398412
 20
-135.3870849270907
 10
82.8531683820645
 20
-135.2241319106384
 10
82.87848983388108
 20
-135.1097547405281
 10
82.87848983388108
 20
-135.1097547405281
 10
83.0028577808986
 20
-135.1097547405281
 10
83.0028577808986
 20
-135.1097547405281
 10
83.0028577808986
 20
-135.1097547405281
 10
83.0028577808986
 20
-136.6541910465656
 10
83.0028577808986
 20
-136.6541910465656
 10
83.0028577808986
 20
-136.6541910465656
 10
82.8118272362415
 20
-136.6541910465656
 10
82.8118272362415
 20
-136.6541910465656
 97
        0
 97
        0
 75
     2
 76
     1
 98
        0
  0
SPLINE
  5
BE
330
B8
100
AcDbEntity
  8
_U+30EC_U+30A4_U+30E4_U+30FC 1
370
     0
100
AcDbSpline
210
0.0
220
0.0
230
1.0
 70
    11
 71
     3
 72
    29
 73
    25
 74
     0
 42
0.0000000001
 43
0.0000000001
 12
1.0
 22
0.0
 32
0.0
 13
1.0
 23
0.0
 33
0.0
 40
0.0
 40
0.0
 40
0.0
 40
0.0
 40
1.0
 40
1.0
 40
1.0
 40
2.0
 40
2.0
 40
2.0
 40
3.0
 40
3.0
 40
3.0
 40
4.0
 40
4.0
 40
4.0
 40
5.0
 40
5.0
 40
5.0
 40
6.0
 40
6.0
 40
6.0
 40
7.0
 40
7.0
 40
7.0
 40
8.0
 40
8.0
 40
8.0
 40
8.0
 10
83.85500214917514
 20
-136.7048339501988
 30
0.0
 10
83.62779810192292
 20
-136.7048339501988
 30
0.0
 10
83.41144610544923
 20
-136.5673746403373
 30
0.0
 10
83.41144610544923
 20
-136.2183864676815
 30
0.0
 10
83.41144610544923
 20
-135.9624158731275
 30
0.0
 10
83.53219670220723
 20
-135.866986728186
 30
0.0
 10
83.62245820392077
 20
-135.8056640285486
 30
0.0
 10
83.51600475342656
 20
-135.7464083862023
 30
0.0
 10
83.4510647035296
 20
-135.6323757256405
 30
0.0
 10
83.4510647035296
 20
-135.4714897664794
 30
0.0
 10
83.4510647035296
 20
-135.1965711467564
 30
0.0
 10
83.62056340140388
 20
-135.0611788941861
 30
0.0
 10
83.85500214917514
 20
-135.0611788941861
 30
0.0
 10
84.09667559746542
 20
-135.0611788941861
 30
0.0
 10
84.25893959482069
 20
-135.204839375921
 30
0.0
 10
84.25893959482069
 20
-135.4714897664794
 30
0.0
 10
84.25893959482069
 20
-135.6323757256405
 30
0.0
 10
84.1922769971811
 20
-135.7464083862023
 30
0.0
 10
84.08582354668688
 20
-135.8056640285486
 30
0.0
 10
84.16161564736238
 20
-135.8566514417303
 30
0.0
 10
84.29683564515844
 20
-135.9517360771232
 30
0.0
 10
84.29683564515844
 20
-136.2142523530992
 30
0.0
 10
84.29683564515844
 20
-136.5883897227974
 30
0.0
 10
84.05877954712767
 20
-136.7048339501988
 30
0.0
 10
83.85500214917514
 20
-136.7048339501988
 30
0.0
  0
SPLINE
  5
BF
330
B8
100
AcDbEntity
  8
_U+30EC_U+30A4_U+30E4_U+30FC 1
370
     0
100
AcDbSpline
210
0.0
220
0.0
230
1.0
 70
    11
 71
     3
 72
    17
 73
    13
 74
     0
 42
0.0000000001
 43
0.0000000001
 12
1.0
 22
0.0
 32
0.0
 13
1.0
 23
0.0
 33
0.0
 40
0.0
 40
0.0
 40
0.0
 40
0.0
 40
1.0
 40
1.0
 40
1.0
 40
2.0
 40
2.0
 40
2.0
 40
3.0
 40
3.0
 40
3.0
 40
4.0
 40
4.0
 40
4.0
 40
4.0
 10
83.85500214917514
 20
-135.9138400267854
 30
0.0
 10
83.73235674990025
 20
-135.9138400267854
 30
0.0
 10
83.6026489048806
 20
-136.0006564330137
 30
0.0
 10
83.6026489048806
 20
-136.203572557095
 30
0.0
 10
83.6026489048806
 20
-136.4085557384673
 30
0.0
 10
83.71082490311744
 20
-136.5105305648307
 30
0.0
 10
83.85500214917514
 20
-136.5105305648307
 30
0.0
 10
84.01382105104516
 20
-136.5105305648307
 30
0.0
 10
84.10752764824396
 20
-136.3878851655558
 30
0.0
 10
84.10752764824396
 20
-136.2101182385169
 30
0.0
 10
84.10752764824396
 20
-135.9875650701698
 30
0.0
 10
83.96869030018838
 20
-135.9138400267854
 30
0.0
 10
83.85500214917514
 20
-135.9138400267854
 30
0.0
  0
SPLINE
  5
C0
330
B8
100
AcDbEntity
  8
_U+30EC_U+30A4_U+30E4_U+30FC 1
370
     0
100
AcDbSpline
210
0.0
220
0.0
230
1.0
 70
    11
 71
     3
 72
    17
 73
    13
 74
     0
 42
0.0000000001
 43
0.0000000001
 12
1.0
 22
0.0
 32
0.0
 13
1.0
 23
0.0
 33
0.0
 40
0.0
 40
0.0
 40
0.0
 40
0.0
 40
1.0
 40
1.0
 40
1.0
 40
2.0
 40
2.0
 40
2.0
 40
3.0
 40
3.0
 40
3.0
 40
4.0
 40
4.0
 40
4.0
 40
4.0
 10
83.85500214917514
 20
-135.2537597318116
 30
0.0
 10
83.71444225337694
 20
-135.2537597318116
 30
0.0
 10
83.64226750296096
 20
-135.3488443672045
 30
0.0
 10
83.64226750296096
 20
-135.4842366197748
 30
0.0
 10
83.64226750296096
 20
-135.6072265285982
 30
0.0
 10
83.7035902025984
 20
-135.7257378132908
 30
0.0
 10
83.85500214917514
 20
-135.7257378132908
 30
0.0
 10
84.00658635052613
 20
-135.7257378132908
 30
0.0
 10
84.06790905016358
 20
-135.6072265285982
 30
0.0
 10
84.06790905016358
 20
-135.4842366197748
 30
0.0
 10
84.06790905016358
 20
-135.3488443672045
 30
0.0
 10
83.99383949723071
 20
-135.2537597318116
 30
0.0
 10
83.85500214917514
 20
-135.2537597318116
 30
0.0
  0
HATCH
  5
C1
330
B8
100
AcDbEntity
  8
_U+30EC_U+30A4_U+30E4_U+30FC 1
 62
   179
420
  2234388
100
AcDbHatch
 10
0.0
 20
0.0
 30
0.0
210
0.0
220
0.0
230
1.0
  2
SOLID
 70
     1
 71
     0
 91
        3
 92
        1
 93
        1
 72
     4
 94
        3
 73
     0
 74
     1
 95
       29
 96
       25
 40
0.0
 40
0.0
 40
0.0
 40
0.0
 40
1.0
 40
1.0
 40
1.0
 40
2.0
 40
2.0
 40
2.0
 40
3.0
 40
3.0
 40
3.0
 40
4.0
 40
4.0
 40
4.0
 40
5.0
 40
5.0
 40
5.0
 40
6.0
 40
6.0
 40
6.0
 40
7.0
 40
7.0
 40
7.0
 40
8.0
 40
8.0
 40
8.0
 40
8.0
 10
83.85500214917514
 20
-136.7048339501988
 10
83.62779810192292
 20
-136.7048339501988
 10
83.41144610544923
 20
-136.5673746403373
 10
83.41144610544923
 20
-136.2183864676815
 10
83.41144610544923
 20
-135.9624158731275
 10
83.53219670220723
 20
-135.866986728186
 10
83.62245820392077
 20
-135.8056640285486
 10
83.51600475342656
 20
-135.7464083862023
 10
83.4510647035296
 20
-135.6323757256405
 10
83.4510647035296
 20
-135.4714897664794
 10
83.4510647035296
 20
-135.1965711467564
 10
83.62056340140388
 20
-135.0611788941861
 10
83.85500214917514
 20
-135.0611788941861
 10
84.09667559746542
 20
-135.0611788941861
 10
84.25893959482069
 20
-135.204839375921
 10
84.25893959482069
 20
-135.4714897664794
 10
84.25893959482069
 20
-135.6323757256405
 10
84.1922769971811
 20
-135.7464083862023
 10
84.08582354668688
 20
-135.8056640285486
 10
84.16161564736238
 20
-135.8566514417303
 10
84.29683564515844
 20
-135.9517360771232
 10
84.29683564515844
 20
-136.2142523530992
 10
84.29683564515844
 20
-136.5883897227974
 10
84.05877954712767
 20
-136.7048339501988
 10
83.85500214917514
 20
-136.7048339501988
 97
        0
 97
        0
 92
        1
 93
        1
 72
     4
 94
        3
 73
     0
 74
     1
 95
       17
 96
       13
 40
0.0
 40
0.0
 40
0.0
 40
0.0
 40
1.0
 40
1.0
 40
1.0
 40
2.0
 40
2.0
 40
2.0
 40
3.0
 40
3.0
 40
3.0
 40
4.0
 40
4.0
 40
4.0
 40
4.0
 10
83.85500214917514
 20
-135.9138400267854
 10
83.73235674990025
 20
-135.9138400267854
 10
83.6026489048806
 20
-136.0006564330137
 10
83.6026489048806
 20
-136.203572557095
 10
83.6026489048806
 20
-136.4085557384673
 10
83.71082490311744
 20
-136.5105305648307
 10
83.85500214917514
 20
-136.5105305648307
 10
84.01382105104516
 20
-136.5105305648307
 10
84.10752764824396
 20
-136.3878851655558
 10
84.10752764824396
 20
-136.2101182385169
 10
84.10752764824396
 20
-135.9875650701698
 10
83.96869030018838
 20
-135.9138400267854
 10
83.85500214917514
 20
-135.9138400267854
 97
        0
 97
        0
 92
        1
 93
        1
 72
     4
 94
        3
 73
     0
 74
     1
 95
       17
 96
       13
 40
0.0
 40
0.0
 40
0.0
 40
0.0
 40
1.0
 40
1.0
 40
1.0
 40
2.0
 40
2.0
 40
2.0
 40
3.0
 40
3.0
 40
3.0
 40
4.0
 40
4.0
 40
4.0
 40
4.0
 10
83.85500214917514
 20
-135.2537597318116
 10
83.71444225337694
 20
-135.2537597318116
 10
83.64226750296096
 20
-135.3488443672045
 10
83.64226750296096
 20
-135.4842366197748
 10
83.64226750296096
 20
-135.6072265285982
 10
83.7035902025984
 20
-135.7257378132908
 10
83.85500214917514
 20
-135.7257378132908
 10
84.00658635052613
 20
-135.7257378132908
 10
84.06790905016358
 20
-135.6072265285982
 10
84.06790905016358
 20
-135.4842366197748
 10
84.06790905016358
 20
-135.3488443672045
 10
83.99383949723071
 20
-135.2537597318116
 10
83.85500214917514
 20
-135.2537597318116
 97
        0
 97
        0
 75
     2
 76
     1
 98
        0
  0
POLYLINE
  5
C2
330
B8
100
AcDbEntity
  8
_U+30EC_U+30A4_U+30E4_U+30FC 1
370
     0
100
AcDb2dPolyline
 66
     1
 10
0.0
 20
0.0
 30
0.0
  0
VERTEX
  5
C3
330
C2
100
AcDbEntity
  8
_U+30EC_U+30A4_U+30E4_U+30FC 1
370
     0
100
AcDbVertex
100
AcDb2dVertex
 10
84.48183727271635
 20
-136.6541910465656
 30
0.0
  0
VERTEX
  5
C4
330
C2
100
AcDbEntity
  8
_U+30EC_U+30A4_U+30E4_U+30FC 1
370
     0
100
AcDbVertex
100
AcDb2dVertex
 10
84.48183727271635
 20
-136.4023545665939
 30
0.0
  0
VERTEX
  5
C5
330
C2
100
AcDbEntity
  8
_U+30EC_U+30A4_U+30E4_U+30FC 1
370
     0
100
AcDbVertex
100
AcDb2dVertex
 10
84.69646672144742
 20
-136.4023545665939
 30
0.0
  0
VERTEX
  5
C6
330
C2
100
AcDbEntity
  8
_U+30EC_U+30A4_U+30E4_U+30FC 1
370
     0
100
AcDbVertex
100
AcDb2dVertex
 10
84.69646672144742
 20
-136.6541910465656
 30
0.0
  0
VERTEX
  5
C7
330
C2
100
AcDbEntity
  8
_U+30EC_U+30A4_U+30E4_U+30FC 1
370
     0
100
AcDbVertex
100
AcDb2dVertex
 10
84.48183727271635
 20
-136.6541910465656
 30
0.0
  0
SEQEND
  5
C8
330
C2
100
AcDbEntity
  8
_U+30EC_U+30A4_U+30E4_U+30FC 1
370
     0
  0
HATCH
  5
C9
330
B8
100
AcDbEntity
  8
_U+30EC_U+30A4_U+30E4_U+30FC 1
 62
   179
420
  2234388
100
AcDbHatch
 10
0.0
 20
0.0
 30
0.0
210
0.0
220
0.0
230
1.0
  2
SOLID
 70
     1
 71
     0
 91
        1
 92
        1
 93
        4
 72
     1
 10
84.48183727271635
 20
-136.6541910465656
 11
84.48183727271635
 21
-136.4023545665939
 72
     1
 10
84.48183727271635
 20
-136.4023545665939
 11
84.69646672144742
 21
-136.4023545665939
 72
     1
 10
84.69646672144742
 20
-136.4023545665939
 11
84.69646672144742
 21
-136.6541910465656
 72
     1
 10
84.69646672144742
 20
-136.6541910465656
 11
84.48183727271635
 21
-136.6541910465656
 97
        0
 75
     2
 76
     1
 98
        0
  0
SPLINE
  5
CA
330
B8
100
AcDbEntity
  8
_U+30EC_U+30A4_U+30E4_U+30FC 1
370
     0
100
AcDbSpline
210
0.0
220
0.0
230
1.0
 70
    11
 71
     3
 72
    32
 73
    28
 74
     0
 42
0.0000000001
 43
0.0000000001
 12
1.0
 22
0.0
 32
0.0
 13
1.0
 23
0.0
 33
0.0
 40
0.0
 40
0.0
 40
0.0
 40
0.0
 40
1.0
 40
1.0
 40
1.0
 40
2.0
 40
2.0
 40
2.0
 40
3.0
 40
3.0
 40
3.0
 40
4.0
 40
4.0
 40
4.0
 40
5.0
 40
5.0
 40
5.0
 40
6.0
 40
6.0
 40
6.0
 40
7.0
 40
7.0
 40
7.0
 40
8.0
 40
8.0
 40
8.0
 40
9.0
 40
9.0
 40
9.0
 40
9.0
 10
85.28747285194203
 20
-136.7048339501988
 30
0.0
 10
85.1396782556248
 20
-136.7048339501988
 30
0.0
 10
84.93038870489588
 20
-136.6352430213967
 30
0.0
 10
84.89800480733453
 20
-136.3031358166187
 30
0.0
 10
84.89800480733453
 20
-136.3031358166187
 30
0.0
 10
85.08007810372999
 20
-136.3031358166187
 30
0.0
 10
85.08007810372999
 20
-136.3031358166187
 30
0.0
 10
85.08903535199164
 20
-136.362391458965
 30
0.0
 10
85.11607935155085
 20
-136.5105305648307
 30
0.0
 10
85.28919539968464
 20
-136.5105305648307
 30
0.0
 10
85.53810354849395
 20
-136.5105305648307
 30
0.0
 10
85.57065970082957
 20
-136.1804904173438
 30
0.0
 10
85.58133949683383
 20
-135.9751627264229
 30
0.0
 10
85.50382484841572
 20
-136.0554334512292
 30
0.0
 10
85.44611949903778
 20
-136.1126220362844
 30
0.0
 10
85.29109020220153
 20
-136.1126220362844
 30
0.0
 10
85.13778345310791
 20
-136.1126220362844
 30
0.0
 10
84.87991805603697
 20
-136.0068576048872
 30
0.0
 10
84.87991805603697
 20
-135.6006808471762
 30
0.0
 10
84.87991805603697
 20
-135.2813204956936
 30
0.0
 10
85.04941675391126
 20
-135.0611788941861
 30
0.0
 10
85.31985674950337
 20
-135.0611788941861
 30
0.0
 10
85.75807289522716
 20
-135.0611788941861
 30
0.0
 10
85.76720239826307
 20
-135.6154947577628
 30
0.0
 10
85.76720239826307
 20
-135.8290906778483
 30
0.0
 10
85.76720239826307
 20
-136.05991207536
 30
0.0
 10
85.75083819470812
 20
-136.7048339501988
 30
0.0
 10
85.28747285194203
 20
-136.7048339501988
 30
0.0
  0
SPLINE
  5
CB
330
B8
100
AcDbEntity
  8
_U+30EC_U+30A4_U+30E4_U+30FC 1
370
     0
100
AcDbSpline
210
0.0
220
0.0
230
1.0
 70
    11
 71
     3
 72
    17
 73
    13
 74
     0
 42
0.0000000001
 43
0.0000000001
 12
1.0
 22
0.0
 32
0.0
 13
1.0
 23
0.0
 33
0.0
 40
0.0
 40
0.0
 40
0.0
 40
0.0
 40
1.0
 40
1.0
 40
1.0
 40
2.0
 40
2.0
 40
2.0
 40
3.0
 40
3.0
 40
3.0
 40
4.0
 40
4.0
 40
4.0
 40
4.0
 10
85.32175155202026
 20
-135.2537597318116
 30
0.0
 10
85.22081025430244
 20
-135.2537597318116
 30
0.0
 10
85.07112085546834
 20
-135.3109483168667
 30
0.0
 10
85.07112085546834
 20
-135.5962022230454
 30
0.0
 10
85.07112085546834
 20
-135.8228895059748
 30
0.0
 10
85.19014890448372
 20
-135.9179741413677
 30
0.0
 10
85.30555960323959
 20
-135.9179741413677
 30
0.0
 10
85.5291463002323
 20
-135.9179741413677
 30
0.0
 10
85.56153019779364
 20
-135.7085123358646
 30
0.0
 10
85.56153019779364
 20
-135.5920681084631
 30
0.0
 10
85.56153019779364
 20
-135.4163682387154
 30
0.0
 10
85.48039819911601
 20
-135.2537597318116
 30
0.0
 10
85.32175155202026
 20
-135.2537597318116
 30
0.0
  0
HATCH
  5
CC
330
B8
100
AcDbEntity
  8
_U+30EC_U+30A4_U+30E4_U+30FC 1
 62
   179
420
  2234388
100
AcDbHatch
 10
0.0
 20
0.0
 30
0.0
210
0.0
220
0.0
230
1.0
  2
SOLID
 70
     1
 71
     0
 91
        2
 92
        1
 93
        1
 72
     4
 94
        3
 73
     0
 74
     1
 95
       32
 96
       28
 40
0.0
 40
0.0
 40
0.0
 40
0.0
 40
1.0
 40
1.0
 40
1.0
 40
2.0
 40
2.0
 40
2.0
 40
3.0
 40
3.0
 40
3.0
 40
4.0
 40
4.0
 40
4.0
 40
5.0
 40
5.0
 40
5.0
 40
6.0
 40
6.0
 40
6.0
 40
7.0
 40
7.0
 40
7.0
 40
8.0
 40
8.0
 40
8.0
 40
9.0
 40
9.0
 40
9.0
 40
9.0
 10
85.28747285194203
 20
-136.7048339501988
 10
85.1396782556248
 20
-136.7048339501988
 10
84.93038870489588
 20
-136.6352430213967
 10
84.89800480733453
 20
-136.3031358166187
 10
84.89800480733453
 20
-136.3031358166187
 10
85.08007810372999
 20
-136.3031358166187
 10
85.08007810372999
 20
-136.3031358166187
 10
85.08903535199164
 20
-136.362391458965
 10
85.11607935155085
 20
-136.5105305648307
 10
85.28919539968464
 20
-136.5105305648307
 10
85.53810354849395
 20
-136.5105305648307
 10
85.57065970082957
 20
-136.1804904173438
 10
85.58133949683383
 20
-135.9751627264229
 10
85.50382484841572
 20
-136.0554334512292
 10
85.44611949903778
 20
-136.1126220362844
 10
85.29109020220153
 20
-136.1126220362844
 10
85.13778345310791
 20
-136.1126220362844
 10
84.87991805603697
 20
-136.0068576048872
 10
84.87991805603697
 20
-135.6006808471762
 10
84.87991805603697
 20
-135.2813204956936
 10
85.04941675391126
 20
-135.0611788941861
 10
85.31985674950337
 20
-135.0611788941861
 10
85.75807289522716
 20
-135.0611788941861
 10
85.76720239826307
 20
-135.6154947577628
 10
85.76720239826307
 20
-135.8290906778483
 10
85.76720239826307
 20
-136.05991207536
 10
85.75083819470812
 20
-136.7048339501988
 10
85.28747285194203
 20
-136.7048339501988
 97
        0
 97
        0
 92
        1
 93
        1
 72
     4
 94
        3
 73
     0
 74
     1
 95
       17
 96
       13
 40
0.0
 40
0.0
 40
0.0
 40
0.0
 40
1.0
 40
1.0
 40
1.0
 40
2.0
 40
2.0
 40
2.0
 40
3.0
 40
3.0
 40
3.0
 40
4.0
 40
4.0
 40
4.0
 40
4.0
 10
85.32175155202026
 20
-135.2537597318116
 10
85.22081025430244
 20
-135.2537597318116
 10
85.07112085546834
 20
-135.3109483168667
 10
85.07112085546834
 20
-135.5962022230454
 10
85.07112085546834
 20
-135.8228895059748
 10
85.19014890448372
 20
-135.9179741413677
 10
85.30555960323959
 20
-135.9179741413677
 10
85.5291463002323
 20
-135.9179741413677
 10
85.56153019779364
 20
-135.7085123358646
 10
85.56153019779364
 20
-135.5920681084631
 10
85.56153019779364
 20
-135.4163682387154
 10
85.48039819911601
 20
-135.2537597318116
 10
85.32175155202026
 20
-135.2537597318116
 97
        0
 97
        0
 75
     2
 76
     1
 98
        0
  0
ENDBLK
  5
BB
330
B8
100
AcDbEntity
  8
0
100
AcDbBlockEnd
  0
ENDSEC
  0
SECTION
  2
ENTITIES
  0
SPLINE
  5
41
330
1F
100
AcDbEntity
  8
_U+30EC_U+30A4_U+30E4_U+30FC 1
 62
   178
420
        0
370
     9
100
AcDbSpline
210
0.0
220
0.0
230
1.0
 70
    11
 71
     3
 72
    41
 73
    37
 74
     0
 42
0.0000000001
 43
0.0000000001
 12
1.0
 22
0.0
 32
0.0
 13
1.0
 23
0.0
 33
0.0
 40
0.0
 40
0.0
 40
0.0
 40
0.0
 40
1.0
 40
1.0
 40
1.0
 40
2.0
 40
2.0
 40
2.0
 40
3.0
 40
3.0
 40
3.0
 40
4.0
 40
4.0
 40
4.0
 40
5.0
 40
5.0
 40
5.0
 40
6.0
 40
6.0
 40
6.0
 40
7.0
 40
7.0
 40
7.0
 40
8.0
 40
8.0
 40
8.0
 40
9.0
 40
9.0
 40
9.0
 40
10.0
 40
10.0
 40
10.0
 40
11.0
 40
11.0
 40
11.0
 40
12.0
 40
12.0
 40
12.0
 40
12.0
 10
88.43768246598897
 20
-119.2354316368579
 30
0.0
 10
88.43768246598897
 20
-119.2354316368579
 30
0.0
 10
102.3724043327068
 20
-127.3052233015071
 30
0.0
 10
102.3724043327068
 20
-127.3052233015071
 30
0.0
 10
102.3724043327068
 20
-127.3052233015071
 30
0.0
 10
102.3724043327068
 20
-128.2750446901535
 30
0.0
 10
102.3724043327068
 20
-128.2750446901535
 30
0.0
 10
102.3724043327068
 20
-128.2750446901535
 30
0.0
 10
89.6283074356136
 20
-135.9041816326907
 30
0.0
 10
89.6283074356136
 20
-135.9041816326907
 30
0.0
 10
89.6283074356136
 20
-135.9041816326907
 30
0.0
 10
89.67240465671081
 20
-133.5232844110638
 30
0.0
 10
86.76198806429505
 20
-132.1559177447389
 30
0.0
 10
86.76198806429505
 20
-132.1559177447389
 30
0.0
 10
85.21858532589276
 20
-131.3621677449373
 30
0.0
 10
85.21858532589276
 20
-131.3621677449373
 30
0.0
 10
85.21858532589276
 20
-131.3621677449373
 30
0.0
 10
83.58698814529605
 20
-132.4205010780061
 30
0.0
 10
83.58698814529605
 20
-132.4205010780061
 30
0.0
 10
83.58698814529605
 20
-132.4205010780061
 30
0.0
 10
83.10191871322677
 20
-131.6267510782045
 30
0.0
 10
83.36650203981002
 20
-131.2298760783037
 30
0.0
 10
83.36650203981002
 20
-131.2298760783037
 30
0.0
 10
89.23143244573872
 20
-127.7902927458303
 30
0.0
 10
89.23143244573872
 20
-127.7902927458303
 30
0.0
 10
89.23143244573872
 20
-127.7902927458303
 30
0.0
 10
83.2783075976156
 20
-124.3507094133568
 30
0.0
 10
83.2783075976156
 20
-124.3507094133568
 30
0.0
 10
83.2783075976156
 20
-124.3507094133568
 30
0.0
 10
83.3224048187128
 20
-123.4687649691329
 30
0.0
 10
83.3224048187128
 20
-123.4687649691329
 30
0.0
 10
83.3224048187128
 20
-123.4687649691329
 30
0.0
 10
84.29254368285139
 20
-121.925044691741
 30
0.0
 10
84.29254368285139
 20
-121.925044691741
 30
0.0
 10
84.29254368285139
 20
-121.925044691741
 30
0.0
 10
88.43768246598897
 20
-119.2354316368579
 30
0.0
 10
88.43768246598897
 20
-119.2354316368579
 30
0.0
  0
POLYLINE
  5
42
330
1F
100
AcDbEntity
  8
_U+30EC_U+30A4_U+30E4_U+30FC 1
 62
     7
420
 16777215
370
     9
100
AcDb2dPolyline
 66
     1
 10
0.0
 20
0.0
 30
0.0
  0
VERTEX
  5
43
330
42
100
AcDbEntity
  8
_U+30EC_U+30A4_U+30E4_U+30FC 1
 62
     7
420
 16777215
370
     9
100
AcDbVertex
100
AcDb2dVertex
 10
83.8515714718793
 20
-130.9652927450365
 30
0.0
  0
VERTEX
  5
44
330
42
100
AcDbEntity
  8
_U+30EC_U+30A4_U+30E4_U+30FC 1
 62
     7
420
 16777215
370
     9
100
AcDbVertex
100
AcDb2dVertex
 10
91.92136293266843
 20
-126.2468899684384
 30
0.0
  0
VERTEX
  5
45
330
42
100
AcDbEntity
  8
_U+30EC_U+30A4_U+30E4_U+30FC 1
 62
     7
420
 16777215
370
     9
100
AcDbVertex
100
AcDb2dVertex
 10
100.6085154888185
 20
-126.2906696906496
 30
0.0
  0
SEQEND
  5
46
330
42
100
AcDbEntity
  8
_U+30EC_U+30A4_U+30E4_U+30FC 1
 62
     7
420
 16777215
370
     9
  0
POLYLINE
  5
47
330
1F
100
AcDbEntity
  8
_U+30EC_U+30A4_U+30E4_U+30FC 1
 62
     7
420
 16777215
370
     9
100
AcDb2dPolyline
 66
     1
 10
0.0
 20
0.0
 30
0.0
  0
VERTEX
  5
48
330
47
100
AcDbEntity
  8
_U+30EC_U+30A4_U+30E4_U+30FC 1
 62
     7
420
 16777215
370
     9
100
AcDbVertex
100
AcDb2dVertex
 10
89.18733522464152
 20
-127.7902927458303
 30
0.0
  0
VERTEX
  5
49
330
47
100
AcDbEntity
  8
_U+30EC_U+30A4_U+30E4_U+30FC 1
 62
     7
420
 16777215
370
     9
100
AcDbVertex
100
AcDb2dVertex
 10
83.3224048187128
 20
-124.3507094133568
 30
0.0
  0
VERTEX
  5
4A
330
47
100
AcDbEntity
  8
_U+30EC_U+30A4_U+30E4_U+30FC 1
 62
     7
420
 16777215
370
     9
100
AcDbVertex
100
AcDb2dVertex
 10
83.36650203981002
 20
-123.3802530247106
 30
0.0
  0
VERTEX
  5
4B
330
47
100
AcDbEntity
  8
_U+30EC_U+30A4_U+30E4_U+30FC 1
 62
     7
420
 16777215
370
     9
100
AcDbVertex
100
AcDb2dVertex
 10
84.20434924065697
 20
-121.9694594139522
 30
0.0
  0
VERTEX
  5
4C
330
47
100
AcDbEntity
  8
_U+30EC_U+30A4_U+30E4_U+30FC 1
 62
     7
420
 16777215
370
     9
100
AcDbVertex
100
AcDb2dVertex
 10
88.43768246598897
 20
-119.2354316368579
 30
0.0
  0
VERTEX
  5
4D
330
47
100
AcDbEntity
  8
_U+30EC_U+30A4_U+30E4_U+30FC 1
 62
     7
420
 16777215
370
     9
100
AcDbVertex
100
AcDb2dVertex
 10
102.416501553804
 20
-127.3052233015071
 30
0.0
  0
VERTEX
  5
4E
330
47
100
AcDbEntity
  8
_U+30EC_U+30A4_U+30E4_U+30FC 1
 62
     7
420
 16777215
370
     9
100
AcDbVertex
100
AcDb2dVertex
 10
102.416501553804
 20
-128.2750446901535
 30
0.0
  0
VERTEX
  5
4F
330
47
100
AcDbEntity
  8
_U+30EC_U+30A4_U+30E4_U+30FC 1
 62
     7
420
 16777215
370
     9
100
AcDbVertex
100
AcDb2dVertex
 10
89.6283074356136
 20
-135.9479613549017
 30
0.0
  0
SEQEND
  5
50
330
47
100
AcDbEntity
  8
_U+30EC_U+30A4_U+30E4_U+30FC 1
 62
     7
420
 16777215
370
     9
  0
SPLINE
  5
51
330
1F
100
AcDbEntity
  8
_U+30EC_U+30A4_U+30E4_U+30FC 1
 62
     7
420
 16777215
370
    18
100
AcDbSpline
210
0.0
220
0.0
230
1.0
 70
     8
 71
     3
 72
    14
 73
    10
 74
     0
 42
0.0000000001
 43
0.0000000001
 12
1.0
 22
0.0
 32
0.0
 13
1.0
 23
0.0
 33
0.0
 40
0.0
 40
0.0
 40
0.0
 40
0.0
 40
1.0
 40
1.0
 40
1.0
 40
2.0
 40
2.0
 40
2.0
 40
3.0
 40
3.0
 40
3.0
 40
3.0
 10
83.54289092419884
 20
-132.4205010780061
 30
0.0
 10
83.54289092419884
 20
-132.4205010780061
 30
0.0
 10
82.61684928115747
 20
-130.9215483006031
 30
0.0
 10
84.38073812504581
 20
-130.9652927450365
 30
0.0
 10
84.38073812504581
 20
-130.9652927450365
 30
0.0
 10
89.0991407824471
 20
-132.8173760779068
 30
0.0
 10
89.49601577232198
 20
-134.9781399662555
 30
0.0
 10
89.49601577232198
 20
-134.9781399662555
 30
0.0
 10
89.6283074356136
 20
-135.5517566327789
 30
0.0
 10
89.54011299341919
 20
-135.8600844104795
 30
0.0
  0
POLYLINE
  5
52
330
1F
100
AcDbEntity
  8
_U+30EC_U+30A4_U+30E4_U+30FC 1
 62
     7
420
 16777215
370
     9
100
AcDb2dPolyline
 66
     1
 10
0.0
 20
0.0
 30
0.0
  0
VERTEX
  5
53
330
52
100
AcDbEntity
  8
_U+30EC_U+30A4_U+30E4_U+30FC 1
 62
     7
420
 16777215
370
     9
100
AcDbVertex
100
AcDb2dVertex
 10
88.5699741292806
 20
-133.4344196888634
 30
0.0
  0
VERTEX
  5
54
330
52
100
AcDbEntity
  8
_U+30EC_U+30A4_U+30E4_U+30FC 1
 62
     7
420
 16777215
370
     9
100
AcDbVertex
100
AcDb2dVertex
 10
100.6526127099157
 20
-126.2468899684384
 30
0.0
  0
SEQEND
  5
55
330
52
100
AcDbEntity
  8
_U+30EC_U+30A4_U+30E4_U+30FC 1
 62
     7
420
 16777215
370
     9
  0
POLYLINE
  5
56
330
1F
100
AcDbEntity
  8
_U+30EC_U+30A4_U+30E4_U+30FC 1
 62
     7
420
 16777215
370
     9
100
AcDb2dPolyline
 66
     1
 10
0.0
 20
0.0
 30
0.0
  0
VERTEX
  5
57
330
56
100
AcDbEntity
  8
_U+30EC_U+30A4_U+30E4_U+30FC 1
 62
     7
420
 16777215
370
     9
100
AcDbVertex
100
AcDb2dVertex
 10
89.58421021451639
 20
-134.8017510774108
 30
0.0
  0
VERTEX
  5
58
330
56
100
AcDbEntity
  8
_U+30EC_U+30A4_U+30E4_U+30FC 1
 62
     7
420
 16777215
370
     9
100
AcDbVertex
100
AcDb2dVertex
 10
102.2842098905124
 20
-127.2611260792959
 30
0.0
  0
SEQEND
  5
59
330
56
100
AcDbEntity
  8
_U+30EC_U+30A4_U+30E4_U+30FC 1
 62
     7
420
 16777215
370
     9
  0
POLYLINE
  5
5A
330
1F
100
AcDbEntity
  8
_U+30EC_U+30A4_U+30E4_U+30FC 1
 62
     7
420
 16777215
370
     9
100
AcDb2dPolyline
 66
     1
 10
0.0
 20
0.0
 30
0.0
  0
VERTEX
  5
5B
330
5A
100
AcDbEntity
  8
_U+30EC_U+30A4_U+30E4_U+30FC 1
 62
     7
420
 16777215
370
     9
100
AcDbVertex
100
AcDb2dVertex
 10
84.46893256724022
 20
-122.0135566361633
 30
0.0
  0
VERTEX
  5
5C
330
5A
100
AcDbEntity
  8
_U+30EC_U+30A4_U+30E4_U+30FC 1
 62
     7
420
 16777215
370
     9
100
AcDbVertex
100
AcDb2dVertex
 10
91.92136293266843
 20
-126.2468899684384
 30
0.0
  0
SEQEND
  5
5D
330
5A
100
AcDbEntity
  8
_U+30EC_U+30A4_U+30E4_U+30FC 1
 62
     7
420
 16777215
370
     9
  0
POLYLINE
  5
5E
330
1F
100
AcDbEntity
  8
_U+30EC_U+30A4_U+30E4_U+30FC 1
 62
     7
420
 16777215
370
     9
100
AcDb2dPolyline
 66
     1
 10
0.0
 20
0.0
 30
0.0
  0
VERTEX
  5
5F
330
5E
100
AcDbEntity
  8
_U+30EC_U+30A4_U+30E4_U+30FC 1
 62
     7
420
 16777215
370
     9
100
AcDbVertex
100
AcDb2dVertex
 10
90.24566853097451
 20
-127.2167113570848
 30
0.0
  0
VERTEX
  5
60
330
5E
100
AcDbEntity
  8
_U+30EC_U+30A4_U+30E4_U+30FC 1
 62
     7
420
 16777215
370
     9
100
AcDbVertex
100
AcDb2dVertex
 10
83.36650203981002
 20
-123.3802530247106
 30
0.0
  0
SEQEND
  5
61
330
5E
100
AcDbEntity
  8
_U+30EC_U+30A4_U+30E4_U+30FC 1
 62
     7
420
 16777215
370
     9
  0
POLYLINE
  5
62
330
1F
100
AcDbEntity
  8
_U+30EC_U+30A4_U+30E4_U+30FC 1
 62
     7
420
 16777215
370
     9
100
AcDb2dPolyline
 66
     1
 10
0.0
 20
0.0
 30
0.0
  0
VERTEX
  5
63
330
62
100
AcDbEntity
  8
_U+30EC_U+30A4_U+30E4_U+30FC 1
 62
     7
420
 16777215
370
     9
100
AcDbVertex
100
AcDb2dVertex
 10
83.54289092419884
 20
-132.4205010780061
 30
0.0
  0
VERTEX
  5
64
330
62
100
AcDbEntity
  8
_U+30EC_U+30A4_U+30E4_U+30FC 1
 62
     7
420
 16777215
370
     9
100
AcDbVertex
100
AcDb2dVertex
 10
85.30677976808718
 20
-131.4062649671485
 30
0.0
  0
SEQEND
  5
65
330
62
100
AcDbEntity
  8
_U+30EC_U+30A4_U+30E4_U+30FC 1
 62
     7
420
 16777215
370
     9
  0
POLYLINE
  5
66
330
1F
100
AcDbEntity
  8
_U+30EC_U+30A4_U+30E4_U+30FC 1
 62
     7
420
 16777215
370
     9
100
AcDb2dPolyline
 66
     1
 10
0.0
 20
0.0
 30
0.0
  0
VERTEX
  5
67
330
66
100
AcDbEntity
  8
_U+30EC_U+30A4_U+30E4_U+30FC 1
 62
     7
420
 16777215
370
     9
100
AcDbVertex
100
AcDb2dVertex
 10
103.0338626491649
 20
-128.7604316344766
 30
0.0
  0
VERTEX
  5
68
330
66
100
AcDbEntity
  8
_U+30EC_U+30A4_U+30E4_U+30FC 1
 62
     7
420
 16777215
370
     9
100
AcDbVertex
100
AcDb2dVertex
 10
104.8859459352477
 20
-129.7302530231227
 30
0.0
  0
VERTEX
  5
69
330
66
100
AcDbEntity
  8
_U+30EC_U+30A4_U+30E4_U+30FC 1
 62
     7
420
 16777215
370
     9
100
AcDbVertex
100
AcDb2dVertex
 10
100.4762238255269
 20
-132.4353177446688
 30
0.0
  0
SEQEND
  5
6A
330
66
100
AcDbEntity
  8
_U+30EC_U+30A4_U+30E4_U+30FC 1
 62
     7
420
 16777215
370
     9
  0
POLYLINE
  5
6B
330
1F
100
AcDbEntity
  8
_U+30EC_U+30A4_U+30E4_U+30FC 1
 62
     7
420
 16777215
370
     9
100
AcDb2dPolyline
 66
     1
 10
0.0
 20
0.0
 30
0.0
  0
VERTEX
  5
6C
330
6B
100
AcDbEntity
  8
_U+30EC_U+30A4_U+30E4_U+30FC 1
 62
     7
420
 16777215
370
     9
100
AcDbVertex
100
AcDb2dVertex
 10
90.24566853097451
 20
-136.1246677437467
 30
0.0
  0
VERTEX
  5
6D
330
6B
100
AcDbEntity
  8
_U+30EC_U+30A4_U+30E4_U+30FC 1
 62
     7
420
 16777215
370
     9
100
AcDbVertex
100
AcDb2dVertex
 10
92.1859462592517
 20
-137.2270982990266
 30
0.0
  0
VERTEX
  5
6E
330
6B
100
AcDbEntity
  8
_U+30EC_U+30A4_U+30E4_U+30FC 1
 62
     7
420
 16777215
370
     9
100
AcDbVertex
100
AcDb2dVertex
 10
96.63976559006973
 20
-134.6842760774399
 30
0.0
  0
SEQEND
  5
6F
330
6B
100
AcDbEntity
  8
_U+30EC_U+30A4_U+30E4_U+30FC 1
 62
     7
420
 16777215
370
     9
  0
POLYLINE
  5
70
330
1F
100
AcDbEntity
  8
_U+30EC_U+30A4_U+30E4_U+30FC 1
 62
     7
420
 16777215
370
     9
100
AcDb2dPolyline
 66
     1
 10
0.0
 20
0.0
 30
0.0
  0
VERTEX
  5
71
330
70
100
AcDbEntity
  8
_U+30EC_U+30A4_U+30E4_U+30FC 1
 62
     7
420
 16777215
370
     9
100
AcDbVertex
100
AcDb2dVertex
 10
85.9241408634481
 20
-136.4333482992251
 30
0.0
  0
VERTEX
  5
72
330
70
100
AcDbEntity
  8
_U+30EC_U+30A4_U+30E4_U+30FC 1
 62
     7
420
 16777215
370
     9
100
AcDbVertex
100
AcDb2dVertex
 10
87.29115471746155
 20
-137.2708780212376
 30
0.0
  0
VERTEX
  5
73
330
70
100
AcDbEntity
  8
_U+30EC_U+30A4_U+30E4_U+30FC 1
 62
     7
420
 16777215
370
     9
100
AcDbVertex
100
AcDb2dVertex
 10
88.79046023476664
 20
-136.3010566325915
 30
0.0
  0
SEQEND
  5
74
330
70
100
AcDbEntity
  8
_U+30EC_U+30A4_U+30E4_U+30FC 1
 62
     7
420
 16777215
370
     9
  0
POLYLINE
  5
75
330
1F
100
AcDbEntity
  8
_U+30EC_U+30A4_U+30E4_U+30FC 1
 62
     7
420
 16777215
370
     9
100
AcDb2dPolyline
 66
     1
 10
0.0
 20
0.0
 30
0.0
  0
VERTEX
  5
76
330
75
100
AcDbEntity
  8
_U+30EC_U+30A4_U+30E4_U+30FC 1
 62
     7
420
 16777215
370
     9
100
AcDbVertex
100
AcDb2dVertex
 10
83.10191871322677
 20
-134.8017510774108
 30
0.0
  0
VERTEX
  5
77
330
75
100
AcDbEntity
  8
_U+30EC_U+30A4_U+30E4_U+30FC 1
 62
     7
420
 16777215
370
     9
100
AcDbVertex
100
AcDb2dVertex
 10
81.16164098494959
 20
-133.743417744342
 30
0.0
  0
VERTEX
  5
78
330
75
100
AcDbEntity
  8
_U+30EC_U+30A4_U+30E4_U+30FC 1
 62
     7
420
 16777215
370
     9
100
AcDbVertex
100
AcDb2dVertex
 10
82.7491409444491
 20
-132.7729613556954
 30
0.0
  0
SEQEND
  5
79
330
75
100
AcDbEntity
  8
_U+30EC_U+30A4_U+30E4_U+30FC 1
 62
     7
420
 16777215
370
     9
  0
POLYLINE
  5
7A
330
1F
100
AcDbEntity
  8
_U+30EC_U+30A4_U+30E4_U+30FC 1
 62
     7
420
 16777215
370
     9
100
AcDb2dPolyline
 66
     1
 10
0.0
 20
0.0
 30
0.0
  0
VERTEX
  5
7B
330
7A
100
AcDbEntity
  8
_U+30EC_U+30A4_U+30E4_U+30FC 1
 62
     7
420
 16777215
370
     9
100
AcDbVertex
100
AcDb2dVertex
 10
82.35226595457422
 20
-131.6708483004157
 30
0.0
  0
VERTEX
  5
7C
330
7A
100
AcDbEntity
  8
_U+30EC_U+30A4_U+30E4_U+30FC 1
 62
     7
420
 16777215
370
     9
100
AcDbVertex
100
AcDb2dVertex
 10
80.89705765836634
 20
-130.9208780228251
 30
0.0
  0
VERTEX
  5
7D
330
7A
100
AcDbEntity
  8
_U+30EC_U+30A4_U+30E4_U+30FC 1
 62
     7
420
 16777215
370
     9
100
AcDbVertex
100
AcDb2dVertex
 10
80.89705765836634
 20
-128.9365030233212
 30
0.0
  0
VERTEX
  5
7E
330
7A
100
AcDbEntity
  8
_U+30EC_U+30A4_U+30E4_U+30FC 1
 62
     7
420
 16777215
370
     9
100
AcDbVertex
100
AcDb2dVertex
 10
83.58698814529605
 20
-130.4802233007134
 30
0.0
  0
SEQEND
  5
7F
330
7A
100
AcDbEntity
  8
_U+30EC_U+30A4_U+30E4_U+30FC 1
 62
     7
420
 16777215
370
     9
  0
SPLINE
  5
80
330
1F
100
AcDbEntity
  8
_U+30EC_U+30A4_U+30E4_U+30FC 1
 62
     7
420
 16777215
370
     9
100
AcDbSpline
210
0.0
220
0.0
230
1.0
 70
    11
 71
     3
 72
    17
 73
    13
 74
     0
 42
0.0000000001
 43
0.0000000001
 12
1.0
 22
0.0
 32
0.0
 13
1.0
 23
0.0
 33
0.0
 40
0.0
 40
0.0
 40
0.0
 40
0.0
 40
1.0
 40
1.0
 40
1.0
 40
2.0
 40
2.0
 40
2.0
 40
3.0
 40
3.0
 40
3.0
 40
4.0
 40
4.0
 40
4.0
 40
4.0
 10
104.8866162130084
 20
-129.6864733009118
 30
0.0
 10
104.8866162130084
 20
-129.7591808008934
 30
0.0
 10
104.8273495478537
 20
-129.8187649675454
 30
0.0
 10
104.7543245497168
 20
-129.8187649675454
 30
0.0
 10
104.6812995515798
 20
-129.8187649675454
 30
0.0
 10
104.6220328864251
 20
-129.7591808008934
 30
0.0
 10
104.6220328864251
 20
-129.6864733009118
 30
0.0
 10
104.6220328864251
 20
-129.6134483009299
 30
0.0
 10
104.6812995515798
 20
-129.5541816342782
 30
0.0
 10
104.7543245497168
 20
-129.5541816342782
 30
0.0
 10
104.8273495478537
 20
-129.5541816342782
 30
0.0
 10
104.8866162130084
 20
-129.6134483009299
 30
0.0
 10
104.8866162130084
 20
-129.6864733009118
 30
0.0
  0
HATCH
  5
81
330
1F
100
AcDbEntity
  8
_U+30EC_U+30A4_U+30E4_U+30FC 1
 62
     7
420
 16777215
100
AcDbHatch
 10
0.0
 20
0.0
 30
0.0
210
0.0
220
0.0
230
1.0
  2
SOLID
 70
     1
 71
     0
 91
        1
 92
        1
 93
        1
 72
     4
 94
        3
 73
     0
 74
     1
 95
       17
 96
       13
 40
0.0
 40
0.0
 40
0.0
 40
0.0
 40
1.0
 40
1.0
 40
1.0
 40
2.0
 40
2.0
 40
2.0
 40
3.0
 40
3.0
 40
3.0
 40
4.0
 40
4.0
 40
4.0
 40
4.0
 10
104.8866162130084
 20
-129.6864733009118
 10
104.8866162130084
 20
-129.7591808008934
 10
104.8273495478537
 20
-129.8187649675454
 10
104.7543245497168
 20
-129.8187649675454
 10
104.6812995515798
 20
-129.8187649675454
 10
104.6220328864251
 20
-129.7591808008934
 10
104.6220328864251
 20
-129.6864733009118
 10
104.6220328864251
 20
-129.6134483009299
 10
104.6812995515798
 20
-129.5541816342782
 10
104.7543245497168
 20
-129.5541816342782
 10
104.8273495478537
 20
-129.5541816342782
 10
104.8866162130084
 20
-129.6134483009299
 10
104.8866162130084
 20
-129.6864733009118
 97
        0
 97
        0
 75
     2
 76
     1
 98
        0
  0
SPLINE
  5
82
330
1F
100
AcDbEntity
  8
_U+30EC_U+30A4_U+30E4_U+30FC 1
 62
     7
420
 16777215
370
     9
100
AcDbSpline
210
0.0
220
0.0
230
1.0
 70
    11
 71
     3
 72
    17
 73
    13
 74
     0
 42
0.0000000001
 43
0.0000000001
 12
1.0
 22
0.0
 32
0.0
 13
1.0
 23
0.0
 33
0.0
 40
0.0
 40
0.0
 40
0.0
 40
0.0
 40
1.0
 40
1.0
 40
1.0
 40
2.0
 40
2.0
 40
2.0
 40
3.0
 40
3.0
 40
3.0
 40
4.0
 40
4.0
 40
4.0
 40
4.0
 10
81.07411682051585
 20
-128.9816233010881
 30
0.0
 10
81.07411682051585
 20
-129.0542955232922
 30
0.0
 10
81.0148501553612
 20
-129.1139149677217
 30
0.0
 10
80.94182515722423
 20
-129.1139149677217
 30
0.0
 10
80.86880015908724
 20
-129.1139149677217
 30
0.0
 10
80.8095334939326
 20
-129.0542955232922
 30
0.0
 10
80.8095334939326
 20
-128.9816233010881
 30
0.0
 10
80.8095334939326
 20
-128.9085983011063
 30
0.0
 10
80.86880015908724
 20
-128.8493316344546
 30
0.0
 10
80.94182515722423
 20
-128.8493316344546
 30
0.0
 10
81.0148501553612
 20
-128.8493316344546
 30
0.0
 10
81.07411682051585
 20
-128.9085983011063
 30
0.0
 10
81.07411682051585
 20
-128.9816233010881
 30
0.0
  0
HATCH
  5
83
330
1F
100
AcDbEntity
  8
_U+30EC_U+30A4_U+30E4_U+30FC 1
 62
     7
420
 16777215
100
AcDbHatch
 10
0.0
 20
0.0
 30
0.0
210
0.0
220
0.0
230
1.0
  2
SOLID
 70
     1
 71
     0
 91
        1
 92
        1
 93
        1
 72
     4
 94
        3
 73
     0
 74
     1
 95
       17
 96
       13
 40
0.0
 40
0.0
 40
0.0
 40
0.0
 40
1.0
 40
1.0
 40
1.0
 40
2.0
 40
2.0
 40
2.0
 40
3.0
 40
3.0
 40
3.0
 40
4.0
 40
4.0
 40
4.0
 40
4.0
 10
81.07411682051585
 20
-128.9816233010881
 10
81.07411682051585
 20
-129.0542955232922
 10
81.0148501553612
 20
-129.1139149677217
 10
80.94182515722423
 20
-129.1139149677217
 10
80.86880015908724
 20
-129.1139149677217
 10
80.8095334939326
 20
-129.0542955232922
 10
80.8095334939326
 20
-128.9816233010881
 10
80.8095334939326
 20
-128.9085983011063
 10
80.86880015908724
 20
-128.8493316344546
 10
80.94182515722423
 20
-128.8493316344546
 10
81.0148501553612
 20
-128.8493316344546
 10
81.07411682051585
 20
-128.9085983011063
 10
81.07411682051585
 20
-128.9816233010881
 97
        0
 97
        0
 75
     2
 76
     1
 98
        0
  0
SPLINE
  5
84
330
1F
100
AcDbEntity
  8
_U+30EC_U+30A4_U+30E4_U+30FC 1
 62
     7
420
 16777215
370
     9
100
AcDbSpline
210
0.0
220
0.0
230
1.0
 70
    11
 71
     3
 72
    17
 73
    13
 74
     0
 42
0.0000000001
 43
0.0000000001
 12
1.0
 22
0.0
 32
0.0
 13
1.0
 23
0.0
 33
0.0
 40
0.0
 40
0.0
 40
0.0
 40
0.0
 40
1.0
 40
1.0
 40
1.0
 40
2.0
 40
2.0
 40
2.0
 40
3.0
 40
3.0
 40
3.0
 40
4.0
 40
4.0
 40
4.0
 40
4.0
 10
81.07411682051585
 20
-130.8774510783919
 30
0.0
 10
81.07411682051585
 20
-130.9504760783738
 30
0.0
 10
81.0148501553612
 20
-131.0097427450255
 30
0.0
 10
80.94182515722423
 20
-131.0097427450255
 30
0.0
 10
80.86880015908724
 20
-131.0097427450255
 30
0.0
 10
80.8095334939326
 20
-130.9504760783738
 30
0.0
 10
80.8095334939326
 20
-130.8774510783919
 30
0.0
 10
80.8095334939326
 20
-130.8047788561878
 30
0.0
 10
80.86880015908724
 20
-130.7451594117583
 30
0.0
 10
80.94182515722423
 20
-130.7451594117583
 30
0.0
 10
81.0148501553612
 20
-130.7451594117583
 30
0.0
 10
81.07411682051585
 20
-130.8047788561878
 30
0.0
 10
81.07411682051585
 20
-130.8774510783919
 30
0.0
  0
HATCH
  5
85
330
1F
100
AcDbEntity
  8
_U+30EC_U+30A4_U+30E4_U+30FC 1
 62
     7
420
 16777215
100
AcDbHatch
 10
0.0
 20
0.0
 30
0.0
210
0.0
220
0.0
230
1.0
  2
SOLID
 70
     1
 71
     0
 91
        1
 92
        1
 93
        1
 72
     4
 94
        3
 73
     0
 74
     1
 95
       17
 96
       13
 40
0.0
 40
0.0
 40
0.0
 40
0.0
 40
1.0
 40
1.0
 40
1.0
 40
2.0
 40
2.0
 40
2.0
 40
3.0
 40
3.0
 40
3.0
 40
4.0
 40
4.0
 40
4.0
 40
4.0
 10
81.07411682051585
 20
-130.8774510783919
 10
81.07411682051585
 20
-130.9504760783738
 10
81.0148501553612
 20
-131.0097427450255
 10
80.94182515722423
 20
-131.0097427450255
 10
80.86880015908724
 20
-131.0097427450255
 10
80.8095334939326
 20
-130.9504760783738
 10
80.8095334939326
 20
-130.8774510783919
 10
80.8095334939326
 20
-130.8047788561878
 10
80.86880015908724
 20
-130.7451594117583
 10
80.94182515722423
 20
-130.7451594117583
 10
81.0148501553612
 20
-130.7451594117583
 10
81.07411682051585
 20
-130.8047788561878
 10
81.07411682051585
 20
-130.8774510783919
 97
        0
 97
        0
 75
     2
 76
     1
 98
        0
  0
SPLINE
  5
86
330
1F
100
AcDbEntity
  8
_U+30EC_U+30A4_U+30E4_U+30FC 1
 62
     7
420
 16777215
370
     9
100
AcDbSpline
210
0.0
220
0.0
230
1.0
 70
    11
 71
     3
 72
    17
 73
    13
 74
     0
 42
0.0000000001
 43
0.0000000001
 12
1.0
 22
0.0
 32
0.0
 13
1.0
 23
0.0
 33
0.0
 40
0.0
 40
0.0
 40
0.0
 40
0.0
 40
1.0
 40
1.0
 40
1.0
 40
2.0
 40
2.0
 40
2.0
 40
3.0
 40
3.0
 40
3.0
 40
4.0
 40
4.0
 40
4.0
 40
4.0
 10
81.38244459042753
 20
-133.6996732999086
 30
0.0
 10
81.38244459042753
 20
-133.7723807998902
 30
0.0
 10
81.32353070304165
 20
-133.8319649665422
 30
0.0
 10
81.2501529271359
 20
-133.8319649665422
 30
0.0
 10
81.17712792899893
 20
-133.8319649665422
 30
0.0
 10
81.11786126384428
 20
-133.7723807998902
 30
0.0
 10
81.11786126384428
 20
-133.6996732999086
 30
0.0
 10
81.11786126384428
 20
-133.6266482999267
 30
0.0
 10
81.17712792899893
 20
-133.567381633275
 30
0.0
 10
81.2501529271359
 20
-133.567381633275
 30
0.0
 10
81.32353070304165
 20
-133.567381633275
 30
0.0
 10
81.38244459042753
 20
-133.6266482999267
 30
0.0
 10
81.38244459042753
 20
-133.6996732999086
 30
0.0
  0
HATCH
  5
87
330
1F
100
AcDbEntity
  8
_U+30EC_U+30A4_U+30E4_U+30FC 1
 62
     7
420
 16777215
100
AcDbHatch
 10
0.0
 20
0.0
 30
0.0
210
0.0
220
0.0
230
1.0
  2
SOLID
 70
     1
 71
     0
 91
        1
 92
        1
 93
        1
 72
     4
 94
        3
 73
     0
 74
     1
 95
       17
 96
       13
 40
0.0
 40
0.0
 40
0.0
 40
0.0
 40
1.0
 40
1.0
 40
1.0
 40
2.0
 40
2.0
 40
2.0
 40
3.0
 40
3.0
 40
3.0
 40
4.0
 40
4.0
 40
4.0
 40
4.0
 10
81.38244459042753
 20
-133.6996732999086
 10
81.38244459042753
 20
-133.7723807998902
 10
81.32353070304165
 20
-133.8319649665422
 10
81.2501529271359
 20
-133.8319649665422
 10
81.17712792899893
 20
-133.8319649665422
 10
81.11786126384428
 20
-133.7723807998902
 10
81.11786126384428
 20
-133.6996732999086
 10
81.11786126384428
 20
-133.6266482999267
 10
81.17712792899893
 20
-133.567381633275
 10
81.2501529271359
 20
-133.567381633275
 10
81.32353070304165
 20
-133.567381633275
 10
81.38244459042753
 20
-133.6266482999267
 10
81.38244459042753
 20
-133.6996732999086
 97
        0
 97
        0
 75
     2
 76
     1
 98
        0
  0
SPLINE
  5
88
330
1F
100
AcDbEntity
  8
_U+30EC_U+30A4_U+30E4_U+30FC 1
 62
     7
420
 16777215
370
     9
100
AcDbSpline
210
0.0
220
0.0
230
1.0
 70
    11
 71
     3
 72
    17
 73
    13
 74
     0
 42
0.0000000001
 43
0.0000000001
 12
1.0
 22
0.0
 32
0.0
 13
1.0
 23
0.0
 33
0.0
 40
0.0
 40
0.0
 40
0.0
 40
0.0
 40
1.0
 40
1.0
 40
1.0
 40
2.0
 40
2.0
 40
2.0
 40
3.0
 40
3.0
 40
3.0
 40
4.0
 40
4.0
 40
4.0
 40
4.0
 10
87.37966665964787
 20
-137.139256632382
 30
0.0
 10
87.37966665964787
 20
-137.2119641323636
 30
0.0
 10
87.3204352722701
 20
-137.2715482990156
 30
0.0
 10
87.24737499635624
 20
-137.2715482990156
 30
0.0
 10
87.17399722045049
 20
-137.2715482990156
 30
0.0
 10
87.11508333306462
 20
-137.2119641323636
 30
0.0
 10
87.11508333306462
 20
-137.139256632382
 30
0.0
 10
87.11508333306462
 20
-137.0662316324001
 30
0.0
 10
87.17399722045049
 20
-137.0069649657484
 30
0.0
 10
87.24737499635624
 20
-137.0069649657484
 30
0.0
 10
87.3204352722701
 20
-137.0069649657484
 30
0.0
 10
87.37966665964787
 20
-137.0662316324001
 30
0.0
 10
87.37966665964787
 20
-137.139256632382
 30
0.0
  0
HATCH
  5
89
330
1F
100
AcDbEntity
  8
_U+30EC_U+30A4_U+30E4_U+30FC 1
 62
     7
420
 16777215
100
AcDbHatch
 10
0.0
 20
0.0
 30
0.0
210
0.0
220
0.0
230
1.0
  2
SOLID
 70
     1
 71
     0
 91
        1
 92
        1
 93
        1
 72
     4
 94
        3
 73
     0
 74
     1
 95
       17
 96
       13
 40
0.0
 40
0.0
 40
0.0
 40
0.0
 40
1.0
 40
1.0
 40
1.0
 40
2.0
 40
2.0
 40
2.0
 40
3.0
 40
3.0
 40
3.0
 40
4.0
 40
4.0
 40
4.0
 40
4.0
 10
87.37966665964787
 20
-137.139256632382
 10
87.37966665964787
 20
-137.2119641323636
 10
87.3204352722701
 20
-137.2715482990156
 10
87.24737499635624
 20
-137.2715482990156
 10
87.17399722045049
 20
-137.2715482990156
 10
87.11508333306462
 20
-137.2119641323636
 10
87.11508333306462
 20
-137.139256632382
 10
87.11508333306462
 20
-137.0662316324001
 10
87.17399722045049
 20
-137.0069649657484
 10
87.24737499635624
 20
-137.0069649657484
 10
87.3204352722701
 20
-137.0069649657484
 10
87.37966665964787
 20
-137.0662316324001
 10
87.37966665964787
 20
-137.139256632382
 97
        0
 97
        0
 75
     2
 76
     1
 98
        0
  0
SPLINE
  5
8A
330
1F
100
AcDbEntity
  8
_U+30EC_U+30A4_U+30E4_U+30FC 1
 62
     7
420
 16777215
370
     9
100
AcDbSpline
210
0.0
220
0.0
230
1.0
 70
    11
 71
     3
 72
    17
 73
    13
 74
     0
 42
0.0000000001
 43
0.0000000001
 12
1.0
 22
0.0
 32
0.0
 13
1.0
 23
0.0
 33
0.0
 40
0.0
 40
0.0
 40
0.0
 40
0.0
 40
1.0
 40
1.0
 40
1.0
 40
2.0
 40
2.0
 40
2.0
 40
3.0
 40
3.0
 40
3.0
 40
4.0
 40
4.0
 40
4.0
 40
4.0
 10
92.2524095908894
 20
-137.1165377434984
 30
0.0
 10
92.2524095908894
 20
-137.1892099657025
 30
0.0
 10
92.19318053250696
 20
-137.248829410132
 30
0.0
 10
92.12011792759778
 20
-137.248829410132
 30
0.0
 10
92.0470929294608
 20
-137.248829410132
 30
0.0
 10
91.98782626430615
 20
-137.1892099657025
 30
0.0
 10
91.98782626430615
 20
-137.1165377434984
 30
0.0
 10
91.98782626430615
 20
-137.043477465739
 30
0.0
 10
92.0470929294608
 20
-136.9842460768648
 30
0.0
 10
92.12011792759778
 20
-136.9842460768648
 30
0.0
 10
92.19318053250696
 20
-136.9842460768648
 30
0.0
 10
92.2524095908894
 20
-137.043477465739
 30
0.0
 10
92.2524095908894
 20
-137.1165377434984
 30
0.0
  0
HATCH
  5
8B
330
1F
100
AcDbEntity
  8
_U+30EC_U+30A4_U+30E4_U+30FC 1
 62
     7
420
 16777215
100
AcDbHatch
 10
0.0
 20
0.0
 30
0.0
210
0.0
220
0.0
230
1.0
  2
SOLID
 70
     1
 71
     0
 91
        1
 92
        1
 93
        1
 72
     4
 94
        3
 73
     0
 74
     1
 95
       17
 96
       13
 40
0.0
 40
0.0
 40
0.0
 40
0.0
 40
1.0
 40
1.0
 40
1.0
 40
2.0
 40
2.0
 40
2.0
 40
3.0
 40
3.0
 40
3.0
 40
4.0
 40
4.0
 40
4.0
 40
4.0
 10
92.2524095908894
 20
-137.1165377434984
 10
92.2524095908894
 20
-137.1892099657025
 10
92.19318053250696
 20
-137.248829410132
 10
92.12011792759778
 20
-137.248829410132
 10
92.0470929294608
 20
-137.248829410132
 10
91.98782626430615
 20
-137.1892099657025
 10
91.98782626430615
 20
-137.1165377434984
 10
91.98782626430615
 20
-137.043477465739
 10
92.0470929294608
 20
-136.9842460768648
 10
92.12011792759778
 20
-136.9842460768648
 10
92.19318053250696
 20
-136.9842460768648
 10
92.2524095908894
 20
-137.043477465739
 10
92.2524095908894
 20
-137.1165377434984
 97
        0
 97
        0
 75
     2
 76
     1
 98
        0
  0
INSERT
  5
8D
330
1F
100
AcDbEntity
  8
_U+30EC_U+30A4_U+30E4_U+30FC 1
100
AcDbBlockReference
  2
block 2
 10
0.0
 20
0.0
 30
0.0
  0
INSERT
  5
9D
330
1F
100
AcDbEntity
  8
_U+30EC_U+30A4_U+30E4_U+30FC 1
100
AcDbBlockReference
  2
block 3
 10
0.0
 20
0.0
 30
0.0
  0
INSERT
  5
B9
330
1F
100
AcDbEntity
  8
_U+30EC_U+30A4_U+30E4_U+30FC 1
100
AcDbBlockReference
  2
block 4
 10
0.0
 20
0.0
 30
0.0
  0
ENDSEC
  0
SECTION
  2
OBJECTS
  0
DICTIONARY
  5
C
330
0
100
AcDbDictionary
281
     1
  3
ACAD_GROUP
350
D
  3
ACAD_LAYOUT
350
1A
  3
ACAD_MATERIAL
350
3B
  3
ACAD_MLEADERSTYLE
350
CE
  3
ACAD_MLINESTYLE
350
17
  3
ACAD_PLOTSETTINGS
350
19
  3
ACAD_PLOTSTYLENAME
350
E
  3
ACAD_TABLESTYLE
350
CD
  3
ACAD_VISUALSTYLE
350
2A
  0
SUN
  5
3F
330
29
100
AcDbSun
 90
        1
290
     0
 63
     7
421
 16777215
 40
1.0
291
     1
 91
  2455826
 92
 54000000
292
     0
 70
     2
 71
   256
280
     1
  0
DICTIONARY
  5
D
102
{ACAD_REACTORS
330
C
102
}
330
C
100
AcDbDictionary
281
     1
  0
DICTIONARY
  5
1A
102
{ACAD_REACTORS
330
C
102
}
330
C
100
AcDbDictionary
281
     1
  3
Layout1
350
1E
  3
Layout2
350
26
  3
Model
350
22
  0
DICTIONARY
  5
3B
102
{ACAD_REACTORS
330
C
102
}
330
C
100
AcDbDictionary
281
     1
  3
ByBlock
350
3D
  3
ByLayer
350
3C
  3
Global
350
3E
  0
DICTIONARY
  5
CE
102
{ACAD_REACTORS
330
C
102
}
330
C
100
AcDbDictionary
281
     1
  0
DICTIONARY
  5
17
102
{ACAD_REACTORS
330
C
102
}
330
C
100
AcDbDictionary
281
     1
  3
Standard
350
18
  0
DICTIONARY
  5
19
102
{ACAD_REACTORS
330
C
102
}
330
C
100
AcDbDictionary
281
     1
  0
ACDBDICTIONARYWDFLT
  5
E
102
{ACAD_REACTORS
330
C
102
}
330
C
100
AcDbDictionary
281
     1
  3
Normal
350
F
100
AcDbDictionaryWithDefault
340
F
  0
DICTIONARY
  5
CD
102
{ACAD_REACTORS
330
C
102
}
330
C
100
AcDbDictionary
281
     1
  0
DICTIONARY
  5
2A
102
{ACAD_REACTORS
330
C
102
}
330
C
100
AcDbDictionary
281
     1
  3
2dWireframe
350
2F
  3
3D Hidden
350
31
  3
3dWireframe
350
30
  3
Basic
350
32
  3
Brighten
350
36
  3
ColorChange
350
3A
  3
Conceptual
350
34
  3
Dim
350
35
  3
Facepattern
350
39
  3
Flat
350
2B
  3
FlatWithEdges
350
2C
  3
Gouraud
350
2D
  3
GouraudWithEdges
350
2E
  3
Linepattern
350
38
  3
Realistic
350
33
  3
Thicken
350
37
  0
LAYOUT
  5
1E
102
{ACAD_REACTORS
330
1A
102
}
330
1A
100
AcDbPlotSettings
  1

  2
none_device
  4

  6

 40
0.0
 41
0.0
 42
0.0
 43
0.0
 44
0.0
 45
0.0
 46
0.0
 47
0.0
 48
0.0
 49
0.0
140
0.0
141
0.0
142
1.0
143
1.0
 70
   688
 72
     0
 73
     0
 74
     5
  7

 75
    16
 76
     0
 77
     2
 78
   300
147
1.0
148
0.0
149
0.0
100
AcDbLayout
  1
Layout1
 70
     1
 71
     1
 10
0.0
 20
0.0
 11
12.0
 21
9.0
 12
0.0
 22
0.0
 32
0.0
 14
1.000000000000000E+20
 24
1.000000000000000E+20
 34
1.000000000000000E+20
 15
-1.000000000000000E+20
 25
-1.000000000000000E+20
 35
-1.000000000000000E+20
146
0.0
 13
0.0
 23
0.0
 33
0.0
 16
1.0
 26
0.0
 36
0.0
 17
0.0
 27
1.0
 37
0.0
 76
     0
330
1B
  0
LAYOUT
  5
26
102
{ACAD_REACTORS
330
1A
102
}
330
1A
100
AcDbPlotSettings
  1

  2
none_device
  4

  6

 40
0.0
 41
0.0
 42
0.0
 43
0.0
 44
0.0
 45
0.0
 46
0.0
 47
0.0
 48
0.0
 49
0.0
140
0.0
141
0.0
142
1.0
143
1.0
 70
   688
 72
     0
 73
     0
 74
     5
  7

 75
    16
 76
     0
 77
     2
 78
   300
147
1.0
148
0.0
149
0.0
100
AcDbLayout
  1
Layout2
 70
     1
 71
     2
 10
0.0
 20
0.0
 11
0.0
 21
0.0
 12
0.0
 22
0.0
 32
0.0
 14
0.0
 24
0.0
 34
0.0
 15
0.0
 25
0.0
 35
0.0
146
0.0
 13
0.0
 23
0.0
 33
0.0
 16
1.0
 26
0.0
 36
0.0
 17
0.0
 27
1.0
 37
0.0
 76
     0
330
23
  0
LAYOUT
  5
22
102
{ACAD_REACTORS
330
1A
102
}
330
1A
100
AcDbPlotSettings
  1

  2
none_device
  4

  6

 40
0.0
 41
0.0
 42
0.0
 43
0.0
 44
0.0
 45
0.0
 46
0.0
 47
0.0
 48
0.0
 49
0.0
140
0.0
141
0.0
142
1.0
143
1.0
 70
  1712
 72
     0
 73
     0
 74
     0
  7

 75
     0
 76
     0
 77
     2
 78
   300
147
1.0
148
0.0
149
0.0
100
AcDbLayout
  1
Model
 70
     1
 71
     0
 10
0.0
 20
0.0
 11
12.0
 21
9.0
 12
0.0
 22
0.0
 32
0.0
 14
1.000000000000000E+20
 24
1.000000000000000E+20
 34
1.000000000000000E+20
 15
-1.000000000000000E+20
 25
-1.000000000000000E+20
 35
-1.000000000000000E+20
146
0.0
 13
0.0
 23
0.0
 33
0.0
 16
1.0
 26
0.0
 36
0.0
 17
0.0
 27
1.0
 37
0.0
 76
     0
330
1F
331
29
  0
MATERIAL
  5
3D
102
{ACAD_REACTORS
330
3B
102
}
330
3B
100
AcDbMaterial
  1
ByBlock
 72
     1
 94
      127
  0
MATERIAL
  5
3C
102
{ACAD_REACTORS
330
3B
102
}
330
3B
100
AcDbMaterial
  1
ByLayer
 72
     1
 94
      127
  0
MATERIAL
  5
3E
102
{ACAD_REACTORS
330
3B
102
}
330
3B
100
AcDbMaterial
  1
Global
 72
     1
 94
      127
  0
MLINESTYLE
  5
18
102
{ACAD_REACTORS
330
17
102
}
330
17
100
AcDbMlineStyle
  2
Standard
 70
     0
  3

 62
   256
 51
90.0
 52
90.0
 71
     2
 49
0.5
 62
   256
  6
BYLAYER
 49
-0.5
 62
   256
  6
BYLAYER
  0
ACDBPLACEHOLDER
  5
F
102
{ACAD_REACTORS
330
E
102
}
330
E
  0
VISUALSTYLE
  5
2F
102
{ACAD_REACTORS
330
2A
102
}
330
2A
100
AcDbVisualStyle
  2
2dWireframe
 70
     4
177
     2
291
     0
 71
     0
176
     1
 72
     2
176
     1
 73
     0
176
     1
 90
        0
176
     1
 40
-0.6
176
     1
 41
-30.0
176
     1
 62
     5
 63
     7
421
 16777215
176
     1
 74
     1
176
     1
 91
        4
176
     1
 64
     7
176
     1
 65
   257
176
     1
 75
     1
176
     1
175
     1
176
     1
 42
1.0
176
     1
 92
        0
176
     1
 66
   257
176
     1
 43
1.0
176
     1
 76
     1
176
     1
 77
     6
176
     1
 78
     2
176
     1
 67
     7
176
     1
 79
     5
176
     1
170
     0
176
     1
171
     0
176
     1
290
     0
176
     1
 93
        1
176
     1
 44
0.0
176
     1
173
     0
176
     1
  0
VISUALSTYLE
  5
31
102
{ACAD_REACTORS
330
2A
102
}
330
2A
100
AcDbVisualStyle
  2
3D Hidden
 70
     6
177
     2
291
     0
 71
     1
176
     1
 72
     2
176
     1
 73
     2
176
     1
 90
        0
176
     1
 40
-0.6
176
     1
 41
-30.0
176
     1
 62
     5
 63
     7
421
 16777215
176
     1
 74
     2
176
     1
 91
        2
176
     1
 64
     7
176
     1
 65
   257
176
     1
 75
     2
176
     1
175
     1
176
     1
 42
40.0
176
     1
 92
        0
176
     1
 66
   257
176
     1
 43
1.0
176
     1
 76
     1
176
     1
 77
     6
176
     1
 78
     2
176
     1
 67
     7
176
     1
 79
     3
176
     1
170
     0
176
     1
171
     0
176
     1
290
     0
176
     1
 93
        1
176
     1
 44
0.0
176
     1
173
     0
176
     1
  0
VISUALSTYLE
  5
30
102
{ACAD_REACTORS
330
2A
102
}
330
2A
100
AcDbVisualStyle
  2
3dWireframe
 70
     5
177
     2
291
     0
 71
     0
176
     1
 72
     2
176
     1
 73
     0
176
     1
 90
        0
176
     1
 40
-0.6
176
     1
 41
-30.0
176
     1
 62
     5
 63
     7
421
 16777215
176
     1
 74
     1
176
     1
 91
        4
176
     1
 64
     7
176
     1
 65
   257
176
     1
 75
     1
176
     1
175
     1
176
     1
 42
1.0
176
     1
 92
        0
176
     1
 66
   257
176
     1
 43
1.0
176
     1
 76
     1
176
     1
 77
     6
176
     1
 78
     2
176
     1
 67
     7
176
     1
 79
     5
176
     1
170
     0
176
     1
171
     0
176
     1
290
     0
176
     1
 93
        1
176
     1
 44
0.0
176
     1
173
     0
176
     1
  0
VISUALSTYLE
  5
32
102
{ACAD_REACTORS
330
2A
102
}
330
2A
100
AcDbVisualStyle
  2
Basic
 70
     7
177
     2
291
     1
 71
     1
176
     1
 72
     0
176
     1
 73
     1
176
     1
 90
        0
176
     1
 40
-0.6
176
     1
 41
-30.0
176
     1
 62
     5
 63
     7
421
 16777215
176
     1
 74
     0
176
     1
 91
        4
176
     1
 64
     7
176
     1
 65
   257
176
     1
 75
     1
176
     1
175
     1
176
     1
 42
1.0
176
     1
 92
        8
176
     1
 66
     7
176
     1
 43
1.0
176
     1
 76
     1
176
     1
 77
     6
176
     1
 78
     2
176
     1
 67
     7
176
     1
 79
     5
176
     1
170
     0
176
     1
171
     0
176
     1
290
     0
176
     1
 93
        1
176
     1
 44
0.0
176
     1
173
     0
176
     1
  0
VISUALSTYLE
  5
36
102
{ACAD_REACTORS
330
2A
102
}
330
2A
100
AcDbVisualStyle
  2
Brighten
 70
    12
177
     2
291
     1
 71
     2
176
     1
 72
     2
176
     1
 73
     0
176
     1
 90
        0
176
     1
 40
-0.6
176
     1
 41
-30.0
176
     1
 62
     5
 63
     7
421
 16777215
176
     1
 74
     1
176
     1
 91
        4
176
     1
 64
     7
176
     1
 65
   257
176
     1
 75
     1
176
     1
175
     1
176
     1
 42
1.0
176
     1
 92
        8
176
     1
 66
     7
176
     1
 43
1.0
176
     1
 76
     1
176
     1
 77
     6
176
     1
 78
     2
176
     1
 67
     7
176
     1
 79
     5
176
     1
170
     0
176
     1
171
     0
176
     1
290
     0
176
     1
 93
        1
176
     1
 44
50.0
176
     1
173
     0
176
     1
  0
VISUALSTYLE
  5
3A
102
{ACAD_REACTORS
330
2A
102
}
330
2A
100
AcDbVisualStyle
  2
ColorChange
 70
    16
177
     2
291
     1
 71
     2
176
     1
 72
     2
176
     1
 73
     3
176
     1
 90
        0
176
     1
 40
-0.6
176
     1
 41
-30.0
176
     1
 62
     5
 63
     8
421
  8421504
176
     1
 74
     1
176
     1
 91
        4
176
     1
 64
     7
176
     1
 65
   257
176
     1
 75
     1
176
     1
175
     1
176
     1
 42
1.0
176
     1
 92
        8
176
     1
 66
     8
424
  8421504
176
     1
 43
1.0
176
     1
 76
     1
176
     1
 77
     6
176
     1
 78
     2
176
     1
 67
     7
176
     1
 79
     5
176
     1
170
     0
176
     1
171
     0
176
     1
290
     0
176
     1
 93
        1
176
     1
 44
0.0
176
     1
173
     0
176
     1
  0
VISUALSTYLE
  5
34
102
{ACAD_REACTORS
330
2A
102
}
330
2A
100
AcDbVisualStyle
  2
Conceptual
 70
     9
177
     2
291
     0
 71
     3
176
     1
 72
     2
176
     1
 73
     0
176
     1
 90
        0
176
     1
 40
-0.6
176
     1
 41
-30.0
176
     1
 62
     5
 63
     7
421
 16777215
176
     1
 74
     2
176
     1
 91
        2
176
     1
 64
     7
176
     1
 65
   257
176
     1
 75
     1
176
     1
175
     1
176
     1
 42
40.0
176
     1
 92
        8
176
     1
 66
     7
176
     1
 43
1.0
176
     1
 76
     1
176
     1
 77
     6
176
     1
 78
     2
176
     1
 67
     7
176
     1
 79
     3
176
     1
170
     0
176
     1
171
     0
176
     1
290
     0
176
     1
 93
        1
176
     1
 44
0.0
176
     1
173
     0
176
     1
  0
VISUALSTYLE
  5
35
102
{ACAD_REACTORS
330
2A
102
}
330
2A
100
AcDbVisualStyle
  2
Dim
 70
    11
177
     2
291
     1
 71
     2
176
     1
 72
     2
176
     1
 73
     0
176
     1
 90
        0
176
     1
 40
-0.6
176
     1
 41
-30.0
176
     1
 62
     5
 63
     7
421
 16777215
176
     1
 74
     1
176
     1
 91
        4
176
     1
 64
     7
176
     1
 65
   257
176
     1
 75
     1
176
     1
175
     1
176
     1
 42
1.0
176
     1
 92
        8
176
     1
 66
     7
176
     1
 43
1.0
176
     1
 76
     1
176
     1
 77
     6
176
     1
 78
     2
176
     1
 67
     7
176
     1
 79
     5
176
     1
170
     0
176
     1
171
     0
176
     1
290
     0
176
     1
 93
        1
176
     1
 44
-50.0
176
     1
173
     0
176
     1
  0
VISUALSTYLE
  5
39
102
{ACAD_REACTORS
330
2A
102
}
330
2A
100
AcDbVisualStyle
  2
Facepattern
 70
    15
177
     2
291
     1
 71
     2
176
     1
 72
     2
176
     1
 73
     0
176
     1
 90
        0
176
     1
 40
-0.6
176
     1
 41
-30.0
176
     1
 62
     5
 63
     7
421
 16777215
176
     1
 74
     1
176
     1
 91
        4
176
     1
 64
     7
176
     1
 65
   257
176
     1
 75
     1
176
     1
175
     1
176
     1
 42
1.0
176
     1
 92
        8
176
     1
 66
     7
176
     1
 43
1.0
176
     1
 76
     1
176
     1
 77
     6
176
     1
 78
     2
176
     1
 67
     7
176
     1
 79
     5
176
     1
170
     0
176
     1
171
     0
176
     1
290
     0
176
     1
 93
        1
176
     1
 44
0.0
176
     1
173
     0
176
     1
  0
VISUALSTYLE
  5
2B
102
{ACAD_REACTORS
330
2A
102
}
330
2A
100
AcDbVisualStyle
  2
Flat
 70
     0
177
     2
291
     1
 71
     2
176
     1
 72
     1
176
     1
 73
     1
176
     1
 90
        2
176
     1
 40
-0.6
176
     1
 41
30.0
176
     1
 62
     5
 63
     7
421
 16777215
176
     1
 74
     0
176
     1
 91
        4
176
     1
 64
     7
176
     1
 65
   257
176
     1
 75
     1
176
     1
175
     1
176
     1
 42
1.0
176
     1
 92
        8
176
     1
 66
     7
176
     1
 43
1.0
176
     1
 76
     1
176
     1
 77
     6
176
     1
 78
     2
176
     1
 67
     7
176
     1
 79
     5
176
     1
170
     0
176
     1
171
     0
176
     1
290
     0
176
     1
 93
       13
176
     1
 44
0.0
176
     1
173
     0
176
     1
  0
VISUALSTYLE
  5
2C
102
{ACAD_REACTORS
330
2A
102
}
330
2A
100
AcDbVisualStyle
  2
FlatWithEdges
 70
     1
177
     2
291
     1
 71
     2
176
     1
 72
     1
176
     1
 73
     1
176
     1
 90
        2
176
     1
 40
-0.6
176
     1
 41
30.0
176
     1
 62
     5
 63
     7
421
 16777215
176
     1
 74
     1
176
     1
 91
        4
176
     1
 64
     7
176
     1
 65
   257
176
     1
 75
     1
176
     1
175
     1
176
     1
 42
1.0
176
     1
 92
        0
176
     1
 66
   257
176
     1
 43
1.0
176
     1
 76
     1
176
     1
 77
     6
176
     1
 78
     2
176
     1
 67
     7
176
     1
 79
     5
176
     1
170
     0
176
     1
171
     0
176
     1
290
     0
176
     1
 93
       13
176
     1
 44
0.0
176
     1
173
     0
176
     1
  0
VISUALSTYLE
  5
2D
102
{ACAD_REACTORS
330
2A
102
}
330
2A
100
AcDbVisualStyle
  2
Gouraud
 70
     2
177
     2
291
     1
 71
     2
176
     1
 72
     2
176
     1
 73
     1
176
     1
 90
        2
176
     1
 40
-0.6
176
     1
 41
30.0
176
     1
 62
     5
 63
     7
421
 16777215
176
     1
 74
     0
176
     1
 91
        4
176
     1
 64
     7
176
     1
 65
   257
176
     1
 75
     1
176
     1
175
     1
176
     1
 42
1.0
176
     1
 92
        0
176
     1
 66
     7
176
     1
 43
1.0
176
     1
 76
     1
176
     1
 77
     6
176
     1
 78
     2
176
     1
 67
     7
176
     1
 79
     5
176
     1
170
     0
176
     1
171
     0
176
     1
290
     0
176
     1
 93
       13
176
     1
 44
0.0
176
     1
173
     0
176
     1
  0
VISUALSTYLE
  5
2E
102
{ACAD_REACTORS
330
2A
102
}
330
2A
100
AcDbVisualStyle
  2
GouraudWithEdges
 70
     3
177
     2
291
     1
 71
     2
176
     1
 72
     2
176
     1
 73
     1
176
     1
 90
        2
176
     1
 40
-0.6
176
     1
 41
30.0
176
     1
 62
     5
 63
     7
421
 16777215
176
     1
 74
     1
176
     1
 91
        4
176
     1
 64
     7
176
     1
 65
   257
176
     1
 75
     1
176
     1
175
     1
176
     1
 42
1.0
176
     1
 92
        0
176
     1
 66
   257
176
     1
 43
1.0
176
     1
 76
     1
176
     1
 77
     6
176
     1
 78
     2
176
     1
 67
     7
176
     1
 79
     5
176
     1
170
     0
176
     1
171
     0
176
     1
290
     0
176
     1
 93
       13
176
     1
 44
0.0
176
     1
173
     0
176
     1
  0
VISUALSTYLE
  5
38
102
{ACAD_REACTORS
330
2A
102
}
330
2A
100
AcDbVisualStyle
  2
Linepattern
 70
    14
177
     2
291
     1
 71
     2
176
     1
 72
     2
176
     1
 73
     0
176
     1
 90
        0
176
     1
 40
-0.6
176
     1
 41
-30.0
176
     1
 62
     5
 63
     7
421
 16777215
176
     1
 74
     1
176
     1
 91
        4
176
     1
 64
     7
176
     1
 65
   257
176
     1
 75
     7
176
     1
175
     7
176
     1
 42
1.0
176
     1
 92
        8
176
     1
 66
     7
176
     1
 43
1.0
176
     1
 76
     1
176
     1
 77
     6
176
     1
 78
     2
176
     1
 67
     7
176
     1
 79
     5
176
     1
170
     0
176
     1
171
     0
176
     1
290
     0
176
     1
 93
        1
176
     1
 44
0.0
176
     1
173
     0
176
     1
  0
VISUALSTYLE
  5
33
102
{ACAD_REACTORS
330
2A
102
}
330
2A
100
AcDbVisualStyle
  2
Realistic
 70
     8
177
     2
291
     0
 71
     2
176
     1
 72
     2
176
     1
 73
     0
176
     1
 90
        0
176
     1
 40
-0.6
176
     1
 41
-30.0
176
     1
 62
     5
 63
     7
421
 16777215
176
     1
 74
     1
176
     1
 91
        0
176
     1
 64
     7
176
     1
 65
   257
176
     1
 75
     1
176
     1
175
     1
176
     1
 42
1.0
176
     1
 92
        8
176
     1
 66
     8
424
  7895160
176
     1
 43
1.0
176
     1
 76
     1
176
     1
 77
     6
176
     1
 78
     2
176
     1
 67
     7
176
     1
 79
     5
176
     1
170
     0
176
     1
171
     0
176
     1
290
     0
176
     1
 93
       13
176
     1
 44
0.0
176
     1
173
     0
176
     1
  0
VISUALSTYLE
  5
37
102
{ACAD_REACTORS
330
2A
102
}
330
2A
100
AcDbVisualStyle
  2
Thicken
 70
    13
177
     2
291
     1
 71
     2
176
     1
 72
     2
176
     1
 73
     0
176
     1
 90
        0
176
     1
 40
-0.6
176
     1
 41
-30.0
176
     1
 62
     5
 63
     7
421
 16777215
176
     1
 74
     1
176
     1
 91
        4
176
     1
 64
     7
176
     1
 65
   257
176
     1
 75
     1
176
     1
175
     1
176
     1
 42
1.0
176
     1
 92
       12
176
     1
 66
     7
176
     1
 43
1.0
176
     1
 76
     1
176
     1
 77
     6
176
     1
 78
     2
176
     1
 67
     7
176
     1
 79
     5
176
     1
170
     0
176
     1
171
     0
176
     1
290
     0
176
     1
 93
        1
176
     1
 44
0.0
176
     1
173
     0
176
     1
  0
ENDSEC
  0
EOF
