  0
SECTION
  2
HEADER
  9
$ACADVER
  1
AC1024
  9
$ACADMAINTVER
 70
     6
  9
$DWGCODEPAGE
  3
UNDEFINED
  9
$INSBASE
 10
0.0
 20
0.0
 30
0.0
  9
$EXTMIN
 10
1.000000000000000E+20
 20
1.000000000000000E+20
 30
1.000000000000000E+20
  9
$EXTMAX
 10
-1.000000000000000E+20
 20
-1.000000000000000E+20
 30
-1.000000000000000E+20
  9
$LIMMIN
 10
0.0
 20
0.0
  9
$LIMMAX
 10
12.0
 20
9.0
  9
$ORTHOMODE
 70
     0
  9
$REGENMODE
 70
     1
  9
$FILLMODE
 70
     1
  9
$QTEXTMODE
 70
     0
  9
$MIRRTEXT
 70
     1
  9
$LTSCALE
 40
1.0
  9
$ATTMODE
 70
     1
  9
$TEXTSIZE
 40
0.2
  9
$TRACEWID
 40
0.05
  9
$TEXTSTYLE
  7
Standard
  9
$CLAYER
  8
0
  9
$CELTYPE
  6
ByLayer
  9
$CECOLOR
 62
   256
  9
$CELTSCALE
 40
1.0
  9
$DISPSILH
 70
     0
  9
$DIMSCALE
 40
1.0
  9
$DIMASZ
 40
0.18
  9
$DIMEXO
 40
0.0625
  9
$DIMDLI
 40
0.38
  9
$DIMRND
 40
0.0
  9
$DIMDLE
 40
0.0
  9
$DIMEXE
 40
0.18
  9
$DIMTP
 40
0.0
  9
$DIMTM
 40
0.0
  9
$DIMTXT
 40
0.18
  9
$DIMCEN
 40
0.09
  9
$DIMTSZ
 40
0.0
  9
$DIMTOL
 70
     0
  9
$DIMLIM
 70
     0
  9
$DIMTIH
 70
     1
  9
$DIMTOH
 70
     1
  9
$DIMSE1
 70
     0
  9
$DIMSE2
 70
     0
  9
$DIMTAD
 70
     0
  9
$DIMZIN
 70
     0
  9
$DIMBLK
  1

  9
$DIMASO
 70
     1
  9
$DIMSHO
 70
     1
  9
$DIMPOST
  1

  9
$DIMAPOST
  1

  9
$DIMALT
 70
     0
  9
$DIMALTD
 70
     2
  9
$DIMALTF
 40
25.4
  9
$DIMLFAC
 40
1.0
  9
$DIMTOFL
 70
     0
  9
$DIMTVP
 40
0.0
  9
$DIMTIX
 70
     0
  9
$DIMSOXD
 70
     0
  9
$DIMSAH
 70
     0
  9
$DIMBLK1
  1

  9
$DIMBLK2
  1

  9
$DIMSTYLE
  2
Standard
  9
$DIMCLRD
 70
     0
  9
$DIMCLRE
 70
     0
  9
$DIMCLRT
 70
     0
  9
$DIMTFAC
 40
1.0
  9
$DIMGAP
 40
0.09
  9
$DIMJUST
 70
     0
  9
$DIMSD1
 70
     0
  9
$DIMSD2
 70
     0
  9
$DIMTOLJ
 70
     1
  9
$DIMTZIN
 70
     0
  9
$DIMALTZ
 70
     0
  9
$DIMALTTZ
 70
     0
  9
$DIMUPT
 70
     0
  9
$DIMDEC
 70
     4
  9
$DIMTDEC
 70
     4
  9
$DIMALTU
 70
     2
  9
$DIMALTTD
 70
     2
  9
$DIMTXSTY
  7
Standard
  9
$DIMAUNIT
 70
     0
  9
$DIMADEC
 70
     0
  9
$DIMALTRND
 40
0.0
  9
$DIMAZIN
 70
     0
  9
$DIMDSEP
 70
    46
  9
$DIMATFIT
 70
     3
  9
$DIMFRAC
 70
     0
  9
$DIMLDRBLK
  1

  9
$DIMLUNIT
 70
     2
  9
$DIMLWD
 70
    -2
  9
$DIMLWE
 70
    -2
  9
$DIMTMOVE
 70
     0
  9
$DIMFXL
 40
1.0
  9
$DIMFXLON
 70
     0
  9
$DIMJOGANG
 40
0.7853981633974483
  9
$DIMTFILL
 70
     0
  9
$DIMTFILLCLR
 70
     0
  9
$DIMARCSYM
 70
     0
  9
$DIMLTYPE
  6

  9
$DIMLTEX1
  6

  9
$DIMLTEX2
  6

  9
$DIMTXTDIRECTION
 70
     0
  9
$LUNITS
 70
     2
  9
$LUPREC
 70
     4
  9
$SKETCHINC
 40
0.1
  9
$FILLETRAD
 40
0.5
  9
$AUNITS
 70
     0
  9
$AUPREC
 70
     0
  9
$MENU
  1
.
  9
$ELEVATION
 40
0.0
  9
$PELEVATION
 40
0.0
  9
$THICKNESS
 40
0.0
  9
$LIMCHECK
 70
     0
  9
$CHAMFERA
 40
0.5
  9
$CHAMFERB
 40
0.5
  9
$CHAMFERC
 40
1.0
  9
$CHAMFERD
 40
0.0
  9
$SKPOLY
 70
     0
  9
$TDCREATE
 40
2457917.607743056
  9
$TDUCREATE
 40
2457917.232743056
  9
$TDUPDATE
 40
2457917.607743056
  9
$TDUUPDATE
 40
2457917.232743056
  9
$TDINDWG
 40
0.0000000116
  9
$TDUSRTIMER
 40
0.0000000116
  9
$USRTIMER
 70
     1
  9
$ANGBASE
 50
0.0
  9
$ANGDIR
 70
     0
  9
$PDMODE
 70
     0
  9
$PDSIZE
 40
0.0
  9
$PLINEWID
 40
0.0
  9
$SPLFRAME
 70
     0
  9
$SPLINETYPE
 70
     6
  9
$SPLINESEGS
 70
     8
  9
$HANDSEED
  5
D4
  9
$SURFTAB1
 70
     6
  9
$SURFTAB2
 70
     6
  9
$SURFTYPE
 70
     6
  9
$SURFU
 70
     6
  9
$SURFV
 70
     6
  9
$UCSBASE
  2

  9
$UCSNAME
  2

  9
$UCSORG
 10
0.0
 20
0.0
 30
0.0
  9
$UCSXDIR
 10
1.0
 20
0.0
 30
0.0
  9
$UCSYDIR
 10
0.0
 20
1.0
 30
0.0
  9
$UCSORTHOREF
  2

  9
$UCSORTHOVIEW
 70
     0
  9
$UCSORGTOP
 10
0.0
 20
0.0
 30
0.0
  9
$UCSORGBOTTOM
 10
0.0
 20
0.0
 30
0.0
  9
$UCSORGLEFT
 10
0.0
 20
0.0
 30
0.0
  9
$UCSORGRIGHT
 10
0.0
 20
0.0
 30
0.0
  9
$UCSORGFRONT
 10
0.0
 20
0.0
 30
0.0
  9
$UCSORGBACK
 10
0.0
 20
0.0
 30
0.0
  9
$PUCSBASE
  2

  9
$PUCSNAME
  2

  9
$PUCSORG
 10
0.0
 20
0.0
 30
0.0
  9
$PUCSXDIR
 10
1.0
 20
0.0
 30
0.0
  9
$PUCSYDIR
 10
0.0
 20
1.0
 30
0.0
  9
$PUCSORTHOREF
  2

  9
$PUCSORTHOVIEW
 70
     0
  9
$PUCSORGTOP
 10
0.0
 20
0.0
 30
0.0
  9
$PUCSORGBOTTOM
 10
0.0
 20
0.0
 30
0.0
  9
$PUCSORGLEFT
 10
0.0
 20
0.0
 30
0.0
  9
$PUCSORGRIGHT
 10
0.0
 20
0.0
 30
0.0
  9
$PUCSORGFRONT
 10
0.0
 20
0.0
 30
0.0
  9
$PUCSORGBACK
 10
0.0
 20
0.0
 30
0.0
  9
$USERI1
 70
     0
  9
$USERI2
 70
     0
  9
$USERI3
 70
     0
  9
$USERI4
 70
     0
  9
$USERI5
 70
     0
  9
$USERR1
 40
0.0
  9
$USERR2
 40
0.0
  9
$USERR3
 40
0.0
  9
$USERR4
 40
0.0
  9
$USERR5
 40
0.0
  9
$WORLDVIEW
 70
     1
  9
$SHADEDGE
 70
     3
  9
$SHADEDIF
 70
    70
  9
$TILEMODE
 70
     1
  9
$MAXACTVP
 70
    64
  9
$PINSBASE
 10
0.0
 20
0.0
 30
0.0
  9
$PLIMCHECK
 70
     0
  9
$PEXTMIN
 10
1.000000000000000E+20
 20
1.000000000000000E+20
 30
1.000000000000000E+20
  9
$PEXTMAX
 10
-1.000000000000000E+20
 20
-1.000000000000000E+20
 30
-1.000000000000000E+20
  9
$PLIMMIN
 10
0.0
 20
0.0
  9
$PLIMMAX
 10
12.0
 20
9.0
  9
$UNITMODE
 70
     0
  9
$VISRETAIN
 70
     1
  9
$PLINEGEN
 70
     0
  9
$PSLTSCALE
 70
     1
  9
$TREEDEPTH
 70
  3020
  9
$CMLSTYLE
  2
Standard
  9
$CMLJUST
 70
     0
  9
$CMLSCALE
 40
1.0
  9
$PROXYGRAPHICS
 70
     1
  9
$MEASUREMENT
 70
     0
  9
$CELWEIGHT
370
    -1
  9
$ENDCAPS
280
     0
  9
$JOINSTYLE
280
     0
  9
$LWDISPLAY
290
     1
  9
$INSUNITS
 70
     1
  9
$HYPERLINKBASE
  1

  9
$STYLESHEET
  1

  9
$XEDIT
290
     1
  9
$CEPSNTYPE
380
     0
  9
$PSTYLEMODE
290
     1
  9
$FINGERPRINTGUID
  2
{A7B3D490-0EB6-A977-521B-B17B060692AA}
  9
$VERSIONGUID
  2
{FAEB1C32-E019-11D5-929B-00C0DF256EC4}
  9
$EXTNAMES
290
     1
  9
$PSVPSCALE
 40
0.0
  9
$OLESTARTUP
290
     0
  9
$SORTENTS
280
   127
  9
$INDEXCTL
280
     0
  9
$HIDETEXT
280
     1
  9
$XCLIPFRAME
280
     2
  9
$HALOGAP
280
     0
  9
$OBSCOLOR
 70
   257
  9
$OBSLTYPE
280
     0
  9
$INTERSECTIONDISPLAY
280
     0
  9
$INTERSECTIONCOLOR
 70
   257
  9
$DIMASSOC
280
     2
  9
$PROJECTNAME
  1

  9
$CAMERADISPLAY
290
     0
  9
$LENSLENGTH
 40
50.0
  9
$CAMERAHEIGHT
 40
0.0
  9
$STEPSPERSEC
 40
2.0
  9
$STEPSIZE
 40
6.0
  9
$3DDWFPREC
 40
2.0
  9
$PSOLWIDTH
 40
0.25
  9
$PSOLHEIGHT
 40
4.0
  9
$LOFTANG1
 40
1.570796326794897
  9
$LOFTANG2
 40
1.570796326794897
  9
$LOFTMAG1
 40
0.0
  9
$LOFTMAG2
 40
0.0
  9
$LOFTPARAM
 70
     7
  9
$LOFTNORMALS
280
     1
  9
$LATITUDE
 40
37.795
  9
$LONGITUDE
 40
-122.394
  9
$NORTHDIRECTION
 40
0.0
  9
$TIMEZONE
 70
 -8000
  9
$LIGHTGLYPHDISPLAY
280
     1
  9
$TILEMODELIGHTSYNCH
280
     1
  9
$CMATERIAL
347
3C
  9
$SOLIDHIST
280
     1
  9
$SHOWHIST
280
     1
  9
$DWFFRAME
280
     2
  9
$DGNFRAME
280
     2
  9
$REALWORLDSCALE
290
     1
  9
$INTERFERECOLOR
 62
   256
  9
$CSHADOW
280
     0
  9
$SHADOWPLANELOCATION
 40
0.0
  0
ENDSEC
  0
SECTION
  2
CLASSES
  0
CLASS
  1
ACDBDICTIONARYWDFLT
  2
AcDbDictionaryWithDefault
  3
ObjectDBX Classes
 90
        0
 91
        4
280
     0
281
     0
  0
CLASS
  1
VISUALSTYLE
  2
AcDbVisualStyle
  3
ObjectDBX Classes
 90
     4095
 91
        4
280
     0
281
     0
  0
CLASS
  1
MATERIAL
  2
AcDbMaterial
  3
ObjectDBX Classes
 90
     1153
 91
        4
280
     0
281
     0
  0
CLASS
  1
SUN
  2
AcDbSun
  3
SCENEOE
 90
     1024
 91
        4
280
     0
281
     0
  0
ENDSEC
  0
SECTION
  2
TABLES
  0
TABLE
  2
VPORT
  5
8
330
0
100
AcDbSymbolTable
 70
     1
  0
VPORT
  5
29
330
8
100
AcDbSymbolTableRecord
100
AcDbViewportTableRecord
  2
*Active
 70
     0
 10
0.0
 20
0.0
 11
1.0
 21
1.0
 12
0.0
 22
0.0
 13
0.0
 23
0.0
 14
0.5
 24
0.5
 15
0.5
 25
0.5
 16
0.0
 26
0.0
 36
1.0
 17
91.00082462281999
 27
-128.4993055234307
 37
0.0
 40
256.9986110468615
 41
0.7081814508812795
 42
50.0
 43
0.0
 44
0.0
 50
0.0
 51
0.0
 71
     0
 72
   100
 73
     1
 74
     3
 75
     0
 76
     0
 77
     0
 78
     0
281
     0
 65
     1
110
0.0
120
0.0
130
0.0
111
1.0
121
0.0
131
0.0
112
0.0
122
1.0
132
0.0
 79
     0
146
0.0
 60
     3
 61
     5
292
     1
282
     1
141
0.0
142
0.0
 63
   250
361
3F
  0
ENDTAB
  0
TABLE
  2
LTYPE
  5
5
330
0
100
AcDbSymbolTable
 70
     1
  0
LTYPE
  5
14
330
5
100
AcDbSymbolTableRecord
100
AcDbLinetypeTableRecord
  2
ByBlock
 70
     0
  3

 72
    65
 73
     0
 40
0.0
  0
LTYPE
  5
15
330
5
100
AcDbSymbolTableRecord
100
AcDbLinetypeTableRecord
  2
ByLayer
 70
     0
  3

 72
    65
 73
     0
 40
0.0
  0
LTYPE
  5
16
330
5
100
AcDbSymbolTableRecord
100
AcDbLinetypeTableRecord
  2
Continuous
 70
     0
  3
Solid line
 72
    65
 73
     0
 40
0.0
  0
ENDTAB
  0
TABLE
  2
LAYER
  5
2
330
0
100
AcDbSymbolTable
 70
     2
  0
LAYER
  5
10
330
2
100
AcDbSymbolTableRecord
100
AcDbLayerTableRecord
  2
0
 70
     0
 62
     7
  6
Continuous
370
    -3
390
F
347
3E
  0
LAYER
  5
40
330
2
100
AcDbSymbolTableRecord
100
AcDbLayerTableRecord
  2
_U+30EC_U+30A4_U+30E4_U+30FC 1
 70
     0
 62
     7
  6
Continuous
370
    -3
390
F
347
3E
  0
ENDTAB
  0
TABLE
  2
STYLE
  5
3
330
0
100
AcDbSymbolTable
 70
     1
  0
STYLE
  5
11
330
3
100
AcDbSymbolTableRecord
100
AcDbTextStyleTableRecord
  2
Standard
 70
     0
 40
0.0
 41
1.0
 50
0.0
 71
     0
 42
0.2
  3
txt
  4

  0
ENDTAB
  0
TABLE
  2
VIEW
  5
6
330
0
100
AcDbSymbolTable
 70
     0
  0
ENDTAB
  0
TABLE
  2
UCS
  5
7
330
0
100
AcDbSymbolTable
 70
     0
  0
ENDTAB
  0
TABLE
  2
APPID
  5
9
330
0
100
AcDbSymbolTable
 70
     1
  0
APPID
  5
12
330
9
100
AcDbSymbolTableRecord
100
AcDbRegAppTableRecord
  2
ACAD
 70
     0
  0
ENDTAB
  0
TABLE
  2
DIMSTYLE
  5
A
330
0
100
AcDbSymbolTable
 70
     1
100
AcDbDimStyleTable
  0
DIMSTYLE
105
27
330
A
100
AcDbSymbolTableRecord
100
AcDbDimStyleTableRecord
  2
Standard
 70
     0
178
     0
340
11
  0
ENDTAB
  0
TABLE
  2
BLOCK_RECORD
  5
1
330
0
100
AcDbSymbolTable
 70
     6
  0
BLOCK_RECORD
  5
1F
330
1
100
AcDbSymbolTableRecord
100
AcDbBlockTableRecord
  2
*Model_Space
340
22
 70
     0
280
     1
281
     0
  0
BLOCK_RECORD
  5
1B
330
1
100
AcDbSymbolTableRecord
100
AcDbBlockTableRecord
  2
*Paper_Space
340
1E
 70
     0
280
     1
281
     0
  0
BLOCK_RECORD
  5
23
330
1
100
AcDbSymbolTableRecord
100
AcDbBlockTableRecord
  2
*Paper_Space0
340
26
 70
     0
280
     1
281
     0
  0
BLOCK_RECORD
  5
8C
330
1
100
AcDbSymbolTableRecord
100
AcDbBlockTableRecord
  2
block 2
340
0
102
{BLKREFS
331
8D
102
}
 70
     0
280
     1
281
     0
  0
BLOCK_RECORD
  5
94
330
1
100
AcDbSymbolTableRecord
100
AcDbBlockTableRecord
  2
block 3
340
0
102
{BLKREFS
331
95
102
}
 70
     0
280
     1
281
     0
  0
BLOCK_RECORD
  5
9C
330
1
100
AcDbSymbolTableRecord
100
AcDbBlockTableRecord
  2
block 4
340
0
102
{BLKREFS
331
9D
102
}
 70
     0
280
     1
281
     0
  0
BLOCK_RECORD
  5
AE
330
1
100
AcDbSymbolTableRecord
100
AcDbBlockTableRecord
  2
block 5
340
0
102
{BLKREFS
331
AF
102
}
 70
     0
280
     1
281
     0
  0
BLOCK_RECORD
  5
C0
330
1
100
AcDbSymbolTableRecord
100
AcDbBlockTableRecord
  2
block 6
340
0
102
{BLKREFS
331
C1
102
}
 70
     0
280
     1
281
     0
  0
ENDTAB
  0
ENDSEC
  0
SECTION
  2
BLOCKS
  0
BLOCK
  5
20
330
1F
100
AcDbEntity
  8
0
100
AcDbBlockBegin
  2
*Model_Space
 70
     0
 10
0.0
 20
0.0
 30
0.0
  3
*Model_Space
  1

  0
ENDBLK
  5
21
330
1F
100
AcDbEntity
  8
0
100
AcDbBlockEnd
  0
BLOCK
  5
1C
330
1B
100
AcDbEntity
 67
     1
  8
0
100
AcDbBlockBegin
  2
*Paper_Space
 70
     0
 10
0.0
 20
0.0
 30
0.0
  3
*Paper_Space
  1

  0
ENDBLK
  5
1D
330
1B
100
AcDbEntity
 67
     1
  8
0
100
AcDbBlockEnd
  0
BLOCK
  5
24
330
23
100
AcDbEntity
  8
0
100
AcDbBlockBegin
  2
*Paper_Space0
 70
     0
 10
0.0
 20
0.0
 30
0.0
  3
*Paper_Space0
  1

  0
ENDBLK
  5
25
330
23
100
AcDbEntity
  8
0
100
AcDbBlockEnd
  0
BLOCK
  5
8E
330
8C
100
AcDbEntity
  8
0
100
AcDbBlockBegin
  2
block 2
 70
     0
 10
0.0
 20
0.0
 30
0.0
  3
block 2
  1

  0
SPLINE
  5
90
330
8C
100
AcDbEntity
  8
_U+30EC_U+30A4_U+30E4_U+30FC 1
370
     0
100
AcDbSpline
210
0.0
220
0.0
230
1.0
 70
    11
 71
     3
 72
    26
 73
    22
 74
     0
 42
0.0000000001
 43
0.0000000001
 12
1.0
 22
0.0
 32
0.0
 13
1.0
 23
0.0
 33
0.0
 40
0.0
 40
0.0
 40
0.0
 40
0.0
 40
1.0
 40
1.0
 40
1.0
 40
2.0
 40
2.0
 40
2.0
 40
3.0
 40
3.0
 40
3.0
 40
4.0
 40
4.0
 40
4.0
 40
5.0
 40
5.0
 40
5.0
 40
6.0
 40
6.0
 40
6.0
 40
7.0
 40
7.0
 40
7.0
 40
7.0
 10
100.5079047057758
 20
-139.3751274608159
 30
0.0
 10
100.5079047057758
 20
-139.3751274608159
 30
0.0
 10
99.40375160275323
 20
-139.3751274608159
 30
0.0
 10
99.40375160275323
 20
-139.3751274608159
 30
0.0
 10
99.40375160275323
 20
-139.3751274608159
 30
0.0
 10
99.40375160275323
 20
-139.7051676083029
 30
0.0
 10
99.40375160275323
 20
-139.7051676083029
 30
0.0
 10
99.40375160275323
 20
-139.7051676083029
 30
0.0
 10
99.2556124968875
 20
-139.7051676083029
 30
0.0
 10
99.2556124968875
 20
-139.7051676083029
 30
0.0
 10
99.24079858630091
 20
-139.3730604035248
 30
0.0
 10
99.0778455698486
 20
-139.3265516144739
 30
0.0
 10
98.9634683997383
 20
-139.2969237933008
 30
0.0
 10
98.9634683997383
 20
-139.2969237933008
 30
0.0
 10
98.9634683997383
 20
-139.1508517447262
 30
0.0
 10
98.9634683997383
 20
-139.1508517447262
 30
0.0
 10
98.9634683997383
 20
-139.1508517447262
 30
0.0
 10
100.5079047057758
 20
-139.1508517447262
 30
0.0
 10
100.5079047057758
 20
-139.1508517447262
 30
0.0
 10
100.5079047057758
 20
-139.1508517447262
 30
0.0
 10
100.5079047057758
 20
-139.3751274608159
 30
0.0
 10
100.5079047057758
 20
-139.3751274608159
 30
0.0
  0
HATCH
  5
91
330
8C
100
AcDbEntity
  8
_U+30EC_U+30A4_U+30E4_U+30FC 1
 62
   179
420
  2234388
100
AcDbHatch
 10
0.0
 20
0.0
 30
0.0
210
0.0
220
0.0
230
1.0
  2
SOLID
 70
     1
 71
     0
 91
        1
 92
        1
 93
        1
 72
     4
 94
        3
 73
     0
 74
     1
 95
       26
 96
       22
 40
0.0
 40
0.0
 40
0.0
 40
0.0
 40
1.0
 40
1.0
 40
1.0
 40
2.0
 40
2.0
 40
2.0
 40
3.0
 40
3.0
 40
3.0
 40
4.0
 40
4.0
 40
4.0
 40
5.0
 40
5.0
 40
5.0
 40
6.0
 40
6.0
 40
6.0
 40
7.0
 40
7.0
 40
7.0
 40
7.0
 10
100.5079047057758
 20
-139.3751274608159
 10
100.5079047057758
 20
-139.3751274608159
 10
99.40375160275323
 20
-139.3751274608159
 10
99.40375160275323
 20
-139.3751274608159
 10
99.40375160275323
 20
-139.3751274608159
 10
99.40375160275323
 20
-139.7051676083029
 10
99.40375160275323
 20
-139.7051676083029
 10
99.40375160275323
 20
-139.7051676083029
 10
99.2556124968875
 20
-139.7051676083029
 10
99.2556124968875
 20
-139.7051676083029
 10
99.24079858630091
 20
-139.3730604035248
 10
99.0778455698486
 20
-139.3265516144739
 10
98.9634683997383
 20
-139.2969237933008
 10
98.9634683997383
 20
-139.2969237933008
 10
98.9634683997383
 20
-139.1508517447262
 10
98.9634683997383
 20
-139.1508517447262
 10
98.9634683997383
 20
-139.1508517447262
 10
100.5079047057758
 20
-139.1508517447262
 10
100.5079047057758
 20
-139.1508517447262
 10
100.5079047057758
 20
-139.1508517447262
 10
100.5079047057758
 20
-139.3751274608159
 10
100.5079047057758
 20
-139.3751274608159
 97
        0
 97
        0
 75
     2
 76
     1
 98
        0
  0
SPLINE
  5
92
330
8C
100
AcDbEntity
  8
_U+30EC_U+30A4_U+30E4_U+30FC 1
370
     0
100
AcDbSpline
210
0.0
220
0.0
230
1.0
 70
    11
 71
     3
 72
    44
 73
    40
 74
     0
 42
0.0000000001
 43
0.0000000001
 12
1.0
 22
0.0
 32
0.0
 13
1.0
 23
0.0
 33
0.0
 40
0.0
 40
0.0
 40
0.0
 40
0.0
 40
1.0
 40
1.0
 40
1.0
 40
2.0
 40
2.0
 40
2.0
 40
3.0
 40
3.0
 40
3.0
 40
4.0
 40
4.0
 40
4.0
 40
5.0
 40
5.0
 40
5.0
 40
6.0
 40
6.0
 40
6.0
 40
7.0
 40
7.0
 40
7.0
 40
8.0
 40
8.0
 40
8.0
 40
9.0
 40
9.0
 40
9.0
 40
10.0
 40
10.0
 40
10.0
 40
11.0
 40
11.0
 40
11.0
 40
12.0
 40
12.0
 40
12.0
 40
13.0
 40
13.0
 40
13.0
 40
13.0
 10
99.9260280783171
 20
-138.0566894186108
 30
0.0
 10
100.0848469801871
 20
-138.2744194532786
 30
0.0
 10
100.15891653312
 20
-138.3674370313804
 30
0.0
 10
100.3025770148549
 20
-138.4163573872709
 30
0.0
 10
100.3025770148549
 20
-138.4163573872709
 30
0.0
 10
100.3025770148549
 20
-137.6377658076045
 30
0.0
 10
100.3025770148549
 20
-137.6377658076045
 30
0.0
 10
100.3025770148549
 20
-137.6377658076045
 30
0.0
 10
100.5079047057758
 20
-137.6377658076045
 30
0.0
 10
100.5079047057758
 20
-137.6377658076045
 30
0.0
 10
100.5079047057758
 20
-137.6377658076045
 30
0.0
 10
100.5079047057758
 20
-138.665782300403
 30
0.0
 10
100.5079047057758
 20
-138.665782300403
 30
0.0
 10
100.1503037944069
 20
-138.6340874219387
 30
0.0
 10
100.0721001268917
 20
-138.568630607719
 30
0.0
 10
99.77375485786906
 20
-138.183468932468
 30
0.0
 10
99.57497284837015
 20
-137.927498337914
 30
0.0
 10
99.50710446731073
 20
-137.8620415236942
 30
0.0
 10
99.36964515744926
 20
-137.8620415236942
 30
0.0
 10
99.25113387275667
 20
-137.8620415236942
 30
0.0
 10
99.12022024431717
 20
-137.9340440193359
 30
0.0
 10
99.12022024431717
 20
-138.1307589715437
 30
0.0
 10
99.12022024431717
 20
-138.3908636806801
 30
0.0
 10
99.35069713228039
 20
-138.3991319098447
 30
0.0
 10
99.46714135968183
 20
-138.4036105339755
 30
0.0
 10
99.46714135968183
 20
-138.4036105339755
 30
0.0
 10
99.46714135968183
 20
-138.6278862500652
 30
0.0
 10
99.46714135968183
 20
-138.6278862500652
 30
0.0
 10
99.3400173362761
 20
-138.6192735113521
 30
0.0
 10
99.22805173300549
 20
-138.6085937153479
 30
0.0
 10
99.1095404483129
 20
-138.5283229905415
 30
0.0
 10
98.94865448915174
 20
-138.4184244445621
 30
0.0
 10
98.91489255339629
 20
-138.2320447788101
 30
0.0
 10
98.91489255339629
 20
-138.1159450609571
 30
0.0
 10
98.91489255339629
 20
-137.8386148743945
 30
0.0
 10
99.09886065230862
 20
-137.6312201261825
 30
0.0
 10
99.37171221474041
 20
-137.6312201261825
 30
0.0
 10
99.600466554961
 20
-137.6312201261825
 30
0.0
 10
99.6996853049362
 20
-137.7476643535839
 30
0.0
 10
99.9260280783171
 20
-138.0566894186108
 30
0.0
  0
HATCH
  5
93
330
8C
100
AcDbEntity
  8
_U+30EC_U+30A4_U+30E4_U+30FC 1
 62
   179
420
  2234388
100
AcDbHatch
 10
0.0
 20
0.0
 30
0.0
210
0.0
220
0.0
230
1.0
  2
SOLID
 70
     1
 71
     0
 91
        1
 92
        1
 93
        1
 72
     4
 94
        3
 73
     0
 74
     1
 95
       44
 96
       40
 40
0.0
 40
0.0
 40
0.0
 40
0.0
 40
1.0
 40
1.0
 40
1.0
 40
2.0
 40
2.0
 40
2.0
 40
3.0
 40
3.0
 40
3.0
 40
4.0
 40
4.0
 40
4.0
 40
5.0
 40
5.0
 40
5.0
 40
6.0
 40
6.0
 40
6.0
 40
7.0
 40
7.0
 40
7.0
 40
8.0
 40
8.0
 40
8.0
 40
9.0
 40
9.0
 40
9.0
 40
10.0
 40
10.0
 40
10.0
 40
11.0
 40
11.0
 40
11.0
 40
12.0
 40
12.0
 40
12.0
 40
13.0
 40
13.0
 40
13.0
 40
13.0
 10
99.9260280783171
 20
-138.0566894186108
 10
100.0848469801871
 20
-138.2744194532786
 10
100.15891653312
 20
-138.3674370313804
 10
100.3025770148549
 20
-138.4163573872709
 10
100.3025770148549
 20
-138.4163573872709
 10
100.3025770148549
 20
-137.6377658076045
 10
100.3025770148549
 20
-137.6377658076045
 10
100.3025770148549
 20
-137.6377658076045
 10
100.5079047057758
 20
-137.6377658076045
 10
100.5079047057758
 20
-137.6377658076045
 10
100.5079047057758
 20
-137.6377658076045
 10
100.5079047057758
 20
-138.665782300403
 10
100.5079047057758
 20
-138.665782300403
 10
100.1503037944069
 20
-138.6340874219387
 10
100.0721001268917
 20
-138.568630607719
 10
99.77375485786906
 20
-138.183468932468
 10
99.57497284837015
 20
-137.927498337914
 10
99.50710446731073
 20
-137.8620415236942
 10
99.36964515744926
 20
-137.8620415236942
 10
99.25113387275667
 20
-137.8620415236942
 10
99.12022024431717
 20
-137.9340440193359
 10
99.12022024431717
 20
-138.1307589715437
 10
99.12022024431717
 20
-138.3908636806801
 10
99.35069713228039
 20
-138.3991319098447
 10
99.46714135968183
 20
-138.4036105339755
 10
99.46714135968183
 20
-138.4036105339755
 10
99.46714135968183
 20
-138.6278862500652
 10
99.46714135968183
 20
-138.6278862500652
 10
99.3400173362761
 20
-138.6192735113521
 10
99.22805173300549
 20
-138.6085937153479
 10
99.1095404483129
 20
-138.5283229905415
 10
98.94865448915174
 20
-138.4184244445621
 10
98.91489255339629
 20
-138.2320447788101
 10
98.91489255339629
 20
-138.1159450609571
 10
98.91489255339629
 20
-137.8386148743945
 10
99.09886065230862
 20
-137.6312201261825
 10
99.37171221474041
 20
-137.6312201261825
 10
99.600466554961
 20
-137.6312201261825
 10
99.6996853049362
 20
-137.7476643535839
 10
99.9260280783171
 20
-138.0566894186108
 97
        0
 97
        0
 75
     2
 76
     1
 98
        0
  0
ENDBLK
  5
8F
330
8C
100
AcDbEntity
  8
0
100
AcDbBlockEnd
  0
BLOCK
  5
96
330
94
100
AcDbEntity
  8
0
100
AcDbBlockBegin
  2
block 3
 70
     0
 10
0.0
 20
0.0
 30
0.0
  3
block 3
  1

  0
SPLINE
  5
98
330
94
100
AcDbEntity
  8
_U+30EC_U+30A4_U+30E4_U+30FC 1
370
     0
100
AcDbSpline
210
0.0
220
0.0
230
1.0
 70
    11
 71
     3
 72
    26
 73
    22
 74
     0
 42
0.0000000001
 43
0.0000000001
 12
1.0
 22
0.0
 32
0.0
 13
1.0
 23
0.0
 33
0.0
 40
0.0
 40
0.0
 40
0.0
 40
0.0
 40
1.0
 40
1.0
 40
1.0
 40
2.0
 40
2.0
 40
2.0
 40
3.0
 40
3.0
 40
3.0
 40
4.0
 40
4.0
 40
4.0
 40
5.0
 40
5.0
 40
5.0
 40
6.0
 40
6.0
 40
6.0
 40
7.0
 40
7.0
 40
7.0
 40
7.0
 10
100.5079047057758
 20
-131.4431396155767
 30
0.0
 10
100.5079047057758
 20
-131.4431396155767
 30
0.0
 10
99.40375160275323
 20
-131.4431396155767
 30
0.0
 10
99.40375160275323
 20
-131.4431396155767
 30
0.0
 10
99.40375160275323
 20
-131.4431396155767
 30
0.0
 10
99.40375160275323
 20
-131.7731797630637
 30
0.0
 10
99.40375160275323
 20
-131.7731797630637
 30
0.0
 10
99.40375160275323
 20
-131.7731797630637
 30
0.0
 10
99.2556124968875
 20
-131.7731797630637
 30
0.0
 10
99.2556124968875
 20
-131.7731797630637
 30
0.0
 10
99.24079858630091
 20
-131.4410725582856
 30
0.0
 10
99.0778455698486
 20
-131.3945637692347
 30
0.0
 10
98.9634683997383
 20
-131.3649359480615
 30
0.0
 10
98.9634683997383
 20
-131.3649359480615
 30
0.0
 10
98.9634683997383
 20
-131.218863899487
 30
0.0
 10
98.9634683997383
 20
-131.218863899487
 30
0.0
 10
98.9634683997383
 20
-131.218863899487
 30
0.0
 10
100.5079047057758
 20
-131.218863899487
 30
0.0
 10
100.5079047057758
 20
-131.218863899487
 30
0.0
 10
100.5079047057758
 20
-131.218863899487
 30
0.0
 10
100.5079047057758
 20
-131.4431396155767
 30
0.0
 10
100.5079047057758
 20
-131.4431396155767
 30
0.0
  0
HATCH
  5
99
330
94
100
AcDbEntity
  8
_U+30EC_U+30A4_U+30E4_U+30FC 1
 62
   179
420
  2234388
100
AcDbHatch
 10
0.0
 20
0.0
 30
0.0
210
0.0
220
0.0
230
1.0
  2
SOLID
 70
     1
 71
     0
 91
        1
 92
        1
 93
        1
 72
     4
 94
        3
 73
     0
 74
     1
 95
       26
 96
       22
 40
0.0
 40
0.0
 40
0.0
 40
0.0
 40
1.0
 40
1.0
 40
1.0
 40
2.0
 40
2.0
 40
2.0
 40
3.0
 40
3.0
 40
3.0
 40
4.0
 40
4.0
 40
4.0
 40
5.0
 40
5.0
 40
5.0
 40
6.0
 40
6.0
 40
6.0
 40
7.0
 40
7.0
 40
7.0
 40
7.0
 10
100.5079047057758
 20
-131.4431396155767
 10
100.5079047057758
 20
-131.4431396155767
 10
99.40375160275323
 20
-131.4431396155767
 10
99.40375160275323
 20
-131.4431396155767
 10
99.40375160275323
 20
-131.4431396155767
 10
99.40375160275323
 20
-131.7731797630637
 10
99.40375160275323
 20
-131.7731797630637
 10
99.40375160275323
 20
-131.7731797630637
 10
99.2556124968875
 20
-131.7731797630637
 10
99.2556124968875
 20
-131.7731797630637
 10
99.24079858630091
 20
-131.4410725582856
 10
99.0778455698486
 20
-131.3945637692347
 10
98.9634683997383
 20
-131.3649359480615
 10
98.9634683997383
 20
-131.3649359480615
 10
98.9634683997383
 20
-131.218863899487
 10
98.9634683997383
 20
-131.218863899487
 10
98.9634683997383
 20
-131.218863899487
 10
100.5079047057758
 20
-131.218863899487
 10
100.5079047057758
 20
-131.218863899487
 10
100.5079047057758
 20
-131.218863899487
 10
100.5079047057758
 20
-131.4431396155767
 10
100.5079047057758
 20
-131.4431396155767
 97
        0
 97
        0
 75
     2
 76
     1
 98
        0
  0
SPLINE
  5
9A
330
94
100
AcDbEntity
  8
_U+30EC_U+30A4_U+30E4_U+30FC 1
370
     0
100
AcDbSpline
210
0.0
220
0.0
230
1.0
 70
    11
 71
     3
 72
    26
 73
    22
 74
     0
 42
0.0000000001
 43
0.0000000001
 12
1.0
 22
0.0
 32
0.0
 13
1.0
 23
0.0
 33
0.0
 40
0.0
 40
0.0
 40
0.0
 40
0.0
 40
1.0
 40
1.0
 40
1.0
 40
2.0
 40
2.0
 40
2.0
 40
3.0
 40
3.0
 40
3.0
 40
4.0
 40
4.0
 40
4.0
 40
5.0
 40
5.0
 40
5.0
 40
6.0
 40
6.0
 40
6.0
 40
7.0
 40
7.0
 40
7.0
 40
7.0
 10
100.5079047057758
 20
-130.2662949978154
 30
0.0
 10
100.5079047057758
 20
-130.2662949978154
 30
0.0
 10
99.40375160275323
 20
-130.2662949978154
 30
0.0
 10
99.40375160275323
 20
-130.2662949978154
 30
0.0
 10
99.40375160275323
 20
-130.2662949978154
 30
0.0
 10
99.40375160275323
 20
-130.5963351453023
 30
0.0
 10
99.40375160275323
 20
-130.5963351453023
 30
0.0
 10
99.40375160275323
 20
-130.5963351453023
 30
0.0
 10
99.2556124968875
 20
-130.5963351453023
 30
0.0
 10
99.2556124968875
 20
-130.5963351453023
 30
0.0
 10
99.24079858630091
 20
-130.2642279405242
 30
0.0
 10
99.0778455698486
 20
-130.2177191514733
 30
0.0
 10
98.9634683997383
 20
-130.1880913303002
 30
0.0
 10
98.9634683997383
 20
-130.1880913303002
 30
0.0
 10
98.9634683997383
 20
-130.0420192817256
 30
0.0
 10
98.9634683997383
 20
-130.0420192817256
 30
0.0
 10
98.9634683997383
 20
-130.0420192817256
 30
0.0
 10
100.5079047057758
 20
-130.0420192817256
 30
0.0
 10
100.5079047057758
 20
-130.0420192817256
 30
0.0
 10
100.5079047057758
 20
-130.0420192817256
 30
0.0
 10
100.5079047057758
 20
-130.2662949978154
 30
0.0
 10
100.5079047057758
 20
-130.2662949978154
 30
0.0
  0
HATCH
  5
9B
330
94
100
AcDbEntity
  8
_U+30EC_U+30A4_U+30E4_U+30FC 1
 62
   179
420
  2234388
100
AcDbHatch
 10
0.0
 20
0.0
 30
0.0
210
0.0
220
0.0
230
1.0
  2
SOLID
 70
     1
 71
     0
 91
        1
 92
        1
 93
        1
 72
     4
 94
        3
 73
     0
 74
     1
 95
       26
 96
       22
 40
0.0
 40
0.0
 40
0.0
 40
0.0
 40
1.0
 40
1.0
 40
1.0
 40
2.0
 40
2.0
 40
2.0
 40
3.0
 40
3.0
 40
3.0
 40
4.0
 40
4.0
 40
4.0
 40
5.0
 40
5.0
 40
5.0
 40
6.0
 40
6.0
 40
6.0
 40
7.0
 40
7.0
 40
7.0
 40
7.0
 10
100.5079047057758
 20
-130.2662949978154
 10
100.5079047057758
 20
-130.2662949978154
 10
99.40375160275323
 20
-130.2662949978154
 10
99.40375160275323
 20
-130.2662949978154
 10
99.40375160275323
 20
-130.2662949978154
 10
99.40375160275323
 20
-130.5963351453023
 10
99.40375160275323
 20
-130.5963351453023
 10
99.40375160275323
 20
-130.5963351453023
 10
99.2556124968875
 20
-130.5963351453023
 10
99.2556124968875
 20
-130.5963351453023
 10
99.24079858630091
 20
-130.2642279405242
 10
99.0778455698486
 20
-130.2177191514733
 10
98.9634683997383
 20
-130.1880913303002
 10
98.9634683997383
 20
-130.1880913303002
 10
98.9634683997383
 20
-130.0420192817256
 10
98.9634683997383
 20
-130.0420192817256
 10
98.9634683997383
 20
-130.0420192817256
 10
100.5079047057758
 20
-130.0420192817256
 10
100.5079047057758
 20
-130.0420192817256
 10
100.5079047057758
 20
-130.0420192817256
 10
100.5079047057758
 20
-130.2662949978154
 10
100.5079047057758
 20
-130.2662949978154
 97
        0
 97
        0
 75
     2
 76
     1
 98
        0
  0
ENDBLK
  5
97
330
94
100
AcDbEntity
  8
0
100
AcDbBlockEnd
  0
BLOCK
  5
9E
330
9C
100
AcDbEntity
  8
0
100
AcDbBlockBegin
  2
block 4
 70
     0
 10
0.0
 20
0.0
 30
0.0
  3
block 4
  1

  0
SPLINE
  5
A0
330
9C
100
AcDbEntity
  8
_U+30EC_U+30A4_U+30E4_U+30FC 1
370
     0
100
AcDbSpline
210
0.0
220
0.0
230
1.0
 70
    11
 71
     3
 72
    29
 73
    25
 74
     0
 42
0.0000000001
 43
0.0000000001
 12
1.0
 22
0.0
 32
0.0
 13
1.0
 23
0.0
 33
0.0
 40
0.0
 40
0.0
 40
0.0
 40
0.0
 40
1.0
 40
1.0
 40
1.0
 40
2.0
 40
2.0
 40
2.0
 40
3.0
 40
3.0
 40
3.0
 40
4.0
 40
4.0
 40
4.0
 40
5.0
 40
5.0
 40
5.0
 40
6.0
 40
6.0
 40
6.0
 40
7.0
 40
7.0
 40
7.0
 40
8.0
 40
8.0
 40
8.0
 40
8.0
 10
100.558547609409
 20
-124.6483777900185
 30
0.0
 10
100.558547609409
 20
-124.9148559258025
 30
0.0
 10
100.4210882995475
 20
-125.1687594630655
 30
0.0
 10
100.0721001268917
 20
-125.1687594630655
 30
0.0
 10
99.81612953233764
 20
-125.1687594630655
 30
0.0
 10
99.72104489694475
 20
-125.0269937838474
 30
0.0
 10
99.6597221973073
 20
-124.9212293524503
 30
0.0
 10
99.600466554961
 20
-125.0461140637906
 30
0.0
 10
99.4860893848507
 20
-125.1222506740146
 30
0.0
 10
99.32520342568954
 20
-125.1222506740146
 30
0.0
 10
99.0502848059666
 20
-125.1222506740146
 30
0.0
 10
98.91489255339629
 20
-124.9232964097414
 30
0.0
 10
98.91489255339629
 20
-124.6483777900185
 30
0.0
 10
98.91489255339629
 20
-124.3648464315824
 30
0.0
 10
99.05889754467972
 20
-124.1745049060223
 30
0.0
 10
99.32520342568954
 20
-124.1745049060223
 30
0.0
 10
99.4860893848507
 20
-124.1745049060223
 30
0.0
 10
99.600466554961
 20
-124.2527085735375
 30
0.0
 10
99.6597221973073
 20
-124.3775932848778
 30
0.0
 10
99.71036510094046
 20
-124.2887098213584
 30
0.0
 10
99.80544973633336
 20
-124.1300631742626
 30
0.0
 10
100.0679660123094
 20
-124.1300631742626
 30
0.0
 10
100.4424478915561
 20
-124.1300631742626
 30
0.0
 10
100.558547609409
 20
-124.4092881633421
 30
0.0
 10
100.558547609409
 20
-124.6483777900185
 30
0.0
  0
SPLINE
  5
A1
330
9C
100
AcDbEntity
  8
_U+30EC_U+30A4_U+30E4_U+30FC 1
370
     0
100
AcDbSpline
210
0.0
220
0.0
230
1.0
 70
    11
 71
     3
 72
    17
 73
    13
 74
     0
 42
0.0000000001
 43
0.0000000001
 12
1.0
 22
0.0
 32
0.0
 13
1.0
 23
0.0
 33
0.0
 40
0.0
 40
0.0
 40
0.0
 40
0.0
 40
1.0
 40
1.0
 40
1.0
 40
2.0
 40
2.0
 40
2.0
 40
3.0
 40
3.0
 40
3.0
 40
4.0
 40
4.0
 40
4.0
 40
4.0
 10
99.10747339102174
 20
-124.6483777900185
 30
0.0
 10
99.10747339102174
 20
-124.8133978637619
 30
0.0
 10
99.20255802641465
 20
-124.8979749579248
 30
0.0
 10
99.33795027898496
 20
-124.8979749579248
 30
0.0
 10
99.46059567825985
 20
-124.8979749579248
 30
0.0
 10
99.57910696295245
 20
-124.8259724622831
 30
0.0
 10
99.57910696295245
 20
-124.6483777900185
 30
0.0
 10
99.57910696295245
 20
-124.4706108629796
 30
0.0
 10
99.46059567825985
 20
-124.3987806221121
 30
0.0
 10
99.33795027898496
 20
-124.3987806221121
 30
0.0
 10
99.20255802641465
 20
-124.3987806221121
 30
0.0
 10
99.10747339102174
 20
-124.4854247735662
 30
0.0
 10
99.10747339102174
 20
-124.6483777900185
 30
0.0
  0
SPLINE
  5
A2
330
9C
100
AcDbEntity
  8
_U+30EC_U+30A4_U+30E4_U+30FC 1
370
     0
100
AcDbSpline
210
0.0
220
0.0
230
1.0
 70
    11
 71
     3
 72
    17
 73
    13
 74
     0
 42
0.0000000001
 43
0.0000000001
 12
1.0
 22
0.0
 32
0.0
 13
1.0
 23
0.0
 33
0.0
 40
0.0
 40
0.0
 40
0.0
 40
0.0
 40
1.0
 40
1.0
 40
1.0
 40
2.0
 40
2.0
 40
2.0
 40
3.0
 40
3.0
 40
3.0
 40
4.0
 40
4.0
 40
4.0
 40
4.0
 10
99.76755368599562
 20
-124.6483777900185
 30
0.0
 10
99.76755368599562
 20
-124.7922105265277
 30
0.0
 10
99.85437009222392
 20
-124.9444837469757
 30
0.0
 10
100.0572862163051
 20
-124.9444837469757
 30
0.0
 10
100.262613907226
 20
-124.9444837469757
 30
0.0
 10
100.3638997144924
 20
-124.8175319783442
 30
0.0
 10
100.3638997144924
 20
-124.6483777900185
 30
0.0
 10
100.3638997144924
 20
-124.4621703790407
 30
0.0
 10
100.2412543152175
 20
-124.352099578287
 30
0.0
 10
100.0634873881786
 20
-124.352099578287
 30
0.0
 10
99.84162323892849
 20
-124.352099578287
 30
0.0
 10
99.76755368599562
 20
-124.5150525947393
 30
0.0
 10
99.76755368599562
 20
-124.6483777900185
 30
0.0
  0
HATCH
  5
A3
330
9C
100
AcDbEntity
  8
_U+30EC_U+30A4_U+30E4_U+30FC 1
 62
   179
420
  2234388
100
AcDbHatch
 10
0.0
 20
0.0
 30
0.0
210
0.0
220
0.0
230
1.0
  2
SOLID
 70
     1
 71
     0
 91
        3
 92
        1
 93
        1
 72
     4
 94
        3
 73
     0
 74
     1
 95
       29
 96
       25
 40
0.0
 40
0.0
 40
0.0
 40
0.0
 40
1.0
 40
1.0
 40
1.0
 40
2.0
 40
2.0
 40
2.0
 40
3.0
 40
3.0
 40
3.0
 40
4.0
 40
4.0
 40
4.0
 40
5.0
 40
5.0
 40
5.0
 40
6.0
 40
6.0
 40
6.0
 40
7.0
 40
7.0
 40
7.0
 40
8.0
 40
8.0
 40
8.0
 40
8.0
 10
100.558547609409
 20
-124.6483777900185
 10
100.558547609409
 20
-124.9148559258025
 10
100.4210882995475
 20
-125.1687594630655
 10
100.0721001268917
 20
-125.1687594630655
 10
99.81612953233764
 20
-125.1687594630655
 10
99.72104489694475
 20
-125.0269937838474
 10
99.6597221973073
 20
-124.9212293524503
 10
99.600466554961
 20
-125.0461140637906
 10
99.4860893848507
 20
-125.1222506740146
 10
99.32520342568954
 20
-125.1222506740146
 10
99.0502848059666
 20
-125.1222506740146
 10
98.91489255339629
 20
-124.9232964097414
 10
98.91489255339629
 20
-124.6483777900185
 10
98.91489255339629
 20
-124.3648464315824
 10
99.05889754467972
 20
-124.1745049060223
 10
99.32520342568954
 20
-124.1745049060223
 10
99.4860893848507
 20
-124.1745049060223
 10
99.600466554961
 20
-124.2527085735375
 10
99.6597221973073
 20
-124.3775932848778
 10
99.71036510094046
 20
-124.2887098213584
 10
99.80544973633336
 20
-124.1300631742626
 10
100.0679660123094
 20
-124.1300631742626
 10
100.4424478915561
 20
-124.1300631742626
 10
100.558547609409
 20
-124.4092881633421
 10
100.558547609409
 20
-124.6483777900185
 97
        0
 97
        0
 92
        1
 93
        1
 72
     4
 94
        3
 73
     0
 74
     1
 95
       17
 96
       13
 40
0.0
 40
0.0
 40
0.0
 40
0.0
 40
1.0
 40
1.0
 40
1.0
 40
2.0
 40
2.0
 40
2.0
 40
3.0
 40
3.0
 40
3.0
 40
4.0
 40
4.0
 40
4.0
 40
4.0
 10
99.10747339102174
 20
-124.6483777900185
 10
99.10747339102174
 20
-124.8133978637619
 10
99.20255802641465
 20
-124.8979749579248
 10
99.33795027898496
 20
-124.8979749579248
 10
99.46059567825985
 20
-124.8979749579248
 10
99.57910696295245
 20
-124.8259724622831
 10
99.57910696295245
 20
-124.6483777900185
 10
99.57910696295245
 20
-124.4706108629796
 10
99.46059567825985
 20
-124.3987806221121
 10
99.33795027898496
 20
-124.3987806221121
 10
99.20255802641465
 20
-124.3987806221121
 10
99.10747339102174
 20
-124.4854247735662
 10
99.10747339102174
 20
-124.6483777900185
 97
        0
 97
        0
 92
        1
 93
        1
 72
     4
 94
        3
 73
     0
 74
     1
 95
       17
 96
       13
 40
0.0
 40
0.0
 40
0.0
 40
0.0
 40
1.0
 40
1.0
 40
1.0
 40
2.0
 40
2.0
 40
2.0
 40
3.0
 40
3.0
 40
3.0
 40
4.0
 40
4.0
 40
4.0
 40
4.0
 10
99.76755368599562
 20
-124.6483777900185
 10
99.76755368599562
 20
-124.7922105265277
 10
99.85437009222392
 20
-124.9444837469757
 10
100.0572862163051
 20
-124.9444837469757
 10
100.262613907226
 20
-124.9444837469757
 10
100.3638997144924
 20
-124.8175319783442
 10
100.3638997144924
 20
-124.6483777900185
 10
100.3638997144924
 20
-124.4621703790407
 10
100.2412543152175
 20
-124.352099578287
 10
100.0634873881786
 20
-124.352099578287
 10
99.84162323892849
 20
-124.352099578287
 10
99.76755368599562
 20
-124.5150525947393
 10
99.76755368599562
 20
-124.6483777900185
 97
        0
 97
        0
 75
     2
 76
     1
 98
        0
  0
POLYLINE
  5
A4
330
9C
100
AcDbEntity
  8
_U+30EC_U+30A4_U+30E4_U+30FC 1
370
     0
100
AcDb2dPolyline
 66
     1
 10
0.0
 20
0.0
 30
0.0
  0
VERTEX
  5
A5
330
A4
100
AcDbEntity
  8
_U+30EC_U+30A4_U+30E4_U+30FC 1
370
     0
100
AcDbVertex
100
AcDb2dVertex
 10
100.5079047057758
 20
-123.9114718657235
 30
0.0
  0
VERTEX
  5
A6
330
A4
100
AcDbEntity
  8
_U+30EC_U+30A4_U+30E4_U+30FC 1
370
     0
100
AcDbVertex
100
AcDb2dVertex
 10
100.256068225804
 20
-123.9114718657235
 30
0.0
  0
VERTEX
  5
A7
330
A4
100
AcDbEntity
  8
_U+30EC_U+30A4_U+30E4_U+30FC 1
370
     0
100
AcDbVertex
100
AcDb2dVertex
 10
100.256068225804
 20
-123.659807640526
 30
0.0
  0
VERTEX
  5
A8
330
A4
100
AcDbEntity
  8
_U+30EC_U+30A4_U+30E4_U+30FC 1
370
     0
100
AcDbVertex
100
AcDb2dVertex
 10
100.5079047057758
 20
-123.659807640526
 30
0.0
  0
VERTEX
  5
A9
330
A4
100
AcDbEntity
  8
_U+30EC_U+30A4_U+30E4_U+30FC 1
370
     0
100
AcDbVertex
100
AcDb2dVertex
 10
100.5079047057758
 20
-123.9114718657235
 30
0.0
  0
SEQEND
  5
AA
330
A4
100
AcDbEntity
  8
_U+30EC_U+30A4_U+30E4_U+30FC 1
370
     0
  0
HATCH
  5
AB
330
9C
100
AcDbEntity
  8
_U+30EC_U+30A4_U+30E4_U+30FC 1
 62
   179
420
  2234388
100
AcDbHatch
 10
0.0
 20
0.0
 30
0.0
210
0.0
220
0.0
230
1.0
  2
SOLID
 70
     1
 71
     0
 91
        1
 92
        1
 93
        4
 72
     1
 10
100.5079047057758
 20
-123.9114718657235
 11
100.256068225804
 21
-123.9114718657235
 72
     1
 10
100.256068225804
 20
-123.9114718657235
 11
100.256068225804
 21
-123.659807640526
 72
     1
 10
100.256068225804
 20
-123.659807640526
 11
100.5079047057758
 21
-123.659807640526
 72
     1
 10
100.5079047057758
 20
-123.659807640526
 11
100.5079047057758
 21
-123.9114718657235
 97
        0
 75
     2
 76
     1
 98
        0
  0
SPLINE
  5
AC
330
9C
100
AcDbEntity
  8
_U+30EC_U+30A4_U+30E4_U+30FC 1
370
     0
100
AcDbSpline
210
0.0
220
0.0
230
1.0
 70
    11
 71
     3
 72
    53
 73
    49
 74
     0
 42
0.0000000001
 43
0.0000000001
 12
1.0
 22
0.0
 32
0.0
 13
1.0
 23
0.0
 33
0.0
 40
0.0
 40
0.0
 40
0.0
 40
0.0
 40
1.0
 40
1.0
 40
1.0
 40
2.0
 40
2.0
 40
2.0
 40
3.0
 40
3.0
 40
3.0
 40
4.0
 40
4.0
 40
4.0
 40
5.0
 40
5.0
 40
5.0
 40
6.0
 40
6.0
 40
6.0
 40
7.0
 40
7.0
 40
7.0
 40
8.0
 40
8.0
 40
8.0
 40
9.0
 40
9.0
 40
9.0
 40
10.0
 40
10.0
 40
10.0
 40
11.0
 40
11.0
 40
11.0
 40
12.0
 40
12.0
 40
12.0
 40
13.0
 40
13.0
 40
13.0
 40
14.0
 40
14.0
 40
14.0
 40
15.0
 40
15.0
 40
15.0
 40
16.0
 40
16.0
 40
16.0
 40
16.0
 10
100.558547609409
 20
-122.9421942509485
 30
0.0
 10
100.558547609409
 20
-123.0205701732379
 30
0.0
 10
100.5416666415313
 20
-123.1220282352785
 30
0.0
 10
100.4782768846027
 20
-123.2236585520934
 30
0.0
 10
100.3683783386232
 20
-123.3971191097757
 30
0.0
 10
100.2371202006352
 20
-123.41830644701
 30
0.0
 10
100.1292887119469
 20
-123.4372544721789
 30
0.0
 10
100.1292887119469
 20
-123.4372544721789
 30
0.0
 10
100.1292887119469
 20
-123.2152180681545
 30
0.0
 10
100.1292887119469
 20
-123.2152180681545
 30
0.0
 10
100.3280707214458
 20
-123.1600965403905
 30
0.0
 10
100.3576985426189
 20
-123.0331447717591
 30
0.0
 10
100.3576985426189
 20
-122.9401271936573
 30
0.0
 10
100.3576985426189
 20
-122.8004285717304
 30
0.0
 10
100.2581352830952
 20
-122.6481553512824
 30
0.0
 10
100.0255913378408
 20
-122.6481553512824
 30
0.0
 10
99.76962074328677
 20
-122.6481553512824
 30
0.0
 10
99.6996853049362
 20
-122.8279893356125
 30
0.0
 10
99.6996853049362
 20
-122.9485676775962
 30
0.0
 10
99.6996853049362
 20
-122.9802625560605
 30
0.0
 10
99.6996853049362
 20
-123.1220282352785
 30
0.0
 10
99.82887638563307
 20
-123.210911698798
 30
0.0
 10
99.82887638563307
 20
-123.210911698798
 30
0.0
 10
99.80992836046418
 20
-123.3864393137714
 30
0.0
 10
99.80992836046418
 20
-123.3864393137714
 30
0.0
 10
99.80992836046418
 20
-123.3864393137714
 30
0.0
 10
98.9634683997383
 20
-123.2658609717877
 30
0.0
 10
98.9634683997383
 20
-123.2658609717877
 30
0.0
 10
98.9634683997383
 20
-123.2658609717877
 30
0.0
 10
98.9634683997383
 20
-122.4874416468955
 30
0.0
 10
98.9634683997383
 20
-122.4874416468955
 30
0.0
 10
98.9634683997383
 20
-122.4874416468955
 30
0.0
 10
99.15811629465492
 20
-122.4874416468955
 30
0.0
 10
99.15811629465492
 20
-122.4874416468955
 30
0.0
 10
99.15811629465492
 20
-122.4874416468955
 30
0.0
 10
99.15811629465492
 20
-123.1030802101097
 30
0.0
 10
99.15811629465492
 20
-123.1030802101097
 30
0.0
 10
99.15811629465492
 20
-123.1030802101097
 30
0.0
 10
99.5811740202436
 20
-123.1685370243294
 30
0.0
 10
99.5811740202436
 20
-123.1685370243294
 30
0.0
 10
99.54741208448816
 20
-123.107214324692
 30
0.0
 10
99.50710446731073
 20
-123.0247042878202
 30
0.0
 10
99.50710446731073
 20
-122.9063652579019
 30
0.0
 10
99.50710446731073
 20
-122.652461720639
 30
0.0
 10
99.69348413306274
 20
-122.4154391512538
 30
0.0
 10
100.006643312672
 20
-122.4154391512538
 30
0.0
 10
100.3239366068635
 20
-122.4154391512538
 30
0.0
 10
100.558547609409
 20
-122.6397148673435
 30
0.0
 10
100.558547609409
 20
-122.9421942509485
 30
0.0
  0
HATCH
  5
AD
330
9C
100
AcDbEntity
  8
_U+30EC_U+30A4_U+30E4_U+30FC 1
 62
   179
420
  2234388
100
AcDbHatch
 10
0.0
 20
0.0
 30
0.0
210
0.0
220
0.0
230
1.0
  2
SOLID
 70
     1
 71
     0
 91
        1
 92
        1
 93
        1
 72
     4
 94
        3
 73
     0
 74
     1
 95
       53
 96
       49
 40
0.0
 40
0.0
 40
0.0
 40
0.0
 40
1.0
 40
1.0
 40
1.0
 40
2.0
 40
2.0
 40
2.0
 40
3.0
 40
3.0
 40
3.0
 40
4.0
 40
4.0
 40
4.0
 40
5.0
 40
5.0
 40
5.0
 40
6.0
 40
6.0
 40
6.0
 40
7.0
 40
7.0
 40
7.0
 40
8.0
 40
8.0
 40
8.0
 40
9.0
 40
9.0
 40
9.0
 40
10.0
 40
10.0
 40
10.0
 40
11.0
 40
11.0
 40
11.0
 40
12.0
 40
12.0
 40
12.0
 40
13.0
 40
13.0
 40
13.0
 40
14.0
 40
14.0
 40
14.0
 40
15.0
 40
15.0
 40
15.0
 40
16.0
 40
16.0
 40
16.0
 40
16.0
 10
100.558547609409
 20
-122.9421942509485
 10
100.558547609409
 20
-123.0205701732379
 10
100.5416666415313
 20
-123.1220282352785
 10
100.4782768846027
 20
-123.2236585520934
 10
100.3683783386232
 20
-123.3971191097757
 10
100.2371202006352
 20
-123.41830644701
 10
100.1292887119469
 20
-123.4372544721789
 10
100.1292887119469
 20
-123.4372544721789
 10
100.1292887119469
 20
-123.2152180681545
 10
100.1292887119469
 20
-123.2152180681545
 10
100.3280707214458
 20
-123.1600965403905
 10
100.3576985426189
 20
-123.0331447717591
 10
100.3576985426189
 20
-122.9401271936573
 10
100.3576985426189
 20
-122.8004285717304
 10
100.2581352830952
 20
-122.6481553512824
 10
100.0255913378408
 20
-122.6481553512824
 10
99.76962074328677
 20
-122.6481553512824
 10
99.6996853049362
 20
-122.8279893356125
 10
99.6996853049362
 20
-122.9485676775962
 10
99.6996853049362
 20
-122.9802625560605
 10
99.6996853049362
 20
-123.1220282352785
 10
99.82887638563307
 20
-123.210911698798
 10
99.82887638563307
 20
-123.210911698798
 10
99.80992836046418
 20
-123.3864393137714
 10
99.80992836046418
 20
-123.3864393137714
 10
99.80992836046418
 20
-123.3864393137714
 10
98.9634683997383
 20
-123.2658609717877
 10
98.9634683997383
 20
-123.2658609717877
 10
98.9634683997383
 20
-123.2658609717877
 10
98.9634683997383
 20
-122.4874416468955
 10
98.9634683997383
 20
-122.4874416468955
 10
98.9634683997383
 20
-122.4874416468955
 10
99.15811629465492
 20
-122.4874416468955
 10
99.15811629465492
 20
-122.4874416468955
 10
99.15811629465492
 20
-122.4874416468955
 10
99.15811629465492
 20
-123.1030802101097
 10
99.15811629465492
 20
-123.1030802101097
 10
99.15811629465492
 20
-123.1030802101097
 10
99.5811740202436
 20
-123.1685370243294
 10
99.5811740202436
 20
-123.1685370243294
 10
99.54741208448816
 20
-123.107214324692
 10
99.50710446731073
 20
-123.0247042878202
 10
99.50710446731073
 20
-122.9063652579019
 10
99.50710446731073
 20
-122.652461720639
 10
99.69348413306274
 20
-122.4154391512538
 10
100.006643312672
 20
-122.4154391512538
 10
100.3239366068635
 20
-122.4154391512538
 10
100.558547609409
 20
-122.6397148673435
 10
100.558547609409
 20
-122.9421942509485
 97
        0
 97
        0
 75
     2
 76
     1
 98
        0
  0
ENDBLK
  5
9F
330
9C
100
AcDbEntity
  8
0
100
AcDbBlockEnd
  0
BLOCK
  5
B0
330
AE
100
AcDbEntity
  8
0
100
AcDbBlockBegin
  2
block 5
 70
     0
 10
0.0
 20
0.0
 30
0.0
  3
block 5
  1

  0
SPLINE
  5
B2
330
AE
100
AcDbEntity
  8
_U+30EC_U+30A4_U+30E4_U+30FC 1
370
     0
100
AcDbSpline
210
0.0
220
0.0
230
1.0
 70
    11
 71
     3
 72
    26
 73
    22
 74
     0
 42
0.0000000001
 43
0.0000000001
 12
1.0
 22
0.0
 32
0.0
 13
1.0
 23
0.0
 33
0.0
 40
0.0
 40
0.0
 40
0.0
 40
0.0
 40
1.0
 40
1.0
 40
1.0
 40
2.0
 40
2.0
 40
2.0
 40
3.0
 40
3.0
 40
3.0
 40
4.0
 40
4.0
 40
4.0
 40
5.0
 40
5.0
 40
5.0
 40
6.0
 40
6.0
 40
6.0
 40
7.0
 40
7.0
 40
7.0
 40
7.0
 10
89.85136309602674
 20
-115.9908528355856
 30
0.0
 10
89.85136309602674
 20
-115.9908528355856
 30
0.0
 10
89.85136309602674
 20
-114.8865274777888
 30
0.0
 10
89.85136309602674
 20
-114.8865274777888
 30
0.0
 10
89.85136309602674
 20
-114.8865274777888
 30
0.0
 10
89.52132294853982
 20
-114.8865274777888
 30
0.0
 10
89.52132294853982
 20
-114.8865274777888
 30
0.0
 10
89.52132294853982
 20
-114.8865274777888
 30
0.0
 10
89.52132294853982
 20
-114.7385606266973
 30
0.0
 10
89.52132294853982
 20
-114.7385606266973
 30
0.0
 10
89.8534301533179
 20
-114.7237467161107
 30
0.0
 10
89.89993894236876
 20
-114.5607936996584
 30
0.0
 10
89.92956676354191
 20
-114.4465887843224
 30
0.0
 10
89.92956676354191
 20
-114.4465887843224
 30
0.0
 10
90.07563881211651
 20
-114.4465887843224
 30
0.0
 10
90.07563881211651
 20
-114.4465887843224
 30
0.0
 10
90.07563881211651
 20
-114.4465887843224
 30
0.0
 10
90.07563881211651
 20
-115.9908528355856
 30
0.0
 10
90.07563881211651
 20
-115.9908528355856
 30
0.0
 10
90.07563881211651
 20
-115.9908528355856
 30
0.0
 10
89.85136309602674
 20
-115.9908528355856
 30
0.0
 10
89.85136309602674
 20
-115.9908528355856
 30
0.0
  0
HATCH
  5
B3
330
AE
100
AcDbEntity
  8
_U+30EC_U+30A4_U+30E4_U+30FC 1
 62
   179
420
  2234388
100
AcDbHatch
 10
0.0
 20
0.0
 30
0.0
210
0.0
220
0.0
230
1.0
  2
SOLID
 70
     1
 71
     0
 91
        1
 92
        1
 93
        1
 72
     4
 94
        3
 73
     0
 74
     1
 95
       26
 96
       22
 40
0.0
 40
0.0
 40
0.0
 40
0.0
 40
1.0
 40
1.0
 40
1.0
 40
2.0
 40
2.0
 40
2.0
 40
3.0
 40
3.0
 40
3.0
 40
4.0
 40
4.0
 40
4.0
 40
5.0
 40
5.0
 40
5.0
 40
6.0
 40
6.0
 40
6.0
 40
7.0
 40
7.0
 40
7.0
 40
7.0
 10
89.85136309602674
 20
-115.9908528355856
 10
89.85136309602674
 20
-115.9908528355856
 10
89.85136309602674
 20
-114.8865274777888
 10
89.85136309602674
 20
-114.8865274777888
 10
89.85136309602674
 20
-114.8865274777888
 10
89.52132294853982
 20
-114.8865274777888
 10
89.52132294853982
 20
-114.8865274777888
 10
89.52132294853982
 20
-114.8865274777888
 10
89.52132294853982
 20
-114.7385606266973
 10
89.52132294853982
 20
-114.7385606266973
 10
89.8534301533179
 20
-114.7237467161107
 10
89.89993894236876
 20
-114.5607936996584
 10
89.92956676354191
 20
-114.4465887843224
 10
89.92956676354191
 20
-114.4465887843224
 10
90.07563881211651
 20
-114.4465887843224
 10
90.07563881211651
 20
-114.4465887843224
 10
90.07563881211651
 20
-114.4465887843224
 10
90.07563881211651
 20
-115.9908528355856
 10
90.07563881211651
 20
-115.9908528355856
 10
90.07563881211651
 20
-115.9908528355856
 10
89.85136309602674
 20
-115.9908528355856
 10
89.85136309602674
 20
-115.9908528355856
 97
        0
 97
        0
 75
     2
 76
     1
 98
        0
  0
SPLINE
  5
B4
330
AE
100
AcDbEntity
  8
_U+30EC_U+30A4_U+30E4_U+30FC 1
370
     0
100
AcDbSpline
210
0.0
220
0.0
230
1.0
 70
    11
 71
     3
 72
    62
 73
    58
 74
     0
 42
0.0000000001
 43
0.0000000001
 12
1.0
 22
0.0
 32
0.0
 13
1.0
 23
0.0
 33
0.0
 40
0.0
 40
0.0
 40
0.0
 40
0.0
 40
1.0
 40
1.0
 40
1.0
 40
2.0
 40
2.0
 40
2.0
 40
3.0
 40
3.0
 40
3.0
 40
4.0
 40
4.0
 40
4.0
 40
5.0
 40
5.0
 40
5.0
 40
6.0
 40
6.0
 40
6.0
 40
7.0
 40
7.0
 40
7.0
 40
8.0
 40
8.0
 40
8.0
 40
9.0
 40
9.0
 40
9.0
 40
10.0
 40
10.0
 40
10.0
 40
11.0
 40
11.0
 40
11.0
 40
12.0
 40
12.0
 40
12.0
 40
13.0
 40
13.0
 40
13.0
 40
14.0
 40
14.0
 40
14.0
 40
15.0
 40
15.0
 40
15.0
 40
16.0
 40
16.0
 40
16.0
 40
17.0
 40
17.0
 40
17.0
 40
18.0
 40
18.0
 40
18.0
 40
19.0
 40
19.0
 40
19.0
 40
19.0
 10
91.06851533096551
 20
-116.0416679939931
 30
0.0
 10
90.97308618602409
 20
-116.0416679939931
 30
0.0
 10
90.75535615135631
 20
-116.0204806567588
 30
0.0
 10
90.63029918524174
 20
-115.834273245781
 30
0.0
 10
90.55622963230887
 20
-115.7221353877361
 30
0.0
 10
90.55209551772657
 20
-115.6227443829867
 30
0.0
 10
90.54796140314427
 20
-115.5381672888238
 30
0.0
 10
90.54796140314427
 20
-115.5381672888238
 30
0.0
 10
90.76810300465173
 20
-115.5381672888238
 30
0.0
 10
90.76810300465173
 20
-115.5381672888238
 30
0.0
 10
90.77017006194288
 20
-115.6122368417567
 30
0.0
 10
90.78050534839863
 20
-115.8470200990764
 30
0.0
 10
91.06403670683468
 20
-115.8470200990764
 30
0.0
 10
91.20149601669615
 20
-115.8470200990764
 30
0.0
 10
91.35411374669273
 20
-115.7772569155001
 30
0.0
 10
91.35411374669273
 20
-115.5486748300538
 30
0.0
 10
91.35411374669273
 20
-115.4324028574266
 30
0.0
 10
91.31587318680646
 20
-115.3836547563103
 30
0.0
 10
91.28417830834215
 20
-115.351959877846
 30
0.0
 10
91.21010875540928
 20
-115.2778903249132
 30
0.0
 10
91.09366452800784
 20
-115.265315726392
 30
0.0
 10
91.03888750979236
 20
-115.265315726392
 30
0.0
 10
91.01959497507497
 20
-115.265315726392
 30
0.0
 10
90.98376598202837
 20
-115.2673827836832
 30
0.0
 10
90.95620521814637
 20
-115.2715168982655
 30
0.0
 10
90.95620521814637
 20
-115.2715168982655
 30
0.0
 10
90.95620521814637
 20
-115.0768690033488
 30
0.0
 10
90.95620521814637
 20
-115.0768690033488
 30
0.0
 10
90.99444577803264
 20
-115.0832424299966
 30
0.0
 10
91.03647594295269
 20
-115.085481742062
 30
0.0
 10
91.04302162437466
 20
-115.085481742062
 30
0.0
 10
91.10847843859442
 20
-115.085481742062
 30
0.0
 10
91.30726044809333
 20
-115.0642944048277
 30
0.0
 10
91.30726044809333
 20
-114.8272718354425
 30
0.0
 10
91.30726044809333
 20
-114.6496771631779
 30
0.0
 10
91.17634681965383
 20
-114.5945556354139
 30
0.0
 10
91.06610376412584
 20
-114.5945556354139
 30
0.0
 10
90.80186494040717
 20
-114.5945556354139
 30
0.0
 10
90.79325220169405
 20
-114.8272718354425
 30
0.0
 10
90.78911808711175
 20
-114.8992743310842
 30
0.0
 10
90.78911808711175
 20
-114.8992743310842
 30
0.0
 10
90.585857453482
 20
-114.8992743310842
 30
0.0
 10
90.585857453482
 20
-114.8992743310842
 30
0.0
 10
90.59447019219513
 20
-114.7743896197439
 30
0.0
 10
90.62203095607714
 20
-114.3978406832061
 30
0.0
 10
91.07885061742127
 20
-114.3978406832061
 30
0.0
 10
91.30312633351103
 20
-114.3978406832061
 30
0.0
 10
91.54411076270425
 20
-114.5247924518376
 30
0.0
 10
91.54411076270425
 20
-114.8208984087948
 30
0.0
 10
91.54411076270425
 20
-115.0071058197725
 30
0.0
 10
91.44902612731136
 20
-115.0896158566443
 30
0.0
 10
91.3496351225619
 20
-115.1509385562817
 30
0.0
 10
91.41078556742508
 20
-115.1784993201637
 30
0.0
 10
91.59268660904628
 20
-115.2589422997443
 30
0.0
 10
91.59268660904628
 20
-115.5361002315326
 30
0.0
 10
91.59268660904628
 20
-115.8745808629584
 30
0.0
 10
91.3455010079796
 20
-116.0416679939931
 30
0.0
 10
91.06851533096551
 20
-116.0416679939931
 30
0.0
  0
HATCH
  5
B5
330
AE
100
AcDbEntity
  8
_U+30EC_U+30A4_U+30E4_U+30FC 1
 62
   179
420
  2234388
100
AcDbHatch
 10
0.0
 20
0.0
 30
0.0
210
0.0
220
0.0
230
1.0
  2
SOLID
 70
     1
 71
     0
 91
        1
 92
        1
 93
        1
 72
     4
 94
        3
 73
     0
 74
     1
 95
       62
 96
       58
 40
0.0
 40
0.0
 40
0.0
 40
0.0
 40
1.0
 40
1.0
 40
1.0
 40
2.0
 40
2.0
 40
2.0
 40
3.0
 40
3.0
 40
3.0
 40
4.0
 40
4.0
 40
4.0
 40
5.0
 40
5.0
 40
5.0
 40
6.0
 40
6.0
 40
6.0
 40
7.0
 40
7.0
 40
7.0
 40
8.0
 40
8.0
 40
8.0
 40
9.0
 40
9.0
 40
9.0
 40
10.0
 40
10.0
 40
10.0
 40
11.0
 40
11.0
 40
11.0
 40
12.0
 40
12.0
 40
12.0
 40
13.0
 40
13.0
 40
13.0
 40
14.0
 40
14.0
 40
14.0
 40
15.0
 40
15.0
 40
15.0
 40
16.0
 40
16.0
 40
16.0
 40
17.0
 40
17.0
 40
17.0
 40
18.0
 40
18.0
 40
18.0
 40
19.0
 40
19.0
 40
19.0
 40
19.0
 10
91.06851533096551
 20
-116.0416679939931
 10
90.97308618602409
 20
-116.0416679939931
 10
90.75535615135631
 20
-116.0204806567588
 10
90.63029918524174
 20
-115.834273245781
 10
90.55622963230887
 20
-115.7221353877361
 10
90.55209551772657
 20
-115.6227443829867
 10
90.54796140314427
 20
-115.5381672888238
 10
90.54796140314427
 20
-115.5381672888238
 10
90.76810300465173
 20
-115.5381672888238
 10
90.76810300465173
 20
-115.5381672888238
 10
90.77017006194288
 20
-115.6122368417567
 10
90.78050534839863
 20
-115.8470200990764
 10
91.06403670683468
 20
-115.8470200990764
 10
91.20149601669615
 20
-115.8470200990764
 10
91.35411374669273
 20
-115.7772569155001
 10
91.35411374669273
 20
-115.5486748300538
 10
91.35411374669273
 20
-115.4324028574266
 10
91.31587318680646
 20
-115.3836547563103
 10
91.28417830834215
 20
-115.351959877846
 10
91.21010875540928
 20
-115.2778903249132
 10
91.09366452800784
 20
-115.265315726392
 10
91.03888750979236
 20
-115.265315726392
 10
91.01959497507497
 20
-115.265315726392
 10
90.98376598202837
 20
-115.2673827836832
 10
90.95620521814637
 20
-115.2715168982655
 10
90.95620521814637
 20
-115.2715168982655
 10
90.95620521814637
 20
-115.0768690033488
 10
90.95620521814637
 20
-115.0768690033488
 10
90.99444577803264
 20
-115.0832424299966
 10
91.03647594295269
 20
-115.085481742062
 10
91.04302162437466
 20
-115.085481742062
 10
91.10847843859442
 20
-115.085481742062
 10
91.30726044809333
 20
-115.0642944048277
 10
91.30726044809333
 20
-114.8272718354425
 10
91.30726044809333
 20
-114.6496771631779
 10
91.17634681965383
 20
-114.5945556354139
 10
91.06610376412584
 20
-114.5945556354139
 10
90.80186494040717
 20
-114.5945556354139
 10
90.79325220169405
 20
-114.8272718354425
 10
90.78911808711175
 20
-114.8992743310842
 10
90.78911808711175
 20
-114.8992743310842
 10
90.585857453482
 20
-114.8992743310842
 10
90.585857453482
 20
-114.8992743310842
 10
90.59447019219513
 20
-114.7743896197439
 10
90.62203095607714
 20
-114.3978406832061
 10
91.07885061742127
 20
-114.3978406832061
 10
91.30312633351103
 20
-114.3978406832061
 10
91.54411076270425
 20
-114.5247924518376
 10
91.54411076270425
 20
-114.8208984087948
 10
91.54411076270425
 20
-115.0071058197725
 10
91.44902612731136
 20
-115.0896158566443
 10
91.3496351225619
 20
-115.1509385562817
 10
91.41078556742508
 20
-115.1784993201637
 10
91.59268660904628
 20
-115.2589422997443
 10
91.59268660904628
 20
-115.5361002315326
 10
91.59268660904628
 20
-115.8745808629584
 10
91.3455010079796
 20
-116.0416679939931
 10
91.06851533096551
 20
-116.0416679939931
 97
        0
 97
        0
 75
     2
 76
     1
 98
        0
  0
POLYLINE
  5
B6
330
AE
100
AcDbEntity
  8
_U+30EC_U+30A4_U+30E4_U+30FC 1
370
     0
100
AcDb2dPolyline
 66
     1
 10
0.0
 20
0.0
 30
0.0
  0
VERTEX
  5
B7
330
B6
100
AcDbEntity
  8
_U+30EC_U+30A4_U+30E4_U+30FC 1
370
     0
100
AcDbVertex
100
AcDb2dVertex
 10
91.81351722965078
 20
-115.9908528355856
 30
0.0
  0
VERTEX
  5
B8
330
B6
100
AcDbEntity
  8
_U+30EC_U+30A4_U+30E4_U+30FC 1
370
     0
100
AcDbVertex
100
AcDb2dVertex
 10
91.81351722965078
 20
-115.7391886103881
 30
0.0
  0
VERTEX
  5
B9
330
B6
100
AcDbEntity
  8
_U+30EC_U+30A4_U+30E4_U+30FC 1
370
     0
100
AcDbVertex
100
AcDb2dVertex
 10
92.06535370962256
 20
-115.7391886103881
 30
0.0
  0
VERTEX
  5
BA
330
B6
100
AcDbEntity
  8
_U+30EC_U+30A4_U+30E4_U+30FC 1
370
     0
100
AcDbVertex
100
AcDb2dVertex
 10
92.06535370962256
 20
-115.9908528355856
 30
0.0
  0
VERTEX
  5
BB
330
B6
100
AcDbEntity
  8
_U+30EC_U+30A4_U+30E4_U+30FC 1
370
     0
100
AcDbVertex
100
AcDb2dVertex
 10
91.81351722965078
 20
-115.9908528355856
 30
0.0
  0
SEQEND
  5
BC
330
B6
100
AcDbEntity
  8
_U+30EC_U+30A4_U+30E4_U+30FC 1
370
     0
  0
HATCH
  5
BD
330
AE
100
AcDbEntity
  8
_U+30EC_U+30A4_U+30E4_U+30FC 1
 62
   179
420
  2234388
100
AcDbHatch
 10
0.0
 20
0.0
 30
0.0
210
0.0
220
0.0
230
1.0
  2
SOLID
 70
     1
 71
     0
 91
        1
 92
        1
 93
        4
 72
     1
 10
91.81351722965078
 20
-115.9908528355856
 11
91.81351722965078
 21
-115.7391886103881
 72
     1
 10
91.81351722965078
 20
-115.7391886103881
 11
92.06535370962256
 21
-115.7391886103881
 72
     1
 10
92.06535370962256
 20
-115.7391886103881
 11
92.06535370962256
 21
-115.9908528355856
 72
     1
 10
92.06535370962256
 20
-115.9908528355856
 11
91.81351722965078
 21
-115.9908528355856
 97
        0
 75
     2
 76
     1
 98
        0
  0
SPLINE
  5
BE
330
AE
100
AcDbEntity
  8
_U+30EC_U+30A4_U+30E4_U+30FC 1
370
     0
100
AcDbSpline
210
0.0
220
0.0
230
1.0
 70
    11
 71
     3
 72
    26
 73
    22
 74
     0
 42
0.0000000001
 43
0.0000000001
 12
1.0
 22
0.0
 32
0.0
 13
1.0
 23
0.0
 33
0.0
 40
0.0
 40
0.0
 40
0.0
 40
0.0
 40
1.0
 40
1.0
 40
1.0
 40
2.0
 40
2.0
 40
2.0
 40
3.0
 40
3.0
 40
3.0
 40
4.0
 40
4.0
 40
4.0
 40
5.0
 40
5.0
 40
5.0
 40
6.0
 40
6.0
 40
6.0
 40
7.0
 40
7.0
 40
7.0
 40
7.0
 10
92.712687151301
 20
-115.9908528355856
 30
0.0
 10
92.712687151301
 20
-115.9908528355856
 30
0.0
 10
92.47566458191581
 20
-115.9908528355856
 30
0.0
 10
92.47566458191581
 20
-115.9908528355856
 30
0.0
 10
92.50115828850666
 20
-115.682000025333
 30
0.0
 10
92.69373912613213
 20
-115.1636854095771
 30
0.0
 10
93.09991588384308
 20
-114.6581176471167
 30
0.0
 10
93.09991588384308
 20
-114.6581176471167
 30
0.0
 10
92.26206866183033
 20
-114.6581176471167
 30
0.0
 10
92.26206866183033
 20
-114.6581176471167
 30
0.0
 10
92.26206866183033
 20
-114.6581176471167
 30
0.0
 10
92.26206866183033
 20
-114.4465887843224
 30
0.0
 10
92.26206866183033
 20
-114.4465887843224
 30
0.0
 10
92.26206866183033
 20
-114.4465887843224
 30
0.0
 10
93.33693845322827
 20
-114.4465887843224
 30
0.0
 10
93.33693845322827
 20
-114.4465887843224
 30
0.0
 10
93.33693845322827
 20
-114.4465887843224
 30
0.0
 10
93.33693845322827
 20
-114.6581176471167
 30
0.0
 10
93.33693845322827
 20
-114.6581176471167
 30
0.0
 10
93.01309947761479
 20
-114.9478501774262
 30
0.0
 10
92.74644908705645
 20
-115.5402343461149
 30
0.0
 10
92.712687151301
 20
-115.9908528355856
 30
0.0
  0
HATCH
  5
BF
330
AE
100
AcDbEntity
  8
_U+30EC_U+30A4_U+30E4_U+30FC 1
 62
   179
420
  2234388
100
AcDbHatch
 10
0.0
 20
0.0
 30
0.0
210
0.0
220
0.0
230
1.0
  2
SOLID
 70
     1
 71
     0
 91
        1
 92
        1
 93
        1
 72
     4
 94
        3
 73
     0
 74
     1
 95
       26
 96
       22
 40
0.0
 40
0.0
 40
0.0
 40
0.0
 40
1.0
 40
1.0
 40
1.0
 40
2.0
 40
2.0
 40
2.0
 40
3.0
 40
3.0
 40
3.0
 40
4.0
 40
4.0
 40
4.0
 40
5.0
 40
5.0
 40
5.0
 40
6.0
 40
6.0
 40
6.0
 40
7.0
 40
7.0
 40
7.0
 40
7.0
 10
92.712687151301
 20
-115.9908528355856
 10
92.712687151301
 20
-115.9908528355856
 10
92.47566458191581
 20
-115.9908528355856
 10
92.47566458191581
 20
-115.9908528355856
 10
92.50115828850666
 20
-115.682000025333
 10
92.69373912613213
 20
-115.1636854095771
 10
93.09991588384308
 20
-114.6581176471167
 10
93.09991588384308
 20
-114.6581176471167
 10
92.26206866183033
 20
-114.6581176471167
 10
92.26206866183033
 20
-114.6581176471167
 10
92.26206866183033
 20
-114.6581176471167
 10
92.26206866183033
 20
-114.4465887843224
 10
92.26206866183033
 20
-114.4465887843224
 10
92.26206866183033
 20
-114.4465887843224
 10
93.33693845322827
 20
-114.4465887843224
 10
93.33693845322827
 20
-114.4465887843224
 10
93.33693845322827
 20
-114.4465887843224
 10
93.33693845322827
 20
-114.6581176471167
 10
93.33693845322827
 20
-114.6581176471167
 10
93.01309947761479
 20
-114.9478501774262
 10
92.74644908705645
 20
-115.5402343461149
 10
92.712687151301
 20
-115.9908528355856
 97
        0
 97
        0
 75
     2
 76
     1
 98
        0
  0
ENDBLK
  5
B1
330
AE
100
AcDbEntity
  8
0
100
AcDbBlockEnd
  0
BLOCK
  5
C2
330
C0
100
AcDbEntity
  8
0
100
AcDbBlockBegin
  2
block 6
 70
     0
 10
0.0
 20
0.0
 30
0.0
  3
block 6
  1

  0
SPLINE
  5
C4
330
C0
100
AcDbEntity
  8
_U+30EC_U+30A4_U+30E4_U+30FC 1
370
     0
100
AcDbSpline
210
0.0
220
0.0
230
1.0
 70
    11
 71
     3
 72
    62
 73
    58
 74
     0
 42
0.0000000001
 43
0.0000000001
 12
1.0
 22
0.0
 32
0.0
 13
1.0
 23
0.0
 33
0.0
 40
0.0
 40
0.0
 40
0.0
 40
0.0
 40
1.0
 40
1.0
 40
1.0
 40
2.0
 40
2.0
 40
2.0
 40
3.0
 40
3.0
 40
3.0
 40
4.0
 40
4.0
 40
4.0
 40
5.0
 40
5.0
 40
5.0
 40
6.0
 40
6.0
 40
6.0
 40
7.0
 40
7.0
 40
7.0
 40
8.0
 40
8.0
 40
8.0
 40
9.0
 40
9.0
 40
9.0
 40
10.0
 40
10.0
 40
10.0
 40
11.0
 40
11.0
 40
11.0
 40
12.0
 40
12.0
 40
12.0
 40
13.0
 40
13.0
 40
13.0
 40
14.0
 40
14.0
 40
14.0
 40
15.0
 40
15.0
 40
15.0
 40
16.0
 40
16.0
 40
16.0
 40
17.0
 40
17.0
 40
17.0
 40
18.0
 40
18.0
 40
18.0
 40
19.0
 40
19.0
 40
19.0
 40
19.0
 10
82.84507240767415
 20
-132.7123127923428
 30
0.0
 10
82.84507240767415
 20
-132.8077419372842
 30
0.0
 10
82.82405732521413
 20
-133.025471971952
 30
0.0
 10
82.63802216901064
 20
-133.1505289380665
 30
0.0
 10
82.5257120561915
 20
-133.2242539814509
 30
0.0
 10
82.4264933062163
 20
-133.2287326055817
 30
0.0
 10
82.34174395727915
 20
-133.232866720164
 30
0.0
 10
82.34174395727915
 20
-133.232866720164
 30
0.0
 10
82.34174395727915
 20
-133.0127251186565
 30
0.0
 10
82.34174395727915
 20
-133.0127251186565
 30
0.0
 10
82.41581351021202
 20
-133.0106580613654
 30
0.0
 10
82.65042451275754
 20
-133.0003227749096
 30
0.0
 10
82.65042451275754
 20
-132.7167914164736
 30
0.0
 10
82.65042451275754
 20
-132.5793321066121
 30
0.0
 10
82.5808335839555
 20
-132.4267143766155
 30
0.0
 10
82.35242375328343
 20
-132.4267143766155
 30
0.0
 10
82.23597952588199
 20
-132.4267143766155
 30
0.0
 10
82.18740367953995
 20
-132.4649549365018
 30
0.0
 10
82.15570880107566
 20
-132.4966498149661
 30
0.0
 10
82.08163924814279
 20
-132.570719367899
 30
0.0
 10
82.06889239484737
 20
-132.6871635953004
 30
0.0
 10
82.06889239484737
 20
-132.7419406135159
 30
0.0
 10
82.06889239484737
 20
-132.7612331482333
 30
0.0
 10
82.07095945213851
 20
-132.7970621412799
 30
0.0
 10
82.07509356672081
 20
-132.8246229051619
 30
0.0
 10
82.07509356672081
 20
-132.8246229051619
 30
0.0
 10
81.8804456718042
 20
-132.8246229051619
 30
0.0
 10
81.8804456718042
 20
-132.8246229051619
 30
0.0
 10
81.88699135322618
 20
-132.7863823452756
 30
0.0
 10
81.88905841051732
 20
-132.7443521803556
 30
0.0
 10
81.88905841051732
 20
-132.7378064989336
 30
0.0
 10
81.88905841051732
 20
-132.6723496847139
 30
0.0
 10
81.86769881850877
 20
-132.473567675215
 30
0.0
 10
81.63102075867211
 20
-132.473567675215
 30
0.0
 10
81.45325383163322
 20
-132.473567675215
 30
0.0
 10
81.39813230386922
 20
-132.6044813036544
 30
0.0
 10
81.39813230386922
 20
-132.7147243591824
 30
0.0
 10
81.39813230386922
 20
-132.9789631829011
 30
0.0
 10
81.63102075867211
 20
-132.9875759216142
 30
0.0
 10
81.70267874476531
 20
-132.9917100361965
 30
0.0
 10
81.70267874476531
 20
-132.9917100361965
 30
0.0
 10
81.70267874476531
 20
-133.1949706698263
 30
0.0
 10
81.70267874476531
 20
-133.1949706698263
 30
0.0
 10
81.57796628819926
 20
-133.1863579311132
 30
0.0
 10
81.20141735166146
 20
-133.1587971672311
 30
0.0
 10
81.20141735166146
 20
-132.701977505887
 30
0.0
 10
81.20141735166146
 20
-132.4777017897972
 30
0.0
 10
81.32854137506718
 20
-132.2365451058297
 30
0.0
 10
81.62447507725014
 20
-132.2365451058297
 30
0.0
 10
81.81085474300215
 20
-132.2365451058297
 30
0.0
 10
81.89319252509962
 20
-132.3316297412227
 30
0.0
 10
81.95451522473707
 20
-132.4311930007464
 30
0.0
 10
81.98207598861907
 20
-132.3698703011089
 30
0.0
 10
82.06234671342538
 20
-132.1879692594877
 30
0.0
 10
82.339676899988
 20
-132.1879692594877
 30
0.0
 10
82.67798527663953
 20
-132.1879692594877
 30
0.0
 10
82.84507240767415
 20
-132.4353271153287
 30
0.0
 10
82.84507240767415
 20
-132.7123127923428
 30
0.0
  0
HATCH
  5
C5
330
C0
100
AcDbEntity
  8
_U+30EC_U+30A4_U+30E4_U+30FC 1
 62
   179
420
  2234388
100
AcDbHatch
 10
0.0
 20
0.0
 30
0.0
210
0.0
220
0.0
230
1.0
  2
SOLID
 70
     1
 71
     0
 91
        1
 92
        1
 93
        1
 72
     4
 94
        3
 73
     0
 74
     1
 95
       62
 96
       58
 40
0.0
 40
0.0
 40
0.0
 40
0.0
 40
1.0
 40
1.0
 40
1.0
 40
2.0
 40
2.0
 40
2.0
 40
3.0
 40
3.0
 40
3.0
 40
4.0
 40
4.0
 40
4.0
 40
5.0
 40
5.0
 40
5.0
 40
6.0
 40
6.0
 40
6.0
 40
7.0
 40
7.0
 40
7.0
 40
8.0
 40
8.0
 40
8.0
 40
9.0
 40
9.0
 40
9.0
 40
10.0
 40
10.0
 40
10.0
 40
11.0
 40
11.0
 40
11.0
 40
12.0
 40
12.0
 40
12.0
 40
13.0
 40
13.0
 40
13.0
 40
14.0
 40
14.0
 40
14.0
 40
15.0
 40
15.0
 40
15.0
 40
16.0
 40
16.0
 40
16.0
 40
17.0
 40
17.0
 40
17.0
 40
18.0
 40
18.0
 40
18.0
 40
19.0
 40
19.0
 40
19.0
 40
19.0
 10
82.84507240767415
 20
-132.7123127923428
 10
82.84507240767415
 20
-132.8077419372842
 10
82.82405732521413
 20
-133.025471971952
 10
82.63802216901064
 20
-133.1505289380665
 10
82.5257120561915
 20
-133.2242539814509
 10
82.4264933062163
 20
-133.2287326055817
 10
82.34174395727915
 20
-133.232866720164
 10
82.34174395727915
 20
-133.232866720164
 10
82.34174395727915
 20
-133.0127251186565
 10
82.34174395727915
 20
-133.0127251186565
 10
82.41581351021202
 20
-133.0106580613654
 10
82.65042451275754
 20
-133.0003227749096
 10
82.65042451275754
 20
-132.7167914164736
 10
82.65042451275754
 20
-132.5793321066121
 10
82.5808335839555
 20
-132.4267143766155
 10
82.35242375328343
 20
-132.4267143766155
 10
82.23597952588199
 20
-132.4267143766155
 10
82.18740367953995
 20
-132.4649549365018
 10
82.15570880107566
 20
-132.4966498149661
 10
82.08163924814279
 20
-132.570719367899
 10
82.06889239484737
 20
-132.6871635953004
 10
82.06889239484737
 20
-132.7419406135159
 10
82.06889239484737
 20
-132.7612331482333
 10
82.07095945213851
 20
-132.7970621412799
 10
82.07509356672081
 20
-132.8246229051619
 10
82.07509356672081
 20
-132.8246229051619
 10
81.8804456718042
 20
-132.8246229051619
 10
81.8804456718042
 20
-132.8246229051619
 10
81.88699135322618
 20
-132.7863823452756
 10
81.88905841051732
 20
-132.7443521803556
 10
81.88905841051732
 20
-132.7378064989336
 10
81.88905841051732
 20
-132.6723496847139
 10
81.86769881850877
 20
-132.473567675215
 10
81.63102075867211
 20
-132.473567675215
 10
81.45325383163322
 20
-132.473567675215
 10
81.39813230386922
 20
-132.6044813036544
 10
81.39813230386922
 20
-132.7147243591824
 10
81.39813230386922
 20
-132.9789631829011
 10
81.63102075867211
 20
-132.9875759216142
 10
81.70267874476531
 20
-132.9917100361965
 10
81.70267874476531
 20
-132.9917100361965
 10
81.70267874476531
 20
-133.1949706698263
 10
81.70267874476531
 20
-133.1949706698263
 10
81.57796628819926
 20
-133.1863579311132
 10
81.20141735166146
 20
-133.1587971672311
 10
81.20141735166146
 20
-132.701977505887
 10
81.20141735166146
 20
-132.4777017897972
 10
81.32854137506718
 20
-132.2365451058297
 10
81.62447507725014
 20
-132.2365451058297
 10
81.81085474300215
 20
-132.2365451058297
 10
81.89319252509962
 20
-132.3316297412227
 10
81.95451522473707
 20
-132.4311930007464
 10
81.98207598861907
 20
-132.3698703011089
 10
82.06234671342538
 20
-132.1879692594877
 10
82.339676899988
 20
-132.1879692594877
 10
82.67798527663953
 20
-132.1879692594877
 10
82.84507240767415
 20
-132.4353271153287
 10
82.84507240767415
 20
-132.7123127923428
 97
        0
 97
        0
 75
     2
 76
     1
 98
        0
  0
SPLINE
  5
C6
330
C0
100
AcDbEntity
  8
_U+30EC_U+30A4_U+30E4_U+30FC 1
370
     0
100
AcDbSpline
210
0.0
220
0.0
230
1.0
 70
    11
 71
     3
 72
    26
 73
    22
 74
     0
 42
0.0000000001
 43
0.0000000001
 12
1.0
 22
0.0
 32
0.0
 13
1.0
 23
0.0
 33
0.0
 40
0.0
 40
0.0
 40
0.0
 40
0.0
 40
1.0
 40
1.0
 40
1.0
 40
2.0
 40
2.0
 40
2.0
 40
3.0
 40
3.0
 40
3.0
 40
4.0
 40
4.0
 40
4.0
 40
5.0
 40
5.0
 40
5.0
 40
6.0
 40
6.0
 40
6.0
 40
7.0
 40
7.0
 40
7.0
 40
7.0
 10
82.79442950404098
 20
-131.5757757917588
 30
0.0
 10
82.79442950404098
 20
-131.5757757917588
 30
0.0
 10
81.69027640101841
 20
-131.5757757917588
 30
0.0
 10
81.69027640101841
 20
-131.5757757917588
 30
0.0
 10
81.69027640101841
 20
-131.5757757917588
 30
0.0
 10
81.69027640101841
 20
-131.9058159392458
 30
0.0
 10
81.69027640101841
 20
-131.9058159392458
 30
0.0
 10
81.69027640101841
 20
-131.9058159392458
 30
0.0
 10
81.54213729515267
 20
-131.9058159392458
 30
0.0
 10
81.54213729515267
 20
-131.9058159392458
 30
0.0
 10
81.52732338456609
 20
-131.5737087344677
 30
0.0
 10
81.36437036811377
 20
-131.5271999454168
 30
0.0
 10
81.24999319800348
 20
-131.4975721242437
 30
0.0
 10
81.24999319800348
 20
-131.4975721242437
 30
0.0
 10
81.24999319800348
 20
-131.3515000756691
 30
0.0
 10
81.24999319800348
 20
-131.3515000756691
 30
0.0
 10
81.24999319800348
 20
-131.3515000756691
 30
0.0
 10
82.79442950404098
 20
-131.3515000756691
 30
0.0
 10
82.79442950404098
 20
-131.3515000756691
 30
0.0
 10
82.79442950404098
 20
-131.3515000756691
 30
0.0
 10
82.79442950404098
 20
-131.5757757917588
 30
0.0
 10
82.79442950404098
 20
-131.5757757917588
 30
0.0
  0
HATCH
  5
C7
330
C0
100
AcDbEntity
  8
_U+30EC_U+30A4_U+30E4_U+30FC 1
 62
   179
420
  2234388
100
AcDbHatch
 10
0.0
 20
0.0
 30
0.0
210
0.0
220
0.0
230
1.0
  2
SOLID
 70
     1
 71
     0
 91
        1
 92
        1
 93
        1
 72
     4
 94
        3
 73
     0
 74
     1
 95
       26
 96
       22
 40
0.0
 40
0.0
 40
0.0
 40
0.0
 40
1.0
 40
1.0
 40
1.0
 40
2.0
 40
2.0
 40
2.0
 40
3.0
 40
3.0
 40
3.0
 40
4.0
 40
4.0
 40
4.0
 40
5.0
 40
5.0
 40
5.0
 40
6.0
 40
6.0
 40
6.0
 40
7.0
 40
7.0
 40
7.0
 40
7.0
 10
82.79442950404098
 20
-131.5757757917588
 10
82.79442950404098
 20
-131.5757757917588
 10
81.69027640101841
 20
-131.5757757917588
 10
81.69027640101841
 20
-131.5757757917588
 10
81.69027640101841
 20
-131.5757757917588
 10
81.69027640101841
 20
-131.9058159392458
 10
81.69027640101841
 20
-131.9058159392458
 10
81.69027640101841
 20
-131.9058159392458
 10
81.54213729515267
 20
-131.9058159392458
 10
81.54213729515267
 20
-131.9058159392458
 10
81.52732338456609
 20
-131.5737087344677
 10
81.36437036811377
 20
-131.5271999454168
 10
81.24999319800348
 20
-131.4975721242437
 10
81.24999319800348
 20
-131.4975721242437
 10
81.24999319800348
 20
-131.3515000756691
 10
81.24999319800348
 20
-131.3515000756691
 10
81.24999319800348
 20
-131.3515000756691
 10
82.79442950404098
 20
-131.3515000756691
 10
82.79442950404098
 20
-131.3515000756691
 10
82.79442950404098
 20
-131.3515000756691
 10
82.79442950404098
 20
-131.5757757917588
 10
82.79442950404098
 20
-131.5757757917588
 97
        0
 97
        0
 75
     2
 76
     1
 98
        0
  0
POLYLINE
  5
C8
330
C0
100
AcDbEntity
  8
_U+30EC_U+30A4_U+30E4_U+30FC 1
370
     0
100
AcDb2dPolyline
 66
     1
 10
0.0
 20
0.0
 30
0.0
  0
VERTEX
  5
C9
330
C8
100
AcDbEntity
  8
_U+30EC_U+30A4_U+30E4_U+30FC 1
370
     0
100
AcDbVertex
100
AcDb2dVertex
 10
82.79442950404098
 20
-130.7902940211219
 30
0.0
  0
VERTEX
  5
CA
330
C8
100
AcDbEntity
  8
_U+30EC_U+30A4_U+30E4_U+30FC 1
370
     0
100
AcDbVertex
100
AcDb2dVertex
 10
82.54259302406922
 20
-130.7902940211219
 30
0.0
  0
VERTEX
  5
CB
330
C8
100
AcDbEntity
  8
_U+30EC_U+30A4_U+30E4_U+30FC 1
370
     0
100
AcDbVertex
100
AcDb2dVertex
 10
82.54259302406922
 20
-130.5384575411501
 30
0.0
  0
VERTEX
  5
CC
330
C8
100
AcDbEntity
  8
_U+30EC_U+30A4_U+30E4_U+30FC 1
370
     0
100
AcDbVertex
100
AcDb2dVertex
 10
82.79442950404098
 20
-130.5384575411501
 30
0.0
  0
VERTEX
  5
CD
330
C8
100
AcDbEntity
  8
_U+30EC_U+30A4_U+30E4_U+30FC 1
370
     0
100
AcDbVertex
100
AcDb2dVertex
 10
82.79442950404098
 20
-130.7902940211219
 30
0.0
  0
SEQEND
  5
CE
330
C8
100
AcDbEntity
  8
_U+30EC_U+30A4_U+30E4_U+30FC 1
370
     0
  0
HATCH
  5
CF
330
C0
100
AcDbEntity
  8
_U+30EC_U+30A4_U+30E4_U+30FC 1
 62
   179
420
  2234388
100
AcDbHatch
 10
0.0
 20
0.0
 30
0.0
210
0.0
220
0.0
230
1.0
  2
SOLID
 70
     1
 71
     0
 91
        1
 92
        1
 93
        4
 72
     1
 10
82.79442950404098
 20
-130.7902940211219
 11
82.54259302406922
 21
-130.7902940211219
 72
     1
 10
82.54259302406922
 20
-130.7902940211219
 11
82.54259302406922
 21
-130.5384575411501
 72
     1
 10
82.54259302406922
 20
-130.5384575411501
 11
82.79442950404098
 21
-130.5384575411501
 72
     1
 10
82.79442950404098
 20
-130.5384575411501
 11
82.79442950404098
 21
-130.7902940211219
 97
        0
 75
     2
 76
     1
 98
        0
  0
SPLINE
  5
D0
330
C0
100
AcDbEntity
  8
_U+30EC_U+30A4_U+30E4_U+30FC 1
370
     0
100
AcDbSpline
210
0.0
220
0.0
230
1.0
 70
    11
 71
     3
 72
    53
 73
    49
 74
     0
 42
0.0000000001
 43
0.0000000001
 12
1.0
 22
0.0
 32
0.0
 13
1.0
 23
0.0
 33
0.0
 40
0.0
 40
0.0
 40
0.0
 40
0.0
 40
1.0
 40
1.0
 40
1.0
 40
2.0
 40
2.0
 40
2.0
 40
3.0
 40
3.0
 40
3.0
 40
4.0
 40
4.0
 40
4.0
 40
5.0
 40
5.0
 40
5.0
 40
6.0
 40
6.0
 40
6.0
 40
7.0
 40
7.0
 40
7.0
 40
8.0
 40
8.0
 40
8.0
 40
9.0
 40
9.0
 40
9.0
 40
10.0
 40
10.0
 40
10.0
 40
11.0
 40
11.0
 40
11.0
 40
12.0
 40
12.0
 40
12.0
 40
13.0
 40
13.0
 40
13.0
 40
14.0
 40
14.0
 40
14.0
 40
15.0
 40
15.0
 40
15.0
 40
16.0
 40
16.0
 40
16.0
 40
16.0
 10
82.84507240767415
 20
-129.8211886611211
 30
0.0
 10
82.84507240767415
 20
-129.8993923286363
 30
0.0
 10
82.82819143979643
 20
-130.0010226454511
 30
0.0
 10
82.76480168286783
 20
-130.102652962266
 30
0.0
 10
82.65490313688836
 20
-130.2759412651741
 30
0.0
 10
82.52364499890034
 20
-130.2973008571826
 30
0.0
 10
82.41581351021202
 20
-130.3162488823515
 30
0.0
 10
82.41581351021202
 20
-130.3162488823515
 30
0.0
 10
82.41581351021202
 20
-130.0940402235529
 30
0.0
 10
82.41581351021202
 20
-130.0940402235529
 30
0.0
 10
82.61459551971093
 20
-130.0392632053374
 30
0.0
 10
82.64422334088408
 20
-129.9121391819317
 30
0.0
 10
82.64422334088408
 20
-129.81912160383
 30
0.0
 10
82.64422334088408
 20
-129.6795952366773
 30
0.0
 10
82.54466008136036
 20
-129.5273220162293
 30
0.0
 10
82.312116136106
 20
-129.5273220162293
 30
0.0
 10
82.05614554155194
 20
-129.5273220162293
 30
0.0
 10
81.98621010320137
 20
-129.7071560005593
 30
0.0
 10
81.98621010320137
 20
-129.8277343425431
 30
0.0
 10
81.98621010320137
 20
-129.8594292210074
 30
0.0
 10
81.98621010320137
 20
-130.0010226454511
 30
0.0
 10
82.11540118389824
 20
-130.0899061089706
 30
0.0
 10
82.11540118389824
 20
-130.0899061089706
 30
0.0
 10
82.09645315872936
 20
-130.2656059787183
 30
0.0
 10
82.09645315872936
 20
-130.2656059787183
 30
0.0
 10
82.09645315872936
 20
-130.2656059787183
 30
0.0
 10
81.24999319800348
 20
-130.1450276367346
 30
0.0
 10
81.24999319800348
 20
-130.1450276367346
 30
0.0
 10
81.24999319800348
 20
-130.1450276367346
 30
0.0
 10
81.24999319800348
 20
-129.3664360570681
 30
0.0
 10
81.24999319800348
 20
-129.3664360570681
 30
0.0
 10
81.24999319800348
 20
-129.3664360570681
 30
0.0
 10
81.4446410929201
 20
-129.3664360570681
 30
0.0
 10
81.4446410929201
 20
-129.3664360570681
 30
0.0
 10
81.4446410929201
 20
-129.3664360570681
 30
0.0
 10
81.4446410929201
 20
-129.9820746202823
 30
0.0
 10
81.4446410929201
 20
-129.9820746202823
 30
0.0
 10
81.4446410929201
 20
-129.9820746202823
 30
0.0
 10
81.86769881850877
 20
-130.047531434502
 30
0.0
 10
81.86769881850877
 20
-130.047531434502
 30
0.0
 10
81.83393688275332
 20
-129.9862087348646
 30
0.0
 10
81.7936292655759
 20
-129.9038709527671
 30
0.0
 10
81.7936292655759
 20
-129.7853596680745
 30
0.0
 10
81.7936292655759
 20
-129.5314561308116
 30
0.0
 10
81.98000893132792
 20
-129.2944335614264
 30
0.0
 10
82.29316811093713
 20
-129.2944335614264
 30
0.0
 10
82.61046140512863
 20
-129.2944335614264
 30
0.0
 10
82.84507240767415
 20
-129.5187092775162
 30
0.0
 10
82.84507240767415
 20
-129.8211886611211
 30
0.0
  0
HATCH
  5
D1
330
C0
100
AcDbEntity
  8
_U+30EC_U+30A4_U+30E4_U+30FC 1
 62
   179
420
  2234388
100
AcDbHatch
 10
0.0
 20
0.0
 30
0.0
210
0.0
220
0.0
230
1.0
  2
SOLID
 70
     1
 71
     0
 91
        1
 92
        1
 93
        1
 72
     4
 94
        3
 73
     0
 74
     1
 95
       53
 96
       49
 40
0.0
 40
0.0
 40
0.0
 40
0.0
 40
1.0
 40
1.0
 40
1.0
 40
2.0
 40
2.0
 40
2.0
 40
3.0
 40
3.0
 40
3.0
 40
4.0
 40
4.0
 40
4.0
 40
5.0
 40
5.0
 40
5.0
 40
6.0
 40
6.0
 40
6.0
 40
7.0
 40
7.0
 40
7.0
 40
8.0
 40
8.0
 40
8.0
 40
9.0
 40
9.0
 40
9.0
 40
10.0
 40
10.0
 40
10.0
 40
11.0
 40
11.0
 40
11.0
 40
12.0
 40
12.0
 40
12.0
 40
13.0
 40
13.0
 40
13.0
 40
14.0
 40
14.0
 40
14.0
 40
15.0
 40
15.0
 40
15.0
 40
16.0
 40
16.0
 40
16.0
 40
16.0
 10
82.84507240767415
 20
-129.8211886611211
 10
82.84507240767415
 20
-129.8993923286363
 10
82.82819143979643
 20
-130.0010226454511
 10
82.76480168286783
 20
-130.102652962266
 10
82.65490313688836
 20
-130.2759412651741
 10
82.52364499890034
 20
-130.2973008571826
 10
82.41581351021202
 20
-130.3162488823515
 10
82.41581351021202
 20
-130.3162488823515
 10
82.41581351021202
 20
-130.0940402235529
 10
82.41581351021202
 20
-130.0940402235529
 10
82.61459551971093
 20
-130.0392632053374
 10
82.64422334088408
 20
-129.9121391819317
 10
82.64422334088408
 20
-129.81912160383
 10
82.64422334088408
 20
-129.6795952366773
 10
82.54466008136036
 20
-129.5273220162293
 10
82.312116136106
 20
-129.5273220162293
 10
82.05614554155194
 20
-129.5273220162293
 10
81.98621010320137
 20
-129.7071560005593
 10
81.98621010320137
 20
-129.8277343425431
 10
81.98621010320137
 20
-129.8594292210074
 10
81.98621010320137
 20
-130.0010226454511
 10
82.11540118389824
 20
-130.0899061089706
 10
82.11540118389824
 20
-130.0899061089706
 10
82.09645315872936
 20
-130.2656059787183
 10
82.09645315872936
 20
-130.2656059787183
 10
82.09645315872936
 20
-130.2656059787183
 10
81.24999319800348
 20
-130.1450276367346
 10
81.24999319800348
 20
-130.1450276367346
 10
81.24999319800348
 20
-130.1450276367346
 10
81.24999319800348
 20
-129.3664360570681
 10
81.24999319800348
 20
-129.3664360570681
 10
81.24999319800348
 20
-129.3664360570681
 10
81.4446410929201
 20
-129.3664360570681
 10
81.4446410929201
 20
-129.3664360570681
 10
81.4446410929201
 20
-129.3664360570681
 10
81.4446410929201
 20
-129.9820746202823
 10
81.4446410929201
 20
-129.9820746202823
 10
81.4446410929201
 20
-129.9820746202823
 10
81.86769881850877
 20
-130.047531434502
 10
81.86769881850877
 20
-130.047531434502
 10
81.83393688275332
 20
-129.9862087348646
 10
81.7936292655759
 20
-129.9038709527671
 10
81.7936292655759
 20
-129.7853596680745
 10
81.7936292655759
 20
-129.5314561308116
 10
81.98000893132792
 20
-129.2944335614264
 10
82.29316811093713
 20
-129.2944335614264
 10
82.61046140512863
 20
-129.2944335614264
 10
82.84507240767415
 20
-129.5187092775162
 10
82.84507240767415
 20
-129.8211886611211
 97
        0
 97
        0
 75
     2
 76
     1
 98
        0
  0
ENDBLK
  5
C3
330
C0
100
AcDbEntity
  8
0
100
AcDbBlockEnd
  0
ENDSEC
  0
SECTION
  2
ENTITIES
  0
SPLINE
  5
41
330
1F
100
AcDbEntity
  8
_U+30EC_U+30A4_U+30E4_U+30FC 1
 62
     9
420
 13224394
370
     9
100
AcDbSpline
210
0.0
220
0.0
230
1.0
 70
    11
 71
     3
 72
    29
 73
    25
 74
     0
 42
0.0000000001
 43
0.0000000001
 12
1.0
 22
0.0
 32
0.0
 13
1.0
 23
0.0
 33
0.0
 40
0.0
 40
0.0
 40
0.0
 40
0.0
 40
1.0
 40
1.0
 40
1.0
 40
2.0
 40
2.0
 40
2.0
 40
3.0
 40
3.0
 40
3.0
 40
4.0
 40
4.0
 40
4.0
 40
5.0
 40
5.0
 40
5.0
 40
6.0
 40
6.0
 40
6.0
 40
7.0
 40
7.0
 40
7.0
 40
8.0
 40
8.0
 40
8.0
 40
8.0
 10
86.60694442279271
 20
-142.5911196865742
 30
0.0
 10
86.60694442279271
 20
-142.5911196865742
 30
0.0
 10
86.60694442279271
 20
-121.2832008030125
 30
0.0
 10
86.60694442279271
 20
-121.2832008030125
 30
0.0
 10
86.60694442279271
 20
-121.2832008030125
 30
0.0
 10
87.40069442259427
 20
-120.2248674699437
 30
0.0
 10
87.40069442259427
 20
-122.2533396916589
 30
0.0
 10
87.40069442259427
 20
-122.2533396916589
 30
0.0
 10
87.66527775586147
 20
-133.6304230221482
 30
0.0
 10
87.66527775586147
 20
-133.6304230221482
 30
0.0
 10
87.66527775586147
 20
-133.6304230221482
 30
0.0
 10
91.2812499771797
 20
-133.7186174665706
 30
0.0
 10
91.2812499771797
 20
-133.7186174665706
 30
0.0
 10
91.2812499771797
 20
-133.7186174665706
 30
0.0
 10
91.2812499771797
 20
-134.5123674663722
 30
0.0
 10
91.2812499771797
 20
-134.5123674663722
 30
0.0
 10
91.2812499771797
 20
-134.5123674663722
 30
0.0
 10
87.40069442259427
 20
-134.5123674663722
 30
0.0
 10
87.40069442259427
 20
-134.5123674663722
 30
0.0
 10
87.40069442259427
 20
-134.5123674663722
 30
0.0
 10
87.40069442259427
 20
-142.6793141309966
 30
0.0
 10
87.40069442259427
 20
-142.6793141309966
 30
0.0
 10
87.40069442259427
 20
-142.6793141309966
 30
0.0
 10
86.60694442279271
 20
-142.5911196865742
 30
0.0
 10
86.60694442279271
 20
-142.5911196865742
 30
0.0
  0
HATCH
  5
42
330
1F
100
AcDbEntity
  8
_U+30EC_U+30A4_U+30E4_U+30FC 1
 62
     9
420
 13224394
100
AcDbHatch
 10
0.0
 20
0.0
 30
0.0
210
0.0
220
0.0
230
1.0
  2
SOLID
 70
     1
 71
     0
 91
        1
 92
        1
 93
        1
 72
     4
 94
        3
 73
     0
 74
     1
 95
       29
 96
       25
 40
0.0
 40
0.0
 40
0.0
 40
0.0
 40
1.0
 40
1.0
 40
1.0
 40
2.0
 40
2.0
 40
2.0
 40
3.0
 40
3.0
 40
3.0
 40
4.0
 40
4.0
 40
4.0
 40
5.0
 40
5.0
 40
5.0
 40
6.0
 40
6.0
 40
6.0
 40
7.0
 40
7.0
 40
7.0
 40
8.0
 40
8.0
 40
8.0
 40
8.0
 10
86.60694442279271
 20
-142.5911196865742
 10
86.60694442279271
 20
-142.5911196865742
 10
86.60694442279271
 20
-121.2832008030125
 10
86.60694442279271
 20
-121.2832008030125
 10
86.60694442279271
 20
-121.2832008030125
 10
87.40069442259427
 20
-120.2248674699437
 10
87.40069442259427
 20
-122.2533396916589
 10
87.40069442259427
 20
-122.2533396916589
 10
87.66527775586147
 20
-133.6304230221482
 10
87.66527775586147
 20
-133.6304230221482
 10
87.66527775586147
 20
-133.6304230221482
 10
91.2812499771797
 20
-133.7186174665706
 10
91.2812499771797
 20
-133.7186174665706
 10
91.2812499771797
 20
-133.7186174665706
 10
91.2812499771797
 20
-134.5123674663722
 10
91.2812499771797
 20
-134.5123674663722
 10
91.2812499771797
 20
-134.5123674663722
 10
87.40069442259427
 20
-134.5123674663722
 10
87.40069442259427
 20
-134.5123674663722
 10
87.40069442259427
 20
-134.5123674663722
 10
87.40069442259427
 20
-142.6793141309966
 10
87.40069442259427
 20
-142.6793141309966
 10
87.40069442259427
 20
-142.6793141309966
 10
86.60694442279271
 20
-142.5911196865742
 10
86.60694442279271
 20
-142.5911196865742
 97
        0
 97
        0
 75
     2
 76
     1
 98
        0
  0
SPLINE
  5
43
330
1F
100
AcDbEntity
  8
_U+30EC_U+30A4_U+30E4_U+30FC 1
 62
     9
420
 13224394
370
     9
100
AcDbSpline
210
0.0
220
0.0
230
1.0
 70
    11
 71
     3
 72
    29
 73
    25
 74
     0
 42
0.0000000001
 43
0.0000000001
 12
1.0
 22
0.0
 32
0.0
 13
1.0
 23
0.0
 33
0.0
 40
0.0
 40
0.0
 40
0.0
 40
0.0
 40
1.0
 40
1.0
 40
1.0
 40
2.0
 40
2.0
 40
2.0
 40
3.0
 40
3.0
 40
3.0
 40
4.0
 40
4.0
 40
4.0
 40
5.0
 40
5.0
 40
5.0
 40
6.0
 40
6.0
 40
6.0
 40
7.0
 40
7.0
 40
7.0
 40
8.0
 40
8.0
 40
8.0
 40
8.0
 10
94.89722219849791
 20
-127.8977841346922
 30
0.0
 10
94.89722219849791
 20
-127.8977841346922
 30
0.0
 10
94.80902775407553
 20
-133.365839688881
 30
0.0
 10
94.80902775407553
 20
-133.365839688881
 30
0.0
 10
94.80902775407553
 20
-133.365839688881
 30
0.0
 10
94.80902775407553
 20
-133.806811910993
 30
0.0
 10
94.10347219869635
 20
-133.806811910993
 30
0.0
 10
94.10347219869635
 20
-133.806811910993
 30
0.0
 10
93.48611108773959
 20
-133.806811910993
 30
0.0
 10
93.48611108773959
 20
-133.806811910993
 30
0.0
 10
93.48611108773959
 20
-133.806811910993
 30
0.0
 10
93.39791664331719
 20
-134.5123674663722
 30
0.0
 10
93.39791664331719
 20
-134.5123674663722
 30
0.0
 10
93.39791664331719
 20
-134.5123674663722
 30
0.0
 10
95.60277775387709
 20
-134.9533396884842
 30
0.0
 10
95.60277775387709
 20
-133.6304230221482
 30
0.0
 10
95.60277775387709
 20
-133.6304230221482
 30
0.0
 10
95.5145833094547
 20
-127.3686174681578
 30
0.0
 10
95.5145833094547
 20
-127.3686174681578
 30
0.0
 10
95.5145833094547
 20
-127.3686174681578
 30
0.0
 10
95.24999997618751
 20
-126.9276452460458
 30
0.0
 10
94.45624997638595
 20
-127.0158396904682
 30
0.0
 10
94.45624997638595
 20
-127.0158396904682
 30
0.0
 10
94.01527775427397
 20
-127.3686174681578
 30
0.0
 10
94.89722219849791
 20
-127.8977841346922
 30
0.0
  0
HATCH
  5
44
330
1F
100
AcDbEntity
  8
_U+30EC_U+30A4_U+30E4_U+30FC 1
 62
     9
420
 13224394
100
AcDbHatch
 10
0.0
 20
0.0
 30
0.0
210
0.0
220
0.0
230
1.0
  2
SOLID
 70
     1
 71
     0
 91
        1
 92
        1
 93
        1
 72
     4
 94
        3
 73
     0
 74
     1
 95
       29
 96
       25
 40
0.0
 40
0.0
 40
0.0
 40
0.0
 40
1.0
 40
1.0
 40
1.0
 40
2.0
 40
2.0
 40
2.0
 40
3.0
 40
3.0
 40
3.0
 40
4.0
 40
4.0
 40
4.0
 40
5.0
 40
5.0
 40
5.0
 40
6.0
 40
6.0
 40
6.0
 40
7.0
 40
7.0
 40
7.0
 40
8.0
 40
8.0
 40
8.0
 40
8.0
 10
94.89722219849791
 20
-127.8977841346922
 10
94.89722219849791
 20
-127.8977841346922
 10
94.80902775407553
 20
-133.365839688881
 10
94.80902775407553
 20
-133.365839688881
 10
94.80902775407553
 20
-133.365839688881
 10
94.80902775407553
 20
-133.806811910993
 10
94.10347219869635
 20
-133.806811910993
 10
94.10347219869635
 20
-133.806811910993
 10
93.48611108773959
 20
-133.806811910993
 10
93.48611108773959
 20
-133.806811910993
 10
93.48611108773959
 20
-133.806811910993
 10
93.39791664331719
 20
-134.5123674663722
 10
93.39791664331719
 20
-134.5123674663722
 10
93.39791664331719
 20
-134.5123674663722
 10
95.60277775387709
 20
-134.9533396884842
 10
95.60277775387709
 20
-133.6304230221482
 10
95.60277775387709
 20
-133.6304230221482
 10
95.5145833094547
 20
-127.3686174681578
 10
95.5145833094547
 20
-127.3686174681578
 10
95.5145833094547
 20
-127.3686174681578
 10
95.24999997618751
 20
-126.9276452460458
 10
94.45624997638595
 20
-127.0158396904682
 10
94.45624997638595
 20
-127.0158396904682
 10
94.01527775427397
 20
-127.3686174681578
 10
94.89722219849791
 20
-127.8977841346922
 97
        0
 97
        0
 75
     2
 76
     1
 98
        0
  0
SPLINE
  5
45
330
1F
100
AcDbEntity
  8
_U+30EC_U+30A4_U+30E4_U+30FC 1
 62
   179
420
  2234388
370
    25
100
AcDbSpline
210
0.0
220
0.0
230
1.0
 70
    11
 71
     3
 72
    47
 73
    43
 74
     0
 42
0.0000000001
 43
0.0000000001
 12
1.0
 22
0.0
 32
0.0
 13
1.0
 23
0.0
 33
0.0
 40
0.0
 40
0.0
 40
0.0
 40
0.0
 40
1.0
 40
1.0
 40
1.0
 40
2.0
 40
2.0
 40
2.0
 40
3.0
 40
3.0
 40
3.0
 40
4.0
 40
4.0
 40
4.0
 40
5.0
 40
5.0
 40
5.0
 40
6.0
 40
6.0
 40
6.0
 40
7.0
 40
7.0
 40
7.0
 40
8.0
 40
8.0
 40
8.0
 40
9.0
 40
9.0
 40
9.0
 40
10.0
 40
10.0
 40
10.0
 40
11.0
 40
11.0
 40
11.0
 40
12.0
 40
12.0
 40
12.0
 40
13.0
 40
13.0
 40
13.0
 40
14.0
 40
14.0
 40
14.0
 40
14.0
 10
87.66527775586147
 20
-133.7034832999076
 30
0.0
 10
87.66527775586147
 20
-133.7034832999076
 30
0.0
 10
87.43032775592015
 20
-121.7679174695579
 30
0.0
 10
87.43032775592015
 20
-121.7679174695579
 30
0.0
 10
87.43032775592015
 20
-121.7679174695579
 30
0.0
 10
87.60671664476493
 20
-121.0627146919565
 30
0.0
 10
86.66621108944445
 20
-121.1801896919273
 30
0.0
 10
86.66621108944445
 20
-121.1801896919273
 30
0.0
 10
86.66621108944445
 20
-142.7813021865267
 30
0.0
 10
86.66621108944445
 20
-142.7813021865267
 30
0.0
 10
86.66621108944445
 20
-142.7813021865267
 30
0.0
 10
87.48888886701667
 20
-142.7813021865267
 30
0.0
 10
87.48888886701667
 20
-142.7813021865267
 30
0.0
 10
87.48888886701667
 20
-142.7813021865267
 30
0.0
 10
87.48888886701667
 20
-134.6439888552278
 30
0.0
 10
87.48888886701667
 20
-134.6439888552278
 30
0.0
 10
87.48888886701667
 20
-134.6439888552278
 30
0.0
 10
94.54444442080833
 20
-134.5261610774798
 30
0.0
 10
94.54444442080833
 20
-134.5261610774798
 30
0.0
 10
94.54444442080833
 20
-134.5261610774798
 30
0.0
 10
95.66204442052882
 20
-134.703220244102
 30
0.0
 10
95.66204442052882
 20
-133.5270944110628
 30
0.0
 10
95.66204442052882
 20
-133.5270944110628
 30
0.0
 10
95.66204442052882
 20
-127.9415285791256
 30
0.0
 10
95.66204442052882
 20
-127.9415285791256
 30
0.0
 10
95.66204442052882
 20
-127.9415285791256
 30
0.0
 10
95.71989997607015
 20
-127.0010230238054
 30
0.0
 10
95.07361108734271
 20
-127.0010230238054
 30
0.0
 10
95.07361108734271
 20
-127.0010230238054
 30
0.0
 10
94.25022775421496
 20
-126.8831952460569
 30
0.0
 10
94.19166664311875
 20
-127.2359730237465
 30
0.0
 10
94.19166664311875
 20
-127.2359730237465
 30
0.0
 10
94.01527775427397
 20
-127.7651396902808
 30
0.0
 10
94.83866108740172
 20
-127.7651396902808
 30
0.0
 10
94.83866108740172
 20
-127.7651396902808
 30
0.0
 10
94.83866108740172
 20
-132.9979277445285
 30
0.0
 10
94.83866108740172
 20
-132.9979277445285
 30
0.0
 10
94.83866108740172
 20
-132.9979277445285
 30
0.0
 10
95.0150499762465
 20
-133.7620444110038
 30
0.0
 10
94.30949442086734
 20
-133.7620444110038
 30
0.0
 10
94.30949442086734
 20
-133.7620444110038
 30
0.0
 10
87.66527775586147
 20
-133.7034832999076
 30
0.0
 10
87.66527775586147
 20
-133.7034832999076
 30
0.0
  0
POLYLINE
  5
46
330
1F
100
AcDbEntity
  8
_U+30EC_U+30A4_U+30E4_U+30FC 1
 62
   179
420
  2234388
370
    25
100
AcDb2dPolyline
 66
     1
 10
0.0
 20
0.0
 30
0.0
  0
VERTEX
  5
47
330
46
100
AcDbEntity
  8
_U+30EC_U+30A4_U+30E4_U+30FC 1
 62
   179
420
  2234388
370
    25
100
AcDbVertex
100
AcDb2dVertex
 10
93.42754997664338
 20
-133.7620444110038
 30
0.0
  0
VERTEX
  5
48
330
46
100
AcDbEntity
  8
_U+30EC_U+30A4_U+30E4_U+30FC 1
 62
   179
420
  2234388
370
    25
100
AcDbVertex
100
AcDb2dVertex
 10
93.42754997664338
 20
-134.4090388552868
 30
0.0
  0
SEQEND
  5
49
330
46
100
AcDbEntity
  8
_U+30EC_U+30A4_U+30E4_U+30FC 1
 62
   179
420
  2234388
370
    25
  0
POLYLINE
  5
4A
330
1F
100
AcDbEntity
  8
_U+30EC_U+30A4_U+30E4_U+30FC 1
 62
   179
420
  2234388
370
    25
100
AcDb2dPolyline
 66
     1
 10
0.0
 20
0.0
 30
0.0
  0
VERTEX
  5
4B
330
4A
100
AcDbEntity
  8
_U+30EC_U+30A4_U+30E4_U+30FC 1
 62
   179
420
  2234388
370
    25
100
AcDbVertex
100
AcDb2dVertex
 10
91.42871108825382
 20
-133.7620444110038
 30
0.0
  0
VERTEX
  5
4C
330
4A
100
AcDbEntity
  8
_U+30EC_U+30A4_U+30E4_U+30FC 1
 62
   179
420
  2234388
370
    25
100
AcDbVertex
100
AcDb2dVertex
 10
91.42871108825382
 20
-134.467599966383
 30
0.0
  0
SEQEND
  5
4D
330
4A
100
AcDbEntity
  8
_U+30EC_U+30A4_U+30E4_U+30FC 1
 62
   179
420
  2234388
370
    25
  0
POLYLINE
  5
4E
330
1F
100
AcDbEntity
  8
_U+30EC_U+30A4_U+30E4_U+30FC 1
 62
   179
420
  2234388
370
     9
100
AcDb2dPolyline
 66
     1
 10
0.0
 20
0.0
 30
0.0
  0
VERTEX
  5
4F
330
4E
100
AcDbEntity
  8
_U+30EC_U+30A4_U+30E4_U+30FC 1
 62
   179
420
  2234388
370
     9
100
AcDbVertex
100
AcDb2dVertex
 10
82.02083331282813
 20
-128.3680369123526
 30
0.0
  0
VERTEX
  5
50
330
4E
100
AcDbEntity
  8
_U+30EC_U+30A4_U+30E4_U+30FC 1
 62
   179
420
  2234388
370
     9
100
AcDbVertex
100
AcDb2dVertex
 10
82.02083331282813
 20
-121.121275803053
 30
0.0
  0
VERTEX
  5
51
330
4E
100
AcDbEntity
  8
_U+30EC_U+30A4_U+30E4_U+30FC 1
 62
   179
420
  2234388
370
     9
100
AcDbVertex
100
AcDb2dVertex
 10
86.13704442291007
 20
-121.121275803053
 30
0.0
  0
SEQEND
  5
52
330
4E
100
AcDbEntity
  8
_U+30EC_U+30A4_U+30E4_U+30FC 1
 62
   179
420
  2234388
370
     9
  0
POLYLINE
  5
53
330
1F
100
AcDbEntity
  8
_U+30EC_U+30A4_U+30E4_U+30FC 1
 62
   179
420
  2234388
370
     9
100
AcDb2dPolyline
 66
     1
 10
0.0
 20
0.0
 30
0.0
  0
VERTEX
  5
54
330
53
100
AcDbEntity
  8
_U+30EC_U+30A4_U+30E4_U+30FC 1
 62
   179
420
  2234388
370
     9
100
AcDbVertex
100
AcDb2dVertex
 10
82.02083331282813
 20
-134.1148221886934
 30
0.0
  0
VERTEX
  5
55
330
53
100
AcDbEntity
  8
_U+30EC_U+30A4_U+30E4_U+30FC 1
 62
   179
420
  2234388
370
     9
100
AcDbVertex
100
AcDb2dVertex
 10
82.02083331282813
 20
-142.7227410754305
 30
0.0
  0
VERTEX
  5
56
330
53
100
AcDbEntity
  8
_U+30EC_U+30A4_U+30E4_U+30FC 1
 62
   179
420
  2234388
370
     9
100
AcDbVertex
100
AcDb2dVertex
 10
86.07777775625834
 20
-142.7227410754305
 30
0.0
  0
SEQEND
  5
57
330
53
100
AcDbEntity
  8
_U+30EC_U+30A4_U+30E4_U+30FC 1
 62
   179
420
  2234388
370
     9
  0
POLYLINE
  5
58
330
1F
100
AcDbEntity
  8
_U+30EC_U+30A4_U+30E4_U+30FC 1
 62
   179
420
  2234388
370
     9
100
AcDb2dPolyline
 66
     1
 10
0.0
 20
0.0
 30
0.0
  0
VERTEX
  5
59
330
58
100
AcDbEntity
  8
_U+30EC_U+30A4_U+30E4_U+30FC 1
 62
   179
420
  2234388
370
     9
100
AcDbVertex
100
AcDb2dVertex
 10
87.95949442245451
 20
-142.7227410754305
 30
0.0
  0
VERTEX
  5
5A
330
58
100
AcDbEntity
  8
_U+30EC_U+30A4_U+30E4_U+30FC 1
 62
   179
420
  2234388
370
     9
100
AcDbVertex
100
AcDb2dVertex
 10
99.71898886395903
 20
-142.7227410754305
 30
0.0
  0
VERTEX
  5
5B
330
58
100
AcDbEntity
  8
_U+30EC_U+30A4_U+30E4_U+30FC 1
 62
   179
420
  2234388
370
     9
100
AcDbVertex
100
AcDb2dVertex
 10
99.71898886395903
 20
-140.3848827426815
 30
0.0
  0
SEQEND
  5
5C
330
58
100
AcDbEntity
  8
_U+30EC_U+30A4_U+30E4_U+30FC 1
 62
   179
420
  2234388
370
     9
  0
POLYLINE
  5
5D
330
1F
100
AcDbEntity
  8
_U+30EC_U+30A4_U+30E4_U+30FC 1
 62
   179
420
  2234388
370
     9
100
AcDb2dPolyline
 66
     1
 10
0.0
 20
0.0
 30
0.0
  0
VERTEX
  5
5E
330
5D
100
AcDbEntity
  8
_U+30EC_U+30A4_U+30E4_U+30FC 1
 62
   179
420
  2234388
370
     9
100
AcDbVertex
100
AcDb2dVertex
 10
99.77754997505588
 20
-136.9156660768825
 30
0.0
  0
VERTEX
  5
5F
330
5D
100
AcDbEntity
  8
_U+30EC_U+30A4_U+30E4_U+30FC 1
 62
   179
420
  2234388
370
     9
100
AcDbVertex
100
AcDb2dVertex
 10
99.77754997505588
 20
-132.4294616335595
 30
0.0
  0
SEQEND
  5
60
330
5D
100
AcDbEntity
  8
_U+30EC_U+30A4_U+30E4_U+30FC 1
 62
   179
420
  2234388
370
     9
  0
POLYLINE
  5
61
330
1F
100
AcDbEntity
  8
_U+30EC_U+30A4_U+30E4_U+30FC 1
 62
   179
420
  2234388
370
     9
100
AcDb2dPolyline
 66
     1
 10
0.0
 20
0.0
 30
0.0
  0
VERTEX
  5
62
330
61
100
AcDbEntity
  8
_U+30EC_U+30A4_U+30E4_U+30FC 1
 62
   179
420
  2234388
370
     9
100
AcDbVertex
100
AcDb2dVertex
 10
95.4263888650323
 20
-134.5261610774798
 30
0.0
  0
VERTEX
  5
63
330
61
100
AcDbEntity
  8
_U+30EC_U+30A4_U+30E4_U+30FC 1
 62
   179
420
  2234388
370
     9
100
AcDbVertex
100
AcDb2dVertex
 10
99.83611108615209
 20
-134.5261610774798
 30
0.0
  0
SEQEND
  5
64
330
61
100
AcDbEntity
  8
_U+30EC_U+30A4_U+30E4_U+30FC 1
 62
   179
420
  2234388
370
     9
  0
POLYLINE
  5
65
330
1F
100
AcDbEntity
  8
_U+30EC_U+30A4_U+30E4_U+30FC 1
 62
   179
420
  2234388
370
     9
100
AcDb2dPolyline
 66
     1
 10
0.0
 20
0.0
 30
0.0
  0
VERTEX
  5
66
330
65
100
AcDbEntity
  8
_U+30EC_U+30A4_U+30E4_U+30FC 1
 62
   179
420
  2234388
370
     9
100
AcDbVertex
100
AcDb2dVertex
 10
99.71898886395903
 20
-129.3426560787757
 30
0.0
  0
VERTEX
  5
67
330
65
100
AcDbEntity
  8
_U+30EC_U+30A4_U+30E4_U+30FC 1
 62
   179
420
  2234388
370
     9
100
AcDbVertex
100
AcDb2dVertex
 10
99.71898886395903
 20
-126.0012508018329
 30
0.0
  0
SEQEND
  5
68
330
65
100
AcDbEntity
  8
_U+30EC_U+30A4_U+30E4_U+30FC 1
 62
   179
420
  2234388
370
     9
  0
POLYLINE
  5
69
330
1F
100
AcDbEntity
  8
_U+30EC_U+30A4_U+30E4_U+30FC 1
 62
   179
420
  2234388
370
     9
100
AcDb2dPolyline
 66
     1
 10
0.0
 20
0.0
 30
0.0
  0
VERTEX
  5
6A
330
69
100
AcDbEntity
  8
_U+30EC_U+30A4_U+30E4_U+30FC 1
 62
   179
420
  2234388
370
     9
100
AcDbVertex
100
AcDb2dVertex
 10
99.77754997505588
 20
-127.0595841349017
 30
0.0
  0
VERTEX
  5
6B
330
69
100
AcDbEntity
  8
_U+30EC_U+30A4_U+30E4_U+30FC 1
 62
   179
420
  2234388
370
     9
100
AcDbVertex
100
AcDb2dVertex
 10
95.72060553162567
 20
-127.0595841349017
 30
0.0
  0
SEQEND
  5
6C
330
69
100
AcDbEntity
  8
_U+30EC_U+30A4_U+30E4_U+30FC 1
 62
   179
420
  2234388
370
     9
  0
POLYLINE
  5
6D
330
1F
100
AcDbEntity
  8
_U+30EC_U+30A4_U+30E4_U+30FC 1
 62
   179
420
  2234388
370
     9
100
AcDb2dPolyline
 66
     1
 10
0.0
 20
0.0
 30
0.0
  0
VERTEX
  5
6E
330
6D
100
AcDbEntity
  8
_U+30EC_U+30A4_U+30E4_U+30FC 1
 62
   179
420
  2234388
370
     9
100
AcDbVertex
100
AcDb2dVertex
 10
87.90093331135799
 20
-121.0623619141787
 30
0.0
  0
VERTEX
  5
6F
330
6D
100
AcDbEntity
  8
_U+30EC_U+30A4_U+30E4_U+30FC 1
 62
   179
420
  2234388
370
     9
100
AcDbVertex
100
AcDb2dVertex
 10
99.77754997505588
 20
-121.0623619141787
 30
0.0
  0
VERTEX
  5
70
330
6D
100
AcDbEntity
  8
_U+30EC_U+30A4_U+30E4_U+30FC 1
 62
   179
420
  2234388
370
     9
100
AcDbVertex
100
AcDb2dVertex
 10
99.77754997505588
 20
-121.9443063584027
 30
0.0
  0
SEQEND
  5
71
330
6D
100
AcDbEntity
  8
_U+30EC_U+30A4_U+30E4_U+30FC 1
 62
   179
420
  2234388
370
     9
  0
POLYLINE
  5
72
330
1F
100
AcDbEntity
  8
_U+30EC_U+30A4_U+30E4_U+30FC 1
 62
   179
420
  2234388
370
     9
100
AcDb2dPolyline
 66
     1
 10
0.0
 20
0.0
 30
0.0
  0
VERTEX
  5
73
330
72
100
AcDbEntity
  8
_U+30EC_U+30A4_U+30E4_U+30FC 1
 62
   179
420
  2234388
370
     9
100
AcDbVertex
100
AcDb2dVertex
 10
95.66204442052882
 20
-126.5890138572417
 30
0.0
  0
VERTEX
  5
74
330
72
100
AcDbEntity
  8
_U+30EC_U+30A4_U+30E4_U+30FC 1
 62
   179
420
  2234388
370
     9
100
AcDbVertex
100
AcDb2dVertex
 10
95.66204442052882
 20
-115.2415285823006
 30
0.0
  0
VERTEX
  5
75
330
72
100
AcDbEntity
  8
_U+30EC_U+30A4_U+30E4_U+30FC 1
 62
   179
420
  2234388
370
     9
100
AcDbVertex
100
AcDb2dVertex
 10
93.8981555320809
 20
-115.2415285823006
 30
0.0
  0
SEQEND
  5
76
330
72
100
AcDbEntity
  8
_U+30EC_U+30A4_U+30E4_U+30FC 1
 62
   179
420
  2234388
370
     9
  0
POLYLINE
  5
77
330
1F
100
AcDbEntity
  8
_U+30EC_U+30A4_U+30E4_U+30FC 1
 62
   179
420
  2234388
370
     9
100
AcDb2dPolyline
 66
     1
 10
0.0
 20
0.0
 30
0.0
  0
VERTEX
  5
78
330
77
100
AcDbEntity
  8
_U+30EC_U+30A4_U+30E4_U+30FC 1
 62
   179
420
  2234388
370
     9
100
AcDbVertex
100
AcDb2dVertex
 10
88.72361108893021
 20
-115.3593563600492
 30
0.0
  0
VERTEX
  5
79
330
77
100
AcDbEntity
  8
_U+30EC_U+30A4_U+30E4_U+30FC 1
 62
   179
420
  2234388
370
     9
100
AcDbVertex
100
AcDb2dVertex
 10
86.72477220054097
 20
-115.3593563600492
 30
0.0
  0
VERTEX
  5
7A
330
77
100
AcDbEntity
  8
_U+30EC_U+30A4_U+30E4_U+30FC 1
 62
   179
420
  2234388
370
     9
100
AcDbVertex
100
AcDb2dVertex
 10
86.72477220054097
 20
-120.6510230253929
 30
0.0
  0
SEQEND
  5
7B
330
77
100
AcDbEntity
  8
_U+30EC_U+30A4_U+30E4_U+30FC 1
 62
   179
420
  2234388
370
     9
  0
SPLINE
  5
7C
330
1F
100
AcDbEntity
  8
_U+30EC_U+30A4_U+30E4_U+30FC 1
370
     0
100
AcDbSpline
210
0.0
220
0.0
230
1.0
 70
    11
 71
     3
 72
    17
 73
    13
 74
     0
 42
0.0000000001
 43
0.0000000001
 12
1.0
 22
0.0
 32
0.0
 13
1.0
 23
0.0
 33
0.0
 40
0.0
 40
0.0
 40
0.0
 40
0.0
 40
1.0
 40
1.0
 40
1.0
 40
2.0
 40
2.0
 40
2.0
 40
3.0
 40
3.0
 40
3.0
 40
4.0
 40
4.0
 40
4.0
 40
4.0
 10
82.27095275720998
 20
-121.121275803053
 30
0.0
 10
82.27095275720998
 20
-121.2591060807963
 30
0.0
 10
82.1593317928297
 20
-121.3710424696571
 30
0.0
 10
82.02153886838366
 20
-121.3710424696571
 30
0.0
 10
81.88303624432304
 20
-121.3710424696571
 30
0.0
 10
81.77071386844628
 20
-121.2591060807963
 30
0.0
 10
81.77071386844628
 20
-121.121275803053
 30
0.0
 10
81.77071386844628
 20
-120.9831280253098
 30
0.0
 10
81.88303624432304
 20
-120.871191636449
 30
0.0
 10
82.02153886838366
 20
-120.871191636449
 30
0.0
 10
82.1593317928297
 20
-120.871191636449
 30
0.0
 10
82.27095275720998
 20
-120.9831280253098
 30
0.0
 10
82.27095275720998
 20
-121.121275803053
 30
0.0
  0
HATCH
  5
7D
330
1F
100
AcDbEntity
  8
_U+30EC_U+30A4_U+30E4_U+30FC 1
 62
   179
420
  2234388
100
AcDbHatch
 10
0.0
 20
0.0
 30
0.0
210
0.0
220
0.0
230
1.0
  2
SOLID
 70
     1
 71
     0
 91
        1
 92
        1
 93
        1
 72
     4
 94
        3
 73
     0
 74
     1
 95
       17
 96
       13
 40
0.0
 40
0.0
 40
0.0
 40
0.0
 40
1.0
 40
1.0
 40
1.0
 40
2.0
 40
2.0
 40
2.0
 40
3.0
 40
3.0
 40
3.0
 40
4.0
 40
4.0
 40
4.0
 40
4.0
 10
82.27095275720998
 20
-121.121275803053
 10
82.27095275720998
 20
-121.2591060807963
 10
82.1593317928297
 20
-121.3710424696571
 10
82.02153886838366
 20
-121.3710424696571
 10
81.88303624432304
 20
-121.3710424696571
 10
81.77071386844628
 20
-121.2591060807963
 10
81.77071386844628
 20
-121.121275803053
 10
81.77071386844628
 20
-120.9831280253098
 10
81.88303624432304
 20
-120.871191636449
 10
82.02153886838366
 20
-120.871191636449
 10
82.1593317928297
 20
-120.871191636449
 10
82.27095275720998
 20
-120.9831280253098
 10
82.27095275720998
 20
-121.121275803053
 97
        0
 97
        0
 75
     2
 76
     1
 98
        0
  0
SPLINE
  5
7E
330
1F
100
AcDbEntity
  8
_U+30EC_U+30A4_U+30E4_U+30FC 1
370
     0
100
AcDbSpline
210
0.0
220
0.0
230
1.0
 70
    11
 71
     3
 72
    17
 73
    13
 74
     0
 42
0.0000000001
 43
0.0000000001
 12
1.0
 22
0.0
 32
0.0
 13
1.0
 23
0.0
 33
0.0
 40
0.0
 40
0.0
 40
0.0
 40
0.0
 40
1.0
 40
1.0
 40
1.0
 40
2.0
 40
2.0
 40
2.0
 40
3.0
 40
3.0
 40
3.0
 40
4.0
 40
4.0
 40
4.0
 40
4.0
 10
86.97453886714538
 20
-115.3593563600492
 30
0.0
 10
86.97453886714538
 20
-115.4971866377925
 30
0.0
 10
86.86291778394235
 20
-115.6091230266533
 30
0.0
 10
86.72512497831873
 20
-115.6091230266533
 30
0.0
 10
86.58729251319636
 20
-115.6091230266533
 30
0.0
 10
86.47500553393688
 20
-115.4971866377925
 30
0.0
 10
86.47500553393688
 20
-115.3593563600492
 30
0.0
 10
86.47500553393688
 20
-115.221208582306
 30
0.0
 10
86.58729251319636
 20
-115.109236915667
 30
0.0
 10
86.72512497831873
 20
-115.109236915667
 30
0.0
 10
86.86291778394235
 20
-115.109236915667
 30
0.0
 10
86.97453886714538
 20
-115.221208582306
 30
0.0
 10
86.97453886714538
 20
-115.3593563600492
 30
0.0
  0
HATCH
  5
7F
330
1F
100
AcDbEntity
  8
_U+30EC_U+30A4_U+30E4_U+30FC 1
 62
   179
420
  2234388
100
AcDbHatch
 10
0.0
 20
0.0
 30
0.0
210
0.0
220
0.0
230
1.0
  2
SOLID
 70
     1
 71
     0
 91
        1
 92
        1
 93
        1
 72
     4
 94
        3
 73
     0
 74
     1
 95
       17
 96
       13
 40
0.0
 40
0.0
 40
0.0
 40
0.0
 40
1.0
 40
1.0
 40
1.0
 40
2.0
 40
2.0
 40
2.0
 40
3.0
 40
3.0
 40
3.0
 40
4.0
 40
4.0
 40
4.0
 40
4.0
 10
86.97453886714538
 20
-115.3593563600492
 10
86.97453886714538
 20
-115.4971866377925
 10
86.86291778394235
 20
-115.6091230266533
 10
86.72512497831873
 20
-115.6091230266533
 10
86.58729251319636
 20
-115.6091230266533
 10
86.47500553393688
 20
-115.4971866377925
 10
86.47500553393688
 20
-115.3593563600492
 10
86.47500553393688
 20
-115.221208582306
 10
86.58729251319636
 20
-115.109236915667
 10
86.72512497831873
 20
-115.109236915667
 10
86.86291778394235
 20
-115.109236915667
 10
86.97453886714538
 20
-115.221208582306
 10
86.97453886714538
 20
-115.3593563600492
 97
        0
 97
        0
 75
     2
 76
     1
 98
        0
  0
SPLINE
  5
80
330
1F
100
AcDbEntity
  8
_U+30EC_U+30A4_U+30E4_U+30FC 1
370
     0
100
AcDbSpline
210
0.0
220
0.0
230
1.0
 70
    11
 71
     3
 72
    17
 73
    13
 74
     0
 42
0.0000000001
 43
0.0000000001
 12
1.0
 22
0.0
 32
0.0
 13
1.0
 23
0.0
 33
0.0
 40
0.0
 40
0.0
 40
0.0
 40
0.0
 40
1.0
 40
1.0
 40
1.0
 40
2.0
 40
2.0
 40
2.0
 40
3.0
 40
3.0
 40
3.0
 40
4.0
 40
4.0
 40
4.0
 40
4.0
 10
100.0142260595356
 20
-121.0692763586217
 30
0.0
 10
100.0142260595356
 20
-121.2070713585871
 30
0.0
 10
99.90260717349437
 20
-121.3190430252257
 30
0.0
 10
99.76481217700982
 20
-121.3190430252257
 30
0.0
 10
99.62698190274838
 20
-121.3190430252257
 30
0.0
 10
99.51469273894645
 20
-121.2070713585871
 30
0.0
 10
99.51469273894645
 20
-121.0692763586217
 30
0.0
 10
99.51469273894645
 20
-120.9311285808784
 30
0.0
 10
99.62698190274838
 20
-120.8191569142398
 30
0.0
 10
99.76481217700982
 20
-120.8191569142398
 30
0.0
 10
99.90260717349437
 20
-120.8191569142398
 30
0.0
 10
100.0142260595356
 20
-120.9311285808784
 30
0.0
 10
100.0142260595356
 20
-121.0692763586217
 30
0.0
  0
HATCH
  5
81
330
1F
100
AcDbEntity
  8
_U+30EC_U+30A4_U+30E4_U+30FC 1
 62
   179
420
  2234388
100
AcDbHatch
 10
0.0
 20
0.0
 30
0.0
210
0.0
220
0.0
230
1.0
  2
SOLID
 70
     1
 71
     0
 91
        1
 92
        1
 93
        1
 72
     4
 94
        3
 73
     0
 74
     1
 95
       17
 96
       13
 40
0.0
 40
0.0
 40
0.0
 40
0.0
 40
1.0
 40
1.0
 40
1.0
 40
2.0
 40
2.0
 40
2.0
 40
3.0
 40
3.0
 40
3.0
 40
4.0
 40
4.0
 40
4.0
 40
4.0
 10
100.0142260595356
 20
-121.0692763586217
 10
100.0142260595356
 20
-121.2070713585871
 10
99.90260717349437
 20
-121.3190430252257
 10
99.76481217700982
 20
-121.3190430252257
 10
99.62698190274838
 20
-121.3190430252257
 10
99.51469273894645
 20
-121.2070713585871
 10
99.51469273894645
 20
-121.0692763586217
 10
99.51469273894645
 20
-120.9311285808784
 10
99.62698190274838
 20
-120.8191569142398
 10
99.76481217700982
 20
-120.8191569142398
 10
99.90260717349437
 20
-120.8191569142398
 10
100.0142260595356
 20
-120.9311285808784
 10
100.0142260595356
 20
-121.0692763586217
 97
        0
 97
        0
 75
     2
 76
     1
 98
        0
  0
SPLINE
  5
82
330
1F
100
AcDbEntity
  8
_U+30EC_U+30A4_U+30E4_U+30FC 1
370
     0
100
AcDbSpline
210
0.0
220
0.0
230
1.0
 70
    11
 71
     3
 72
    17
 73
    13
 74
     0
 42
0.0000000001
 43
0.0000000001
 12
1.0
 22
0.0
 32
0.0
 13
1.0
 23
0.0
 33
0.0
 40
0.0
 40
0.0
 40
0.0
 40
0.0
 40
1.0
 40
1.0
 40
1.0
 40
2.0
 40
2.0
 40
2.0
 40
3.0
 40
3.0
 40
3.0
 40
4.0
 40
4.0
 40
4.0
 40
4.0
 10
95.8966416426927
 20
-115.2429396934113
 30
0.0
 10
95.8966416426927
 20
-115.3807346933771
 30
0.0
 10
95.78431477856077
 20
-115.4927063600158
 30
0.0
 10
95.64652219831052
 20
-115.4927063600158
 30
0.0
 10
95.50872478559165
 20
-115.4927063600158
 30
0.0
 10
95.39710830948387
 20
-115.3807346933771
 30
0.0
 10
95.39710830948387
 20
-115.2429396934113
 30
0.0
 10
95.39710830948387
 20
-115.1047919156681
 30
0.0
 10
95.50872478559165
 20
-114.9928202490295
 30
0.0
 10
95.64652219831052
 20
-114.9928202490295
 30
0.0
 10
95.78431477856077
 20
-114.9928202490295
 30
0.0
 10
95.8966416426927
 20
-115.1047919156681
 30
0.0
 10
95.8966416426927
 20
-115.2429396934113
 30
0.0
  0
HATCH
  5
83
330
1F
100
AcDbEntity
  8
_U+30EC_U+30A4_U+30E4_U+30FC 1
 62
   179
420
  2234388
100
AcDbHatch
 10
0.0
 20
0.0
 30
0.0
210
0.0
220
0.0
230
1.0
  2
SOLID
 70
     1
 71
     0
 91
        1
 92
        1
 93
        1
 72
     4
 94
        3
 73
     0
 74
     1
 95
       17
 96
       13
 40
0.0
 40
0.0
 40
0.0
 40
0.0
 40
1.0
 40
1.0
 40
1.0
 40
2.0
 40
2.0
 40
2.0
 40
3.0
 40
3.0
 40
3.0
 40
4.0
 40
4.0
 40
4.0
 40
4.0
 10
95.8966416426927
 20
-115.2429396934113
 10
95.8966416426927
 20
-115.3807346933771
 10
95.78431477856077
 20
-115.4927063600158
 10
95.64652219831052
 20
-115.4927063600158
 10
95.50872478559165
 20
-115.4927063600158
 10
95.39710830948387
 20
-115.3807346933771
 10
95.39710830948387
 20
-115.2429396934113
 10
95.39710830948387
 20
-115.1047919156681
 10
95.50872478559165
 20
-114.9928202490295
 10
95.64652219831052
 20
-114.9928202490295
 10
95.78431477856077
 20
-114.9928202490295
 10
95.8966416426927
 20
-115.1047919156681
 10
95.8966416426927
 20
-115.2429396934113
 97
        0
 97
        0
 75
     2
 76
     1
 98
        0
  0
SPLINE
  5
84
330
1F
100
AcDbEntity
  8
_U+30EC_U+30A4_U+30E4_U+30FC 1
370
     0
100
AcDbSpline
210
0.0
220
0.0
230
1.0
 70
    11
 71
     3
 72
    17
 73
    13
 74
     0
 42
0.0000000001
 43
0.0000000001
 12
1.0
 22
0.0
 32
0.0
 13
1.0
 23
0.0
 33
0.0
 40
0.0
 40
0.0
 40
0.0
 40
0.0
 40
1.0
 40
1.0
 40
1.0
 40
2.0
 40
2.0
 40
2.0
 40
3.0
 40
3.0
 40
3.0
 40
4.0
 40
4.0
 40
4.0
 40
4.0
 10
99.96391994970793
 20
-127.0661458015668
 30
0.0
 10
99.96391994970793
 20
-127.2039408015323
 30
0.0
 10
99.85230106366669
 20
-127.3155596903935
 30
0.0
 10
99.71450606718213
 20
-127.3155596903935
 30
0.0
 10
99.5766757929207
 20
-127.3155596903935
 30
0.0
 10
99.46438662911876
 20
-127.2039408015323
 30
0.0
 10
99.46438662911876
 20
-127.0661458015668
 30
0.0
 10
99.46438662911876
 20
-126.9276452460458
 30
0.0
 10
99.5766757929207
 20
-126.8153560794073
 30
0.0
 10
99.71450606718213
 20
-126.8153560794073
 30
0.0
 10
99.85230106366669
 20
-126.8153560794073
 30
0.0
 10
99.96391994970793
 20
-126.9276452460458
 30
0.0
 10
99.96391994970793
 20
-127.0661458015668
 30
0.0
  0
HATCH
  5
85
330
1F
100
AcDbEntity
  8
_U+30EC_U+30A4_U+30E4_U+30FC 1
 62
   179
420
  2234388
100
AcDbHatch
 10
0.0
 20
0.0
 30
0.0
210
0.0
220
0.0
230
1.0
  2
SOLID
 70
     1
 71
     0
 91
        1
 92
        1
 93
        1
 72
     4
 94
        3
 73
     0
 74
     1
 95
       17
 96
       13
 40
0.0
 40
0.0
 40
0.0
 40
0.0
 40
1.0
 40
1.0
 40
1.0
 40
2.0
 40
2.0
 40
2.0
 40
3.0
 40
3.0
 40
3.0
 40
4.0
 40
4.0
 40
4.0
 40
4.0
 10
99.96391994970793
 20
-127.0661458015668
 10
99.96391994970793
 20
-127.2039408015323
 10
99.85230106366669
 20
-127.3155596903935
 10
99.71450606718213
 20
-127.3155596903935
 10
99.5766757929207
 20
-127.3155596903935
 10
99.46438662911876
 20
-127.2039408015323
 10
99.46438662911876
 20
-127.0661458015668
 10
99.46438662911876
 20
-126.9276452460458
 10
99.5766757929207
 20
-126.8153560794073
 10
99.71450606718213
 20
-126.8153560794073
 10
99.85230106366669
 20
-126.8153560794073
 10
99.96391994970793
 20
-126.9276452460458
 10
99.96391994970793
 20
-127.0661458015668
 97
        0
 97
        0
 75
     2
 76
     1
 98
        0
  0
SPLINE
  5
86
330
1F
100
AcDbEntity
  8
_U+30EC_U+30A4_U+30E4_U+30FC 1
370
     0
100
AcDbSpline
210
0.0
220
0.0
230
1.0
 70
    11
 71
     3
 72
    17
 73
    13
 74
     0
 42
0.0000000001
 43
0.0000000001
 12
1.0
 22
0.0
 32
0.0
 13
1.0
 23
0.0
 33
0.0
 40
0.0
 40
0.0
 40
0.0
 40
0.0
 40
1.0
 40
1.0
 40
1.0
 40
2.0
 40
2.0
 40
2.0
 40
3.0
 40
3.0
 40
3.0
 40
4.0
 40
4.0
 40
4.0
 40
4.0
 10
100.0362746700842
 20
-134.5347688552549
 30
0.0
 10
100.0362746700842
 20
-134.6725638552207
 30
0.0
 10
99.92465830835225
 20
-134.7848882996371
 30
0.0
 10
99.78686078755842
 20
-134.7848882996371
 30
0.0
 10
99.64903051329699
 20
-134.7848882996371
 30
0.0
 10
99.53674134949506
 20
-134.6725638552207
 30
0.0
 10
99.53674134949506
 20
-134.5347688552549
 30
0.0
 10
99.53674134949506
 20
-134.3969738552898
 30
0.0
 10
99.64903051329699
 20
-134.2853549664289
 30
0.0
 10
99.78686078755842
 20
-134.2853549664289
 30
0.0
 10
99.92465830835225
 20
-134.2853549664289
 30
0.0
 10
100.0362746700842
 20
-134.3969738552898
 30
0.0
 10
100.0362746700842
 20
-134.5347688552549
 30
0.0
  0
HATCH
  5
87
330
1F
100
AcDbEntity
  8
_U+30EC_U+30A4_U+30E4_U+30FC 1
 62
   179
420
  2234388
100
AcDbHatch
 10
0.0
 20
0.0
 30
0.0
210
0.0
220
0.0
230
1.0
  2
SOLID
 70
     1
 71
     0
 91
        1
 92
        1
 93
        1
 72
     4
 94
        3
 73
     0
 74
     1
 95
       17
 96
       13
 40
0.0
 40
0.0
 40
0.0
 40
0.0
 40
1.0
 40
1.0
 40
1.0
 40
2.0
 40
2.0
 40
2.0
 40
3.0
 40
3.0
 40
3.0
 40
4.0
 40
4.0
 40
4.0
 40
4.0
 10
100.0362746700842
 20
-134.5347688552549
 10
100.0362746700842
 20
-134.6725638552207
 10
99.92465830835225
 20
-134.7848882996371
 10
99.78686078755842
 20
-134.7848882996371
 10
99.64903051329699
 20
-134.7848882996371
 10
99.53674134949506
 20
-134.6725638552207
 10
99.53674134949506
 20
-134.5347688552549
 10
99.53674134949506
 20
-134.3969738552898
 10
99.64903051329699
 20
-134.2853549664289
 10
99.78686078755842
 20
-134.2853549664289
 10
99.92465830835225
 20
-134.2853549664289
 10
100.0362746700842
 20
-134.3969738552898
 10
100.0362746700842
 20
-134.5347688552549
 97
        0
 97
        0
 75
     2
 76
     1
 98
        0
  0
SPLINE
  5
88
330
1F
100
AcDbEntity
  8
_U+30EC_U+30A4_U+30E4_U+30FC 1
370
     0
100
AcDbSpline
210
0.0
220
0.0
230
1.0
 70
    11
 71
     3
 72
    17
 73
    13
 74
     0
 42
0.0000000001
 43
0.0000000001
 12
1.0
 22
0.0
 32
0.0
 13
1.0
 23
0.0
 33
0.0
 40
0.0
 40
0.0
 40
0.0
 40
0.0
 40
1.0
 40
1.0
 40
1.0
 40
2.0
 40
2.0
 40
2.0
 40
3.0
 40
3.0
 40
3.0
 40
4.0
 40
4.0
 40
4.0
 40
4.0
 10
99.96875553056344
 20
-142.7227410754305
 30
0.0
 10
99.96875553056344
 20
-142.8605360753963
 30
0.0
 10
99.85713411909893
 20
-142.9728252420345
 30
0.0
 10
99.7193038448375
 20
-142.9728252420345
 30
0.0
 10
99.58150884835294
 20
-142.9728252420345
 30
0.0
 10
99.46922219735461
 20
-142.8605360753963
 30
0.0
 10
99.46922219735461
 20
-142.7227410754305
 30
0.0
 10
99.46922219735461
 20
-142.5842405199098
 30
0.0
 10
99.58150884835294
 20
-142.4726216310483
 30
0.0
 10
99.7193038448375
 20
-142.4726216310483
 30
0.0
 10
99.85713411909893
 20
-142.4726216310483
 30
0.0
 10
99.96875553056344
 20
-142.5842405199098
 30
0.0
 10
99.96875553056344
 20
-142.7227410754305
 30
0.0
  0
HATCH
  5
89
330
1F
100
AcDbEntity
  8
_U+30EC_U+30A4_U+30E4_U+30FC 1
 62
   179
420
  2234388
100
AcDbHatch
 10
0.0
 20
0.0
 30
0.0
210
0.0
220
0.0
230
1.0
  2
SOLID
 70
     1
 71
     0
 91
        1
 92
        1
 93
        1
 72
     4
 94
        3
 73
     0
 74
     1
 95
       17
 96
       13
 40
0.0
 40
0.0
 40
0.0
 40
0.0
 40
1.0
 40
1.0
 40
1.0
 40
2.0
 40
2.0
 40
2.0
 40
3.0
 40
3.0
 40
3.0
 40
4.0
 40
4.0
 40
4.0
 40
4.0
 10
99.96875553056344
 20
-142.7227410754305
 10
99.96875553056344
 20
-142.8605360753963
 10
99.85713411909893
 20
-142.9728252420345
 10
99.7193038448375
 20
-142.9728252420345
 10
99.58150884835294
 20
-142.9728252420345
 10
99.46922219735461
 20
-142.8605360753963
 10
99.46922219735461
 20
-142.7227410754305
 10
99.46922219735461
 20
-142.5842405199098
 10
99.58150884835294
 20
-142.4726216310483
 10
99.7193038448375
 20
-142.4726216310483
 10
99.85713411909893
 20
-142.4726216310483
 10
99.96875553056344
 20
-142.5842405199098
 10
99.96875553056344
 20
-142.7227410754305
 97
        0
 97
        0
 75
     2
 76
     1
 98
        0
  0
SPLINE
  5
8A
330
1F
100
AcDbEntity
  8
_U+30EC_U+30A4_U+30E4_U+30FC 1
370
     0
100
AcDbSpline
210
0.0
220
0.0
230
1.0
 70
    11
 71
     3
 72
    17
 73
    13
 74
     0
 42
0.0000000001
 43
0.0000000001
 12
1.0
 22
0.0
 32
0.0
 13
1.0
 23
0.0
 33
0.0
 40
0.0
 40
0.0
 40
0.0
 40
0.0
 40
1.0
 40
1.0
 40
1.0
 40
2.0
 40
2.0
 40
2.0
 40
3.0
 40
3.0
 40
3.0
 40
4.0
 40
4.0
 40
4.0
 40
4.0
 10
82.28541664609531
 20
-142.7227410754305
 30
0.0
 10
82.28541664609531
 20
-142.8605360753963
 30
0.0
 10
82.17379568134959
 20
-142.9728252420345
 30
0.0
 10
82.03600275726866
 20
-142.9728252420345
 30
0.0
 10
81.8981704106036
 20
-142.9728252420345
 30
0.0
 10
81.78588331288681
 20
-142.8605360753963
 30
0.0
 10
81.78588331288681
 20
-142.7227410754305
 30
0.0
 10
81.78588331288681
 20
-142.5842405199098
 30
0.0
 10
81.8981704106036
 20
-142.4726216310483
 30
0.0
 10
82.03600275726866
 20
-142.4726216310483
 30
0.0
 10
82.17379568134959
 20
-142.4726216310483
 30
0.0
 10
82.28541664609531
 20
-142.5842405199098
 30
0.0
 10
82.28541664609531
 20
-142.7227410754305
 30
0.0
  0
HATCH
  5
8B
330
1F
100
AcDbEntity
  8
_U+30EC_U+30A4_U+30E4_U+30FC 1
 62
   179
420
  2234388
100
AcDbHatch
 10
0.0
 20
0.0
 30
0.0
210
0.0
220
0.0
230
1.0
  2
SOLID
 70
     1
 71
     0
 91
        1
 92
        1
 93
        1
 72
     4
 94
        3
 73
     0
 74
     1
 95
       17
 96
       13
 40
0.0
 40
0.0
 40
0.0
 40
0.0
 40
1.0
 40
1.0
 40
1.0
 40
2.0
 40
2.0
 40
2.0
 40
3.0
 40
3.0
 40
3.0
 40
4.0
 40
4.0
 40
4.0
 40
4.0
 10
82.28541664609531
 20
-142.7227410754305
 10
82.28541664609531
 20
-142.8605360753963
 10
82.17379568134959
 20
-142.9728252420345
 10
82.03600275726866
 20
-142.9728252420345
 10
81.8981704106036
 20
-142.9728252420345
 10
81.78588331288681
 20
-142.8605360753963
 10
81.78588331288681
 20
-142.7227410754305
 10
81.78588331288681
 20
-142.5842405199098
 10
81.8981704106036
 20
-142.4726216310483
 10
82.03600275726866
 20
-142.4726216310483
 10
82.17379568134959
 20
-142.4726216310483
 10
82.28541664609531
 20
-142.5842405199098
 10
82.28541664609531
 20
-142.7227410754305
 97
        0
 97
        0
 75
     2
 76
     1
 98
        0
  0
INSERT
  5
8D
330
1F
100
AcDbEntity
  8
_U+30EC_U+30A4_U+30E4_U+30FC 1
100
AcDbBlockReference
  2
block 2
 10
0.0
 20
0.0
 30
0.0
  0
INSERT
  5
95
330
1F
100
AcDbEntity
  8
_U+30EC_U+30A4_U+30E4_U+30FC 1
100
AcDbBlockReference
  2
block 3
 10
0.0
 20
0.0
 30
0.0
  0
INSERT
  5
9D
330
1F
100
AcDbEntity
  8
_U+30EC_U+30A4_U+30E4_U+30FC 1
100
AcDbBlockReference
  2
block 4
 10
0.0
 20
0.0
 30
0.0
  0
INSERT
  5
AF
330
1F
100
AcDbEntity
  8
_U+30EC_U+30A4_U+30E4_U+30FC 1
100
AcDbBlockReference
  2
block 5
 10
0.0
 20
0.0
 30
0.0
  0
INSERT
  5
C1
330
1F
100
AcDbEntity
  8
_U+30EC_U+30A4_U+30E4_U+30FC 1
100
AcDbBlockReference
  2
block 6
 10
0.0
 20
0.0
 30
0.0
  0
ENDSEC
  0
SECTION
  2
OBJECTS
  0
DICTIONARY
  5
C
330
0
100
AcDbDictionary
281
     1
  3
ACAD_GROUP
350
D
  3
ACAD_LAYOUT
350
1A
  3
ACAD_MATERIAL
350
3B
  3
ACAD_MLEADERSTYLE
350
D3
  3
ACAD_MLINESTYLE
350
17
  3
ACAD_PLOTSETTINGS
350
19
  3
ACAD_PLOTSTYLENAME
350
E
  3
ACAD_TABLESTYLE
350
D2
  3
ACAD_VISUALSTYLE
350
2A
  0
SUN
  5
3F
330
29
100
AcDbSun
 90
        1
290
     0
 63
     7
421
 16777215
 40
1.0
291
     1
 91
  2455826
 92
 54000000
292
     0
 70
     2
 71
   256
280
     1
  0
DICTIONARY
  5
D
102
{ACAD_REACTORS
330
C
102
}
330
C
100
AcDbDictionary
281
     1
  0
DICTIONARY
  5
1A
102
{ACAD_REACTORS
330
C
102
}
330
C
100
AcDbDictionary
281
     1
  3
Layout1
350
1E
  3
Layout2
350
26
  3
Model
350
22
  0
DICTIONARY
  5
3B
102
{ACAD_REACTORS
330
C
102
}
330
C
100
AcDbDictionary
281
     1
  3
ByBlock
350
3D
  3
ByLayer
350
3C
  3
Global
350
3E
  0
DICTIONARY
  5
D3
102
{ACAD_REACTORS
330
C
102
}
330
C
100
AcDbDictionary
281
     1
  0
DICTIONARY
  5
17
102
{ACAD_REACTORS
330
C
102
}
330
C
100
AcDbDictionary
281
     1
  3
Standard
350
18
  0
DICTIONARY
  5
19
102
{ACAD_REACTORS
330
C
102
}
330
C
100
AcDbDictionary
281
     1
  0
ACDBDICTIONARYWDFLT
  5
E
102
{ACAD_REACTORS
330
C
102
}
330
C
100
AcDbDictionary
281
     1
  3
Normal
350
F
100
AcDbDictionaryWithDefault
340
F
  0
DICTIONARY
  5
D2
102
{ACAD_REACTORS
330
C
102
}
330
C
100
AcDbDictionary
281
     1
  0
DICTIONARY
  5
2A
102
{ACAD_REACTORS
330
C
102
}
330
C
100
AcDbDictionary
281
     1
  3
2dWireframe
350
2F
  3
3D Hidden
350
31
  3
3dWireframe
350
30
  3
Basic
350
32
  3
Brighten
350
36
  3
ColorChange
350
3A
  3
Conceptual
350
34
  3
Dim
350
35
  3
Facepattern
350
39
  3
Flat
350
2B
  3
FlatWithEdges
350
2C
  3
Gouraud
350
2D
  3
GouraudWithEdges
350
2E
  3
Linepattern
350
38
  3
Realistic
350
33
  3
Thicken
350
37
  0
LAYOUT
  5
1E
102
{ACAD_REACTORS
330
1A
102
}
330
1A
100
AcDbPlotSettings
  1

  2
none_device
  4

  6

 40
0.0
 41
0.0
 42
0.0
 43
0.0
 44
0.0
 45
0.0
 46
0.0
 47
0.0
 48
0.0
 49
0.0
140
0.0
141
0.0
142
1.0
143
1.0
 70
   688
 72
     0
 73
     0
 74
     5
  7

 75
    16
 76
     0
 77
     2
 78
   300
147
1.0
148
0.0
149
0.0
100
AcDbLayout
  1
Layout1
 70
     1
 71
     1
 10
0.0
 20
0.0
 11
12.0
 21
9.0
 12
0.0
 22
0.0
 32
0.0
 14
1.000000000000000E+20
 24
1.000000000000000E+20
 34
1.000000000000000E+20
 15
-1.000000000000000E+20
 25
-1.000000000000000E+20
 35
-1.000000000000000E+20
146
0.0
 13
0.0
 23
0.0
 33
0.0
 16
1.0
 26
0.0
 36
0.0
 17
0.0
 27
1.0
 37
0.0
 76
     0
330
1B
  0
LAYOUT
  5
26
102
{ACAD_REACTORS
330
1A
102
}
330
1A
100
AcDbPlotSettings
  1

  2
none_device
  4

  6

 40
0.0
 41
0.0
 42
0.0
 43
0.0
 44
0.0
 45
0.0
 46
0.0
 47
0.0
 48
0.0
 49
0.0
140
0.0
141
0.0
142
1.0
143
1.0
 70
   688
 72
     0
 73
     0
 74
     5
  7

 75
    16
 76
     0
 77
     2
 78
   300
147
1.0
148
0.0
149
0.0
100
AcDbLayout
  1
Layout2
 70
     1
 71
     2
 10
0.0
 20
0.0
 11
0.0
 21
0.0
 12
0.0
 22
0.0
 32
0.0
 14
0.0
 24
0.0
 34
0.0
 15
0.0
 25
0.0
 35
0.0
146
0.0
 13
0.0
 23
0.0
 33
0.0
 16
1.0
 26
0.0
 36
0.0
 17
0.0
 27
1.0
 37
0.0
 76
     0
330
23
  0
LAYOUT
  5
22
102
{ACAD_REACTORS
330
1A
102
}
330
1A
100
AcDbPlotSettings
  1

  2
none_device
  4

  6

 40
0.0
 41
0.0
 42
0.0
 43
0.0
 44
0.0
 45
0.0
 46
0.0
 47
0.0
 48
0.0
 49
0.0
140
0.0
141
0.0
142
1.0
143
1.0
 70
  1712
 72
     0
 73
     0
 74
     0
  7

 75
     0
 76
     0
 77
     2
 78
   300
147
1.0
148
0.0
149
0.0
100
AcDbLayout
  1
Model
 70
     1
 71
     0
 10
0.0
 20
0.0
 11
12.0
 21
9.0
 12
0.0
 22
0.0
 32
0.0
 14
1.000000000000000E+20
 24
1.000000000000000E+20
 34
1.000000000000000E+20
 15
-1.000000000000000E+20
 25
-1.000000000000000E+20
 35
-1.000000000000000E+20
146
0.0
 13
0.0
 23
0.0
 33
0.0
 16
1.0
 26
0.0
 36
0.0
 17
0.0
 27
1.0
 37
0.0
 76
     0
330
1F
331
29
  0
MATERIAL
  5
3D
102
{ACAD_REACTORS
330
3B
102
}
330
3B
100
AcDbMaterial
  1
ByBlock
 72
     1
 94
      127
  0
MATERIAL
  5
3C
102
{ACAD_REACTORS
330
3B
102
}
330
3B
100
AcDbMaterial
  1
ByLayer
 72
     1
 94
      127
  0
MATERIAL
  5
3E
102
{ACAD_REACTORS
330
3B
102
}
330
3B
100
AcDbMaterial
  1
Global
 72
     1
 94
      127
  0
MLINESTYLE
  5
18
102
{ACAD_REACTORS
330
17
102
}
330
17
100
AcDbMlineStyle
  2
Standard
 70
     0
  3

 62
   256
 51
90.0
 52
90.0
 71
     2
 49
0.5
 62
   256
  6
BYLAYER
 49
-0.5
 62
   256
  6
BYLAYER
  0
ACDBPLACEHOLDER
  5
F
102
{ACAD_REACTORS
330
E
102
}
330
E
  0
VISUALSTYLE
  5
2F
102
{ACAD_REACTORS
330
2A
102
}
330
2A
100
AcDbVisualStyle
  2
2dWireframe
 70
     4
177
     2
291
     0
 71
     0
176
     1
 72
     2
176
     1
 73
     0
176
     1
 90
        0
176
     1
 40
-0.6
176
     1
 41
-30.0
176
     1
 62
     5
 63
     7
421
 16777215
176
     1
 74
     1
176
     1
 91
        4
176
     1
 64
     7
176
     1
 65
   257
176
     1
 75
     1
176
     1
175
     1
176
     1
 42
1.0
176
     1
 92
        0
176
     1
 66
   257
176
     1
 43
1.0
176
     1
 76
     1
176
     1
 77
     6
176
     1
 78
     2
176
     1
 67
     7
176
     1
 79
     5
176
     1
170
     0
176
     1
171
     0
176
     1
290
     0
176
     1
 93
        1
176
     1
 44
0.0
176
     1
173
     0
176
     1
  0
VISUALSTYLE
  5
31
102
{ACAD_REACTORS
330
2A
102
}
330
2A
100
AcDbVisualStyle
  2
3D Hidden
 70
     6
177
     2
291
     0
 71
     1
176
     1
 72
     2
176
     1
 73
     2
176
     1
 90
        0
176
     1
 40
-0.6
176
     1
 41
-30.0
176
     1
 62
     5
 63
     7
421
 16777215
176
     1
 74
     2
176
     1
 91
        2
176
     1
 64
     7
176
     1
 65
   257
176
     1
 75
     2
176
     1
175
     1
176
     1
 42
40.0
176
     1
 92
        0
176
     1
 66
   257
176
     1
 43
1.0
176
     1
 76
     1
176
     1
 77
     6
176
     1
 78
     2
176
     1
 67
     7
176
     1
 79
     3
176
     1
170
     0
176
     1
171
     0
176
     1
290
     0
176
     1
 93
        1
176
     1
 44
0.0
176
     1
173
     0
176
     1
  0
VISUALSTYLE
  5
30
102
{ACAD_REACTORS
330
2A
102
}
330
2A
100
AcDbVisualStyle
  2
3dWireframe
 70
     5
177
     2
291
     0
 71
     0
176
     1
 72
     2
176
     1
 73
     0
176
     1
 90
        0
176
     1
 40
-0.6
176
     1
 41
-30.0
176
     1
 62
     5
 63
     7
421
 16777215
176
     1
 74
     1
176
     1
 91
        4
176
     1
 64
     7
176
     1
 65
   257
176
     1
 75
     1
176
     1
175
     1
176
     1
 42
1.0
176
     1
 92
        0
176
     1
 66
   257
176
     1
 43
1.0
176
     1
 76
     1
176
     1
 77
     6
176
     1
 78
     2
176
     1
 67
     7
176
     1
 79
     5
176
     1
170
     0
176
     1
171
     0
176
     1
290
     0
176
     1
 93
        1
176
     1
 44
0.0
176
     1
173
     0
176
     1
  0
VISUALSTYLE
  5
32
102
{ACAD_REACTORS
330
2A
102
}
330
2A
100
AcDbVisualStyle
  2
Basic
 70
     7
177
     2
291
     1
 71
     1
176
     1
 72
     0
176
     1
 73
     1
176
     1
 90
        0
176
     1
 40
-0.6
176
     1
 41
-30.0
176
     1
 62
     5
 63
     7
421
 16777215
176
     1
 74
     0
176
     1
 91
        4
176
     1
 64
     7
176
     1
 65
   257
176
     1
 75
     1
176
     1
175
     1
176
     1
 42
1.0
176
     1
 92
        8
176
     1
 66
     7
176
     1
 43
1.0
176
     1
 76
     1
176
     1
 77
     6
176
     1
 78
     2
176
     1
 67
     7
176
     1
 79
     5
176
     1
170
     0
176
     1
171
     0
176
     1
290
     0
176
     1
 93
        1
176
     1
 44
0.0
176
     1
173
     0
176
     1
  0
VISUALSTYLE
  5
36
102
{ACAD_REACTORS
330
2A
102
}
330
2A
100
AcDbVisualStyle
  2
Brighten
 70
    12
177
     2
291
     1
 71
     2
176
     1
 72
     2
176
     1
 73
     0
176
     1
 90
        0
176
     1
 40
-0.6
176
     1
 41
-30.0
176
     1
 62
     5
 63
     7
421
 16777215
176
     1
 74
     1
176
     1
 91
        4
176
     1
 64
     7
176
     1
 65
   257
176
     1
 75
     1
176
     1
175
     1
176
     1
 42
1.0
176
     1
 92
        8
176
     1
 66
     7
176
     1
 43
1.0
176
     1
 76
     1
176
     1
 77
     6
176
     1
 78
     2
176
     1
 67
     7
176
     1
 79
     5
176
     1
170
     0
176
     1
171
     0
176
     1
290
     0
176
     1
 93
        1
176
     1
 44
50.0
176
     1
173
     0
176
     1
  0
VISUALSTYLE
  5
3A
102
{ACAD_REACTORS
330
2A
102
}
330
2A
100
AcDbVisualStyle
  2
ColorChange
 70
    16
177
     2
291
     1
 71
     2
176
     1
 72
     2
176
     1
 73
     3
176
     1
 90
        0
176
     1
 40
-0.6
176
     1
 41
-30.0
176
     1
 62
     5
 63
     8
421
  8421504
176
     1
 74
     1
176
     1
 91
        4
176
     1
 64
     7
176
     1
 65
   257
176
     1
 75
     1
176
     1
175
     1
176
     1
 42
1.0
176
     1
 92
        8
176
     1
 66
     8
424
  8421504
176
     1
 43
1.0
176
     1
 76
     1
176
     1
 77
     6
176
     1
 78
     2
176
     1
 67
     7
176
     1
 79
     5
176
     1
170
     0
176
     1
171
     0
176
     1
290
     0
176
     1
 93
        1
176
     1
 44
0.0
176
     1
173
     0
176
     1
  0
VISUALSTYLE
  5
34
102
{ACAD_REACTORS
330
2A
102
}
330
2A
100
AcDbVisualStyle
  2
Conceptual
 70
     9
177
     2
291
     0
 71
     3
176
     1
 72
     2
176
     1
 73
     0
176
     1
 90
        0
176
     1
 40
-0.6
176
     1
 41
-30.0
176
     1
 62
     5
 63
     7
421
 16777215
176
     1
 74
     2
176
     1
 91
        2
176
     1
 64
     7
176
     1
 65
   257
176
     1
 75
     1
176
     1
175
     1
176
     1
 42
40.0
176
     1
 92
        8
176
     1
 66
     7
176
     1
 43
1.0
176
     1
 76
     1
176
     1
 77
     6
176
     1
 78
     2
176
     1
 67
     7
176
     1
 79
     3
176
     1
170
     0
176
     1
171
     0
176
     1
290
     0
176
     1
 93
        1
176
     1
 44
0.0
176
     1
173
     0
176
     1
  0
VISUALSTYLE
  5
35
102
{ACAD_REACTORS
330
2A
102
}
330
2A
100
AcDbVisualStyle
  2
Dim
 70
    11
177
     2
291
     1
 71
     2
176
     1
 72
     2
176
     1
 73
     0
176
     1
 90
        0
176
     1
 40
-0.6
176
     1
 41
-30.0
176
     1
 62
     5
 63
     7
421
 16777215
176
     1
 74
     1
176
     1
 91
        4
176
     1
 64
     7
176
     1
 65
   257
176
     1
 75
     1
176
     1
175
     1
176
     1
 42
1.0
176
     1
 92
        8
176
     1
 66
     7
176
     1
 43
1.0
176
     1
 76
     1
176
     1
 77
     6
176
     1
 78
     2
176
     1
 67
     7
176
     1
 79
     5
176
     1
170
     0
176
     1
171
     0
176
     1
290
     0
176
     1
 93
        1
176
     1
 44
-50.0
176
     1
173
     0
176
     1
  0
VISUALSTYLE
  5
39
102
{ACAD_REACTORS
330
2A
102
}
330
2A
100
AcDbVisualStyle
  2
Facepattern
 70
    15
177
     2
291
     1
 71
     2
176
     1
 72
     2
176
     1
 73
     0
176
     1
 90
        0
176
     1
 40
-0.6
176
     1
 41
-30.0
176
     1
 62
     5
 63
     7
421
 16777215
176
     1
 74
     1
176
     1
 91
        4
176
     1
 64
     7
176
     1
 65
   257
176
     1
 75
     1
176
     1
175
     1
176
     1
 42
1.0
176
     1
 92
        8
176
     1
 66
     7
176
     1
 43
1.0
176
     1
 76
     1
176
     1
 77
     6
176
     1
 78
     2
176
     1
 67
     7
176
     1
 79
     5
176
     1
170
     0
176
     1
171
     0
176
     1
290
     0
176
     1
 93
        1
176
     1
 44
0.0
176
     1
173
     0
176
     1
  0
VISUALSTYLE
  5
2B
102
{ACAD_REACTORS
330
2A
102
}
330
2A
100
AcDbVisualStyle
  2
Flat
 70
     0
177
     2
291
     1
 71
     2
176
     1
 72
     1
176
     1
 73
     1
176
     1
 90
        2
176
     1
 40
-0.6
176
     1
 41
30.0
176
     1
 62
     5
 63
     7
421
 16777215
176
     1
 74
     0
176
     1
 91
        4
176
     1
 64
     7
176
     1
 65
   257
176
     1
 75
     1
176
     1
175
     1
176
     1
 42
1.0
176
     1
 92
        8
176
     1
 66
     7
176
     1
 43
1.0
176
     1
 76
     1
176
     1
 77
     6
176
     1
 78
     2
176
     1
 67
     7
176
     1
 79
     5
176
     1
170
     0
176
     1
171
     0
176
     1
290
     0
176
     1
 93
       13
176
     1
 44
0.0
176
     1
173
     0
176
     1
  0
VISUALSTYLE
  5
2C
102
{ACAD_REACTORS
330
2A
102
}
330
2A
100
AcDbVisualStyle
  2
FlatWithEdges
 70
     1
177
     2
291
     1
 71
     2
176
     1
 72
     1
176
     1
 73
     1
176
     1
 90
        2
176
     1
 40
-0.6
176
     1
 41
30.0
176
     1
 62
     5
 63
     7
421
 16777215
176
     1
 74
     1
176
     1
 91
        4
176
     1
 64
     7
176
     1
 65
   257
176
     1
 75
     1
176
     1
175
     1
176
     1
 42
1.0
176
     1
 92
        0
176
     1
 66
   257
176
     1
 43
1.0
176
     1
 76
     1
176
     1
 77
     6
176
     1
 78
     2
176
     1
 67
     7
176
     1
 79
     5
176
     1
170
     0
176
     1
171
     0
176
     1
290
     0
176
     1
 93
       13
176
     1
 44
0.0
176
     1
173
     0
176
     1
  0
VISUALSTYLE
  5
2D
102
{ACAD_REACTORS
330
2A
102
}
330
2A
100
AcDbVisualStyle
  2
Gouraud
 70
     2
177
     2
291
     1
 71
     2
176
     1
 72
     2
176
     1
 73
     1
176
     1
 90
        2
176
     1
 40
-0.6
176
     1
 41
30.0
176
     1
 62
     5
 63
     7
421
 16777215
176
     1
 74
     0
176
     1
 91
        4
176
     1
 64
     7
176
     1
 65
   257
176
     1
 75
     1
176
     1
175
     1
176
     1
 42
1.0
176
     1
 92
        0
176
     1
 66
     7
176
     1
 43
1.0
176
     1
 76
     1
176
     1
 77
     6
176
     1
 78
     2
176
     1
 67
     7
176
     1
 79
     5
176
     1
170
     0
176
     1
171
     0
176
     1
290
     0
176
     1
 93
       13
176
     1
 44
0.0
176
     1
173
     0
176
     1
  0
VISUALSTYLE
  5
2E
102
{ACAD_REACTORS
330
2A
102
}
330
2A
100
AcDbVisualStyle
  2
GouraudWithEdges
 70
     3
177
     2
291
     1
 71
     2
176
     1
 72
     2
176
     1
 73
     1
176
     1
 90
        2
176
     1
 40
-0.6
176
     1
 41
30.0
176
     1
 62
     5
 63
     7
421
 16777215
176
     1
 74
     1
176
     1
 91
        4
176
     1
 64
     7
176
     1
 65
   257
176
     1
 75
     1
176
     1
175
     1
176
     1
 42
1.0
176
     1
 92
        0
176
     1
 66
   257
176
     1
 43
1.0
176
     1
 76
     1
176
     1
 77
     6
176
     1
 78
     2
176
     1
 67
     7
176
     1
 79
     5
176
     1
170
     0
176
     1
171
     0
176
     1
290
     0
176
     1
 93
       13
176
     1
 44
0.0
176
     1
173
     0
176
     1
  0
VISUALSTYLE
  5
38
102
{ACAD_REACTORS
330
2A
102
}
330
2A
100
AcDbVisualStyle
  2
Linepattern
 70
    14
177
     2
291
     1
 71
     2
176
     1
 72
     2
176
     1
 73
     0
176
     1
 90
        0
176
     1
 40
-0.6
176
     1
 41
-30.0
176
     1
 62
     5
 63
     7
421
 16777215
176
     1
 74
     1
176
     1
 91
        4
176
     1
 64
     7
176
     1
 65
   257
176
     1
 75
     7
176
     1
175
     7
176
     1
 42
1.0
176
     1
 92
        8
176
     1
 66
     7
176
     1
 43
1.0
176
     1
 76
     1
176
     1
 77
     6
176
     1
 78
     2
176
     1
 67
     7
176
     1
 79
     5
176
     1
170
     0
176
     1
171
     0
176
     1
290
     0
176
     1
 93
        1
176
     1
 44
0.0
176
     1
173
     0
176
     1
  0
VISUALSTYLE
  5
33
102
{ACAD_REACTORS
330
2A
102
}
330
2A
100
AcDbVisualStyle
  2
Realistic
 70
     8
177
     2
291
     0
 71
     2
176
     1
 72
     2
176
     1
 73
     0
176
     1
 90
        0
176
     1
 40
-0.6
176
     1
 41
-30.0
176
     1
 62
     5
 63
     7
421
 16777215
176
     1
 74
     1
176
     1
 91
        0
176
     1
 64
     7
176
     1
 65
   257
176
     1
 75
     1
176
     1
175
     1
176
     1
 42
1.0
176
     1
 92
        8
176
     1
 66
     8
424
  7895160
176
     1
 43
1.0
176
     1
 76
     1
176
     1
 77
     6
176
     1
 78
     2
176
     1
 67
     7
176
     1
 79
     5
176
     1
170
     0
176
     1
171
     0
176
     1
290
     0
176
     1
 93
       13
176
     1
 44
0.0
176
     1
173
     0
176
     1
  0
VISUALSTYLE
  5
37
102
{ACAD_REACTORS
330
2A
102
}
330
2A
100
AcDbVisualStyle
  2
Thicken
 70
    13
177
     2
291
     1
 71
     2
176
     1
 72
     2
176
     1
 73
     0
176
     1
 90
        0
176
     1
 40
-0.6
176
     1
 41
-30.0
176
     1
 62
     5
 63
     7
421
 16777215
176
     1
 74
     1
176
     1
 91
        4
176
     1
 64
     7
176
     1
 65
   257
176
     1
 75
     1
176
     1
175
     1
176
     1
 42
1.0
176
     1
 92
       12
176
     1
 66
     7
176
     1
 43
1.0
176
     1
 76
     1
176
     1
 77
     6
176
     1
 78
     2
176
     1
 67
     7
176
     1
 79
     5
176
     1
170
     0
176
     1
171
     0
176
     1
290
     0
176
     1
 93
        1
176
     1
 44
0.0
176
     1
173
     0
176
     1
  0
ENDSEC
  0
EOF
