  0
SECTION
  2
HEADER
  9
$ACADVER
  1
AC1024
  9
$ACADMAINTVER
 70
     6
  9
$DWGCODEPAGE
  3
UNDEFINED
  9
$INSBASE
 10
0.0
 20
0.0
 30
0.0
  9
$EXTMIN
 10
1.000000000000000E+20
 20
1.000000000000000E+20
 30
1.000000000000000E+20
  9
$EXTMAX
 10
-1.000000000000000E+20
 20
-1.000000000000000E+20
 30
-1.000000000000000E+20
  9
$LIMMIN
 10
0.0
 20
0.0
  9
$LIMMAX
 10
12.0
 20
9.0
  9
$ORTHOMODE
 70
     0
  9
$REGENMODE
 70
     1
  9
$FILLMODE
 70
     1
  9
$QTEXTMODE
 70
     0
  9
$MIRRTEXT
 70
     1
  9
$LTSCALE
 40
1.0
  9
$ATTMODE
 70
     1
  9
$TEXTSIZE
 40
0.2
  9
$TRACEWID
 40
0.05
  9
$TEXTSTYLE
  7
Standard
  9
$CLAYER
  8
0
  9
$CELTYPE
  6
ByLayer
  9
$CECOLOR
 62
   256
  9
$CELTSCALE
 40
1.0
  9
$DISPSILH
 70
     0
  9
$DIMSCALE
 40
1.0
  9
$DIMASZ
 40
0.18
  9
$DIMEXO
 40
0.0625
  9
$DIMDLI
 40
0.38
  9
$DIMRND
 40
0.0
  9
$DIMDLE
 40
0.0
  9
$DIMEXE
 40
0.18
  9
$DIMTP
 40
0.0
  9
$DIMTM
 40
0.0
  9
$DIMTXT
 40
0.18
  9
$DIMCEN
 40
0.09
  9
$DIMTSZ
 40
0.0
  9
$DIMTOL
 70
     0
  9
$DIMLIM
 70
     0
  9
$DIMTIH
 70
     1
  9
$DIMTOH
 70
     1
  9
$DIMSE1
 70
     0
  9
$DIMSE2
 70
     0
  9
$DIMTAD
 70
     0
  9
$DIMZIN
 70
     0
  9
$DIMBLK
  1

  9
$DIMASO
 70
     1
  9
$DIMSHO
 70
     1
  9
$DIMPOST
  1

  9
$DIMAPOST
  1

  9
$DIMALT
 70
     0
  9
$DIMALTD
 70
     2
  9
$DIMALTF
 40
25.4
  9
$DIMLFAC
 40
1.0
  9
$DIMTOFL
 70
     0
  9
$DIMTVP
 40
0.0
  9
$DIMTIX
 70
     0
  9
$DIMSOXD
 70
     0
  9
$DIMSAH
 70
     0
  9
$DIMBLK1
  1

  9
$DIMBLK2
  1

  9
$DIMSTYLE
  2
Standard
  9
$DIMCLRD
 70
     0
  9
$DIMCLRE
 70
     0
  9
$DIMCLRT
 70
     0
  9
$DIMTFAC
 40
1.0
  9
$DIMGAP
 40
0.09
  9
$DIMJUST
 70
     0
  9
$DIMSD1
 70
     0
  9
$DIMSD2
 70
     0
  9
$DIMTOLJ
 70
     1
  9
$DIMTZIN
 70
     0
  9
$DIMALTZ
 70
     0
  9
$DIMALTTZ
 70
     0
  9
$DIMUPT
 70
     0
  9
$DIMDEC
 70
     4
  9
$DIMTDEC
 70
     4
  9
$DIMALTU
 70
     2
  9
$DIMALTTD
 70
     2
  9
$DIMTXSTY
  7
Standard
  9
$DIMAUNIT
 70
     0
  9
$DIMADEC
 70
     0
  9
$DIMALTRND
 40
0.0
  9
$DIMAZIN
 70
     0
  9
$DIMDSEP
 70
    46
  9
$DIMATFIT
 70
     3
  9
$DIMFRAC
 70
     0
  9
$DIMLDRBLK
  1

  9
$DIMLUNIT
 70
     2
  9
$DIMLWD
 70
    -2
  9
$DIMLWE
 70
    -2
  9
$DIMTMOVE
 70
     0
  9
$DIMFXL
 40
1.0
  9
$DIMFXLON
 70
     0
  9
$DIMJOGANG
 40
0.7853981633974483
  9
$DIMTFILL
 70
     0
  9
$DIMTFILLCLR
 70
     0
  9
$DIMARCSYM
 70
     0
  9
$DIMLTYPE
  6

  9
$DIMLTEX1
  6

  9
$DIMLTEX2
  6

  9
$DIMTXTDIRECTION
 70
     0
  9
$LUNITS
 70
     2
  9
$LUPREC
 70
     4
  9
$SKETCHINC
 40
0.1
  9
$FILLETRAD
 40
0.5
  9
$AUNITS
 70
     0
  9
$AUPREC
 70
     0
  9
$MENU
  1
.
  9
$ELEVATION
 40
0.0
  9
$PELEVATION
 40
0.0
  9
$THICKNESS
 40
0.0
  9
$LIMCHECK
 70
     0
  9
$CHAMFERA
 40
0.5
  9
$CHAMFERB
 40
0.5
  9
$CHAMFERC
 40
1.0
  9
$CHAMFERD
 40
0.0
  9
$SKPOLY
 70
     0
  9
$TDCREATE
 40
2457917.607708334
  9
$TDUCREATE
 40
2457917.232708334
  9
$TDUPDATE
 40
2457917.607708334
  9
$TDUUPDATE
 40
2457917.232708334
  9
$TDINDWG
 40
0.0000000116
  9
$TDUSRTIMER
 40
0.0000000116
  9
$USRTIMER
 70
     1
  9
$ANGBASE
 50
0.0
  9
$ANGDIR
 70
     0
  9
$PDMODE
 70
     0
  9
$PDSIZE
 40
0.0
  9
$PLINEWID
 40
0.0
  9
$SPLFRAME
 70
     0
  9
$SPLINETYPE
 70
     6
  9
$SPLINESEGS
 70
     8
  9
$HANDSEED
  5
F8
  9
$SURFTAB1
 70
     6
  9
$SURFTAB2
 70
     6
  9
$SURFTYPE
 70
     6
  9
$SURFU
 70
     6
  9
$SURFV
 70
     6
  9
$UCSBASE
  2

  9
$UCSNAME
  2

  9
$UCSORG
 10
0.0
 20
0.0
 30
0.0
  9
$UCSXDIR
 10
1.0
 20
0.0
 30
0.0
  9
$UCSYDIR
 10
0.0
 20
1.0
 30
0.0
  9
$UCSORTHOREF
  2

  9
$UCSORTHOVIEW
 70
     0
  9
$UCSORGTOP
 10
0.0
 20
0.0
 30
0.0
  9
$UCSORGBOTTOM
 10
0.0
 20
0.0
 30
0.0
  9
$UCSORGLEFT
 10
0.0
 20
0.0
 30
0.0
  9
$UCSORGRIGHT
 10
0.0
 20
0.0
 30
0.0
  9
$UCSORGFRONT
 10
0.0
 20
0.0
 30
0.0
  9
$UCSORGBACK
 10
0.0
 20
0.0
 30
0.0
  9
$PUCSBASE
  2

  9
$PUCSNAME
  2

  9
$PUCSORG
 10
0.0
 20
0.0
 30
0.0
  9
$PUCSXDIR
 10
1.0
 20
0.0
 30
0.0
  9
$PUCSYDIR
 10
0.0
 20
1.0
 30
0.0
  9
$PUCSORTHOREF
  2

  9
$PUCSORTHOVIEW
 70
     0
  9
$PUCSORGTOP
 10
0.0
 20
0.0
 30
0.0
  9
$PUCSORGBOTTOM
 10
0.0
 20
0.0
 30
0.0
  9
$PUCSORGLEFT
 10
0.0
 20
0.0
 30
0.0
  9
$PUCSORGRIGHT
 10
0.0
 20
0.0
 30
0.0
  9
$PUCSORGFRONT
 10
0.0
 20
0.0
 30
0.0
  9
$PUCSORGBACK
 10
0.0
 20
0.0
 30
0.0
  9
$USERI1
 70
     0
  9
$USERI2
 70
     0
  9
$USERI3
 70
     0
  9
$USERI4
 70
     0
  9
$USERI5
 70
     0
  9
$USERR1
 40
0.0
  9
$USERR2
 40
0.0
  9
$USERR3
 40
0.0
  9
$USERR4
 40
0.0
  9
$USERR5
 40
0.0
  9
$WORLDVIEW
 70
     1
  9
$SHADEDGE
 70
     3
  9
$SHADEDIF
 70
    70
  9
$TILEMODE
 70
     1
  9
$MAXACTVP
 70
    64
  9
$PINSBASE
 10
0.0
 20
0.0
 30
0.0
  9
$PLIMCHECK
 70
     0
  9
$PEXTMIN
 10
1.000000000000000E+20
 20
1.000000000000000E+20
 30
1.000000000000000E+20
  9
$PEXTMAX
 10
-1.000000000000000E+20
 20
-1.000000000000000E+20
 30
-1.000000000000000E+20
  9
$PLIMMIN
 10
0.0
 20
0.0
  9
$PLIMMAX
 10
12.0
 20
9.0
  9
$UNITMODE
 70
     0
  9
$VISRETAIN
 70
     1
  9
$PLINEGEN
 70
     0
  9
$PSLTSCALE
 70
     1
  9
$TREEDEPTH
 70
  3020
  9
$CMLSTYLE
  2
Standard
  9
$CMLJUST
 70
     0
  9
$CMLSCALE
 40
1.0
  9
$PROXYGRAPHICS
 70
     1
  9
$MEASUREMENT
 70
     0
  9
$CELWEIGHT
370
    -1
  9
$ENDCAPS
280
     0
  9
$JOINSTYLE
280
     0
  9
$LWDISPLAY
290
     1
  9
$INSUNITS
 70
     1
  9
$HYPERLINKBASE
  1

  9
$STYLESHEET
  1

  9
$XEDIT
290
     1
  9
$CEPSNTYPE
380
     0
  9
$PSTYLEMODE
290
     1
  9
$FINGERPRINTGUID
  2
{77F767DB-7507-8BB9-268B-809E4FEDA427}
  9
$VERSIONGUID
  2
{FAEB1C32-E019-11D5-929B-00C0DF256EC4}
  9
$EXTNAMES
290
     1
  9
$PSVPSCALE
 40
0.0
  9
$OLESTARTUP
290
     0
  9
$SORTENTS
280
   127
  9
$INDEXCTL
280
     0
  9
$HIDETEXT
280
     1
  9
$XCLIPFRAME
280
     2
  9
$HALOGAP
280
     0
  9
$OBSCOLOR
 70
   257
  9
$OBSLTYPE
280
     0
  9
$INTERSECTIONDISPLAY
280
     0
  9
$INTERSECTIONCOLOR
 70
   257
  9
$DIMASSOC
280
     2
  9
$PROJECTNAME
  1

  9
$CAMERADISPLAY
290
     0
  9
$LENSLENGTH
 40
50.0
  9
$CAMERAHEIGHT
 40
0.0
  9
$STEPSPERSEC
 40
2.0
  9
$STEPSIZE
 40
6.0
  9
$3DDWFPREC
 40
2.0
  9
$PSOLWIDTH
 40
0.25
  9
$PSOLHEIGHT
 40
4.0
  9
$LOFTANG1
 40
1.570796326794897
  9
$LOFTANG2
 40
1.570796326794897
  9
$LOFTMAG1
 40
0.0
  9
$LOFTMAG2
 40
0.0
  9
$LOFTPARAM
 70
     7
  9
$LOFTNORMALS
280
     1
  9
$LATITUDE
 40
37.795
  9
$LONGITUDE
 40
-122.394
  9
$NORTHDIRECTION
 40
0.0
  9
$TIMEZONE
 70
 -8000
  9
$LIGHTGLYPHDISPLAY
280
     1
  9
$TILEMODELIGHTSYNCH
280
     1
  9
$CMATERIAL
347
3C
  9
$SOLIDHIST
280
     1
  9
$SHOWHIST
280
     1
  9
$DWFFRAME
280
     2
  9
$DGNFRAME
280
     2
  9
$REALWORLDSCALE
290
     1
  9
$INTERFERECOLOR
 62
   256
  9
$CSHADOW
280
     0
  9
$SHADOWPLANELOCATION
 40
0.0
  0
ENDSEC
  0
SECTION
  2
CLASSES
  0
CLASS
  1
ACDBDICTIONARYWDFLT
  2
AcDbDictionaryWithDefault
  3
ObjectDBX Classes
 90
        0
 91
        4
280
     0
281
     0
  0
CLASS
  1
VISUALSTYLE
  2
AcDbVisualStyle
  3
ObjectDBX Classes
 90
     4095
 91
        4
280
     0
281
     0
  0
CLASS
  1
MATERIAL
  2
AcDbMaterial
  3
ObjectDBX Classes
 90
     1153
 91
        4
280
     0
281
     0
  0
CLASS
  1
SUN
  2
AcDbSun
  3
SCENEOE
 90
     1024
 91
        4
280
     0
281
     0
  0
ENDSEC
  0
SECTION
  2
TABLES
  0
TABLE
  2
VPORT
  5
8
330
0
100
AcDbSymbolTable
 70
     1
  0
VPORT
  5
29
330
8
100
AcDbSymbolTableRecord
100
AcDbViewportTableRecord
  2
*Active
 70
     0
 10
0.0
 20
0.0
 11
1.0
 21
1.0
 12
0.0
 22
0.0
 13
0.0
 23
0.0
 14
0.5
 24
0.5
 15
0.5
 25
0.5
 16
0.0
 26
0.0
 36
1.0
 17
91.00082462281999
 27
-128.4993055234307
 37
0.0
 40
256.9986110468615
 41
0.7081814508812795
 42
50.0
 43
0.0
 44
0.0
 50
0.0
 51
0.0
 71
     0
 72
   100
 73
     1
 74
     3
 75
     0
 76
     0
 77
     0
 78
     0
281
     0
 65
     1
110
0.0
120
0.0
130
0.0
111
1.0
121
0.0
131
0.0
112
0.0
122
1.0
132
0.0
 79
     0
146
0.0
 60
     3
 61
     5
292
     1
282
     1
141
0.0
142
0.0
 63
   250
361
3F
  0
ENDTAB
  0
TABLE
  2
LTYPE
  5
5
330
0
100
AcDbSymbolTable
 70
     1
  0
LTYPE
  5
14
330
5
100
AcDbSymbolTableRecord
100
AcDbLinetypeTableRecord
  2
ByBlock
 70
     0
  3

 72
    65
 73
     0
 40
0.0
  0
LTYPE
  5
15
330
5
100
AcDbSymbolTableRecord
100
AcDbLinetypeTableRecord
  2
ByLayer
 70
     0
  3

 72
    65
 73
     0
 40
0.0
  0
LTYPE
  5
16
330
5
100
AcDbSymbolTableRecord
100
AcDbLinetypeTableRecord
  2
Continuous
 70
     0
  3
Solid line
 72
    65
 73
     0
 40
0.0
  0
ENDTAB
  0
TABLE
  2
LAYER
  5
2
330
0
100
AcDbSymbolTable
 70
     2
  0
LAYER
  5
10
330
2
100
AcDbSymbolTableRecord
100
AcDbLayerTableRecord
  2
0
 70
     0
 62
     7
  6
Continuous
370
    -3
390
F
347
3E
  0
LAYER
  5
40
330
2
100
AcDbSymbolTableRecord
100
AcDbLayerTableRecord
  2
_U+30EC_U+30A4_U+30E4_U+30FC 1
 70
     0
 62
     7
  6
Continuous
370
    -3
390
F
347
3E
  0
ENDTAB
  0
TABLE
  2
STYLE
  5
3
330
0
100
AcDbSymbolTable
 70
     1
  0
STYLE
  5
11
330
3
100
AcDbSymbolTableRecord
100
AcDbTextStyleTableRecord
  2
Standard
 70
     0
 40
0.0
 41
1.0
 50
0.0
 71
     0
 42
0.2
  3
txt
  4

  0
ENDTAB
  0
TABLE
  2
VIEW
  5
6
330
0
100
AcDbSymbolTable
 70
     0
  0
ENDTAB
  0
TABLE
  2
UCS
  5
7
330
0
100
AcDbSymbolTable
 70
     0
  0
ENDTAB
  0
TABLE
  2
APPID
  5
9
330
0
100
AcDbSymbolTable
 70
     1
  0
APPID
  5
12
330
9
100
AcDbSymbolTableRecord
100
AcDbRegAppTableRecord
  2
ACAD
 70
     0
  0
ENDTAB
  0
TABLE
  2
DIMSTYLE
  5
A
330
0
100
AcDbSymbolTable
 70
     1
100
AcDbDimStyleTable
  0
DIMSTYLE
105
27
330
A
100
AcDbSymbolTableRecord
100
AcDbDimStyleTableRecord
  2
Standard
 70
     0
178
     0
340
11
  0
ENDTAB
  0
TABLE
  2
BLOCK_RECORD
  5
1
330
0
100
AcDbSymbolTable
 70
     8
  0
BLOCK_RECORD
  5
1F
330
1
100
AcDbSymbolTableRecord
100
AcDbBlockTableRecord
  2
*Model_Space
340
22
 70
     0
280
     1
281
     0
  0
BLOCK_RECORD
  5
1B
330
1
100
AcDbSymbolTableRecord
100
AcDbBlockTableRecord
  2
*Paper_Space
340
1E
 70
     0
280
     1
281
     0
  0
BLOCK_RECORD
  5
23
330
1
100
AcDbSymbolTableRecord
100
AcDbBlockTableRecord
  2
*Paper_Space0
340
26
 70
     0
280
     1
281
     0
  0
BLOCK_RECORD
  5
BC
330
1
100
AcDbSymbolTableRecord
100
AcDbBlockTableRecord
  2
block 2
340
0
102
{BLKREFS
331
BD
102
}
 70
     0
280
     1
281
     0
  0
BLOCK_RECORD
  5
C5
330
1
100
AcDbSymbolTableRecord
100
AcDbBlockTableRecord
  2
block 3
340
0
102
{BLKREFS
331
C6
102
}
 70
     0
280
     1
281
     0
  0
BLOCK_RECORD
  5
CF
330
1
100
AcDbSymbolTableRecord
100
AcDbBlockTableRecord
  2
block 4
340
0
102
{BLKREFS
331
D0
102
}
 70
     0
280
     1
281
     0
  0
BLOCK_RECORD
  5
D8
330
1
100
AcDbSymbolTableRecord
100
AcDbBlockTableRecord
  2
block 5
340
0
102
{BLKREFS
331
D9
102
}
 70
     0
280
     1
281
     0
  0
BLOCK_RECORD
  5
E0
330
1
100
AcDbSymbolTableRecord
100
AcDbBlockTableRecord
  2
block 6
340
0
102
{BLKREFS
331
E1
102
}
 70
     0
280
     1
281
     0
  0
BLOCK_RECORD
  5
E6
330
1
100
AcDbSymbolTableRecord
100
AcDbBlockTableRecord
  2
block 7
340
0
102
{BLKREFS
331
E7
102
}
 70
     0
280
     1
281
     0
  0
BLOCK_RECORD
  5
EE
330
1
100
AcDbSymbolTableRecord
100
AcDbBlockTableRecord
  2
block 8
340
0
102
{BLKREFS
331
EF
102
}
 70
     0
280
     1
281
     0
  0
ENDTAB
  0
ENDSEC
  0
SECTION
  2
BLOCKS
  0
BLOCK
  5
20
330
1F
100
AcDbEntity
  8
0
100
AcDbBlockBegin
  2
*Model_Space
 70
     0
 10
0.0
 20
0.0
 30
0.0
  3
*Model_Space
  1

  0
ENDBLK
  5
21
330
1F
100
AcDbEntity
  8
0
100
AcDbBlockEnd
  0
BLOCK
  5
1C
330
1B
100
AcDbEntity
 67
     1
  8
0
100
AcDbBlockBegin
  2
*Paper_Space
 70
     0
 10
0.0
 20
0.0
 30
0.0
  3
*Paper_Space
  1

  0
ENDBLK
  5
1D
330
1B
100
AcDbEntity
 67
     1
  8
0
100
AcDbBlockEnd
  0
BLOCK
  5
24
330
23
100
AcDbEntity
  8
0
100
AcDbBlockBegin
  2
*Paper_Space0
 70
     0
 10
0.0
 20
0.0
 30
0.0
  3
*Paper_Space0
  1

  0
ENDBLK
  5
25
330
23
100
AcDbEntity
  8
0
100
AcDbBlockEnd
  0
BLOCK
  5
BE
330
BC
100
AcDbEntity
  8
0
100
AcDbBlockBegin
  2
block 2
 70
     0
 10
0.0
 20
0.0
 30
0.0
  3
block 2
  1

  0
SPLINE
  5
C0
330
BC
100
AcDbEntity
  8
_U+30EC_U+30A4_U+30E4_U+30FC 1
370
     0
100
AcDbSpline
210
0.0
220
0.0
230
1.0
 70
    11
 71
     3
 72
    26
 73
    22
 74
     0
 42
0.0000000001
 43
0.0000000001
 12
1.0
 22
0.0
 32
0.0
 13
1.0
 23
0.0
 33
0.0
 40
0.0
 40
0.0
 40
0.0
 40
0.0
 40
1.0
 40
1.0
 40
1.0
 40
2.0
 40
2.0
 40
2.0
 40
3.0
 40
3.0
 40
3.0
 40
4.0
 40
4.0
 40
4.0
 40
5.0
 40
5.0
 40
5.0
 40
6.0
 40
6.0
 40
6.0
 40
7.0
 40
7.0
 40
7.0
 40
7.0
 10
88.20805254956258
 20
-118.0034776180686
 30
0.0
 10
88.20805254956258
 20
-118.0034776180686
 30
0.0
 10
88.20805254956258
 20
-116.8991522602717
 30
0.0
 10
88.20805254956258
 20
-116.8991522602717
 30
0.0
 10
88.20805254956258
 20
-116.8991522602717
 30
0.0
 10
87.87801240207564
 20
-116.8991522602717
 30
0.0
 10
87.87801240207564
 20
-116.8991522602717
 30
0.0
 10
87.87801240207564
 20
-116.8991522602717
 30
0.0
 10
87.87801240207564
 20
-116.7511854091803
 30
0.0
 10
87.87801240207564
 20
-116.7511854091803
 30
0.0
 10
88.21011960685372
 20
-116.7363714985937
 30
0.0
 10
88.2566283959046
 20
-116.5734184821414
 30
0.0
 10
88.28625621707775
 20
-116.4592135668053
 30
0.0
 10
88.28625621707775
 20
-116.4592135668053
 30
0.0
 10
88.43232826565234
 20
-116.4592135668053
 30
0.0
 10
88.43232826565234
 20
-116.4592135668053
 30
0.0
 10
88.43232826565234
 20
-116.4592135668053
 30
0.0
 10
88.43232826565234
 20
-118.0034776180686
 30
0.0
 10
88.43232826565234
 20
-118.0034776180686
 30
0.0
 10
88.43232826565234
 20
-118.0034776180686
 30
0.0
 10
88.20805254956258
 20
-118.0034776180686
 30
0.0
 10
88.20805254956258
 20
-118.0034776180686
 30
0.0
  0
HATCH
  5
C1
330
BC
100
AcDbEntity
  8
_U+30EC_U+30A4_U+30E4_U+30FC 1
 62
   179
420
  2234388
100
AcDbHatch
 10
0.0
 20
0.0
 30
0.0
210
0.0
220
0.0
230
1.0
  2
SOLID
 70
     1
 71
     0
 91
        1
 92
        1
 93
        1
 72
     4
 94
        3
 73
     0
 74
     1
 95
       26
 96
       22
 40
0.0
 40
0.0
 40
0.0
 40
0.0
 40
1.0
 40
1.0
 40
1.0
 40
2.0
 40
2.0
 40
2.0
 40
3.0
 40
3.0
 40
3.0
 40
4.0
 40
4.0
 40
4.0
 40
5.0
 40
5.0
 40
5.0
 40
6.0
 40
6.0
 40
6.0
 40
7.0
 40
7.0
 40
7.0
 40
7.0
 10
88.20805254956258
 20
-118.0034776180686
 10
88.20805254956258
 20
-118.0034776180686
 10
88.20805254956258
 20
-116.8991522602717
 10
88.20805254956258
 20
-116.8991522602717
 10
88.20805254956258
 20
-116.8991522602717
 10
87.87801240207564
 20
-116.8991522602717
 10
87.87801240207564
 20
-116.8991522602717
 10
87.87801240207564
 20
-116.8991522602717
 10
87.87801240207564
 20
-116.7511854091803
 10
87.87801240207564
 20
-116.7511854091803
 10
88.21011960685372
 20
-116.7363714985937
 10
88.2566283959046
 20
-116.5734184821414
 10
88.28625621707775
 20
-116.4592135668053
 10
88.28625621707775
 20
-116.4592135668053
 10
88.43232826565234
 20
-116.4592135668053
 10
88.43232826565234
 20
-116.4592135668053
 10
88.43232826565234
 20
-116.4592135668053
 10
88.43232826565234
 20
-118.0034776180686
 10
88.43232826565234
 20
-118.0034776180686
 10
88.43232826565234
 20
-118.0034776180686
 10
88.20805254956258
 20
-118.0034776180686
 10
88.20805254956258
 20
-118.0034776180686
 97
        0
 97
        0
 75
     2
 76
     1
 98
        0
  0
SPLINE
  5
C2
330
BC
100
AcDbEntity
  8
_U+30EC_U+30A4_U+30E4_U+30FC 1
370
     0
100
AcDbSpline
210
0.0
220
0.0
230
1.0
 70
    11
 71
     3
 72
    29
 73
    25
 74
     0
 42
0.0000000001
 43
0.0000000001
 12
1.0
 22
0.0
 32
0.0
 13
1.0
 23
0.0
 33
0.0
 40
0.0
 40
0.0
 40
0.0
 40
0.0
 40
1.0
 40
1.0
 40
1.0
 40
2.0
 40
2.0
 40
2.0
 40
3.0
 40
3.0
 40
3.0
 40
4.0
 40
4.0
 40
4.0
 40
5.0
 40
5.0
 40
5.0
 40
6.0
 40
6.0
 40
6.0
 40
7.0
 40
7.0
 40
7.0
 40
8.0
 40
8.0
 40
8.0
 40
8.0
 10
89.83120928743803
 20
-117.8257106910297
 30
0.0
 10
89.72337779874971
 20
-118.0351724965329
 30
0.0
 10
89.54991724106739
 20
-118.054292776476
 30
0.0
 10
89.43347301366595
 20
-118.054292776476
 30
0.0
 10
89.27275930927904
 20
-118.054292776476
 30
0.0
 10
89.130993630061
 20
-118.0077839874251
 30
0.0
 10
89.03573673989385
 20
-117.8257106910297
 30
0.0
 10
88.93221162056209
 20
-117.6310627961131
 30
0.0
 10
88.91309134061895
 20
-117.3942124815022
 30
0.0
 10
88.91309134061895
 20
-117.2312594650498
 30
0.0
 10
88.91309134061895
 20
-117.0874267285406
 30
0.0
 10
88.92997230849667
 20
-116.8357625033431
 30
0.0
 10
89.03573673989385
 20
-116.63680823907
 30
0.0
 10
89.14374048335642
 20
-116.4337198602145
 30
0.0
 10
89.30445418774333
 20
-116.4104654656891
 30
0.0
 10
89.43347301366595
 20
-116.4104654656891
 30
0.0
 10
89.5921196607617
 20
-116.4104654656891
 30
0.0
 10
89.73595239727088
 20
-116.4549071974488
 30
0.0
 10
89.83120928743803
 20
-116.63680823907
 30
0.0
 10
89.93060029218749
 20
-116.8293890766954
 30
0.0
 10
89.95385468671293
 20
-117.0577989073675
 30
0.0
 10
89.95385468671293
 20
-117.2312594650498
 30
0.0
 10
89.95385468671293
 20
-117.402652965441
 30
0.0
 10
89.9328396042529
 20
-117.6333021081785
 30
0.0
 10
89.83120928743803
 20
-117.8257106910297
 30
0.0
  0
SPLINE
  5
C3
330
BC
100
AcDbEntity
  8
_U+30EC_U+30A4_U+30E4_U+30FC 1
370
     0
100
AcDbSpline
210
0.0
220
0.0
230
1.0
 70
    11
 71
     3
 72
    17
 73
    13
 74
     0
 42
0.0000000001
 43
0.0000000001
 12
1.0
 22
0.0
 32
0.0
 13
1.0
 23
0.0
 33
0.0
 40
0.0
 40
0.0
 40
0.0
 40
0.0
 40
1.0
 40
1.0
 40
1.0
 40
2.0
 40
2.0
 40
2.0
 40
3.0
 40
3.0
 40
3.0
 40
4.0
 40
4.0
 40
4.0
 40
4.0
 10
89.43347301366595
 20
-116.6030463033145
 30
0.0
 10
89.18387584575959
 20
-116.6030463033145
 30
0.0
 10
89.13736705670871
 20
-116.8865776617506
 30
0.0
 10
89.13736705670871
 20
-117.2312594650498
 30
0.0
 10
89.13736705670871
 20
-117.5507920713067
 30
0.0
 10
89.17336830452957
 20
-117.8596448815594
 30
0.0
 10
89.43347301366595
 20
-117.8596448815594
 30
0.0
 10
89.68100312428115
 20
-117.8596448815594
 30
0.0
 10
89.72975122539742
 20
-117.5781805804145
 30
0.0
 10
89.72975122539742
 20
-117.2312594650498
 30
0.0
 10
89.72975122539742
 20
-116.9118991135672
 30
0.0
 10
89.69151066551116
 20
-116.6030463033145
 30
0.0
 10
89.43347301366595
 20
-116.6030463033145
 30
0.0
  0
HATCH
  5
C4
330
BC
100
AcDbEntity
  8
_U+30EC_U+30A4_U+30E4_U+30FC 1
 62
   179
420
  2234388
100
AcDbHatch
 10
0.0
 20
0.0
 30
0.0
210
0.0
220
0.0
230
1.0
  2
SOLID
 70
     1
 71
     0
 91
        2
 92
        1
 93
        1
 72
     4
 94
        3
 73
     0
 74
     1
 95
       29
 96
       25
 40
0.0
 40
0.0
 40
0.0
 40
0.0
 40
1.0
 40
1.0
 40
1.0
 40
2.0
 40
2.0
 40
2.0
 40
3.0
 40
3.0
 40
3.0
 40
4.0
 40
4.0
 40
4.0
 40
5.0
 40
5.0
 40
5.0
 40
6.0
 40
6.0
 40
6.0
 40
7.0
 40
7.0
 40
7.0
 40
8.0
 40
8.0
 40
8.0
 40
8.0
 10
89.83120928743803
 20
-117.8257106910297
 10
89.72337779874971
 20
-118.0351724965329
 10
89.54991724106739
 20
-118.054292776476
 10
89.43347301366595
 20
-118.054292776476
 10
89.27275930927904
 20
-118.054292776476
 10
89.130993630061
 20
-118.0077839874251
 10
89.03573673989385
 20
-117.8257106910297
 10
88.93221162056209
 20
-117.6310627961131
 10
88.91309134061895
 20
-117.3942124815022
 10
88.91309134061895
 20
-117.2312594650498
 10
88.91309134061895
 20
-117.0874267285406
 10
88.92997230849667
 20
-116.8357625033431
 10
89.03573673989385
 20
-116.63680823907
 10
89.14374048335642
 20
-116.4337198602145
 10
89.30445418774333
 20
-116.4104654656891
 10
89.43347301366595
 20
-116.4104654656891
 10
89.5921196607617
 20
-116.4104654656891
 10
89.73595239727088
 20
-116.4549071974488
 10
89.83120928743803
 20
-116.63680823907
 10
89.93060029218749
 20
-116.8293890766954
 10
89.95385468671293
 20
-117.0577989073675
 10
89.95385468671293
 20
-117.2312594650498
 10
89.95385468671293
 20
-117.402652965441
 10
89.9328396042529
 20
-117.6333021081785
 10
89.83120928743803
 20
-117.8257106910297
 97
        0
 97
        0
 92
        1
 93
        1
 72
     4
 94
        3
 73
     0
 74
     1
 95
       17
 96
       13
 40
0.0
 40
0.0
 40
0.0
 40
0.0
 40
1.0
 40
1.0
 40
1.0
 40
2.0
 40
2.0
 40
2.0
 40
3.0
 40
3.0
 40
3.0
 40
4.0
 40
4.0
 40
4.0
 40
4.0
 10
89.43347301366595
 20
-116.6030463033145
 10
89.18387584575959
 20
-116.6030463033145
 10
89.13736705670871
 20
-116.8865776617506
 10
89.13736705670871
 20
-117.2312594650498
 10
89.13736705670871
 20
-117.5507920713067
 10
89.17336830452957
 20
-117.8596448815594
 10
89.43347301366595
 20
-117.8596448815594
 10
89.68100312428115
 20
-117.8596448815594
 10
89.72975122539742
 20
-117.5781805804145
 10
89.72975122539742
 20
-117.2312594650498
 10
89.72975122539742
 20
-116.9118991135672
 10
89.69151066551116
 20
-116.6030463033145
 10
89.43347301366595
 20
-116.6030463033145
 97
        0
 97
        0
 75
     2
 76
     1
 98
        0
  0
ENDBLK
  5
BF
330
BC
100
AcDbEntity
  8
0
100
AcDbBlockEnd
  0
BLOCK
  5
C7
330
C5
100
AcDbEntity
  8
0
100
AcDbBlockBegin
  2
block 3
 70
     0
 10
0.0
 20
0.0
 30
0.0
  3
block 3
  1

  0
SPLINE
  5
C9
330
C5
100
AcDbEntity
  8
_U+30EC_U+30A4_U+30E4_U+30FC 1
370
     0
100
AcDbSpline
210
0.0
220
0.0
230
1.0
 70
    11
 71
     3
 72
    44
 73
    40
 74
     0
 42
0.0000000001
 43
0.0000000001
 12
1.0
 22
0.0
 32
0.0
 13
1.0
 23
0.0
 33
0.0
 40
0.0
 40
0.0
 40
0.0
 40
0.0
 40
1.0
 40
1.0
 40
1.0
 40
2.0
 40
2.0
 40
2.0
 40
3.0
 40
3.0
 40
3.0
 40
4.0
 40
4.0
 40
4.0
 40
5.0
 40
5.0
 40
5.0
 40
6.0
 40
6.0
 40
6.0
 40
7.0
 40
7.0
 40
7.0
 40
8.0
 40
8.0
 40
8.0
 40
9.0
 40
9.0
 40
9.0
 40
10.0
 40
10.0
 40
10.0
 40
11.0
 40
11.0
 40
11.0
 40
12.0
 40
12.0
 40
12.0
 40
13.0
 40
13.0
 40
13.0
 40
13.0
 10
79.14831269722681
 20
-127.8747097119549
 30
0.0
 10
79.30695934432256
 20
-128.0924397466227
 30
0.0
 10
79.38102889725545
 20
-128.1854573247245
 30
0.0
 10
79.52486163376462
 20
-128.234377680615
 30
0.0
 10
79.52486163376462
 20
-128.234377680615
 30
0.0
 10
79.52486163376462
 20
-127.4557861009486
 30
0.0
 10
79.52486163376462
 20
-127.4557861009486
 30
0.0
 10
79.52486163376462
 20
-127.4557861009486
 30
0.0
 10
79.73001706991126
 20
-127.4557861009486
 30
0.0
 10
79.73001706991126
 20
-127.4557861009486
 30
0.0
 10
79.73001706991126
 20
-127.4557861009486
 30
0.0
 10
79.73001706991126
 20
-128.4838025937471
 30
0.0
 10
79.73001706991126
 20
-128.4838025937471
 30
0.0
 10
79.37241615854232
 20
-128.4521077152828
 30
0.0
 10
79.29421249102714
 20
-128.3866509010631
 30
0.0
 10
78.9958672220045
 20
-128.0014892258121
 30
0.0
 10
78.79708521250559
 20
-127.7455186312581
 30
0.0
 10
78.72938908622044
 20
-127.6800618170383
 30
0.0
 10
78.59192977635897
 20
-127.6800618170383
 30
0.0
 10
78.47341849166637
 20
-127.6800618170383
 30
0.0
 10
78.34233260845261
 20
-127.75206431268
 30
0.0
 10
78.34233260845261
 20
-127.9487792648878
 30
0.0
 10
78.34233260845261
 20
-128.2088839740242
 30
0.0
 10
78.57280949641583
 20
-128.2174967127373
 30
0.0
 10
78.68925372381727
 20
-128.2216308273196
 30
0.0
 10
78.68925372381727
 20
-128.2216308273196
 30
0.0
 10
78.68925372381727
 20
-128.4459065434094
 30
0.0
 10
78.68925372381727
 20
-128.4459065434094
 30
0.0
 10
78.56230195518582
 20
-128.4372938046962
 30
0.0
 10
78.45016409714094
 20
-128.426614008692
 30
0.0
 10
78.33165281244834
 20
-128.3463432838856
 30
0.0
 10
78.17093910806143
 20
-128.2364447379062
 30
0.0
 10
78.13700491753173
 20
-128.0500650721542
 30
0.0
 10
78.13700491753173
 20
-127.9339653543012
 30
0.0
 10
78.13700491753173
 20
-127.6566351677386
 30
0.0
 10
78.32114527121833
 20
-127.4492404195266
 30
0.0
 10
78.59399683365011
 20
-127.4492404195266
 30
0.0
 10
78.82240666432217
 20
-127.4492404195266
 30
0.0
 10
78.9219699238459
 20
-127.565684646928
 30
0.0
 10
79.14831269722681
 20
-127.8747097119549
 30
0.0
  0
HATCH
  5
CA
330
C5
100
AcDbEntity
  8
_U+30EC_U+30A4_U+30E4_U+30FC 1
 62
   179
420
  2234388
100
AcDbHatch
 10
0.0
 20
0.0
 30
0.0
210
0.0
220
0.0
230
1.0
  2
SOLID
 70
     1
 71
     0
 91
        1
 92
        1
 93
        1
 72
     4
 94
        3
 73
     0
 74
     1
 95
       44
 96
       40
 40
0.0
 40
0.0
 40
0.0
 40
0.0
 40
1.0
 40
1.0
 40
1.0
 40
2.0
 40
2.0
 40
2.0
 40
3.0
 40
3.0
 40
3.0
 40
4.0
 40
4.0
 40
4.0
 40
5.0
 40
5.0
 40
5.0
 40
6.0
 40
6.0
 40
6.0
 40
7.0
 40
7.0
 40
7.0
 40
8.0
 40
8.0
 40
8.0
 40
9.0
 40
9.0
 40
9.0
 40
10.0
 40
10.0
 40
10.0
 40
11.0
 40
11.0
 40
11.0
 40
12.0
 40
12.0
 40
12.0
 40
13.0
 40
13.0
 40
13.0
 40
13.0
 10
79.14831269722681
 20
-127.8747097119549
 10
79.30695934432256
 20
-128.0924397466227
 10
79.38102889725545
 20
-128.1854573247245
 10
79.52486163376462
 20
-128.234377680615
 10
79.52486163376462
 20
-128.234377680615
 10
79.52486163376462
 20
-127.4557861009486
 10
79.52486163376462
 20
-127.4557861009486
 10
79.52486163376462
 20
-127.4557861009486
 10
79.73001706991126
 20
-127.4557861009486
 10
79.73001706991126
 20
-127.4557861009486
 10
79.73001706991126
 20
-127.4557861009486
 10
79.73001706991126
 20
-128.4838025937471
 10
79.73001706991126
 20
-128.4838025937471
 10
79.37241615854232
 20
-128.4521077152828
 10
79.29421249102714
 20
-128.3866509010631
 10
78.9958672220045
 20
-128.0014892258121
 10
78.79708521250559
 20
-127.7455186312581
 10
78.72938908622044
 20
-127.6800618170383
 10
78.59192977635897
 20
-127.6800618170383
 10
78.47341849166637
 20
-127.6800618170383
 10
78.34233260845261
 20
-127.75206431268
 10
78.34233260845261
 20
-127.9487792648878
 10
78.34233260845261
 20
-128.2088839740242
 10
78.57280949641583
 20
-128.2174967127373
 10
78.68925372381727
 20
-128.2216308273196
 10
78.68925372381727
 20
-128.2216308273196
 10
78.68925372381727
 20
-128.4459065434094
 10
78.68925372381727
 20
-128.4459065434094
 10
78.56230195518582
 20
-128.4372938046962
 10
78.45016409714094
 20
-128.426614008692
 10
78.33165281244834
 20
-128.3463432838856
 10
78.17093910806143
 20
-128.2364447379062
 10
78.13700491753173
 20
-128.0500650721542
 10
78.13700491753173
 20
-127.9339653543012
 10
78.13700491753173
 20
-127.6566351677386
 10
78.32114527121833
 20
-127.4492404195266
 10
78.59399683365011
 20
-127.4492404195266
 10
78.82240666432217
 20
-127.4492404195266
 10
78.9219699238459
 20
-127.565684646928
 10
79.14831269722681
 20
-127.8747097119549
 97
        0
 97
        0
 75
     2
 76
     1
 98
        0
  0
SPLINE
  5
CB
330
C5
100
AcDbEntity
  8
_U+30EC_U+30A4_U+30E4_U+30FC 1
370
     0
100
AcDbSpline
210
0.0
220
0.0
230
1.0
 70
    11
 71
     3
 72
    29
 73
    25
 74
     0
 42
0.0000000001
 43
0.0000000001
 12
1.0
 22
0.0
 32
0.0
 13
1.0
 23
0.0
 33
0.0
 40
0.0
 40
0.0
 40
0.0
 40
0.0
 40
1.0
 40
1.0
 40
1.0
 40
2.0
 40
2.0
 40
2.0
 40
3.0
 40
3.0
 40
3.0
 40
4.0
 40
4.0
 40
4.0
 40
5.0
 40
5.0
 40
5.0
 40
6.0
 40
6.0
 40
6.0
 40
7.0
 40
7.0
 40
7.0
 40
8.0
 40
8.0
 40
8.0
 40
8.0
 10
79.78083222831869
 20
-126.7908826722953
 30
0.0
 10
79.78083222831869
 20
-127.0575330628537
 30
0.0
 10
79.64320066368295
 20
-127.3114366001166
 30
0.0
 10
79.29421249102714
 20
-127.3114366001166
 30
0.0
 10
79.03824189647308
 20
-127.3114366001166
 30
0.0
 10
78.94298500630592
 20
-127.1694986661243
 30
0.0
 10
78.88166230666847
 20
-127.0637342347271
 30
0.0
 10
78.82240666432217
 20
-127.1884466912932
 30
0.0
 10
78.70820174898614
 20
-127.2645833015172
 30
0.0
 10
78.54748804459925
 20
-127.2645833015172
 30
0.0
 10
78.27239717010204
 20
-127.2645833015172
 30
0.0
 10
78.13700491753173
 20
-127.0658012920183
 30
0.0
 10
78.13700491753173
 20
-126.7908826722953
 30
0.0
 10
78.13700491753173
 20
-126.5073513138593
 30
0.0
 10
78.28083765404091
 20
-126.316837533525
 30
0.0
 10
78.54748804459925
 20
-126.316837533525
 30
0.0
 10
78.70820174898614
 20
-126.316837533525
 30
0.0
 10
78.82240666432217
 20
-126.3953857105887
 30
0.0
 10
78.88166230666847
 20
-126.5200981671547
 30
0.0
 10
78.9324774650759
 20
-126.4312147036353
 30
0.0
 10
79.02773435524307
 20
-126.2723958017652
 30
0.0
 10
79.29007837644484
 20
-126.2723958017652
 30
0.0
 10
79.66438800091724
 20
-126.2723958017652
 30
0.0
 10
79.78083222831869
 20
-126.551793045619
 30
0.0
 10
79.78083222831869
 20
-126.7908826722953
 30
0.0
  0
SPLINE
  5
CC
330
C5
100
AcDbEntity
  8
_U+30EC_U+30A4_U+30E4_U+30FC 1
370
     0
100
AcDbSpline
210
0.0
220
0.0
230
1.0
 70
    11
 71
     3
 72
    17
 73
    13
 74
     0
 42
0.0000000001
 43
0.0000000001
 12
1.0
 22
0.0
 32
0.0
 13
1.0
 23
0.0
 33
0.0
 40
0.0
 40
0.0
 40
0.0
 40
0.0
 40
1.0
 40
1.0
 40
1.0
 40
2.0
 40
2.0
 40
2.0
 40
3.0
 40
3.0
 40
3.0
 40
4.0
 40
4.0
 40
4.0
 40
4.0
 10
78.3295857551572
 20
-126.7908826722953
 30
0.0
 10
78.3295857551572
 20
-126.9559027460388
 30
0.0
 10
78.42467039055009
 20
-127.040652094976
 30
0.0
 10
78.5600626431204
 20
-127.040652094976
 30
0.0
 10
78.68288029716956
 20
-127.040652094976
 30
0.0
 10
78.80139158186216
 20
-126.9686495993342
 30
0.0
 10
78.80139158186216
 20
-126.7908826722953
 30
0.0
 10
78.80139158186216
 20
-126.6131157452565
 30
0.0
 10
78.68288029716956
 20
-126.5411132496147
 30
0.0
 10
78.5600626431204
 20
-126.5411132496147
 30
0.0
 10
78.42467039055009
 20
-126.5411132496147
 30
0.0
 10
78.3295857551572
 20
-126.627929655843
 30
0.0
 10
78.3295857551572
 20
-126.7908826722953
 30
0.0
  0
SPLINE
  5
CD
330
C5
100
AcDbEntity
  8
_U+30EC_U+30A4_U+30E4_U+30FC 1
370
     0
100
AcDbSpline
210
0.0
220
0.0
230
1.0
 70
    11
 71
     3
 72
    17
 73
    13
 74
     0
 42
0.0000000001
 43
0.0000000001
 12
1.0
 22
0.0
 32
0.0
 13
1.0
 23
0.0
 33
0.0
 40
0.0
 40
0.0
 40
0.0
 40
0.0
 40
1.0
 40
1.0
 40
1.0
 40
2.0
 40
2.0
 40
2.0
 40
3.0
 40
3.0
 40
3.0
 40
4.0
 40
4.0
 40
4.0
 40
4.0
 10
78.98966605013106
 20
-126.7908826722953
 30
0.0
 10
78.98966605013106
 20
-126.9345431540303
 30
0.0
 10
79.07631020158509
 20
-127.0871608840268
 30
0.0
 10
79.27939858044057
 20
-127.0871608840268
 30
0.0
 10
79.4845540165872
 20
-127.0871608840268
 30
0.0
 10
79.58618433340207
 20
-126.9600368606211
 30
0.0
 10
79.58618433340207
 20
-126.7908826722953
 30
0.0
 10
79.58618433340207
 20
-126.6048475160919
 30
0.0
 10
79.46353893412717
 20
-126.4946044605638
 30
0.0
 10
79.28577200708828
 20
-126.4946044605638
 30
0.0
 10
79.06356334828966
 20
-126.4946044605638
 30
0.0
 10
78.98966605013106
 20
-126.6575574770162
 30
0.0
 10
78.98966605013106
 20
-126.7908826722953
 30
0.0
  0
HATCH
  5
CE
330
C5
100
AcDbEntity
  8
_U+30EC_U+30A4_U+30E4_U+30FC 1
 62
   179
420
  2234388
100
AcDbHatch
 10
0.0
 20
0.0
 30
0.0
210
0.0
220
0.0
230
1.0
  2
SOLID
 70
     1
 71
     0
 91
        3
 92
        1
 93
        1
 72
     4
 94
        3
 73
     0
 74
     1
 95
       29
 96
       25
 40
0.0
 40
0.0
 40
0.0
 40
0.0
 40
1.0
 40
1.0
 40
1.0
 40
2.0
 40
2.0
 40
2.0
 40
3.0
 40
3.0
 40
3.0
 40
4.0
 40
4.0
 40
4.0
 40
5.0
 40
5.0
 40
5.0
 40
6.0
 40
6.0
 40
6.0
 40
7.0
 40
7.0
 40
7.0
 40
8.0
 40
8.0
 40
8.0
 40
8.0
 10
79.78083222831869
 20
-126.7908826722953
 10
79.78083222831869
 20
-127.0575330628537
 10
79.64320066368295
 20
-127.3114366001166
 10
79.29421249102714
 20
-127.3114366001166
 10
79.03824189647308
 20
-127.3114366001166
 10
78.94298500630592
 20
-127.1694986661243
 10
78.88166230666847
 20
-127.0637342347271
 10
78.82240666432217
 20
-127.1884466912932
 10
78.70820174898614
 20
-127.2645833015172
 10
78.54748804459925
 20
-127.2645833015172
 10
78.27239717010204
 20
-127.2645833015172
 10
78.13700491753173
 20
-127.0658012920183
 10
78.13700491753173
 20
-126.7908826722953
 10
78.13700491753173
 20
-126.5073513138593
 10
78.28083765404091
 20
-126.316837533525
 10
78.54748804459925
 20
-126.316837533525
 10
78.70820174898614
 20
-126.316837533525
 10
78.82240666432217
 20
-126.3953857105887
 10
78.88166230666847
 20
-126.5200981671547
 10
78.9324774650759
 20
-126.4312147036353
 10
79.02773435524307
 20
-126.2723958017652
 10
79.29007837644484
 20
-126.2723958017652
 10
79.66438800091724
 20
-126.2723958017652
 10
79.78083222831869
 20
-126.551793045619
 10
79.78083222831869
 20
-126.7908826722953
 97
        0
 97
        0
 92
        1
 93
        1
 72
     4
 94
        3
 73
     0
 74
     1
 95
       17
 96
       13
 40
0.0
 40
0.0
 40
0.0
 40
0.0
 40
1.0
 40
1.0
 40
1.0
 40
2.0
 40
2.0
 40
2.0
 40
3.0
 40
3.0
 40
3.0
 40
4.0
 40
4.0
 40
4.0
 40
4.0
 10
78.3295857551572
 20
-126.7908826722953
 10
78.3295857551572
 20
-126.9559027460388
 10
78.42467039055009
 20
-127.040652094976
 10
78.5600626431204
 20
-127.040652094976
 10
78.68288029716956
 20
-127.040652094976
 10
78.80139158186216
 20
-126.9686495993342
 10
78.80139158186216
 20
-126.7908826722953
 10
78.80139158186216
 20
-126.6131157452565
 10
78.68288029716956
 20
-126.5411132496147
 10
78.5600626431204
 20
-126.5411132496147
 10
78.42467039055009
 20
-126.5411132496147
 10
78.3295857551572
 20
-126.627929655843
 10
78.3295857551572
 20
-126.7908826722953
 97
        0
 97
        0
 92
        1
 93
        1
 72
     4
 94
        3
 73
     0
 74
     1
 95
       17
 96
       13
 40
0.0
 40
0.0
 40
0.0
 40
0.0
 40
1.0
 40
1.0
 40
1.0
 40
2.0
 40
2.0
 40
2.0
 40
3.0
 40
3.0
 40
3.0
 40
4.0
 40
4.0
 40
4.0
 40
4.0
 10
78.98966605013106
 20
-126.7908826722953
 10
78.98966605013106
 20
-126.9345431540303
 10
79.07631020158509
 20
-127.0871608840268
 10
79.27939858044057
 20
-127.0871608840268
 10
79.4845540165872
 20
-127.0871608840268
 10
79.58618433340207
 20
-126.9600368606211
 10
79.58618433340207
 20
-126.7908826722953
 10
79.58618433340207
 20
-126.6048475160919
 10
79.46353893412717
 20
-126.4946044605638
 10
79.28577200708828
 20
-126.4946044605638
 10
79.06356334828966
 20
-126.4946044605638
 10
78.98966605013106
 20
-126.6575574770162
 10
78.98966605013106
 20
-126.7908826722953
 97
        0
 97
        0
 75
     2
 76
     1
 98
        0
  0
ENDBLK
  5
C8
330
C5
100
AcDbEntity
  8
0
100
AcDbBlockEnd
  0
BLOCK
  5
D1
330
CF
100
AcDbEntity
  8
0
100
AcDbBlockBegin
  2
block 4
 70
     0
 10
0.0
 20
0.0
 30
0.0
  3
block 4
  1

  0
SPLINE
  5
D3
330
CF
100
AcDbEntity
  8
_U+30EC_U+30A4_U+30E4_U+30FC 1
370
     0
100
AcDbSpline
210
0.0
220
0.0
230
1.0
 70
    11
 71
     3
 72
    26
 73
    22
 74
     0
 42
0.0000000001
 43
0.0000000001
 12
1.0
 22
0.0
 32
0.0
 13
1.0
 23
0.0
 33
0.0
 40
0.0
 40
0.0
 40
0.0
 40
0.0
 40
1.0
 40
1.0
 40
1.0
 40
2.0
 40
2.0
 40
2.0
 40
3.0
 40
3.0
 40
3.0
 40
4.0
 40
4.0
 40
4.0
 40
5.0
 40
5.0
 40
5.0
 40
6.0
 40
6.0
 40
6.0
 40
7.0
 40
7.0
 40
7.0
 40
7.0
 10
83.904783778937
 20
-131.7738687821607
 30
0.0
 10
83.904783778937
 20
-131.7738687821607
 30
0.0
 10
82.80045842114016
 20
-131.7738687821607
 30
0.0
 10
82.80045842114016
 20
-131.7738687821607
 30
0.0
 10
82.80045842114016
 20
-131.7738687821607
 30
0.0
 10
82.80045842114016
 20
-132.1039089296476
 30
0.0
 10
82.80045842114016
 20
-132.1039089296476
 30
0.0
 10
82.80045842114016
 20
-132.1039089296476
 30
0.0
 10
82.65249157004868
 20
-132.1039089296476
 30
0.0
 10
82.65249157004868
 20
-132.1039089296476
 30
0.0
 10
82.63767765946211
 20
-131.7718017248696
 30
0.0
 10
82.4747246430098
 20
-131.7252929358187
 30
0.0
 10
82.36051972767376
 20
-131.6956651146455
 30
0.0
 10
82.36051972767376
 20
-131.6956651146455
 30
0.0
 10
82.36051972767376
 20
-131.5495930660709
 30
0.0
 10
82.36051972767376
 20
-131.5495930660709
 30
0.0
 10
82.36051972767376
 20
-131.5495930660709
 30
0.0
 10
83.904783778937
 20
-131.5495930660709
 30
0.0
 10
83.904783778937
 20
-131.5495930660709
 30
0.0
 10
83.904783778937
 20
-131.5495930660709
 30
0.0
 10
83.904783778937
 20
-131.7738687821607
 30
0.0
 10
83.904783778937
 20
-131.7738687821607
 30
0.0
  0
HATCH
  5
D4
330
CF
100
AcDbEntity
  8
_U+30EC_U+30A4_U+30E4_U+30FC 1
 62
   179
420
  2234388
100
AcDbHatch
 10
0.0
 20
0.0
 30
0.0
210
0.0
220
0.0
230
1.0
  2
SOLID
 70
     1
 71
     0
 91
        1
 92
        1
 93
        1
 72
     4
 94
        3
 73
     0
 74
     1
 95
       26
 96
       22
 40
0.0
 40
0.0
 40
0.0
 40
0.0
 40
1.0
 40
1.0
 40
1.0
 40
2.0
 40
2.0
 40
2.0
 40
3.0
 40
3.0
 40
3.0
 40
4.0
 40
4.0
 40
4.0
 40
5.0
 40
5.0
 40
5.0
 40
6.0
 40
6.0
 40
6.0
 40
7.0
 40
7.0
 40
7.0
 40
7.0
 10
83.904783778937
 20
-131.7738687821607
 10
83.904783778937
 20
-131.7738687821607
 10
82.80045842114016
 20
-131.7738687821607
 10
82.80045842114016
 20
-131.7738687821607
 10
82.80045842114016
 20
-131.7738687821607
 10
82.80045842114016
 20
-132.1039089296476
 10
82.80045842114016
 20
-132.1039089296476
 10
82.80045842114016
 20
-132.1039089296476
 10
82.65249157004868
 20
-132.1039089296476
 10
82.65249157004868
 20
-132.1039089296476
 10
82.63767765946211
 20
-131.7718017248696
 10
82.4747246430098
 20
-131.7252929358187
 10
82.36051972767376
 20
-131.6956651146455
 10
82.36051972767376
 20
-131.6956651146455
 10
82.36051972767376
 20
-131.5495930660709
 10
82.36051972767376
 20
-131.5495930660709
 10
82.36051972767376
 20
-131.5495930660709
 10
83.904783778937
 20
-131.5495930660709
 10
83.904783778937
 20
-131.5495930660709
 10
83.904783778937
 20
-131.5495930660709
 10
83.904783778937
 20
-131.7738687821607
 10
83.904783778937
 20
-131.7738687821607
 97
        0
 97
        0
 75
     2
 76
     1
 98
        0
  0
SPLINE
  5
D5
330
CF
100
AcDbEntity
  8
_U+30EC_U+30A4_U+30E4_U+30FC 1
370
     0
100
AcDbSpline
210
0.0
220
0.0
230
1.0
 70
    11
 71
     3
 72
    29
 73
    25
 74
     0
 42
0.0000000001
 43
0.0000000001
 12
1.0
 22
0.0
 32
0.0
 13
1.0
 23
0.0
 33
0.0
 40
0.0
 40
0.0
 40
0.0
 40
0.0
 40
1.0
 40
1.0
 40
1.0
 40
2.0
 40
2.0
 40
2.0
 40
3.0
 40
3.0
 40
3.0
 40
4.0
 40
4.0
 40
4.0
 40
5.0
 40
5.0
 40
5.0
 40
6.0
 40
6.0
 40
6.0
 40
7.0
 40
7.0
 40
7.0
 40
8.0
 40
8.0
 40
8.0
 40
8.0
 10
83.72701685189811
 20
-130.150539789511
 30
0.0
 10
83.9364786574013
 20
-130.2587157877478
 30
0.0
 10
83.95559893734443
 20
-130.4320040906559
 30
0.0
 10
83.95559893734443
 20
-130.5484483180573
 30
0.0
 10
83.95559893734443
 20
-130.7093342772185
 30
0.0
 10
83.90909014829356
 20
-130.8509277016623
 30
0.0
 10
83.72701685189811
 20
-130.9460123370552
 30
0.0
 10
83.5323689569815
 20
-131.0497097111612
 30
0.0
 10
83.29551864237057
 20
-131.0686577363301
 30
0.0
 10
83.13256562591825
 20
-131.0686577363301
 30
0.0
 10
82.98873288940906
 20
-131.0686577363301
 30
0.0
 10
82.73706866421156
 20
-131.0517767684523
 30
0.0
 10
82.5381143999384
 20
-130.9460123370552
 30
0.0
 10
82.33502602108291
 20
-130.8381808483668
 30
0.0
 10
82.31177162655747
 20
-130.6772948892057
 30
0.0
 10
82.31177162655747
 20
-130.5484483180573
 30
0.0
 10
82.31177162655747
 20
-130.3896294161873
 30
0.0
 10
82.3562133583172
 20
-130.2459689344524
 30
0.0
 10
82.5381143999384
 20
-130.150539789511
 30
0.0
 10
82.73069523756386
 20
-130.0513210395358
 30
0.0
 10
82.95910506823593
 20
-130.0278943902361
 30
0.0
 10
83.13256562591825
 20
-130.0278943902361
 30
0.0
 10
83.30395912630944
 20
-130.0278943902361
 30
0.0
 10
83.53460826904691
 20
-130.0492539822446
 30
0.0
 10
83.72701685189811
 20
-130.150539789511
 30
0.0
  0
SPLINE
  5
D6
330
CF
100
AcDbEntity
  8
_U+30EC_U+30A4_U+30E4_U+30FC 1
370
     0
100
AcDbSpline
210
0.0
220
0.0
230
1.0
 70
    11
 71
     3
 72
    17
 73
    13
 74
     0
 42
0.0000000001
 43
0.0000000001
 12
1.0
 22
0.0
 32
0.0
 13
1.0
 23
0.0
 33
0.0
 40
0.0
 40
0.0
 40
0.0
 40
0.0
 40
1.0
 40
1.0
 40
1.0
 40
2.0
 40
2.0
 40
2.0
 40
3.0
 40
3.0
 40
3.0
 40
4.0
 40
4.0
 40
4.0
 40
4.0
 10
82.50435246418294
 20
-130.5484483180573
 30
0.0
 10
82.50435246418294
 20
-130.7978732311894
 30
0.0
 10
82.78788382261901
 20
-130.8447265297888
 30
0.0
 10
83.13256562591825
 20
-130.8447265297888
 30
0.0
 10
83.45209823217517
 20
-130.8447265297888
 30
0.0
 10
83.76095104242782
 20
-130.8085530271937
 30
0.0
 10
83.76095104242782
 20
-130.5484483180573
 30
0.0
 10
83.76095104242782
 20
-130.3007459526679
 30
0.0
 10
83.47948674128291
 20
-130.2521701063258
 30
0.0
 10
83.13256562591825
 20
-130.2521701063258
 30
0.0
 10
82.81320527443559
 20
-130.2521701063258
 30
0.0
 10
82.50435246418294
 20
-130.2904106662121
 30
0.0
 10
82.50435246418294
 20
-130.5484483180573
 30
0.0
  0
HATCH
  5
D7
330
CF
100
AcDbEntity
  8
_U+30EC_U+30A4_U+30E4_U+30FC 1
 62
   179
420
  2234388
100
AcDbHatch
 10
0.0
 20
0.0
 30
0.0
210
0.0
220
0.0
230
1.0
  2
SOLID
 70
     1
 71
     0
 91
        2
 92
        1
 93
        1
 72
     4
 94
        3
 73
     0
 74
     1
 95
       29
 96
       25
 40
0.0
 40
0.0
 40
0.0
 40
0.0
 40
1.0
 40
1.0
 40
1.0
 40
2.0
 40
2.0
 40
2.0
 40
3.0
 40
3.0
 40
3.0
 40
4.0
 40
4.0
 40
4.0
 40
5.0
 40
5.0
 40
5.0
 40
6.0
 40
6.0
 40
6.0
 40
7.0
 40
7.0
 40
7.0
 40
8.0
 40
8.0
 40
8.0
 40
8.0
 10
83.72701685189811
 20
-130.150539789511
 10
83.9364786574013
 20
-130.2587157877478
 10
83.95559893734443
 20
-130.4320040906559
 10
83.95559893734443
 20
-130.5484483180573
 10
83.95559893734443
 20
-130.7093342772185
 10
83.90909014829356
 20
-130.8509277016623
 10
83.72701685189811
 20
-130.9460123370552
 10
83.5323689569815
 20
-131.0497097111612
 10
83.29551864237057
 20
-131.0686577363301
 10
83.13256562591825
 20
-131.0686577363301
 10
82.98873288940906
 20
-131.0686577363301
 10
82.73706866421156
 20
-131.0517767684523
 10
82.5381143999384
 20
-130.9460123370552
 10
82.33502602108291
 20
-130.8381808483668
 10
82.31177162655747
 20
-130.6772948892057
 10
82.31177162655747
 20
-130.5484483180573
 10
82.31177162655747
 20
-130.3896294161873
 10
82.3562133583172
 20
-130.2459689344524
 10
82.5381143999384
 20
-130.150539789511
 10
82.73069523756386
 20
-130.0513210395358
 10
82.95910506823593
 20
-130.0278943902361
 10
83.13256562591825
 20
-130.0278943902361
 10
83.30395912630944
 20
-130.0278943902361
 10
83.53460826904691
 20
-130.0492539822446
 10
83.72701685189811
 20
-130.150539789511
 97
        0
 97
        0
 92
        1
 93
        1
 72
     4
 94
        3
 73
     0
 74
     1
 95
       17
 96
       13
 40
0.0
 40
0.0
 40
0.0
 40
0.0
 40
1.0
 40
1.0
 40
1.0
 40
2.0
 40
2.0
 40
2.0
 40
3.0
 40
3.0
 40
3.0
 40
4.0
 40
4.0
 40
4.0
 40
4.0
 10
82.50435246418294
 20
-130.5484483180573
 10
82.50435246418294
 20
-130.7978732311894
 10
82.78788382261901
 20
-130.8447265297888
 10
83.13256562591825
 20
-130.8447265297888
 10
83.45209823217517
 20
-130.8447265297888
 10
83.76095104242782
 20
-130.8085530271937
 10
83.76095104242782
 20
-130.5484483180573
 10
83.76095104242782
 20
-130.3007459526679
 10
83.47948674128291
 20
-130.2521701063258
 10
83.13256562591825
 20
-130.2521701063258
 10
82.81320527443559
 20
-130.2521701063258
 10
82.50435246418294
 20
-130.2904106662121
 10
82.50435246418294
 20
-130.5484483180573
 97
        0
 97
        0
 75
     2
 76
     1
 98
        0
  0
ENDBLK
  5
D2
330
CF
100
AcDbEntity
  8
0
100
AcDbBlockEnd
  0
BLOCK
  5
DA
330
D8
100
AcDbEntity
  8
0
100
AcDbBlockBegin
  2
block 5
 70
     0
 10
0.0
 20
0.0
 30
0.0
  3
block 5
  1

  0
SPLINE
  5
DC
330
D8
100
AcDbEntity
  8
_U+30EC_U+30A4_U+30E4_U+30FC 1
370
     0
100
AcDbSpline
210
0.0
220
0.0
230
1.0
 70
    11
 71
     3
 72
    26
 73
    22
 74
     0
 42
0.0000000001
 43
0.0000000001
 12
1.0
 22
0.0
 32
0.0
 13
1.0
 23
0.0
 33
0.0
 40
0.0
 40
0.0
 40
0.0
 40
0.0
 40
1.0
 40
1.0
 40
1.0
 40
2.0
 40
2.0
 40
2.0
 40
3.0
 40
3.0
 40
3.0
 40
4.0
 40
4.0
 40
4.0
 40
5.0
 40
5.0
 40
5.0
 40
6.0
 40
6.0
 40
6.0
 40
7.0
 40
7.0
 40
7.0
 40
7.0
 10
84.00985919123713
 20
-124.6594020955713
 30
0.0
 10
84.00985919123713
 20
-124.6594020955713
 30
0.0
 10
82.90553383344029
 20
-124.6594020955713
 30
0.0
 10
82.90553383344029
 20
-124.6594020955713
 30
0.0
 10
82.90553383344029
 20
-124.6594020955713
 30
0.0
 10
82.90553383344029
 20
-124.9894422430582
 30
0.0
 10
82.90553383344029
 20
-124.9894422430582
 30
0.0
 10
82.90553383344029
 20
-124.9894422430582
 30
0.0
 10
82.7575669823488
 20
-124.9894422430582
 30
0.0
 10
82.7575669823488
 20
-124.9894422430582
 30
0.0
 10
82.74275307176224
 20
-124.6573350382801
 30
0.0
 10
82.57980005530992
 20
-124.6108262492292
 30
0.0
 10
82.46559513997389
 20
-124.5811984280561
 30
0.0
 10
82.46559513997389
 20
-124.5811984280561
 30
0.0
 10
82.46559513997389
 20
-124.4351263794815
 30
0.0
 10
82.46559513997389
 20
-124.4351263794815
 30
0.0
 10
82.46559513997389
 20
-124.4351263794815
 30
0.0
 10
84.00985919123713
 20
-124.4351263794815
 30
0.0
 10
84.00985919123713
 20
-124.4351263794815
 30
0.0
 10
84.00985919123713
 20
-124.4351263794815
 30
0.0
 10
84.00985919123713
 20
-124.6594020955713
 30
0.0
 10
84.00985919123713
 20
-124.6594020955713
 30
0.0
  0
HATCH
  5
DD
330
D8
100
AcDbEntity
  8
_U+30EC_U+30A4_U+30E4_U+30FC 1
 62
   179
420
  2234388
100
AcDbHatch
 10
0.0
 20
0.0
 30
0.0
210
0.0
220
0.0
230
1.0
  2
SOLID
 70
     1
 71
     0
 91
        1
 92
        1
 93
        1
 72
     4
 94
        3
 73
     0
 74
     1
 95
       26
 96
       22
 40
0.0
 40
0.0
 40
0.0
 40
0.0
 40
1.0
 40
1.0
 40
1.0
 40
2.0
 40
2.0
 40
2.0
 40
3.0
 40
3.0
 40
3.0
 40
4.0
 40
4.0
 40
4.0
 40
5.0
 40
5.0
 40
5.0
 40
6.0
 40
6.0
 40
6.0
 40
7.0
 40
7.0
 40
7.0
 40
7.0
 10
84.00985919123713
 20
-124.6594020955713
 10
84.00985919123713
 20
-124.6594020955713
 10
82.90553383344029
 20
-124.6594020955713
 10
82.90553383344029
 20
-124.6594020955713
 10
82.90553383344029
 20
-124.6594020955713
 10
82.90553383344029
 20
-124.9894422430582
 10
82.90553383344029
 20
-124.9894422430582
 10
82.90553383344029
 20
-124.9894422430582
 10
82.7575669823488
 20
-124.9894422430582
 10
82.7575669823488
 20
-124.9894422430582
 10
82.74275307176224
 20
-124.6573350382801
 10
82.57980005530992
 20
-124.6108262492292
 10
82.46559513997389
 20
-124.5811984280561
 10
82.46559513997389
 20
-124.5811984280561
 10
82.46559513997389
 20
-124.4351263794815
 10
82.46559513997389
 20
-124.4351263794815
 10
82.46559513997389
 20
-124.4351263794815
 10
84.00985919123713
 20
-124.4351263794815
 10
84.00985919123713
 20
-124.4351263794815
 10
84.00985919123713
 20
-124.4351263794815
 10
84.00985919123713
 20
-124.6594020955713
 10
84.00985919123713
 20
-124.6594020955713
 97
        0
 97
        0
 75
     2
 76
     1
 98
        0
  0
SPLINE
  5
DE
330
D8
100
AcDbEntity
  8
_U+30EC_U+30A4_U+30E4_U+30FC 1
370
     0
100
AcDbSpline
210
0.0
220
0.0
230
1.0
 70
    11
 71
     3
 72
    53
 73
    49
 74
     0
 42
0.0000000001
 43
0.0000000001
 12
1.0
 22
0.0
 32
0.0
 13
1.0
 23
0.0
 33
0.0
 40
0.0
 40
0.0
 40
0.0
 40
0.0
 40
1.0
 40
1.0
 40
1.0
 40
2.0
 40
2.0
 40
2.0
 40
3.0
 40
3.0
 40
3.0
 40
4.0
 40
4.0
 40
4.0
 40
5.0
 40
5.0
 40
5.0
 40
6.0
 40
6.0
 40
6.0
 40
7.0
 40
7.0
 40
7.0
 40
8.0
 40
8.0
 40
8.0
 40
9.0
 40
9.0
 40
9.0
 40
10.0
 40
10.0
 40
10.0
 40
11.0
 40
11.0
 40
11.0
 40
12.0
 40
12.0
 40
12.0
 40
13.0
 40
13.0
 40
13.0
 40
14.0
 40
14.0
 40
14.0
 40
15.0
 40
15.0
 40
15.0
 40
16.0
 40
16.0
 40
16.0
 40
16.0
 10
84.06067434964456
 20
-123.4529296566368
 30
0.0
 10
84.06067434964456
 20
-123.5313055789262
 30
0.0
 10
84.04362112699258
 20
-123.6327636409668
 30
0.0
 10
83.98023137006398
 20
-123.7343939577817
 30
0.0
 10
83.87016056931024
 20
-123.907854515464
 30
0.0
 10
83.73907468609649
 20
-123.9290418526983
 30
0.0
 10
83.63124319740817
 20
-123.9479898778672
 30
0.0
 10
83.63124319740817
 20
-123.9479898778672
 30
0.0
 10
83.63124319740817
 20
-123.7259534738428
 30
0.0
 10
83.63124319740817
 20
-123.7259534738428
 30
0.0
 10
83.83002520690708
 20
-123.6708319460788
 30
0.0
 10
83.85965302808023
 20
-123.5438801774474
 30
0.0
 10
83.85965302808023
 20
-123.4508625993456
 30
0.0
 10
83.85965302808023
 20
-123.311336232193
 30
0.0
 10
83.76026202333077
 20
-123.1588907569707
 30
0.0
 10
83.52754582330215
 20
-123.1588907569707
 30
0.0
 10
83.27157522874808
 20
-123.1588907569707
 30
0.0
 10
83.20181204517178
 20
-123.3387247413007
 30
0.0
 10
83.20181204517178
 20
-123.4593030832845
 30
0.0
 10
83.20181204517178
 20
-123.4909979617488
 30
0.0
 10
83.20181204517178
 20
-123.6327636409668
 30
0.0
 10
83.33083087109438
 20
-123.7216471044863
 30
0.0
 10
83.33083087109438
 20
-123.7216471044863
 30
0.0
 10
83.31171059115124
 20
-123.8971747194597
 30
0.0
 10
83.31171059115124
 20
-123.8971747194597
 30
0.0
 10
83.31171059115124
 20
-123.8971747194597
 30
0.0
 10
82.46559513997389
 20
-123.776596377476
 30
0.0
 10
82.46559513997389
 20
-123.776596377476
 30
0.0
 10
82.46559513997389
 20
-123.776596377476
 30
0.0
 10
82.46559513997389
 20
-122.9981770525838
 30
0.0
 10
82.46559513997389
 20
-122.9981770525838
 30
0.0
 10
82.46559513997389
 20
-122.9981770525838
 30
0.0
 10
82.6602430348905
 20
-122.9981770525838
 30
0.0
 10
82.6602430348905
 20
-122.9981770525838
 30
0.0
 10
82.6602430348905
 20
-122.9981770525838
 30
0.0
 10
82.6602430348905
 20
-123.6138156157979
 30
0.0
 10
82.6602430348905
 20
-123.6138156157979
 30
0.0
 10
82.6602430348905
 20
-123.6138156157979
 30
0.0
 10
83.08330076047918
 20
-123.6792724300177
 30
0.0
 10
83.08330076047918
 20
-123.6792724300177
 30
0.0
 10
83.04936656994947
 20
-123.6179497303802
 30
0.0
 10
83.0092312075463
 20
-123.5354396935085
 30
0.0
 10
83.0092312075463
 20
-123.4171006635902
 30
0.0
 10
83.0092312075463
 20
-123.1631971263273
 30
0.0
 10
83.19543861852407
 20
-122.9261745569421
 30
0.0
 10
83.50842554335901
 20
-122.9261745569421
 30
0.0
 10
83.82589109232478
 20
-122.9261745569421
 30
0.0
 10
84.06067434964456
 20
-123.1504502730318
 30
0.0
 10
84.06067434964456
 20
-123.4529296566368
 30
0.0
  0
HATCH
  5
DF
330
D8
100
AcDbEntity
  8
_U+30EC_U+30A4_U+30E4_U+30FC 1
 62
   179
420
  2234388
100
AcDbHatch
 10
0.0
 20
0.0
 30
0.0
210
0.0
220
0.0
230
1.0
  2
SOLID
 70
     1
 71
     0
 91
        1
 92
        1
 93
        1
 72
     4
 94
        3
 73
     0
 74
     1
 95
       53
 96
       49
 40
0.0
 40
0.0
 40
0.0
 40
0.0
 40
1.0
 40
1.0
 40
1.0
 40
2.0
 40
2.0
 40
2.0
 40
3.0
 40
3.0
 40
3.0
 40
4.0
 40
4.0
 40
4.0
 40
5.0
 40
5.0
 40
5.0
 40
6.0
 40
6.0
 40
6.0
 40
7.0
 40
7.0
 40
7.0
 40
8.0
 40
8.0
 40
8.0
 40
9.0
 40
9.0
 40
9.0
 40
10.0
 40
10.0
 40
10.0
 40
11.0
 40
11.0
 40
11.0
 40
12.0
 40
12.0
 40
12.0
 40
13.0
 40
13.0
 40
13.0
 40
14.0
 40
14.0
 40
14.0
 40
15.0
 40
15.0
 40
15.0
 40
16.0
 40
16.0
 40
16.0
 40
16.0
 10
84.06067434964456
 20
-123.4529296566368
 10
84.06067434964456
 20
-123.5313055789262
 10
84.04362112699258
 20
-123.6327636409668
 10
83.98023137006398
 20
-123.7343939577817
 10
83.87016056931024
 20
-123.907854515464
 10
83.73907468609649
 20
-123.9290418526983
 10
83.63124319740817
 20
-123.9479898778672
 10
83.63124319740817
 20
-123.9479898778672
 10
83.63124319740817
 20
-123.7259534738428
 10
83.63124319740817
 20
-123.7259534738428
 10
83.83002520690708
 20
-123.6708319460788
 10
83.85965302808023
 20
-123.5438801774474
 10
83.85965302808023
 20
-123.4508625993456
 10
83.85965302808023
 20
-123.311336232193
 10
83.76026202333077
 20
-123.1588907569707
 10
83.52754582330215
 20
-123.1588907569707
 10
83.27157522874808
 20
-123.1588907569707
 10
83.20181204517178
 20
-123.3387247413007
 10
83.20181204517178
 20
-123.4593030832845
 10
83.20181204517178
 20
-123.4909979617488
 10
83.20181204517178
 20
-123.6327636409668
 10
83.33083087109438
 20
-123.7216471044863
 10
83.33083087109438
 20
-123.7216471044863
 10
83.31171059115124
 20
-123.8971747194597
 10
83.31171059115124
 20
-123.8971747194597
 10
83.31171059115124
 20
-123.8971747194597
 10
82.46559513997389
 20
-123.776596377476
 10
82.46559513997389
 20
-123.776596377476
 10
82.46559513997389
 20
-123.776596377476
 10
82.46559513997389
 20
-122.9981770525838
 10
82.46559513997389
 20
-122.9981770525838
 10
82.46559513997389
 20
-122.9981770525838
 10
82.6602430348905
 20
-122.9981770525838
 10
82.6602430348905
 20
-122.9981770525838
 10
82.6602430348905
 20
-122.9981770525838
 10
82.6602430348905
 20
-123.6138156157979
 10
82.6602430348905
 20
-123.6138156157979
 10
82.6602430348905
 20
-123.6138156157979
 10
83.08330076047918
 20
-123.6792724300177
 10
83.08330076047918
 20
-123.6792724300177
 10
83.04936656994947
 20
-123.6179497303802
 10
83.0092312075463
 20
-123.5354396935085
 10
83.0092312075463
 20
-123.4171006635902
 10
83.0092312075463
 20
-123.1631971263273
 10
83.19543861852407
 20
-122.9261745569421
 10
83.50842554335901
 20
-122.9261745569421
 10
83.82589109232478
 20
-122.9261745569421
 10
84.06067434964456
 20
-123.1504502730318
 10
84.06067434964456
 20
-123.4529296566368
 97
        0
 97
        0
 75
     2
 76
     1
 98
        0
  0
ENDBLK
  5
DB
330
D8
100
AcDbEntity
  8
0
100
AcDbBlockEnd
  0
BLOCK
  5
E2
330
E0
100
AcDbEntity
  8
0
100
AcDbBlockBegin
  2
block 6
 70
     0
 10
0.0
 20
0.0
 30
0.0
  3
block 6
  1

  0
SPLINE
  5
E4
330
E0
100
AcDbEntity
  8
_U+30EC_U+30A4_U+30E4_U+30FC 1
370
     0
100
AcDbSpline
210
0.0
220
0.0
230
1.0
 70
    11
 71
     3
 72
    62
 73
    58
 74
     0
 42
0.0000000001
 43
0.0000000001
 12
1.0
 22
0.0
 32
0.0
 13
1.0
 23
0.0
 33
0.0
 40
0.0
 40
0.0
 40
0.0
 40
0.0
 40
1.0
 40
1.0
 40
1.0
 40
2.0
 40
2.0
 40
2.0
 40
3.0
 40
3.0
 40
3.0
 40
4.0
 40
4.0
 40
4.0
 40
5.0
 40
5.0
 40
5.0
 40
6.0
 40
6.0
 40
6.0
 40
7.0
 40
7.0
 40
7.0
 40
8.0
 40
8.0
 40
8.0
 40
9.0
 40
9.0
 40
9.0
 40
10.0
 40
10.0
 40
10.0
 40
11.0
 40
11.0
 40
11.0
 40
12.0
 40
12.0
 40
12.0
 40
13.0
 40
13.0
 40
13.0
 40
14.0
 40
14.0
 40
14.0
 40
15.0
 40
15.0
 40
15.0
 40
16.0
 40
16.0
 40
16.0
 40
17.0
 40
17.0
 40
17.0
 40
18.0
 40
18.0
 40
18.0
 40
19.0
 40
19.0
 40
19.0
 40
19.0
 10
82.27869870989907
 20
-136.5701307167255
 30
0.0
 10
82.27869870989907
 20
-136.665559861667
 30
0.0
 10
82.2575113726648
 20
-136.8832898963347
 30
0.0
 10
82.07130396168704
 20
-137.0083468624493
 30
0.0
 10
81.95916610364216
 20
-137.0824164153822
 30
0.0
 10
81.8597750988927
 20
-137.0865505299645
 30
0.0
 10
81.77519800472982
 20
-137.0906846445468
 30
0.0
 10
81.77519800472982
 20
-137.0906846445468
 30
0.0
 10
81.77519800472982
 20
-136.8705430430393
 30
0.0
 10
81.77519800472982
 20
-136.8705430430393
 30
0.0
 10
81.84926755766269
 20
-136.8684759857482
 30
0.0
 10
82.08405081498246
 20
-136.8581406992924
 30
0.0
 10
82.08405081498246
 20
-136.5746093408563
 30
0.0
 10
82.08405081498246
 20
-136.4371500309949
 30
0.0
 10
82.01428763140615
 20
-136.2845323009983
 30
0.0
 10
81.78570554595983
 20
-136.2845323009983
 30
0.0
 10
81.66943357333264
 20
-136.2845323009983
 30
0.0
 10
81.62068547221637
 20
-136.3227728608846
 30
0.0
 10
81.58899059375206
 20
-136.3544677393489
 30
0.0
 10
81.51492104081919
 20
-136.4285372922818
 30
0.0
 10
81.50234644229803
 20
-136.5449815196832
 30
0.0
 10
81.50234644229803
 20
-136.5997585378987
 30
0.0
 10
81.50234644229803
 20
-136.6190510726161
 30
0.0
 10
81.50441349958918
 20
-136.6548800656627
 30
0.0
 10
81.50854761417148
 20
-136.6824408295447
 30
0.0
 10
81.50854761417148
 20
-136.6824408295447
 30
0.0
 10
81.31389971925486
 20
-136.6824408295447
 30
0.0
 10
81.31389971925486
 20
-136.6824408295447
 30
0.0
 10
81.32027314590258
 20
-136.6442002696584
 30
0.0
 10
81.32251245796799
 20
-136.6021701047383
 30
0.0
 10
81.32251245796799
 20
-136.5956244233164
 30
0.0
 10
81.32251245796799
 20
-136.5301676090966
 30
0.0
 10
81.3013251207337
 20
-136.3313855995977
 30
0.0
 10
81.06430255134852
 20
-136.3313855995977
 30
0.0
 10
80.88670787908389
 20
-136.3313855995977
 30
0.0
 10
80.83158635131988
 20
-136.4622992280372
 30
0.0
 10
80.83158635131988
 20
-136.5725422835652
 30
0.0
 10
80.83158635131988
 20
-136.8367811072839
 30
0.0
 10
81.06430255134852
 20
-136.845393845997
 30
0.0
 10
81.13630504699023
 20
-136.8495279605793
 30
0.0
 10
81.13630504699023
 20
-136.8495279605793
 30
0.0
 10
81.13630504699023
 20
-137.052788594209
 30
0.0
 10
81.13630504699023
 20
-137.052788594209
 30
0.0
 10
81.01142033564993
 20
-137.0441758554959
 30
0.0
 10
80.63487139911211
 20
-137.0166150916139
 30
0.0
 10
80.63487139911211
 20
-136.5597954302698
 30
0.0
 10
80.63487139911211
 20
-136.33551971418
 30
0.0
 10
80.76182316774357
 20
-136.0943630302125
 30
0.0
 10
81.0579291247008
 20
-136.0943630302125
 30
0.0
 10
81.24413653567855
 20
-136.0943630302125
 30
0.0
 10
81.32664657255029
 20
-136.1894476656054
 30
0.0
 10
81.38796927218773
 20
-136.2890109251291
 30
0.0
 10
81.41553003606973
 20
-136.2276882254917
 30
0.0
 10
81.49597301565032
 20
-136.0457871838705
 30
0.0
 10
81.77313094743866
 20
-136.0457871838705
 30
0.0
 10
82.11161157886445
 20
-136.0457871838705
 30
0.0
 10
82.27869870989907
 20
-136.2931450397114
 30
0.0
 10
82.27869870989907
 20
-136.5701307167255
 30
0.0
  0
HATCH
  5
E5
330
E0
100
AcDbEntity
  8
_U+30EC_U+30A4_U+30E4_U+30FC 1
 62
   179
420
  2234388
100
AcDbHatch
 10
0.0
 20
0.0
 30
0.0
210
0.0
220
0.0
230
1.0
  2
SOLID
 70
     1
 71
     0
 91
        1
 92
        1
 93
        1
 72
     4
 94
        3
 73
     0
 74
     1
 95
       62
 96
       58
 40
0.0
 40
0.0
 40
0.0
 40
0.0
 40
1.0
 40
1.0
 40
1.0
 40
2.0
 40
2.0
 40
2.0
 40
3.0
 40
3.0
 40
3.0
 40
4.0
 40
4.0
 40
4.0
 40
5.0
 40
5.0
 40
5.0
 40
6.0
 40
6.0
 40
6.0
 40
7.0
 40
7.0
 40
7.0
 40
8.0
 40
8.0
 40
8.0
 40
9.0
 40
9.0
 40
9.0
 40
10.0
 40
10.0
 40
10.0
 40
11.0
 40
11.0
 40
11.0
 40
12.0
 40
12.0
 40
12.0
 40
13.0
 40
13.0
 40
13.0
 40
14.0
 40
14.0
 40
14.0
 40
15.0
 40
15.0
 40
15.0
 40
16.0
 40
16.0
 40
16.0
 40
17.0
 40
17.0
 40
17.0
 40
18.0
 40
18.0
 40
18.0
 40
19.0
 40
19.0
 40
19.0
 40
19.0
 10
82.27869870989907
 20
-136.5701307167255
 10
82.27869870989907
 20
-136.665559861667
 10
82.2575113726648
 20
-136.8832898963347
 10
82.07130396168704
 20
-137.0083468624493
 10
81.95916610364216
 20
-137.0824164153822
 10
81.8597750988927
 20
-137.0865505299645
 10
81.77519800472982
 20
-137.0906846445468
 10
81.77519800472982
 20
-137.0906846445468
 10
81.77519800472982
 20
-136.8705430430393
 10
81.77519800472982
 20
-136.8705430430393
 10
81.84926755766269
 20
-136.8684759857482
 10
82.08405081498246
 20
-136.8581406992924
 10
82.08405081498246
 20
-136.5746093408563
 10
82.08405081498246
 20
-136.4371500309949
 10
82.01428763140615
 20
-136.2845323009983
 10
81.78570554595983
 20
-136.2845323009983
 10
81.66943357333264
 20
-136.2845323009983
 10
81.62068547221637
 20
-136.3227728608846
 10
81.58899059375206
 20
-136.3544677393489
 10
81.51492104081919
 20
-136.4285372922818
 10
81.50234644229803
 20
-136.5449815196832
 10
81.50234644229803
 20
-136.5997585378987
 10
81.50234644229803
 20
-136.6190510726161
 10
81.50441349958918
 20
-136.6548800656627
 10
81.50854761417148
 20
-136.6824408295447
 10
81.50854761417148
 20
-136.6824408295447
 10
81.31389971925486
 20
-136.6824408295447
 10
81.31389971925486
 20
-136.6824408295447
 10
81.32027314590258
 20
-136.6442002696584
 10
81.32251245796799
 20
-136.6021701047383
 10
81.32251245796799
 20
-136.5956244233164
 10
81.32251245796799
 20
-136.5301676090966
 10
81.3013251207337
 20
-136.3313855995977
 10
81.06430255134852
 20
-136.3313855995977
 10
80.88670787908389
 20
-136.3313855995977
 10
80.83158635131988
 20
-136.4622992280372
 10
80.83158635131988
 20
-136.5725422835652
 10
80.83158635131988
 20
-136.8367811072839
 10
81.06430255134852
 20
-136.845393845997
 10
81.13630504699023
 20
-136.8495279605793
 10
81.13630504699023
 20
-136.8495279605793
 10
81.13630504699023
 20
-137.052788594209
 10
81.13630504699023
 20
-137.052788594209
 10
81.01142033564993
 20
-137.0441758554959
 10
80.63487139911211
 20
-137.0166150916139
 10
80.63487139911211
 20
-136.5597954302698
 10
80.63487139911211
 20
-136.33551971418
 10
80.76182316774357
 20
-136.0943630302125
 10
81.0579291247008
 20
-136.0943630302125
 10
81.24413653567855
 20
-136.0943630302125
 10
81.32664657255029
 20
-136.1894476656054
 10
81.38796927218773
 20
-136.2890109251291
 10
81.41553003606973
 20
-136.2276882254917
 10
81.49597301565032
 20
-136.0457871838705
 10
81.77313094743866
 20
-136.0457871838705
 10
82.11161157886445
 20
-136.0457871838705
 10
82.27869870989907
 20
-136.2931450397114
 10
82.27869870989907
 20
-136.5701307167255
 97
        0
 97
        0
 75
     2
 76
     1
 98
        0
  0
ENDBLK
  5
E3
330
E0
100
AcDbEntity
  8
0
100
AcDbBlockEnd
  0
BLOCK
  5
E8
330
E6
100
AcDbEntity
  8
0
100
AcDbBlockBegin
  2
block 7
 70
     0
 10
0.0
 20
0.0
 30
0.0
  3
block 7
  1

  0
SPLINE
  5
EA
330
E6
100
AcDbEntity
  8
_U+30EC_U+30A4_U+30E4_U+30FC 1
370
     0
100
AcDbSpline
210
0.0
220
0.0
230
1.0
 70
    11
 71
     3
 72
    44
 73
    40
 74
     0
 42
0.0000000001
 43
0.0000000001
 12
1.0
 22
0.0
 32
0.0
 13
1.0
 23
0.0
 33
0.0
 40
0.0
 40
0.0
 40
0.0
 40
0.0
 40
1.0
 40
1.0
 40
1.0
 40
2.0
 40
2.0
 40
2.0
 40
3.0
 40
3.0
 40
3.0
 40
4.0
 40
4.0
 40
4.0
 40
5.0
 40
5.0
 40
5.0
 40
6.0
 40
6.0
 40
6.0
 40
7.0
 40
7.0
 40
7.0
 40
8.0
 40
8.0
 40
8.0
 40
9.0
 40
9.0
 40
9.0
 40
10.0
 40
10.0
 40
10.0
 40
11.0
 40
11.0
 40
11.0
 40
12.0
 40
12.0
 40
12.0
 40
13.0
 40
13.0
 40
13.0
 40
13.0
 10
91.49002276358583
 20
-139.9228976429707
 30
0.0
 10
91.27229272891805
 20
-140.0817165448407
 30
0.0
 10
91.17910289604204
 20
-140.1557860977736
 30
0.0
 10
91.1305270497
 20
-140.2994465795085
 30
0.0
 10
91.1305270497
 20
-140.2994465795085
 30
0.0
 10
91.90894637459222
 20
-140.2994465795085
 30
0.0
 10
91.90894637459222
 20
-140.2994465795085
 30
0.0
 10
91.90894637459222
 20
-140.2994465795085
 30
0.0
 10
91.90894637459222
 20
-140.5047742704294
 30
0.0
 10
91.90894637459222
 20
-140.5047742704294
 30
0.0
 10
91.90894637459222
 20
-140.5047742704294
 30
0.0
 10
90.88092988179366
 20
-140.5047742704294
 30
0.0
 10
90.88092988179366
 20
-140.5047742704294
 30
0.0
 10
90.91262476025796
 20
-140.1471733590604
 30
0.0
 10
90.97808157447771
 20
-140.0689696915453
 30
0.0
 10
91.36324324972864
 20
-139.7706244225226
 30
0.0
 10
91.6192138442827
 20
-139.5718424130237
 30
0.0
 10
91.68467065850244
 20
-139.5039740319643
 30
0.0
 10
91.68467065850244
 20
-139.3665147221028
 30
0.0
 10
91.68467065850244
 20
-139.2480034374102
 30
0.0
 10
91.61266816286073
 20
-139.1170898089707
 30
0.0
 10
91.41629772020148
 20
-139.1170898089707
 30
0.0
 10
91.1558485015166
 20
-139.1170898089707
 30
0.0
 10
91.14740801757773
 20
-139.3475666969339
 30
0.0
 10
91.14310164822118
 20
-139.4640109243354
 30
0.0
 10
91.14310164822118
 20
-139.4640109243354
 30
0.0
 10
90.91899818690567
 20
-139.4640109243354
 30
0.0
 10
90.91899818690567
 20
-139.4640109243354
 30
0.0
 10
90.92743867084454
 20
-139.3368869009297
 30
0.0
 10
90.93794621207455
 20
-139.2249212976591
 30
0.0
 10
91.01838919165513
 20
-139.1064100129664
 30
0.0
 10
91.1282877376346
 20
-138.9455240538053
 30
0.0
 10
91.31449514861235
 20
-138.9117621180498
 30
0.0
 10
91.43076712123954
 20
-138.9117621180498
 30
0.0
 10
91.70809730780215
 20
-138.9117621180498
 30
0.0
 10
91.91514754646566
 20
-139.0957302169622
 30
0.0
 10
91.91514754646566
 20
-139.368581779394
 30
0.0
 10
91.91514754646566
 20
-139.5973361196146
 30
0.0
 10
91.79904782861274
 20
-139.6965548695898
 30
0.0
 10
91.49002276358583
 20
-139.9228976429707
 30
0.0
  0
HATCH
  5
EB
330
E6
100
AcDbEntity
  8
_U+30EC_U+30A4_U+30E4_U+30FC 1
 62
   179
420
  2234388
100
AcDbHatch
 10
0.0
 20
0.0
 30
0.0
210
0.0
220
0.0
230
1.0
  2
SOLID
 70
     1
 71
     0
 91
        1
 92
        1
 93
        1
 72
     4
 94
        3
 73
     0
 74
     1
 95
       44
 96
       40
 40
0.0
 40
0.0
 40
0.0
 40
0.0
 40
1.0
 40
1.0
 40
1.0
 40
2.0
 40
2.0
 40
2.0
 40
3.0
 40
3.0
 40
3.0
 40
4.0
 40
4.0
 40
4.0
 40
5.0
 40
5.0
 40
5.0
 40
6.0
 40
6.0
 40
6.0
 40
7.0
 40
7.0
 40
7.0
 40
8.0
 40
8.0
 40
8.0
 40
9.0
 40
9.0
 40
9.0
 40
10.0
 40
10.0
 40
10.0
 40
11.0
 40
11.0
 40
11.0
 40
12.0
 40
12.0
 40
12.0
 40
13.0
 40
13.0
 40
13.0
 40
13.0
 10
91.49002276358583
 20
-139.9228976429707
 10
91.27229272891805
 20
-140.0817165448407
 10
91.17910289604204
 20
-140.1557860977736
 10
91.1305270497
 20
-140.2994465795085
 10
91.1305270497
 20
-140.2994465795085
 10
91.90894637459222
 20
-140.2994465795085
 10
91.90894637459222
 20
-140.2994465795085
 10
91.90894637459222
 20
-140.2994465795085
 10
91.90894637459222
 20
-140.5047742704294
 10
91.90894637459222
 20
-140.5047742704294
 10
91.90894637459222
 20
-140.5047742704294
 10
90.88092988179366
 20
-140.5047742704294
 10
90.88092988179366
 20
-140.5047742704294
 10
90.91262476025796
 20
-140.1471733590604
 10
90.97808157447771
 20
-140.0689696915453
 10
91.36324324972864
 20
-139.7706244225226
 10
91.6192138442827
 20
-139.5718424130237
 10
91.68467065850244
 20
-139.5039740319643
 10
91.68467065850244
 20
-139.3665147221028
 10
91.68467065850244
 20
-139.2480034374102
 10
91.61266816286073
 20
-139.1170898089707
 10
91.41629772020148
 20
-139.1170898089707
 10
91.1558485015166
 20
-139.1170898089707
 10
91.14740801757773
 20
-139.3475666969339
 10
91.14310164822118
 20
-139.4640109243354
 10
91.14310164822118
 20
-139.4640109243354
 10
90.91899818690567
 20
-139.4640109243354
 10
90.91899818690567
 20
-139.4640109243354
 10
90.92743867084454
 20
-139.3368869009297
 10
90.93794621207455
 20
-139.2249212976591
 10
91.01838919165513
 20
-139.1064100129664
 10
91.1282877376346
 20
-138.9455240538053
 10
91.31449514861235
 20
-138.9117621180498
 10
91.43076712123954
 20
-138.9117621180498
 10
91.70809730780215
 20
-138.9117621180498
 10
91.91514754646566
 20
-139.0957302169622
 10
91.91514754646566
 20
-139.368581779394
 10
91.91514754646566
 20
-139.5973361196146
 10
91.79904782861274
 20
-139.6965548695898
 10
91.49002276358583
 20
-139.9228976429707
 97
        0
 97
        0
 75
     2
 76
     1
 98
        0
  0
SPLINE
  5
EC
330
E6
100
AcDbEntity
  8
_U+30EC_U+30A4_U+30E4_U+30FC 1
370
     0
100
AcDbSpline
210
0.0
220
0.0
230
1.0
 70
    11
 71
     3
 72
    62
 73
    58
 74
     0
 42
0.0000000001
 43
0.0000000001
 12
1.0
 22
0.0
 32
0.0
 13
1.0
 23
0.0
 33
0.0
 40
0.0
 40
0.0
 40
0.0
 40
0.0
 40
1.0
 40
1.0
 40
1.0
 40
2.0
 40
2.0
 40
2.0
 40
3.0
 40
3.0
 40
3.0
 40
4.0
 40
4.0
 40
4.0
 40
5.0
 40
5.0
 40
5.0
 40
6.0
 40
6.0
 40
6.0
 40
7.0
 40
7.0
 40
7.0
 40
8.0
 40
8.0
 40
8.0
 40
9.0
 40
9.0
 40
9.0
 40
10.0
 40
10.0
 40
10.0
 40
11.0
 40
11.0
 40
11.0
 40
12.0
 40
12.0
 40
12.0
 40
13.0
 40
13.0
 40
13.0
 40
14.0
 40
14.0
 40
14.0
 40
15.0
 40
15.0
 40
15.0
 40
16.0
 40
16.0
 40
16.0
 40
17.0
 40
17.0
 40
17.0
 40
18.0
 40
18.0
 40
18.0
 40
19.0
 40
19.0
 40
19.0
 40
19.0
 10
92.56558157408084
 20
-140.5554171740625
 30
0.0
 10
92.4701524291394
 20
-140.5554171740625
 30
0.0
 10
92.2520778849231
 20
-140.5344020916025
 30
0.0
 10
92.12736542835705
 20
-140.348366935399
 30
0.0
 10
92.05364038497271
 20
-140.2360568225799
 30
0.0
 10
92.04916176084188
 20
-140.1368380726047
 30
0.0
 10
92.04502764625958
 20
-140.0520887236675
 30
0.0
 10
92.04502764625958
 20
-140.0520887236675
 30
0.0
 10
92.26516924776705
 20
-140.0520887236675
 30
0.0
 10
92.26516924776705
 20
-140.0520887236675
 30
0.0
 10
92.26723630505819
 20
-140.1261582766004
 30
0.0
 10
92.27757159151395
 20
-140.3607692791459
 30
0.0
 10
92.56110294995001
 20
-140.3607692791459
 30
0.0
 10
92.69856225981148
 20
-140.3607692791459
 30
0.0
 10
92.85083548025952
 20
-140.2911783503439
 30
0.0
 10
92.85083548025952
 20
-140.0627685196718
 30
0.0
 10
92.85083548025952
 20
-139.9463242922704
 30
0.0
 10
92.81293942992177
 20
-139.8977484459284
 30
0.0
 10
92.78124455145748
 20
-139.866053567464
 30
0.0
 10
92.7071749985246
 20
-139.7919840145312
 30
0.0
 10
92.59073077112315
 20
-139.7792371612358
 30
0.0
 10
92.53595375290769
 20
-139.7792371612358
 30
0.0
 10
92.51666121819028
 20
-139.7792371612358
 30
0.0
 10
92.48083222514369
 20
-139.7813042185269
 30
0.0
 10
92.45327146126169
 20
-139.7854383331092
 30
0.0
 10
92.45327146126169
 20
-139.7854383331092
 30
0.0
 10
92.45327146126169
 20
-139.5907904381926
 30
0.0
 10
92.45327146126169
 20
-139.5907904381926
 30
0.0
 10
92.49116751159943
 20
-139.5973361196146
 30
0.0
 10
92.53388669561653
 20
-139.5994031769057
 30
0.0
 10
92.54008786748999
 20
-139.5994031769057
 30
0.0
 10
92.60554468170973
 20
-139.5994031769057
 30
0.0
 10
92.80467120075717
 20
-139.5780435848972
 30
0.0
 10
92.80467120075717
 20
-139.3413655250605
 30
0.0
 10
92.80467120075717
 20
-139.1635985980216
 30
0.0
 10
92.67306855322063
 20
-139.1084770702576
 30
0.0
 10
92.56351451678968
 20
-139.1084770702576
 30
0.0
 10
92.2989311835225
 20
-139.1084770702576
 30
0.0
 10
92.29031844480937
 20
-139.3413655250605
 30
0.0
 10
92.28618433022707
 20
-139.4130235111537
 30
0.0
 10
92.28618433022707
 20
-139.4130235111537
 30
0.0
 10
92.08326820614586
 20
-139.4130235111537
 30
0.0
 10
92.08326820614586
 20
-139.4130235111537
 30
0.0
 10
92.09153643531046
 20
-139.2883110545876
 30
0.0
 10
92.11909719919245
 20
-138.9117621180498
 30
0.0
 10
92.57591686053658
 20
-138.9117621180498
 30
0.0
 10
92.80019257662634
 20
-138.9117621180498
 30
0.0
 10
93.04134926059383
 20
-139.0388861414555
 30
0.0
 10
93.04134926059383
 20
-139.3348198436385
 30
0.0
 10
93.04134926059383
 20
-139.5211995093905
 30
0.0
 10
92.94626462520094
 20
-139.603537291488
 30
0.0
 10
92.84670136567722
 20
-139.6648599911255
 30
0.0
 10
92.90802406531466
 20
-139.6924207550074
 30
0.0
 10
93.08992510693585
 20
-139.7726914798138
 30
0.0
 10
93.08992510693585
 20
-140.0500216663764
 30
0.0
 10
93.08992510693585
 20
-140.3883300430279
 30
0.0
 10
92.84256725109492
 20
-140.5554171740625
 30
0.0
 10
92.56558157408084
 20
-140.5554171740625
 30
0.0
  0
HATCH
  5
ED
330
E6
100
AcDbEntity
  8
_U+30EC_U+30A4_U+30E4_U+30FC 1
 62
   179
420
  2234388
100
AcDbHatch
 10
0.0
 20
0.0
 30
0.0
210
0.0
220
0.0
230
1.0
  2
SOLID
 70
     1
 71
     0
 91
        1
 92
        1
 93
        1
 72
     4
 94
        3
 73
     0
 74
     1
 95
       62
 96
       58
 40
0.0
 40
0.0
 40
0.0
 40
0.0
 40
1.0
 40
1.0
 40
1.0
 40
2.0
 40
2.0
 40
2.0
 40
3.0
 40
3.0
 40
3.0
 40
4.0
 40
4.0
 40
4.0
 40
5.0
 40
5.0
 40
5.0
 40
6.0
 40
6.0
 40
6.0
 40
7.0
 40
7.0
 40
7.0
 40
8.0
 40
8.0
 40
8.0
 40
9.0
 40
9.0
 40
9.0
 40
10.0
 40
10.0
 40
10.0
 40
11.0
 40
11.0
 40
11.0
 40
12.0
 40
12.0
 40
12.0
 40
13.0
 40
13.0
 40
13.0
 40
14.0
 40
14.0
 40
14.0
 40
15.0
 40
15.0
 40
15.0
 40
16.0
 40
16.0
 40
16.0
 40
17.0
 40
17.0
 40
17.0
 40
18.0
 40
18.0
 40
18.0
 40
19.0
 40
19.0
 40
19.0
 40
19.0
 10
92.56558157408084
 20
-140.5554171740625
 10
92.4701524291394
 20
-140.5554171740625
 10
92.2520778849231
 20
-140.5344020916025
 10
92.12736542835705
 20
-140.348366935399
 10
92.05364038497271
 20
-140.2360568225799
 10
92.04916176084188
 20
-140.1368380726047
 10
92.04502764625958
 20
-140.0520887236675
 10
92.04502764625958
 20
-140.0520887236675
 10
92.26516924776705
 20
-140.0520887236675
 10
92.26516924776705
 20
-140.0520887236675
 10
92.26723630505819
 20
-140.1261582766004
 10
92.27757159151395
 20
-140.3607692791459
 10
92.56110294995001
 20
-140.3607692791459
 10
92.69856225981148
 20
-140.3607692791459
 10
92.85083548025952
 20
-140.2911783503439
 10
92.85083548025952
 20
-140.0627685196718
 10
92.85083548025952
 20
-139.9463242922704
 10
92.81293942992177
 20
-139.8977484459284
 10
92.78124455145748
 20
-139.866053567464
 10
92.7071749985246
 20
-139.7919840145312
 10
92.59073077112315
 20
-139.7792371612358
 10
92.53595375290769
 20
-139.7792371612358
 10
92.51666121819028
 20
-139.7792371612358
 10
92.48083222514369
 20
-139.7813042185269
 10
92.45327146126169
 20
-139.7854383331092
 10
92.45327146126169
 20
-139.7854383331092
 10
92.45327146126169
 20
-139.5907904381926
 10
92.45327146126169
 20
-139.5907904381926
 10
92.49116751159943
 20
-139.5973361196146
 10
92.53388669561653
 20
-139.5994031769057
 10
92.54008786748999
 20
-139.5994031769057
 10
92.60554468170973
 20
-139.5994031769057
 10
92.80467120075717
 20
-139.5780435848972
 10
92.80467120075717
 20
-139.3413655250605
 10
92.80467120075717
 20
-139.1635985980216
 10
92.67306855322063
 20
-139.1084770702576
 10
92.56351451678968
 20
-139.1084770702576
 10
92.2989311835225
 20
-139.1084770702576
 10
92.29031844480937
 20
-139.3413655250605
 10
92.28618433022707
 20
-139.4130235111537
 10
92.28618433022707
 20
-139.4130235111537
 10
92.08326820614586
 20
-139.4130235111537
 10
92.08326820614586
 20
-139.4130235111537
 10
92.09153643531046
 20
-139.2883110545876
 10
92.11909719919245
 20
-138.9117621180498
 10
92.57591686053658
 20
-138.9117621180498
 10
92.80019257662634
 20
-138.9117621180498
 10
93.04134926059383
 20
-139.0388861414555
 10
93.04134926059383
 20
-139.3348198436385
 10
93.04134926059383
 20
-139.5211995093905
 10
92.94626462520094
 20
-139.603537291488
 10
92.84670136567722
 20
-139.6648599911255
 10
92.90802406531466
 20
-139.6924207550074
 10
93.08992510693585
 20
-139.7726914798138
 10
93.08992510693585
 20
-140.0500216663764
 10
93.08992510693585
 20
-140.3883300430279
 10
92.84256725109492
 20
-140.5554171740625
 10
92.56558157408084
 20
-140.5554171740625
 97
        0
 97
        0
 75
     2
 76
     1
 98
        0
  0
ENDBLK
  5
E9
330
E6
100
AcDbEntity
  8
0
100
AcDbBlockEnd
  0
BLOCK
  5
F0
330
EE
100
AcDbEntity
  8
0
100
AcDbBlockBegin
  2
block 8
 70
     0
 10
0.0
 20
0.0
 30
0.0
  3
block 8
  1

  0
SPLINE
  5
F2
330
EE
100
AcDbEntity
  8
_U+30EC_U+30A4_U+30E4_U+30FC 1
370
     0
100
AcDbSpline
210
0.0
220
0.0
230
1.0
 70
    11
 71
     3
 72
    44
 73
    40
 74
     0
 42
0.0000000001
 43
0.0000000001
 12
1.0
 22
0.0
 32
0.0
 13
1.0
 23
0.0
 33
0.0
 40
0.0
 40
0.0
 40
0.0
 40
0.0
 40
1.0
 40
1.0
 40
1.0
 40
2.0
 40
2.0
 40
2.0
 40
3.0
 40
3.0
 40
3.0
 40
4.0
 40
4.0
 40
4.0
 40
5.0
 40
5.0
 40
5.0
 40
6.0
 40
6.0
 40
6.0
 40
7.0
 40
7.0
 40
7.0
 40
8.0
 40
8.0
 40
8.0
 40
9.0
 40
9.0
 40
9.0
 40
10.0
 40
10.0
 40
10.0
 40
11.0
 40
11.0
 40
11.0
 40
12.0
 40
12.0
 40
12.0
 40
13.0
 40
13.0
 40
13.0
 40
13.0
 10
103.1372015801185
 20
-129.5187092775162
 30
0.0
 10
103.29567597244
 20
-129.736439312184
 30
0.0
 10
103.3700900349214
 20
-129.8294568902857
 30
0.0
 10
103.5137505166563
 20
-129.8783772461763
 30
0.0
 10
103.5137505166563
 20
-129.8783772461763
 30
0.0
 10
103.5137505166563
 20
-129.0997856665098
 30
0.0
 10
103.5137505166563
 20
-129.0997856665098
 30
0.0
 10
103.5137505166563
 20
-129.0997856665098
 30
0.0
 10
103.7187336980287
 20
-129.0997856665098
 30
0.0
 10
103.7187336980287
 20
-129.0997856665098
 30
0.0
 10
103.7187336980287
 20
-129.0997856665098
 30
0.0
 10
103.7187336980287
 20
-130.1278021593083
 30
0.0
 10
103.7187336980287
 20
-130.1278021593083
 30
0.0
 10
103.3611327866597
 20
-130.096107280844
 30
0.0
 10
103.2832736286931
 20
-130.0306504666243
 30
0.0
 10
102.9849283596704
 20
-129.6454887913734
 30
0.0
 10
102.785801840623
 20
-129.3895181968193
 30
0.0
 10
102.7182779691121
 20
-129.3240613825996
 30
0.0
 10
102.5808186592506
 20
-129.3240613825996
 30
0.0
 10
102.462307374558
 20
-129.3240613825996
 30
0.0
 10
102.33104923657
 20
-129.3960638782413
 30
0.0
 10
102.33104923657
 20
-129.592778830449
 30
0.0
 10
102.33104923657
 20
-129.8528835395854
 30
0.0
 10
102.5618706340818
 20
-129.86115176875
 30
0.0
 10
102.6783148614832
 20
-129.8656303928808
 30
0.0
 10
102.6783148614832
 20
-129.8656303928808
 30
0.0
 10
102.6783148614832
 20
-130.0899061089706
 30
0.0
 10
102.6783148614832
 20
-130.0899061089706
 30
0.0
 10
102.5511908380775
 20
-130.0812933702575
 30
0.0
 10
102.4392252348069
 20
-130.0706135742532
 30
0.0
 10
102.3207139501143
 20
-129.9903428494469
 30
0.0
 10
102.1598279909531
 20
-129.8804443034674
 30
0.0
 10
102.1257215456491
 20
-129.6940646377154
 30
0.0
 10
102.1257215456491
 20
-129.5779649198625
 30
0.0
 10
102.1257215456491
 20
-129.3006347332999
 30
0.0
 10
102.31003415411
 20
-129.0932399850878
 30
0.0
 10
102.5828857165418
 20
-129.0932399850878
 30
0.0
 10
102.8112955472138
 20
-129.0932399850878
 30
0.0
 10
102.9108588067376
 20
-129.2096842124893
 30
0.0
 10
103.1372015801185
 20
-129.5187092775162
 30
0.0
  0
HATCH
  5
F3
330
EE
100
AcDbEntity
  8
_U+30EC_U+30A4_U+30E4_U+30FC 1
 62
   179
420
  2234388
100
AcDbHatch
 10
0.0
 20
0.0
 30
0.0
210
0.0
220
0.0
230
1.0
  2
SOLID
 70
     1
 71
     0
 91
        1
 92
        1
 93
        1
 72
     4
 94
        3
 73
     0
 74
     1
 95
       44
 96
       40
 40
0.0
 40
0.0
 40
0.0
 40
0.0
 40
1.0
 40
1.0
 40
1.0
 40
2.0
 40
2.0
 40
2.0
 40
3.0
 40
3.0
 40
3.0
 40
4.0
 40
4.0
 40
4.0
 40
5.0
 40
5.0
 40
5.0
 40
6.0
 40
6.0
 40
6.0
 40
7.0
 40
7.0
 40
7.0
 40
8.0
 40
8.0
 40
8.0
 40
9.0
 40
9.0
 40
9.0
 40
10.0
 40
10.0
 40
10.0
 40
11.0
 40
11.0
 40
11.0
 40
12.0
 40
12.0
 40
12.0
 40
13.0
 40
13.0
 40
13.0
 40
13.0
 10
103.1372015801185
 20
-129.5187092775162
 10
103.29567597244
 20
-129.736439312184
 10
103.3700900349214
 20
-129.8294568902857
 10
103.5137505166563
 20
-129.8783772461763
 10
103.5137505166563
 20
-129.8783772461763
 10
103.5137505166563
 20
-129.0997856665098
 10
103.5137505166563
 20
-129.0997856665098
 10
103.5137505166563
 20
-129.0997856665098
 10
103.7187336980287
 20
-129.0997856665098
 10
103.7187336980287
 20
-129.0997856665098
 10
103.7187336980287
 20
-129.0997856665098
 10
103.7187336980287
 20
-130.1278021593083
 10
103.7187336980287
 20
-130.1278021593083
 10
103.3611327866597
 20
-130.096107280844
 10
103.2832736286931
 20
-130.0306504666243
 10
102.9849283596704
 20
-129.6454887913734
 10
102.785801840623
 20
-129.3895181968193
 10
102.7182779691121
 20
-129.3240613825996
 10
102.5808186592506
 20
-129.3240613825996
 10
102.462307374558
 20
-129.3240613825996
 10
102.33104923657
 20
-129.3960638782413
 10
102.33104923657
 20
-129.592778830449
 10
102.33104923657
 20
-129.8528835395854
 10
102.5618706340818
 20
-129.86115176875
 10
102.6783148614832
 20
-129.8656303928808
 10
102.6783148614832
 20
-129.8656303928808
 10
102.6783148614832
 20
-130.0899061089706
 10
102.6783148614832
 20
-130.0899061089706
 10
102.5511908380775
 20
-130.0812933702575
 10
102.4392252348069
 20
-130.0706135742532
 10
102.3207139501143
 20
-129.9903428494469
 10
102.1598279909531
 20
-129.8804443034674
 10
102.1257215456491
 20
-129.6940646377154
 10
102.1257215456491
 20
-129.5779649198625
 10
102.1257215456491
 20
-129.3006347332999
 10
102.31003415411
 20
-129.0932399850878
 10
102.5828857165418
 20
-129.0932399850878
 10
102.8112955472138
 20
-129.0932399850878
 10
102.9108588067376
 20
-129.2096842124893
 10
103.1372015801185
 20
-129.5187092775162
 97
        0
 97
        0
 75
     2
 76
     1
 98
        0
  0
SPLINE
  5
F4
330
EE
100
AcDbEntity
  8
_U+30EC_U+30A4_U+30E4_U+30FC 1
370
     0
100
AcDbSpline
210
0.0
220
0.0
230
1.0
 70
    11
 71
     3
 72
    62
 73
    58
 74
     0
 42
0.0000000001
 43
0.0000000001
 12
1.0
 22
0.0
 32
0.0
 13
1.0
 23
0.0
 33
0.0
 40
0.0
 40
0.0
 40
0.0
 40
0.0
 40
1.0
 40
1.0
 40
1.0
 40
2.0
 40
2.0
 40
2.0
 40
3.0
 40
3.0
 40
3.0
 40
4.0
 40
4.0
 40
4.0
 40
5.0
 40
5.0
 40
5.0
 40
6.0
 40
6.0
 40
6.0
 40
7.0
 40
7.0
 40
7.0
 40
8.0
 40
8.0
 40
8.0
 40
9.0
 40
9.0
 40
9.0
 40
10.0
 40
10.0
 40
10.0
 40
11.0
 40
11.0
 40
11.0
 40
12.0
 40
12.0
 40
12.0
 40
13.0
 40
13.0
 40
13.0
 40
14.0
 40
14.0
 40
14.0
 40
15.0
 40
15.0
 40
15.0
 40
16.0
 40
16.0
 40
16.0
 40
17.0
 40
17.0
 40
17.0
 40
18.0
 40
18.0
 40
18.0
 40
19.0
 40
19.0
 40
19.0
 40
19.0
 10
103.7697211112104
 20
-128.4431504670212
 30
0.0
 10
103.7697211112104
 20
-128.5385796119626
 30
0.0
 10
103.7483615192018
 20
-128.7563096466304
 30
0.0
 10
103.5623263629983
 20
-128.881366612745
 30
0.0
 10
103.4500162501792
 20
-128.9550916561293
 30
0.0
 10
103.350797500204
 20
-128.9595702802601
 30
0.0
 10
103.2660481512668
 20
-128.9637043948424
 30
0.0
 10
103.2660481512668
 20
-128.9637043948424
 30
0.0
 10
103.2660481512668
 20
-128.7435627933349
 30
0.0
 10
103.2660481512668
 20
-128.7435627933349
 30
0.0
 10
103.3404622137482
 20
-128.7414957360438
 30
0.0
 10
103.5750732162937
 20
-128.7311604495881
 30
0.0
 10
103.5750732162937
 20
-128.447629091152
 30
0.0
 10
103.5750732162937
 20
-128.3101697812905
 30
0.0
 10
103.5051377779432
 20
-128.1575520512939
 30
0.0
 10
103.2767279472711
 20
-128.1575520512939
 30
0.0
 10
103.1606282294182
 20
-128.1575520512939
 30
0.0
 10
103.1117078735276
 20
-128.1957926111802
 30
0.0
 10
103.0800129950633
 20
-128.2274874896445
 30
0.0
 10
103.0059434421305
 20
-128.3015570425774
 30
0.0
 10
102.993196588835
 20
-128.4180012699788
 30
0.0
 10
102.993196588835
 20
-128.4727782881943
 30
0.0
 10
102.993196588835
 20
-128.4920708229117
 30
0.0
 10
102.9952636461262
 20
-128.5278998159583
 30
0.0
 10
102.9993977607085
 20
-128.5554605798403
 30
0.0
 10
102.9993977607085
 20
-128.5554605798403
 30
0.0
 10
102.8050943753404
 20
-128.5554605798403
 30
0.0
 10
102.8050943753404
 20
-128.5554605798403
 30
0.0
 10
102.8112955472138
 20
-128.517220019954
 30
0.0
 10
102.813362604505
 20
-128.475189855034
 30
0.0
 10
102.813362604505
 20
-128.468644173612
 30
0.0
 10
102.813362604505
 20
-128.4031873593923
 30
0.0
 10
102.792347522045
 20
-128.2044053498933
 30
0.0
 10
102.5553249526598
 20
-128.2044053498933
 30
0.0
 10
102.3779025351694
 20
-128.2044053498933
 30
0.0
 10
102.3227810074054
 20
-128.3353189783329
 30
0.0
 10
102.3227810074054
 20
-128.4455620338608
 30
0.0
 10
102.3227810074054
 20
-128.7098008575795
 30
0.0
 10
102.5553249526598
 20
-128.7184135962926
 30
0.0
 10
102.6273274483015
 20
-128.7225477108749
 30
0.0
 10
102.6273274483015
 20
-128.7225477108749
 30
0.0
 10
102.6273274483015
 20
-128.9258083445047
 30
0.0
 10
102.6273274483015
 20
-128.9258083445047
 30
0.0
 10
102.5026149917355
 20
-128.9171956057915
 30
0.0
 10
102.1257215456491
 20
-128.8896348419096
 30
0.0
 10
102.1257215456491
 20
-128.4328151805654
 30
0.0
 10
102.1257215456491
 20
-128.2085394644756
 30
0.0
 10
102.2528455690549
 20
-127.9673827805082
 30
0.0
 10
102.5487792712378
 20
-127.9673827805082
 30
0.0
 10
102.7351589369898
 20
-127.9673827805082
 30
0.0
 10
102.8174967190873
 20
-128.0624674159011
 30
0.0
 10
102.8788194187247
 20
-128.1620306754248
 30
0.0
 10
102.9063801826067
 20
-128.1007079757873
 30
0.0
 10
102.9869954169616
 20
-127.9188069341661
 30
0.0
 10
103.2639810939757
 20
-127.9188069341661
 30
0.0
 10
103.6026339801757
 20
-127.9188069341661
 30
0.0
 10
103.7697211112104
 20
-128.1661647900071
 30
0.0
 10
103.7697211112104
 20
-128.4431504670212
 30
0.0
  0
HATCH
  5
F5
330
EE
100
AcDbEntity
  8
_U+30EC_U+30A4_U+30E4_U+30FC 1
 62
   179
420
  2234388
100
AcDbHatch
 10
0.0
 20
0.0
 30
0.0
210
0.0
220
0.0
230
1.0
  2
SOLID
 70
     1
 71
     0
 91
        1
 92
        1
 93
        1
 72
     4
 94
        3
 73
     0
 74
     1
 95
       62
 96
       58
 40
0.0
 40
0.0
 40
0.0
 40
0.0
 40
1.0
 40
1.0
 40
1.0
 40
2.0
 40
2.0
 40
2.0
 40
3.0
 40
3.0
 40
3.0
 40
4.0
 40
4.0
 40
4.0
 40
5.0
 40
5.0
 40
5.0
 40
6.0
 40
6.0
 40
6.0
 40
7.0
 40
7.0
 40
7.0
 40
8.0
 40
8.0
 40
8.0
 40
9.0
 40
9.0
 40
9.0
 40
10.0
 40
10.0
 40
10.0
 40
11.0
 40
11.0
 40
11.0
 40
12.0
 40
12.0
 40
12.0
 40
13.0
 40
13.0
 40
13.0
 40
14.0
 40
14.0
 40
14.0
 40
15.0
 40
15.0
 40
15.0
 40
16.0
 40
16.0
 40
16.0
 40
17.0
 40
17.0
 40
17.0
 40
18.0
 40
18.0
 40
18.0
 40
19.0
 40
19.0
 40
19.0
 40
19.0
 10
103.7697211112104
 20
-128.4431504670212
 10
103.7697211112104
 20
-128.5385796119626
 10
103.7483615192018
 20
-128.7563096466304
 10
103.5623263629983
 20
-128.881366612745
 10
103.4500162501792
 20
-128.9550916561293
 10
103.350797500204
 20
-128.9595702802601
 10
103.2660481512668
 20
-128.9637043948424
 10
103.2660481512668
 20
-128.9637043948424
 10
103.2660481512668
 20
-128.7435627933349
 10
103.2660481512668
 20
-128.7435627933349
 10
103.3404622137482
 20
-128.7414957360438
 10
103.5750732162937
 20
-128.7311604495881
 10
103.5750732162937
 20
-128.447629091152
 10
103.5750732162937
 20
-128.3101697812905
 10
103.5051377779432
 20
-128.1575520512939
 10
103.2767279472711
 20
-128.1575520512939
 10
103.1606282294182
 20
-128.1575520512939
 10
103.1117078735276
 20
-128.1957926111802
 10
103.0800129950633
 20
-128.2274874896445
 10
103.0059434421305
 20
-128.3015570425774
 10
102.993196588835
 20
-128.4180012699788
 10
102.993196588835
 20
-128.4727782881943
 10
102.993196588835
 20
-128.4920708229117
 10
102.9952636461262
 20
-128.5278998159583
 10
102.9993977607085
 20
-128.5554605798403
 10
102.9993977607085
 20
-128.5554605798403
 10
102.8050943753404
 20
-128.5554605798403
 10
102.8050943753404
 20
-128.5554605798403
 10
102.8112955472138
 20
-128.517220019954
 10
102.813362604505
 20
-128.475189855034
 10
102.813362604505
 20
-128.468644173612
 10
102.813362604505
 20
-128.4031873593923
 10
102.792347522045
 20
-128.2044053498933
 10
102.5553249526598
 20
-128.2044053498933
 10
102.3779025351694
 20
-128.2044053498933
 10
102.3227810074054
 20
-128.3353189783329
 10
102.3227810074054
 20
-128.4455620338608
 10
102.3227810074054
 20
-128.7098008575795
 10
102.5553249526598
 20
-128.7184135962926
 10
102.6273274483015
 20
-128.7225477108749
 10
102.6273274483015
 20
-128.7225477108749
 10
102.6273274483015
 20
-128.9258083445047
 10
102.6273274483015
 20
-128.9258083445047
 10
102.5026149917355
 20
-128.9171956057915
 10
102.1257215456491
 20
-128.8896348419096
 10
102.1257215456491
 20
-128.4328151805654
 10
102.1257215456491
 20
-128.2085394644756
 10
102.2528455690549
 20
-127.9673827805082
 10
102.5487792712378
 20
-127.9673827805082
 10
102.7351589369898
 20
-127.9673827805082
 10
102.8174967190873
 20
-128.0624674159011
 10
102.8788194187247
 20
-128.1620306754248
 10
102.9063801826067
 20
-128.1007079757873
 10
102.9869954169616
 20
-127.9188069341661
 10
103.2639810939757
 20
-127.9188069341661
 10
103.6026339801757
 20
-127.9188069341661
 10
103.7697211112104
 20
-128.1661647900071
 10
103.7697211112104
 20
-128.4431504670212
 97
        0
 97
        0
 75
     2
 76
     1
 98
        0
  0
ENDBLK
  5
F1
330
EE
100
AcDbEntity
  8
0
100
AcDbBlockEnd
  0
ENDSEC
  0
SECTION
  2
ENTITIES
  0
POLYLINE
  5
41
330
1F
100
AcDbEntity
  8
_U+30EC_U+30A4_U+30E4_U+30FC 1
 62
   253
420
 11711154
370
     9
100
AcDb2dPolyline
 66
     1
 10
0.0
 20
0.0
 30
0.0
  0
VERTEX
  5
42
330
41
100
AcDbEntity
  8
_U+30EC_U+30A4_U+30E4_U+30FC 1
 62
   253
420
 11711154
370
     9
100
AcDbVertex
100
AcDb2dVertex
 10
85.60734642708574
 20
-127.9508419124569
 30
0.0
  0
VERTEX
  5
43
330
41
100
AcDbEntity
  8
_U+30EC_U+30A4_U+30E4_U+30FC 1
 62
   253
420
 11711154
370
     9
100
AcDbVertex
100
AcDb2dVertex
 10
85.60734642708574
 20
-119.8369530255964
 30
0.0
  0
VERTEX
  5
44
330
41
100
AcDbEntity
  8
_U+30EC_U+30A4_U+30E4_U+30FC 1
 62
   253
420
 11711154
370
     9
100
AcDbVertex
100
AcDb2dVertex
 10
86.31290196464109
 20
-119.8369530255964
 30
0.0
  0
VERTEX
  5
45
330
41
100
AcDbEntity
  8
_U+30EC_U+30A4_U+30E4_U+30FC 1
 62
   253
420
 11711154
370
     9
100
AcDbVertex
100
AcDb2dVertex
 10
86.31290196464109
 20
-127.3631141348259
 30
0.0
  0
VERTEX
  5
46
330
41
100
AcDbEntity
  8
_U+30EC_U+30A4_U+30E4_U+30FC 1
 62
   253
420
 11711154
370
     9
100
AcDbVertex
100
AcDb2dVertex
 10
91.60439442154309
 20
-127.3631141348259
 30
0.0
  0
VERTEX
  5
47
330
41
100
AcDbEntity
  8
_U+30EC_U+30A4_U+30E4_U+30FC 1
 62
   253
420
 11711154
370
     9
100
AcDbVertex
100
AcDb2dVertex
 10
91.60439442154309
 20
-134.6536196885586
 30
0.0
  0
VERTEX
  5
48
330
41
100
AcDbEntity
  8
_U+30EC_U+30A4_U+30E4_U+30FC 1
 62
   253
420
 11711154
370
     9
100
AcDbVertex
100
AcDb2dVertex
 10
97.71944442001458
 20
-134.6536196885586
 30
0.0
  0
VERTEX
  5
49
330
41
100
AcDbEntity
  8
_U+30EC_U+30A4_U+30E4_U+30FC 1
 62
   253
420
 11711154
370
     9
100
AcDbVertex
100
AcDb2dVertex
 10
97.71944442001458
 20
-122.7770030248614
 30
0.0
  0
VERTEX
  5
4A
330
41
100
AcDbEntity
  8
_U+30EC_U+30A4_U+30E4_U+30FC 1
 62
   253
420
 11711154
370
     9
100
AcDbVertex
100
AcDb2dVertex
 10
98.19004997545275
 20
-122.7770030248614
 30
0.0
  0
VERTEX
  5
4B
330
41
100
AcDbEntity
  8
_U+30EC_U+30A4_U+30E4_U+30FC 1
 62
   253
420
 11711154
370
     9
100
AcDbVertex
100
AcDb2dVertex
 10
98.19004997545275
 20
-135.2420530217454
 30
0.0
  0
VERTEX
  5
4C
330
41
100
AcDbEntity
  8
_U+30EC_U+30A4_U+30E4_U+30FC 1
 62
   253
420
 11711154
370
     9
100
AcDbVertex
100
AcDb2dVertex
 10
85.72499997856876
 20
-135.2420530217454
 30
0.0
  0
VERTEX
  5
4D
330
41
100
AcDbEntity
  8
_U+30EC_U+30A4_U+30E4_U+30FC 1
 62
   253
420
 11711154
370
     9
100
AcDbVertex
100
AcDb2dVertex
 10
85.72499997856876
 20
-133.5952863554899
 30
0.0
  0
VERTEX
  5
4E
330
41
100
AcDbEntity
  8
_U+30EC_U+30A4_U+30E4_U+30FC 1
 62
   253
420
 11711154
370
     9
100
AcDbVertex
100
AcDb2dVertex
 10
86.07777775625834
 20
-133.5952863554899
 30
0.0
  0
VERTEX
  5
4F
330
41
100
AcDbEntity
  8
_U+30EC_U+30A4_U+30E4_U+30FC 1
 62
   253
420
 11711154
370
     9
100
AcDbVertex
100
AcDb2dVertex
 10
86.07777775625834
 20
-134.6536196885586
 30
0.0
  0
VERTEX
  5
50
330
41
100
AcDbEntity
  8
_U+30EC_U+30A4_U+30E4_U+30FC 1
 62
   253
420
 11711154
370
     9
100
AcDbVertex
100
AcDb2dVertex
 10
91.0166666439125
 20
-134.6536196885586
 30
0.0
  0
VERTEX
  5
51
330
41
100
AcDbEntity
  8
_U+30EC_U+30A4_U+30E4_U+30FC 1
 62
   253
420
 11711154
370
     9
100
AcDbVertex
100
AcDb2dVertex
 10
91.0166666439125
 20
-128.1861446901756
 30
0.0
  0
VERTEX
  5
52
330
41
100
AcDbEntity
  8
_U+30EC_U+30A4_U+30E4_U+30FC 1
 62
   253
420
 11711154
370
     9
100
AcDbVertex
100
AcDb2dVertex
 10
85.60734642708574
 20
-127.9508419124569
 30
0.0
  0
SEQEND
  5
54
330
41
100
AcDbEntity
  8
_U+30EC_U+30A4_U+30E4_U+30FC 1
 62
   253
420
 11711154
370
     9
  0
HATCH
  5
53
330
1F
100
AcDbEntity
  8
_U+30EC_U+30A4_U+30E4_U+30FC 1
 62
   253
420
 11711154
100
AcDbHatch
 10
0.0
 20
0.0
 30
0.0
210
0.0
220
0.0
230
1.0
  2
SOLID
 70
     1
 71
     0
 91
        1
 92
        1
 93
       16
 72
     1
 10
85.60734642708574
 20
-127.9508419124569
 11
85.60734642708574
 21
-119.8369530255964
 72
     1
 10
85.60734642708574
 20
-119.8369530255964
 11
86.31290196464109
 21
-119.8369530255964
 72
     1
 10
86.31290196464109
 20
-119.8369530255964
 11
86.31290196464109
 21
-127.3631141348259
 72
     1
 10
86.31290196464109
 20
-127.3631141348259
 11
91.60439442154309
 21
-127.3631141348259
 72
     1
 10
91.60439442154309
 20
-127.3631141348259
 11
91.60439442154309
 21
-134.6536196885586
 72
     1
 10
91.60439442154309
 20
-134.6536196885586
 11
97.71944442001458
 21
-134.6536196885586
 72
     1
 10
97.71944442001458
 20
-134.6536196885586
 11
97.71944442001458
 21
-122.7770030248614
 72
     1
 10
97.71944442001458
 20
-122.7770030248614
 11
98.19004997545275
 21
-122.7770030248614
 72
     1
 10
98.19004997545275
 20
-122.7770030248614
 11
98.19004997545275
 21
-135.2420530217454
 72
     1
 10
98.19004997545275
 20
-135.2420530217454
 11
85.72499997856876
 21
-135.2420530217454
 72
     1
 10
85.72499997856876
 20
-135.2420530217454
 11
85.72499997856876
 21
-133.5952863554899
 72
     1
 10
85.72499997856876
 20
-133.5952863554899
 11
86.07777775625834
 21
-133.5952863554899
 72
     1
 10
86.07777775625834
 20
-133.5952863554899
 11
86.07777775625834
 21
-134.6536196885586
 72
     1
 10
86.07777775625834
 20
-134.6536196885586
 11
91.0166666439125
 21
-134.6536196885586
 72
     1
 10
91.0166666439125
 20
-134.6536196885586
 11
91.0166666439125
 21
-128.1861446901756
 72
     1
 10
91.0166666439125
 20
-128.1861446901756
 11
85.60734642708574
 21
-127.9508419124569
 97
        0
 75
     2
 76
     1
 98
        0
  0
POLYLINE
  5
55
330
1F
100
AcDbEntity
  8
_U+30EC_U+30A4_U+30E4_U+30FC 1
 62
   179
420
  2234388
370
    25
100
AcDb2dPolyline
 66
     1
 10
0.0
 20
0.0
 30
0.0
  0
VERTEX
  5
56
330
55
100
AcDbEntity
  8
_U+30EC_U+30A4_U+30E4_U+30FC 1
 62
   179
420
  2234388
370
    25
100
AcDbVertex
100
AcDb2dVertex
 10
85.54483420645835
 20
-128.0986558013088
 30
0.0
  0
VERTEX
  5
57
330
55
100
AcDbEntity
  8
_U+30EC_U+30A4_U+30E4_U+30FC 1
 62
   179
420
  2234388
370
    25
100
AcDbVertex
100
AcDb2dVertex
 10
85.54483420645835
 20
-119.6905502478553
 30
0.0
  0
VERTEX
  5
58
330
55
100
AcDbEntity
  8
_U+30EC_U+30A4_U+30E4_U+30FC 1
 62
   179
420
  2234388
370
    25
100
AcDbVertex
100
AcDb2dVertex
 10
86.30930363139956
 20
-119.6905502478553
 30
0.0
  0
VERTEX
  5
59
330
55
100
AcDbEntity
  8
_U+30EC_U+30A4_U+30E4_U+30FC 1
 62
   179
420
  2234388
370
    25
100
AcDbVertex
100
AcDb2dVertex
 10
86.30930363139956
 20
-127.3931002459296
 30
0.0
  0
VERTEX
  5
5A
330
55
100
AcDbEntity
  8
_U+30EC_U+30A4_U+30E4_U+30FC 1
 62
   179
420
  2234388
370
    25
100
AcDbVertex
100
AcDb2dVertex
 10
91.71844516006752
 20
-127.3931002459296
 30
0.0
  0
VERTEX
  5
5B
330
55
100
AcDbEntity
  8
_U+30EC_U+30A4_U+30E4_U+30FC 1
 62
   179
420
  2234388
370
    25
100
AcDbVertex
100
AcDb2dVertex
 10
91.71844516006752
 20
-134.5654252441362
 30
0.0
  0
VERTEX
  5
5C
330
55
100
AcDbEntity
  8
_U+30EC_U+30A4_U+30E4_U+30FC 1
 62
   179
420
  2234388
370
    25
100
AcDbVertex
100
AcDb2dVertex
 10
97.77458111667373
 20
-134.5654252441362
 30
0.0
  0
VERTEX
  5
5D
330
55
100
AcDbEntity
  8
_U+30EC_U+30A4_U+30E4_U+30FC 1
 62
   179
420
  2234388
370
    25
100
AcDbVertex
100
AcDb2dVertex
 10
97.77458111667373
 20
-122.5713335804681
 30
0.0
  0
VERTEX
  5
5E
330
55
100
AcDbEntity
  8
_U+30EC_U+30A4_U+30E4_U+30FC 1
 62
   179
420
  2234388
370
    25
100
AcDbVertex
100
AcDb2dVertex
 10
98.30374776984023
 20
-122.5713335804681
 30
0.0
  0
VERTEX
  5
5F
330
55
100
AcDbEntity
  8
_U+30EC_U+30A4_U+30E4_U+30FC 1
 62
   179
420
  2234388
370
    25
100
AcDbVertex
100
AcDb2dVertex
 10
98.30374776984023
 20
-135.153858577323
 30
0.0
  0
VERTEX
  5
60
330
55
100
AcDbEntity
  8
_U+30EC_U+30A4_U+30E4_U+30FC 1
 62
   179
420
  2234388
370
    25
100
AcDbVertex
100
AcDb2dVertex
 10
85.6623092034613
 20
-135.153858577323
 30
0.0
  0
VERTEX
  5
61
330
55
100
AcDbEntity
  8
_U+30EC_U+30A4_U+30E4_U+30FC 1
 62
   179
420
  2234388
370
    25
100
AcDbVertex
100
AcDb2dVertex
 10
85.6623092034613
 20
-133.4485307999713
 30
0.0
  0
VERTEX
  5
62
330
55
100
AcDbEntity
  8
_U+30EC_U+30A4_U+30E4_U+30FC 1
 62
   179
420
  2234388
370
    25
100
AcDbVertex
100
AcDb2dVertex
 10
86.19147585662782
 20
-133.4485307999713
 30
0.0
  0
VERTEX
  5
63
330
55
100
AcDbEntity
  8
_U+30EC_U+30A4_U+30E4_U+30FC 1
 62
   179
420
  2234388
370
    25
100
AcDbVertex
100
AcDb2dVertex
 10
86.19147585662782
 20
-134.5654252441362
 30
0.0
  0
VERTEX
  5
64
330
55
100
AcDbEntity
  8
_U+30EC_U+30A4_U+30E4_U+30FC 1
 62
   179
420
  2234388
370
    25
100
AcDbVertex
100
AcDb2dVertex
 10
91.07180350989806
 20
-134.5654252441362
 30
0.0
  0
VERTEX
  5
65
330
55
100
AcDbEntity
  8
_U+30EC_U+30A4_U+30E4_U+30FC 1
 62
   179
420
  2234388
370
    25
100
AcDbVertex
100
AcDb2dVertex
 10
91.07180350989806
 20
-128.2157780235015
 30
0.0
  0
VERTEX
  5
66
330
55
100
AcDbEntity
  8
_U+30EC_U+30A4_U+30E4_U+30FC 1
 62
   179
420
  2234388
370
    25
100
AcDbVertex
100
AcDb2dVertex
 10
85.54483420645835
 20
-128.0986558013088
 30
0.0
  0
SEQEND
  5
67
330
55
100
AcDbEntity
  8
_U+30EC_U+30A4_U+30E4_U+30FC 1
 62
   179
420
  2234388
370
    25
  0
POLYLINE
  5
68
330
1F
100
AcDbEntity
  8
_U+30EC_U+30A4_U+30E4_U+30FC 1
 62
   179
420
  2234388
370
     9
100
AcDb2dPolyline
 66
     1
 10
0.0
 20
0.0
 30
0.0
  0
VERTEX
  5
69
330
68
100
AcDbEntity
  8
_U+30EC_U+30A4_U+30E4_U+30FC 1
 62
   179
420
  2234388
370
     9
100
AcDbVertex
100
AcDb2dVertex
 10
86.30930363139956
 20
-119.6905502478553
 30
0.0
  0
VERTEX
  5
6A
330
68
100
AcDbEntity
  8
_U+30EC_U+30A4_U+30E4_U+30FC 1
 62
   179
420
  2234388
370
     9
100
AcDbVertex
100
AcDb2dVertex
 10
86.30930363139956
 20
-117.2800196929022
 30
0.0
  0
VERTEX
  5
6B
330
68
100
AcDbEntity
  8
_U+30EC_U+30A4_U+30E4_U+30FC 1
 62
   179
420
  2234388
370
     9
100
AcDbVertex
100
AcDb2dVertex
 10
87.24980916296082
 20
-117.2800196929022
 30
0.0
  0
SEQEND
  5
6C
330
68
100
AcDbEntity
  8
_U+30EC_U+30A4_U+30E4_U+30FC 1
 62
   179
420
  2234388
370
     9
  0
POLYLINE
  5
6D
330
1F
100
AcDbEntity
  8
_U+30EC_U+30A4_U+30E4_U+30FC 1
 62
   179
420
  2234388
370
     9
100
AcDb2dPolyline
 66
     1
 10
0.0
 20
0.0
 30
0.0
  0
VERTEX
  5
6E
330
6D
100
AcDbEntity
  8
_U+30EC_U+30A4_U+30E4_U+30FC 1
 62
   179
420
  2234388
370
     9
100
AcDbVertex
100
AcDb2dVertex
 10
90.66011185373452
 20
-117.2211058040282
 30
0.0
  0
VERTEX
  5
6F
330
6D
100
AcDbEntity
  8
_U+30EC_U+30A4_U+30E4_U+30FC 1
 62
   179
420
  2234388
370
     9
100
AcDbVertex
100
AcDb2dVertex
 10
91.71844516006752
 20
-117.2211058040282
 30
0.0
  0
VERTEX
  5
70
330
6D
100
AcDbEntity
  8
_U+30EC_U+30A4_U+30E4_U+30FC 1
 62
   179
420
  2234388
370
     9
100
AcDbVertex
100
AcDb2dVertex
 10
91.71844516006752
 20
-127.3338335792775
 30
0.0
  0
SEQEND
  5
71
330
6D
100
AcDbEntity
  8
_U+30EC_U+30A4_U+30E4_U+30FC 1
 62
   179
420
  2234388
370
     9
  0
POLYLINE
  5
72
330
1F
100
AcDbEntity
  8
_U+30EC_U+30A4_U+30E4_U+30FC 1
 62
   179
420
  2234388
370
     9
100
AcDb2dPolyline
 66
     1
 10
0.0
 20
0.0
 30
0.0
  0
VERTEX
  5
73
330
72
100
AcDbEntity
  8
_U+30EC_U+30A4_U+30E4_U+30FC 1
 62
   179
420
  2234388
370
     9
100
AcDbVertex
100
AcDb2dVertex
 10
98.71508664823499
 20
-122.5127724693719
 30
0.0
  0
VERTEX
  5
74
330
72
100
AcDbEntity
  8
_U+30EC_U+30A4_U+30E4_U+30FC 1
 62
   179
420
  2234388
370
     9
100
AcDbVertex
100
AcDb2dVertex
 10
102.7134698795611
 20
-122.5127724693719
 30
0.0
  0
VERTEX
  5
75
330
72
100
AcDbEntity
  8
_U+30EC_U+30A4_U+30E4_U+30FC 1
 62
   179
420
  2234388
370
     9
100
AcDbVertex
100
AcDb2dVertex
 10
102.7134698795611
 20
-126.8046669127431
 30
0.0
  0
SEQEND
  5
76
330
72
100
AcDbEntity
  8
_U+30EC_U+30A4_U+30E4_U+30FC 1
 62
   179
420
  2234388
370
     9
  0
POLYLINE
  5
77
330
1F
100
AcDbEntity
  8
_U+30EC_U+30A4_U+30E4_U+30FC 1
 62
   179
420
  2234388
370
     9
100
AcDb2dPolyline
 66
     1
 10
0.0
 20
0.0
 30
0.0
  0
VERTEX
  5
78
330
77
100
AcDbEntity
  8
_U+30EC_U+30A4_U+30E4_U+30FC 1
 62
   179
420
  2234388
370
     9
100
AcDbVertex
100
AcDb2dVertex
 10
98.77400053562087
 20
-135.2124196884192
 30
0.0
  0
VERTEX
  5
79
330
77
100
AcDbEntity
  8
_U+30EC_U+30A4_U+30E4_U+30FC 1
 62
   179
420
  2234388
370
     9
100
AcDbVertex
100
AcDb2dVertex
 10
102.830944876564
 20
-135.2124196884192
 30
0.0
  0
VERTEX
  5
7A
330
77
100
AcDbEntity
  8
_U+30EC_U+30A4_U+30E4_U+30FC 1
 62
   179
420
  2234388
370
     9
100
AcDbVertex
100
AcDb2dVertex
 10
102.830944876564
 20
-130.9790863561442
 30
0.0
  0
SEQEND
  5
7B
330
77
100
AcDbEntity
  8
_U+30EC_U+30A4_U+30E4_U+30FC 1
 62
   179
420
  2234388
370
     9
  0
POLYLINE
  5
7C
330
1F
100
AcDbEntity
  8
_U+30EC_U+30A4_U+30E4_U+30FC 1
 62
   179
420
  2234388
370
     9
100
AcDb2dPolyline
 66
     1
 10
0.0
 20
0.0
 30
0.0
  0
VERTEX
  5
7D
330
7C
100
AcDbEntity
  8
_U+30EC_U+30A4_U+30E4_U+30FC 1
 62
   179
420
  2234388
370
     9
100
AcDbVertex
100
AcDb2dVertex
 10
94.1878895415112
 20
-139.7985307983838
 30
0.0
  0
VERTEX
  5
7E
330
7C
100
AcDbEntity
  8
_U+30EC_U+30A4_U+30E4_U+30FC 1
 62
   179
420
  2234388
370
     9
100
AcDbVertex
100
AcDb2dVertex
 10
98.30374776984023
 20
-139.7985307983838
 30
0.0
  0
VERTEX
  5
7F
330
7C
100
AcDbEntity
  8
_U+30EC_U+30A4_U+30E4_U+30FC 1
 62
   179
420
  2234388
370
     9
100
AcDbVertex
100
AcDb2dVertex
 10
98.30374776984023
 20
-135.9765363548946
 30
0.0
  0
SEQEND
  5
80
330
7C
100
AcDbEntity
  8
_U+30EC_U+30A4_U+30E4_U+30FC 1
 62
   179
420
  2234388
370
     9
  0
POLYLINE
  5
81
330
1F
100
AcDbEntity
  8
_U+30EC_U+30A4_U+30E4_U+30FC 1
 62
   179
420
  2234388
370
     9
100
AcDb2dPolyline
 66
     1
 10
0.0
 20
0.0
 30
0.0
  0
VERTEX
  5
82
330
81
100
AcDbEntity
  8
_U+30EC_U+30A4_U+30E4_U+30FC 1
 62
   179
420
  2234388
370
     9
100
AcDbVertex
100
AcDb2dVertex
 10
85.6623092034613
 20
-135.8001474660498
 30
0.0
  0
VERTEX
  5
83
330
81
100
AcDbEntity
  8
_U+30EC_U+30A4_U+30E4_U+30FC 1
 62
   179
420
  2234388
370
     9
100
AcDbVertex
100
AcDb2dVertex
 10
85.6623092034613
 20
-139.7399696872876
 30
0.0
  0
VERTEX
  5
84
330
81
100
AcDbEntity
  8
_U+30EC_U+30A4_U+30E4_U+30FC 1
 62
   179
420
  2234388
370
     9
100
AcDbVertex
100
AcDb2dVertex
 10
90.13094520056802
 20
-139.7399696872876
 30
0.0
  0
SEQEND
  5
85
330
81
100
AcDbEntity
  8
_U+30EC_U+30A4_U+30E4_U+30FC 1
 62
   179
420
  2234388
370
     9
  0
POLYLINE
  5
86
330
1F
100
AcDbEntity
  8
_U+30EC_U+30A4_U+30E4_U+30FC 1
 62
   179
420
  2234388
370
     9
100
AcDb2dPolyline
 66
     1
 10
0.0
 20
0.0
 30
0.0
  0
VERTEX
  5
87
330
86
100
AcDbEntity
  8
_U+30EC_U+30A4_U+30E4_U+30FC 1
 62
   179
420
  2234388
370
     9
100
AcDbVertex
100
AcDb2dVertex
 10
82.89900094062584
 20
-137.5640363544977
 30
0.0
  0
VERTEX
  5
88
330
86
100
AcDbEntity
  8
_U+30EC_U+30A4_U+30E4_U+30FC 1
 62
   179
420
  2234388
370
     9
100
AcDbVertex
100
AcDb2dVertex
 10
82.89900094062584
 20
-132.4487585779987
 30
0.0
  0
SEQEND
  5
89
330
86
100
AcDbEntity
  8
_U+30EC_U+30A4_U+30E4_U+30FC 1
 62
   179
420
  2234388
370
     9
  0
POLYLINE
  5
8A
330
1F
100
AcDbEntity
  8
_U+30EC_U+30A4_U+30E4_U+30FC 1
 62
   179
420
  2234388
370
     9
100
AcDb2dPolyline
 66
     1
 10
0.0
 20
0.0
 30
0.0
  0
VERTEX
  5
8B
330
8A
100
AcDbEntity
  8
_U+30EC_U+30A4_U+30E4_U+30FC 1
 62
   179
420
  2234388
370
     9
100
AcDbVertex
100
AcDb2dVertex
 10
82.89900094062584
 20
-133.5070919110675
 30
0.0
  0
VERTEX
  5
8C
330
8A
100
AcDbEntity
  8
_U+30EC_U+30A4_U+30E4_U+30FC 1
 62
   179
420
  2234388
370
     9
100
AcDbVertex
100
AcDb2dVertex
 10
85.07458144067772
 20
-133.5070919110675
 30
0.0
  0
SEQEND
  5
8D
330
8A
100
AcDbEntity
  8
_U+30EC_U+30A4_U+30E4_U+30FC 1
 62
   179
420
  2234388
370
     9
  0
POLYLINE
  5
8E
330
1F
100
AcDbEntity
  8
_U+30EC_U+30A4_U+30E4_U+30FC 1
 62
   179
420
  2234388
370
     9
100
AcDb2dPolyline
 66
     1
 10
0.0
 20
0.0
 30
0.0
  0
VERTEX
  5
8F
330
8E
100
AcDbEntity
  8
_U+30EC_U+30A4_U+30E4_U+30FC 1
 62
   179
420
  2234388
370
     9
100
AcDbVertex
100
AcDb2dVertex
 10
84.95675366590598
 20
-135.0945919106706
 30
0.0
  0
VERTEX
  5
90
330
8E
100
AcDbEntity
  8
_U+30EC_U+30A4_U+30E4_U+30FC 1
 62
   179
420
  2234388
370
     9
100
AcDbVertex
100
AcDb2dVertex
 10
78.66566771529384
 20
-135.0945919106706
 30
0.0
  0
VERTEX
  5
91
330
8E
100
AcDbEntity
  8
_U+30EC_U+30A4_U+30E4_U+30FC 1
 62
   179
420
  2234388
370
     9
100
AcDbVertex
100
AcDb2dVertex
 10
78.66566771529384
 20
-129.6858030231344
 30
0.0
  0
SEQEND
  5
92
330
8E
100
AcDbEntity
  8
_U+30EC_U+30A4_U+30E4_U+30FC 1
 62
   179
420
  2234388
370
     9
  0
POLYLINE
  5
93
330
1F
100
AcDbEntity
  8
_U+30EC_U+30A4_U+30E4_U+30FC 1
 62
   179
420
  2234388
370
     9
100
AcDb2dPolyline
 66
     1
 10
0.0
 20
0.0
 30
0.0
  0
VERTEX
  5
94
330
93
100
AcDbEntity
  8
_U+30EC_U+30A4_U+30E4_U+30FC 1
 62
   179
420
  2234388
370
     9
100
AcDbVertex
100
AcDb2dVertex
 10
78.66566771529384
 20
-125.3935558019848
 30
0.0
  0
VERTEX
  5
95
330
93
100
AcDbEntity
  8
_U+30EC_U+30A4_U+30E4_U+30FC 1
 62
   179
420
  2234388
370
     9
100
AcDbVertex
100
AcDb2dVertex
 10
78.66566771529384
 20
-119.7494641367292
 30
0.0
  0
VERTEX
  5
96
330
93
100
AcDbEntity
  8
_U+30EC_U+30A4_U+30E4_U+30FC 1
 62
   179
420
  2234388
370
     9
100
AcDbVertex
100
AcDb2dVertex
 10
85.25097032506655
 20
-119.7494641367292
 30
0.0
  0
SEQEND
  5
97
330
93
100
AcDbEntity
  8
_U+30EC_U+30A4_U+30E4_U+30FC 1
 62
   179
420
  2234388
370
     9
  0
POLYLINE
  5
98
330
1F
100
AcDbEntity
  8
_U+30EC_U+30A4_U+30E4_U+30FC 1
 62
   179
420
  2234388
370
     9
100
AcDb2dPolyline
 66
     1
 10
0.0
 20
0.0
 30
0.0
  0
VERTEX
  5
99
330
98
100
AcDbEntity
  8
_U+30EC_U+30A4_U+30E4_U+30FC 1
 62
   179
420
  2234388
370
     9
100
AcDbVertex
100
AcDb2dVertex
 10
82.95791482801171
 20
-119.8083780256035
 30
0.0
  0
VERTEX
  5
9A
330
98
100
AcDbEntity
  8
_U+30EC_U+30A4_U+30E4_U+30FC 1
 62
   179
420
  2234388
370
     9
100
AcDbVertex
100
AcDb2dVertex
 10
82.95791482801171
 20
-122.0421669139338
 30
0.0
  0
SEQEND
  5
9B
330
98
100
AcDbEntity
  8
_U+30EC_U+30A4_U+30E4_U+30FC 1
 62
   179
420
  2234388
370
     9
  0
POLYLINE
  5
9C
330
1F
100
AcDbEntity
  8
_U+30EC_U+30A4_U+30E4_U+30FC 1
 62
   179
420
  2234388
370
     9
100
AcDb2dPolyline
 66
     1
 10
0.0
 20
0.0
 30
0.0
  0
VERTEX
  5
9D
330
9C
100
AcDbEntity
  8
_U+30EC_U+30A4_U+30E4_U+30FC 1
 62
   179
420
  2234388
370
     9
100
AcDbVertex
100
AcDb2dVertex
 10
83.01647593762881
 20
-125.6877724685782
 30
0.0
  0
VERTEX
  5
9E
330
9C
100
AcDbEntity
  8
_U+30EC_U+30A4_U+30E4_U+30FC 1
 62
   179
420
  2234388
370
     9
100
AcDbVertex
100
AcDb2dVertex
 10
83.01647593762881
 20
-129.215550245474
 30
0.0
  0
SEQEND
  5
9F
330
9C
100
AcDbEntity
  8
_U+30EC_U+30A4_U+30E4_U+30FC 1
 62
   179
420
  2234388
370
     9
  0
POLYLINE
  5
A0
330
1F
100
AcDbEntity
  8
_U+30EC_U+30A4_U+30E4_U+30FC 1
 62
   179
420
  2234388
370
     9
100
AcDb2dPolyline
 66
     1
 10
0.0
 20
0.0
 30
0.0
  0
VERTEX
  5
A1
330
A0
100
AcDbEntity
  8
_U+30EC_U+30A4_U+30E4_U+30FC 1
 62
   179
420
  2234388
370
     9
100
AcDbVertex
100
AcDb2dVertex
 10
83.07538982501468
 20
-127.9808280235605
 30
0.0
  0
VERTEX
  5
A2
330
A0
100
AcDbEntity
  8
_U+30EC_U+30A4_U+30E4_U+30FC 1
 62
   179
420
  2234388
370
     9
100
AcDbVertex
100
AcDb2dVertex
 10
85.1331425502948
 20
-127.9808280235605
 30
0.0
  0
SEQEND
  5
A3
330
A0
100
AcDbEntity
  8
_U+30EC_U+30A4_U+30E4_U+30FC 1
 62
   179
420
  2234388
370
     9
  0
SPLINE
  5
A4
330
1F
100
AcDbEntity
  8
_U+30EC_U+30A4_U+30E4_U+30FC 1
370
     0
100
AcDbSpline
210
0.0
220
0.0
230
1.0
 70
    11
 71
     3
 72
    17
 73
    13
 74
     0
 42
0.0000000001
 43
0.0000000001
 12
1.0
 22
0.0
 32
0.0
 13
1.0
 23
0.0
 33
0.0
 40
0.0
 40
0.0
 40
0.0
 40
0.0
 40
1.0
 40
1.0
 40
1.0
 40
2.0
 40
2.0
 40
2.0
 40
3.0
 40
3.0
 40
3.0
 40
4.0
 40
4.0
 40
4.0
 40
4.0
 10
85.97130725113367
 20
-139.7399696872876
 30
0.0
 10
85.97130725113367
 20
-139.8777646872527
 30
0.0
 10
85.85937086510052
 20
-139.9893835761136
 30
0.0
 10
85.72154059083908
 20
-139.9893835761136
 30
0.0
 10
85.58339281658574
 20
-139.9893835761136
 30
0.0
 10
85.47145643055259
 20
-139.8777646872527
 30
0.0
 10
85.47145643055259
 20
-139.7399696872876
 30
0.0
 10
85.47145643055259
 20
-139.6021746873218
 30
0.0
 10
85.58339281658574
 20
-139.4898502429054
 30
0.0
 10
85.72154059083908
 20
-139.4898502429054
 30
0.0
 10
85.85937086510052
 20
-139.4898502429054
 30
0.0
 10
85.97130725113367
 20
-139.6021746873218
 30
0.0
 10
85.97130725113367
 20
-139.7399696872876
 30
0.0
  0
HATCH
  5
A5
330
1F
100
AcDbEntity
  8
_U+30EC_U+30A4_U+30E4_U+30FC 1
 62
   179
420
  2234388
100
AcDbHatch
 10
0.0
 20
0.0
 30
0.0
210
0.0
220
0.0
230
1.0
  2
SOLID
 70
     1
 71
     0
 91
        1
 92
        1
 93
        1
 72
     4
 94
        3
 73
     0
 74
     1
 95
       17
 96
       13
 40
0.0
 40
0.0
 40
0.0
 40
0.0
 40
1.0
 40
1.0
 40
1.0
 40
2.0
 40
2.0
 40
2.0
 40
3.0
 40
3.0
 40
3.0
 40
4.0
 40
4.0
 40
4.0
 40
4.0
 10
85.97130725113367
 20
-139.7399696872876
 10
85.97130725113367
 20
-139.8777646872527
 10
85.85937086510052
 20
-139.9893835761136
 10
85.72154059083908
 20
-139.9893835761136
 10
85.58339281658574
 20
-139.9893835761136
 10
85.47145643055259
 20
-139.8777646872527
 10
85.47145643055259
 20
-139.7399696872876
 10
85.47145643055259
 20
-139.6021746873218
 10
85.58339281658574
 20
-139.4898502429054
 10
85.72154059083908
 20
-139.4898502429054
 10
85.85937086510052
 20
-139.4898502429054
 10
85.97130725113367
 20
-139.6021746873218
 10
85.97130725113367
 20
-139.7399696872876
 97
        0
 97
        0
 75
     2
 76
     1
 98
        0
  0
SPLINE
  5
A6
330
1F
100
AcDbEntity
  8
_U+30EC_U+30A4_U+30E4_U+30FC 1
370
     0
100
AcDbSpline
210
0.0
220
0.0
230
1.0
 70
    11
 71
     3
 72
    17
 73
    13
 74
     0
 42
0.0000000001
 43
0.0000000001
 12
1.0
 22
0.0
 32
0.0
 13
1.0
 23
0.0
 33
0.0
 40
0.0
 40
0.0
 40
0.0
 40
0.0
 40
1.0
 40
1.0
 40
1.0
 40
2.0
 40
2.0
 40
2.0
 40
3.0
 40
3.0
 40
3.0
 40
4.0
 40
4.0
 40
4.0
 40
4.0
 10
98.55383193012672
 20
-139.7399696872876
 30
0.0
 10
98.55383193012672
 20
-139.8777646872527
 30
0.0
 10
98.44189554409357
 20
-139.9893835761136
 30
0.0
 10
98.30406526983214
 20
-139.9893835761136
 30
0.0
 10
98.1659174955788
 20
-139.9893835761136
 30
0.0
 10
98.05394583176877
 20
-139.8777646872527
 30
0.0
 10
98.05394583176877
 20
-139.7399696872876
 30
0.0
 10
98.05394583176877
 20
-139.6021746873218
 30
0.0
 10
98.1659174955788
 20
-139.4898502429054
 30
0.0
 10
98.30406526983214
 20
-139.4898502429054
 30
0.0
 10
98.44189554409357
 20
-139.4898502429054
 30
0.0
 10
98.55383193012672
 20
-139.6021746873218
 30
0.0
 10
98.55383193012672
 20
-139.7399696872876
 30
0.0
  0
HATCH
  5
A7
330
1F
100
AcDbEntity
  8
_U+30EC_U+30A4_U+30E4_U+30FC 1
 62
   179
420
  2234388
100
AcDbHatch
 10
0.0
 20
0.0
 30
0.0
210
0.0
220
0.0
230
1.0
  2
SOLID
 70
     1
 71
     0
 91
        1
 92
        1
 93
        1
 72
     4
 94
        3
 73
     0
 74
     1
 95
       17
 96
       13
 40
0.0
 40
0.0
 40
0.0
 40
0.0
 40
1.0
 40
1.0
 40
1.0
 40
2.0
 40
2.0
 40
2.0
 40
3.0
 40
3.0
 40
3.0
 40
4.0
 40
4.0
 40
4.0
 40
4.0
 10
98.55383193012672
 20
-139.7399696872876
 10
98.55383193012672
 20
-139.8777646872527
 10
98.44189554409357
 20
-139.9893835761136
 10
98.30406526983214
 20
-139.9893835761136
 10
98.1659174955788
 20
-139.9893835761136
 10
98.05394583176877
 20
-139.8777646872527
 10
98.05394583176877
 20
-139.7399696872876
 10
98.05394583176877
 20
-139.6021746873218
 10
98.1659174955788
 20
-139.4898502429054
 10
98.30406526983214
 20
-139.4898502429054
 10
98.44189554409357
 20
-139.4898502429054
 10
98.55383193012672
 20
-139.6021746873218
 10
98.55383193012672
 20
-139.7399696872876
 97
        0
 97
        0
 75
     2
 76
     1
 98
        0
  0
SPLINE
  5
A8
330
1F
100
AcDbEntity
  8
_U+30EC_U+30A4_U+30E4_U+30FC 1
370
     0
100
AcDbSpline
210
0.0
220
0.0
230
1.0
 70
    11
 71
     3
 72
    17
 73
    13
 74
     0
 42
0.0000000001
 43
0.0000000001
 12
1.0
 22
0.0
 32
0.0
 13
1.0
 23
0.0
 33
0.0
 40
0.0
 40
0.0
 40
0.0
 40
0.0
 40
1.0
 40
1.0
 40
1.0
 40
2.0
 40
2.0
 40
2.0
 40
3.0
 40
3.0
 40
3.0
 40
4.0
 40
4.0
 40
4.0
 40
4.0
 10
103.051748482042
 20
-135.2420530217454
 30
0.0
 10
103.051748482042
 20
-135.3798480217105
 30
0.0
 10
102.9398120960088
 20
-135.4914669105714
 30
0.0
 10
102.8019818217474
 20
-135.4914669105714
 30
0.0
 10
102.663834047494
 20
-135.4914669105714
 30
0.0
 10
102.551862383684
 20
-135.3798480217105
 30
0.0
 10
102.551862383684
 20
-135.2420530217454
 30
0.0
 10
102.551862383684
 20
-135.1042580217796
 30
0.0
 10
102.663834047494
 20
-134.9919335773632
 30
0.0
 10
102.8019818217474
 20
-134.9919335773632
 30
0.0
 10
102.9398120960088
 20
-134.9919335773632
 30
0.0
 10
103.051748482042
 20
-135.1042580217796
 30
0.0
 10
103.051748482042
 20
-135.2420530217454
 30
0.0
  0
HATCH
  5
A9
330
1F
100
AcDbEntity
  8
_U+30EC_U+30A4_U+30E4_U+30FC 1
 62
   179
420
  2234388
100
AcDbHatch
 10
0.0
 20
0.0
 30
0.0
210
0.0
220
0.0
230
1.0
  2
SOLID
 70
     1
 71
     0
 91
        1
 92
        1
 93
        1
 72
     4
 94
        3
 73
     0
 74
     1
 95
       17
 96
       13
 40
0.0
 40
0.0
 40
0.0
 40
0.0
 40
1.0
 40
1.0
 40
1.0
 40
2.0
 40
2.0
 40
2.0
 40
3.0
 40
3.0
 40
3.0
 40
4.0
 40
4.0
 40
4.0
 40
4.0
 10
103.051748482042
 20
-135.2420530217454
 10
103.051748482042
 20
-135.3798480217105
 10
102.9398120960088
 20
-135.4914669105714
 10
102.8019818217474
 20
-135.4914669105714
 10
102.663834047494
 20
-135.4914669105714
 10
102.551862383684
 20
-135.3798480217105
 10
102.551862383684
 20
-135.2420530217454
 10
102.551862383684
 20
-135.1042580217796
 10
102.663834047494
 20
-134.9919335773632
 10
102.8019818217474
 20
-134.9919335773632
 10
102.9398120960088
 20
-134.9919335773632
 10
103.051748482042
 20
-135.1042580217796
 10
103.051748482042
 20
-135.2420530217454
 97
        0
 97
        0
 75
     2
 76
     1
 98
        0
  0
SPLINE
  5
AA
330
1F
100
AcDbEntity
  8
_U+30EC_U+30A4_U+30E4_U+30FC 1
370
     0
100
AcDbSpline
210
0.0
220
0.0
230
1.0
 70
    11
 71
     3
 72
    17
 73
    13
 74
     0
 42
0.0000000001
 43
0.0000000001
 12
1.0
 22
0.0
 32
0.0
 13
1.0
 23
0.0
 33
0.0
 40
0.0
 40
0.0
 40
0.0
 40
0.0
 40
1.0
 40
1.0
 40
1.0
 40
2.0
 40
2.0
 40
2.0
 40
3.0
 40
3.0
 40
3.0
 40
4.0
 40
4.0
 40
4.0
 40
4.0
 10
103.051748482042
 20
-122.6306002471202
 30
0.0
 10
103.051748482042
 20
-122.7683952470856
 30
0.0
 10
102.9398120960088
 20
-122.8800141359465
 30
0.0
 10
102.8019818217474
 20
-122.8800141359465
 30
0.0
 10
102.663834047494
 20
-122.8800141359465
 30
0.0
 10
102.551862383684
 20
-122.7683952470856
 30
0.0
 10
102.551862383684
 20
-122.6306002471202
 30
0.0
 10
102.551862383684
 20
-122.4927699693769
 30
0.0
 10
102.663834047494
 20
-122.3804808027383
 30
0.0
 10
102.8019818217474
 20
-122.3804808027383
 30
0.0
 10
102.9398120960088
 20
-122.3804808027383
 30
0.0
 10
103.051748482042
 20
-122.4927699693769
 30
0.0
 10
103.051748482042
 20
-122.6306002471202
 30
0.0
  0
HATCH
  5
AB
330
1F
100
AcDbEntity
  8
_U+30EC_U+30A4_U+30E4_U+30FC 1
 62
   179
420
  2234388
100
AcDbHatch
 10
0.0
 20
0.0
 30
0.0
210
0.0
220
0.0
230
1.0
  2
SOLID
 70
     1
 71
     0
 91
        1
 92
        1
 93
        1
 72
     4
 94
        3
 73
     0
 74
     1
 95
       17
 96
       13
 40
0.0
 40
0.0
 40
0.0
 40
0.0
 40
1.0
 40
1.0
 40
1.0
 40
2.0
 40
2.0
 40
2.0
 40
3.0
 40
3.0
 40
3.0
 40
4.0
 40
4.0
 40
4.0
 40
4.0
 10
103.051748482042
 20
-122.6306002471202
 10
103.051748482042
 20
-122.7683952470856
 10
102.9398120960088
 20
-122.8800141359465
 10
102.8019818217474
 20
-122.8800141359465
 10
102.663834047494
 20
-122.8800141359465
 10
102.551862383684
 20
-122.7683952470856
 10
102.551862383684
 20
-122.6306002471202
 10
102.551862383684
 20
-122.4927699693769
 10
102.663834047494
 20
-122.3804808027383
 10
102.8019818217474
 20
-122.3804808027383
 10
102.9398120960088
 20
-122.3804808027383
 10
103.051748482042
 20
-122.4927699693769
 10
103.051748482042
 20
-122.6306002471202
 97
        0
 97
        0
 75
     2
 76
     1
 98
        0
  0
SPLINE
  5
AC
330
1F
100
AcDbEntity
  8
_U+30EC_U+30A4_U+30E4_U+30FC 1
370
     0
100
AcDbSpline
210
0.0
220
0.0
230
1.0
 70
    11
 71
     3
 72
    17
 73
    13
 74
     0
 42
0.0000000001
 43
0.0000000001
 12
1.0
 22
0.0
 32
0.0
 13
1.0
 23
0.0
 33
0.0
 40
0.0
 40
0.0
 40
0.0
 40
0.0
 40
1.0
 40
1.0
 40
1.0
 40
2.0
 40
2.0
 40
2.0
 40
3.0
 40
3.0
 40
3.0
 40
4.0
 40
4.0
 40
4.0
 40
4.0
 10
91.96852932035401
 20
-117.2800196929022
 30
0.0
 10
91.96852932035401
 20
-117.4178146928679
 30
0.0
 10
91.85659293432086
 20
-117.5297863595066
 30
0.0
 10
91.71876266005943
 20
-117.5297863595066
 30
0.0
 10
91.58061488580609
 20
-117.5297863595066
 30
0.0
 10
91.46867849977293
 20
-117.4178146928679
 30
0.0
 10
91.46867849977293
 20
-117.2800196929022
 30
0.0
 10
91.46867849977293
 20
-117.1418719151589
 30
0.0
 10
91.58061488580609
 20
-117.0299002485203
 30
0.0
 10
91.71876266005943
 20
-117.0299002485203
 30
0.0
 10
91.85659293432086
 20
-117.0299002485203
 30
0.0
 10
91.96852932035401
 20
-117.1418719151589
 30
0.0
 10
91.96852932035401
 20
-117.2800196929022
 30
0.0
  0
HATCH
  5
AD
330
1F
100
AcDbEntity
  8
_U+30EC_U+30A4_U+30E4_U+30FC 1
 62
   179
420
  2234388
100
AcDbHatch
 10
0.0
 20
0.0
 30
0.0
210
0.0
220
0.0
230
1.0
  2
SOLID
 70
     1
 71
     0
 91
        1
 92
        1
 93
        1
 72
     4
 94
        3
 73
     0
 74
     1
 95
       17
 96
       13
 40
0.0
 40
0.0
 40
0.0
 40
0.0
 40
1.0
 40
1.0
 40
1.0
 40
2.0
 40
2.0
 40
2.0
 40
3.0
 40
3.0
 40
3.0
 40
4.0
 40
4.0
 40
4.0
 40
4.0
 10
91.96852932035401
 20
-117.2800196929022
 10
91.96852932035401
 20
-117.4178146928679
 10
91.85659293432086
 20
-117.5297863595066
 10
91.71876266005943
 20
-117.5297863595066
 10
91.58061488580609
 20
-117.5297863595066
 10
91.46867849977293
 20
-117.4178146928679
 10
91.46867849977293
 20
-117.2800196929022
 10
91.46867849977293
 20
-117.1418719151589
 10
91.58061488580609
 20
-117.0299002485203
 10
91.71876266005943
 20
-117.0299002485203
 10
91.85659293432086
 20
-117.0299002485203
 10
91.96852932035401
 20
-117.1418719151589
 10
91.96852932035401
 20
-117.2800196929022
 97
        0
 97
        0
 75
     2
 76
     1
 98
        0
  0
SPLINE
  5
AE
330
1F
100
AcDbEntity
  8
_U+30EC_U+30A4_U+30E4_U+30FC 1
370
     0
100
AcDbSpline
210
0.0
220
0.0
230
1.0
 70
    11
 71
     3
 72
    17
 73
    13
 74
     0
 42
0.0000000001
 43
0.0000000001
 12
1.0
 22
0.0
 32
0.0
 13
1.0
 23
0.0
 33
0.0
 40
0.0
 40
0.0
 40
0.0
 40
0.0
 40
1.0
 40
1.0
 40
1.0
 40
2.0
 40
2.0
 40
2.0
 40
3.0
 40
3.0
 40
3.0
 40
4.0
 40
4.0
 40
4.0
 40
4.0
 10
86.61798417908001
 20
-117.2800196929022
 30
0.0
 10
86.61798417908001
 20
-117.4178146928679
 30
0.0
 10
86.50601251526999
 20
-117.5297863595066
 30
0.0
 10
86.36818224100854
 20
-117.5297863595066
 30
0.0
 10
86.23003446675521
 20
-117.5297863595066
 30
0.0
 10
86.11809808072206
 20
-117.4178146928679
 30
0.0
 10
86.11809808072206
 20
-117.2800196929022
 30
0.0
 10
86.11809808072206
 20
-117.1418719151589
 30
0.0
 10
86.23003446675521
 20
-117.0299002485203
 30
0.0
 10
86.36818224100854
 20
-117.0299002485203
 30
0.0
 10
86.50601251526999
 20
-117.0299002485203
 30
0.0
 10
86.61798417908001
 20
-117.1418719151589
 30
0.0
 10
86.61798417908001
 20
-117.2800196929022
 30
0.0
  0
HATCH
  5
AF
330
1F
100
AcDbEntity
  8
_U+30EC_U+30A4_U+30E4_U+30FC 1
 62
   179
420
  2234388
100
AcDbHatch
 10
0.0
 20
0.0
 30
0.0
210
0.0
220
0.0
230
1.0
  2
SOLID
 70
     1
 71
     0
 91
        1
 92
        1
 93
        1
 72
     4
 94
        3
 73
     0
 74
     1
 95
       17
 96
       13
 40
0.0
 40
0.0
 40
0.0
 40
0.0
 40
1.0
 40
1.0
 40
1.0
 40
2.0
 40
2.0
 40
2.0
 40
3.0
 40
3.0
 40
3.0
 40
4.0
 40
4.0
 40
4.0
 40
4.0
 10
86.61798417908001
 20
-117.2800196929022
 10
86.61798417908001
 20
-117.4178146928679
 10
86.50601251526999
 20
-117.5297863595066
 10
86.36818224100854
 20
-117.5297863595066
 10
86.23003446675521
 20
-117.5297863595066
 10
86.11809808072206
 20
-117.4178146928679
 10
86.11809808072206
 20
-117.2800196929022
 10
86.11809808072206
 20
-117.1418719151589
 10
86.23003446675521
 20
-117.0299002485203
 10
86.36818224100854
 20
-117.0299002485203
 10
86.50601251526999
 20
-117.0299002485203
 10
86.61798417908001
 20
-117.1418719151589
 10
86.61798417908001
 20
-117.2800196929022
 97
        0
 97
        0
 75
     2
 76
     1
 98
        0
  0
SPLINE
  5
B0
330
1F
100
AcDbEntity
  8
_U+30EC_U+30A4_U+30E4_U+30FC 1
370
     0
100
AcDbSpline
210
0.0
220
0.0
230
1.0
 70
    11
 71
     3
 72
    17
 73
    13
 74
     0
 42
0.0000000001
 43
0.0000000001
 12
1.0
 22
0.0
 32
0.0
 13
1.0
 23
0.0
 33
0.0
 40
0.0
 40
0.0
 40
0.0
 40
0.0
 40
1.0
 40
1.0
 40
1.0
 40
2.0
 40
2.0
 40
2.0
 40
3.0
 40
3.0
 40
3.0
 40
4.0
 40
4.0
 40
4.0
 40
4.0
 10
83.2079989882982
 20
-119.8669391367001
 30
0.0
 10
83.2079989882982
 20
-120.0047341366655
 30
0.0
 10
83.09606260226505
 20
-120.1167058033042
 30
0.0
 10
82.95823232800362
 20
-120.1167058033042
 30
0.0
 10
82.82008455375028
 20
-120.1167058033042
 30
0.0
 10
82.70811288994025
 20
-120.0047341366655
 30
0.0
 10
82.70811288994025
 20
-119.8669391367001
 30
0.0
 10
82.70811288994025
 20
-119.7287913589568
 30
0.0
 10
82.82008455375028
 20
-119.6168196923179
 30
0.0
 10
82.95823232800362
 20
-119.6168196923179
 30
0.0
 10
83.09606260226505
 20
-119.6168196923179
 30
0.0
 10
83.2079989882982
 20
-119.7287913589568
 30
0.0
 10
83.2079989882982
 20
-119.8669391367001
 30
0.0
  0
HATCH
  5
B1
330
1F
100
AcDbEntity
  8
_U+30EC_U+30A4_U+30E4_U+30FC 1
 62
   179
420
  2234388
100
AcDbHatch
 10
0.0
 20
0.0
 30
0.0
210
0.0
220
0.0
230
1.0
  2
SOLID
 70
     1
 71
     0
 91
        1
 92
        1
 93
        1
 72
     4
 94
        3
 73
     0
 74
     1
 95
       17
 96
       13
 40
0.0
 40
0.0
 40
0.0
 40
0.0
 40
1.0
 40
1.0
 40
1.0
 40
2.0
 40
2.0
 40
2.0
 40
3.0
 40
3.0
 40
3.0
 40
4.0
 40
4.0
 40
4.0
 40
4.0
 10
83.2079989882982
 20
-119.8669391367001
 10
83.2079989882982
 20
-120.0047341366655
 10
83.09606260226505
 20
-120.1167058033042
 10
82.95823232800362
 20
-120.1167058033042
 10
82.82008455375028
 20
-120.1167058033042
 10
82.70811288994025
 20
-120.0047341366655
 10
82.70811288994025
 20
-119.8669391367001
 10
82.70811288994025
 20
-119.7287913589568
 10
82.82008455375028
 20
-119.6168196923179
 10
82.95823232800362
 20
-119.6168196923179
 10
83.09606260226505
 20
-119.6168196923179
 10
83.2079989882982
 20
-119.7287913589568
 10
83.2079989882982
 20
-119.8669391367001
 97
        0
 97
        0
 75
     2
 76
     1
 98
        0
  0
SPLINE
  5
B2
330
1F
100
AcDbEntity
  8
_U+30EC_U+30A4_U+30E4_U+30FC 1
370
     0
100
AcDbSpline
210
0.0
220
0.0
230
1.0
 70
    11
 71
     3
 72
    17
 73
    13
 74
     0
 42
0.0000000001
 43
0.0000000001
 12
1.0
 22
0.0
 32
0.0
 13
1.0
 23
0.0
 33
0.0
 40
0.0
 40
0.0
 40
0.0
 40
0.0
 40
1.0
 40
1.0
 40
1.0
 40
2.0
 40
2.0
 40
2.0
 40
3.0
 40
3.0
 40
3.0
 40
4.0
 40
4.0
 40
4.0
 40
4.0
 10
78.91543437558843
 20
-119.8669391367001
 30
0.0
 10
78.91543437558843
 20
-120.0047341366655
 30
0.0
 10
78.8034627117784
 20
-120.1167058033042
 30
0.0
 10
78.66566771529384
 20
-120.1167058033042
 30
0.0
 10
78.52751994104051
 20
-120.1167058033042
 30
0.0
 10
78.41554827723047
 20
-120.0047341366655
 30
0.0
 10
78.41554827723047
 20
-119.8669391367001
 30
0.0
 10
78.41554827723047
 20
-119.7287913589568
 30
0.0
 10
78.52751994104051
 20
-119.6168196923179
 30
0.0
 10
78.66566771529384
 20
-119.6168196923179
 30
0.0
 10
78.8034627117784
 20
-119.6168196923179
 30
0.0
 10
78.91543437558843
 20
-119.7287913589568
 30
0.0
 10
78.91543437558843
 20
-119.8669391367001
 30
0.0
  0
HATCH
  5
B3
330
1F
100
AcDbEntity
  8
_U+30EC_U+30A4_U+30E4_U+30FC 1
 62
   179
420
  2234388
100
AcDbHatch
 10
0.0
 20
0.0
 30
0.0
210
0.0
220
0.0
230
1.0
  2
SOLID
 70
     1
 71
     0
 91
        1
 92
        1
 93
        1
 72
     4
 94
        3
 73
     0
 74
     1
 95
       17
 96
       13
 40
0.0
 40
0.0
 40
0.0
 40
0.0
 40
1.0
 40
1.0
 40
1.0
 40
2.0
 40
2.0
 40
2.0
 40
3.0
 40
3.0
 40
3.0
 40
4.0
 40
4.0
 40
4.0
 40
4.0
 10
78.91543437558843
 20
-119.8669391367001
 10
78.91543437558843
 20
-120.0047341366655
 10
78.8034627117784
 20
-120.1167058033042
 10
78.66566771529384
 20
-120.1167058033042
 10
78.52751994104051
 20
-120.1167058033042
 10
78.41554827723047
 20
-120.0047341366655
 10
78.41554827723047
 20
-119.8669391367001
 10
78.41554827723047
 20
-119.7287913589568
 10
78.52751994104051
 20
-119.6168196923179
 10
78.66566771529384
 20
-119.6168196923179
 10
78.8034627117784
 20
-119.6168196923179
 10
78.91543437558843
 20
-119.7287913589568
 10
78.91543437558843
 20
-119.8669391367001
 97
        0
 97
        0
 75
     2
 76
     1
 98
        0
  0
SPLINE
  5
B4
330
1F
100
AcDbEntity
  8
_U+30EC_U+30A4_U+30E4_U+30FC 1
370
     0
100
AcDbSpline
210
0.0
220
0.0
230
1.0
 70
    11
 71
     3
 72
    17
 73
    13
 74
     0
 42
0.0000000001
 43
0.0000000001
 12
1.0
 22
0.0
 32
0.0
 13
1.0
 23
0.0
 33
0.0
 40
0.0
 40
0.0
 40
0.0
 40
0.0
 40
1.0
 40
1.0
 40
1.0
 40
2.0
 40
2.0
 40
2.0
 40
3.0
 40
3.0
 40
3.0
 40
4.0
 40
4.0
 40
4.0
 40
4.0
 10
78.91543437558843
 20
-135.0360307995744
 30
0.0
 10
78.91543437558843
 20
-135.1738257995402
 30
0.0
 10
78.8034627117784
 20
-135.2861502439566
 30
0.0
 10
78.66566771529384
 20
-135.2861502439566
 30
0.0
 10
78.52751994104051
 20
-135.2861502439566
 30
0.0
 10
78.41554827723047
 20
-135.1738257995402
 30
0.0
 10
78.41554827723047
 20
-135.0360307995744
 30
0.0
 10
78.41554827723047
 20
-134.8975302440531
 30
0.0
 10
78.52751994104051
 20
-134.7859113551922
 30
0.0
 10
78.66566771529384
 20
-134.7859113551922
 30
0.0
 10
78.8034627117784
 20
-134.7859113551922
 30
0.0
 10
78.91543437558843
 20
-134.8975302440531
 30
0.0
 10
78.91543437558843
 20
-135.0360307995744
 30
0.0
  0
HATCH
  5
B5
330
1F
100
AcDbEntity
  8
_U+30EC_U+30A4_U+30E4_U+30FC 1
 62
   179
420
  2234388
100
AcDbHatch
 10
0.0
 20
0.0
 30
0.0
210
0.0
220
0.0
230
1.0
  2
SOLID
 70
     1
 71
     0
 91
        1
 92
        1
 93
        1
 72
     4
 94
        3
 73
     0
 74
     1
 95
       17
 96
       13
 40
0.0
 40
0.0
 40
0.0
 40
0.0
 40
1.0
 40
1.0
 40
1.0
 40
2.0
 40
2.0
 40
2.0
 40
3.0
 40
3.0
 40
3.0
 40
4.0
 40
4.0
 40
4.0
 40
4.0
 10
78.91543437558843
 20
-135.0360307995744
 10
78.91543437558843
 20
-135.1738257995402
 10
78.8034627117784
 20
-135.2861502439566
 10
78.66566771529384
 20
-135.2861502439566
 10
78.52751994104051
 20
-135.2861502439566
 10
78.41554827723047
 20
-135.1738257995402
 10
78.41554827723047
 20
-135.0360307995744
 10
78.41554827723047
 20
-134.8975302440531
 10
78.52751994104051
 20
-134.7859113551922
 10
78.66566771529384
 20
-134.7859113551922
 10
78.8034627117784
 20
-134.7859113551922
 10
78.91543437558843
 20
-134.8975302440531
 10
78.91543437558843
 20
-135.0360307995744
 97
        0
 97
        0
 75
     2
 76
     1
 98
        0
  0
SPLINE
  5
B6
330
1F
100
AcDbEntity
  8
_U+30EC_U+30A4_U+30E4_U+30FC 1
370
     0
100
AcDbSpline
210
0.0
220
0.0
230
1.0
 70
    11
 71
     3
 72
    17
 73
    13
 74
     0
 42
0.0000000001
 43
0.0000000001
 12
1.0
 22
0.0
 32
0.0
 13
1.0
 23
0.0
 33
0.0
 40
0.0
 40
0.0
 40
0.0
 40
0.0
 40
1.0
 40
1.0
 40
1.0
 40
2.0
 40
2.0
 40
2.0
 40
3.0
 40
3.0
 40
3.0
 40
4.0
 40
4.0
 40
4.0
 40
4.0
 10
83.14876760092044
 20
-135.0360307995744
 30
0.0
 10
83.14876760092044
 20
-135.1738257995402
 30
0.0
 10
83.0367959371104
 20
-135.2861502439566
 30
0.0
 10
82.89900094062584
 20
-135.2861502439566
 30
0.0
 10
82.76085316637251
 20
-135.2861502439566
 30
0.0
 10
82.64888150256247
 20
-135.1738257995402
 30
0.0
 10
82.64888150256247
 20
-135.0360307995744
 30
0.0
 10
82.64888150256247
 20
-134.8975302440531
 30
0.0
 10
82.76085316637251
 20
-134.7859113551922
 30
0.0
 10
82.89900094062584
 20
-134.7859113551922
 30
0.0
 10
83.0367959371104
 20
-134.7859113551922
 30
0.0
 10
83.14876760092044
 20
-134.8975302440531
 30
0.0
 10
83.14876760092044
 20
-135.0360307995744
 30
0.0
  0
HATCH
  5
B7
330
1F
100
AcDbEntity
  8
_U+30EC_U+30A4_U+30E4_U+30FC 1
 62
   179
420
  2234388
100
AcDbHatch
 10
0.0
 20
0.0
 30
0.0
210
0.0
220
0.0
230
1.0
  2
SOLID
 70
     1
 71
     0
 91
        1
 92
        1
 93
        1
 72
     4
 94
        3
 73
     0
 74
     1
 95
       17
 96
       13
 40
0.0
 40
0.0
 40
0.0
 40
0.0
 40
1.0
 40
1.0
 40
1.0
 40
2.0
 40
2.0
 40
2.0
 40
3.0
 40
3.0
 40
3.0
 40
4.0
 40
4.0
 40
4.0
 40
4.0
 10
83.14876760092044
 20
-135.0360307995744
 10
83.14876760092044
 20
-135.1738257995402
 10
83.0367959371104
 20
-135.2861502439566
 10
82.89900094062584
 20
-135.2861502439566
 10
82.76085316637251
 20
-135.2861502439566
 10
82.64888150256247
 20
-135.1738257995402
 10
82.64888150256247
 20
-135.0360307995744
 10
82.64888150256247
 20
-134.8975302440531
 10
82.76085316637251
 20
-134.7859113551922
 10
82.89900094062584
 20
-134.7859113551922
 10
83.0367959371104
 20
-134.7859113551922
 10
83.14876760092044
 20
-134.8975302440531
 10
83.14876760092044
 20
-135.0360307995744
 97
        0
 97
        0
 75
     2
 76
     1
 98
        0
  0
SPLINE
  5
B8
330
1F
100
AcDbEntity
  8
_U+30EC_U+30A4_U+30E4_U+30FC 1
370
     0
100
AcDbSpline
210
0.0
220
0.0
230
1.0
 70
    11
 71
     3
 72
    17
 73
    13
 74
     0
 42
0.0000000001
 43
0.0000000001
 12
1.0
 22
0.0
 32
0.0
 13
1.0
 23
0.0
 33
0.0
 40
0.0
 40
0.0
 40
0.0
 40
0.0
 40
1.0
 40
1.0
 40
1.0
 40
2.0
 40
2.0
 40
2.0
 40
3.0
 40
3.0
 40
3.0
 40
4.0
 40
4.0
 40
4.0
 40
4.0
 10
83.14876760092044
 20
-133.5511891332787
 30
0.0
 10
83.14876760092044
 20
-133.6889841332444
 30
0.0
 10
83.0367959371104
 20
-133.8013085776608
 30
0.0
 10
82.89900094062584
 20
-133.8013085776608
 30
0.0
 10
82.76085316637251
 20
-133.8013085776608
 30
0.0
 10
82.64888150256247
 20
-133.6889841332444
 30
0.0
 10
82.64888150256247
 20
-133.5511891332787
 30
0.0
 10
82.64888150256247
 20
-133.4133941333135
 30
0.0
 10
82.76085316637251
 20
-133.3017752444526
 30
0.0
 10
82.89900094062584
 20
-133.3017752444526
 30
0.0
 10
83.0367959371104
 20
-133.3017752444526
 30
0.0
 10
83.14876760092044
 20
-133.4133941333135
 30
0.0
 10
83.14876760092044
 20
-133.5511891332787
 30
0.0
  0
HATCH
  5
B9
330
1F
100
AcDbEntity
  8
_U+30EC_U+30A4_U+30E4_U+30FC 1
 62
   179
420
  2234388
100
AcDbHatch
 10
0.0
 20
0.0
 30
0.0
210
0.0
220
0.0
230
1.0
  2
SOLID
 70
     1
 71
     0
 91
        1
 92
        1
 93
        1
 72
     4
 94
        3
 73
     0
 74
     1
 95
       17
 96
       13
 40
0.0
 40
0.0
 40
0.0
 40
0.0
 40
1.0
 40
1.0
 40
1.0
 40
2.0
 40
2.0
 40
2.0
 40
3.0
 40
3.0
 40
3.0
 40
4.0
 40
4.0
 40
4.0
 40
4.0
 10
83.14876760092044
 20
-133.5511891332787
 10
83.14876760092044
 20
-133.6889841332444
 10
83.0367959371104
 20
-133.8013085776608
 10
82.89900094062584
 20
-133.8013085776608
 10
82.76085316637251
 20
-133.8013085776608
 10
82.64888150256247
 20
-133.6889841332444
 10
82.64888150256247
 20
-133.5511891332787
 10
82.64888150256247
 20
-133.4133941333135
 10
82.76085316637251
 20
-133.3017752444526
 10
82.89900094062584
 20
-133.3017752444526
 10
83.0367959371104
 20
-133.3017752444526
 10
83.14876760092044
 20
-133.4133941333135
 10
83.14876760092044
 20
-133.5511891332787
 97
        0
 97
        0
 75
     2
 76
     1
 98
        0
  0
SPLINE
  5
BA
330
1F
100
AcDbEntity
  8
_U+30EC_U+30A4_U+30E4_U+30FC 1
370
     0
100
AcDbSpline
210
0.0
220
0.0
230
1.0
 70
    11
 71
     3
 72
    17
 73
    13
 74
     0
 42
0.0000000001
 43
0.0000000001
 12
1.0
 22
0.0
 32
0.0
 13
1.0
 23
0.0
 33
0.0
 40
0.0
 40
0.0
 40
0.0
 40
0.0
 40
1.0
 40
1.0
 40
1.0
 40
2.0
 40
2.0
 40
2.0
 40
3.0
 40
3.0
 40
3.0
 40
4.0
 40
4.0
 40
4.0
 40
4.0
 10
83.14876760092044
 20
-128.0400594124344
 30
0.0
 10
83.14876760092044
 20
-128.1778896901777
 30
0.0
 10
83.0367959371104
 20
-128.2901788568162
 30
0.0
 10
82.89900094062584
 20
-128.2901788568162
 30
0.0
 10
82.76085316637251
 20
-128.2901788568162
 30
0.0
 10
82.64888150256247
 20
-128.1778896901777
 30
0.0
 10
82.64888150256247
 20
-128.0400594124344
 30
0.0
 10
82.64888150256247
 20
-127.9015941346912
 30
0.0
 10
82.76085316637251
 20
-127.7899752458303
 30
0.0
 10
82.89900094062584
 20
-127.7899752458303
 30
0.0
 10
83.0367959371104
 20
-127.7899752458303
 30
0.0
 10
83.14876760092044
 20
-127.9015941346912
 30
0.0
 10
83.14876760092044
 20
-128.0400594124344
 30
0.0
  0
HATCH
  5
BB
330
1F
100
AcDbEntity
  8
_U+30EC_U+30A4_U+30E4_U+30FC 1
 62
   179
420
  2234388
100
AcDbHatch
 10
0.0
 20
0.0
 30
0.0
210
0.0
220
0.0
230
1.0
  2
SOLID
 70
     1
 71
     0
 91
        1
 92
        1
 93
        1
 72
     4
 94
        3
 73
     0
 74
     1
 95
       17
 96
       13
 40
0.0
 40
0.0
 40
0.0
 40
0.0
 40
1.0
 40
1.0
 40
1.0
 40
2.0
 40
2.0
 40
2.0
 40
3.0
 40
3.0
 40
3.0
 40
4.0
 40
4.0
 40
4.0
 40
4.0
 10
83.14876760092044
 20
-128.0400594124344
 10
83.14876760092044
 20
-128.1778896901777
 10
83.0367959371104
 20
-128.2901788568162
 10
82.89900094062584
 20
-128.2901788568162
 10
82.76085316637251
 20
-128.2901788568162
 10
82.64888150256247
 20
-128.1778896901777
 10
82.64888150256247
 20
-128.0400594124344
 10
82.64888150256247
 20
-127.9015941346912
 10
82.76085316637251
 20
-127.7899752458303
 10
82.89900094062584
 20
-127.7899752458303
 10
83.0367959371104
 20
-127.7899752458303
 10
83.14876760092044
 20
-127.9015941346912
 10
83.14876760092044
 20
-128.0400594124344
 97
        0
 97
        0
 75
     2
 76
     1
 98
        0
  0
INSERT
  5
BD
330
1F
100
AcDbEntity
  8
_U+30EC_U+30A4_U+30E4_U+30FC 1
100
AcDbBlockReference
  2
block 2
 10
0.0
 20
0.0
 30
0.0
  0
INSERT
  5
C6
330
1F
100
AcDbEntity
  8
_U+30EC_U+30A4_U+30E4_U+30FC 1
100
AcDbBlockReference
  2
block 3
 10
0.0
 20
0.0
 30
0.0
  0
INSERT
  5
D0
330
1F
100
AcDbEntity
  8
_U+30EC_U+30A4_U+30E4_U+30FC 1
100
AcDbBlockReference
  2
block 4
 10
0.0
 20
0.0
 30
0.0
  0
INSERT
  5
D9
330
1F
100
AcDbEntity
  8
_U+30EC_U+30A4_U+30E4_U+30FC 1
100
AcDbBlockReference
  2
block 5
 10
0.0
 20
0.0
 30
0.0
  0
INSERT
  5
E1
330
1F
100
AcDbEntity
  8
_U+30EC_U+30A4_U+30E4_U+30FC 1
100
AcDbBlockReference
  2
block 6
 10
0.0
 20
0.0
 30
0.0
  0
INSERT
  5
E7
330
1F
100
AcDbEntity
  8
_U+30EC_U+30A4_U+30E4_U+30FC 1
100
AcDbBlockReference
  2
block 7
 10
0.0
 20
0.0
 30
0.0
  0
INSERT
  5
EF
330
1F
100
AcDbEntity
  8
_U+30EC_U+30A4_U+30E4_U+30FC 1
100
AcDbBlockReference
  2
block 8
 10
0.0
 20
0.0
 30
0.0
  0
ENDSEC
  0
SECTION
  2
OBJECTS
  0
DICTIONARY
  5
C
330
0
100
AcDbDictionary
281
     1
  3
ACAD_GROUP
350
D
  3
ACAD_LAYOUT
350
1A
  3
ACAD_MATERIAL
350
3B
  3
ACAD_MLEADERSTYLE
350
F7
  3
ACAD_MLINESTYLE
350
17
  3
ACAD_PLOTSETTINGS
350
19
  3
ACAD_PLOTSTYLENAME
350
E
  3
ACAD_TABLESTYLE
350
F6
  3
ACAD_VISUALSTYLE
350
2A
  0
SUN
  5
3F
330
29
100
AcDbSun
 90
        1
290
     0
 63
     7
421
 16777215
 40
1.0
291
     1
 91
  2455826
 92
 54000000
292
     0
 70
     2
 71
   256
280
     1
  0
DICTIONARY
  5
D
102
{ACAD_REACTORS
330
C
102
}
330
C
100
AcDbDictionary
281
     1
  0
DICTIONARY
  5
1A
102
{ACAD_REACTORS
330
C
102
}
330
C
100
AcDbDictionary
281
     1
  3
Layout1
350
1E
  3
Layout2
350
26
  3
Model
350
22
  0
DICTIONARY
  5
3B
102
{ACAD_REACTORS
330
C
102
}
330
C
100
AcDbDictionary
281
     1
  3
ByBlock
350
3D
  3
ByLayer
350
3C
  3
Global
350
3E
  0
DICTIONARY
  5
F7
102
{ACAD_REACTORS
330
C
102
}
330
C
100
AcDbDictionary
281
     1
  0
DICTIONARY
  5
17
102
{ACAD_REACTORS
330
C
102
}
330
C
100
AcDbDictionary
281
     1
  3
Standard
350
18
  0
DICTIONARY
  5
19
102
{ACAD_REACTORS
330
C
102
}
330
C
100
AcDbDictionary
281
     1
  0
ACDBDICTIONARYWDFLT
  5
E
102
{ACAD_REACTORS
330
C
102
}
330
C
100
AcDbDictionary
281
     1
  3
Normal
350
F
100
AcDbDictionaryWithDefault
340
F
  0
DICTIONARY
  5
F6
102
{ACAD_REACTORS
330
C
102
}
330
C
100
AcDbDictionary
281
     1
  0
DICTIONARY
  5
2A
102
{ACAD_REACTORS
330
C
102
}
330
C
100
AcDbDictionary
281
     1
  3
2dWireframe
350
2F
  3
3D Hidden
350
31
  3
3dWireframe
350
30
  3
Basic
350
32
  3
Brighten
350
36
  3
ColorChange
350
3A
  3
Conceptual
350
34
  3
Dim
350
35
  3
Facepattern
350
39
  3
Flat
350
2B
  3
FlatWithEdges
350
2C
  3
Gouraud
350
2D
  3
GouraudWithEdges
350
2E
  3
Linepattern
350
38
  3
Realistic
350
33
  3
Thicken
350
37
  0
LAYOUT
  5
1E
102
{ACAD_REACTORS
330
1A
102
}
330
1A
100
AcDbPlotSettings
  1

  2
none_device
  4

  6

 40
0.0
 41
0.0
 42
0.0
 43
0.0
 44
0.0
 45
0.0
 46
0.0
 47
0.0
 48
0.0
 49
0.0
140
0.0
141
0.0
142
1.0
143
1.0
 70
   688
 72
     0
 73
     0
 74
     5
  7

 75
    16
 76
     0
 77
     2
 78
   300
147
1.0
148
0.0
149
0.0
100
AcDbLayout
  1
Layout1
 70
     1
 71
     1
 10
0.0
 20
0.0
 11
12.0
 21
9.0
 12
0.0
 22
0.0
 32
0.0
 14
1.000000000000000E+20
 24
1.000000000000000E+20
 34
1.000000000000000E+20
 15
-1.000000000000000E+20
 25
-1.000000000000000E+20
 35
-1.000000000000000E+20
146
0.0
 13
0.0
 23
0.0
 33
0.0
 16
1.0
 26
0.0
 36
0.0
 17
0.0
 27
1.0
 37
0.0
 76
     0
330
1B
  0
LAYOUT
  5
26
102
{ACAD_REACTORS
330
1A
102
}
330
1A
100
AcDbPlotSettings
  1

  2
none_device
  4

  6

 40
0.0
 41
0.0
 42
0.0
 43
0.0
 44
0.0
 45
0.0
 46
0.0
 47
0.0
 48
0.0
 49
0.0
140
0.0
141
0.0
142
1.0
143
1.0
 70
   688
 72
     0
 73
     0
 74
     5
  7

 75
    16
 76
     0
 77
     2
 78
   300
147
1.0
148
0.0
149
0.0
100
AcDbLayout
  1
Layout2
 70
     1
 71
     2
 10
0.0
 20
0.0
 11
0.0
 21
0.0
 12
0.0
 22
0.0
 32
0.0
 14
0.0
 24
0.0
 34
0.0
 15
0.0
 25
0.0
 35
0.0
146
0.0
 13
0.0
 23
0.0
 33
0.0
 16
1.0
 26
0.0
 36
0.0
 17
0.0
 27
1.0
 37
0.0
 76
     0
330
23
  0
LAYOUT
  5
22
102
{ACAD_REACTORS
330
1A
102
}
330
1A
100
AcDbPlotSettings
  1

  2
none_device
  4

  6

 40
0.0
 41
0.0
 42
0.0
 43
0.0
 44
0.0
 45
0.0
 46
0.0
 47
0.0
 48
0.0
 49
0.0
140
0.0
141
0.0
142
1.0
143
1.0
 70
  1712
 72
     0
 73
     0
 74
     0
  7

 75
     0
 76
     0
 77
     2
 78
   300
147
1.0
148
0.0
149
0.0
100
AcDbLayout
  1
Model
 70
     1
 71
     0
 10
0.0
 20
0.0
 11
12.0
 21
9.0
 12
0.0
 22
0.0
 32
0.0
 14
1.000000000000000E+20
 24
1.000000000000000E+20
 34
1.000000000000000E+20
 15
-1.000000000000000E+20
 25
-1.000000000000000E+20
 35
-1.000000000000000E+20
146
0.0
 13
0.0
 23
0.0
 33
0.0
 16
1.0
 26
0.0
 36
0.0
 17
0.0
 27
1.0
 37
0.0
 76
     0
330
1F
331
29
  0
MATERIAL
  5
3D
102
{ACAD_REACTORS
330
3B
102
}
330
3B
100
AcDbMaterial
  1
ByBlock
 72
     1
 94
      127
  0
MATERIAL
  5
3C
102
{ACAD_REACTORS
330
3B
102
}
330
3B
100
AcDbMaterial
  1
ByLayer
 72
     1
 94
      127
  0
MATERIAL
  5
3E
102
{ACAD_REACTORS
330
3B
102
}
330
3B
100
AcDbMaterial
  1
Global
 72
     1
 94
      127
  0
MLINESTYLE
  5
18
102
{ACAD_REACTORS
330
17
102
}
330
17
100
AcDbMlineStyle
  2
Standard
 70
     0
  3

 62
   256
 51
90.0
 52
90.0
 71
     2
 49
0.5
 62
   256
  6
BYLAYER
 49
-0.5
 62
   256
  6
BYLAYER
  0
ACDBPLACEHOLDER
  5
F
102
{ACAD_REACTORS
330
E
102
}
330
E
  0
VISUALSTYLE
  5
2F
102
{ACAD_REACTORS
330
2A
102
}
330
2A
100
AcDbVisualStyle
  2
2dWireframe
 70
     4
177
     2
291
     0
 71
     0
176
     1
 72
     2
176
     1
 73
     0
176
     1
 90
        0
176
     1
 40
-0.6
176
     1
 41
-30.0
176
     1
 62
     5
 63
     7
421
 16777215
176
     1
 74
     1
176
     1
 91
        4
176
     1
 64
     7
176
     1
 65
   257
176
     1
 75
     1
176
     1
175
     1
176
     1
 42
1.0
176
     1
 92
        0
176
     1
 66
   257
176
     1
 43
1.0
176
     1
 76
     1
176
     1
 77
     6
176
     1
 78
     2
176
     1
 67
     7
176
     1
 79
     5
176
     1
170
     0
176
     1
171
     0
176
     1
290
     0
176
     1
 93
        1
176
     1
 44
0.0
176
     1
173
     0
176
     1
  0
VISUALSTYLE
  5
31
102
{ACAD_REACTORS
330
2A
102
}
330
2A
100
AcDbVisualStyle
  2
3D Hidden
 70
     6
177
     2
291
     0
 71
     1
176
     1
 72
     2
176
     1
 73
     2
176
     1
 90
        0
176
     1
 40
-0.6
176
     1
 41
-30.0
176
     1
 62
     5
 63
     7
421
 16777215
176
     1
 74
     2
176
     1
 91
        2
176
     1
 64
     7
176
     1
 65
   257
176
     1
 75
     2
176
     1
175
     1
176
     1
 42
40.0
176
     1
 92
        0
176
     1
 66
   257
176
     1
 43
1.0
176
     1
 76
     1
176
     1
 77
     6
176
     1
 78
     2
176
     1
 67
     7
176
     1
 79
     3
176
     1
170
     0
176
     1
171
     0
176
     1
290
     0
176
     1
 93
        1
176
     1
 44
0.0
176
     1
173
     0
176
     1
  0
VISUALSTYLE
  5
30
102
{ACAD_REACTORS
330
2A
102
}
330
2A
100
AcDbVisualStyle
  2
3dWireframe
 70
     5
177
     2
291
     0
 71
     0
176
     1
 72
     2
176
     1
 73
     0
176
     1
 90
        0
176
     1
 40
-0.6
176
     1
 41
-30.0
176
     1
 62
     5
 63
     7
421
 16777215
176
     1
 74
     1
176
     1
 91
        4
176
     1
 64
     7
176
     1
 65
   257
176
     1
 75
     1
176
     1
175
     1
176
     1
 42
1.0
176
     1
 92
        0
176
     1
 66
   257
176
     1
 43
1.0
176
     1
 76
     1
176
     1
 77
     6
176
     1
 78
     2
176
     1
 67
     7
176
     1
 79
     5
176
     1
170
     0
176
     1
171
     0
176
     1
290
     0
176
     1
 93
        1
176
     1
 44
0.0
176
     1
173
     0
176
     1
  0
VISUALSTYLE
  5
32
102
{ACAD_REACTORS
330
2A
102
}
330
2A
100
AcDbVisualStyle
  2
Basic
 70
     7
177
     2
291
     1
 71
     1
176
     1
 72
     0
176
     1
 73
     1
176
     1
 90
        0
176
     1
 40
-0.6
176
     1
 41
-30.0
176
     1
 62
     5
 63
     7
421
 16777215
176
     1
 74
     0
176
     1
 91
        4
176
     1
 64
     7
176
     1
 65
   257
176
     1
 75
     1
176
     1
175
     1
176
     1
 42
1.0
176
     1
 92
        8
176
     1
 66
     7
176
     1
 43
1.0
176
     1
 76
     1
176
     1
 77
     6
176
     1
 78
     2
176
     1
 67
     7
176
     1
 79
     5
176
     1
170
     0
176
     1
171
     0
176
     1
290
     0
176
     1
 93
        1
176
     1
 44
0.0
176
     1
173
     0
176
     1
  0
VISUALSTYLE
  5
36
102
{ACAD_REACTORS
330
2A
102
}
330
2A
100
AcDbVisualStyle
  2
Brighten
 70
    12
177
     2
291
     1
 71
     2
176
     1
 72
     2
176
     1
 73
     0
176
     1
 90
        0
176
     1
 40
-0.6
176
     1
 41
-30.0
176
     1
 62
     5
 63
     7
421
 16777215
176
     1
 74
     1
176
     1
 91
        4
176
     1
 64
     7
176
     1
 65
   257
176
     1
 75
     1
176
     1
175
     1
176
     1
 42
1.0
176
     1
 92
        8
176
     1
 66
     7
176
     1
 43
1.0
176
     1
 76
     1
176
     1
 77
     6
176
     1
 78
     2
176
     1
 67
     7
176
     1
 79
     5
176
     1
170
     0
176
     1
171
     0
176
     1
290
     0
176
     1
 93
        1
176
     1
 44
50.0
176
     1
173
     0
176
     1
  0
VISUALSTYLE
  5
3A
102
{ACAD_REACTORS
330
2A
102
}
330
2A
100
AcDbVisualStyle
  2
ColorChange
 70
    16
177
     2
291
     1
 71
     2
176
     1
 72
     2
176
     1
 73
     3
176
     1
 90
        0
176
     1
 40
-0.6
176
     1
 41
-30.0
176
     1
 62
     5
 63
     8
421
  8421504
176
     1
 74
     1
176
     1
 91
        4
176
     1
 64
     7
176
     1
 65
   257
176
     1
 75
     1
176
     1
175
     1
176
     1
 42
1.0
176
     1
 92
        8
176
     1
 66
     8
424
  8421504
176
     1
 43
1.0
176
     1
 76
     1
176
     1
 77
     6
176
     1
 78
     2
176
     1
 67
     7
176
     1
 79
     5
176
     1
170
     0
176
     1
171
     0
176
     1
290
     0
176
     1
 93
        1
176
     1
 44
0.0
176
     1
173
     0
176
     1
  0
VISUALSTYLE
  5
34
102
{ACAD_REACTORS
330
2A
102
}
330
2A
100
AcDbVisualStyle
  2
Conceptual
 70
     9
177
     2
291
     0
 71
     3
176
     1
 72
     2
176
     1
 73
     0
176
     1
 90
        0
176
     1
 40
-0.6
176
     1
 41
-30.0
176
     1
 62
     5
 63
     7
421
 16777215
176
     1
 74
     2
176
     1
 91
        2
176
     1
 64
     7
176
     1
 65
   257
176
     1
 75
     1
176
     1
175
     1
176
     1
 42
40.0
176
     1
 92
        8
176
     1
 66
     7
176
     1
 43
1.0
176
     1
 76
     1
176
     1
 77
     6
176
     1
 78
     2
176
     1
 67
     7
176
     1
 79
     3
176
     1
170
     0
176
     1
171
     0
176
     1
290
     0
176
     1
 93
        1
176
     1
 44
0.0
176
     1
173
     0
176
     1
  0
VISUALSTYLE
  5
35
102
{ACAD_REACTORS
330
2A
102
}
330
2A
100
AcDbVisualStyle
  2
Dim
 70
    11
177
     2
291
     1
 71
     2
176
     1
 72
     2
176
     1
 73
     0
176
     1
 90
        0
176
     1
 40
-0.6
176
     1
 41
-30.0
176
     1
 62
     5
 63
     7
421
 16777215
176
     1
 74
     1
176
     1
 91
        4
176
     1
 64
     7
176
     1
 65
   257
176
     1
 75
     1
176
     1
175
     1
176
     1
 42
1.0
176
     1
 92
        8
176
     1
 66
     7
176
     1
 43
1.0
176
     1
 76
     1
176
     1
 77
     6
176
     1
 78
     2
176
     1
 67
     7
176
     1
 79
     5
176
     1
170
     0
176
     1
171
     0
176
     1
290
     0
176
     1
 93
        1
176
     1
 44
-50.0
176
     1
173
     0
176
     1
  0
VISUALSTYLE
  5
39
102
{ACAD_REACTORS
330
2A
102
}
330
2A
100
AcDbVisualStyle
  2
Facepattern
 70
    15
177
     2
291
     1
 71
     2
176
     1
 72
     2
176
     1
 73
     0
176
     1
 90
        0
176
     1
 40
-0.6
176
     1
 41
-30.0
176
     1
 62
     5
 63
     7
421
 16777215
176
     1
 74
     1
176
     1
 91
        4
176
     1
 64
     7
176
     1
 65
   257
176
     1
 75
     1
176
     1
175
     1
176
     1
 42
1.0
176
     1
 92
        8
176
     1
 66
     7
176
     1
 43
1.0
176
     1
 76
     1
176
     1
 77
     6
176
     1
 78
     2
176
     1
 67
     7
176
     1
 79
     5
176
     1
170
     0
176
     1
171
     0
176
     1
290
     0
176
     1
 93
        1
176
     1
 44
0.0
176
     1
173
     0
176
     1
  0
VISUALSTYLE
  5
2B
102
{ACAD_REACTORS
330
2A
102
}
330
2A
100
AcDbVisualStyle
  2
Flat
 70
     0
177
     2
291
     1
 71
     2
176
     1
 72
     1
176
     1
 73
     1
176
     1
 90
        2
176
     1
 40
-0.6
176
     1
 41
30.0
176
     1
 62
     5
 63
     7
421
 16777215
176
     1
 74
     0
176
     1
 91
        4
176
     1
 64
     7
176
     1
 65
   257
176
     1
 75
     1
176
     1
175
     1
176
     1
 42
1.0
176
     1
 92
        8
176
     1
 66
     7
176
     1
 43
1.0
176
     1
 76
     1
176
     1
 77
     6
176
     1
 78
     2
176
     1
 67
     7
176
     1
 79
     5
176
     1
170
     0
176
     1
171
     0
176
     1
290
     0
176
     1
 93
       13
176
     1
 44
0.0
176
     1
173
     0
176
     1
  0
VISUALSTYLE
  5
2C
102
{ACAD_REACTORS
330
2A
102
}
330
2A
100
AcDbVisualStyle
  2
FlatWithEdges
 70
     1
177
     2
291
     1
 71
     2
176
     1
 72
     1
176
     1
 73
     1
176
     1
 90
        2
176
     1
 40
-0.6
176
     1
 41
30.0
176
     1
 62
     5
 63
     7
421
 16777215
176
     1
 74
     1
176
     1
 91
        4
176
     1
 64
     7
176
     1
 65
   257
176
     1
 75
     1
176
     1
175
     1
176
     1
 42
1.0
176
     1
 92
        0
176
     1
 66
   257
176
     1
 43
1.0
176
     1
 76
     1
176
     1
 77
     6
176
     1
 78
     2
176
     1
 67
     7
176
     1
 79
     5
176
     1
170
     0
176
     1
171
     0
176
     1
290
     0
176
     1
 93
       13
176
     1
 44
0.0
176
     1
173
     0
176
     1
  0
VISUALSTYLE
  5
2D
102
{ACAD_REACTORS
330
2A
102
}
330
2A
100
AcDbVisualStyle
  2
Gouraud
 70
     2
177
     2
291
     1
 71
     2
176
     1
 72
     2
176
     1
 73
     1
176
     1
 90
        2
176
     1
 40
-0.6
176
     1
 41
30.0
176
     1
 62
     5
 63
     7
421
 16777215
176
     1
 74
     0
176
     1
 91
        4
176
     1
 64
     7
176
     1
 65
   257
176
     1
 75
     1
176
     1
175
     1
176
     1
 42
1.0
176
     1
 92
        0
176
     1
 66
     7
176
     1
 43
1.0
176
     1
 76
     1
176
     1
 77
     6
176
     1
 78
     2
176
     1
 67
     7
176
     1
 79
     5
176
     1
170
     0
176
     1
171
     0
176
     1
290
     0
176
     1
 93
       13
176
     1
 44
0.0
176
     1
173
     0
176
     1
  0
VISUALSTYLE
  5
2E
102
{ACAD_REACTORS
330
2A
102
}
330
2A
100
AcDbVisualStyle
  2
GouraudWithEdges
 70
     3
177
     2
291
     1
 71
     2
176
     1
 72
     2
176
     1
 73
     1
176
     1
 90
        2
176
     1
 40
-0.6
176
     1
 41
30.0
176
     1
 62
     5
 63
     7
421
 16777215
176
     1
 74
     1
176
     1
 91
        4
176
     1
 64
     7
176
     1
 65
   257
176
     1
 75
     1
176
     1
175
     1
176
     1
 42
1.0
176
     1
 92
        0
176
     1
 66
   257
176
     1
 43
1.0
176
     1
 76
     1
176
     1
 77
     6
176
     1
 78
     2
176
     1
 67
     7
176
     1
 79
     5
176
     1
170
     0
176
     1
171
     0
176
     1
290
     0
176
     1
 93
       13
176
     1
 44
0.0
176
     1
173
     0
176
     1
  0
VISUALSTYLE
  5
38
102
{ACAD_REACTORS
330
2A
102
}
330
2A
100
AcDbVisualStyle
  2
Linepattern
 70
    14
177
     2
291
     1
 71
     2
176
     1
 72
     2
176
     1
 73
     0
176
     1
 90
        0
176
     1
 40
-0.6
176
     1
 41
-30.0
176
     1
 62
     5
 63
     7
421
 16777215
176
     1
 74
     1
176
     1
 91
        4
176
     1
 64
     7
176
     1
 65
   257
176
     1
 75
     7
176
     1
175
     7
176
     1
 42
1.0
176
     1
 92
        8
176
     1
 66
     7
176
     1
 43
1.0
176
     1
 76
     1
176
     1
 77
     6
176
     1
 78
     2
176
     1
 67
     7
176
     1
 79
     5
176
     1
170
     0
176
     1
171
     0
176
     1
290
     0
176
     1
 93
        1
176
     1
 44
0.0
176
     1
173
     0
176
     1
  0
VISUALSTYLE
  5
33
102
{ACAD_REACTORS
330
2A
102
}
330
2A
100
AcDbVisualStyle
  2
Realistic
 70
     8
177
     2
291
     0
 71
     2
176
     1
 72
     2
176
     1
 73
     0
176
     1
 90
        0
176
     1
 40
-0.6
176
     1
 41
-30.0
176
     1
 62
     5
 63
     7
421
 16777215
176
     1
 74
     1
176
     1
 91
        0
176
     1
 64
     7
176
     1
 65
   257
176
     1
 75
     1
176
     1
175
     1
176
     1
 42
1.0
176
     1
 92
        8
176
     1
 66
     8
424
  7895160
176
     1
 43
1.0
176
     1
 76
     1
176
     1
 77
     6
176
     1
 78
     2
176
     1
 67
     7
176
     1
 79
     5
176
     1
170
     0
176
     1
171
     0
176
     1
290
     0
176
     1
 93
       13
176
     1
 44
0.0
176
     1
173
     0
176
     1
  0
VISUALSTYLE
  5
37
102
{ACAD_REACTORS
330
2A
102
}
330
2A
100
AcDbVisualStyle
  2
Thicken
 70
    13
177
     2
291
     1
 71
     2
176
     1
 72
     2
176
     1
 73
     0
176
     1
 90
        0
176
     1
 40
-0.6
176
     1
 41
-30.0
176
     1
 62
     5
 63
     7
421
 16777215
176
     1
 74
     1
176
     1
 91
        4
176
     1
 64
     7
176
     1
 65
   257
176
     1
 75
     1
176
     1
175
     1
176
     1
 42
1.0
176
     1
 92
       12
176
     1
 66
     7
176
     1
 43
1.0
176
     1
 76
     1
176
     1
 77
     6
176
     1
 78
     2
176
     1
 67
     7
176
     1
 79
     5
176
     1
170
     0
176
     1
171
     0
176
     1
290
     0
176
     1
 93
        1
176
     1
 44
0.0
176
     1
173
     0
176
     1
  0
ENDSEC
  0
EOF
